  0
SECTION
  2
HEADER
  9
$ACADVER
  1
AC1032
  9
$ACADMAINTVER
 90
      197
  9
$DWGCODEPAGE
  3
ANSI_1252
  9
$LASTSAVEDBY
  1
gregb
  9
$REQUIREDVERSIONS
160
                 0
  9
$INSBASE
 10
0.0
 20
0.0
 30
0.0
  9
$EXTMIN
 10
168849.3068180098
 20
106392.3043051745
 30
0.0
  9
$EXTMAX
 10
169049.7236481274
 20
106587.8027381533
 30
0.0
  9
$LIMMIN
 10
0.0
 20
0.0
  9
$LIMMAX
 10
12.0
 20
9.0
  9
$ORTHOMODE
 70
     0
  9
$REGENMODE
 70
     1
  9
$FILLMODE
 70
     1
  9
$QTEXTMODE
 70
     0
  9
$MIRRTEXT
 70
     0
  9
$LTSCALE
 40
1.0
  9
$ATTMODE
 70
     1
  9
$TEXTSIZE
 40
0.2
  9
$TRACEWID
 40
0.05
  9
$TEXTSTYLE
  7
Standard
  9
$CLAYER
  8
freecads.com
  9
$CELTYPE
  6
ByLayer
  9
$CECOLOR
 62
   256
  9
$CELTSCALE
 40
1.0
  9
$DISPSILH
 70
     1
  9
$DIMSCALE
 40
1.0
  9
$DIMASZ
 40
0.18
  9
$DIMEXO
 40
0.0625
  9
$DIMDLI
 40
0.38
  9
$DIMRND
 40
0.0
  9
$DIMDLE
 40
0.0
  9
$DIMEXE
 40
0.18
  9
$DIMTP
 40
0.0
  9
$DIMTM
 40
0.0
  9
$DIMTXT
 40
0.18
  9
$DIMCEN
 40
0.09
  9
$DIMTSZ
 40
0.0
  9
$DIMTOL
 70
     0
  9
$DIMLIM
 70
     0
  9
$DIMTIH
 70
     1
  9
$DIMTOH
 70
     1
  9
$DIMSE1
 70
     0
  9
$DIMSE2
 70
     0
  9
$DIMTAD
 70
     0
  9
$DIMZIN
 70
     0
  9
$DIMBLK
  1

  9
$DIMASO
 70
     1
  9
$DIMSHO
 70
     1
  9
$DIMPOST
  1

  9
$DIMAPOST
  1

  9
$DIMALT
 70
     0
  9
$DIMALTD
 70
     2
  9
$DIMALTF
 40
25.4
  9
$DIMLFAC
 40
1.0
  9
$DIMTOFL
 70
     0
  9
$DIMTVP
 40
0.0
  9
$DIMTIX
 70
     0
  9
$DIMSOXD
 70
     0
  9
$DIMSAH
 70
     0
  9
$DIMBLK1
  1

  9
$DIMBLK2
  1

  9
$DIMSTYLE
  2
Standard
  9
$DIMCLRD
 70
     0
  9
$DIMCLRE
 70
     0
  9
$DIMCLRT
 70
     0
  9
$DIMTFAC
 40
1.0
  9
$DIMGAP
 40
0.09
  9
$DIMJUST
 70
     0
  9
$DIMSD1
 70
     0
  9
$DIMSD2
 70
     0
  9
$DIMTOLJ
 70
     1
  9
$DIMTZIN
 70
     0
  9
$DIMALTZ
 70
     0
  9
$DIMALTTZ
 70
     0
  9
$DIMUPT
 70
     0
  9
$DIMDEC
 70
     4
  9
$DIMTDEC
 70
     4
  9
$DIMALTU
 70
     2
  9
$DIMALTTD
 70
     2
  9
$DIMTXSTY
  7
Standard
  9
$DIMAUNIT
 70
     0
  9
$DIMADEC
 70
     0
  9
$DIMALTRND
 40
0.0
  9
$DIMAZIN
 70
     0
  9
$DIMDSEP
 70
    46
  9
$DIMATFIT
 70
     3
  9
$DIMFRAC
 70
     0
  9
$DIMLDRBLK
  1

  9
$DIMLUNIT
 70
     2
  9
$DIMLWD
 70
    -2
  9
$DIMLWE
 70
    -2
  9
$DIMTMOVE
 70
     0
  9
$DIMFXL
 40
1.0
  9
$DIMFXLON
 70
     0
  9
$DIMJOGANG
 40
0.7853981633974483
  9
$DIMTFILL
 70
     0
  9
$DIMTFILLCLR
 70
     0
  9
$DIMARCSYM
 70
     0
  9
$DIMLTYPE
  6

  9
$DIMLTEX1
  6

  9
$DIMLTEX2
  6

  9
$DIMTXTDIRECTION
 70
     0
  9
$LUNITS
 70
     2
  9
$LUPREC
 70
     4
  9
$SKETCHINC
 40
0.1
  9
$FILLETRAD
 40
0.0
  9
$AUNITS
 70
     0
  9
$AUPREC
 70
     0
  9
$MENU
  1
.
  9
$ELEVATION
 40
0.0
  9
$PELEVATION
 40
0.0
  9
$THICKNESS
 40
0.0
  9
$LIMCHECK
 70
     0
  9
$CHAMFERA
 40
0.0
  9
$CHAMFERB
 40
0.0
  9
$CHAMFERC
 40
0.0
  9
$CHAMFERD
 40
0.0
  9
$SKPOLY
 70
     0
  9
$TDCREATE
 40
2458157.454583334
  9
$TDUCREATE
 40
2458157.287916667
  9
$TDUPDATE
 40
2460670.441701389
  9
$TDUUPDATE
 40
2460670.275034722
  9
$TDINDWG
 40
0.2395717593
  9
$TDUSRTIMER
 40
0.2395717593
  9
$USRTIMER
 70
     1
  9
$ANGBASE
 50
0.0
  9
$ANGDIR
 70
     0
  9
$PDMODE
 70
     0
  9
$PDSIZE
 40
0.0
  9
$PLINEWID
 40
0.0
  9
$SPLFRAME
 70
     0
  9
$SPLINETYPE
 70
     6
  9
$SPLINESEGS
 70
     8
  9
$HANDSEED
  5
82517
  9
$SURFTAB1
 70
     6
  9
$SURFTAB2
 70
     6
  9
$SURFTYPE
 70
     6
  9
$SURFU
 70
     6
  9
$SURFV
 70
     6
  9
$UCSBASE
  2

  9
$UCSNAME
  2

  9
$UCSORG
 10
0.0
 20
0.0
 30
0.0
  9
$UCSXDIR
 10
1.0
 20
0.0
 30
0.0
  9
$UCSYDIR
 10
0.0
 20
1.0
 30
0.0
  9
$UCSORTHOREF
  2

  9
$UCSORTHOVIEW
 70
     0
  9
$UCSORGTOP
 10
0.0
 20
0.0
 30
0.0
  9
$UCSORGBOTTOM
 10
0.0
 20
0.0
 30
0.0
  9
$UCSORGLEFT
 10
0.0
 20
0.0
 30
0.0
  9
$UCSORGRIGHT
 10
0.0
 20
0.0
 30
0.0
  9
$UCSORGFRONT
 10
0.0
 20
0.0
 30
0.0
  9
$UCSORGBACK
 10
0.0
 20
0.0
 30
0.0
  9
$PUCSBASE
  2

  9
$PUCSNAME
  2

  9
$PUCSORG
 10
0.0
 20
0.0
 30
0.0
  9
$PUCSXDIR
 10
1.0
 20
0.0
 30
0.0
  9
$PUCSYDIR
 10
0.0
 20
1.0
 30
0.0
  9
$PUCSORTHOREF
  2

  9
$PUCSORTHOVIEW
 70
     0
  9
$PUCSORGTOP
 10
0.0
 20
0.0
 30
0.0
  9
$PUCSORGBOTTOM
 10
0.0
 20
0.0
 30
0.0
  9
$PUCSORGLEFT
 10
0.0
 20
0.0
 30
0.0
  9
$PUCSORGRIGHT
 10
0.0
 20
0.0
 30
0.0
  9
$PUCSORGFRONT
 10
0.0
 20
0.0
 30
0.0
  9
$PUCSORGBACK
 10
0.0
 20
0.0
 30
0.0
  9
$USERI1
 70
     0
  9
$USERI2
 70
     0
  9
$USERI3
 70
     0
  9
$USERI4
 70
     0
  9
$USERI5
 70
     0
  9
$USERR1
 40
0.0
  9
$USERR2
 40
0.0
  9
$USERR3
 40
0.0
  9
$USERR4
 40
0.0
  9
$USERR5
 40
0.0
  9
$WORLDVIEW
 70
     1
  9
$SHADEDGE
 70
     3
  9
$SHADEDIF
 70
    70
  9
$TILEMODE
 70
     1
  9
$MAXACTVP
 70
    64
  9
$PINSBASE
 10
0.0
 20
0.0
 30
0.0
  9
$PLIMCHECK
 70
     0
  9
$PEXTMIN
 10
0.0
 20
0.0
 30
0.0
  9
$PEXTMAX
 10
0.0
 20
0.0
 30
0.0
  9
$PLIMMIN
 10
0.0
 20
0.0
  9
$PLIMMAX
 10
12.0
 20
9.0
  9
$UNITMODE
 70
     0
  9
$VISRETAIN
 70
     1
  9
$PLINEGEN
 70
     0
  9
$PSLTSCALE
 70
     1
  9
$TREEDEPTH
 70
  3020
  9
$CMLSTYLE
  2
Standard
  9
$CMLJUST
 70
     0
  9
$CMLSCALE
 40
1.0
  9
$PROXYGRAPHICS
 70
     1
  9
$MEASUREMENT
 70
     0
  9
$CELWEIGHT
370
    -1
  9
$ENDCAPS
280
     0
  9
$JOINSTYLE
280
     0
  9
$LWDISPLAY
290
     0
  9
$INSUNITS
 70
     1
  9
$HYPERLINKBASE
  1

  9
$STYLESHEET
  1
monochrome.ctb
  9
$XEDIT
290
     1
  9
$CEPSNTYPE
380
     0
  9
$PSTYLEMODE
290
     1
  9
$FINGERPRINTGUID
  2
{358EB121-6EE0-9143-8A3E-6E8E8869FDA6}
  9
$VERSIONGUID
  2
{F1644663-4169-8141-9269-4DB1AD6A4CF7}
  9
$EXTNAMES
290
     1
  9
$PSVPSCALE
 40
0.0
  9
$OLESTARTUP
290
     0
  9
$SORTENTS
280
   127
  9
$INDEXCTL
280
     0
  9
$HIDETEXT
280
     1
  9
$XCLIPFRAME
280
     2
  9
$HALOGAP
280
     0
  9
$OBSCOLOR
 70
   257
  9
$OBSLTYPE
280
     0
  9
$INTERSECTIONDISPLAY
280
     0
  9
$INTERSECTIONCOLOR
 70
   257
  9
$DIMASSOC
280
     2
  9
$PROJECTNAME
  1

  9
$CAMERADISPLAY
290
     0
  9
$LENSLENGTH
 40
50.0
  9
$CAMERAHEIGHT
 40
0.0
  9
$STEPSPERSEC
 40
2.0
  9
$STEPSIZE
 40
6.0
  9
$3DDWFPREC
 40
2.0
  9
$PSOLWIDTH
 40
0.25
  9
$PSOLHEIGHT
 40
4.0
  9
$LOFTANG1
 40
1.570796326794896
  9
$LOFTANG2
 40
1.570796326794896
  9
$LOFTMAG1
 40
0.0
  9
$LOFTMAG2
 40
0.0
  9
$LOFTPARAM
 70
     7
  9
$LOFTNORMALS
280
     1
  9
$LATITUDE
 40
37.795
  9
$LONGITUDE
 40
-122.394
  9
$NORTHDIRECTION
 40
0.0
  9
$TIMEZONE
 70
 -8000
  9
$LIGHTGLYPHDISPLAY
280
     1
  9
$TILEMODELIGHTSYNCH
280
     1
  9
$CMATERIAL
347
96
  9
$SOLIDHIST
280
     0
  9
$SHOWHIST
280
     1
  9
$DWFFRAME
280
     2
  9
$DGNFRAME
280
     0
  9
$REALWORLDSCALE
290
     1
  9
$INTERFERECOLOR
 62
     1
  9
$INTERFEREOBJVS
345
A3
  9
$INTERFEREVPVS
346
A0
  9
$CSHADOW
280
     0
  9
$SHADOWPLANELOCATION
 40
0.0
  0
ENDSEC
  0
SECTION
  2
CLASSES
  0
CLASS
  1
ACDBDICTIONARYWDFLT
  2
AcDbDictionaryWithDefault
  3
ObjectDBX Classes
 90
        0
 91
        1
280
     0
281
     0
  0
CLASS
  1
DICTIONARYVAR
  2
AcDbDictionaryVar
  3
ObjectDBX Classes
 90
        0
 91
       27
280
     0
281
     0
  0
CLASS
  1
TABLESTYLE
  2
AcDbTableStyle
  3
ObjectDBX Classes
 90
     4095
 91
        1
280
     0
281
     0
  0
CLASS
  1
MATERIAL
  2
AcDbMaterial
  3
ObjectDBX Classes
 90
     1153
 91
        3
280
     0
281
     0
  0
CLASS
  1
VISUALSTYLE
  2
AcDbVisualStyle
  3
ObjectDBX Classes
 90
     4095
 91
       25
280
     0
281
     0
  0
CLASS
  1
SCALE
  2
AcDbScale
  3
ObjectDBX Classes
 90
     1153
 91
       34
280
     0
281
     0
  0
CLASS
  1
MLEADERSTYLE
  2
AcDbMLeaderStyle
  3
ACDB_MLEADERSTYLE_CLASS
 90
     4095
 91
        1
280
     0
281
     0
  0
CLASS
  1
CELLSTYLEMAP
  2
AcDbCellStyleMap
  3
ObjectDBX Classes
 90
     1152
 91
        1
280
     0
281
     0
  0
CLASS
  1
EXACXREFPANELOBJECT
  2
ExAcXREFPanelObject
  3
EXAC_ESW
 90
     1025
 91
        1
280
     0
281
     0
  0
CLASS
  1
NPOCOLLECTION
  2
AcDbImpNonPersistentObjectsCollection
  3
ObjectDBX Classes
 90
     1153
 91
        1
280
     0
281
     0
  0
CLASS
  1
LAYER_INDEX
  2
AcDbLayerIndex
  3
ObjectDBX Classes
 90
        0
 91
        0
280
     0
281
     0
  0
CLASS
  1
SPATIAL_INDEX
  2
AcDbSpatialIndex
  3
ObjectDBX Classes
 90
        0
 91
        0
280
     0
281
     0
  0
CLASS
  1
IDBUFFER
  2
AcDbIdBuffer
  3
ObjectDBX Classes
 90
        0
 91
        0
280
     0
281
     0
  0
CLASS
  1
ACDBSECTIONVIEWSTYLE
  2
AcDbSectionViewStyle
  3
ObjectDBX Classes
 90
     1025
 91
        2
280
     0
281
     0
  0
CLASS
  1
ACDBDETAILVIEWSTYLE
  2
AcDbDetailViewStyle
  3
ObjectDBX Classes
 90
     1025
 91
        2
280
     0
281
     0
  0
CLASS
  1
SORTENTSTABLE
  2
AcDbSortentsTable
  3
ObjectDBX Classes
 90
        0
 91
        1
280
     0
281
     0
  0
CLASS
  1
ACAD_EVALUATION_GRAPH
  2
AcDbEvalGraph
  3
ObjectDBX Classes
 90
     1153
 91
        0
280
     0
281
     0
  0
CLASS
  1
BLOCKLINEARPARAMETER
  2
AcDbBlockLinearParameter
  3
ObjectDBX Classes
 90
     1153
 91
        0
280
     0
281
     0
  0
CLASS
  1
BLOCKLINEARGRIP
  2
AcDbBlockLinearGrip
  3
ObjectDBX Classes
 90
     1153
 91
        0
280
     0
281
     0
  0
CLASS
  1
BLOCKGRIPLOCATIONCOMPONENT
  2
AcDbBlockGripExpr
  3
ObjectDBX Classes
 90
     1153
 91
        0
280
     0
281
     0
  0
CLASS
  1
BLOCKSTRETCHACTION
  2
AcDbBlockStretchAction
  3
ObjectDBX Classes
 90
     1153
 91
        0
280
     0
281
     0
  0
CLASS
  1
ACDB_DYNAMICBLOCKPURGEPREVENTER_VERSION
  2
AcDbDynamicBlockPurgePreventer
  3
ObjectDBX Classes
 90
     1153
 91
        0
280
     0
281
     0
  0
CLASS
  1
BLOCKVISIBILITYPARAMETER
  2
AcDbBlockVisibilityParameter
  3
ObjectDBX Classes
 90
     1153
 91
        0
280
     0
281
     0
  0
CLASS
  1
BLOCKVISIBILITYGRIP
  2
AcDbBlockVisibilityGrip
  3
ObjectDBX Classes
 90
     1153
 91
        0
280
     0
281
     0
  0
CLASS
  1
ACDB_BLOCKREPRESENTATION_DATA
  2
AcDbBlockRepresentationData
  3
ObjectDBX Classes
 90
     1153
 91
        0
280
     0
281
     0
  0
CLASS
  1
SURFACE
  2
AcDbSurface
  3
ObjectDBX Classes
 90
     4095
 91
        0
280
     0
281
     1
  0
CLASS
  1
ACDBASSOCPERSSUBENTMANAGER
  2
AcDbAssocPersSubentManager
  3
ObjectDBX Classes
 90
     1024
 91
        1
280
     0
281
     0
  0
CLASS
  1
BLOCKARRAYACTION
  2
AcDbBlockArrayAction
  3
ObjectDBX Classes
 90
     1153
 91
        0
280
     0
281
     0
  0
CLASS
  1
BLOCKLOOKUPPARAMETER
  2
AcDbBlockLookupParameter
  3
ObjectDBX Classes
 90
     1153
 91
        0
280
     0
281
     0
  0
CLASS
  1
BLOCKLOOKUPGRIP
  2
AcDbBlockLookupGrip
  3
ObjectDBX Classes
 90
     1153
 91
        0
280
     0
281
     0
  0
CLASS
  1
BLOCKLOOKUPACTION
  2
AcDbBlockLookupAction
  3
ObjectDBX Classes
 90
     1153
 91
        0
280
     0
281
     0
  0
CLASS
  1
WIPEOUT
  2
AcDbWipeout
  3
WipeOut|Product Desc: Object Enabler for WipeOut entity | Company: Autodesk, Inc. | WEB Address: www.autodesk.com
 90
     2175
 91
        0
280
     0
281
     1
  0
CLASS
  1
WIPEOUTVARIABLES
  2
AcDbWipeoutVariables
  3
"WipeOut|Product Desc:     WipeOut Dbx Application|Company:          Autodesk, Inc.|WEB Address:      www.autodesk.com"
 90
        0
 91
        1
280
     0
281
     0
  0
ENDSEC
  0
SECTION
  2
TABLES
  0
TABLE
  2
VPORT
  5
8
330
0
100
AcDbSymbolTable
 70
     1
  0
VPORT
  5
94
330
8
100
AcDbSymbolTableRecord
100
AcDbViewportTableRecord
  2
*Active
 70
     0
 10
0.0
 20
0.0
 11
1.0
 21
1.0
 12
169016.8456443688
 22
106504.4798562908
 13
0.0
 23
0.0
 14
0.5
 24
0.5
 15
0.5
 25
0.5
 16
0.0
 26
0.0
 36
1.0
 17
0.0
 27
0.0
 37
0.0
 40
502.9573139717739
 41
2.293369663941871
 42
50.0
 43
0.0
 44
0.0
 50
0.0
 51
0.0
 71
     0
 72
  1000
 73
     1
 74
     3
 75
     0
 76
     0
 77
     0
 78
     0
281
     0
 65
     1
110
0.0
120
0.0
130
0.0
111
1.0
121
0.0
131
0.0
112
0.0
122
1.0
132
0.0
 79
     0
146
0.0
348
9F
 60
     3
 61
     5
292
     1
282
     1
141
0.0
142
0.0
 63
   250
421
  3355443
1001
ACAD_NAV_VCDISPLAY
1070
     3
  0
ENDTAB
  0
TABLE
  2
LTYPE
  5
5
330
0
100
AcDbSymbolTable
 70
     1
  0
LTYPE
  5
14
330
5
100
AcDbSymbolTableRecord
100
AcDbLinetypeTableRecord
  2
ByBlock
 70
     0
  3

 72
    65
 73
     0
 40
0.0
  0
LTYPE
  5
15
330
5
100
AcDbSymbolTableRecord
100
AcDbLinetypeTableRecord
  2
ByLayer
 70
     0
  3

 72
    65
 73
     0
 40
0.0
  0
LTYPE
  5
16
330
5
100
AcDbSymbolTableRecord
100
AcDbLinetypeTableRecord
  2
Continuous
 70
     0
  3
Solid line
 72
    65
 73
     0
 40
0.0
  0
ENDTAB
  0
TABLE
  2
LAYER
  5
2
102
{ACAD_XDICTIONARY
360
18E
102
}
330
0
100
AcDbSymbolTable
 70
     2
  0
LAYER
  5
10
102
{ACAD_XDICTIONARY
360
E6
102
}
330
2
100
AcDbSymbolTableRecord
100
AcDbLayerTableRecord
  2
0
 70
     0
 62
     7
  6
Continuous
370
    -3
390
F
347
98
348
0
  0
LAYER
  5
204
330
2
100
AcDbSymbolTableRecord
100
AcDbLayerTableRecord
  2
freecads.com
 70
     0
 62
     7
  6
Continuous
370
    -3
390
F
347
98
348
0
1001
AcAecLayerStandard
1000

1000

1001
AcCmTransparency
1071
        0
  0
ENDTAB
  0
TABLE
  2
STYLE
  5
3
330
0
100
AcDbSymbolTable
 70
     2
  0
STYLE
  5
11
330
3
100
AcDbSymbolTableRecord
100
AcDbTextStyleTableRecord
  2
Standard
 70
     0
 40
0.0
 41
1.0
 50
0.0
 71
     0
 42
0.2
  3
arial.ttf
  4

1001
ACAD
1000
Arial
1071
       34
  0
ENDTAB
  0
TABLE
  2
VIEW
  5
6
330
0
100
AcDbSymbolTable
 70
     0
  0
ENDTAB
  0
TABLE
  2
UCS
  5
7
330
0
100
AcDbSymbolTable
 70
     0
  0
ENDTAB
  0
TABLE
  2
APPID
  5
9
330
0
100
AcDbSymbolTable
 70
    32
  0
APPID
  5
12
330
9
100
AcDbSymbolTableRecord
100
AcDbRegAppTableRecord
  2
ACAD
 70
     0
  0
APPID
  5
DD
330
9
100
AcDbSymbolTableRecord
100
AcDbRegAppTableRecord
  2
AcadAnnoPO
 70
     0
  0
APPID
  5
DE
330
9
100
AcDbSymbolTableRecord
100
AcDbRegAppTableRecord
  2
AcadAnnotative
 70
     0
  0
APPID
  5
DF
330
9
100
AcDbSymbolTableRecord
100
AcDbRegAppTableRecord
  2
ACAD_DSTYLE_DIMJAG
 70
     0
  0
APPID
  5
E0
330
9
100
AcDbSymbolTableRecord
100
AcDbRegAppTableRecord
  2
ACAD_DSTYLE_DIMTALN
 70
     0
  0
APPID
  5
107
330
9
100
AcDbSymbolTableRecord
100
AcDbRegAppTableRecord
  2
ACAD_MLEADERVER
 70
     0
  0
APPID
  5
1A6
330
9
100
AcDbSymbolTableRecord
100
AcDbRegAppTableRecord
  2
ACAD_NAV_VCDISPLAY
 70
     0
  0
APPID
  5
205
330
9
100
AcDbSymbolTableRecord
100
AcDbRegAppTableRecord
  2
AcAecLayerStandard
 70
     0
  0
APPID
  5
206
330
9
100
AcDbSymbolTableRecord
100
AcDbRegAppTableRecord
  2
AcCmTransparency
 70
     0
  0
APPID
  5
222
330
9
100
AcDbSymbolTableRecord
100
AcDbRegAppTableRecord
  2
ACAD_PSEXT
 70
     0
  0
APPID
  5
2DA
330
9
100
AcDbSymbolTableRecord
100
AcDbRegAppTableRecord
  2
GradientColor1ACI
 70
     0
  0
APPID
  5
2DB
330
9
100
AcDbSymbolTableRecord
100
AcDbRegAppTableRecord
  2
GradientColor2ACI
 70
     0
  0
APPID
  5
2F3
330
9
100
AcDbSymbolTableRecord
100
AcDbRegAppTableRecord
  2
ACAD_EXEMPT_FROM_CAD_STANDARDS
 70
     0
  0
APPID
  5
A1A
330
9
100
AcDbSymbolTableRecord
100
AcDbRegAppTableRecord
  2
AcDbBlockRepETag
 70
     0
  0
APPID
  5
2282
330
9
100
AcDbSymbolTableRecord
100
AcDbRegAppTableRecord
  2
RAK
 70
     0
  0
APPID
  5
39F4
330
9
100
AcDbSymbolTableRecord
100
AcDbRegAppTableRecord
  2
ACAD_DSTYLE_DIMJOGGED_JOGANGLE_SYMBOL
 70
     0
  0
APPID
  5
39F5
330
9
100
AcDbSymbolTableRecord
100
AcDbRegAppTableRecord
  2
AcDbDynamicBlockGUID
 70
     0
  0
APPID
  5
39F6
330
9
100
AcDbSymbolTableRecord
100
AcDbRegAppTableRecord
  2
ACAD_DSTYLE_DIMBREAK
 70
     0
  0
APPID
  5
3B59
330
9
100
AcDbSymbolTableRecord
100
AcDbRegAppTableRecord
  2
AEC_XDATA_BOUND_SPACE
 70
     0
  0
APPID
  5
75C5
330
9
100
AcDbSymbolTableRecord
100
AcDbRegAppTableRecord
  2
AcDbDynamicBlockTrueName
 70
     0
  0
APPID
  5
75C6
330
9
100
AcDbSymbolTableRecord
100
AcDbRegAppTableRecord
  2
AcDbBlockRepBTag
 70
     0
  0
APPID
  5
75C7
330
9
100
AcDbSymbolTableRecord
100
AcDbRegAppTableRecord
  2
ACAUTHENVIRON
 70
     0
  0
APPID
  5
AA90
330
9
100
AcDbSymbolTableRecord
100
AcDbRegAppTableRecord
  2
Acad_TC
 70
     0
  0
APPID
  5
AA9C
330
9
100
AcDbSymbolTableRecord
100
AcDbRegAppTableRecord
  2
AcDbBlockArrayActionTag
 70
     0
  0
APPID
  5
BEE4
330
9
100
AcDbSymbolTableRecord
100
AcDbRegAppTableRecord
  2
ACAD_DSTYLE_DIMTEXT_FILL
 70
     0
  0
APPID
  5
219E5
330
9
100
AcDbSymbolTableRecord
100
AcDbRegAppTableRecord
  2
AECLAY
 70
     0
  0
APPID
  5
26B46
330
9
100
AcDbSymbolTableRecord
100
AcDbRegAppTableRecord
  2
REVIT
 70
     0
  0
APPID
  5
280A5
330
9
100
AcDbSymbolTableRecord
100
AcDbRegAppTableRecord
  2
HATCHBACKGROUNDCOLOR
 70
     0
  0
APPID
  5
29EE0
330
9
100
AcDbSymbolTableRecord
100
AcDbRegAppTableRecord
  2
ACAD_STEPID
 70
     0
  0
APPID
  5
29EE1
330
9
100
AcDbSymbolTableRecord
100
AcDbRegAppTableRecord
  2
AcLayerTools
 70
     0
  0
APPID
  5
4D86C
330
9
100
AcDbSymbolTableRecord
100
AcDbRegAppTableRecord
  2
PE_URL
 70
     0
  0
APPID
  5
81F8A
330
9
100
AcDbSymbolTableRecord
100
AcDbRegAppTableRecord
  2
DCO15
 70
     0
  0
ENDTAB
  0
TABLE
  2
DIMSTYLE
  5
A
330
0
100
AcDbSymbolTable
 70
     2
100
AcDbDimStyleTable
 71
     1
340
27
  0
DIMSTYLE
105
27
330
A
100
AcDbSymbolTableRecord
100
AcDbDimStyleTableRecord
  2
Standard
 70
     0
340
11
  0
ENDTAB
  0
TABLE
  2
BLOCK_RECORD
  5
1
330
0
100
AcDbSymbolTable
 70
     2
  0
BLOCK_RECORD
  5
1F
102
{ACAD_XDICTIONARY
360
15D
102
}
330
1
100
AcDbSymbolTableRecord
100
AcDbBlockTableRecord
  2
*Model_Space
340
22
 70
     0
280
     1
281
     0
  0
BLOCK_RECORD
  5
58
330
1
100
AcDbSymbolTableRecord
100
AcDbBlockTableRecord
  2
*Paper_Space
340
59
 70
     0
280
     1
281
     0
  0
BLOCK_RECORD
  5
5D
330
1
100
AcDbSymbolTableRecord
100
AcDbBlockTableRecord
  2
*Paper_Space0
340
5E
 70
     0
280
     1
281
     0
  0
ENDTAB
  0
ENDSEC
  0
SECTION
  2
BLOCKS
  0
BLOCK
  5
20
330
1F
100
AcDbEntity
  8
0
100
AcDbBlockBegin
  2
*Model_Space
 70
     0
 10
0.0
 20
0.0
 30
0.0
  3
*Model_Space
  1

  0
ENDBLK
  5
21
330
1F
100
AcDbEntity
  8
0
100
AcDbBlockEnd
  0
BLOCK
  5
5A
330
58
100
AcDbEntity
 67
     1
  8
0
100
AcDbBlockBegin
  2
*Paper_Space
 70
     0
 10
0.0
 20
0.0
 30
0.0
  3
*Paper_Space
  1

  0
ENDBLK
  5
5B
330
58
100
AcDbEntity
 67
     1
  8
0
100
AcDbBlockEnd
  0
BLOCK
  5
5F
330
5D
100
AcDbEntity
 67
     1
  8
0
100
AcDbBlockBegin
  2
*Paper_Space0
 70
     0
 10
0.0
 20
0.0
 30
0.0
  3
*Paper_Space0
  1

  0
ENDBLK
  5
60
330
5D
100
AcDbEntity
 67
     1
  8
0
100
AcDbBlockEnd
  0
ENDSEC
  0
SECTION
  2
ENTITIES
  0
ARC
  5
822E7
330
1F
100
AcDbEntity
  8
freecads.com
100
AcDbCircle
 10
168852.7456878514
 20
106557.7914624582
 30
0.0
 40
1.228167800596324
100
AcDbArc
 50
0.0
 51
180.00000500925
  0
ARC
  5
822E8
330
1F
100
AcDbEntity
  8
freecads.com
100
AcDbCircle
 10
168911.2064751598
 20
106557.7914624582
 30
0.0
 40
1.228167800596324
100
AcDbArc
 50
0.0
 51
180.00000500925
  0
LINE
  5
822E9
330
1F
100
AcDbEntity
  8
freecads.com
100
AcDbLine
 10
168853.973855652
 20
106552.8787912558
 30
0.0
 11
168853.973855652
 21
106557.7914624582
 31
0.0
  0
LINE
  5
822EA
330
1F
100
AcDbEntity
  8
freecads.com
100
AcDbLine
 10
168851.5175200508
 20
106552.8787912558
 30
0.0
 11
168851.5175200508
 21
106557.7914624582
 31
0.0
  0
LINE
  5
822EB
330
1F
100
AcDbEntity
  8
freecads.com
100
AcDbLine
 10
168853.973855652
 20
106506.9453155135
 30
0.0
 11
168853.973855652
 21
106528.6593222281
 31
0.0
  0
LINE
  5
822EC
330
1F
100
AcDbEntity
  8
freecads.com
100
AcDbLine
 10
168853.973855652
 20
106530.624390709
 30
0.0
 11
168853.973855652
 21
106552.8787912558
 31
0.0
  0
LINE
  5
822ED
330
1F
100
AcDbEntity
  8
freecads.com
100
AcDbLine
 10
168851.5175200508
 20
106506.9453155135
 30
0.0
 11
168851.5175200508
 21
106552.8787912558
 31
0.0
  0
LINE
  5
822EE
330
1F
100
AcDbEntity
  8
freecads.com
100
AcDbLine
 10
168853.973855652
 20
106552.8787912558
 30
0.0
 11
168853.973855652
 21
106539.9584659935
 31
0.0
  0
LINE
  5
822EF
330
1F
100
AcDbEntity
  8
freecads.com
100
AcDbLine
 10
168853.973855652
 20
106537.9933975126
 30
0.0
 11
168853.973855652
 21
106530.6243877105
 31
0.0
  0
LINE
  5
822F0
330
1F
100
AcDbEntity
  8
freecads.com
100
AcDbLine
 10
168853.973855652
 20
106527.0081036928
 30
0.0
 11
168853.973855652
 21
106506.9453155135
 31
0.0
  0
LINE
  5
822F1
330
1F
100
AcDbEntity
  8
freecads.com
100
AcDbLine
 10
168853.973855652
 20
106552.8787912558
 30
0.0
 11
168853.973855652
 21
106557.7914624582
 31
0.0
  0
LINE
  5
822F2
330
1F
100
AcDbEntity
  8
freecads.com
100
AcDbLine
 10
168909.9783073592
 20
106552.8787912558
 30
0.0
 11
168909.9783073592
 21
106557.7914624582
 31
0.0
  0
LINE
  5
822F3
330
1F
100
AcDbEntity
  8
freecads.com
100
AcDbLine
 10
168912.4346429604
 20
106552.8787912558
 30
0.0
 11
168912.4346429604
 21
106557.7914624582
 31
0.0
  0
LINE
  5
822F4
330
1F
100
AcDbEntity
  8
freecads.com
100
AcDbLine
 10
168909.9783073592
 20
106552.8787912558
 30
0.0
 11
168909.9783073592
 21
106530.624390709
 31
0.0
  0
LINE
  5
822F5
330
1F
100
AcDbEntity
  8
freecads.com
100
AcDbLine
 10
168909.9783073592
 20
106528.6593222281
 30
0.0
 11
168909.9783073592
 21
106506.9453155135
 31
0.0
  0
LINE
  5
822F6
330
1F
100
AcDbEntity
  8
freecads.com
100
AcDbLine
 10
168912.4346429604
 20
106552.8787912558
 30
0.0
 11
168912.4346429604
 21
106506.9453155135
 31
0.0
  0
LINE
  5
822F7
330
1F
100
AcDbEntity
  8
freecads.com
100
AcDbLine
 10
168912.4346429604
 20
106506.9453155135
 30
0.0
 11
168912.4346429604
 21
106552.8787912558
 31
0.0
  0
LINE
  5
822F8
330
1F
100
AcDbEntity
  8
freecads.com
100
AcDbLine
 10
168912.4346429604
 20
106552.8787912558
 30
0.0
 11
168912.4346429604
 21
106557.7914624582
 31
0.0
  0
LWPOLYLINE
  5
822F9
330
1F
100
AcDbEntity
  8
freecads.com
100
AcDbPolyline
 90
       20
 70
     0
 43
0.0
 10
168853.973855652
 20
106528.6593222281
 10
168853.8154921696
 20
106528.8357064343
 10
168853.6880697603
 20
106528.99484052
 10
168853.5961040997
 20
106529.1228821106
 10
168853.5282460296
 20
106529.2300949228
 10
168853.4858358602
 20
106529.3073696456
 10
168853.4479863433
 20
106529.3897372469
 10
168853.4176059815
 20
106529.4774945738
 10
168853.3985477917
 20
106529.5702563247
 10
168853.39449088
 20
106529.6179017992
 10
168853.39449088
 20
106529.6658171348
 10
168853.3985447933
 20
106529.7134716046
 10
168853.4176179754
 20
106529.8062873277
 10
168853.4480313201
 20
106529.894086633
 10
168853.4858748402
 20
106529.9764032606
 10
168853.5505125679
 20
106530.0905035274
 10
168853.6423013196
 20
106530.2269797763
 10
168853.7543386484
 20
106530.373707748
 10
168853.9001505917
 20
106530.5453588906
 10
168853.973855652
 20
106530.624390709
  0
LINE
  5
822FA
330
1F
100
AcDbEntity
  8
freecads.com
 48
0.0353553390593274
100
AcDbLine
 10
168854.0721090761
 20
106528.561068804
 30
0.0
 11
168853.973855652
 21
106528.6593222281
 31
0.0
  0
LINE
  5
822FB
330
1F
100
AcDbEntity
  8
freecads.com
 48
0.0353553390593274
100
AcDbLine
 10
168854.0721090761
 20
106530.722644133
 30
0.0
 11
168853.973855652
 21
106530.624390709
 31
0.0
  0
LWPOLYLINE
  5
822FC
330
1F
100
AcDbEntity
  8
freecads.com
100
AcDbPolyline
 90
       20
 70
     0
 43
0.0
 10
168854.0721090761
 20
106528.561068804
 10
168853.8387062202
 20
106528.8534632939
 10
168853.6938118046
 20
106529.0470331538
 10
168853.5960351352
 20
106529.1920909853
 10
168853.5278292441
 20
106529.3097024448
 10
168853.4880996949
 20
106529.3929051162
 10
168853.4563070601
 20
106529.4803116237
 10
168853.4446010858
 20
106529.5255733253
 10
168853.4364033056
 20
106529.5716910862
 10
168853.4321724834
 20
106529.6183980438
 10
168853.4321724834
 20
106529.6653208902
 10
168853.4364033056
 20
106529.7120368432
 10
168853.4446010858
 20
106529.7581800909
 10
168853.471017488
 20
106529.8477469864
 10
168853.5072298477
 20
106529.9330080982
 10
168853.5497329692
 20
106530.0141748176
 10
168853.6200977489
 20
106530.1291206493
 10
168853.718555068
 20
106530.2710301014
 10
168853.8614735007
 20
106530.4594336207
 10
168854.0721090761
 20
106530.722644133
  0
LWPOLYLINE
  5
822FD
330
1F
100
AcDbEntity
  8
freecads.com
100
AcDbPolyline
 90
       20
 70
     0
 43
0.0
 10
168909.9783073592
 20
106528.6593222281
 10
168910.1366708416
 20
106528.8357064343
 10
168910.2640932509
 20
106528.99484052
 10
168910.3560589116
 20
106529.1228821106
 10
168910.4239169816
 20
106529.2300949228
 10
168910.466327151
 20
106529.3073696456
 10
168910.5041766679
 20
106529.3897372469
 10
168910.5345570297
 20
106529.4774945738
 10
168910.5536152195
 20
106529.5702563247
 10
168910.5576721312
 20
106529.6179017992
 10
168910.5576721312
 20
106529.6658171348
 10
168910.5536182179
 20
106529.7134716046
 10
168910.5345450359
 20
106529.8062873277
 10
168910.5041316911
 20
106529.894086633
 10
168910.4662881711
 20
106529.9764032606
 10
168910.4016504433
 20
106530.0905035274
 10
168910.3098616916
 20
106530.2269797763
 10
168910.1978243628
 20
106530.373707748
 10
168910.0520124195
 20
106530.5453588906
 10
168909.9783073592
 20
106530.624390709
  0
LINE
  5
822FE
330
1F
100
AcDbEntity
  8
freecads.com
 48
0.0353553390593274
100
AcDbLine
 10
168909.8800539351
 20
106530.722644133
 30
0.0
 11
168909.9783073592
 21
106530.624390709
 31
0.0
  0
LINE
  5
822FF
330
1F
100
AcDbEntity
  8
freecads.com
 48
0.0353553390593274
100
AcDbLine
 10
168909.8800539351
 20
106528.561068804
 30
0.0
 11
168909.9783073592
 21
106528.6593222281
 31
0.0
  0
LWPOLYLINE
  5
82300
330
1F
100
AcDbEntity
  8
freecads.com
100
AcDbPolyline
 90
       20
 70
     0
 43
0.0
 10
168909.8800539351
 20
106528.561068804
 10
168910.113456791
 20
106528.8534632939
 10
168910.2583512066
 20
106529.0470331538
 10
168910.3561278761
 20
106529.1920909853
 10
168910.4243337671
 20
106529.3097024448
 10
168910.4640633163
 20
106529.3929051162
 10
168910.4958559511
 20
106529.4803116237
 10
168910.5075619254
 20
106529.5255733253
 10
168910.5157597056
 20
106529.5716910862
 10
168910.5199905278
 20
106529.6183980438
 10
168910.5199905278
 20
106529.6653208902
 10
168910.5157597056
 20
106529.7120368432
 10
168910.5075619254
 20
106529.7581800909
 10
168910.4811455232
 20
106529.8477469864
 10
168910.4449331636
 20
106529.9330080982
 10
168910.4024300421
 20
106530.0141748176
 10
168910.3320652623
 20
106530.1291206493
 10
168910.2336079432
 20
106530.2710301014
 10
168910.0906895105
 20
106530.4594336207
 10
168909.8800539351
 20
106530.722644133
  0
LINE
  5
82301
330
1F
100
AcDbEntity
  8
freecads.com
100
AcDbLine
 10
168862.3270128642
 20
106530.722644133
 30
0.0
 11
168854.0721090761
 21
106530.722644133
 31
0.0
  0
LINE
  5
82302
330
1F
100
AcDbEntity
  8
freecads.com
100
AcDbLine
 10
168881.9760815056
 20
106530.722644133
 30
0.0
 11
168864.288849009
 21
106530.722644133
 31
0.0
  0
LINE
  5
82303
330
1F
100
AcDbEntity
  8
freecads.com
100
AcDbLine
 10
168899.6633140023
 20
106530.722644133
 30
0.0
 11
168881.9760815056
 21
106530.722644133
 31
0.0
  0
LINE
  5
82304
330
1F
100
AcDbEntity
  8
freecads.com
100
AcDbLine
 10
168909.8800539351
 20
106530.722644133
 30
0.0
 11
168901.6251501471
 21
106530.722644133
 31
0.0
  0
LINE
  5
82305
330
1F
100
AcDbEntity
  8
freecads.com
100
AcDbLine
 10
168909.8800539351
 20
106528.561068804
 30
0.0
 11
168901.2815525139
 21
106528.561068804
 31
0.0
  0
LINE
  5
82306
330
1F
100
AcDbEntity
  8
freecads.com
100
AcDbLine
 10
168900.0069101362
 20
106528.561068804
 30
0.0
 11
168881.9760815056
 21
106528.561068804
 31
0.0
  0
LINE
  5
82307
330
1F
100
AcDbEntity
  8
freecads.com
100
AcDbLine
 10
168881.9760815056
 20
106528.561068804
 30
0.0
 11
168863.945252875
 21
106528.561068804
 31
0.0
  0
LINE
  5
82308
330
1F
100
AcDbEntity
  8
freecads.com
100
AcDbLine
 10
168862.6706104973
 20
106528.561068804
 30
0.0
 11
168854.0721090761
 21
106528.561068804
 31
0.0
  0
LWPOLYLINE
  5
82309
330
1F
100
AcDbEntity
  8
freecads.com
100
AcDbPolyline
 90
       14
 70
     0
 43
0.0
 10
168863.9452468781
 20
106528.5610673048
 10
168863.909425817
 20
106528.5632246943
 10
168863.8494731777
 20
106528.5767417363
 10
168863.7924320396
 20
106528.6019377667
 10
168863.7279637246
 20
106528.6420900983
 10
168863.5788804653
 20
106528.7414499528
 10
168863.4792117697
 20
106528.8000772744
 10
168863.4109564042
 20
106528.8322522123
 10
168863.3630650562
 20
106528.8483824093
 10
168863.3215004516
 20
106528.8555742073
 10
168863.2693467977
 20
106528.8521664615
 10
168863.2236383262
 20
106528.8393540567
 10
168863.1561895454
 20
106528.8101385953
 10
168863.1390128871
 20
106528.8013261315
  0
LWPOLYLINE
  5
8230A
330
1F
100
AcDbEntity
  8
freecads.com
100
AcDbPolyline
 90
        8
 70
     0
 43
0.0
 10
168862.6706149949
 20
106528.561068804
 10
168862.7050852514
 20
106528.563065776
 10
168862.739044271
 20
106528.5689937246
 10
168862.7876012763
 20
106528.5846696555
 10
168862.8458867738
 20
106528.6149885488
 10
168862.9230475553
 20
106528.6658063903
 10
168863.0480172271
 20
106528.7484108697
 10
168863.1390128871
 20
106528.8013261315
  0
LWPOLYLINE
  5
8230B
330
1F
100
AcDbEntity
  8
freecads.com
100
AcDbPolyline
 90
       10
 70
     0
 43
0.0
 10
168862.8967915705
 20
106528.6719637208
 10
168863.0149577445
 20
106528.7732620775
 10
168863.1122786486
 20
106528.8428082786
 10
168863.1916777779
 20
106528.8886621753
 10
168863.2502451303
 20
106528.9129136918
 10
168863.2980285338
 20
106528.9225942088
 10
168863.3413592294
 20
106528.9193213935
 10
168863.3871336669
 20
106528.9052406416
 10
168863.4567113518
 20
106528.8713385926
 10
168863.4655777878
 20
106528.8662397173
  0
LWPOLYLINE
  5
8230C
330
1F
100
AcDbEntity
  8
freecads.com
100
AcDbPolyline
 90
        4
 70
     0
 43
0.0
 10
168863.4655777878
 20
106528.8662397173
 10
168863.5994138957
 20
106528.7744164833
 10
168863.6955189256
 20
106528.6942962252
 10
168863.7190942902
 20
106528.6719397332
  0
LWPOLYLINE
  5
8230D
330
1F
100
AcDbEntity
  8
freecads.com
100
AcDbPolyline
 90
        8
 70
     0
 43
0.0
 10
168901.2815480163
 20
106528.561068804
 10
168901.2470777598
 20
106528.563065776
 10
168901.2131187403
 20
106528.5689937246
 10
168901.164561735
 20
106528.5846696555
 10
168901.1062762374
 20
106528.6149885488
 10
168901.0291154559
 20
106528.6658063903
 10
168900.9041457841
 20
106528.7484108697
 10
168900.8131501241
 20
106528.8013261315
  0
LWPOLYLINE
  5
8230E
330
1F
100
AcDbEntity
  8
freecads.com
100
AcDbPolyline
 90
       14
 70
     0
 43
0.0
 10
168900.0069161331
 20
106528.5610673048
 10
168900.0427371942
 20
106528.5632246943
 10
168900.1026898336
 20
106528.5767417363
 10
168900.1597309716
 20
106528.6019377667
 10
168900.2241992866
 20
106528.6420900983
 10
168900.373282546
 20
106528.7414499528
 10
168900.4729512415
 20
106528.8000772744
 10
168900.541206607
 20
106528.8322522123
 10
168900.589097955
 20
106528.8483824093
 10
168900.6306625596
 20
106528.8555742073
 10
168900.6828162135
 20
106528.8521664615
 10
168900.728524685
 20
106528.8393540567
 10
168900.7959734658
 20
106528.8101385953
 10
168900.8131501241
 20
106528.8013261315
  0
LWPOLYLINE
  5
8230F
330
1F
100
AcDbEntity
  8
freecads.com
100
AcDbPolyline
 90
        4
 70
     0
 43
0.0
 10
168900.4865852234
 20
106528.8662397173
 10
168900.3527491156
 20
106528.7744164833
 10
168900.2566440856
 20
106528.6942962252
 10
168900.233068721
 20
106528.6719397332
  0
LWPOLYLINE
  5
82310
330
1F
100
AcDbEntity
  8
freecads.com
100
AcDbPolyline
 90
       10
 70
     0
 43
0.0
 10
168901.0553714407
 20
106528.6719637208
 10
168900.9372052667
 20
106528.7732620775
 10
168900.8398843627
 20
106528.8428082786
 10
168900.7604852333
 20
106528.8886621753
 10
168900.7019178809
 20
106528.9129136918
 10
168900.6541344774
 20
106528.9225942088
 10
168900.6108037819
 20
106528.9193213935
 10
168900.5650293443
 20
106528.9052406416
 10
168900.4954516594
 20
106528.8713385926
 10
168900.4865852234
 20
106528.8662397173
  0
ELLIPSE
  5
82311
330
1F
100
AcDbEntity
  8
freecads.com
100
AcDbEllipse
 10
168863.3079309366
 20
106531.506113842
 30
0.0
 11
-1.080787664524765
 21
-0.0000000944854627
 31
0.0
210
0.0
220
0.0
230
0.9999999999999998
 40
0.052335955879905
 41
3.141592741012573
 42
6.283185482025146
  0
ARC
  5
82312
330
1F
100
AcDbEntity
  8
freecads.com
100
AcDbCircle
 10
168864.3873483064
 20
106530.8193503535
 30
0.0
 40
0.001389913814293
100
AcDbArc
 50
357.1191309504458
 51
121.8104273818474
  0
LWPOLYLINE
  5
82313
330
1F
100
AcDbEntity
  8
freecads.com
100
AcDbPolyline
 90
        4
 70
     0
 43
0.0
 10
168862.2292736754
 20
106530.820575223
 10
168862.2333875578
 20
106530.8187461645
 10
168862.2580348706
 20
106530.8001422409
 10
168862.3158541081
 20
106530.7489046155
  0
LWPOLYLINE
  5
82314
330
1F
100
AcDbEntity
  8
freecads.com
100
AcDbPolyline
 90
       19
 70
     0
 43
0.0
 10
168862.3158541081
 20
106530.7489046155
 10
168862.505561956
 20
106530.5714979356
 10
168862.905509583
 20
106530.1958632935
 10
168863.1003957653
 20
106530.0185930434
 10
168863.1881935714
 20
106529.9441068851
 10
168863.2189052625
 20
106529.9205899904
 10
168863.2515074805
 20
106529.8990595732
 10
168863.2753152255
 20
106529.887295129
 10
168863.287961216
 20
106529.8833881401
 10
168863.3078844605
 20
106529.8811243054
 10
168863.327807705
 20
106529.883374647
 10
168863.3403667402
 20
106529.8872486529
 10
168863.36400957
 20
106529.8989186458
 10
168863.39682168
 20
106529.9206064819
 10
168863.4575104405
 20
106529.9685862843
 10
168863.5722868593
 20
106530.0693194319
 10
168863.8432903603
 20
106530.3199154376
 10
168864.2140225259
 20
106530.6690976961
 10
168864.3000092642
 20
106530.7489076139
  0
LWPOLYLINE
  5
82315
330
1F
100
AcDbEntity
  8
freecads.com
100
AcDbPolyline
 90
        4
 70
     0
 43
0.0
 10
168864.3000092642
 20
106530.7489076139
 10
168864.3578285018
 20
106530.8001392424
 10
168864.3824743153
 20
106530.8187461645
 10
168864.3865881977
 20
106530.820575223
  0
ARC
  5
82316
330
1F
100
AcDbEntity
  8
freecads.com
100
AcDbCircle
 10
168862.2285195636
 20
106530.8193458558
 30
0.0
 40
0.0013967365657093
100
AcDbArc
 50
58.50857581749583
 51
182.6921787512002
  0
LINE
  5
82317
330
1F
100
AcDbEntity
  8
freecads.com
 48
0.1747604370117187
100
AcDbLine
 10
168862.227143272
 20
106530.819281389
 30
0.0
 11
168862.227143272
 21
106531.506113842
 31
0.0
  0
LINE
  5
82318
330
1F
100
AcDbEntity
  8
freecads.com
 48
0.1747604370117187
100
AcDbLine
 10
168864.388718601
 20
106530.819281389
 30
0.0
 11
168864.388718601
 21
106531.506113842
 31
0.0
  0
LWPOLYLINE
  5
82319
330
1F
100
AcDbEntity
  8
freecads.com
100
AcDbPolyline
 90
        6
 70
     0
 43
0.0
 10
168864.388718601
 20
106530.819281389
 10
168864.3885416921
 20
106530.8179140928
 10
168864.3874997285
 20
106530.8153069349
 10
168864.3778626891
 20
106530.7998064138
 10
168864.3321976952
 20
106530.7418462487
 10
168864.3159985337
 20
106530.7226426338
  0
LWPOLYLINE
  5
8231A
330
1F
100
AcDbEntity
  8
freecads.com
100
AcDbPolyline
 90
        6
 70
     0
 43
0.0
 10
168862.2998648386
 20
106530.7226426338
 10
168862.2462764232
 20
106530.7884782449
 10
168862.2319962739
 20
106530.8087912888
 10
168862.2283606454
 20
106530.8153069349
 10
168862.227320181
 20
106530.8179140928
 10
168862.227143272
 20
106530.819281389
  0
LWPOLYLINE
  5
8231B
330
1F
100
AcDbEntity
  8
freecads.com
100
AcDbPolyline
 90
        4
 70
     0
 43
0.0
 10
168862.3270128642
 20
106530.722644133
 10
168862.3303831293
 20
106530.7217955698
 10
168862.3425868475
 20
106530.7150460442
 10
168862.3876671424
 20
106530.682179962
  0
LWPOLYLINE
  5
8231C
330
1F
100
AcDbEntity
  8
freecads.com
100
AcDbPolyline
 90
        4
 70
     0
 43
0.0
 10
168864.2282067245
 20
106530.6821904566
 10
168864.2732810226
 20
106530.7150475434
 10
168864.285480243
 20
106530.7217955698
 10
168864.288849009
 20
106530.722644133
  0
ELLIPSE
  5
8231D
330
1F
100
AcDbEntity
  8
freecads.com
100
AcDbEllipse
 10
168900.6442320747
 20
106531.506113842
 30
0.0
 11
-1.080787664524765
 21
-0.0000000944854627
 31
0.0
210
0.0
220
0.0
230
0.9999999999999998
 40
0.052335955879905
 41
3.141592741012573
 42
6.283185482025146
  0
LINE
  5
8231E
330
1F
100
AcDbEntity
  8
freecads.com
 48
0.1747604370117187
100
AcDbLine
 10
168899.5634444102
 20
106530.819281389
 30
0.0
 11
168899.5634444102
 21
106531.506113842
 31
0.0
  0
LINE
  5
8231F
330
1F
100
AcDbEntity
  8
freecads.com
 48
0.1747604370117187
100
AcDbLine
 10
168901.7250197392
 20
106530.819281389
 30
0.0
 11
168901.7250197392
 21
106531.506113842
 31
0.0
  0
ARC
  5
82320
330
1F
100
AcDbEntity
  8
freecads.com
100
AcDbCircle
 10
168901.7236434477
 20
106530.8193458558
 30
0.0
 40
0.0013967365657093
100
AcDbArc
 50
357.3078274321297
 51
121.4914288778998
  0
LWPOLYLINE
  5
82321
330
1F
100
AcDbEntity
  8
freecads.com
100
AcDbPolyline
 90
        4
 70
     0
 43
0.0
 10
168901.7228893358
 20
106530.820575223
 10
168901.7187754534
 20
106530.8187461645
 10
168901.6941281407
 20
106530.8001422409
 10
168901.6363089031
 20
106530.7489046155
  0
LWPOLYLINE
  5
82322
330
1F
100
AcDbEntity
  8
freecads.com
100
AcDbPolyline
 90
       19
 70
     0
 43
0.0
 10
168901.6363089031
 20
106530.7489046155
 10
168901.4466010552
 20
106530.5714979356
 10
168901.0466534283
 20
106530.1958632935
 10
168900.851767246
 20
106530.0185930434
 10
168900.7639694399
 20
106529.9441068851
 10
168900.7332577487
 20
106529.9205899904
 10
168900.7006555307
 20
106529.8990595732
 10
168900.6768477857
 20
106529.887295129
 10
168900.6642017953
 20
106529.8833881401
 10
168900.6442785507
 20
106529.8811243054
 10
168900.6243553063
 20
106529.883374647
 10
168900.611796271
 20
106529.8872486529
 10
168900.5881534412
 20
106529.8989186458
 10
168900.5553413312
 20
106529.9206064819
 10
168900.4946525707
 20
106529.9685862843
 10
168900.3798761519
 20
106530.0693194319
 10
168900.108872651
 20
106530.3199154376
 10
168899.7381404854
 20
106530.6690976961
 10
168899.652153747
 20
106530.7489076139
  0
LWPOLYLINE
  5
82323
330
1F
100
AcDbEntity
  8
freecads.com
100
AcDbPolyline
 90
        4
 70
     0
 43
0.0
 10
168899.652153747
 20
106530.7489076139
 10
168899.5943345095
 20
106530.8001392424
 10
168899.5696886959
 20
106530.8187461645
 10
168899.5655748135
 20
106530.820575223
  0
ARC
  5
82324
330
1F
100
AcDbEntity
  8
freecads.com
100
AcDbCircle
 10
168899.5648147048
 20
106530.8193503535
 30
0.0
 40
0.001389913814293
100
AcDbArc
 50
58.18957731957591
 51
182.8808694761583
  0
LWPOLYLINE
  5
82325
330
1F
100
AcDbEntity
  8
freecads.com
100
AcDbPolyline
 90
        6
 70
     0
 43
0.0
 10
168899.5634444102
 20
106530.819281389
 10
168899.5636213191
 20
106530.8179140928
 10
168899.5646632827
 20
106530.8153069349
 10
168899.5743003221
 20
106530.7998064138
 10
168899.619965316
 20
106530.7418462487
 10
168899.6361644775
 20
106530.7226426338
  0
LWPOLYLINE
  5
82326
330
1F
100
AcDbEntity
  8
freecads.com
100
AcDbPolyline
 90
        6
 70
     0
 43
0.0
 10
168901.6522981726
 20
106530.7226426338
 10
168901.705886588
 20
106530.7884782449
 10
168901.7201667373
 20
106530.8087912888
 10
168901.7238023658
 20
106530.8153069349
 10
168901.7248428303
 20
106530.8179140928
 10
168901.7250197392
 20
106530.819281389
  0
LWPOLYLINE
  5
82327
330
1F
100
AcDbEntity
  8
freecads.com
100
AcDbPolyline
 90
        4
 70
     0
 43
0.0
 10
168901.6251501471
 20
106530.722644133
 10
168901.6217798819
 20
106530.7217955698
 10
168901.6095761638
 20
106530.7150445449
 10
168901.5644943696
 20
106530.6821784627
  0
LWPOLYLINE
  5
82328
330
1F
100
AcDbEntity
  8
freecads.com
100
AcDbPolyline
 90
        4
 70
     0
 43
0.0
 10
168899.7239547874
 20
106530.6821919558
 10
168899.6788819887
 20
106530.7150490426
 10
168899.6666827682
 20
106530.7217955698
 10
168899.6633140023
 20
106530.722644133
  0
LINE
  5
82329
330
1F
100
AcDbEntity
  8
freecads.com
 48
0.0397899045589682
100
AcDbLine
 10
168854.0721090761
 20
106537.8951440885
 30
0.0
 11
168853.9739156212
 21
106538.0168514397
 31
0.0
  0
LINE
  5
8232A
330
1F
100
AcDbEntity
  8
freecads.com
 48
0.0397899045589682
100
AcDbLine
 10
168853.9739156212
 20
106539.9350120664
 30
0.0
 11
168854.0721090761
 21
106540.0567194176
 31
0.0
  0
LINE
  5
8232B
330
1F
100
AcDbEntity
  8
freecads.com
100
AcDbLine
 10
168857.4126775184
 20
106540.0567194176
 30
0.0
 11
168854.0721090761
 21
106540.0567194176
 31
0.0
  0
LINE
  5
8232C
330
1F
100
AcDbEntity
  8
freecads.com
100
AcDbLine
 10
168909.8800539351
 20
106540.0567194176
 30
0.0
 11
168906.5393895423
 21
106540.0567194176
 31
0.0
  0
LINE
  5
8232D
330
1F
100
AcDbEntity
  8
freecads.com
 48
0.0398137365517168
100
AcDbLine
 10
168909.8800539351
 20
106537.8951440885
 30
0.0
 11
168909.9783073592
 21
106538.0169234026
 31
0.0
  0
LINE
  5
8232E
330
1F
100
AcDbEntity
  8
freecads.com
 48
0.0397888317157871
100
AcDbLine
 10
168909.9782443916
 20
106539.9350150649
 30
0.0
 11
168909.8800539351
 21
106540.0567194176
 31
0.0
  0
LINE
  5
8232F
330
1F
100
AcDbEntity
  8
freecads.com
100
AcDbLine
 10
168857.4126775184
 20
106537.8951440885
 30
0.0
 11
168854.0721090761
 21
106537.8951440885
 31
0.0
  0
LINE
  5
82330
330
1F
100
AcDbEntity
  8
freecads.com
100
AcDbLine
 10
168909.8800539351
 20
106537.8951440885
 30
0.0
 11
168906.5393895423
 21
106537.8951440885
 31
0.0
  0
LINE
  5
82331
330
1F
100
AcDbEntity
  8
freecads.com
 48
0.0353553390593274
100
AcDbLine
 10
168854.0721090761
 20
106540.0567194176
 30
0.0
 11
168853.973855652
 21
106539.9584659935
 31
0.0
  0
LINE
  5
82332
330
1F
100
AcDbEntity
  8
freecads.com
 48
0.0353547995837824
100
AcDbLine
 10
168854.0721090761
 20
106537.8951440885
 30
0.0
 11
168853.973855652
 21
106537.9933945141
 31
0.0
  0
LINE
  5
82333
330
1F
100
AcDbEntity
  8
freecads.com
 48
0.0353547995837824
100
AcDbLine
 10
168909.8800539351
 20
106537.8951440885
 30
0.0
 11
168909.9783073592
 21
106537.9933945141
 31
0.0
  0
LINE
  5
82334
330
1F
100
AcDbEntity
  8
freecads.com
 48
0.0353553390593274
100
AcDbLine
 10
168909.8800539351
 20
106540.0567194176
 30
0.0
 11
168909.9783073592
 21
106539.9584659935
 31
0.0
  0
LINE
  5
82335
330
1F
100
AcDbEntity
  8
freecads.com
100
AcDbLine
 10
168909.97828637
 20
106527.0081276805
 30
0.0
 11
168901.2815525139
 21
106527.0081276805
 31
0.0
  0
LINE
  5
82336
330
1F
100
AcDbEntity
  8
freecads.com
100
AcDbLine
 10
168900.0069101362
 20
106527.0081276805
 30
0.0
 11
168881.9760815056
 21
106527.0081276805
 31
0.0
  0
LINE
  5
82337
330
1F
100
AcDbEntity
  8
freecads.com
100
AcDbLine
 10
168881.9760815056
 20
106527.0081276805
 30
0.0
 11
168863.945252875
 21
106527.0081276805
 31
0.0
  0
LINE
  5
82338
330
1F
100
AcDbEntity
  8
freecads.com
100
AcDbLine
 10
168862.6706104973
 20
106527.0081276805
 30
0.0
 11
168853.9738346628
 21
106527.0081276805
 31
0.0
  0
LWPOLYLINE
  5
82339
330
1F
100
AcDbEntity
  8
freecads.com
100
AcDbPolyline
 90
       14
 70
     0
 43
0.0
 10
168863.9452468781
 20
106527.0081276805
 10
168863.909425817
 20
106527.01028507
 10
168863.8494731777
 20
106527.023802112
 10
168863.7924320396
 20
106527.0489966432
 10
168863.7279637246
 20
106527.0891489747
 10
168863.5788804653
 20
106527.1885103285
 10
168863.4792117697
 20
106527.2471376501
 10
168863.4109564042
 20
106527.279312588
 10
168863.3630650562
 20
106527.2954412858
 10
168863.3215004516
 20
106527.3026330838
 10
168863.2693467977
 20
106527.299225338
 10
168863.2236383262
 20
106527.2864129331
 10
168863.1561895454
 20
106527.2571974718
 10
168863.1390128871
 20
106527.248385008
  0
LWPOLYLINE
  5
8233A
330
1F
100
AcDbEntity
  8
freecads.com
100
AcDbPolyline
 90
        8
 70
     0
 43
0.0
 10
168862.6706149949
 20
106527.0081276805
 10
168862.7050852514
 20
106527.0101261518
 10
168862.739044271
 20
106527.0160541003
 10
168862.7876012763
 20
106527.0317285319
 10
168862.8458867738
 20
106527.0620474253
 10
168862.9230475553
 20
106527.112866766
 10
168863.0480172271
 20
106527.1954712454
 10
168863.1390128871
 20
106527.248385008
  0
LWPOLYLINE
  5
8233B
330
1F
100
AcDbEntity
  8
freecads.com
100
AcDbPolyline
 90
       10
 70
     0
 43
0.0
 10
168862.8967915705
 20
106527.1190225973
 10
168863.0149577445
 20
106527.220320954
 10
168863.1122786486
 20
106527.2898686543
 10
168863.1916777779
 20
106527.3357210518
 10
168863.2502451303
 20
106527.3599740675
 10
168863.2980285338
 20
106527.3696530852
 10
168863.3413592294
 20
106527.3663817692
 10
168863.3871336669
 20
106527.352299518
 10
168863.4567113518
 20
106527.3183974691
 10
168863.4655777878
 20
106527.313300093
  0
LWPOLYLINE
  5
8233C
330
1F
100
AcDbEntity
  8
freecads.com
100
AcDbPolyline
 90
        4
 70
     0
 43
0.0
 10
168863.4655777878
 20
106527.313300093
 10
168863.5994138957
 20
106527.221476859
 10
168863.6955189256
 20
106527.1413566009
 10
168863.7190942902
 20
106527.1189986097
  0
LWPOLYLINE
  5
8233D
330
1F
100
AcDbEntity
  8
freecads.com
100
AcDbPolyline
 90
        8
 70
     0
 43
0.0
 10
168901.2815480163
 20
106527.0081276805
 10
168901.2470777598
 20
106527.0101261518
 10
168901.2131187403
 20
106527.0160541003
 10
168901.164561735
 20
106527.0317285319
 10
168901.1062762374
 20
106527.0620474253
 10
168901.0291154559
 20
106527.112866766
 10
168900.9041457841
 20
106527.1954712454
 10
168900.8131501241
 20
106527.248385008
  0
LWPOLYLINE
  5
8233E
330
1F
100
AcDbEntity
  8
freecads.com
100
AcDbPolyline
 90
       14
 70
     0
 43
0.0
 10
168900.0069161331
 20
106527.0081276805
 10
168900.0427371942
 20
106527.01028507
 10
168900.1026898336
 20
106527.023802112
 10
168900.1597309716
 20
106527.0489966432
 10
168900.2241992866
 20
106527.0891489747
 10
168900.373282546
 20
106527.1885103285
 10
168900.4729512415
 20
106527.2471376501
 10
168900.541206607
 20
106527.279312588
 10
168900.589097955
 20
106527.2954412858
 10
168900.6306625596
 20
106527.3026330838
 10
168900.6828162135
 20
106527.299225338
 10
168900.728524685
 20
106527.2864129331
 10
168900.7959734658
 20
106527.2571974718
 10
168900.8131501241
 20
106527.248385008
  0
LWPOLYLINE
  5
8233F
330
1F
100
AcDbEntity
  8
freecads.com
100
AcDbPolyline
 90
        4
 70
     0
 43
0.0
 10
168900.4865852234
 20
106527.313300093
 10
168900.3527491156
 20
106527.221476859
 10
168900.2566440856
 20
106527.1413566009
 10
168900.233068721
 20
106527.1189986097
  0
LWPOLYLINE
  5
82340
330
1F
100
AcDbEntity
  8
freecads.com
100
AcDbPolyline
 90
       10
 70
     0
 43
0.0
 10
168901.0553714407
 20
106527.1190225973
 10
168900.9372052667
 20
106527.220320954
 10
168900.8398843627
 20
106527.2898686543
 10
168900.7604852333
 20
106527.3357210518
 10
168900.7019178809
 20
106527.3599740675
 10
168900.6541344774
 20
106527.3696530852
 10
168900.6108037819
 20
106527.3663817692
 10
168900.5650293443
 20
106527.352299518
 10
168900.4954516594
 20
106527.3183974691
 10
168900.4865852234
 20
106527.313300093
  0
LWPOLYLINE
  5
82341
330
1F
100
AcDbEntity
  8
freecads.com
100
AcDbPolyline
 90
       13
 70
     0
 43
0.0
 10
168863.6970796222
 20
106528.6629503605
 10
168863.4804741199
 20
106528.4549954053
 10
168863.4168888505
 20
106528.3958283615
 10
168863.3837544064
 20
106528.3674044927
 10
168863.3480532836
 20
106528.341937102
 10
168863.3215214408
 20
106528.3309582534
 10
168863.3076400863
 20
106528.3292746201
 10
168863.293682271
 20
106528.3310901855
 10
168863.2670604746
 20
106528.342370379
 10
168863.2319230616
 20
106528.367537924
 10
168863.1669659983
 20
106528.4251967441
 10
168863.0108993336
 20
106528.5745753515
 10
168862.9187642601
 20
106528.6629383666
  0
LWPOLYLINE
  5
82342
330
1F
100
AcDbEntity
  8
freecads.com
100
AcDbPolyline
 90
       15
 70
     0
 43
0.0
 10
168863.7226219743
 20
106528.6456732539
 10
168863.5382393853
 20
106528.4768871365
 10
168863.4407730561
 20
106528.3919243711
 10
168863.4067420735
 20
106528.3644720022
 10
168863.3705342115
 20
106528.3384603917
 10
168863.3442857229
 20
106528.323514585
 10
168863.3301494995
 20
106528.3184621858
 10
168863.3076086025
 20
106528.3156256459
 10
168863.2850796992
 20
106528.3186615831
 10
168863.271003445
 20
106528.3237739515
 10
168863.2448763939
 20
106528.3387302528
 10
168863.2091033081
 20
106528.3645049852
 10
168863.1420638166
 20
106528.4200199089
 10
168862.9838862385
 20
106528.5619923286
 10
168862.8932354011
 20
106528.6456597608
  0
LWPOLYLINE
  5
82343
330
1F
100
AcDbEntity
  8
freecads.com
100
AcDbPolyline
 90
       13
 70
     0
 43
0.0
 10
168900.2550818897
 20
106528.6629503605
 10
168900.4716888913
 20
106528.4549954053
 10
168900.5352741608
 20
106528.3958298608
 10
168900.5684071056
 20
106528.3674044927
 10
168900.6041082284
 20
106528.341937102
 10
168900.6306400712
 20
106528.3309582534
 10
168900.6445214257
 20
106528.3292746201
 10
168900.6584792409
 20
106528.3310901855
 10
168900.6851010374
 20
106528.3423688798
 10
168900.7202384504
 20
106528.3675364248
 10
168900.7851955137
 20
106528.4251967441
 10
168900.9412621784
 20
106528.5745753515
 10
168901.0333972519
 20
106528.6629368674
  0
LWPOLYLINE
  5
82344
330
1F
100
AcDbEntity
  8
freecads.com
100
AcDbPolyline
 90
       15
 70
     0
 43
0.0
 10
168900.2295410369
 20
106528.6456732539
 10
168900.413923626
 20
106528.4768871365
 10
168900.5113884559
 20
106528.3919258703
 10
168900.5454194385
 20
106528.3644735014
 10
168900.5816273005
 20
106528.3384618909
 10
168900.6078757891
 20
106528.323514585
 10
168900.6220120124
 20
106528.3184621858
 10
168900.6445529095
 20
106528.3156256459
 10
168900.6670818128
 20
106528.3186615831
 10
168900.681158067
 20
106528.3237739515
 10
168900.7072866173
 20
106528.3387287536
 10
168900.7430597032
 20
106528.364503486
 10
168900.8100976953
 20
106528.4200199089
 10
168900.9682752734
 20
106528.5619908294
 10
168901.0589261109
 20
106528.6456582616
  0
LINE
  5
82345
330
1F
100
AcDbEntity
  8
freecads.com
 48
0.0392524719238281
100
AcDbLine
 10
168905.0656361568
 20
106532.2538149628
 30
0.0
 11
168905.0656361568
 21
106532.4080825536
 31
0.0
  0
LINE
  5
82346
330
1F
100
AcDbEntity
  8
freecads.com
 48
0.0392524719238281
100
AcDbLine
 10
168858.8865268544
 20
106532.2538149628
 30
0.0
 11
168858.8865268544
 21
106532.4080825536
 31
0.0
  0
LINE
  5
82347
330
1F
100
AcDbEntity
  8
freecads.com
100
AcDbLine
 10
168905.0656361568
 20
106532.4080825536
 30
0.0
 11
168858.8865268544
 21
106532.4080825536
 31
0.0
  0
LINE
  5
82348
330
1F
100
AcDbEntity
  8
freecads.com
100
AcDbLine
 10
168905.0656361568
 20
106532.2538149628
 30
0.0
 11
168858.8865268544
 21
106532.2538149628
 31
0.0
  0
LINE
  5
82349
330
1F
100
AcDbEntity
  8
freecads.com
 48
0.0000679016113281
100
AcDbLine
 10
168858.8865268544
 20
106532.2640996688
 30
0.0
 11
168858.8865268544
 21
106532.2638328061
 31
0.0
  0
LINE
  5
8234A
330
1F
100
AcDbEntity
  8
freecads.com
 48
0.0340187072753906
100
AcDbLine
 10
168858.8865268544
 20
106532.3977978476
 30
0.0
 11
168858.8865268544
 21
106532.2640996688
 31
0.0
  0
LINE
  5
8234B
330
1F
100
AcDbEntity
  8
freecads.com
 48
0.0026206970214844
100
AcDbLine
 10
168858.8865268544
 20
106532.4080975459
 30
0.0
 11
168858.8865268544
 21
106532.3977978476
 31
0.0
  0
LINE
  5
8234C
330
1F
100
AcDbEntity
  8
freecads.com
 48
0.0000679016113281
100
AcDbLine
 10
168858.3952597342
 20
106532.2640996688
 30
0.0
 11
168858.3952597342
 21
106532.2638328061
 31
0.0
  0
LINE
  5
8234D
330
1F
100
AcDbEntity
  8
freecads.com
 48
0.0340187072753906
100
AcDbLine
 10
168858.3952597342
 20
106532.3977978476
 30
0.0
 11
168858.3952597342
 21
106532.2640996688
 31
0.0
  0
LINE
  5
8234E
330
1F
100
AcDbEntity
  8
freecads.com
 48
0.0026206970214844
100
AcDbLine
 10
168858.3952597342
 20
106532.4080975459
 30
0.0
 11
168858.3952597342
 21
106532.3977978476
 31
0.0
  0
LINE
  5
8234F
330
1F
100
AcDbEntity
  8
freecads.com
 48
0.0026206970214844
100
AcDbLine
 10
168905.0656361568
 20
106532.4080975459
 30
0.0
 11
168905.0656361568
 21
106532.3977978476
 31
0.0
  0
LINE
  5
82350
330
1F
100
AcDbEntity
  8
freecads.com
 48
0.0340187072753906
100
AcDbLine
 10
168905.0656361568
 20
106532.3977978476
 30
0.0
 11
168905.0656361568
 21
106532.2640996688
 31
0.0
  0
LINE
  5
82351
330
1F
100
AcDbEntity
  8
freecads.com
 48
0.0000679016113281
100
AcDbLine
 10
168905.0656361568
 20
106532.2640996688
 30
0.0
 11
168905.0656361568
 21
106532.2638328061
 31
0.0
  0
LINE
  5
82352
330
1F
100
AcDbEntity
  8
freecads.com
 48
0.0000679016113281
100
AcDbLine
 10
168905.5569032771
 20
106532.2640996688
 30
0.0
 11
168905.5569032771
 21
106532.2638328061
 31
0.0
  0
LINE
  5
82353
330
1F
100
AcDbEntity
  8
freecads.com
 48
0.0340187072753906
100
AcDbLine
 10
168905.5569032771
 20
106532.3977978476
 30
0.0
 11
168905.5569032771
 21
106532.2640996688
 31
0.0
  0
LINE
  5
82354
330
1F
100
AcDbEntity
  8
freecads.com
 48
0.125
100
AcDbLine
 10
168858.8865268544
 20
106532.2638328061
 30
0.0
 11
168858.3952597342
 21
106532.2638328061
 31
0.0
  0
LINE
  5
82355
330
1F
100
AcDbEntity
  8
freecads.com
 48
0.125
100
AcDbLine
 10
168905.5569032771
 20
106532.2638328061
 30
0.0
 11
168905.0656361568
 21
106532.2638328061
 31
0.0
  0
LINE
  5
82356
330
1F
100
AcDbEntity
  8
freecads.com
100
AcDbLine
 10
168858.3952597342
 20
106532.2538149628
 30
0.0
 11
168860.3603282151
 21
106532.2538149628
 31
0.0
  0
LINE
  5
82357
330
1F
100
AcDbEntity
  8
freecads.com
 48
0.0025482177734375
100
AcDbLine
 10
168858.3952597342
 20
106532.2638298077
 30
0.0
 11
168858.3952597342
 21
106532.2538149628
 31
0.0
  0
LINE
  5
82358
330
1F
100
AcDbEntity
  8
freecads.com
 48
0.3896018981933594
100
AcDbLine
 10
168858.3952597342
 20
106530.7226261423
 30
0.0
 11
168858.3952597342
 21
106532.2538149628
 31
0.0
  0
LINE
  5
82359
330
1F
100
AcDbEntity
  8
freecads.com
 48
0.3896018981933594
100
AcDbLine
 10
168860.3603282151
 20
106530.7226261423
 30
0.0
 11
168860.3603282151
 21
106532.2538149628
 31
0.0
  0
LINE
  5
8235A
330
1F
100
AcDbEntity
  8
freecads.com
100
AcDbLine
 10
168903.5918347961
 20
106532.2538149628
 30
0.0
 11
168905.5569032771
 21
106532.2538149628
 31
0.0
  0
LINE
  5
8235B
330
1F
100
AcDbEntity
  8
freecads.com
 48
0.3896018981933594
100
AcDbLine
 10
168905.5569032771
 20
106530.7226261423
 30
0.0
 11
168905.5569032771
 21
106532.2538149628
 31
0.0
  0
LINE
  5
8235C
330
1F
100
AcDbEntity
  8
freecads.com
 48
0.3896018981933594
100
AcDbLine
 10
168903.5918347961
 20
106530.7226261423
 30
0.0
 11
168903.5918347961
 21
106532.2538149628
 31
0.0
  0
LINE
  5
8235D
330
1F
100
AcDbEntity
  8
freecads.com
 48
0.3896026611328125
100
AcDbLine
 10
168860.3603282151
 20
106530.7226231438
 30
0.0
 11
168860.3603282151
 21
106532.2538149628
 31
0.0
  0
LINE
  5
8235E
330
1F
100
AcDbEntity
  8
freecads.com
 48
0.3896026611328125
100
AcDbLine
 10
168860.5568350632
 20
106530.7226231438
 30
0.0
 11
168860.5568350632
 21
106532.2538149628
 31
0.0
  0
LINE
  5
8235F
330
1F
100
AcDbEntity
  8
freecads.com
 48
0.3896026611328125
100
AcDbLine
 10
168861.6376227277
 20
106530.7226231438
 30
0.0
 11
168861.6376227277
 21
106532.2538149628
 31
0.0
  0
LINE
  5
82360
330
1F
100
AcDbEntity
  8
freecads.com
 48
0.2055648803710937
100
AcDbLine
 10
168861.8341295758
 20
106530.7226231438
 30
0.0
 11
168861.8341295758
 21
106531.5305212783
 31
0.0
  0
LINE
  5
82361
330
1F
100
AcDbEntity
  8
freecads.com
 48
0.0716522216796875
100
AcDbLine
 10
168861.8341295758
 20
106531.972211918
 30
0.0
 11
168861.8341295758
 21
106532.2538149628
 31
0.0
  0
LINE
  5
82362
330
1F
100
AcDbEntity
  8
freecads.com
 48
0.3896026611328125
100
AcDbLine
 10
168903.395327948
 20
106530.7226231438
 30
0.0
 11
168903.395327948
 21
106532.2538149628
 31
0.0
  0
LINE
  5
82363
330
1F
100
AcDbEntity
  8
freecads.com
 48
0.3896026611328125
100
AcDbLine
 10
168902.3145402835
 20
106530.7226231438
 30
0.0
 11
168902.3145402835
 21
106532.2538149628
 31
0.0
  0
LINE
  5
82364
330
1F
100
AcDbEntity
  8
freecads.com
 48
0.3896026611328125
100
AcDbLine
 10
168902.1180334354
 20
106530.7226231438
 30
0.0
 11
168902.1180334354
 21
106532.2538149628
 31
0.0
  0
LINE
  5
82365
330
1F
100
AcDbEntity
  8
freecads.com
 48
0.0831924438476563
100
AcDbLine
 10
168861.8341295758
 20
106531.0495748454
 30
0.0
 11
168861.8341295758
 21
106530.7226171469
 31
0.0
  0
LINE
  5
82366
330
1F
100
AcDbEntity
  8
freecads.com
 48
0.0473831176757813
100
AcDbLine
 10
168861.8341295758
 20
106531.0495748454
 30
0.0
 11
168861.8341295758
 21
106531.2357969876
 31
0.0
  0
LINE
  5
82367
330
1F
100
AcDbEntity
  8
freecads.com
 48
0.1000064849853516
100
AcDbLine
 10
168902.1180334354
 20
106531.2357969876
 30
0.0
 11
168901.7249942523
 21
106531.2357969876
 31
0.0
  0
LINE
  5
82368
330
1F
100
AcDbEntity
  8
freecads.com
100
AcDbLine
 10
168899.5634189233
 20
106531.2357969876
 30
0.0
 11
168882.7129810616
 21
106531.2357969876
 31
0.0
  0
LINE
  5
82369
330
1F
100
AcDbEntity
  8
freecads.com
100
AcDbLine
 10
168881.2391797008
 20
106531.2357969876
 30
0.0
 11
168864.3886931142
 21
106531.2357969876
 31
0.0
  0
LINE
  5
8236A
330
1F
100
AcDbEntity
  8
freecads.com
 48
0.0999935150146485
100
AcDbLine
 10
168862.2271177852
 20
106531.2357969876
 30
0.0
 11
168861.8341295758
 21
106531.2357969876
 31
0.0
  0
LINE
  5
8236B
330
1F
100
AcDbEntity
  8
freecads.com
 48
0.0026130676269531
100
AcDbLine
 10
168861.8341160828
 20
106531.5183475447
 30
0.0
 11
168861.8443857965
 21
106531.5183475447
 31
0.0
  0
LINE
  5
8236C
330
1F
100
AcDbEntity
  8
freecads.com
 48
0.0216217041015625
100
AcDbLine
 10
168861.9190893428
 20
106532.0183911472
 30
0.0
 11
168861.8341130843
 21
106532.0183911472
 31
0.0
  0
LINE
  5
8236D
330
1F
100
AcDbEntity
  8
freecads.com
 48
0.0026168823242188
100
AcDbLine
 10
168902.1077352364
 20
106531.5183475447
 30
0.0
 11
168902.1180199423
 21
106531.5183475447
 31
0.0
  0
LINE
  5
8236E
330
1F
100
AcDbEntity
  8
freecads.com
 48
0.0216888427734375
100
AcDbLine
 10
168902.1180169438
 20
106532.0183911472
 30
0.0
 11
168902.0327768212
 21
106532.0183911472
 31
0.0
  0
ELLIPSE
  5
8236F
330
1F
100
AcDbEntity
  8
freecads.com
100
AcDbEllipse
 10
168863.3079309366
 20
106532.0457670555
 30
0.0
 11
0.7369006803577949
 21
0.0
 31
0.0
210
0.0
220
0.0
230
1.0
 40
0.0523359576861064
 41
0.5100046396255494
 42
2.641592741012573
  0
ELLIPSE
  5
82370
330
1F
100
AcDbEntity
  8
freecads.com
100
AcDbEllipse
 10
168900.6442320747
 20
106532.0457670555
 30
0.0
 11
-0.7369006803577948
 21
-0.0000000644219084
 31
0.0
210
0.0
220
0.0
230
1.0
 40
0.0523359576861064
 41
3.641592741012573
 42
5.773130893707275
  0
LINE
  5
82371
330
1F
100
AcDbEntity
  8
freecads.com
 48
0.0487983703613281
100
AcDbLine
 10
168864.0448316169
 20
106532.0620276853
 30
0.0
 11
168864.0448316169
 21
106532.2538119644
 31
0.0
  0
LINE
  5
82372
330
1F
100
AcDbEntity
  8
freecads.com
 48
0.0488243103027344
100
AcDbLine
 10
168862.5710302562
 20
106532.0619257378
 30
0.0
 11
168862.5710302562
 21
106532.2538119644
 31
0.0
  0
LINE
  5
82373
330
1F
100
AcDbEntity
  8
freecads.com
 48
0.0488243103027344
100
AcDbLine
 10
168899.9073313943
 20
106532.2538119644
 30
0.0
 11
168899.9073313943
 21
106532.0619257378
 31
0.0
  0
LINE
  5
82374
330
1F
100
AcDbEntity
  8
freecads.com
 48
0.0487983703613281
100
AcDbLine
 10
168901.381132755
 20
106532.2538119644
 30
0.0
 11
168901.381132755
 21
106532.0620276853
 31
0.0
  0
LINE
  5
82375
330
1F
100
AcDbEntity
  8
freecads.com
 48
0.3896026611328125
100
AcDbLine
 10
168902.3145402835
 20
106530.7226231438
 30
0.0
 11
168902.3145402835
 21
106532.2538149628
 31
0.0
  0
LINE
  5
82376
330
1F
100
AcDbEntity
  8
freecads.com
 48
0.3896026611328125
100
AcDbLine
 10
168903.395327948
 20
106532.2538149628
 30
0.0
 11
168903.395327948
 21
106530.7226231438
 31
0.0
  0
LINE
  5
82377
330
1F
100
AcDbEntity
  8
freecads.com
 48
0.3896026611328125
100
AcDbLine
 10
168861.6376227277
 20
106530.7226231438
 30
0.0
 11
168861.6376227277
 21
106532.2538149628
 31
0.0
  0
LINE
  5
82378
330
1F
100
AcDbEntity
  8
freecads.com
 48
0.3896026611328125
100
AcDbLine
 10
168860.5568350632
 20
106532.2538149628
 30
0.0
 11
168860.5568350632
 21
106530.7226231438
 31
0.0
  0
LINE
  5
82379
330
1F
100
AcDbEntity
  8
freecads.com
100
AcDbLine
 10
168880.0110130246
 20
106531.3743661591
 30
0.0
 11
168883.9411499866
 21
106531.3743661591
 31
0.0
  0
LINE
  5
8237A
330
1F
100
AcDbEntity
  8
freecads.com
 48
0.0352581024169922
100
AcDbLine
 10
168880.0110130246
 20
106531.3743661591
 30
0.0
 11
168880.0110130246
 21
106531.2357969876
 31
0.0
  0
LINE
  5
8237B
330
1F
100
AcDbEntity
  8
freecads.com
 48
0.0352581024169922
100
AcDbLine
 10
168883.9411499866
 20
106531.3743661591
 30
0.0
 11
168883.9411499866
 21
106531.2357969876
 31
0.0
  0
LINE
  5
8237C
330
1F
100
AcDbEntity
  8
freecads.com
 48
0.1488662719726562
100
AcDbLine
 10
168880.0110130246
 20
106532.2537849783
 30
0.0
 11
168880.0110130246
 21
106531.6687201404
 31
0.0
  0
LINE
  5
8237D
330
1F
100
AcDbEntity
  8
freecads.com
 48
0.1488662719726562
100
AcDbLine
 10
168883.9411499866
 20
106532.2537849783
 30
0.0
 11
168883.9411499866
 21
106531.6687201404
 31
0.0
  0
LINE
  5
8237E
330
1F
100
AcDbEntity
  8
freecads.com
100
AcDbLine
 10
168880.0110130246
 20
106531.6687231389
 30
0.0
 11
168883.9411499866
 21
106531.6687231389
 31
0.0
  0
LINE
  5
8237F
330
1F
100
AcDbEntity
  8
freecads.com
 48
0.0748973846435547
100
AcDbLine
 10
168880.0110130246
 20
106531.6687231389
 30
0.0
 11
168880.0110130246
 21
106531.3743661591
 31
0.0
  0
LINE
  5
82380
330
1F
100
AcDbEntity
  8
freecads.com
 48
0.0748973846435547
100
AcDbLine
 10
168883.9411499866
 20
106531.6687231389
 30
0.0
 11
168883.9411499866
 21
106531.3743661591
 31
0.0
  0
ELLIPSE
  5
82381
330
1F
100
AcDbEntity
  8
freecads.com
100
AcDbEllipse
 10
168881.9760815056
 20
106531.2738848819
 30
0.0
 11
-0.7369006803577948
 21
-0.0000000644219084
 31
0.0
210
0.0
220
0.0
230
1.0
 40
0.0523359576861064
 41
3.194024801254272
 42
6.230693340301513
  0
ELLIPSE
  5
82382
330
1F
100
AcDbEntity
  8
freecads.com
100
AcDbEllipse
 10
168881.9760815056
 20
106531.2738848819
 30
0.0
 11
-0.7369006803577948
 21
-0.0000000644219084
 31
0.0
210
0.0
220
0.0
230
1.0
 40
0.0523359576861064
 41
6.230693340301513
 42
6.283185482025146
  0
ELLIPSE
  5
82383
330
1F
100
AcDbEntity
  8
freecads.com
100
AcDbEllipse
 10
168881.9760815056
 20
106531.2738848819
 30
0.0
 11
-0.7369006803577948
 21
-0.0000000644219084
 31
0.0
210
0.0
220
0.0
230
1.0
 40
0.0523359576861064
 41
3.141592741012573
 42
3.194024801254272
  0
ELLIPSE
  5
82384
330
1F
100
AcDbEntity
  8
freecads.com
100
AcDbEllipse
 10
168881.9760815056
 20
106531.3229456278
 30
0.0
 11
-0.6877739683339418
 21
-0.0000000601271142
 31
0.0
210
0.0
220
0.0
230
0.9999999999999998
 40
0.0523359562669482
 41
3.194024801254272
 42
4.71238899230957
  0
ELLIPSE
  5
82385
330
1F
100
AcDbEntity
  8
freecads.com
100
AcDbEllipse
 10
168881.9760815056
 20
106531.3229456278
 30
0.0
 11
-0.6877739683339418
 21
-0.0000000601271142
 31
0.0
210
0.0
220
0.0
230
0.9999999999999998
 40
0.0523359562669482
 41
4.71238899230957
 42
6.230753421783447
  0
LINE
  5
82386
330
1F
100
AcDbEntity
  8
freecads.com
 48
0.1402664184570312
100
AcDbLine
 10
168881.2391808253
 20
106531.2738848819
 30
0.0
 11
168881.2391808253
 21
106530.7226186462
 31
0.0
  0
LINE
  5
82387
330
1F
100
AcDbEntity
  8
freecads.com
 48
0.1402664184570312
100
AcDbLine
 10
168882.7129821859
 20
106531.2738848819
 30
0.0
 11
168882.7129821859
 21
106530.7226186462
 31
0.0
  0
LINE
  5
82388
330
1F
100
AcDbEntity
  8
freecads.com
 48
0.0176291246345215
100
AcDbLine
 10
168882.6629103042
 20
106531.324831657
 30
0.0
 11
168882.7119695041
 21
106531.2759073408
 31
0.0
  0
LINE
  5
82389
330
1F
100
AcDbEntity
  8
freecads.com
 48
0.0176291246345215
100
AcDbLine
 10
168881.289252707
 20
106531.324831657
 30
0.0
 11
168881.2401935071
 21
106531.2759073408
 31
0.0
  0
LINE
  5
8238A
330
1F
100
AcDbEntity
  8
freecads.com
100
AcDbLine
 10
168906.5394375175
 20
106532.4595030848
 30
0.0
 11
168906.5394375175
 21
106545.7055386877
 31
0.0
  0
LINE
  5
8238B
330
1F
100
AcDbEntity
  8
freecads.com
 48
0.4419380187988282
100
AcDbLine
 10
168906.5394375175
 20
106530.7226261423
 30
0.0
 11
168906.5394375175
 21
106532.4595030848
 31
0.0
  0
LINE
  5
8238C
330
1F
100
AcDbEntity
  8
freecads.com
 48
0.4419380187988282
100
AcDbLine
 10
168857.4127254937
 20
106532.4595030848
 30
0.0
 11
168857.4127254937
 21
106530.7226261423
 31
0.0
  0
LINE
  5
8238D
330
1F
100
AcDbEntity
  8
freecads.com
100
AcDbLine
 10
168857.4127254937
 20
106532.4595030848
 30
0.0
 11
168906.5394375175
 21
106532.4595030848
 31
0.0
  0
LINE
  5
8238E
330
1F
100
AcDbEntity
  8
freecads.com
 48
0.4288543701171875
100
AcDbLine
 10
168905.5569032771
 20
106532.4080825536
 30
0.0
 11
168905.5569032771
 21
106530.7226261423
 31
0.0
  0
LINE
  5
8238F
330
1F
100
AcDbEntity
  8
freecads.com
100
AcDbLine
 10
168858.3952597342
 20
106532.4080825536
 30
0.0
 11
168905.5569032771
 21
106532.4080825536
 31
0.0
  0
LINE
  5
82390
330
1F
100
AcDbEntity
  8
freecads.com
 48
0.4288543701171875
100
AcDbLine
 10
168858.3952597342
 20
106530.7226261423
 30
0.0
 11
168858.3952597342
 21
106532.4080825536
 31
0.0
  0
LINE
  5
82391
330
1F
100
AcDbEntity
  8
freecads.com
100
AcDbLine
 10
168857.4127254937
 20
106532.4595030848
 30
0.0
 11
168857.4127254937
 21
106545.7055386877
 31
0.0
  0
LINE
  5
82392
330
1F
100
AcDbEntity
  8
freecads.com
100
AcDbLine
 10
168857.4127254937
 20
106545.7055386877
 30
0.0
 11
168906.5394375175
 21
106545.7055386877
 31
0.0
  0
LINE
  5
82393
330
1F
100
AcDbEntity
  8
freecads.com
 48
0.1248283386230469
100
AcDbLine
 10
168906.5394375175
 20
106546.1961311553
 30
0.0
 11
168906.5394375175
 21
106545.7055386877
 31
0.0
  0
LINE
  5
82394
330
1F
100
AcDbEntity
  8
freecads.com
100
AcDbLine
 10
168906.5394375175
 20
106543.0316020967
 30
0.0
 11
168906.5394375175
 21
106545.7055386877
 31
0.0
  0
LINE
  5
82395
330
1F
100
AcDbEntity
  8
freecads.com
 48
0.1248283386230469
100
AcDbLine
 10
168857.4127254937
 20
106546.1961311553
 30
0.0
 11
168857.4127254937
 21
106545.7055386877
 31
0.0
  0
LINE
  5
82396
330
1F
100
AcDbEntity
  8
freecads.com
100
AcDbLine
 10
168857.4127254937
 20
106545.7055386877
 30
0.0
 11
168906.5394375175
 21
106545.7055386877
 31
0.0
  0
LINE
  5
82397
330
1F
100
AcDbEntity
  8
freecads.com
100
AcDbLine
 10
168857.4127254937
 20
106546.1961311553
 30
0.0
 11
168906.5394375175
 21
106546.1961311553
 31
0.0
  0
LINE
  5
82398
330
1F
100
AcDbEntity
  8
freecads.com
100
AcDbLine
 10
168886.888752708
 20
106546.3885061302
 30
0.0
 11
168877.0634103032
 21
106546.3885061302
 31
0.0
  0
LINE
  5
82399
330
1F
100
AcDbEntity
  8
freecads.com
 48
0.0489593505859375
100
AcDbLine
 10
168886.888752708
 20
106546.1960891769
 30
0.0
 11
168886.888752708
 21
106546.3885061302
 31
0.0
  0
LINE
  5
8239A
330
1F
100
AcDbEntity
  8
freecads.com
 48
0.0489593505859375
100
AcDbLine
 10
168877.0634103032
 20
106546.1960891769
 30
0.0
 11
168877.0634103032
 21
106546.3885061302
 31
0.0
  0
LINE
  5
8239B
330
1F
100
AcDbEntity
  8
freecads.com
 48
0.12628173828125
100
AcDbLine
 10
168873.1332733413
 20
106546.6923937041
 30
0.0
 11
168873.1332733413
 21
106546.1960891769
 31
0.0
  0
ELLIPSE
  5
8239C
330
1F
100
AcDbEntity
  8
freecads.com
100
AcDbEllipse
 10
168873.6245404616
 20
106546.6923937041
 30
0.0
 11
0.49126712023853
 21
0.0
 31
0.0
210
0.0
220
0.0
230
1.0
 40
0.325568151473999
 41
1.570796370506286
 42
3.141592741012573
  0
ELLIPSE
  5
8239D
330
1F
100
AcDbEntity
  8
freecads.com
100
AcDbEllipse
 10
168876.0808760628
 20
106546.6124218696
 30
0.0
 11
0.6386472563100889
 21
0.0
 31
0.0
210
0.0
220
0.0
230
1.0
 40
0.3255681624779334
 41
0.3515416085720062
 42
2.790058135986328
  0
ELLIPSE
  5
8239E
330
1F
100
AcDbEntity
  8
freecads.com
100
AcDbEllipse
 10
168876.0808760628
 20
106546.6124218696
 30
0.0
 11
0.6386472563100889
 21
0.0
 31
0.0
210
0.0
220
0.0
230
1.0
 40
0.3255681624779334
 41
4.21238899230957
 42
6.634727001190185
  0
ELLIPSE
  5
8239F
330
1F
100
AcDbEntity
  8
freecads.com
100
AcDbEllipse
 10
168876.0808760628
 20
106546.6124218696
 30
0.0
 11
0.6386472563100889
 21
0.0
 31
0.0
210
0.0
220
0.0
230
1.0
 40
0.3255681624779334
 41
2.790058135986328
 42
4.21238899230957
  0
LINE
  5
823A0
330
1F
100
AcDbEntity
  8
freecads.com
 48
0.12628173828125
100
AcDbLine
 10
168890.8188896699
 20
106546.6923937041
 30
0.0
 11
168890.8188896699
 21
106546.1960891769
 31
0.0
  0
ELLIPSE
  5
823A1
330
1F
100
AcDbEntity
  8
freecads.com
100
AcDbEllipse
 10
168890.3276225496
 20
106546.6923937041
 30
0.0
 11
0.49126712023853
 21
0.0
 31
0.0
210
0.0
220
0.0
230
1.0
 40
0.325568151473999
 41
0.0
 42
1.570796370506286
  0
ELLIPSE
  5
823A2
330
1F
100
AcDbEntity
  8
freecads.com
100
AcDbEllipse
 10
168887.8712869485
 20
106546.6124218696
 30
0.0
 11
0.6386472563100889
 21
0.0
 31
0.0
210
0.0
220
0.0
230
1.0
 40
0.3255681624779334
 41
0.3515346050262451
 42
2.790050983428955
  0
ELLIPSE
  5
823A3
330
1F
100
AcDbEntity
  8
freecads.com
100
AcDbEllipse
 10
168887.8712869485
 20
106546.6124218696
 30
0.0
 11
0.6386472563100889
 21
0.0
 31
0.0
210
0.0
220
0.0
230
1.0
 40
0.3255681624779334
 41
2.790050983428955
 42
5.21238899230957
  0
ELLIPSE
  5
823A4
330
1F
100
AcDbEntity
  8
freecads.com
100
AcDbEllipse
 10
168887.8712869485
 20
106546.6124218696
 30
0.0
 11
0.6386472563100889
 21
0.0
 31
0.0
210
0.0
220
0.0
230
1.0
 40
0.3255681624779334
 41
5.21238899230957
 42
6.634719848632812
  0
LINE
  5
823A5
330
1F
100
AcDbEntity
  8
freecads.com
100
AcDbLine
 10
168890.3276225496
 20
106546.8523343746
 30
0.0
 11
168873.6245404616
 21
106546.8523343746
 31
0.0
  0
LINE
  5
823A6
330
1F
100
AcDbEntity
  8
freecads.com
100
AcDbLine
 10
168857.4127254937
 20
106548.6246140936
 30
0.0
 11
168857.4127254937
 21
106546.1960891769
 31
0.0
  0
LINE
  5
823A7
330
1F
100
AcDbEntity
  8
freecads.com
100
AcDbLine
 10
168906.5394375175
 20
106548.6246140936
 30
0.0
 11
168906.5394375175
 21
106587.6428004812
 31
0.0
  0
LINE
  5
823A8
330
1F
100
AcDbEntity
  8
freecads.com
100
AcDbLine
 10
168906.5394375175
 20
106546.1960891769
 30
0.0
 11
168906.5394375175
 21
106548.6246140936
 31
0.0
  0
LINE
  5
823A9
330
1F
100
AcDbEntity
  8
freecads.com
100
AcDbLine
 10
168857.4127254937
 20
106548.6246140936
 30
0.0
 11
168906.5394375175
 21
106548.6246140936
 31
0.0
  0
LINE
  5
823AA
330
1F
100
AcDbEntity
  8
freecads.com
100
AcDbLine
 10
168857.4127254937
 20
106587.8027381533
 30
0.0
 11
168857.4127254937
 21
106548.7845547641
 31
0.0
  0
LINE
  5
823AB
330
1F
100
AcDbEntity
  8
freecads.com
100
AcDbLine
 10
168906.5394375175
 20
106548.7845547641
 30
0.0
 11
168857.4127254937
 21
106548.7845547641
 31
0.0
  0
LINE
  5
823AC
330
1F
100
AcDbEntity
  8
freecads.com
100
AcDbLine
 10
168906.5394375175
 20
106548.7845547641
 30
0.0
 11
168906.5394375175
 21
106587.8027381533
 31
0.0
  0
LINE
  5
823AD
330
1F
100
AcDbEntity
  8
freecads.com
100
AcDbLine
 10
168857.4127254937
 20
106587.8027381533
 30
0.0
 11
168906.5394375175
 21
106587.8027381533
 31
0.0
  0
LINE
  5
823AE
330
1F
100
AcDbEntity
  8
freecads.com
 48
0.0406959533691406
100
AcDbLine
 10
168906.5394375175
 20
106548.7845547641
 30
0.0
 11
168906.5394375175
 21
106548.6246140936
 31
0.0
  0
LINE
  5
823AF
330
1F
100
AcDbEntity
  8
freecads.com
100
AcDbLine
 10
168906.5394375175
 20
106548.6246140936
 30
0.0
 11
168857.4127254937
 21
106548.6246140936
 31
0.0
  0
LINE
  5
823B0
330
1F
100
AcDbEntity
  8
freecads.com
 48
0.0406959533691406
100
AcDbLine
 10
168857.4127254937
 20
106548.7845547641
 30
0.0
 11
168857.4127254937
 21
106548.6246140936
 31
0.0
  0
ELLIPSE
  5
823B1
330
1F
100
AcDbEntity
  8
freecads.com
100
AcDbEllipse
 10
168863.3079309366
 20
106531.9967063095
 30
0.0
 11
1.449238004703663
 21
0.0
 31
0.0
210
0.0
220
0.0
230
1.0
 40
0.052335957349357
 41
2.641592741012573
 42
3.089069366455078
  0
ELLIPSE
  5
823B2
330
1F
100
AcDbEntity
  8
freecads.com
100
AcDbEllipse
 10
168863.3079309366
 20
106531.9967063095
 30
0.0
 11
1.449238004703663
 21
0.0
 31
0.0
210
0.0
220
0.0
230
1.0
 40
0.052335957349357
 41
0.0524651557207108
 42
2.641592741012573
  0
ELLIPSE
  5
823B3
330
1F
100
AcDbEntity
  8
freecads.com
100
AcDbEllipse
 10
168863.3079309366
 20
106531.9721774357
 30
0.0
 11
1.473801360715589
 21
0.0
 31
0.0
210
0.0
220
0.0
230
1.0
 40
0.0523359576861064
 41
0.0524651594460011
 42
3.089069366455078
  0
ELLIPSE
  5
823B4
330
1F
100
AcDbEntity
  8
freecads.com
100
AcDbEllipse
 10
168863.3079309366
 20
106531.9721774357
 30
0.0
 11
1.473801360715589
 21
0.0
 31
0.0
210
0.0
220
0.0
230
1.0
 40
0.0523359576861064
 41
6.28310489654541
 42
6.335650444030761
  0
ELLIPSE
  5
823B5
330
1F
100
AcDbEntity
  8
freecads.com
100
AcDbEllipse
 10
168863.3079309366
 20
106531.9721774357
 30
0.0
 11
1.473801360715589
 21
0.0
 31
0.0
210
0.0
220
0.0
230
1.0
 40
0.0523359576861064
 41
3.089069366455078
 42
3.141657829284667
  0
ELLIPSE
  5
823B6
330
1F
100
AcDbEntity
  8
freecads.com
100
AcDbEllipse
 10
168863.3079309366
 20
106531.506113842
 30
0.0
 11
1.449238004703663
 21
0.0
 31
0.0
210
0.0
220
0.0
230
1.0
 40
0.052335957349357
 41
6.230661869049072
 42
9.477243423461914
  0
ELLIPSE
  5
823B7
330
1F
100
AcDbEntity
  8
freecads.com
100
AcDbEllipse
 10
168863.3079309366
 20
106531.506113842
 30
0.0
 11
1.449238004703663
 21
0.0
 31
0.0
210
0.0
220
0.0
230
1.0
 40
0.052335957349357
 41
5.783185482025146
 42
6.230661869049072
  0
ELLIPSE
  5
823B8
330
1F
100
AcDbEntity
  8
freecads.com
100
AcDbEllipse
 10
168863.3079309366
 20
106531.506113842
 30
0.0
 11
1.449238004703663
 21
0.0
 31
0.0
210
0.0
220
0.0
230
1.0
 40
0.052335957349357
 41
5.554065227508544
 42
5.783185482025146
  0
ELLIPSE
  5
823B9
330
1F
100
AcDbEntity
  8
freecads.com
100
AcDbEllipse
 10
168863.3079309366
 20
106531.506113842
 30
0.0
 11
1.449238004703663
 21
0.0
 31
0.0
210
0.0
220
0.0
230
1.0
 40
0.052335957349357
 41
3.194057703018188
 42
3.870717048645019
  0
ELLIPSE
  5
823BA
330
1F
100
AcDbEntity
  8
freecads.com
100
AcDbEllipse
 10
168863.3079309366
 20
106531.5306427158
 30
0.0
 11
1.473801360715589
 21
0.0
 31
0.0
210
0.0
220
0.0
230
1.0
 40
0.0523359576861064
 41
3.141563653945922
 42
3.194024562835693
  0
ELLIPSE
  5
823BB
330
1F
100
AcDbEntity
  8
freecads.com
100
AcDbEllipse
 10
168863.3079309366
 20
106531.5306427158
 30
0.0
 11
1.473801360715589
 21
0.0
 31
0.0
210
0.0
220
0.0
230
1.0
 40
0.0523359576861064
 41
6.283156394958496
 42
9.424748420715332
  0
ELLIPSE
  5
823BC
330
1F
100
AcDbEntity
  8
freecads.com
100
AcDbEllipse
 10
168863.3079309366
 20
106531.5306427158
 30
0.0
 11
1.473801360715589
 21
0.0
 31
0.0
210
0.0
220
0.0
230
1.0
 40
0.0523359576861064
 41
6.230753421783447
 42
6.283156394958496
  0
LINE
  5
823BD
330
1F
100
AcDbEntity
  8
freecads.com
 48
0.0088142967981698
100
AcDbLine
 10
168864.7551749676
 20
106532.0006837621
 30
0.0
 11
168864.7797038414
 21
106531.9762223536
 31
0.0
  0
LINE
  5
823BE
330
1F
100
AcDbEntity
  8
freecads.com
 48
0.0088142967981698
100
AcDbLine
 10
168861.8606914031
 20
106532.0006882598
 30
0.0
 11
168861.8361625294
 21
106531.9762268513
 31
0.0
  0
LINE
  5
823BF
330
1F
100
AcDbEntity
  8
freecads.com
 48
0.1123439788818359
100
AcDbLine
 10
168861.8341295758
 20
106531.5306457142
 30
0.0
 11
168861.8341295758
 21
106531.9721729381
 31
0.0
  0
LINE
  5
823C0
330
1F
100
AcDbEntity
  8
freecads.com
 48
0.1123447418212891
100
AcDbLine
 10
168864.7817322972
 20
106531.5306412165
 30
0.0
 11
168864.7817322972
 21
106531.9721714388
 31
0.0
  0
LINE
  5
823C1
330
1F
100
AcDbEntity
  8
freecads.com
 48
0.0088142967981698
100
AcDbLine
 10
168864.75517047
 20
106531.5021318917
 30
0.0
 11
168864.7796993437
 21
106531.5265933002
 31
0.0
  0
LINE
  5
823C2
330
1F
100
AcDbEntity
  8
freecads.com
 48
0.0088145661704206
100
AcDbLine
 10
168861.8606869054
 20
106531.5021348902
 30
0.0
 11
168861.8361580317
 21
106531.5265977979
 31
0.0
  0
ELLIPSE
  5
823C3
330
1F
100
AcDbEntity
  8
freecads.com
100
AcDbEllipse
 10
168900.6442320747
 20
106531.9967063095
 30
0.0
 11
1.449238004703663
 21
0.0
 31
0.0
210
0.0
220
0.0
230
1.0
 40
0.052335957349357
 41
2.641592741012573
 42
3.089069366455078
  0
ELLIPSE
  5
823C4
330
1F
100
AcDbEntity
  8
freecads.com
100
AcDbEllipse
 10
168900.6442320747
 20
106531.9967063095
 30
0.0
 11
1.449238004703663
 21
0.0
 31
0.0
210
0.0
220
0.0
230
1.0
 40
0.052335957349357
 41
0.0524651557207108
 42
2.641592741012573
  0
ELLIPSE
  5
823C5
330
1F
100
AcDbEntity
  8
freecads.com
100
AcDbEllipse
 10
168900.6442320747
 20
106531.9721774357
 30
0.0
 11
1.473801360715589
 21
0.0
 31
0.0
210
0.0
220
0.0
230
1.0
 40
0.0523359576861064
 41
0.0524651594460011
 42
3.089069366455078
  0
ELLIPSE
  5
823C6
330
1F
100
AcDbEntity
  8
freecads.com
100
AcDbEllipse
 10
168900.6442320747
 20
106531.9721774357
 30
0.0
 11
1.473801360715589
 21
0.0
 31
0.0
210
0.0
220
0.0
230
1.0
 40
0.0523359576861064
 41
6.28310489654541
 42
6.335650444030761
  0
ELLIPSE
  5
823C7
330
1F
100
AcDbEntity
  8
freecads.com
100
AcDbEllipse
 10
168900.6442320747
 20
106531.9721774357
 30
0.0
 11
1.473801360715589
 21
0.0
 31
0.0
210
0.0
220
0.0
230
1.0
 40
0.0523359576861064
 41
3.089069366455078
 42
3.141657829284667
  0
ELLIPSE
  5
823C8
330
1F
100
AcDbEntity
  8
freecads.com
100
AcDbEllipse
 10
168900.6442320747
 20
106531.506113842
 30
0.0
 11
1.449238004703663
 21
0.0
 31
0.0
210
0.0
220
0.0
230
1.0
 40
0.052335957349357
 41
6.230661869049072
 42
9.477243423461914
  0
ELLIPSE
  5
823C9
330
1F
100
AcDbEntity
  8
freecads.com
100
AcDbEllipse
 10
168900.6442320747
 20
106531.506113842
 30
0.0
 11
1.449238004703663
 21
0.0
 31
0.0
210
0.0
220
0.0
230
1.0
 40
0.052335957349357
 41
5.783185482025146
 42
6.230661869049072
  0
ELLIPSE
  5
823CA
330
1F
100
AcDbEntity
  8
freecads.com
100
AcDbEllipse
 10
168900.6442320747
 20
106531.506113842
 30
0.0
 11
1.449238004703663
 21
0.0
 31
0.0
210
0.0
220
0.0
230
1.0
 40
0.052335957349357
 41
5.554065227508544
 42
5.783185482025146
  0
ELLIPSE
  5
823CB
330
1F
100
AcDbEntity
  8
freecads.com
100
AcDbEllipse
 10
168900.6442320747
 20
106531.506113842
 30
0.0
 11
1.449238004703663
 21
0.0
 31
0.0
210
0.0
220
0.0
230
1.0
 40
0.052335957349357
 41
3.194057703018188
 42
3.870717048645019
  0
ELLIPSE
  5
823CC
330
1F
100
AcDbEntity
  8
freecads.com
100
AcDbEllipse
 10
168900.6442320747
 20
106531.5306427158
 30
0.0
 11
1.473801360715589
 21
0.0
 31
0.0
210
0.0
220
0.0
230
1.0
 40
0.0523359576861064
 41
3.141563653945922
 42
3.194024562835693
  0
ELLIPSE
  5
823CD
330
1F
100
AcDbEntity
  8
freecads.com
100
AcDbEllipse
 10
168900.6442320747
 20
106531.5306427158
 30
0.0
 11
1.473801360715589
 21
0.0
 31
0.0
210
0.0
220
0.0
230
1.0
 40
0.0523359576861064
 41
6.283156394958496
 42
9.424748420715332
  0
ELLIPSE
  5
823CE
330
1F
100
AcDbEntity
  8
freecads.com
100
AcDbEllipse
 10
168900.6442320747
 20
106531.5306427158
 30
0.0
 11
1.473801360715589
 21
0.0
 31
0.0
210
0.0
220
0.0
230
1.0
 40
0.0523359576861064
 41
6.230753421783447
 42
6.283156394958496
  0
LINE
  5
823CF
330
1F
100
AcDbEntity
  8
freecads.com
 48
0.0088142967981698
100
AcDbLine
 10
168902.0914761058
 20
106532.0006837621
 30
0.0
 11
168902.1160049795
 21
106531.9762223536
 31
0.0
  0
LINE
  5
823D0
330
1F
100
AcDbEntity
  8
freecads.com
 48
0.0088142967981698
100
AcDbLine
 10
168899.1969925413
 20
106532.0006882598
 30
0.0
 11
168899.1724636675
 21
106531.9762268513
 31
0.0
  0
LINE
  5
823D1
330
1F
100
AcDbEntity
  8
freecads.com
 48
0.1123439788818359
100
AcDbLine
 10
168899.170430714
 20
106531.5306457142
 30
0.0
 11
168899.170430714
 21
106531.9721729381
 31
0.0
  0
LINE
  5
823D2
330
1F
100
AcDbEntity
  8
freecads.com
 48
0.1123447418212891
100
AcDbLine
 10
168902.1180334354
 20
106531.5306412165
 30
0.0
 11
168902.1180334354
 21
106531.9721714388
 31
0.0
  0
LINE
  5
823D3
330
1F
100
AcDbEntity
  8
freecads.com
 48
0.0088142967981698
100
AcDbLine
 10
168902.0914716081
 20
106531.5021318917
 30
0.0
 11
168902.1160004818
 21
106531.5265933002
 31
0.0
  0
LINE
  5
823D4
330
1F
100
AcDbEntity
  8
freecads.com
 48
0.0088145661704206
100
AcDbLine
 10
168899.1969880436
 20
106531.5021348902
 30
0.0
 11
168899.1724591698
 21
106531.5265977979
 31
0.0
  0
LINE
  5
823D5
330
1F
100
AcDbEntity
  8
freecads.com
100
AcDbLine
 10
168856.1845576931
 20
106555.6298871291
 30
0.0
 11
168856.1845576931
 21
106560.5425583315
 31
0.0
  0
LINE
  5
823D6
330
1F
100
AcDbEntity
  8
freecads.com
100
AcDbLine
 10
168856.1845576931
 20
106560.5425583315
 30
0.0
 11
168856.1845576931
 21
106555.6298871291
 31
0.0
  0
LINE
  5
823D7
330
1F
100
AcDbEntity
  8
freecads.com
100
AcDbLine
 10
168856.1845576931
 20
106555.6298871291
 30
0.0
 11
168854.022982364
 21
106555.6298871291
 31
0.0
  0
LINE
  5
823D8
330
1F
100
AcDbEntity
  8
freecads.com
100
AcDbLine
 10
168854.022982364
 20
106555.6298871291
 30
0.0
 11
168854.022982364
 21
106557.7914624582
 31
0.0
  0
ARC
  5
823D9
330
1F
100
AcDbEntity
  8
freecads.com
100
AcDbCircle
 10
168852.7456878514
 20
106557.7914624582
 30
0.0
 40
1.277294512620177
100
AcDbArc
 50
0.0
 51
180.00000500925
  0
LINE
  5
823DA
330
1F
100
AcDbEntity
  8
freecads.com
100
AcDbLine
 10
168851.4683933388
 20
106557.7914624582
 30
0.0
 11
168851.4683933388
 21
106555.6298871291
 31
0.0
  0
LINE
  5
823DB
330
1F
100
AcDbEntity
  8
freecads.com
100
AcDbLine
 10
168851.4683933388
 20
106555.6298871291
 30
0.0
 11
168849.3068180098
 21
106555.6298871291
 31
0.0
  0
LINE
  5
823DC
330
1F
100
AcDbEntity
  8
freecads.com
100
AcDbLine
 10
168849.3068180098
 20
106555.6298871291
 30
0.0
 11
168849.3068180098
 21
106560.5425583315
 31
0.0
  0
LINE
  5
823DD
330
1F
100
AcDbEntity
  8
freecads.com
100
AcDbLine
 10
168849.3068180098
 20
106560.5425583315
 30
0.0
 11
168856.1845576931
 21
106560.5425583315
 31
0.0
  0
LINE
  5
823DE
330
1F
100
AcDbEntity
  8
freecads.com
100
AcDbLine
 10
168849.3068180098
 20
106561.525092572
 30
0.0
 11
168856.1845576931
 21
106561.525092572
 31
0.0
  0
LINE
  5
823DF
330
1F
100
AcDbEntity
  8
freecads.com
 48
0.25
100
AcDbLine
 10
168849.3068180098
 20
106561.525092572
 30
0.0
 11
168849.3068180098
 21
106560.5425583315
 31
0.0
  0
LINE
  5
823E0
330
1F
100
AcDbEntity
  8
freecads.com
100
AcDbLine
 10
168856.1845576931
 20
106560.5425583315
 30
0.0
 11
168849.3068180098
 21
106560.5425583315
 31
0.0
  0
LINE
  5
823E1
330
1F
100
AcDbEntity
  8
freecads.com
 48
0.25
100
AcDbLine
 10
168856.1845576931
 20
106560.5425583315
 30
0.0
 11
168856.1845576931
 21
106561.525092572
 31
0.0
  0
LINE
  5
823E2
330
1F
100
AcDbEntity
  8
freecads.com
100
AcDbLine
 10
168914.6453450015
 20
106555.6298871291
 30
0.0
 11
168914.6453450015
 21
106560.5425583315
 31
0.0
  0
LINE
  5
823E3
330
1F
100
AcDbEntity
  8
freecads.com
100
AcDbLine
 10
168914.6453450015
 20
106560.5425583315
 30
0.0
 11
168914.6453450015
 21
106555.6298871291
 31
0.0
  0
LINE
  5
823E4
330
1F
100
AcDbEntity
  8
freecads.com
100
AcDbLine
 10
168914.6453450015
 20
106555.6298871291
 30
0.0
 11
168912.4837696724
 21
106555.6298871291
 31
0.0
  0
LINE
  5
823E5
330
1F
100
AcDbEntity
  8
freecads.com
100
AcDbLine
 10
168912.4837696724
 20
106555.6298871291
 30
0.0
 11
168912.4837696724
 21
106557.7914624582
 31
0.0
  0
ARC
  5
823E6
330
1F
100
AcDbEntity
  8
freecads.com
100
AcDbCircle
 10
168911.2064751598
 20
106557.7914624582
 30
0.0
 40
1.277294512620177
100
AcDbArc
 50
0.0
 51
180.00000500925
  0
LINE
  5
823E7
330
1F
100
AcDbEntity
  8
freecads.com
100
AcDbLine
 10
168909.9291806472
 20
106557.7914624582
 30
0.0
 11
168909.9291806472
 21
106555.6298871291
 31
0.0
  0
LINE
  5
823E8
330
1F
100
AcDbEntity
  8
freecads.com
100
AcDbLine
 10
168909.9291806472
 20
106555.6298871291
 30
0.0
 11
168907.7676053181
 21
106555.6298871291
 31
0.0
  0
LINE
  5
823E9
330
1F
100
AcDbEntity
  8
freecads.com
100
AcDbLine
 10
168907.7676053181
 20
106555.6298871291
 30
0.0
 11
168907.7676053181
 21
106560.5425583315
 31
0.0
  0
LINE
  5
823EA
330
1F
100
AcDbEntity
  8
freecads.com
100
AcDbLine
 10
168907.7676053181
 20
106560.5425583315
 30
0.0
 11
168914.6453450015
 21
106560.5425583315
 31
0.0
  0
LINE
  5
823EB
330
1F
100
AcDbEntity
  8
freecads.com
100
AcDbLine
 10
168907.7676053181
 20
106561.525092572
 30
0.0
 11
168914.6453450015
 21
106561.525092572
 31
0.0
  0
LINE
  5
823EC
330
1F
100
AcDbEntity
  8
freecads.com
 48
0.25
100
AcDbLine
 10
168907.7676053181
 20
106561.525092572
 30
0.0
 11
168907.7676053181
 21
106560.5425583315
 31
0.0
  0
LINE
  5
823ED
330
1F
100
AcDbEntity
  8
freecads.com
100
AcDbLine
 10
168914.6453450015
 20
106560.5425583315
 30
0.0
 11
168907.7676053181
 21
106560.5425583315
 31
0.0
  0
LINE
  5
823EE
330
1F
100
AcDbEntity
  8
freecads.com
 48
0.25
100
AcDbLine
 10
168914.6453450015
 20
106560.5425583315
 30
0.0
 11
168914.6453450015
 21
106561.525092572
 31
0.0
  0
LINE
  5
823EF
330
1F
100
AcDbEntity
  8
freecads.com
100
AcDbLine
 10
168851.4683933388
 20
106506.9453155135
 30
0.0
 11
168853.8666188521
 21
106506.9453155135
 31
0.0
  0
LINE
  5
823F0
330
1F
100
AcDbEntity
  8
freecads.com
 48
0.0397857666015625
100
AcDbLine
 10
168853.8666188521
 20
106506.9453155135
 30
0.0
 11
168854.022982364
 21
106506.9453155135
 31
0.0
  0
LINE
  5
823F1
330
1F
100
AcDbEntity
  8
freecads.com
 48
0.1057292461395263
100
AcDbLine
 10
168851.4683933388
 20
106506.9453155135
 30
0.0
 11
168851.4683933388
 21
106506.5297850953
 31
0.0
  0
LINE
  5
823F2
330
1F
100
AcDbEntity
  8
freecads.com
 48
0.1057292461395263
100
AcDbLine
 10
168854.022982364
 20
106506.9453155135
 30
0.0
 11
168854.022982364
 21
106506.5297850953
 31
0.0
  0
LINE
  5
823F3
330
1F
100
AcDbEntity
  8
freecads.com
100
AcDbLine
 10
168851.5813841767
 20
106505.962781273
 30
0.0
 11
168853.7674598942
 21
106505.962781273
 31
0.0
  0
LINE
  5
823F4
330
1F
100
AcDbEntity
  8
freecads.com
100
AcDbLine
 10
168851.4683933388
 20
106506.5297850953
 30
0.0
 11
168853.8666188521
 21
106506.5297850953
 31
0.0
  0
LINE
  5
823F5
330
1F
100
AcDbEntity
  8
freecads.com
 48
0.0362663269042969
100
AcDbLine
 10
168853.7674598942
 20
106505.962781273
 30
0.0
 11
168853.9099915261
 21
106505.962781273
 31
0.0
  0
LINE
  5
823F6
330
1F
100
AcDbEntity
  8
freecads.com
 48
0.0397857666015625
100
AcDbLine
 10
168853.8666188521
 20
106506.5297850953
 30
0.0
 11
168854.022982364
 21
106506.5297850953
 31
0.0
  0
ARC
  5
823F7
330
1F
100
AcDbEntity
  8
freecads.com
100
AcDbCircle
 10
168851.5813841767
 20
106506.2575415452
 30
0.0
 40
0.2947602721431179
100
AcDbArc
 50
112.5403095083297
 51
270.0000006836859
  0
ARC
  5
823F8
330
1F
100
AcDbEntity
  8
freecads.com
100
AcDbCircle
 10
168853.9099915261
 20
106506.2575415452
 30
0.0
 40
0.2947602721431179
100
AcDbArc
 50
269.9999974953749
 51
67.45968760639803
  0
LINE
  5
823F9
330
1F
100
AcDbEntity
  8
freecads.com
100
AcDbLine
 10
168909.9291806472
 20
106506.9453155135
 30
0.0
 11
168912.3274061605
 21
106506.9453155135
 31
0.0
  0
LINE
  5
823FA
330
1F
100
AcDbEntity
  8
freecads.com
 48
0.0397857666015625
100
AcDbLine
 10
168912.3274061605
 20
106506.9453155135
 30
0.0
 11
168912.4837696724
 21
106506.9453155135
 31
0.0
  0
LINE
  5
823FB
330
1F
100
AcDbEntity
  8
freecads.com
 48
0.1057292461395263
100
AcDbLine
 10
168909.9291806472
 20
106506.9453155135
 30
0.0
 11
168909.9291806472
 21
106506.5297850953
 31
0.0
  0
LINE
  5
823FC
330
1F
100
AcDbEntity
  8
freecads.com
 48
0.1057292461395263
100
AcDbLine
 10
168912.4837696724
 20
106506.9453155135
 30
0.0
 11
168912.4837696724
 21
106506.5297850953
 31
0.0
  0
LINE
  5
823FD
330
1F
100
AcDbEntity
  8
freecads.com
100
AcDbLine
 10
168910.0421714852
 20
106505.962781273
 30
0.0
 11
168912.2282472026
 21
106505.962781273
 31
0.0
  0
LINE
  5
823FE
330
1F
100
AcDbEntity
  8
freecads.com
100
AcDbLine
 10
168909.9291806472
 20
106506.5297850953
 30
0.0
 11
168912.3274061605
 21
106506.5297850953
 31
0.0
  0
LINE
  5
823FF
330
1F
100
AcDbEntity
  8
freecads.com
 48
0.0362663269042969
100
AcDbLine
 10
168912.2282472026
 20
106505.962781273
 30
0.0
 11
168912.3707788345
 21
106505.962781273
 31
0.0
  0
LINE
  5
82400
330
1F
100
AcDbEntity
  8
freecads.com
 48
0.0397857666015625
100
AcDbLine
 10
168912.3274061605
 20
106506.5297850953
 30
0.0
 11
168912.4837696724
 21
106506.5297850953
 31
0.0
  0
ARC
  5
82401
330
1F
100
AcDbEntity
  8
freecads.com
100
AcDbCircle
 10
168910.0421714852
 20
106506.2575415452
 30
0.0
 40
0.2947602721431179
100
AcDbArc
 50
112.5403095083297
 51
270.0000006836859
  0
ARC
  5
82402
330
1F
100
AcDbEntity
  8
freecads.com
100
AcDbCircle
 10
168912.3707788345
 20
106506.2575415452
 30
0.0
 40
0.2947602721431179
100
AcDbArc
 50
269.9999974953749
 51
67.45968760639803
  0
ARC
  5
82403
330
1F
100
AcDbEntity
  8
freecads.com
100
AcDbCircle
 10
169036.1036989965
 20
106552.8787912558
 30
0.0
 40
6.140839002981568
100
AcDbArc
 50
0.0
 51
90.00000250462504
  0
ARC
  5
82404
330
1F
100
AcDbEntity
  8
freecads.com
100
AcDbCircle
 10
169036.1036989965
 20
106552.8787912558
 30
0.0
 40
3.684503401788941
100
AcDbArc
 50
0.0
 51
90.00000250462504
  0
LINE
  5
82405
330
1F
100
AcDbEntity
  8
freecads.com
100
AcDbLine
 10
169042.2445379995
 20
106506.9453155135
 30
0.0
 11
169042.2445379995
 21
106552.8787912558
 31
0.0
  0
LINE
  5
82406
330
1F
100
AcDbEntity
  8
freecads.com
100
AcDbLine
 10
169039.7882023983
 20
106506.9453155135
 30
0.0
 11
169039.7882023983
 21
106528.5990487538
 31
0.0
  0
LINE
  5
82407
330
1F
100
AcDbEntity
  8
freecads.com
100
AcDbLine
 10
169039.7882023983
 20
106530.566273125
 30
0.0
 11
169039.7882023983
 21
106552.8787912558
 31
0.0
  0
LINE
  5
82408
330
1F
100
AcDbEntity
  8
freecads.com
100
AcDbLine
 10
168977.397278128
 20
106552.8787912558
 30
0.0
 11
168977.397278128
 21
106506.9453155135
 31
0.0
  0
LINE
  5
82409
330
1F
100
AcDbEntity
  8
freecads.com
100
AcDbLine
 10
168979.8536137292
 20
106552.8787912558
 30
0.0
 11
168979.8536137292
 21
106527.4204694276
 31
0.0
  0
LINE
  5
8240A
330
1F
100
AcDbEntity
  8
freecads.com
100
AcDbLine
 10
168979.8536137292
 20
106525.4524354731
 30
0.0
 11
168979.8536137292
 21
106506.9453155135
 31
0.0
  0
ARC
  5
8240B
330
1F
100
AcDbEntity
  8
freecads.com
100
AcDbCircle
 10
168983.538117131
 20
106552.8787912558
 30
0.0
 40
3.684503401788941
100
AcDbArc
 50
90.00000250462504
 51
180.00000500925
  0
ARC
  5
8240C
330
1F
100
AcDbEntity
  8
freecads.com
100
AcDbCircle
 10
168983.538117131
 20
106552.8787912558
 30
0.0
 40
6.140839002981568
100
AcDbArc
 50
90.00000250462504
 51
180.00000500925
  0
LINE
  5
8240D
330
1F
100
AcDbEntity
  8
freecads.com
100
AcDbLine
 10
168996.802326379
 20
106556.5632946576
 30
0.0
 11
168983.538117131
 21
106556.5632946576
 31
0.0
  0
LINE
  5
8240E
330
1F
100
AcDbEntity
  8
freecads.com
100
AcDbLine
 10
168996.802326379
 20
106559.0196302588
 30
0.0
 11
168983.538117131
 21
106559.0196302588
 31
0.0
  0
LINE
  5
8240F
330
1F
100
AcDbEntity
  8
freecads.com
100
AcDbLine
 10
169036.1036989965
 20
106559.0196302588
 30
0.0
 11
169035.1211617576
 21
106559.0196302588
 31
0.0
  0
LINE
  5
82410
330
1F
100
AcDbEntity
  8
freecads.com
100
AcDbLine
 10
169036.1036989965
 20
106556.5632946576
 30
0.0
 11
169035.1211617576
 21
106556.5632946576
 31
0.0
  0
ARC
  5
82411
330
1F
100
AcDbEntity
  8
freecads.com
100
AcDbCircle
 10
169036.1036989965
 20
106552.8787912558
 30
0.0
 40
3.684503401788941
100
AcDbArc
 50
0.0
 51
90.00000250462504
  0
LINE
  5
82412
330
1F
100
AcDbEntity
  8
freecads.com
100
AcDbLine
 10
169042.2445379995
 20
106506.9453155135
 30
0.0
 11
169042.2445379995
 21
106531.575594077
 31
0.0
  0
LINE
  5
82413
330
1F
100
AcDbEntity
  8
freecads.com
100
AcDbLine
 10
169042.2445379995
 20
106545.8419384759
 30
0.0
 11
169042.2445379995
 21
106552.8787912558
 31
0.0
  0
LINE
  5
82414
330
1F
100
AcDbEntity
  8
freecads.com
100
AcDbLine
 10
168979.8536137292
 20
106552.8787912558
 30
0.0
 11
168979.8536137292
 21
106527.4204694276
 31
0.0
  0
LINE
  5
82415
330
1F
100
AcDbEntity
  8
freecads.com
100
AcDbLine
 10
168979.8536137292
 20
106525.4524354731
 30
0.0
 11
168979.8536137292
 21
106506.9453155135
 31
0.0
  0
ARC
  5
82416
330
1F
100
AcDbEntity
  8
freecads.com
100
AcDbCircle
 10
168983.538117131
 20
106552.8787912558
 30
0.0
 40
3.684503401788941
100
AcDbArc
 50
128.5599792963461
 51
180.00000500925
  0
LINE
  5
82417
330
1F
100
AcDbEntity
  8
freecads.com
100
AcDbLine
 10
169036.1036989965
 20
106556.5632946576
 30
0.0
 11
169035.1211227776
 21
106556.5632946576
 31
0.0
  0
LINE
  5
82418
330
1F
100
AcDbEntity
  8
freecads.com
100
AcDbLine
 10
168996.802287399
 20
106556.5632946576
 30
0.0
 11
168995.5128956135
 21
106556.5632946576
 31
0.0
  0
LWPOLYLINE
  5
82419
330
1F
100
AcDbEntity
  8
freecads.com
100
AcDbPolyline
 90
       10
 70
     0
 43
0.0
 10
169040.3680829048
 20
106529.605907973
 10
169040.3599121107
 20
106529.5134295763
 10
169040.3386530538
 20
106529.4241490334
 10
169040.307969848
 20
106529.3396030535
 10
169040.271118817
 20
106529.259854604
 10
169040.2091976909
 20
106529.1484184657
 10
169040.121663749
 20
106529.0136858194
 10
169039.9937885728
 20
106528.8405504408
 10
169039.8569150285
 20
106528.6745184058
 10
169039.7882023983
 20
106528.5990487538
  0
LWPOLYLINE
  5
8241A
330
1F
100
AcDbEntity
  8
freecads.com
100
AcDbPolyline
 90
       10
 70
     0
 43
0.0
 10
169039.7882023983
 20
106530.566273125
 10
169039.9535133045
 20
106530.3877450224
 10
169040.0773525582
 20
106530.2382194906
 10
169040.1664876759
 20
106530.118203269
 10
169040.2323667646
 20
106530.0175405851
 10
169040.292956576
 20
106529.9066516652
 10
169040.3271000007
 20
106529.8264249619
 10
169040.3528117656
 20
106529.7410499087
 10
169040.3613843528
 20
106529.6966697534
 10
169040.3680829048
 20
106529.605907973
  0
LINE
  5
8241B
330
1F
100
AcDbEntity
  8
freecads.com
100
AcDbLine
 10
169039.6900839048
 20
106530.6546196486
 30
0.0
 11
169039.7882023983
 21
106530.566273125
 31
0.0
  0
LWPOLYLINE
  5
8241C
330
1F
100
AcDbEntity
  8
freecads.com
100
AcDbPolyline
 90
       10
 70
     0
 43
0.0
 10
169039.6900839048
 20
106530.6546196486
 10
169039.9071991447
 20
106530.3961122153
 10
169040.0460966472
 20
106530.2204521364
 10
169040.1417713986
 20
106530.0877299551
 10
169040.2102981245
 20
106529.979873974
 10
169040.2519256967
 20
106529.9034418174
 10
169040.2877182725
 20
106529.8230157168
 10
169040.3145724493
 20
106529.7384817307
 10
169040.323495856
 20
106529.6948451926
 10
169040.3304222906
 20
106529.605907973
  0
LWPOLYLINE
  5
8241D
330
1F
100
AcDbEntity
  8
freecads.com
100
AcDbPolyline
 90
       10
 70
     0
 43
0.0
 10
169040.3304222906
 20
106529.605907973
 10
169040.3218377095
 20
106529.5151851726
 10
169040.2995921604
 20
106529.4269465934
 10
169040.267466697
 20
106529.3424096088
 10
169040.2288105952
 20
106529.2615487319
 10
169040.16358517
 20
106529.1463750176
 10
169040.0706030325
 20
106529.0029423496
 10
169039.9320143711
 20
106528.8088987335
 10
169039.6983926278
 20
106528.5009272619
 10
169039.6900839048
 20
106528.4900773469
  0
LINE
  5
8241E
330
1F
100
AcDbEntity
  8
freecads.com
100
AcDbLine
 10
169039.6900839048
 20
106528.4900773469
 30
0.0
 11
169039.7882023983
 21
106528.5990487538
 31
0.0
  0
ARC
  5
8241F
330
1F
100
AcDbEntity
  8
freecads.com
100
AcDbCircle
 10
168991.7042875945
 20
106518.334912968
 30
0.0
 40
14.93270788827007
100
AcDbArc
 50
142.5236986580448
 51
143.151571004924
  0
LINE
  5
82420
330
1F
100
AcDbEntity
  8
freecads.com
100
AcDbLine
 10
168979.8536137292
 20
106525.4524354731
 30
0.0
 11
168979.8136113204
 21
106525.4999730031
 31
0.0
  0
ARC
  5
82421
330
1F
100
AcDbEntity
  8
freecads.com
100
AcDbCircle
 10
168984.2481636345
 20
106523.60966354
 30
0.0
 40
5.808167370711952
100
AcDbArc
 50
137.6262355373248
 51
139.518252248074
  0
LWPOLYLINE
  5
82422
330
1F
100
AcDbEntity
  8
freecads.com
100
AcDbPolyline
 90
       10
 70
     0
 43
0.0
 10
168979.8303966801
 20
106527.3803605736
 10
168979.676120094
 20
106527.1918700991
 10
168979.5547275808
 20
106527.0291303693
 10
168979.4586270486
 20
106526.8843543928
 10
168979.3915965525
 20
106526.7666065035
 10
168979.3520049323
 20
106526.6831159803
 10
168979.3191628378
 20
106526.5950573085
 10
168979.2965274893
 20
106526.5024604727
 10
168979.2902847028
 20
106526.4548644727
 10
168979.2879698943
 20
106526.4068082097
  0
LWPOLYLINE
  5
82423
330
1F
100
AcDbEntity
  8
freecads.com
100
AcDbPolyline
 90
       10
 70
     0
 43
0.0
 10
168979.2879698943
 20
106526.4068082097
 10
168979.2950732379
 20
106526.314737603
 10
168979.3161224028
 20
106526.2255320216
 10
168979.3478430746
 20
106526.1409080818
 10
168979.3867960236
 20
106526.0611401423
 10
168979.4533617589
 20
106525.9496545295
 10
168979.5490335119
 20
106525.814277215
 10
168979.6692446332
 20
106525.6642329503
 10
168979.8384355421
 20
106525.4732207738
 10
168979.9469736721
 20
106525.3590740309
  0
LINE
  5
82424
330
1F
100
AcDbEntity
  8
freecads.com
100
AcDbLine
 10
168979.8536137292
 20
106527.4204709268
 30
0.0
 11
168979.9573003565
 21
106527.5241560549
 31
0.0
  0
LINE
  5
82425
330
1F
100
AcDbEntity
  8
freecads.com
100
AcDbLine
 10
169039.6900839048
 20
106528.4900773469
 30
0.0
 11
169039.7882023983
 21
106528.5990487538
 31
0.0
  0
LINE
  5
82426
330
1F
100
AcDbEntity
  8
freecads.com
100
AcDbLine
 10
168979.9469736721
 20
106525.3590740309
 30
0.0
 11
168979.910929226
 21
106525.3963448457
 31
0.0
  0
LINE
  5
82427
330
1F
100
AcDbEntity
  8
freecads.com
100
AcDbLine
 10
168979.9573003565
 20
106527.5241575541
 30
0.0
 11
169039.6900839048
 21
106530.6546196486
 31
0.0
  0
LINE
  5
82428
330
1F
100
AcDbEntity
  8
freecads.com
100
AcDbLine
 10
168979.9469736721
 20
106525.3590740309
 30
0.0
 11
169039.6900839048
 21
106528.4900773469
 31
0.0
  0
ARC
  5
82429
330
1F
100
AcDbEntity
  8
freecads.com
100
AcDbCircle
 10
168982.7089989196
 20
106528.316946466
 30
0.0
 40
4.044581301681665
100
AcDbArc
 50
225.0914281620743
 51
226.2283958595748
  0
LINE
  5
8242A
330
1F
100
AcDbEntity
  8
freecads.com
100
AcDbLine
 10
169039.6900839048
 20
106528.4900773469
 30
0.0
 11
168979.9469736721
 21
106525.3590740309
 31
0.0
  0
ARC
  5
8242B
330
1F
100
AcDbEntity
  8
freecads.com
100
AcDbCircle
 10
168982.7089989196
 20
106528.316946466
 30
0.0
 40
4.044581301681665
100
AcDbArc
 50
225.0914281620743
 51
226.2283958595748
  0
LINE
  5
8242C
330
1F
100
AcDbEntity
  8
freecads.com
100
AcDbLine
 10
169011.4405136842
 20
106527.0095804327
 30
0.0
 11
169011.4416180532
 21
106527.0096389026
 31
0.0
  0
LINE
  5
8242D
330
1F
100
AcDbEntity
  8
freecads.com
100
AcDbLine
 10
169011.2867997772
 20
106529.9531727185
 30
0.0
 11
169012.3661062979
 21
106530.009737102
 31
0.0
  0
LINE
  5
8242E
330
1F
100
AcDbEntity
  8
freecads.com
100
AcDbLine
 10
169010.2074932799
 20
106529.896608335
 30
0.0
 11
169011.2867997772
 21
106529.9531727185
 31
0.0
  0
ARC
  5
8242F
330
1F
100
AcDbEntity
  8
freecads.com
100
AcDbCircle
 10
169011.3883442884
 20
106528.1228803615
 30
0.0
 40
1.145006357950833
100
AcDbArc
 50
69.12167086174196
 51
89.88625935970835
  0
ARC
  5
82430
330
1F
100
AcDbEntity
  8
freecads.com
100
AcDbCircle
 10
169011.3849823627
 20
106528.0801388627
 30
0.0
 40
1.187831251335975
100
AcDbArc
 50
89.7281882907235
 51
93.00101686652022
  0
LWPOLYLINE
  5
82431
330
1F
100
AcDbEntity
  8
freecads.com
100
AcDbPolyline
 90
        6
 70
     0
 43
0.0
 10
169011.3227950299
 20
106529.2663417647
 10
169011.2229014501
 20
106529.2568621444
 10
169011.1252759216
 20
106529.2391892415
 10
169011.0314682716
 20
106529.2138942621
 10
169010.9426731039
 20
106529.1817478095
 10
169010.8596771386
 20
106529.1436209353
  0
LINE
  5
82432
330
1F
100
AcDbEntity
  8
freecads.com
100
AcDbLine
 10
169012.3661062979
 20
106530.009737102
 30
0.0
 11
169012.4072432476
 21
106529.2247951509
 31
0.0
  0
LINE
  5
82433
330
1F
100
AcDbEntity
  8
freecads.com
100
AcDbLine
 10
169010.2074932799
 20
106529.896608335
 30
0.0
 11
169010.2486303468
 21
106529.1116663839
 31
0.0
  0
LINE
  5
82434
330
1F
100
AcDbEntity
  8
freecads.com
100
AcDbLine
 10
169012.4072417484
 20
106529.2248236362
 30
0.0
 11
169012.3661062979
 21
106530.009737102
 31
0.0
  0
LINE
  5
82435
330
1F
100
AcDbEntity
  8
freecads.com
100
AcDbLine
 10
168999.683074014
 20
106529.8369885243
 30
0.0
 11
169002.6266370649
 21
106529.9912546158
 31
0.0
  0
LINE
  5
82436
330
1F
100
AcDbEntity
  8
freecads.com
100
AcDbLine
 10
169045.7988963934
 20
106532.2538149628
 30
0.0
 11
169048.7424601939
 21
106532.4080825536
 31
0.0
  0
LINE
  5
82437
330
1F
100
AcDbEntity
  8
freecads.com
100
AcDbLine
 10
169048.5462232069
 20
106532.3977978476
 30
0.0
 11
169045.9951333804
 21
106532.2640996688
 31
0.0
  0
ARC
  5
82438
330
1F
100
AcDbEntity
  8
freecads.com
100
AcDbCircle
 10
169048.5359385009
 20
106532.5940348346
 30
0.0
 40
0.1965068480954102
100
AcDbArc
 50
273.0000110980062
 51
273.1581435593327
  0
LINE
  5
82439
330
1F
100
AcDbEntity
  8
freecads.com
100
AcDbLine
 10
169002.4303993283
 20
106529.9809699099
 30
0.0
 11
168999.879311001
 21
106529.8472732302
 31
0.0
  0
ARC
  5
8243A
330
1F
100
AcDbEntity
  8
freecads.com
100
AcDbCircle
 10
168999.8690270447
 20
106530.0435102172
 30
0.0
 40
0.1965068480954102
100
AcDbArc
 50
272.8418512434458
 51
273.0000110980062
  0
LINE
  5
8243B
330
1F
100
AcDbEntity
  8
freecads.com
100
AcDbLine
 10
169002.6266370649
 20
106529.9912546158
 30
0.0
 11
169039.7881993998
 21
106531.9388091121
 31
0.0
  0
LINE
  5
8243C
330
1F
100
AcDbEntity
  8
freecads.com
100
AcDbLine
 10
169042.244535001
 20
106532.0675403477
 30
0.0
 11
169045.7988963934
 21
106532.2538149628
 31
0.0
  0
LINE
  5
8243D
330
1F
100
AcDbEntity
  8
freecads.com
100
AcDbLine
 10
168998.7018860805
 20
106529.7855664938
 30
0.0
 11
168998.0076909175
 21
106543.0316020967
 31
0.0
  0
LINE
  5
8243E
330
1F
100
AcDbEntity
  8
freecads.com
100
AcDbLine
 10
169039.7881993998
 20
106531.9388091121
 30
0.0
 11
168998.7018860805
 21
106529.7855664938
 31
0.0
  0
LINE
  5
8243F
330
1F
100
AcDbEntity
  8
freecads.com
100
AcDbLine
 10
169049.7236481274
 20
106532.4595030848
 30
0.0
 11
169042.244535001
 21
106532.0675403477
 31
0.0
  0
LINE
  5
82440
330
1F
100
AcDbEntity
  8
freecads.com
100
AcDbLine
 10
169049.7236481274
 20
106532.4595030848
 30
0.0
 11
169049.0294514651
 21
106545.7055386877
 31
0.0
  0
LINE
  5
82441
330
1F
100
AcDbEntity
  8
freecads.com
100
AcDbLine
 10
169039.7881993998
 20
106545.2212249882
 30
0.0
 11
168998.0076909175
 21
106543.0316020967
 31
0.0
  0
LINE
  5
82442
330
1F
100
AcDbEntity
  8
freecads.com
100
AcDbLine
 10
169049.0294514651
 20
106545.7055386877
 30
0.0
 11
169042.244535001
 21
106545.3499547246
 31
0.0
  0
LINE
  5
82443
330
1F
100
AcDbEntity
  8
freecads.com
100
AcDbLine
 10
168997.9819799023
 20
106543.5221945642
 30
0.0
 11
168998.0076909175
 21
106543.0316020967
 31
0.0
  0
LINE
  5
82444
330
1F
100
AcDbEntity
  8
freecads.com
100
AcDbLine
 10
169039.7881993998
 20
106545.7131667612
 30
0.0
 11
168997.9819799023
 21
106543.5221945642
 31
0.0
  0
LINE
  5
82445
330
1F
100
AcDbEntity
  8
freecads.com
100
AcDbLine
 10
169049.0037397002
 20
106546.1961311553
 30
0.0
 11
169042.244535001
 21
106545.8418964976
 31
0.0
  0
LINE
  5
82446
330
1F
100
AcDbEntity
  8
freecads.com
100
AcDbLine
 10
169049.0037397002
 20
106546.1961311553
 30
0.0
 11
169049.0294514651
 21
106545.7055386877
 31
0.0
  0
LINE
  5
82447
330
1F
100
AcDbEntity
  8
freecads.com
100
AcDbLine
 10
169039.7881993998
 20
106545.2212249882
 30
0.0
 11
168998.0076909175
 21
106543.0316020967
 31
0.0
  0
LINE
  5
82448
330
1F
100
AcDbEntity
  8
freecads.com
100
AcDbLine
 10
169049.0294514651
 20
106545.7055386877
 30
0.0
 11
169042.244535001
 21
106545.3499547246
 31
0.0
  0
ARC
  5
82449
330
1F
100
AcDbEntity
  8
freecads.com
100
AcDbCircle
 10
168997.6898455284
 20
106530.3228569235
 30
0.0
 40
0.5895205442862306
100
AcDbArc
 50
199.0000060675535
 51
273.0000110980062
  0
LINE
  5
8244A
330
1F
100
AcDbEntity
  8
freecads.com
100
AcDbLine
 10
169006.5822410426
 20
106529.6082287784
 30
0.0
 11
169006.5513876744
 21
106530.1969412386
 31
0.0
  0
LINE
  5
8244B
330
1F
100
AcDbEntity
  8
freecads.com
100
AcDbLine
 10
168991.5345104873
 20
106546.3885061302
 30
0.0
 11
168990.9771079103
 21
106546.1965749268
 31
0.0
  0
LINE
  5
8244C
330
1F
100
AcDbEntity
  8
freecads.com
100
AcDbLine
 10
168996.5750403744
 20
106529.9389990144
 30
0.0
 11
168990.9771079103
 21
106546.1965749268
 31
0.0
  0
ARC
  5
8244D
330
1F
100
AcDbEntity
  8
freecads.com
100
AcDbCircle
 10
168997.6898455284
 20
106530.3228569235
 30
0.0
 40
1.179041088572461
100
AcDbArc
 50
199.0000060675535
 51
273.0000110980062
  0
LINE
  5
8244E
330
1F
100
AcDbEntity
  8
freecads.com
100
AcDbLine
 10
169005.6010531091
 20
106529.5568067479
 30
0.0
 11
168997.7515515153
 21
106529.145432003
 31
0.0
  0
LINE
  5
8244F
330
1F
100
AcDbEntity
  8
freecads.com
100
AcDbLine
 10
169006.5822410426
 20
106529.6082287784
 30
0.0
 11
169005.6010531091
 21
106529.5568067479
 31
0.0
  0
LINE
  5
82450
330
1F
100
AcDbEntity
  8
freecads.com
100
AcDbLine
 10
168997.1324429514
 20
106530.1309287186
 30
0.0
 11
168991.5345104873
 21
106546.3885061302
 31
0.0
  0
LINE
  5
82451
330
1F
100
AcDbEntity
  8
freecads.com
100
AcDbLine
 10
168999.8792990072
 20
106529.847271731
 30
0.0
 11
168997.720698147
 21
106529.7341444633
 31
0.0
  0
LINE
  5
82452
330
1F
100
AcDbEntity
  8
freecads.com
100
AcDbLine
 10
169002.6266250711
 20
106529.9912531166
 30
0.0
 11
169002.4303873344
 21
106529.9809684106
 31
0.0
  0
LINE
  5
82453
330
1F
100
AcDbEntity
  8
freecads.com
100
AcDbLine
 10
168992.4170641928
 20
106546.6923937041
 30
0.0
 11
168990.0945527056
 21
106545.8926873529
 31
0.0
  0
LINE
  5
82454
330
1F
100
AcDbEntity
  8
freecads.com
100
AcDbLine
 10
168992.8815670899
 20
106546.8523343746
 30
0.0
 11
168992.4170641928
 21
106546.6923937041
 31
0.0
  0
LINE
  5
82455
330
1F
100
AcDbEntity
  8
freecads.com
100
AcDbLine
 10
168992.8495735586
 20
106546.9452475476
 30
0.0
 11
168992.8815670899
 21
106546.8523343746
 31
0.0
  0
LINE
  5
82456
330
1F
100
AcDbEntity
  8
freecads.com
100
AcDbLine
 10
168989.6300513077
 20
106545.7327466824
 30
0.0
 11
168989.5980577763
 21
106545.8256628538
 31
0.0
  0
LINE
  5
82457
330
1F
100
AcDbEntity
  8
freecads.com
100
AcDbLine
 10
168990.0945527056
 20
106545.8926873529
 30
0.0
 11
168989.6300513077
 21
106545.7327466824
 31
0.0
  0
LINE
  5
82458
330
1F
100
AcDbEntity
  8
freecads.com
100
AcDbLine
 10
168985.1852922475
 20
106544.3062099922
 30
0.0
 11
168981.2414583361
 21
106555.7599301895
 31
0.0
  0
LINE
  5
82459
330
1F
100
AcDbEntity
  8
freecads.com
100
AcDbLine
 10
168980.4132816401
 20
106558.1651301128
 30
0.0
 11
168971.7502549333
 21
106583.3243933814
 31
0.0
  0
LINE
  5
8245A
330
1F
100
AcDbEntity
  8
freecads.com
100
AcDbLine
 10
168997.7268509799
 20
106548.6246140936
 30
0.0
 11
168985.1852922475
 21
106544.3062099922
 31
0.0
  0
LINE
  5
8245B
330
1F
100
AcDbEntity
  8
freecads.com
100
AcDbLine
 10
168997.7268509799
 20
106548.6246140936
 30
0.0
 11
168994.9933425534
 21
106556.5632976561
 31
0.0
  0
LINE
  5
8245C
330
1F
100
AcDbEntity
  8
freecads.com
100
AcDbLine
 10
168994.1475589205
 20
106559.0196362557
 30
0.0
 11
168984.2918121664
 21
106587.6428004812
 31
0.0
  0
LINE
  5
8245D
330
1F
100
AcDbEntity
  8
freecads.com
100
AcDbLine
 10
168984.2918121664
 20
106587.6428004812
 30
0.0
 11
168971.7502549333
 21
106583.3243933814
 31
0.0
  0
LINE
  5
8245E
330
1F
100
AcDbEntity
  8
freecads.com
100
AcDbLine
 10
168984.7563150635
 20
106587.8027381533
 30
0.0
 11
168994.6671329698
 21
106559.0196362557
 31
0.0
  0
LINE
  5
8245F
330
1F
100
AcDbEntity
  8
freecads.com
100
AcDbLine
 10
168995.5129166026
 20
106556.5632976561
 30
0.0
 11
168998.1913531274
 21
106548.7845547641
 31
0.0
  0
LINE
  5
82460
330
1F
100
AcDbEntity
  8
freecads.com
100
AcDbLine
 10
168998.1913531274
 20
106548.7845547641
 30
0.0
 11
168997.7268509799
 21
106548.6246140936
 31
0.0
  0
LINE
  5
82461
330
1F
100
AcDbEntity
  8
freecads.com
100
AcDbLine
 10
168984.7563150635
 20
106587.8027381533
 30
0.0
 11
168984.2918121664
 21
106587.6428004812
 31
0.0
  0
LINE
  5
82462
330
1F
100
AcDbEntity
  8
freecads.com
100
AcDbLine
 10
168997.7268509799
 20
106548.6246140936
 30
0.0
 11
168994.9933425534
 21
106556.5632976561
 31
0.0
  0
LINE
  5
82463
330
1F
100
AcDbEntity
  8
freecads.com
100
AcDbLine
 10
168994.1475589205
 20
106559.0196362557
 30
0.0
 11
168984.2918121664
 21
106587.6428004812
 31
0.0
  0
LINE
  5
82464
330
1F
100
AcDbEntity
  8
freecads.com
100
AcDbLine
 10
169042.3660234648
 20
106532.0493097319
 30
0.0
 11
169042.2445559902
 21
106532.0429440087
 31
0.0
  0
LINE
  5
82465
330
1F
100
AcDbEntity
  8
freecads.com
100
AcDbLine
 10
169039.7882053967
 20
106531.9142127731
 30
0.0
 11
169039.4224626628
 21
106531.8950451396
 31
0.0
  0
LINE
  5
82466
330
1F
100
AcDbEntity
  8
freecads.com
100
AcDbLine
 10
169042.3659215173
 20
106531.5819598003
 30
0.0
 11
169042.2445559902
 21
106531.575600074
 31
0.0
  0
LINE
  5
82467
330
1F
100
AcDbEntity
  8
freecads.com
100
AcDbLine
 10
169039.7882053967
 20
106531.4468688383
 30
0.0
 11
169039.4714154643
 21
106531.4302663845
 31
0.0
  0
LINE
  5
82468
330
1F
100
AcDbEntity
  8
freecads.com
100
AcDbLine
 10
169039.788187406
 20
106531.4714636782
 30
0.0
 11
169039.445601752
 21
106531.4535104196
 31
0.0
  0
LINE
  5
82469
330
1F
100
AcDbEntity
  8
freecads.com
100
AcDbLine
 10
169042.3891655524
 20
106531.6077750119
 30
0.0
 11
169042.2445499933
 21
106531.600196413
 31
0.0
  0
LINE
  5
8246A
330
1F
100
AcDbEntity
  8
freecads.com
100
AcDbLine
 10
169042.3402097524
 20
106532.072553767
 30
0.0
 11
169042.3660234648
 21
106532.0493097319
 31
0.0
  0
LINE
  5
8246B
330
1F
100
AcDbEntity
  8
freecads.com
100
AcDbLine
 10
169039.4457066979
 20
106531.9208603512
 30
0.0
 11
169039.4224626628
 21
106531.8950451396
 31
0.0
  0
LINE
  5
8246C
330
1F
100
AcDbEntity
  8
freecads.com
100
AcDbLine
 10
169039.445601752
 20
106531.4535104196
 30
0.0
 11
169039.4224626628
 21
106531.8950451396
 31
0.0
  0
LINE
  5
8246D
330
1F
100
AcDbEntity
  8
freecads.com
100
AcDbLine
 10
169042.3891655524
 20
106531.6077750119
 30
0.0
 11
169042.3660234648
 21
106532.0493097319
 31
0.0
  0
LINE
  5
8246E
330
1F
100
AcDbEntity
  8
freecads.com
100
AcDbLine
 10
169042.3659215173
 20
106531.5819598003
 30
0.0
 11
169042.3891655524
 21
106531.6077750119
 31
0.0
  0
LINE
  5
8246F
330
1F
100
AcDbEntity
  8
freecads.com
100
AcDbLine
 10
169039.4714154643
 20
106531.4302663845
 30
0.0
 11
169039.445601752
 21
106531.4535104196
 31
0.0
  0
LINE
  5
82470
330
1F
100
AcDbEntity
  8
freecads.com
100
AcDbLine
 10
169012.7341559693
 20
106530.4963701076
 30
0.0
 11
169011.9679839813
 21
106530.4562162768
 31
0.0
  0
LINE
  5
82471
330
1F
100
AcDbEntity
  8
freecads.com
100
AcDbLine
 10
169011.9679839813
 20
106530.4562162768
 30
0.0
 11
169009.7905928072
 21
106530.3421040161
 31
0.0
  0
LINE
  5
82472
330
1F
100
AcDbEntity
  8
freecads.com
100
AcDbLine
 10
169012.7340515855
 20
106530.029020176
 30
0.0
 11
169011.9806492744
 21
106529.9895365002
 31
0.0
  0
LINE
  5
82473
330
1F
100
AcDbEntity
  8
freecads.com
100
AcDbLine
 10
169011.9806492744
 20
106529.9895365002
 30
0.0
 11
169009.8395478883
 21
106529.877325261
 31
0.0
  0
LINE
  5
82474
330
1F
100
AcDbEntity
  8
freecads.com
100
AcDbLine
 10
169011.9911238201
 20
106530.0146815568
 30
0.0
 11
169009.8137326488
 21
106529.9005692961
 31
0.0
  0
LINE
  5
82475
330
1F
100
AcDbEntity
  8
freecads.com
100
AcDbLine
 10
169012.7572958081
 20
106530.0548353876
 30
0.0
 11
169011.9911238201
 21
106530.0146815568
 31
0.0
  0
LINE
  5
82476
330
1F
100
AcDbEntity
  8
freecads.com
100
AcDbLine
 10
169012.7083407577
 20
106530.5196141427
 30
0.0
 11
169012.7341559693
 21
106530.4963701076
 31
0.0
  0
LINE
  5
82477
330
1F
100
AcDbEntity
  8
freecads.com
100
AcDbLine
 10
169009.8138369536
 20
106530.3679192277
 30
0.0
 11
169009.7905928072
 21
106530.3421040161
 31
0.0
  0
LINE
  5
82478
330
1F
100
AcDbEntity
  8
freecads.com
100
AcDbLine
 10
169009.8137326488
 20
106529.9005692961
 30
0.0
 11
169009.7905928072
 21
106530.3421040161
 31
0.0
  0
LINE
  5
82479
330
1F
100
AcDbEntity
  8
freecads.com
100
AcDbLine
 10
169012.7572958081
 20
106530.0548353876
 30
0.0
 11
169012.7341559693
 21
106530.4963701076
 31
0.0
  0
LINE
  5
8247A
330
1F
100
AcDbEntity
  8
freecads.com
100
AcDbLine
 10
169012.7340515855
 20
106530.029020176
 30
0.0
 11
169012.7572958081
 21
106530.0548353876
 31
0.0
  0
LINE
  5
8247B
330
1F
100
AcDbEntity
  8
freecads.com
100
AcDbLine
 10
169009.8395478883
 20
106529.877325261
 30
0.0
 11
169009.8137326488
 21
106529.9005692961
 31
0.0
  0
LINE
  5
8247C
330
1F
100
AcDbEntity
  8
freecads.com
100
AcDbLine
 10
168997.7848636179
 20
106555.6298871291
 30
0.0
 11
168997.7848636179
 21
106560.5425583315
 31
0.0
  0
LINE
  5
8247D
330
1F
100
AcDbEntity
  8
freecads.com
100
AcDbLine
 10
169034.1386305155
 20
106555.6298871291
 30
0.0
 11
169034.1386305155
 21
106560.5425583315
 31
0.0
  0
LINE
  5
8247E
330
1F
100
AcDbEntity
  8
freecads.com
100
AcDbLine
 10
169034.1386305155
 20
106560.5425583315
 30
0.0
 11
168997.7848636179
 21
106560.5425583315
 31
0.0
  0
LINE
  5
8247F
330
1F
100
AcDbEntity
  8
freecads.com
100
AcDbLine
 10
169034.1386305155
 20
106555.6298871291
 30
0.0
 11
168997.7848636179
 21
106555.6298871291
 31
0.0
  0
LINE
  5
82480
330
1F
100
AcDbEntity
  8
freecads.com
100
AcDbLine
 10
168997.7848636179
 20
106555.6298871291
 30
0.0
 11
168996.8023293774
 21
106555.6298871291
 31
0.0
  0
LINE
  5
82481
330
1F
100
AcDbEntity
  8
freecads.com
100
AcDbLine
 10
168997.7848636179
 20
106555.6298871291
 30
0.0
 11
168997.7848636179
 21
106560.5425583315
 31
0.0
  0
LINE
  5
82482
330
1F
100
AcDbEntity
  8
freecads.com
100
AcDbLine
 10
168997.7848636179
 20
106560.5425583315
 30
0.0
 11
168996.8023293774
 21
106560.5425583315
 31
0.0
  0
LINE
  5
82483
330
1F
100
AcDbEntity
  8
freecads.com
100
AcDbLine
 10
168996.8023293774
 20
106555.6298871291
 30
0.0
 11
168996.8023293774
 21
106560.5425583315
 31
0.0
  0
LINE
  5
82484
330
1F
100
AcDbEntity
  8
freecads.com
100
AcDbLine
 10
169035.121164756
 20
106555.6298871291
 30
0.0
 11
169034.1386305155
 21
106555.6298871291
 31
0.0
  0
LINE
  5
82485
330
1F
100
AcDbEntity
  8
freecads.com
100
AcDbLine
 10
169035.121164756
 20
106555.6298871291
 30
0.0
 11
169035.121164756
 21
106560.5425583315
 31
0.0
  0
LINE
  5
82486
330
1F
100
AcDbEntity
  8
freecads.com
100
AcDbLine
 10
169035.121164756
 20
106560.5425583315
 30
0.0
 11
169034.1386305155
 21
106560.5425583315
 31
0.0
  0
LINE
  5
82487
330
1F
100
AcDbEntity
  8
freecads.com
100
AcDbLine
 10
169034.1386305155
 20
106555.6298871291
 30
0.0
 11
169034.1386305155
 21
106560.5425583315
 31
0.0
  0
LINE
  5
82488
330
1F
100
AcDbEntity
  8
freecads.com
100
AcDbLine
 10
168996.8023293774
 20
106561.525092572
 30
0.0
 11
168996.8023293774
 21
106560.5425583315
 31
0.0
  0
LINE
  5
82489
330
1F
100
AcDbEntity
  8
freecads.com
100
AcDbLine
 10
169035.121164756
 20
106561.525092572
 30
0.0
 11
169035.121164756
 21
106560.5425583315
 31
0.0
  0
LINE
  5
8248A
330
1F
100
AcDbEntity
  8
freecads.com
100
AcDbLine
 10
169035.121164756
 20
106561.525092572
 30
0.0
 11
168996.8023293774
 21
106561.525092572
 31
0.0
  0
LINE
  5
8248B
330
1F
100
AcDbEntity
  8
freecads.com
100
AcDbLine
 10
169035.121164756
 20
106560.5425583315
 30
0.0
 11
168996.8023293774
 21
106560.5425583315
 31
0.0
  0
LINE
  5
8248C
330
1F
100
AcDbEntity
  8
freecads.com
100
AcDbLine
 10
169040.4040014157
 20
106506.9453155135
 30
0.0
 11
169042.2936647115
 21
106506.9453155135
 31
0.0
  0
LINE
  5
8248D
330
1F
100
AcDbEntity
  8
freecads.com
100
AcDbLine
 10
169039.7390756863
 20
106506.9453155135
 30
0.0
 11
169040.4040014157
 21
106506.9453155135
 31
0.0
  0
LINE
  5
8248E
330
1F
100
AcDbEntity
  8
freecads.com
100
AcDbLine
 10
169042.2936647115
 20
106506.9453155135
 30
0.0
 11
169042.2936647115
 21
106506.5297850953
 31
0.0
  0
LINE
  5
8248F
330
1F
100
AcDbEntity
  8
freecads.com
100
AcDbLine
 10
169039.7390756863
 20
106506.9453155135
 30
0.0
 11
169039.7390756863
 21
106506.5297850953
 31
0.0
  0
LINE
  5
82490
330
1F
100
AcDbEntity
  8
freecads.com
100
AcDbLine
 10
169040.4581745301
 20
106505.962781273
 30
0.0
 11
169042.1806738735
 21
106505.962781273
 31
0.0
  0
LINE
  5
82491
330
1F
100
AcDbEntity
  8
freecads.com
100
AcDbLine
 10
169040.4040014157
 20
106506.5297850953
 30
0.0
 11
169042.2936647115
 21
106506.5297850953
 31
0.0
  0
LINE
  5
82492
330
1F
100
AcDbEntity
  8
freecads.com
100
AcDbLine
 10
169039.8520665242
 20
106505.962781273
 30
0.0
 11
169040.4581745301
 21
106505.962781273
 31
0.0
  0
LINE
  5
82493
330
1F
100
AcDbEntity
  8
freecads.com
100
AcDbLine
 10
169039.7390756863
 20
106506.5297850953
 30
0.0
 11
169040.4040014157
 21
106506.5297850953
 31
0.0
  0
ARC
  5
82494
330
1F
100
AcDbEntity
  8
freecads.com
100
AcDbCircle
 10
169042.1806738735
 20
106506.2575415452
 30
0.0
 40
0.2947602721431153
100
AcDbArc
 50
269.9999974953749
 51
67.45968760639803
  0
ARC
  5
82495
330
1F
100
AcDbEntity
  8
freecads.com
100
AcDbCircle
 10
169039.8520665242
 20
106506.2575415452
 30
0.0
 40
0.2947602721431153
100
AcDbArc
 50
112.5403095083297
 51
270.0000006836859
  0
LINE
  5
82496
330
1F
100
AcDbEntity
  8
freecads.com
100
AcDbLine
 10
168978.0130771454
 20
106506.9453155135
 30
0.0
 11
168979.9027404412
 21
106506.9453155135
 31
0.0
  0
LINE
  5
82497
330
1F
100
AcDbEntity
  8
freecads.com
100
AcDbLine
 10
168977.348151416
 20
106506.9453155135
 30
0.0
 11
168978.0130771454
 21
106506.9453155135
 31
0.0
  0
LINE
  5
82498
330
1F
100
AcDbEntity
  8
freecads.com
100
AcDbLine
 10
168979.9027404412
 20
106506.9453155135
 30
0.0
 11
168979.9027404412
 21
106506.5297850953
 31
0.0
  0
LINE
  5
82499
330
1F
100
AcDbEntity
  8
freecads.com
100
AcDbLine
 10
168977.348151416
 20
106506.9453155135
 30
0.0
 11
168977.348151416
 21
106506.5297850953
 31
0.0
  0
LINE
  5
8249A
330
1F
100
AcDbEntity
  8
freecads.com
100
AcDbLine
 10
168978.0672502598
 20
106505.962781273
 30
0.0
 11
168979.7897496033
 21
106505.962781273
 31
0.0
  0
LINE
  5
8249B
330
1F
100
AcDbEntity
  8
freecads.com
100
AcDbLine
 10
168978.0130771454
 20
106506.5297850953
 30
0.0
 11
168979.9027404412
 21
106506.5297850953
 31
0.0
  0
LINE
  5
8249C
330
1F
100
AcDbEntity
  8
freecads.com
100
AcDbLine
 10
168977.4611422539
 20
106505.962781273
 30
0.0
 11
168978.0672502598
 21
106505.962781273
 31
0.0
  0
LINE
  5
8249D
330
1F
100
AcDbEntity
  8
freecads.com
100
AcDbLine
 10
168977.348151416
 20
106506.5297850953
 30
0.0
 11
168978.0130771454
 21
106506.5297850953
 31
0.0
  0
ARC
  5
8249E
330
1F
100
AcDbEntity
  8
freecads.com
100
AcDbCircle
 10
168979.7897496033
 20
106506.2575415452
 30
0.0
 40
0.2947602721431153
100
AcDbArc
 50
269.9999974953749
 51
67.45968760639803
  0
ARC
  5
8249F
330
1F
100
AcDbEntity
  8
freecads.com
100
AcDbCircle
 10
168977.4611422539
 20
106506.2575415452
 30
0.0
 40
0.2947602721431153
100
AcDbArc
 50
112.5403095083297
 51
270.0000006836859
  0
ARC
  5
824A0
330
1F
100
AcDbEntity
  8
freecads.com
100
AcDbCircle
 10
169041.0163701988
 20
106395.7431750162
 30
0.0
 40
1.228167800596328
100
AcDbArc
 50
270.0000006836859
 51
89.99999203255766
  0
ARC
  5
824A1
330
1F
100
AcDbEntity
  8
freecads.com
100
AcDbCircle
 10
168978.6254459286
 20
106395.7431750162
 30
0.0
 40
1.228167800596328
100
AcDbArc
 50
90.00000250462504
 51
270.0000006836859
  0
ARC
  5
824A2
330
1F
100
AcDbEntity
  8
freecads.com
100
AcDbCircle
 10
169041.0163701988
 20
106454.2039623246
 30
0.0
 40
1.228167800596328
100
AcDbArc
 50
270.0000006836859
 51
89.99999203255766
  0
ARC
  5
824A3
330
1F
100
AcDbEntity
  8
freecads.com
100
AcDbCircle
 10
168978.6254459286
 20
106454.2039623246
 30
0.0
 40
1.228167800596328
100
AcDbArc
 50
90.00000250462504
 51
270.0000006836859
  0
LINE
  5
824A4
330
1F
100
AcDbEntity
  8
freecads.com
100
AcDbLine
 10
169036.1036989965
 20
106396.9713428168
 30
0.0
 11
169041.0163701988
 21
106396.9713428168
 31
0.0
  0
LINE
  5
824A5
330
1F
100
AcDbEntity
  8
freecads.com
100
AcDbLine
 10
169036.1036989965
 20
106394.5150072156
 30
0.0
 11
169041.0163701988
 21
106394.5150072156
 31
0.0
  0
LINE
  5
824A6
330
1F
100
AcDbEntity
  8
freecads.com
100
AcDbLine
 10
168978.6254459286
 20
106394.5150072156
 30
0.0
 11
168983.538117131
 21
106394.5150072156
 31
0.0
  0
LINE
  5
824A7
330
1F
100
AcDbEntity
  8
freecads.com
100
AcDbLine
 10
168978.6254459286
 20
106396.9713428168
 30
0.0
 11
168983.538117131
 21
106396.9713428168
 31
0.0
  0
LINE
  5
824A8
330
1F
100
AcDbEntity
  8
freecads.com
100
AcDbLine
 10
169036.1036989965
 20
106396.9713428168
 30
0.0
 11
169035.1211677544
 21
106396.9713428168
 31
0.0
  0
LINE
  5
824A9
330
1F
100
AcDbEntity
  8
freecads.com
100
AcDbLine
 10
168996.8023308766
 20
106396.9713428168
 30
0.0
 11
168983.538117131
 21
106396.9713428168
 31
0.0
  0
LINE
  5
824AA
330
1F
100
AcDbEntity
  8
freecads.com
100
AcDbLine
 10
169036.1036989965
 20
106394.5150072156
 30
0.0
 11
169035.1211677544
 21
106394.5150072156
 31
0.0
  0
LINE
  5
824AB
330
1F
100
AcDbEntity
  8
freecads.com
100
AcDbLine
 10
168996.8023308766
 20
106394.5150072156
 30
0.0
 11
168983.538117131
 21
106394.5150072156
 31
0.0
  0
LINE
  5
824AC
330
1F
100
AcDbEntity
  8
freecads.com
100
AcDbLine
 10
169036.1036989965
 20
106452.975794524
 30
0.0
 11
169041.0163701988
 21
106452.975794524
 31
0.0
  0
LINE
  5
824AD
330
1F
100
AcDbEntity
  8
freecads.com
100
AcDbLine
 10
169036.1036989965
 20
106455.4321301252
 30
0.0
 11
169041.0163701988
 21
106455.4321301252
 31
0.0
  0
LINE
  5
824AE
330
1F
100
AcDbEntity
  8
freecads.com
100
AcDbLine
 10
168978.6254459286
 20
106455.4321301252
 30
0.0
 11
168983.538117131
 21
106455.4321301252
 31
0.0
  0
LINE
  5
824AF
330
1F
100
AcDbEntity
  8
freecads.com
100
AcDbLine
 10
168978.6254459286
 20
106452.975794524
 30
0.0
 11
168983.538117131
 21
106452.975794524
 31
0.0
  0
LINE
  5
824B0
330
1F
100
AcDbEntity
  8
freecads.com
100
AcDbLine
 10
168983.538117131
 20
106452.975794524
 30
0.0
 11
168996.8023323759
 21
106452.975794524
 31
0.0
  0
LINE
  5
824B1
330
1F
100
AcDbEntity
  8
freecads.com
100
AcDbLine
 10
169035.1211677544
 20
106452.975794524
 30
0.0
 11
169036.1036989965
 21
106452.975794524
 31
0.0
  0
LINE
  5
824B2
330
1F
100
AcDbEntity
  8
freecads.com
100
AcDbLine
 10
168983.538117131
 20
106455.4321301252
 30
0.0
 11
168996.8023323759
 21
106455.4321301252
 31
0.0
  0
LINE
  5
824B3
330
1F
100
AcDbEntity
  8
freecads.com
100
AcDbLine
 10
169035.1211677544
 20
106455.4321301252
 30
0.0
 11
169036.1036989965
 21
106455.4321301252
 31
0.0
  0
LWPOLYLINE
  5
824B4
330
1F
100
AcDbEntity
  8
freecads.com
100
AcDbPolyline
 90
        6
 70
     0
 43
0.0
 10
169041.0163701988
 20
106397.0695962408
 10
169040.9096731212
 20
106397.0653294372
 10
169040.8049640202
 20
106397.0527239258
 10
169040.7039490177
 20
106397.0323104337
 10
169040.6079654252
 20
106397.0048685594
 10
169040.5179157783
 20
106396.971324826
  0
LWPOLYLINE
  5
824B5
330
1F
100
AcDbEntity
  8
freecads.com
100
AcDbPolyline
 90
       13
 70
     0
 43
0.0
 10
169042.0971578634
 20
106396.4291229245
 10
169042.0365950381
 20
106396.5385246099
 10
169041.9683921455
 20
106396.6337076145
 10
169041.9023001664
 20
106396.7086990126
 10
169041.8231229229
 20
106396.7830397458
 10
169041.7303686681
 20
106396.854097169
 10
169041.6235876337
 20
106396.9194035525
 10
169041.5025939152
 20
106396.9763532377
 10
169041.4143103591
 20
106397.0082628122
 10
169041.3204856555
 20
106397.0343074057
 10
169041.2219983518
 20
106397.0536414535
 10
169041.120101803
 20
106397.0655633168
 10
169041.0163701988
 20
106397.0695962408
  0
ARC
  5
824B6
330
1F
100
AcDbEntity
  8
freecads.com
100
AcDbCircle
 10
169041.0163701988
 20
106454.2039623246
 30
0.0
 40
1.228167800596328
100
AcDbArc
 50
269.9999974953749
 51
328.1396841800735
  0
LWPOLYLINE
  5
824B7
330
1F
100
AcDbEntity
  8
freecads.com
100
AcDbPolyline
 90
        6
 70
     0
 43
0.0
 10
169041.0163701988
 20
106452.8775410999
 10
169040.9096701228
 20
106452.8818079036
 10
169040.8049550249
 20
106452.8944164133
 10
169040.7039370239
 20
106452.9148299055
 10
169040.6079534314
 20
106452.9422717798
 10
169040.5178977876
 20
106452.9758215101
  0
LWPOLYLINE
  5
824B8
330
1F
100
AcDbEntity
  8
freecads.com
100
AcDbPolyline
 90
       13
 70
     0
 43
0.0
 10
169042.0971578634
 20
106453.5180144162
 10
169042.0365950381
 20
106453.4086127308
 10
169041.9683921455
 20
106453.3134297262
 10
169041.9023001664
 20
106453.2384383281
 10
169041.8231229229
 20
106453.1640975949
 10
169041.7303686681
 20
106453.0930401718
 10
169041.6235876337
 20
106453.0277337882
 10
169041.5025939152
 20
106452.9707841031
 10
169041.4143103591
 20
106452.9388745285
 10
169041.3204856555
 20
106452.912829935
 10
169041.2219983518
 20
106452.8934958872
 10
169041.120101803
 20
106452.881574024
 10
169041.0163701988
 20
106452.8775410999
  0
LINE
  5
824B9
330
1F
100
AcDbEntity
  8
freecads.com
100
AcDbLine
 10
169042.0595002476
 20
106396.3914623103
 30
0.0
 11
169042.0971578634
 21
106396.4291229245
 31
0.0
  0
LINE
  5
824BA
330
1F
100
AcDbEntity
  8
freecads.com
100
AcDbLine
 10
169042.0595002476
 20
106453.5556750304
 30
0.0
 11
169042.0971578634
 21
106453.5180144162
 31
0.0
  0
LINE
  5
824BB
330
1F
100
AcDbEntity
  8
freecads.com
100
AcDbLine
 10
169042.0971578634
 20
106396.4291229245
 30
0.0
 11
169042.0971578634
 21
106400.4102246522
 31
0.0
  0
LINE
  5
824BC
330
1F
100
AcDbEntity
  8
freecads.com
100
AcDbLine
 10
169042.0971578634
 20
106449.5369366761
 30
0.0
 11
169042.0971578634
 21
106453.5180144162
 31
0.0
  0
LINE
  5
824BD
330
1F
100
AcDbEntity
  8
freecads.com
100
AcDbLine
 10
169039.9355825343
 20
106396.9713608075
 30
0.0
 11
169039.9355825343
 21
106400.4102246522
 31
0.0
  0
LINE
  5
824BE
330
1F
100
AcDbEntity
  8
freecads.com
100
AcDbLine
 10
169039.9355825343
 20
106449.5369366761
 30
0.0
 11
169039.9355825343
 21
106452.9758125147
 31
0.0
  0
LWPOLYLINE
  5
824BF
330
1F
100
AcDbEntity
  8
freecads.com
100
AcDbPolyline
 90
        6
 70
     0
 43
0.0
 10
168979.1241911995
 20
106396.9712018893
 10
168979.0237159191
 20
106397.0081578662
 10
168978.9160023646
 20
106397.0374407928
 10
168978.80240284
 20
106397.0578093081
 10
168978.6848963265
 20
106397.0682739215
 10
168978.6254459286
 20
106397.0695962408
  0
LWPOLYLINE
  5
824C0
330
1F
100
AcDbEntity
  8
freecads.com
100
AcDbPolyline
 90
        6
 70
     0
 43
0.0
 10
168979.1242001948
 20
106452.9759414483
 10
168979.023721916
 20
106452.938982473
 10
168978.9160083616
 20
106452.9096965479
 10
168978.8024088369
 20
106452.8893280326
 10
168978.6848993249
 20
106452.8788634192
 10
168978.6254459286
 20
106452.8775410999
  0
LWPOLYLINE
  5
824C1
330
1F
100
AcDbEntity
  8
freecads.com
100
AcDbPolyline
 90
       14
 70
     0
 43
0.0
 10
168978.6254459286
 20
106397.0695962408
 10
168978.521711326
 20
106397.0655633168
 10
168978.4198087803
 20
106397.0536384551
 10
168978.3213154797
 20
106397.0343014088
 10
168978.2274877775
 20
106397.0082568153
 10
168978.1391922277
 20
106396.9763412438
 10
168978.0181685246
 20
106396.9193735679
 10
168977.9113784948
 20
106396.8540491937
 10
168977.8186482277
 20
106396.7829977674
 10
168977.7394739827
 20
106396.7086630312
 10
168977.6733880004
 20
106396.6336626376
 10
168977.6051941032
 20
106396.5384736362
 10
168977.5487991325
 20
106396.4377344917
 10
168977.544658264
 20
106396.4291229245
  0
LWPOLYLINE
  5
824C2
330
1F
100
AcDbEntity
  8
freecads.com
100
AcDbPolyline
 90
       14
 70
     0
 43
0.0
 10
168978.6254459286
 20
106452.8775410999
 10
168978.521711326
 20
106452.881574024
 10
168978.4198087803
 20
106452.8934988856
 10
168978.3213154797
 20
106452.9128359319
 10
168978.2274877775
 20
106452.9388805254
 10
168978.1391922277
 20
106452.9707960969
 10
168978.0181685246
 20
106453.0277637728
 10
168977.9113784948
 20
106453.093088147
 10
168977.8186482277
 20
106453.1641395733
 10
168977.7394739827
 20
106453.2384743095
 10
168977.6733880004
 20
106453.3134747031
 10
168977.6051941032
 20
106453.4086637045
 10
168977.5487991325
 20
106453.5094028491
 10
168977.544658264
 20
106453.5180144162
  0
ARC
  5
824C3
330
1F
100
AcDbEntity
  8
freecads.com
100
AcDbCircle
 10
168978.6254459286
 20
106454.2039623246
 30
0.0
 40
1.228167800596328
100
AcDbArc
 50
211.8603129193262
 51
269.9999974953749
  0
LINE
  5
824C4
330
1F
100
AcDbEntity
  8
freecads.com
100
AcDbLine
 10
168979.7062335931
 20
106396.9713548106
 30
0.0
 11
168979.7062335931
 21
106400.4102456415
 31
0.0
  0
LINE
  5
824C5
330
1F
100
AcDbEntity
  8
freecads.com
100
AcDbLine
 10
168979.7062335931
 20
106449.5369576653
 30
0.0
 11
168979.7062335931
 21
106452.9758065178
 31
0.0
  0
LINE
  5
824C6
330
1F
100
AcDbEntity
  8
freecads.com
100
AcDbLine
 10
168977.544658264
 20
106396.4291229245
 30
0.0
 11
168977.544658264
 21
106400.4102456415
 31
0.0
  0
LINE
  5
824C7
330
1F
100
AcDbEntity
  8
freecads.com
100
AcDbLine
 10
168977.544658264
 20
106449.5369576653
 30
0.0
 11
168977.544658264
 21
106453.5180144162
 31
0.0
  0
LINE
  5
824C8
330
1F
100
AcDbEntity
  8
freecads.com
100
AcDbLine
 10
168977.544658264
 20
106396.4291229245
 30
0.0
 11
168977.5823158798
 21
106396.3914623103
 31
0.0
  0
LINE
  5
824C9
330
1F
100
AcDbEntity
  8
freecads.com
100
AcDbLine
 10
168977.544658264
 20
106453.5180144162
 30
0.0
 11
168977.5823158798
 21
106453.5556750304
 31
0.0
  0
LINE
  5
824CA
330
1F
100
AcDbEntity
  8
freecads.com
100
AcDbLine
 10
169012.465289056
 20
106399.1820688455
 30
0.0
 11
169012.465289056
 21
106400.4102246522
 31
0.0
  0
LINE
  5
824CB
330
1F
100
AcDbEntity
  8
freecads.com
100
AcDbLine
 10
169012.465289056
 20
106449.5369366761
 30
0.0
 11
169012.465289056
 21
106450.7651164706
 31
0.0
  0
LINE
  5
824CC
330
1F
100
AcDbEntity
  8
freecads.com
100
AcDbLine
 10
169010.3037136333
 20
106399.1820688455
 30
0.0
 11
169010.3037136333
 21
106400.4102246522
 31
0.0
  0
LINE
  5
824CD
330
1F
100
AcDbEntity
  8
freecads.com
100
AcDbLine
 10
169010.3037136333
 20
106449.5369366761
 30
0.0
 11
169010.3037136333
 21
106450.7651164706
 31
0.0
  0
LINE
  5
824CE
330
1F
100
AcDbEntity
  8
freecads.com
100
AcDbLine
 10
169049.7236481274
 20
106449.5369246823
 30
0.0
 11
169049.0294514651
 21
106449.5369246823
 31
0.0
  0
LINE
  5
824CF
330
1F
100
AcDbEntity
  8
freecads.com
100
AcDbLine
 10
169049.7236481274
 20
106400.4102126584
 30
0.0
 11
169049.7236481274
 21
106449.5369246823
 31
0.0
  0
LINE
  5
824D0
330
1F
100
AcDbEntity
  8
freecads.com
100
AcDbLine
 10
169049.7236481274
 20
106400.4102126584
 30
0.0
 11
169049.0294514651
 21
106400.4102126584
 31
0.0
  0
LINE
  5
824D1
330
1F
100
AcDbEntity
  8
freecads.com
100
AcDbLine
 10
169049.0294514651
 20
106400.4102126584
 30
0.0
 11
168998.1913576251
 21
106400.4102126584
 31
0.0
  0
LINE
  5
824D2
330
1F
100
AcDbEntity
  8
freecads.com
100
AcDbLine
 10
169049.0294514651
 20
106400.4102126584
 30
0.0
 11
169049.0294514651
 21
106449.5369246823
 31
0.0
  0
LINE
  5
824D3
330
1F
100
AcDbEntity
  8
freecads.com
100
AcDbLine
 10
169049.0037397002
 20
106449.5369246823
 30
0.0
 11
169049.0294514651
 21
106449.5369246823
 31
0.0
  0
LINE
  5
824D4
330
1F
100
AcDbEntity
  8
freecads.com
100
AcDbLine
 10
168998.1913568755
 20
106449.5369246823
 30
0.0
 11
169049.0037397002
 21
106449.5369246823
 31
0.0
  0
LINE
  5
824D5
330
1F
100
AcDbEntity
  8
freecads.com
100
AcDbLine
 10
169049.0037397002
 20
106400.4102126584
 30
0.0
 11
168998.1913568755
 21
106400.4102126584
 31
0.0
  0
LINE
  5
824D6
330
1F
100
AcDbEntity
  8
freecads.com
100
AcDbLine
 10
169049.0037397002
 20
106400.4102126584
 30
0.0
 11
169049.0294514651
 21
106400.4102126584
 31
0.0
  0
LINE
  5
824D7
330
1F
100
AcDbEntity
  8
freecads.com
100
AcDbLine
 10
169049.0294514651
 20
106400.4102126584
 30
0.0
 11
169049.0294514651
 21
106449.5369246823
 31
0.0
  0
LINE
  5
824D8
330
1F
100
AcDbEntity
  8
freecads.com
100
AcDbLine
 10
169049.0037397002
 20
106400.4102126584
 30
0.0
 11
169049.0037397002
 21
106449.5369246823
 31
0.0
  0
LINE
  5
824D9
330
1F
100
AcDbEntity
  8
freecads.com
100
AcDbLine
 10
168971.7502549333
 20
106449.5369246823
 30
0.0
 11
168971.7502549333
 21
106400.4102126584
 31
0.0
  0
LINE
  5
824DA
330
1F
100
AcDbEntity
  8
freecads.com
100
AcDbLine
 10
168997.7268509799
 20
106400.4102126584
 30
0.0
 11
168984.2918121664
 21
106400.4102126584
 31
0.0
  0
LINE
  5
824DB
330
1F
100
AcDbEntity
  8
freecads.com
100
AcDbLine
 10
168984.2918121664
 20
106400.4102126584
 30
0.0
 11
168971.7502549333
 21
106400.4102126584
 31
0.0
  0
LINE
  5
824DC
330
1F
100
AcDbEntity
  8
freecads.com
100
AcDbLine
 10
168971.7502549333
 20
106449.5369246823
 30
0.0
 11
168984.2918121664
 21
106449.5369246823
 31
0.0
  0
LINE
  5
824DD
330
1F
100
AcDbEntity
  8
freecads.com
100
AcDbLine
 10
168984.2918121664
 20
106400.4102126584
 30
0.0
 11
168984.2918121664
 21
106401.3927468989
 31
0.0
  0
LINE
  5
824DE
330
1F
100
AcDbEntity
  8
freecads.com
100
AcDbLine
 10
168984.2918121664
 20
106448.5543904418
 30
0.0
 11
168984.2918121664
 21
106449.5369246823
 31
0.0
  0
LINE
  5
824DF
330
1F
100
AcDbEntity
  8
freecads.com
100
AcDbLine
 10
168984.7563150635
 20
106400.4102126584
 30
0.0
 11
168998.1913531274
 21
106400.4102126584
 31
0.0
  0
LINE
  5
824E0
330
1F
100
AcDbEntity
  8
freecads.com
100
AcDbLine
 10
168998.1913531274
 20
106449.5369246823
 30
0.0
 11
168998.1913531274
 21
106400.4102126584
 31
0.0
  0
LINE
  5
824E1
330
1F
100
AcDbEntity
  8
freecads.com
100
AcDbLine
 10
168998.1913531274
 20
106449.5369246823
 30
0.0
 11
168984.7563150635
 21
106449.5369246823
 31
0.0
  0
LINE
  5
824E2
330
1F
100
AcDbEntity
  8
freecads.com
100
AcDbLine
 10
168984.7563150635
 20
106400.4102126584
 30
0.0
 11
168984.7563150635
 21
106449.5369246823
 31
0.0
  0
LINE
  5
824E3
330
1F
100
AcDbEntity
  8
freecads.com
100
AcDbLine
 10
168984.7563150635
 20
106449.5369246823
 30
0.0
 11
168984.2918121664
 21
106449.5369246823
 31
0.0
  0
LINE
  5
824E4
330
1F
100
AcDbEntity
  8
freecads.com
100
AcDbLine
 10
168984.7563150635
 20
106400.4102126584
 30
0.0
 11
168984.2918121664
 21
106400.4102126584
 31
0.0
  0
LINE
  5
824E5
330
1F
100
AcDbEntity
  8
freecads.com
100
AcDbLine
 10
168984.2918121664
 20
106400.4102126584
 30
0.0
 11
168984.2918121664
 21
106401.3927468989
 31
0.0
  0
LINE
  5
824E6
330
1F
100
AcDbEntity
  8
freecads.com
100
AcDbLine
 10
168984.2918121664
 20
106448.5543904418
 30
0.0
 11
168984.2918121664
 21
106449.5369246823
 31
0.0
  0
LINE
  5
824E7
330
1F
100
AcDbEntity
  8
freecads.com
100
AcDbLine
 10
169034.1386305155
 20
106392.3043051745
 30
0.0
 11
168997.7848636179
 21
106392.3043051745
 31
0.0
  0
LINE
  5
824E8
330
1F
100
AcDbEntity
  8
freecads.com
100
AcDbLine
 10
168997.7848636179
 20
106392.3043051745
 30
0.0
 11
168996.8023293774
 21
106392.3043051745
 31
0.0
  0
LINE
  5
824E9
330
1F
100
AcDbEntity
  8
freecads.com
100
AcDbLine
 10
168996.8023293774
 20
106392.3043051745
 30
0.0
 11
168996.8023293774
 21
106399.1820448578
 31
0.0
  0
LINE
  5
824EA
330
1F
100
AcDbEntity
  8
freecads.com
100
AcDbLine
 10
169035.121164756
 20
106392.3043051745
 30
0.0
 11
169034.1386305155
 21
106392.3043051745
 31
0.0
  0
LINE
  5
824EB
330
1F
100
AcDbEntity
  8
freecads.com
100
AcDbLine
 10
168996.8023293774
 20
106392.3043051745
 30
0.0
 11
168996.8023293774
 21
106399.1820448578
 31
0.0
  0
LINE
  5
824EC
330
1F
100
AcDbEntity
  8
freecads.com
100
AcDbLine
 10
169035.121164756
 20
106392.3043051745
 30
0.0
 11
169035.121164756
 21
106399.1820448578
 31
0.0
  0
LINE
  5
824ED
330
1F
100
AcDbEntity
  8
freecads.com
100
AcDbLine
 10
169035.121164756
 20
106392.3043051745
 30
0.0
 11
168996.8023293774
 21
106392.3043051745
 31
0.0
  0
LINE
  5
824EE
330
1F
100
AcDbEntity
  8
freecads.com
100
AcDbLine
 10
169035.121164756
 20
106399.1820448578
 30
0.0
 11
168996.8023293774
 21
106399.1820448578
 31
0.0
  0
LINE
  5
824EF
330
1F
100
AcDbEntity
  8
freecads.com
100
AcDbLine
 10
169034.1386305155
 20
106450.7650924829
 30
0.0
 11
168997.7848636179
 21
106450.7650924829
 31
0.0
  0
LINE
  5
824F0
330
1F
100
AcDbEntity
  8
freecads.com
100
AcDbLine
 10
168997.7848636179
 20
106450.7650924829
 30
0.0
 11
168996.8023293774
 21
106450.7650924829
 31
0.0
  0
LINE
  5
824F1
330
1F
100
AcDbEntity
  8
freecads.com
100
AcDbLine
 10
168996.8023293774
 20
106450.7650924829
 30
0.0
 11
168996.8023293774
 21
106457.6428321662
 31
0.0
  0
LINE
  5
824F2
330
1F
100
AcDbEntity
  8
freecads.com
100
AcDbLine
 10
169035.121164756
 20
106450.7650924829
 30
0.0
 11
169034.1386305155
 21
106450.7650924829
 31
0.0
  0
LINE
  5
824F3
330
1F
100
AcDbEntity
  8
freecads.com
100
AcDbLine
 10
168996.8023293774
 20
106450.7650924829
 30
0.0
 11
168996.8023293774
 21
106457.6428321662
 31
0.0
  0
LINE
  5
824F4
330
1F
100
AcDbEntity
  8
freecads.com
100
AcDbLine
 10
169035.121164756
 20
106450.7650924829
 30
0.0
 11
169035.121164756
 21
106457.6428321662
 31
0.0
  0
LINE
  5
824F5
330
1F
100
AcDbEntity
  8
freecads.com
100
AcDbLine
 10
169035.121164756
 20
106450.7650924829
 30
0.0
 11
168996.8023293774
 21
106450.7650924829
 31
0.0
  0
LINE
  5
824F6
330
1F
100
AcDbEntity
  8
freecads.com
100
AcDbLine
 10
169035.121164756
 20
106457.6428321662
 30
0.0
 11
168996.8023293774
 21
106457.6428321662
 31
0.0
  0
ARC
  5
824F7
330
1F
100
AcDbEntity
  8
freecads.com
100
AcDbCircle
 10
169041.0163701988
 20
106395.7431750162
 30
0.0
 40
1.277294512620181
100
AcDbArc
 50
254.0538589350394
 51
32.40220966125308
  0
ARC
  5
824F8
330
1F
100
AcDbEntity
  8
freecads.com
100
AcDbCircle
 10
169041.0163701988
 20
106395.7431750162
 30
0.0
 40
1.277294512620181
100
AcDbArc
 50
254.053830788164
 51
32.40220966125308
  0
ARC
  5
824F9
330
1F
100
AcDbEntity
  8
freecads.com
100
AcDbCircle
 10
169041.0163701988
 20
106395.7431750162
 30
0.0
 40
1.459063384589144
100
AcDbArc
 50
241.3521155020962
 51
42.20446139480098
  0
ARC
  5
824FA
330
1F
100
AcDbEntity
  8
freecads.com
100
AcDbCircle
 10
169041.0163761958
 20
106395.74318701
 30
0.0
 40
1.45907734615243
100
AcDbArc
 50
237.3328079932942
 51
241.3520879746462
  0
ARC
  5
824FB
330
1F
100
AcDbEntity
  8
freecads.com
100
AcDbCircle
 10
168978.6254459286
 20
106395.7431750162
 30
0.0
 40
1.277294512620181
100
AcDbArc
 50
147.6243218754188
 51
285.9448855215518
  0
ARC
  5
824FC
330
1F
100
AcDbEntity
  8
freecads.com
100
AcDbCircle
 10
168978.6254459286
 20
106395.7431750162
 30
0.0
 40
1.277294512620181
100
AcDbArc
 50
147.624309565593
 51
285.9448855215518
  0
ARC
  5
824FD
330
1F
100
AcDbEntity
  8
freecads.com
100
AcDbCircle
 10
168978.6254459286
 20
106395.7431750162
 30
0.0
 40
1.459063384589144
100
AcDbArc
 50
241.3521155020962
 51
302.6746247221528
  0
ARC
  5
824FE
330
1F
100
AcDbEntity
  8
freecads.com
100
AcDbCircle
 10
168978.6254459286
 20
106395.7431750162
 30
0.0
 40
1.459063290887377
100
AcDbArc
 50
137.7931933490331
 51
241.3521108690721
  0
ARC
  5
824FF
330
1F
100
AcDbEntity
  8
freecads.com
100
AcDbCircle
 10
169041.0163701988
 20
106454.2039623246
 30
0.0
 40
1.277294512620181
100
AcDbArc
 50
327.6268240581841
 51
105.9411346022548
  0
ARC
  5
82500
330
1F
100
AcDbEntity
  8
freecads.com
100
AcDbCircle
 10
169041.0163701988
 20
106454.2039623246
 30
0.0
 40
1.459063290887377
100
AcDbArc
 50
317.7955264275125
 51
61.35211400437798
  0
ARC
  5
82501
330
1F
100
AcDbEntity
  8
freecads.com
100
AcDbCircle
 10
169041.0163701988
 20
106454.2039623246
 30
0.0
 40
1.459063384589144
100
AcDbArc
 50
61.35211400437798
 51
122.67447411125
  0
ARC
  5
82502
330
1F
100
AcDbEntity
  8
freecads.com
100
AcDbCircle
 10
168978.6254459286
 20
106454.2039623246
 30
0.0
 40
1.277294512620181
100
AcDbArc
 50
74.06012422554091
 51
212.4021897539846
  0
ARC
  5
82503
330
1F
100
AcDbEntity
  8
freecads.com
100
AcDbCircle
 10
168978.6254459286
 20
106454.2039623246
 30
0.0
 40
1.277294512620181
100
AcDbArc
 50
74.06014416203294
 51
212.4021897539846
  0
ARC
  5
82504
330
1F
100
AcDbEntity
  8
freecads.com
100
AcDbCircle
 10
168978.6254399316
 20
106454.2039503307
 30
0.0
 40
1.459077439854197
100
AcDbArc
 50
57.32555338569853
 51
61.35209260913367
  0
ARC
  5
82505
330
1F
100
AcDbEntity
  8
freecads.com
100
AcDbCircle
 10
168978.6254459286
 20
106454.2039623246
 30
0.0
 40
1.459063384589144
100
AcDbArc
 50
61.35211400437798
 51
222.2068041217004
  0
ENDSEC
  0
SECTION
  2
OBJECTS
  0
DICTIONARY
  5
C
330
0
100
AcDbDictionary
281
     1
  3
ACAD_ASSOCPERSSUBENTMANAGER
350
2C1D4
  3
ACAD_CIP_PREVIOUS_PRODUCT_INFO
350
1A5
  3
ACAD_COLOR
350
73
  3
ACAD_DETAILVIEWSTYLE
350
1AB
  3
ACAD_GROUP
350
D
  3
ACAD_LAYOUT
350
1A
  3
ACAD_MATERIAL
350
72
  3
ACAD_MLEADERSTYLE
350
D7
  3
ACAD_MLINESTYLE
350
17
  3
ACAD_PLOTSETTINGS
350
19
  3
ACAD_PLOTSTYLENAME
350
E
  3
ACAD_SCALELIST
350
B6
  3
ACAD_SECTIONVIEWSTYLE
350
1A8
  3
ACAD_TABLESTYLE
350
86
  3
ACAD_VISUALSTYLE
350
99
  3
ACAD_WIPEOUT_VARS
350
59B06
  3
ACDB_RECOMPOSE_DATA
350
82516
  3
ACDBVARIABLEDICTIONARY
350
4A0D5
  3
AEC_PROPERTY_SET_DEFS
350
22D1
  3
ASE_INDEX_DICTIONARY
350
81FD0
  0
DICTIONARY
  5
18E
330
2
100
AcDbDictionary
280
     1
281
     1
  3
ACAD_LAYERSTATES
360
18F
  0
DICTIONARY
  5
E6
330
10
100
AcDbDictionary
280
     1
281
     1
  0
DICTIONARY
  5
15D
330
1F
100
AcDbDictionary
280
     1
281
     1
  3
ACAD_SORTENTS
360
28E
  0
ACDBASSOCPERSSUBENTMANAGER
  5
2C1D4
102
{ACAD_REACTORS
330
C
102
}
330
C
100
AcDbAssocPersSubentManager
 90
        2
 90
        3
 90
        0
 90
        2
 90
     1260
 90
        0
 90
     1260
 90
        1
 90
        2
 90
        3
 90
        4
 90
        5
 90
        6
 90
        7
 90
        8
 90
        9
 90
       10
 90
       11
 90
       12
 90
       13
 90
       14
 90
       15
 90
       16
 90
       17
 90
       18
 90
       19
 90
       20
 90
       21
 90
       22
 90
       23
 90
       24
 90
       25
 90
       26
 90
       27
 90
       28
 90
       29
 90
       30
 90
       31
 90
       32
 90
       33
 90
       34
 90
       35
 90
       36
 90
       37
 90
       38
 90
       39
 90
       40
 90
       41
 90
       42
 90
       43
 90
       44
 90
       45
 90
       46
 90
       47
 90
       48
 90
       49
 90
       50
 90
       51
 90
       52
 90
       53
 90
       54
 90
       55
 90
       56
 90
       57
 90
       58
 90
       59
 90
       60
 90
       61
 90
       62
 90
       63
 90
       64
 90
       65
 90
       66
 90
       67
 90
       68
 90
       69
 90
       70
 90
       71
 90
       72
 90
       73
 90
       74
 90
       75
 90
       76
 90
       77
 90
       78
 90
       79
 90
       80
 90
       81
 90
       82
 90
       83
 90
       84
 90
       85
 90
       86
 90
       87
 90
       88
 90
       89
 90
       90
 90
       91
 90
       92
 90
       93
 90
       94
 90
       95
 90
       96
 90
       97
 90
       98
 90
       99
 90
      100
 90
      101
 90
      102
 90
      103
 90
      104
 90
      105
 90
      106
 90
      107
 90
      108
 90
      109
 90
      110
 90
      111
 90
      112
 90
      113
 90
      114
 90
      115
 90
      116
 90
      117
 90
      118
 90
      119
 90
      120
 90
      121
 90
      122
 90
      123
 90
      124
 90
      125
 90
      126
 90
      127
 90
      128
 90
      129
 90
      130
 90
      131
 90
      132
 90
      133
 90
      134
 90
      135
 90
      136
 90
      137
 90
      138
 90
      139
 90
      140
 90
      141
 90
      142
 90
      143
 90
      144
 90
      145
 90
      146
 90
      147
 90
      148
 90
      149
 90
      150
 90
      151
 90
      152
 90
      153
 90
      154
 90
      155
 90
      156
 90
      157
 90
      158
 90
      159
 90
      160
 90
      161
 90
      162
 90
      163
 90
      164
 90
      165
 90
      166
 90
      167
 90
      168
 90
      169
 90
      170
 90
      171
 90
      172
 90
      173
 90
      174
 90
      175
 90
      176
 90
      177
 90
      178
 90
      179
 90
      180
 90
      181
 90
      182
 90
      183
 90
      184
 90
      185
 90
      186
 90
      187
 90
      188
 90
      189
 90
      190
 90
      191
 90
      192
 90
      193
 90
      194
 90
      195
 90
      196
 90
      197
 90
      198
 90
      199
 90
      200
 90
      201
 90
      202
 90
      203
 90
      204
 90
      205
 90
      206
 90
      207
 90
      208
 90
      209
 90
      210
 90
      211
 90
      212
 90
      213
 90
      214
 90
      215
 90
      216
 90
      217
 90
      218
 90
      219
 90
      220
 90
      221
 90
      222
 90
      223
 90
      224
 90
      225
 90
      226
 90
      227
 90
      228
 90
      229
 90
      230
 90
      231
 90
      232
 90
      233
 90
      234
 90
      235
 90
      236
 90
      237
 90
      238
 90
      239
 90
      240
 90
      241
 90
      242
 90
      243
 90
      244
 90
      245
 90
      246
 90
      247
 90
      248
 90
      249
 90
      250
 90
      251
 90
      252
 90
      253
 90
      254
 90
      255
 90
      256
 90
      257
 90
      258
 90
      259
 90
      260
 90
      261
 90
      262
 90
      263
 90
      264
 90
      265
 90
      266
 90
      267
 90
      268
 90
      269
 90
      270
 90
      271
 90
      272
 90
      273
 90
      274
 90
      275
 90
      276
 90
      277
 90
      278
 90
      279
 90
      280
 90
      281
 90
      282
 90
      283
 90
      284
 90
      285
 90
      286
 90
      287
 90
      288
 90
      289
 90
      290
 90
      291
 90
      292
 90
      293
 90
      294
 90
      295
 90
      296
 90
      297
 90
      298
 90
      299
 90
      300
 90
      301
 90
      302
 90
      303
 90
      304
 90
      305
 90
      306
 90
      307
 90
      308
 90
      309
 90
      310
 90
      311
 90
      312
 90
      313
 90
      314
 90
      315
 90
      316
 90
      317
 90
      318
 90
      319
 90
      320
 90
      321
 90
      322
 90
      323
 90
      324
 90
      325
 90
      326
 90
      327
 90
      328
 90
      329
 90
      330
 90
      331
 90
      332
 90
      333
 90
      334
 90
      335
 90
      336
 90
      337
 90
      338
 90
      339
 90
      340
 90
      341
 90
      342
 90
      343
 90
      344
 90
      345
 90
      346
 90
      347
 90
      348
 90
      349
 90
      350
 90
      351
 90
      352
 90
      353
 90
      354
 90
      355
 90
      356
 90
      357
 90
      358
 90
      359
 90
      360
 90
      361
 90
      362
 90
      363
 90
      364
 90
      365
 90
      366
 90
      367
 90
      368
 90
      369
 90
      370
 90
      371
 90
      372
 90
      373
 90
      374
 90
      375
 90
      376
 90
      377
 90
      378
 90
      379
 90
      380
 90
      381
 90
      382
 90
      383
 90
      384
 90
      385
 90
      386
 90
      387
 90
      388
 90
      389
 90
      390
 90
      391
 90
      392
 90
      393
 90
      394
 90
      395
 90
      396
 90
      397
 90
      398
 90
      399
 90
      400
 90
      401
 90
      402
 90
      403
 90
      404
 90
      405
 90
      406
 90
      407
 90
      408
 90
      409
 90
      410
 90
      411
 90
      412
 90
      413
 90
      414
 90
      415
 90
      416
 90
      417
 90
      418
 90
      419
 90
      420
 90
      421
 90
      422
 90
      423
 90
      424
 90
      425
 90
      426
 90
      427
 90
      428
 90
      429
 90
      430
 90
      431
 90
      432
 90
      433
 90
      434
 90
      435
 90
      436
 90
      437
 90
      438
 90
      439
 90
      440
 90
      441
 90
      442
 90
      443
 90
      444
 90
      445
 90
      446
 90
      447
 90
      448
 90
      449
 90
      450
 90
      451
 90
      452
 90
      453
 90
      454
 90
      455
 90
      456
 90
      457
 90
      458
 90
      459
 90
      460
 90
      461
 90
      462
 90
      463
 90
      464
 90
      465
 90
      466
 90
      467
 90
      468
 90
      469
 90
      470
 90
      471
 90
      472
 90
      473
 90
      474
 90
      475
 90
      476
 90
      477
 90
      478
 90
      479
 90
      480
 90
      481
 90
      482
 90
      483
 90
      484
 90
      485
 90
      486
 90
      487
 90
      488
 90
      489
 90
      490
 90
      491
 90
      492
 90
      493
 90
      494
 90
      495
 90
      496
 90
      497
 90
      498
 90
      499
 90
      500
 90
      501
 90
      502
 90
      503
 90
      504
 90
      505
 90
      506
 90
      507
 90
      508
 90
      509
 90
      510
 90
      511
 90
      512
 90
      513
 90
      514
 90
      515
 90
      516
 90
      517
 90
      518
 90
      519
 90
      520
 90
      521
 90
      522
 90
      523
 90
      524
 90
      525
 90
      526
 90
      527
 90
      528
 90
      529
 90
      530
 90
      531
 90
      532
 90
      533
 90
      534
 90
      535
 90
      536
 90
      537
 90
      538
 90
      539
 90
      540
 90
      541
 90
      542
 90
      543
 90
      544
 90
      545
 90
      546
 90
      547
 90
      548
 90
      549
 90
      550
 90
      551
 90
      552
 90
      553
 90
      554
 90
      555
 90
      556
 90
      557
 90
      558
 90
      559
 90
      560
 90
      561
 90
      562
 90
      563
 90
      564
 90
      565
 90
      566
 90
      567
 90
      568
 90
      569
 90
      570
 90
      571
 90
      572
 90
      573
 90
      574
 90
      575
 90
      576
 90
      577
 90
      578
 90
      579
 90
      580
 90
      581
 90
      582
 90
      583
 90
      584
 90
      585
 90
      586
 90
      587
 90
      588
 90
      589
 90
      590
 90
      591
 90
      592
 90
      593
 90
      594
 90
      595
 90
      596
 90
      597
 90
      598
 90
      599
 90
      600
 90
      601
 90
      602
 90
      603
 90
      604
 90
      605
 90
      606
 90
      607
 90
      608
 90
      609
 90
      610
 90
      611
 90
      612
 90
      613
 90
      614
 90
      615
 90
      616
 90
      617
 90
      618
 90
      619
 90
      620
 90
      621
 90
      622
 90
      623
 90
      624
 90
      625
 90
      626
 90
      627
 90
      628
 90
      629
 90
      630
 90
      631
 90
      632
 90
      633
 90
      634
 90
      635
 90
      636
 90
      637
 90
      638
 90
      639
 90
      640
 90
      641
 90
      642
 90
      643
 90
      644
 90
      645
 90
      646
 90
      647
 90
      648
 90
      649
 90
      650
 90
      651
 90
      652
 90
      653
 90
      654
 90
      655
 90
      656
 90
      657
 90
      658
 90
      659
 90
      660
 90
      661
 90
      662
 90
      663
 90
      664
 90
      665
 90
      666
 90
      667
 90
      668
 90
      669
 90
      670
 90
      671
 90
      672
 90
      673
 90
      674
 90
      675
 90
      676
 90
      677
 90
      678
 90
      679
 90
      680
 90
      681
 90
      682
 90
      683
 90
      684
 90
      685
 90
      686
 90
      687
 90
      688
 90
      689
 90
      690
 90
      691
 90
      692
 90
      693
 90
      694
 90
      695
 90
      696
 90
      697
 90
      698
 90
      699
 90
      700
 90
      701
 90
      702
 90
      703
 90
      704
 90
      705
 90
      706
 90
      707
 90
      708
 90
      709
 90
      710
 90
      711
 90
      712
 90
      713
 90
      714
 90
      715
 90
      716
 90
      717
 90
      718
 90
      719
 90
      720
 90
      721
 90
      722
 90
      723
 90
      724
 90
      725
 90
      726
 90
      727
 90
      728
 90
      729
 90
      730
 90
      731
 90
      732
 90
      733
 90
      734
 90
      735
 90
      736
 90
      737
 90
      738
 90
      739
 90
      740
 90
      741
 90
      742
 90
      743
 90
      744
 90
      745
 90
      746
 90
      747
 90
      748
 90
      749
 90
      750
 90
      751
 90
      752
 90
      753
 90
      754
 90
      755
 90
      756
 90
      757
 90
      758
 90
      759
 90
      760
 90
      761
 90
      762
 90
      763
 90
      764
 90
      765
 90
      766
 90
      767
 90
      768
 90
      769
 90
      770
 90
      771
 90
      772
 90
      773
 90
      774
 90
      775
 90
      776
 90
      777
 90
      778
 90
      779
 90
      780
 90
      781
 90
      782
 90
      783
 90
      784
 90
      785
 90
      786
 90
      787
 90
      788
 90
      789
 90
      790
 90
      791
 90
      792
 90
      793
 90
      794
 90
      795
 90
      796
 90
      797
 90
      798
 90
      799
 90
      800
 90
      801
 90
      802
 90
      803
 90
      804
 90
      805
 90
      806
 90
      807
 90
      808
 90
      809
 90
      810
 90
      811
 90
      812
 90
      813
 90
      814
 90
      815
 90
      816
 90
      817
 90
      818
 90
      819
 90
      820
 90
      821
 90
      822
 90
      823
 90
      824
 90
      825
 90
      826
 90
      827
 90
      828
 90
      829
 90
      830
 90
      831
 90
      832
 90
      833
 90
      834
 90
      835
 90
      836
 90
      837
 90
      838
 90
      839
 90
      840
 90
      841
 90
      842
 90
      843
 90
      844
 90
      845
 90
      846
 90
      847
 90
      848
 90
      849
 90
      850
 90
      851
 90
      852
 90
      853
 90
      854
 90
      855
 90
      856
 90
      857
 90
      858
 90
      859
 90
      860
 90
      861
 90
      862
 90
      863
 90
      864
 90
      865
 90
      866
 90
      867
 90
      868
 90
      869
 90
      870
 90
      871
 90
      872
 90
      873
 90
      874
 90
      875
 90
      876
 90
      877
 90
      878
 90
      879
 90
      880
 90
      881
 90
      882
 90
      883
 90
      884
 90
      885
 90
      886
 90
      887
 90
      888
 90
      889
 90
      890
 90
      891
 90
      892
 90
      893
 90
      894
 90
      895
 90
      896
 90
      897
 90
      898
 90
      899
 90
      900
 90
      901
 90
      902
 90
      903
 90
      904
 90
      905
 90
      906
 90
      907
 90
      908
 90
      909
 90
      910
 90
      911
 90
      912
 90
      913
 90
      914
 90
      915
 90
      916
 90
      917
 90
      918
 90
      919
 90
      920
 90
      921
 90
      922
 90
      923
 90
      924
 90
      925
 90
      926
 90
      927
 90
      928
 90
      929
 90
      930
 90
      931
 90
      932
 90
      933
 90
      934
 90
      935
 90
      936
 90
      937
 90
      938
 90
      939
 90
      940
 90
      941
 90
      942
 90
      943
 90
      944
 90
      945
 90
      946
 90
      947
 90
      948
 90
      949
 90
      950
 90
      951
 90
      952
 90
      953
 90
      954
 90
      955
 90
      956
 90
      957
 90
      958
 90
      959
 90
      960
 90
      961
 90
      962
 90
      963
 90
      964
 90
      965
 90
      966
 90
      967
 90
      968
 90
      969
 90
      970
 90
      971
 90
      972
 90
      973
 90
      974
 90
      975
 90
      976
 90
      977
 90
      978
 90
      979
 90
      980
 90
      981
 90
      982
 90
      983
 90
      984
 90
      985
 90
      986
 90
      987
 90
      988
 90
      989
 90
      990
 90
      991
 90
      992
 90
      993
 90
      994
 90
      995
 90
      996
 90
      997
 90
      998
 90
      999
 90
     1000
 90
     1001
 90
     1002
 90
     1003
 90
     1004
 90
     1005
 90
     1006
 90
     1007
 90
     1008
 90
     1009
 90
     1010
 90
     1011
 90
     1012
 90
     1013
 90
     1014
 90
     1015
 90
     1016
 90
     1017
 90
     1018
 90
     1019
 90
     1020
 90
     1021
 90
     1022
 90
     1023
 90
     1024
 90
     1025
 90
     1026
 90
     1027
 90
     1028
 90
     1029
 90
     1030
 90
     1031
 90
     1032
 90
     1033
 90
     1034
 90
     1035
 90
     1036
 90
     1037
 90
     1038
 90
     1039
 90
     1040
 90
     1041
 90
     1042
 90
     1043
 90
     1044
 90
     1045
 90
     1046
 90
     1047
 90
     1048
 90
     1049
 90
     1050
 90
     1051
 90
     1052
 90
     1053
 90
     1054
 90
     1055
 90
     1056
 90
     1057
 90
     1058
 90
     1059
 90
     1060
 90
     1061
 90
     1062
 90
     1063
 90
     1064
 90
     1065
 90
     1066
 90
     1067
 90
     1068
 90
     1069
 90
     1070
 90
     1071
 90
     1072
 90
     1073
 90
     1074
 90
     1075
 90
     1076
 90
     1077
 90
     1078
 90
     1079
 90
     1080
 90
     1081
 90
     1082
 90
     1083
 90
     1084
 90
     1085
 90
     1086
 90
     1087
 90
     1088
 90
     1089
 90
     1090
 90
     1091
 90
     1092
 90
     1093
 90
     1094
 90
     1095
 90
     1096
 90
     1097
 90
     1098
 90
     1099
 90
     1100
 90
     1101
 90
     1102
 90
     1103
 90
     1104
 90
     1105
 90
     1106
 90
     1107
 90
     1108
 90
     1109
 90
     1110
 90
     1111
 90
     1112
 90
     1113
 90
     1114
 90
     1115
 90
     1116
 90
     1117
 90
     1118
 90
     1119
 90
     1120
 90
     1121
 90
     1122
 90
     1123
 90
     1124
 90
     1125
 90
     1126
 90
     1127
 90
     1128
 90
     1129
 90
     1130
 90
     1131
 90
     1132
 90
     1133
 90
     1134
 90
     1135
 90
     1136
 90
     1137
 90
     1138
 90
     1139
 90
     1140
 90
     1141
 90
     1142
 90
     1143
 90
     1144
 90
     1145
 90
     1146
 90
     1147
 90
     1148
 90
     1149
 90
     1150
 90
     1151
 90
     1152
 90
     1153
 90
     1154
 90
     1155
 90
     1156
 90
     1157
 90
     1158
 90
     1159
 90
     1160
 90
     1161
 90
     1162
 90
     1163
 90
     1164
 90
     1165
 90
     1166
 90
     1167
 90
     1168
 90
     1169
 90
     1170
 90
     1171
 90
     1172
 90
     1173
 90
     1174
 90
     1175
 90
     1176
 90
     1177
 90
     1178
 90
     1179
 90
     1180
 90
     1181
 90
     1182
 90
     1183
 90
     1184
 90
     1185
 90
     1186
 90
     1187
 90
     1188
 90
     1189
 90
     1190
 90
     1191
 90
     1192
 90
     1193
 90
     1194
 90
     1195
 90
     1196
 90
     1197
 90
     1198
 90
     1199
 90
     1200
 90
     1201
 90
     1202
 90
     1203
 90
     1204
 90
     1205
 90
     1206
 90
     1207
 90
     1208
 90
     1209
 90
     1210
 90
     1211
 90
     1212
 90
     1213
 90
     1214
 90
     1215
 90
     1216
 90
     1217
 90
     1218
 90
     1219
 90
     1220
 90
     1221
 90
     1222
 90
     1223
 90
     1224
 90
     1225
 90
     1226
 90
     1227
 90
     1228
 90
     1229
 90
     1230
 90
     1231
 90
     1232
 90
     1233
 90
     1234
 90
     1235
 90
     1236
 90
     1237
 90
     1238
 90
     1239
 90
     1240
 90
     1241
 90
     1242
 90
     1243
 90
     1244
 90
     1245
 90
     1246
 90
     1247
 90
     1248
 90
     1249
 90
     1250
 90
     1251
 90
     1252
 90
     1253
 90
     1254
 90
     1255
 90
     1256
 90
     1257
 90
     1258
 90
     1259
 90
     1260
 90
        0
 90
        0
290
     0
  0
XRECORD
  5
1A5
102
{ACAD_REACTORS
330
C
102
}
330
C
100
AcDbXrecord
280
     1
300
ACD
300
2022
300

  0
DICTIONARY
  5
73
102
{ACAD_REACTORS
330
C
102
}
330
C
100
AcDbDictionary
281
     1
  0
DICTIONARY
  5
1AB
102
{ACAD_REACTORS
330
C
102
}
330
C
100
AcDbDictionary
281
     1
  3
Imperial24
350
1AC
  3
Metric50
350
224
  0
DICTIONARY
  5
D
102
{ACAD_REACTORS
330
C
102
}
330
C
100
AcDbDictionary
281
     1
  0
DICTIONARY
  5
1A
102
{ACAD_REACTORS
330
C
102
}
330
C
100
AcDbDictionary
281
     1
  3
Layout1
350
59
  3
Layout2
350
5E
  3
Model
350
22
  0
DICTIONARY
  5
72
102
{ACAD_REACTORS
330
C
102
}
330
C
100
AcDbDictionary
281
     1
  3
ByBlock
350
97
  3
ByLayer
350
96
  3
Global
350
98
  0
DICTIONARY
  5
D7
102
{ACAD_REACTORS
330
C
102
}
330
C
100
AcDbDictionary
281
     1
  3
Standard
350
D8
  0
DICTIONARY
  5
17
102
{ACAD_REACTORS
330
C
102
}
330
C
100
AcDbDictionary
281
     1
  3
Standard
350
18
  0
DICTIONARY
  5
19
102
{ACAD_REACTORS
330
C
102
}
330
C
100
AcDbDictionary
281
     1
  0
ACDBDICTIONARYWDFLT
  5
E
102
{ACAD_REACTORS
330
C
102
}
330
C
100
AcDbDictionary
281
     1
  3
Normal
350
F
100
AcDbDictionaryWithDefault
340
F
  0
DICTIONARY
  5
B6
102
{ACAD_REACTORS
330
C
102
}
330
C
100
AcDbDictionary
281
     1
  3
*A1
350
2283
  3
A0
350
B7
  3
A1
350
124
  3
A2
350
125
  3
A3
350
126
  3
A4
350
127
  3
A5
350
128
  3
A6
350
129
  3
A7
350
12A
  3
A8
350
12B
  3
A9
350
12C
  3
B0
350
12D
  3
B1
350
12E
  3
B2
350
12F
  3
B3
350
130
  3
B4
350
131
  3
B5
350
132
  3
B6
350
133
  3
B7
350
134
  3
B8
350
135
  3
B9
350
136
  3
C0
350
137
  3
C1
350
138
  3
C2
350
139
  3
C3
350
13A
  3
C4
350
13B
  3
C5
350
13C
  3
C6
350
13D
  3
C7
350
13E
  3
C8
350
13F
  3
C9
350
140
  3
D0
350
141
  3
D1
350
142
  3
D2
350
143
  0
DICTIONARY
  5
1A8
102
{ACAD_REACTORS
330
C
102
}
330
C
100
AcDbDictionary
281
     1
  3
Imperial24
350
1AA
  3
Metric50
350
223
  0
DICTIONARY
  5
86
102
{ACAD_REACTORS
330
C
102
}
330
C
100
AcDbDictionary
281
     1
  3
Standard
350
87
  0
DICTIONARY
  5
99
102
{ACAD_REACTORS
330
C
102
}
330
C
100
AcDbDictionary
281
     1
  3
2dWireframe
350
9F
  3
3dWireframe
350
22946
  3
Basic
350
9E
  3
Brighten
350
A5
  3
ColorChange
350
A9
  3
Conceptual
350
A2
  3
Dim
350
A4
  3
EdgeColorOff
350
175
  3
Facepattern
350
A8
  3
Flat
350
9A
  3
FlatWithEdges
350
9B
  3
Gouraud
350
9C
  3
GouraudWithEdges
350
9D
  3
Hidden
350
A1
  3
JitterOff
350
173
  3
Linepattern
350
A7
  3
OverhangOff
350
174
  3
Realistic
350
A3
  3
Shaded
350
182
  3
Shaded with edges
350
181
  3
Shades of Gray
350
17E
  3
Sketchy
350
17F
  3
Thicken
350
A6
  3
Wireframe
350
A0
  3
X-Ray
350
180
  0
WIPEOUTVARIABLES
  5
59B06
102
{ACAD_REACTORS
330
C
102
}
330
C
100
AcDbWipeoutVariables
 70
     1
  0
XRECORD
  5
82516
102
{ACAD_REACTORS
330
C
102
}
330
C
100
AcDbXrecord
280
     1
 90
        1
330
87
  0
DICTIONARY
  5
4A0D5
102
{ACAD_REACTORS
330
C
102
}
330
C
100
AcDbDictionary
281
     2
  3
#COMPAREDIFFTOTAL
350
4A0D6
  3
#REVCLOUDAPPROXARCLEN
350
4A0D7
  3
ANNOALLVISIBLE
350
4A0D8
  3
CANNOSCALE
350
4A0D9
  3
CMLEADERSTYLE
350
4A0DA
  3
CTABLESTYLE
350
4A0DB
  3
CVIEWDETAILSTYLE
350
4A0DC
  3
CVIEWSECTIONSTYLE
350
4A0DD
  3
DIMADEC
350
4A0DE
  3
DIMASSOC
350
4A0DF
  3
DWFFRAME
350
4A0E0
  3
HIDETEXT
350
4A0E1
  3
HPCOLOR
350
4A0E2
  3
HPLAYER
350
4A0E3
  3
HPTRANSPARENCY
350
4A0E4
  3
INDEXCTL
350
4A0E5
  3
LAYEREVAL
350
4A0E6
  3
LAYERNOTIFY
350
4A0E7
  3
LIGHTINGUNITS
350
4A0E8
  3
MLEADERSCALE
350
4A0E9
  3
MSLTSCALE
350
4A0EA
  3
MSOLESCALE
350
4A0EB
  3
PDFFRAME
350
4A0EC
  3
POINTCLOUDCLIPFRAME
350
4A0ED
  3
PROJECTNAME
350
4A0EE
  3
SOLIDHIST
350
4A0EF
  3
SORTENTS
350
4A0F0
  0
DICTIONARY
  5
22D1
102
{ACAD_REACTORS
330
C
102
}
330
C
100
AcDbDictionary
281
     1
  0
DICTIONARY
  5
81FD0
102
{ACAD_REACTORS
330
C
102
}
330
C
100
AcDbDictionary
281
     1
  3
ASEBlockHierarchyIndexRecord
350
81FD1
1001
DCO15
1040
2132591008.0
  0
DICTIONARY
  5
18F
102
{ACAD_REACTORS
330
18E
102
}
330
18E
100
AcDbDictionary
281
     1
  0
SORTENTSTABLE
  5
28E
102
{ACAD_REACTORS
330
15D
102
}
330
15D
100
AcDbSortentsTable
330
1F
  0
ACDBDETAILVIEWSTYLE
  5
1AC
102
{ACAD_REACTORS
330
1AB
102
}
330
1AB
100
AcDbModelDocViewStyle
 70
     0
  3
Imperial24
290
     0
300
Imperial24
 90
        0
100
AcDbDetailViewStyle
 70
     0
 71
     0
 90
        3
 71
     1
340
11
 62
   256
 40
0.24
340
0
 62
   256
 40
0.24
300

 40
0.36
280
     3
 71
     2
340
16
 90
       25
 62
   256
 71
     3
340
11
 62
   256
 40
0.24
 90
        1
 40
0.75
 90
        1
300
%<\AcVar ViewType \f "%tc1">% %<\AcVar ViewDetailId>%\PSCALE %<\AcVar ViewScale \f "%sn">%
 71
     4
340
16
 90
       25
 62
   256
340
16
 90
       25
 62
   256
280
     0
  0
ACDBDETAILVIEWSTYLE
  5
224
102
{ACAD_REACTORS
330
1AB
102
}
330
1AB
100
AcDbModelDocViewStyle
 70
     0
  3
Metric50
290
     0
300
Metric50
 90
        0
100
AcDbDetailViewStyle
 70
     0
 71
     0
 90
        3
 71
     1
340
11
 62
   256
 40
5.0
340
0
 62
   256
 40
5.0
300

 40
0.0
280
     1
 71
     2
340
16
 90
       25
 62
   256
 71
     3
340
11
 62
   256
 40
5.0
 90
        0
 40
15.0
 90
        1
300
%<\AcVar ViewDetailId>% (%<\AcVar ViewScale \f "%sn">%)
 71
     4
340
16
 90
       25
 62
   256
340
16
 90
       25
 62
   256
280
     0
  0
LAYOUT
  5
59
102
{ACAD_REACTORS
330
1A
102
}
330
1A
100
AcDbPlotSettings
  1

  2
None
  4

  6

 40
0.0
 41
0.0
 42
0.0
 43
0.0
 44
0.0
 45
0.0
 46
0.0
 47
0.0
 48
0.0
 49
0.0
140
0.0
141
0.0
142
1.0
143
1.0
 70
   688
 72
     0
 73
     0
 74
     5
  7

 75
    16
147
1.0
 76
     0
 77
     2
 78
   300
148
0.0
149
0.0
100
AcDbLayout
  1
Layout1
 70
     1
 71
     1
 10
0.0
 20
0.0
 11
12.0
 21
9.0
 12
0.0
 22
0.0
 32
0.0
 14
0.0
 24
0.0
 34
0.0
 15
0.0
 25
0.0
 35
0.0
146
0.0
 13
0.0
 23
0.0
 33
0.0
 16
1.0
 26
0.0
 36
0.0
 17
0.0
 27
1.0
 37
0.0
 76
     0
330
58
  0
LAYOUT
  5
5E
102
{ACAD_REACTORS
330
1A
102
}
330
1A
100
AcDbPlotSettings
  1

  2
None
  4

  6

 40
0.0
 41
0.0
 42
0.0
 43
0.0
 44
0.0
 45
0.0
 46
0.0
 47
0.0
 48
0.0
 49
0.0
140
0.0
141
0.0
142
1.0
143
1.0
 70
   688
 72
     0
 73
     0
 74
     5
  7

 75
    16
147
1.0
 76
     0
 77
     2
 78
   300
148
0.0
149
0.0
100
AcDbLayout
  1
Layout2
 70
     1
 71
     2
 10
0.0
 20
0.0
 11
12.0
 21
9.0
 12
0.0
 22
0.0
 32
0.0
 14
0.0
 24
0.0
 34
0.0
 15
0.0
 25
0.0
 35
0.0
146
0.0
 13
0.0
 23
0.0
 33
0.0
 16
1.0
 26
0.0
 36
0.0
 17
0.0
 27
1.0
 37
0.0
 76
     0
330
5D
  0
LAYOUT
  5
22
102
{ACAD_XDICTIONARY
360
194
102
}
102
{ACAD_REACTORS
330
1A
102
}
330
1A
100
AcDbPlotSettings
  1

  2
none_device
  4
ANSI_A_(8.50_x_11.00_Inches)
  6

 40
6.349999904632568
 41
19.04999923706055
 42
6.350006103515625
 43
19.04998779296875
 44
215.8999938964844
 45
279.3999938964844
 46
0.0
 47
0.0
 48
0.0
 49
0.0
140
0.0
141
0.0
142
1.0
143
2.584895464708373
 70
 11952
 72
     0
 73
     1
 74
     0
  7

 75
     0
147
0.3868628397755418
 76
     0
 77
     2
 78
   300
148
0.0
149
0.0
100
AcDbLayout
  1
Model
 70
     1
 71
     0
 10
0.0
 20
0.0
 11
12.0
 21
9.0
 12
0.0
 22
0.0
 32
0.0
 14
0.0
 24
0.0
 34
0.0
 15
0.0
 25
0.0
 35
0.0
146
0.0
 13
0.0
 23
0.0
 33
0.0
 16
1.0
 26
0.0
 36
0.0
 17
0.0
 27
1.0
 37
0.0
 76
     0
330
1F
331
94
  0
MATERIAL
  5
97
102
{ACAD_XDICTIONARY
360
188
102
}
102
{ACAD_REACTORS
330
72
102
}
330
72
100
AcDbMaterial
  1
ByBlock
 94
       63
  0
MATERIAL
  5
96
102
{ACAD_XDICTIONARY
360
186
102
}
102
{ACAD_REACTORS
330
72
102
}
330
72
100
AcDbMaterial
  1
ByLayer
 94
       63
  0
MATERIAL
  5
98
102
{ACAD_XDICTIONARY
360
110
102
}
102
{ACAD_REACTORS
330
72
102
}
330
72
100
AcDbMaterial
  1
Global
 43
0.0208000000566244
 43
0.0
 43
0.0
 43
0.0
 43
0.0
 43
0.0208000000566244
 43
0.0
 43
0.0
 43
0.0
 43
0.0
 43
1.0
 43
0.0
 43
0.0
 43
0.0
 43
0.0
 43
1.0
 49
0.0208000000566244
 49
0.0
 49
0.0
 49
0.0
 49
0.0
 49
0.0208000000566244
 49
0.0
 49
0.0
 49
0.0
 49
0.0
 49
1.0
 49
0.0
 49
0.0
 49
0.0
 49
0.0
 49
1.0
142
0.0208000000566244
142
0.0
142
0.0
142
0.0
142
0.0
142
0.0208000000566244
142
0.0
142
0.0
142
0.0
142
0.0
142
1.0
142
0.0
142
0.0
142
0.0
142
0.0
142
1.0
144
0.0208000000566244
144
0.0
144
0.0
144
0.0
144
0.0
144
0.0208000000566244
144
0.0
144
0.0
144
0.0
144
0.0
144
1.0
144
0.0
144
0.0
144
0.0
144
0.0
144
1.0
 94
       63
1001
ACAD
1070
    -1
1070
     3
1070
     0
1000

1071
        0
1070
     0
  0
MLEADERSTYLE
  5
D8
102
{ACAD_REACTORS
330
D7
102
}
330
D7
100
AcDbMLeaderStyle
179
     2
170
     2
171
     1
172
     0
 90
        2
 40
0.0
 41
0.0
173
     1
 91
-1056964608
340
14
 92
       -2
290
     1
 42
0.09
291
     1
 43
0.36
  3
Standard
 44
0.18
300

342
11
174
     1
178
     1
175
     1
176
     0
 93
-1056964608
 45
0.18
292
     0
297
     0
 46
0.18
 94
-1056964608
 47
1.0
 49
1.0
140
1.0
293
     1
141
0.0
294
     1
177
     0
142
1.0
295
     0
296
     0
143
0.125
271
     0
272
     9
273
     9
298
     0
  0
MLINESTYLE
  5
18
102
{ACAD_REACTORS
330
17
102
}
330
17
100
AcDbMlineStyle
  2
STANDARD
 70
     0
  3

 62
   256
 51
90.0
 52
90.0
 71
     2
 49
0.5
 62
   256
  6
BYLAYER
 49
-0.5
 62
   256
  6
BYLAYER
  0
ACDBPLACEHOLDER
  5
F
102
{ACAD_REACTORS
330
E
102
}
330
E
  0
SCALE
  5
2283
102
{ACAD_REACTORS
330
B6
102
}
330
B6
100
AcDbScale
 70
     0
300
1:75
140
1.0
141
75.0
290
     0
  0
SCALE
  5
B7
102
{ACAD_REACTORS
330
B6
102
}
330
B6
100
AcDbScale
 70
     0
300
1:1
140
1.0
141
1.0
290
     1
  0
SCALE
  5
124
102
{ACAD_REACTORS
330
B6
102
}
330
B6
100
AcDbScale
 70
     0
300
1:2
140
1.0
141
2.0
290
     0
  0
SCALE
  5
125
102
{ACAD_REACTORS
330
B6
102
}
330
B6
100
AcDbScale
 70
     0
300
1:4
140
1.0
141
4.0
290
     0
  0
SCALE
  5
126
102
{ACAD_REACTORS
330
B6
102
}
330
B6
100
AcDbScale
 70
     0
300
1:5
140
1.0
141
5.0
290
     0
  0
SCALE
  5
127
102
{ACAD_REACTORS
330
B6
102
}
330
B6
100
AcDbScale
 70
     0
300
1:8
140
1.0
141
8.0
290
     0
  0
SCALE
  5
128
102
{ACAD_REACTORS
330
B6
102
}
330
B6
100
AcDbScale
 70
     0
300
1:10
140
1.0
141
10.0
290
     0
  0
SCALE
  5
129
102
{ACAD_REACTORS
330
B6
102
}
330
B6
100
AcDbScale
 70
     0
300
1:16
140
1.0
141
16.0
290
     0
  0
SCALE
  5
12A
102
{ACAD_REACTORS
330
B6
102
}
330
B6
100
AcDbScale
 70
     0
300
1:20
140
1.0
141
20.0
290
     0
  0
SCALE
  5
12B
102
{ACAD_REACTORS
330
B6
102
}
330
B6
100
AcDbScale
 70
     0
300
1:30
140
1.0
141
30.0
290
     0
  0
SCALE
  5
12C
102
{ACAD_REACTORS
330
B6
102
}
330
B6
100
AcDbScale
 70
     0
300
1:40
140
1.0
141
40.0
290
     0
  0
SCALE
  5
12D
102
{ACAD_REACTORS
330
B6
102
}
330
B6
100
AcDbScale
 70
     0
300
1:50
140
1.0
141
50.0
290
     0
  0
SCALE
  5
12E
102
{ACAD_REACTORS
330
B6
102
}
330
B6
100
AcDbScale
 70
     0
300
1:100
140
1.0
141
100.0
290
     0
  0
SCALE
  5
12F
102
{ACAD_REACTORS
330
B6
102
}
330
B6
100
AcDbScale
 70
     0
300
2:1
140
2.0
141
1.0
290
     0
  0
SCALE
  5
130
102
{ACAD_REACTORS
330
B6
102
}
330
B6
100
AcDbScale
 70
     0
300
4:1
140
4.0
141
1.0
290
     0
  0
SCALE
  5
131
102
{ACAD_REACTORS
330
B6
102
}
330
B6
100
AcDbScale
 70
     0
300
8:1
140
8.0
141
1.0
290
     0
  0
SCALE
  5
132
102
{ACAD_REACTORS
330
B6
102
}
330
B6
100
AcDbScale
 70
     0
300
10:1
140
10.0
141
1.0
290
     0
  0
SCALE
  5
133
102
{ACAD_REACTORS
330
B6
102
}
330
B6
100
AcDbScale
 70
     0
300
100:1
140
100.0
141
1.0
290
     0
  0
SCALE
  5
134
102
{ACAD_REACTORS
330
B6
102
}
330
B6
100
AcDbScale
 70
     0
300
1/128" = 1'-0"
140
0.0078125
141
12.0
290
     0
  0
SCALE
  5
135
102
{ACAD_REACTORS
330
B6
102
}
330
B6
100
AcDbScale
 70
     0
300
1/64" = 1'-0"
140
0.015625
141
12.0
290
     0
  0
SCALE
  5
136
102
{ACAD_REACTORS
330
B6
102
}
330
B6
100
AcDbScale
 70
     0
300
1/32" = 1'-0"
140
0.03125
141
12.0
290
     0
  0
SCALE
  5
137
102
{ACAD_REACTORS
330
B6
102
}
330
B6
100
AcDbScale
 70
     0
300
1/16" = 1'-0"
140
0.0625
141
12.0
290
     0
  0
SCALE
  5
138
102
{ACAD_REACTORS
330
B6
102
}
330
B6
100
AcDbScale
 70
     0
300
3/32" = 1'-0"
140
0.09375
141
12.0
290
     0
  0
SCALE
  5
139
102
{ACAD_REACTORS
330
B6
102
}
330
B6
100
AcDbScale
 70
     0
300
1/8" = 1'-0"
140
0.125
141
12.0
290
     0
  0
SCALE
  5
13A
102
{ACAD_REACTORS
330
B6
102
}
330
B6
100
AcDbScale
 70
     0
300
3/16" = 1'-0"
140
0.1875
141
12.0
290
     0
  0
SCALE
  5
13B
102
{ACAD_REACTORS
330
B6
102
}
330
B6
100
AcDbScale
 70
     0
300
1/4" = 1'-0"
140
0.25
141
12.0
290
     0
  0
SCALE
  5
13C
102
{ACAD_REACTORS
330
B6
102
}
330
B6
100
AcDbScale
 70
     0
300
3/8" = 1'-0"
140
0.375
141
12.0
290
     0
  0
SCALE
  5
13D
102
{ACAD_REACTORS
330
B6
102
}
330
B6
100
AcDbScale
 70
     0
300
1/2" = 1'-0"
140
0.5
141
12.0
290
     0
  0
SCALE
  5
13E
102
{ACAD_REACTORS
330
B6
102
}
330
B6
100
AcDbScale
 70
     0
300
3/4" = 1'-0"
140
0.75
141
12.0
290
     0
  0
SCALE
  5
13F
102
{ACAD_REACTORS
330
B6
102
}
330
B6
100
AcDbScale
 70
     0
300
1" = 1'-0"
140
1.0
141
12.0
290
     0
  0
SCALE
  5
140
102
{ACAD_REACTORS
330
B6
102
}
330
B6
100
AcDbScale
 70
     0
300
1-1/2" = 1'-0"
140
1.5
141
12.0
290
     0
  0
SCALE
  5
141
102
{ACAD_REACTORS
330
B6
102
}
330
B6
100
AcDbScale
 70
     0
300
3" = 1'-0"
140
3.0
141
12.0
290
     0
  0
SCALE
  5
142
102
{ACAD_REACTORS
330
B6
102
}
330
B6
100
AcDbScale
 70
     0
300
6" = 1'-0"
140
6.0
141
12.0
290
     0
  0
SCALE
  5
143
102
{ACAD_REACTORS
330
B6
102
}
330
B6
100
AcDbScale
 70
     0
300
1'-0" = 1'-0"
140
12.0
141
12.0
290
     0
  0
ACDBSECTIONVIEWSTYLE
  5
1AA
102
{ACAD_REACTORS
330
1A8
102
}
330
1A8
100
AcDbModelDocViewStyle
 70
     0
  3
Imperial24
290
     0
300
Imperial24
 90
        0
100
AcDbSectionViewStyle
 70
     0
 71
     0
 90
       78
 71
     1
340
11
 62
   256
 40
0.24
340
0
340
0
 62
   256
 40
0.24
300
I, O, Q, S, X, Z
 40
0.48
 90
        3
 40
0.18
 90
        1
 71
     2
340
16
 90
       25
 62
   256
340
16
 90
       50
 62
   256
 40
0.24
 40
0.0
 40
0.24
 71
     3
340
11
 62
   256
 40
0.24
 90
        1
 40
0.75
 90
        1
300
%<\AcVar ViewType \f "%tc1">% %<\AcVar ViewSectionStartId>%-%<\AcVar ViewSectionEndId>%\PSCALE %<\AcVar ViewScale \f "%sn">%
 71
     4
 62
   256
 62
   257
300
ANSI31
 40
1.0
 90
        0
290
     0
290
     0
 90
        6
 40
0.0
 40
1.570796326794896
 40
0.2617993877991494
 40
1.308996938995747
 40
-0.2617993877991494
 40
1.832595714594046
  0
ACDBSECTIONVIEWSTYLE
  5
223
102
{ACAD_REACTORS
330
1A8
102
}
330
1A8
100
AcDbModelDocViewStyle
 70
     0
  3
Metric50
290
     0
300
Metric50
 90
        0
100
AcDbSectionViewStyle
 70
     0
 71
     0
 90
      102
 71
     1
340
11
 62
   256
 40
5.0
340
0
340
0
 62
   256
 40
5.0
300
I, O, Q, S, X, Z
 40
10.0
 90
        0
 40
2.5
 90
        0
 71
     2
340
16
 90
       25
 62
   256
340
16
 90
       50
 62
   256
 40
5.0
 40
2.5
 40
5.0
 71
     3
340
11
 62
   256
 40
5.0
 90
        0
 40
15.0
 90
        1
300
%<\AcVar ViewSectionStartId>%-%<\AcVar ViewSectionEndId>% (%<\AcVar ViewScale \f "%sn">%)
 71
     4
 62
   256
 62
   257
300
ANSI31
 40
1.0
 90
        0
290
     0
290
     0
 90
        6
 40
0.0
 40
1.570796326794896
 40
0.2617993877991494
 40
1.308996938995747
 40
-0.2617993877991494
 40
1.832595714594046
  0
TABLESTYLE
  5
87
102
{ACAD_XDICTIONARY
360
104
102
}
102
{ACAD_REACTORS
330
86
102
}
330
86
100
AcDbTableStyle
280
     0
  3
Standard
 70
     0
 71
     0
 40
0.06
 41
0.06
280
     0
281
     0
  7
Standard
140
0.18
170
     2
 62
     0
 63
     7
283
     0
 90
      512
 91
        0
  1

274
    -2
284
     1
 64
     0
275
    -2
285
     1
 65
     0
276
    -2
286
     1
 66
     0
277
    -2
287
     1
 67
     0
278
    -2
288
     1
 68
     0
279
    -2
289
     1
 69
     0
  7
Standard
140
0.25
170
     5
 62
     0
 63
     7
283
     0
 90
      512
 91
        0
  1

274
    -2
284
     1
 64
     0
275
    -2
285
     1
 65
     0
276
    -2
286
     1
 66
     0
277
    -2
287
     1
 67
     0
278
    -2
288
     1
 68
     0
279
    -2
289
     1
 69
     0
  7
Standard
140
0.18
170
     5
 62
     0
 63
     7
283
     0
 90
      512
 91
        0
  1

274
    -2
284
     1
 64
     0
275
    -2
285
     1
 65
     0
276
    -2
286
     1
 66
     0
277
    -2
287
     1
 67
     0
278
    -2
288
     1
 68
     0
279
    -2
289
     1
 69
     0
  0
VISUALSTYLE
  5
9F
102
{ACAD_REACTORS
330
99
102
}
330
99
100
AcDbVisualStyle
  2
2dWireframe
 70
     4
177
     3
291
     0
 70
    58
 90
        0
176
     1
 90
        2
176
     1
 90
        1
176
     1
 90
        0
176
     1
 40
0.6
176
     1
 40
30.0
176
     1
 62
     7
420
 16777215
176
     1
 90
        1
176
     1
 90
        4
176
     1
 62
     7
176
     1
 62
   257
176
     1
 90
        1
176
     1
 90
        1
176
     1
 40
1.0
176
     1
 90
        0
176
     1
 62
   257
176
     1
 40
1.0
176
     1
 90
        1
176
     1
 90
        6
176
     1
 90
        2
176
     1
 62
     7
176
     1
 90
        5
176
     1
 90
        0
176
     1
 90
        0
176
     1
290
     0
176
     1
 90
        1
176
     1
 40
0.0
176
     1
 90
        0
176
     1
290
     1
176
     1
290
     1
176
     1
290
     0
176
     1
290
     0
176
     1
290
     0
176
     1
290
     0
176
     1
290
     0
176
     1
290
     0
176
     1
290
     0
176
     1
 90
       50
176
     1
 40
0.0
176
     1
 40
1.0
176
     1
 90
        0
176
     1
 62
    18
420
        0
176
     1
 90
       50
176
     1
 90
        3
176
     1
 62
     5
420
      255
176
     1
290
     0
176
     1
 90
       50
176
     1
 90
       50
176
     1
 90
       50
176
     1
290
     0
176
     1
 90
       50
176
     1
 62
   256
176
     0
 40
1.0
176
     0
 90
        2
176
     1
  1
strokes_ogs.tif
176
     1
290
     0
176
     1
 40
1.0
176
     1
 40
1.0
176
     1
  0
VISUALSTYLE
  5
22946
102
{ACAD_REACTORS
330
99
102
}
330
99
100
AcDbVisualStyle
  2
3dWireframe
 70
     5
177
     3
291
     0
 70
    58
 90
        0
176
     1
 90
        2
176
     1
 90
        0
176
     1
 90
        0
176
     1
 40
0.6
176
     1
 40
30.0
176
     1
 62
     7
176
     1
 90
        1
176
     1
 90
        4
176
     1
 62
     7
176
     1
 62
   257
176
     1
 90
        1
176
     1
 90
        1
176
     1
 40
1.0
176
     1
 90
        0
176
     1
 62
   257
176
     1
 40
1.0
176
     1
 90
        1
176
     1
 90
        6
176
     1
 90
        2
176
     1
 62
     7
176
     1
 90
        5
176
     1
 90
        0
176
     1
 90
        0
176
     1
290
     0
176
     1
 90
        1
176
     1
 40
0.0
176
     1
 90
        0
176
     1
290
     0
176
     1
290
     1
176
     1
290
     1
176
     1
290
     0
176
     1
290
     0
176
     1
290
     0
176
     1
290
     0
176
     1
290
     0
176
     1
290
     0
176
     1
 90
       50
176
     1
 40
0.0
176
     1
 40
1.0
176
     1
 90
        0
176
     1
 62
    18
420
        0
176
     1
 90
       50
176
     1
 90
        3
176
     1
 62
     5
420
      255
176
     1
290
     0
176
     1
 90
       50
176
     1
 90
       50
176
     1
 90
       50
176
     1
290
     0
176
     1
 90
       50
176
     1
 62
   256
176
     0
 40
1.0
176
     0
 90
        2
176
     1
  1
strokes_ogs.tif
176
     1
290
     0
176
     1
 40
1.0
176
     1
 40
1.0
176
     1
  0
VISUALSTYLE
  5
9E
102
{ACAD_REACTORS
330
99
102
}
330
99
100
AcDbVisualStyle
  2
Basic
 70
     7
177
     3
291
     1
 70
    58
 90
        1
176
     1
 90
        0
176
     1
 90
        1
176
     1
 90
        0
176
     1
 40
0.6
176
     1
 40
30.0
176
     1
 62
     7
420
 16777215
176
     1
 90
        0
176
     1
 90
        4
176
     1
 62
     7
176
     1
 62
   257
176
     1
 90
        1
176
     1
 90
        1
176
     1
 40
1.0
176
     1
 90
        8
176
     1
 62
     7
176
     1
 40
1.0
176
     1
 90
        1
176
     1
 90
        6
176
     1
 90
        2
176
     1
 62
     7
176
     1
 90
        5
176
     1
 90
        0
176
     1
 90
        0
176
     1
290
     0
176
     1
 90
        1
176
     1
 40
0.0
176
     1
 90
        0
176
     1
290
     0
176
     1
290
     1
176
     1
290
     1
176
     1
290
     0
176
     1
290
     0
176
     1
290
     0
176
     1
290
     0
176
     1
290
     0
176
     1
290
     0
176
     1
 90
       50
176
     1
 40
0.0
176
     1
 40
1.0
176
     1
 90
        0
176
     1
 62
    18
420
        0
176
     1
 90
       50
176
     1
 90
        3
176
     1
 62
     5
420
      255
176
     1
290
     0
176
     1
 90
       50
176
     1
 90
       50
176
     1
 90
       50
176
     1
290
     0
176
     1
 90
       50
176
     1
 62
   256
176
     0
 40
1.0
176
     0
 90
        2
176
     1
  1
strokes_ogs.tif
176
     1
290
     0
176
     1
 40
1.0
176
     1
 40
1.0
176
     1
  0
VISUALSTYLE
  5
A5
102
{ACAD_REACTORS
330
99
102
}
330
99
100
AcDbVisualStyle
  2
Brighten
 70
    12
177
     3
291
     1
 70
    58
 90
        2
176
     1
 90
        2
176
     1
 90
        1
176
     1
 90
        0
176
     1
 40
0.6
176
     1
 40
30.0
176
     1
 62
     7
420
 16777215
176
     1
 90
        1
176
     1
 90
        4
176
     1
 62
     7
176
     1
 62
   257
176
     1
 90
        1
176
     1
 90
        1
176
     1
 40
1.0
176
     1
 90
        8
176
     1
 62
     7
176
     1
 40
1.0
176
     1
 90
        1
176
     1
 90
        6
176
     1
 90
        2
176
     1
 62
     7
176
     1
 90
        5
176
     1
 90
        0
176
     1
 90
        0
176
     1
290
     0
176
     1
 90
        1
176
     1
 40
50.0
176
     1
 90
        0
176
     1
290
     0
176
     1
290
     1
176
     1
290
     1
176
     1
290
     0
176
     1
290
     0
176
     1
290
     0
176
     1
290
     0
176
     1
290
     0
176
     1
290
     0
176
     1
 90
       50
176
     1
 40
0.0
176
     1
 40
1.0
176
     1
 90
        0
176
     1
 62
    18
420
        0
176
     1
 90
       50
176
     1
 90
        3
176
     1
 62
     5
420
      255
176
     1
290
     0
176
     1
 90
       50
176
     1
 90
       50
176
     1
 90
       50
176
     1
290
     0
176
     1
 90
       50
176
     1
 62
   256
176
     0
 40
1.0
176
     0
 90
        2
176
     1
  1
strokes_ogs.tif
176
     1
290
     0
176
     1
 40
1.0
176
     1
 40
1.0
176
     1
  0
VISUALSTYLE
  5
A9
102
{ACAD_REACTORS
330
99
102
}
330
99
100
AcDbVisualStyle
  2
ColorChange
 70
    16
177
     3
291
     1
 70
    58
 90
        2
176
     1
 90
        2
176
     1
 90
        3
176
     1
 90
        0
176
     1
 40
0.6
176
     1
 40
30.0
176
     1
 62
     8
420
  8421504
176
     1
 90
        1
176
     1
 90
        4
176
     1
 62
     7
176
     1
 62
   257
176
     1
 90
        1
176
     1
 90
        1
176
     1
 40
1.0
176
     1
 90
        8
176
     1
 62
     8
420
  8421504
176
     1
 40
1.0
176
     1
 90
        1
176
     1
 90
        6
176
     1
 90
        2
176
     1
 62
     7
176
     1
 90
        5
176
     1
 90
        0
176
     1
 90
        0
176
     1
290
     0
176
     1
 90
        1
176
     1
 40
0.0
176
     1
 90
        0
176
     1
290
     0
176
     1
290
     1
176
     1
290
     1
176
     1
290
     0
176
     1
290
     0
176
     1
290
     0
176
     1
290
     0
176
     1
290
     0
176
     1
290
     0
176
     1
 90
       50
176
     1
 40
0.0
176
     1
 40
1.0
176
     1
 90
        0
176
     1
 62
    18
420
        0
176
     1
 90
       50
176
     1
 90
        3
176
     1
 62
     5
420
      255
176
     1
290
     0
176
     1
 90
       50
176
     1
 90
       50
176
     1
 90
       50
176
     1
290
     0
176
     1
 90
       50
176
     1
 62
   256
176
     0
 40
1.0
176
     0
 90
        2
176
     1
  1
strokes_ogs.tif
176
     1
290
     0
176
     1
 40
1.0
176
     1
 40
1.0
176
     1
  0
VISUALSTYLE
  5
A2
102
{ACAD_REACTORS
330
99
102
}
330
99
100
AcDbVisualStyle
  2
Conceptual
 70
     9
177
     3
291
     0
 70
    58
 90
        3
176
     1
 90
        2
176
     1
 90
        1
176
     1
 90
        0
176
     1
 40
0.6
176
     1
 40
30.0
176
     1
 62
     7
420
 16777215
176
     1
 90
        2
176
     1
 90
        2
176
     1
 62
     7
176
     1
 62
   257
176
     1
 90
        1
176
     1
 90
        1
176
     1
 40
40.0
176
     1
 90
        8
176
     1
 62
     7
176
     1
 40
1.0
176
     1
 90
        1
176
     1
 90
        6
176
     1
 90
        2
176
     1
 62
     7
176
     1
 90
        3
176
     1
 90
        0
176
     1
 90
        0
176
     1
290
     0
176
     1
 90
        1
176
     1
 40
0.0
176
     1
 90
        0
176
     1
290
     0
176
     1
290
     1
176
     1
290
     1
176
     1
290
     0
176
     1
290
     0
176
     1
290
     0
176
     1
290
     0
176
     1
290
     0
176
     1
290
     0
176
     1
 90
       50
176
     1
 40
0.0
176
     1
 40
1.0
176
     1
 90
        0
176
     1
 62
    18
420
        0
176
     1
 90
       50
176
     1
 90
        3
176
     1
 62
     5
420
      255
176
     1
290
     0
176
     1
 90
       50
176
     1
 90
       50
176
     1
 90
       50
176
     1
290
     0
176
     1
 90
       50
176
     1
 62
   256
176
     0
 40
1.0
176
     0
 90
        2
176
     1
  1
strokes_ogs.tif
176
     1
290
     0
176
     1
 40
1.0
176
     1
 40
1.0
176
     1
  0
VISUALSTYLE
  5
A4
102
{ACAD_REACTORS
330
99
102
}
330
99
100
AcDbVisualStyle
  2
Dim
 70
    11
177
     3
291
     1
 70
    58
 90
        2
176
     1
 90
        2
176
     1
 90
        1
176
     1
 90
        0
176
     1
 40
0.6
176
     1
 40
30.0
176
     1
 62
     7
420
 16777215
176
     1
 90
        1
176
     1
 90
        4
176
     1
 62
     7
176
     1
 62
   257
176
     1
 90
        1
176
     1
 90
        1
176
     1
 40
1.0
176
     1
 90
        8
176
     1
 62
     7
176
     1
 40
1.0
176
     1
 90
        1
176
     1
 90
        6
176
     1
 90
        2
176
     1
 62
     7
176
     1
 90
        5
176
     1
 90
        0
176
     1
 90
        0
176
     1
290
     0
176
     1
 90
        1
176
     1
 40
-50.0
176
     1
 90
        0
176
     1
290
     0
176
     1
290
     1
176
     1
290
     1
176
     1
290
     0
176
     1
290
     0
176
     1
290
     0
176
     1
290
     0
176
     1
290
     0
176
     1
290
     0
176
     1
 90
       50
176
     1
 40
0.0
176
     1
 40
1.0
176
     1
 90
        0
176
     1
 62
    18
420
        0
176
     1
 90
       50
176
     1
 90
        3
176
     1
 62
     5
420
      255
176
     1
290
     0
176
     1
 90
       50
176
     1
 90
       50
176
     1
 90
       50
176
     1
290
     0
176
     1
 90
       50
176
     1
 62
   256
176
     0
 40
1.0
176
     0
 90
        2
176
     1
  1
strokes_ogs.tif
176
     1
290
     0
176
     1
 40
1.0
176
     1
 40
1.0
176
     1
  0
VISUALSTYLE
  5
175
102
{ACAD_REACTORS
330
99
102
}
330
99
100
AcDbVisualStyle
  2
EdgeColorOff
 70
    22
177
     3
291
     1
 70
    58
 90
        2
176
     0
 90
        2
176
     0
 90
        0
176
     0
 90
        0
176
     0
 40
0.6
176
     0
 40
30.0
176
     0
 62
     7
420
 16777215
176
     0
 90
        1
176
     0
 90
        4
176
     0
 62
     7
176
     0
 62
   257
176
     0
 90
        1
176
     0
 90
        1
176
     0
 40
1.0
176
     0
 90
        8
176
     2
 62
     7
176
     0
 40
1.0
176
     0
 90
        1
176
     0
 90
        6
176
     0
 90
        2
176
     0
 62
     7
176
     0
 90
        5
176
     0
 90
        0
176
     0
 90
        0
176
     0
290
     0
176
     0
 90
        1
176
     0
 40
0.0
176
     0
 90
        0
176
     0
290
     0
176
     1
290
     1
176
     1
290
     1
176
     1
290
     0
176
     1
290
     0
176
     1
290
     0
176
     1
290
     0
176
     1
290
     0
176
     1
290
     0
176
     1
 90
       50
176
     1
 40
0.0
176
     1
 40
1.0
176
     1
 90
        0
176
     1
 62
    18
420
        0
176
     1
 90
       50
176
     1
 90
        3
176
     1
 62
     5
420
      255
176
     1
290
     0
176
     1
 90
       50
176
     1
 90
       50
176
     1
 90
       50
176
     1
290
     0
176
     1
 90
       50
176
     1
 62
   256
176
     0
 40
1.0
176
     0
 90
        2
176
     1
  1
strokes_ogs.tif
176
     1
290
     0
176
     1
 40
1.0
176
     1
 40
1.0
176
     1
  0
VISUALSTYLE
  5
A8
102
{ACAD_REACTORS
330
99
102
}
330
99
100
AcDbVisualStyle
  2
Facepattern
 70
    15
177
     3
291
     1
 70
    58
 90
        2
176
     1
 90
        2
176
     1
 90
        1
176
     1
 90
        0
176
     1
 40
0.6
176
     1
 40
30.0
176
     1
 62
     7
420
 16777215
176
     1
 90
        1
176
     1
 90
        4
176
     1
 62
     7
176
     1
 62
   257
176
     1
 90
        1
176
     1
 90
        1
176
     1
 40
1.0
176
     1
 90
        8
176
     1
 62
     7
176
     1
 40
1.0
176
     1
 90
        1
176
     1
 90
        6
176
     1
 90
        2
176
     1
 62
     7
176
     1
 90
        5
176
     1
 90
        0
176
     1
 90
        0
176
     1
290
     0
176
     1
 90
        1
176
     1
 40
0.0
176
     1
 90
        0
176
     1
290
     0
176
     1
290
     1
176
     1
290
     1
176
     1
290
     0
176
     1
290
     0
176
     1
290
     0
176
     1
290
     0
176
     1
290
     0
176
     1
290
     0
176
     1
 90
       50
176
     1
 40
0.0
176
     1
 40
1.0
176
     1
 90
        0
176
     1
 62
    18
420
        0
176
     1
 90
       50
176
     1
 90
        3
176
     1
 62
     5
420
      255
176
     1
290
     0
176
     1
 90
       50
176
     1
 90
       50
176
     1
 90
       50
176
     1
290
     0
176
     1
 90
       50
176
     1
 62
   256
176
     0
 40
1.0
176
     0
 90
        2
176
     1
  1
strokes_ogs.tif
176
     1
290
     0
176
     1
 40
1.0
176
     1
 40
1.0
176
     1
  0
VISUALSTYLE
  5
9A
102
{ACAD_REACTORS
330
99
102
}
330
99
100
AcDbVisualStyle
  2
Flat
 70
     0
177
     3
291
     1
 70
    58
 90
        2
176
     1
 90
        1
176
     1
 90
        1
176
     1
 90
        2
176
     1
 40
0.6
176
     1
 40
30.0
176
     1
 62
     7
420
 16777215
176
     1
 90
        0
176
     1
 90
        0
176
     1
 62
     7
176
     1
 62
   257
176
     1
 90
        1
176
     1
 90
        1
176
     1
 40
1.0
176
     1
 90
        8
176
     1
 62
     7
176
     1
 40
1.0
176
     1
 90
        1
176
     1
 90
        6
176
     1
 90
        2
176
     1
 62
     7
176
     1
 90
        5
176
     1
 90
        0
176
     1
 90
        0
176
     1
290
     0
176
     1
 90
       13
176
     1
 40
0.0
176
     1
 90
        0
176
     1
290
     0
176
     1
290
     1
176
     1
290
     1
176
     1
290
     0
176
     1
290
     0
176
     1
290
     0
176
     1
290
     0
176
     1
290
     0
176
     1
290
     0
176
     1
 90
       50
176
     1
 40
0.0
176
     1
 40
1.0
176
     1
 90
        0
176
     1
 62
    18
420
        0
176
     1
 90
       50
176
     1
 90
        3
176
     1
 62
     5
420
      255
176
     1
290
     0
176
     1
 90
       50
176
     1
 90
       50
176
     1
 90
       50
176
     1
290
     0
176
     1
 90
       50
176
     1
 62
   256
176
     0
 40
1.0
176
     0
 90
        2
176
     1
  1
strokes_ogs.tif
176
     1
290
     0
176
     1
 40
1.0
176
     1
 40
1.0
176
     1
  0
VISUALSTYLE
  5
9B
102
{ACAD_REACTORS
330
99
102
}
330
99
100
AcDbVisualStyle
  2
FlatWithEdges
 70
     1
177
     3
291
     1
 70
    58
 90
        2
176
     1
 90
        1
176
     1
 90
        1
176
     1
 90
        2
176
     1
 40
0.6
176
     1
 40
30.0
176
     1
 62
     7
420
 16777215
176
     1
 90
        1
176
     1
 90
        0
176
     1
 62
     7
176
     1
 62
   257
176
     1
 90
        1
176
     1
 90
        1
176
     1
 40
1.0
176
     1
 90
        0
176
     1
 62
   257
176
     1
 40
1.0
176
     1
 90
        1
176
     1
 90
        6
176
     1
 90
        2
176
     1
 62
     7
176
     1
 90
        5
176
     1
 90
        0
176
     1
 90
        0
176
     1
290
     0
176
     1
 90
       13
176
     1
 40
0.0
176
     1
 90
        0
176
     1
290
     0
176
     1
290
     1
176
     1
290
     1
176
     1
290
     0
176
     1
290
     0
176
     1
290
     0
176
     1
290
     0
176
     1
290
     0
176
     1
290
     0
176
     1
 90
       50
176
     1
 40
0.0
176
     1
 40
1.0
176
     1
 90
        0
176
     1
 62
    18
420
        0
176
     1
 90
       50
176
     1
 90
        3
176
     1
 62
     5
420
      255
176
     1
290
     0
176
     1
 90
       50
176
     1
 90
       50
176
     1
 90
       50
176
     1
290
     0
176
     1
 90
       50
176
     1
 62
   256
176
     0
 40
1.0
176
     0
 90
        2
176
     1
  1
strokes_ogs.tif
176
     1
290
     0
176
     1
 40
1.0
176
     1
 40
1.0
176
     1
  0
VISUALSTYLE
  5
9C
102
{ACAD_REACTORS
330
99
102
}
330
99
100
AcDbVisualStyle
  2
Gouraud
 70
     2
177
     3
291
     1
 70
    58
 90
        2
176
     1
 90
        2
176
     1
 90
        1
176
     1
 90
        2
176
     1
 40
0.6
176
     1
 40
30.0
176
     1
 62
     7
420
 16777215
176
     1
 90
        0
176
     1
 90
        0
176
     1
 62
     7
176
     1
 62
   257
176
     1
 90
        1
176
     1
 90
        1
176
     1
 40
1.0
176
     1
 90
        0
176
     1
 62
     7
176
     1
 40
1.0
176
     1
 90
        1
176
     1
 90
        6
176
     1
 90
        2
176
     1
 62
     7
176
     1
 90
        5
176
     1
 90
        0
176
     1
 90
        0
176
     1
290
     0
176
     1
 90
       13
176
     1
 40
0.0
176
     1
 90
        0
176
     1
290
     0
176
     1
290
     1
176
     1
290
     1
176
     1
290
     0
176
     1
290
     0
176
     1
290
     0
176
     1
290
     0
176
     1
290
     0
176
     1
290
     0
176
     1
 90
       50
176
     1
 40
0.0
176
     1
 40
1.0
176
     1
 90
        0
176
     1
 62
    18
420
        0
176
     1
 90
       50
176
     1
 90
        3
176
     1
 62
     5
420
      255
176
     1
290
     0
176
     1
 90
       50
176
     1
 90
       50
176
     1
 90
       50
176
     1
290
     0
176
     1
 90
       50
176
     1
 62
   256
176
     0
 40
1.0
176
     0
 90
        2
176
     1
  1
strokes_ogs.tif
176
     1
290
     0
176
     1
 40
1.0
176
     1
 40
1.0
176
     1
  0
VISUALSTYLE
  5
9D
102
{ACAD_REACTORS
330
99
102
}
330
99
100
AcDbVisualStyle
  2
GouraudWithEdges
 70
     3
177
     3
291
     1
 70
    58
 90
        2
176
     1
 90
        2
176
     1
 90
        1
176
     1
 90
        2
176
     1
 40
0.6
176
     1
 40
30.0
176
     1
 62
     7
420
 16777215
176
     1
 90
        1
176
     1
 90
        0
176
     1
 62
     7
176
     1
 62
   257
176
     1
 90
        1
176
     1
 90
        1
176
     1
 40
1.0
176
     1
 90
        0
176
     1
 62
   257
176
     1
 40
1.0
176
     1
 90
        1
176
     1
 90
        6
176
     1
 90
        2
176
     1
 62
     7
176
     1
 90
        5
176
     1
 90
        0
176
     1
 90
        0
176
     1
290
     0
176
     1
 90
       13
176
     1
 40
0.0
176
     1
 90
        0
176
     1
290
     0
176
     1
290
     1
176
     1
290
     1
176
     1
290
     0
176
     1
290
     0
176
     1
290
     0
176
     1
290
     0
176
     1
290
     0
176
     1
290
     0
176
     1
 90
       50
176
     1
 40
0.0
176
     1
 40
1.0
176
     1
 90
        0
176
     1
 62
    18
420
        0
176
     1
 90
       50
176
     1
 90
        3
176
     1
 62
     5
420
      255
176
     1
290
     0
176
     1
 90
       50
176
     1
 90
       50
176
     1
 90
       50
176
     1
290
     0
176
     1
 90
       50
176
     1
 62
   256
176
     0
 40
1.0
176
     0
 90
        2
176
     1
  1
strokes_ogs.tif
176
     1
290
     0
176
     1
 40
1.0
176
     1
 40
1.0
176
     1
  0
VISUALSTYLE
  5
A1
102
{ACAD_REACTORS
330
99
102
}
330
99
100
AcDbVisualStyle
  2
Hidden
 70
     6
177
     3
291
     0
 70
    58
 90
        1
176
     1
 90
        2
176
     1
 90
        2
176
     1
 90
        0
176
     1
 40
0.6
176
     1
 40
30.0
176
     1
 62
     7
420
 16777215
176
     1
 90
        2
176
     1
 90
        2
176
     1
 62
     7
176
     1
 62
   257
176
     1
 90
        2
176
     1
 90
        1
176
     1
 40
40.0
176
     1
 90
        0
176
     1
 62
   257
176
     1
 40
1.0
176
     1
 90
        1
176
     1
 90
        6
176
     1
 90
        2
176
     1
 62
     7
176
     1
 90
        3
176
     1
 90
        0
176
     1
 90
        0
176
     1
290
     0
176
     1
 90
        1
176
     1
 40
0.0
176
     1
 90
        0
176
     1
290
     0
176
     1
290
     1
176
     1
290
     1
176
     1
290
     0
176
     1
290
     0
176
     1
290
     0
176
     1
290
     0
176
     1
290
     0
176
     1
290
     0
176
     1
 90
       50
176
     1
 40
0.0
176
     1
 40
1.0
176
     1
 90
        0
176
     1
 62
    18
420
        0
176
     1
 90
       50
176
     1
 90
        3
176
     1
 62
     5
420
      255
176
     1
290
     0
176
     1
 90
       50
176
     1
 90
       50
176
     1
 90
       50
176
     1
290
     0
176
     1
 90
       50
176
     1
 62
   256
176
     0
 40
1.0
176
     0
 90
        2
176
     1
  1
strokes_ogs.tif
176
     1
290
     0
176
     1
 40
1.0
176
     1
 40
1.0
176
     1
  0
VISUALSTYLE
  5
173
102
{ACAD_REACTORS
330
99
102
}
330
99
100
AcDbVisualStyle
  2
JitterOff
 70
    20
177
     3
291
     1
 70
    58
 90
        2
176
     0
 90
        2
176
     0
 90
        0
176
     0
 90
        0
176
     0
 40
0.6
176
     0
 40
30.0
176
     0
 62
     7
420
 16777215
176
     0
 90
        1
176
     0
 90
        4
176
     0
 62
     7
176
     0
 62
   257
176
     0
 90
        1
176
     0
 90
        1
176
     0
 40
1.0
176
     0
 90
       10
176
     2
 62
     7
176
     0
 40
1.0
176
     0
 90
        1
176
     0
 90
        6
176
     0
 90
        2
176
     0
 62
     7
176
     0
 90
        5
176
     0
 90
        0
176
     0
 90
        0
176
     0
290
     0
176
     0
 90
        1
176
     0
 40
0.0
176
     0
 90
        0
176
     0
290
     0
176
     1
290
     1
176
     1
290
     1
176
     1
290
     0
176
     1
290
     0
176
     1
290
     0
176
     1
290
     0
176
     1
290
     0
176
     1
290
     0
176
     1
 90
       50
176
     1
 40
0.0
176
     1
 40
1.0
176
     1
 90
        0
176
     1
 62
    18
420
        0
176
     1
 90
       50
176
     1
 90
        3
176
     1
 62
     5
420
      255
176
     1
290
     0
176
     1
 90
       50
176
     1
 90
       50
176
     1
 90
       50
176
     1
290
     0
176
     1
 90
       50
176
     1
 62
   256
176
     0
 40
1.0
176
     0
 90
        2
176
     1
  1
strokes_ogs.tif
176
     1
290
     0
176
     1
 40
1.0
176
     1
 40
1.0
176
     1
  0
VISUALSTYLE
  5
A7
102
{ACAD_REACTORS
330
99
102
}
330
99
100
AcDbVisualStyle
  2
Linepattern
 70
    14
177
     3
291
     1
 70
    58
 90
        2
176
     1
 90
        2
176
     1
 90
        1
176
     1
 90
        0
176
     1
 40
0.6
176
     1
 40
30.0
176
     1
 62
     7
420
 16777215
176
     1
 90
        1
176
     1
 90
        4
176
     1
 62
     7
176
     1
 62
   257
176
     1
 90
        7
176
     1
 90
        7
176
     1
 40
1.0
176
     1
 90
        8
176
     1
 62
     7
176
     1
 40
1.0
176
     1
 90
        1
176
     1
 90
        6
176
     1
 90
        2
176
     1
 62
     7
176
     1
 90
        5
176
     1
 90
        0
176
     1
 90
        0
176
     1
290
     0
176
     1
 90
        1
176
     1
 40
0.0
176
     1
 90
        0
176
     1
290
     0
176
     1
290
     1
176
     1
290
     1
176
     1
290
     0
176
     1
290
     0
176
     1
290
     0
176
     1
290
     0
176
     1
290
     0
176
     1
290
     0
176
     1
 90
       50
176
     1
 40
0.0
176
     1
 40
1.0
176
     1
 90
        0
176
     1
 62
    18
420
        0
176
     1
 90
       50
176
     1
 90
        3
176
     1
 62
     5
420
      255
176
     1
290
     0
176
     1
 90
       50
176
     1
 90
       50
176
     1
 90
       50
176
     1
290
     0
176
     1
 90
       50
176
     1
 62
   256
176
     0
 40
1.0
176
     0
 90
        2
176
     1
  1
strokes_ogs.tif
176
     1
290
     0
176
     1
 40
1.0
176
     1
 40
1.0
176
     1
  0
VISUALSTYLE
  5
174
102
{ACAD_REACTORS
330
99
102
}
330
99
100
AcDbVisualStyle
  2
OverhangOff
 70
    21
177
     3
291
     1
 70
    58
 90
        2
176
     0
 90
        2
176
     0
 90
        0
176
     0
 90
        0
176
     0
 40
0.6
176
     0
 40
30.0
176
     0
 62
     7
420
 16777215
176
     0
 90
        1
176
     0
 90
        4
176
     0
 62
     7
176
     0
 62
   257
176
     0
 90
        1
176
     0
 90
        1
176
     0
 40
1.0
176
     0
 90
        9
176
     2
 62
     7
176
     0
 40
1.0
176
     0
 90
        1
176
     0
 90
        6
176
     0
 90
        2
176
     0
 62
     7
176
     0
 90
        5
176
     0
 90
        0
176
     0
 90
        0
176
     0
290
     0
176
     0
 90
        1
176
     0
 40
0.0
176
     0
 90
        0
176
     0
290
     0
176
     1
290
     1
176
     1
290
     1
176
     1
290
     0
176
     1
290
     0
176
     1
290
     0
176
     1
290
     0
176
     1
290
     0
176
     1
290
     0
176
     1
 90
       50
176
     1
 40
0.0
176
     1
 40
1.0
176
     1
 90
        0
176
     1
 62
    18
420
        0
176
     1
 90
       50
176
     1
 90
        3
176
     1
 62
     5
420
      255
176
     1
290
     0
176
     1
 90
       50
176
     1
 90
       50
176
     1
 90
       50
176
     1
290
     0
176
     1
 90
       50
176
     1
 62
   256
176
     0
 40
1.0
176
     0
 90
        2
176
     1
  1
strokes_ogs.tif
176
     1
290
     0
176
     1
 40
1.0
176
     1
 40
1.0
176
     1
  0
VISUALSTYLE
  5
A3
102
{ACAD_REACTORS
330
99
102
}
330
99
100
AcDbVisualStyle
  2
Realistic
 70
     8
177
     3
291
     0
 70
    58
 90
        2
176
     1
 90
        2
176
     1
 90
        0
176
     1
 90
        2
176
     1
 40
0.6
176
     1
 40
30.0
176
     1
 62
     7
420
 16777215
176
     1
 90
        0
176
     1
 90
        0
176
     1
 62
     7
176
     1
 62
   257
176
     1
 90
        1
176
     1
 90
        1
176
     1
 40
1.0
176
     1
 90
        8
176
     1
 62
   257
176
     1
 40
1.0
176
     1
 90
        1
176
     1
 90
        6
176
     1
 90
        2
176
     1
 62
     7
176
     1
 90
        3
176
     1
 90
        0
176
     1
 90
        0
176
     1
290
     0
176
     1
 90
       13
176
     1
 40
0.0
176
     1
 90
        0
176
     1
290
     0
176
     1
290
     1
176
     1
290
     1
176
     1
290
     0
176
     1
290
     0
176
     1
290
     0
176
     1
290
     0
176
     1
290
     0
176
     1
290
     0
176
     1
 90
       50
176
     1
 40
0.0
176
     1
 40
1.0
176
     1
 90
        0
176
     1
 62
    18
420
        0
176
     1
 90
       50
176
     1
 90
        3
176
     1
 62
     5
420
      255
176
     1
290
     0
176
     1
 90
       50
176
     1
 90
       50
176
     1
 90
       50
176
     1
290
     0
176
     1
 90
       50
176
     1
 62
   256
176
     0
 40
1.0
176
     0
 90
        2
176
     1
  1
strokes_ogs.tif
176
     1
290
     0
176
     1
 40
1.0
176
     1
 40
1.0
176
     1
  0
VISUALSTYLE
  5
182
102
{ACAD_REACTORS
330
99
102
}
330
99
100
AcDbVisualStyle
  2
Shaded
 70
    27
177
     3
291
     0
 70
    58
 90
        2
176
     1
 90
        2
176
     1
 90
        1
176
     1
 90
        2
176
     1
 40
0.6
176
     1
 40
30.0
176
     1
 62
     7
420
 16777215
176
     1
 90
        0
176
     1
 90
        4
176
     1
 62
     7
176
     1
 62
   257
176
     1
 90
        1
176
     1
 90
        1
176
     1
 40
1.0
176
     1
 90
        8
176
     1
 62
   257
176
     1
 40
1.0
176
     1
 90
        1
176
     1
 90
        6
176
     1
 90
        2
176
     1
 62
     8
420
  7895160
176
     1
 90
        3
176
     1
 90
        0
176
     1
 90
        0
176
     1
290
     0
176
     1
 90
        5
176
     1
 40
0.0
176
     1
 90
        0
176
     1
290
     0
176
     1
290
     1
176
     1
290
     1
176
     1
290
     0
176
     1
290
     0
176
     1
290
     0
176
     1
290
     0
176
     1
290
     0
176
     1
290
     0
176
     1
 90
       50
176
     1
 40
0.0
176
     1
 40
1.0
176
     1
 90
        0
176
     1
 62
    18
420
        0
176
     1
 90
       50
176
     1
 90
        3
176
     1
 62
     5
420
      255
176
     1
290
     0
176
     1
 90
       50
176
     1
 90
       50
176
     1
 90
       50
176
     1
290
     0
176
     1
 90
       50
176
     1
 62
   256
176
     0
 40
1.0
176
     0
 90
        2
176
     1
  1
strokes_ogs.tif
176
     1
290
     0
176
     1
 40
1.0
176
     1
 40
1.0
176
     1
  0
VISUALSTYLE
  5
181
102
{ACAD_REACTORS
330
99
102
}
330
99
100
AcDbVisualStyle
  2
Shaded with edges
 70
    26
177
     3
291
     0
 70
    58
 90
        2
176
     1
 90
        2
176
     1
 90
        1
176
     1
 90
        2
176
     1
 40
0.6
176
     1
 40
30.0
176
     1
 62
     7
420
 16777215
176
     1
 90
        1
176
     1
 90
        2
176
     1
 62
     7
176
     1
 62
   257
176
     1
 90
        2
176
     1
 90
        1
176
     1
 40
1.0
176
     1
 90
        8
176
     1
 62
   257
176
     1
 40
1.0
176
     1
 90
        1
176
     1
 90
        6
176
     1
 90
        2
176
     1
 62
     7
176
     1
 90
        3
176
     1
 90
        0
176
     1
 90
        0
176
     1
290
     0
176
     1
 90
        5
176
     1
 40
0.0
176
     1
 90
        0
176
     1
290
     0
176
     1
290
     1
176
     1
290
     1
176
     1
290
     0
176
     1
290
     0
176
     1
290
     0
176
     1
290
     0
176
     1
290
     0
176
     1
290
     0
176
     1
 90
       50
176
     1
 40
0.0
176
     1
 40
1.0
176
     1
 90
        0
176
     1
 62
    18
420
        0
176
     1
 90
       50
176
     1
 90
        3
176
     1
 62
     5
420
      255
176
     1
290
     0
176
     1
 90
       50
176
     1
 90
       50
176
     1
 90
       50
176
     1
290
     0
176
     1
 90
       50
176
     1
 62
   256
176
     0
 40
1.0
176
     0
 90
        2
176
     1
  1
strokes_ogs.tif
176
     1
290
     0
176
     1
 40
1.0
176
     1
 40
1.0
176
     1
  0
VISUALSTYLE
  5
17E
102
{ACAD_REACTORS
330
99
102
}
330
99
100
AcDbVisualStyle
  2
Shades of Gray
 70
    23
177
     3
291
     0
 70
    58
 90
        2
176
     1
 90
        2
176
     1
 90
        3
176
     1
 90
        0
176
     1
 40
0.6
176
     1
 40
30.0
176
     1
 62
     7
420
 16777215
176
     1
 90
        2
176
     1
 90
        2
176
     1
 62
     7
176
     1
 62
     7
176
     1
 90
        1
176
     1
 90
        1
176
     1
 40
40.0
176
     1
 90
        8
176
     1
 62
     7
176
     1
 40
1.0
176
     1
 90
        1
176
     1
 90
        6
176
     1
 90
        2
176
     1
 62
     7
176
     1
 90
        3
176
     1
 90
        0
176
     1
 90
        0
176
     1
290
     0
176
     1
 90
        1
176
     1
 40
0.0
176
     1
 90
        0
176
     1
290
     0
176
     1
290
     1
176
     1
290
     1
176
     1
290
     0
176
     1
290
     0
176
     1
290
     0
176
     1
290
     0
176
     1
290
     0
176
     1
290
     0
176
     1
 90
       50
176
     1
 40
0.0
176
     1
 40
1.0
176
     1
 90
        0
176
     1
 62
    18
420
        0
176
     1
 90
       50
176
     1
 90
        3
176
     1
 62
     5
420
      255
176
     1
290
     0
176
     1
 90
       50
176
     1
 90
       50
176
     1
 90
       50
176
     1
290
     0
176
     1
 90
       50
176
     1
 62
   256
176
     0
 40
1.0
176
     0
 90
        2
176
     1
  1
strokes_ogs.tif
176
     1
290
     0
176
     1
 40
1.0
176
     1
 40
1.0
176
     1
  0
VISUALSTYLE
  5
17F
102
{ACAD_REACTORS
330
99
102
}
330
99
100
AcDbVisualStyle
  2
Sketchy
 70
    24
177
     3
291
     0
 70
    58
 90
        1
176
     1
 90
        2
176
     1
 90
        2
176
     1
 90
        0
176
     1
 40
0.6
176
     1
 40
30.0
176
     1
 62
     7
420
 16777215
176
     1
 90
        2
176
     1
 90
        2
176
     1
 62
     7
176
     1
 62
     7
176
     1
 90
        1
176
     1
 90
        1
176
     1
 40
40.0
176
     1
 90
       11
176
     1
 62
     7
176
     1
 40
1.0
176
     1
 90
        1
176
     1
 90
        6
176
     1
 90
        2
176
     1
 62
     7
176
     1
 90
        6
176
     1
 90
        0
176
     1
 90
        0
176
     1
290
     0
176
     1
 90
        1
176
     1
 40
0.0
176
     1
 90
        0
176
     1
290
     0
176
     1
290
     1
176
     1
290
     1
176
     1
290
     0
176
     1
290
     0
176
     1
290
     0
176
     1
290
     0
176
     1
290
     0
176
     1
290
     0
176
     1
 90
       50
176
     1
 40
0.0
176
     1
 40
1.0
176
     1
 90
        0
176
     1
 62
    18
420
        0
176
     1
 90
       50
176
     1
 90
        3
176
     1
 62
     5
420
      255
176
     1
290
     0
176
     1
 90
       50
176
     1
 90
       50
176
     1
 90
       50
176
     1
290
     0
176
     1
 90
       50
176
     1
 62
   256
176
     0
 40
1.0
176
     0
 90
        2
176
     1
  1
strokes_ogs.tif
176
     1
290
     0
176
     1
 40
1.0
176
     1
 40
1.0
176
     1
  0
VISUALSTYLE
  5
A6
102
{ACAD_REACTORS
330
99
102
}
330
99
100
AcDbVisualStyle
  2
Thicken
 70
    13
177
     3
291
     1
 70
    58
 90
        2
176
     1
 90
        2
176
     1
 90
        1
176
     1
 90
        0
176
     1
 40
0.6
176
     1
 40
30.0
176
     1
 62
     7
420
 16777215
176
     1
 90
        1
176
     1
 90
        4
176
     1
 62
     7
176
     1
 62
   257
176
     1
 90
        1
176
     1
 90
        1
176
     1
 40
1.0
176
     1
 90
       12
176
     1
 62
     7
176
     1
 40
1.0
176
     1
 90
        1
176
     1
 90
        6
176
     1
 90
        2
176
     1
 62
     7
176
     1
 90
        5
176
     1
 90
        0
176
     1
 90
        0
176
     1
290
     0
176
     1
 90
        1
176
     1
 40
0.0
176
     1
 90
        0
176
     1
290
     0
176
     1
290
     1
176
     1
290
     1
176
     1
290
     0
176
     1
290
     0
176
     1
290
     0
176
     1
290
     0
176
     1
290
     0
176
     1
290
     0
176
     1
 90
       50
176
     1
 40
0.0
176
     1
 40
1.0
176
     1
 90
        0
176
     1
 62
    18
420
        0
176
     1
 90
       50
176
     1
 90
        3
176
     1
 62
     5
420
      255
176
     1
290
     0
176
     1
 90
       50
176
     1
 90
       50
176
     1
 90
       50
176
     1
290
     0
176
     1
 90
       50
176
     1
 62
   256
176
     0
 40
1.0
176
     0
 90
        2
176
     1
  1
strokes_ogs.tif
176
     1
290
     0
176
     1
 40
1.0
176
     1
 40
1.0
176
     1
  0
VISUALSTYLE
  5
A0
102
{ACAD_REACTORS
330
99
102
}
330
99
100
AcDbVisualStyle
  2
Wireframe
 70
     5
177
     3
291
     0
 70
    58
 90
        0
176
     1
 90
        2
176
     1
 90
        0
176
     1
 90
        0
176
     1
 40
0.6
176
     1
 40
30.0
176
     1
 62
     7
420
 16777215
176
     1
 90
        1
176
     1
 90
        4
176
     1
 62
     7
176
     1
 62
   257
176
     1
 90
        1
176
     1
 90
        1
176
     1
 40
1.0
176
     1
 90
        0
176
     1
 62
   257
176
     1
 40
1.0
176
     1
 90
        1
176
     1
 90
        6
176
     1
 90
        2
176
     1
 62
     7
176
     1
 90
        3
176
     1
 90
        0
176
     1
 90
        0
176
     1
290
     0
176
     1
 90
        1
176
     1
 40
0.0
176
     1
 90
        0
176
     1
290
     0
176
     1
290
     1
176
     1
290
     1
176
     1
290
     0
176
     1
290
     0
176
     1
290
     0
176
     1
290
     0
176
     1
290
     0
176
     1
290
     0
176
     1
 90
       50
176
     1
 40
0.0
176
     1
 40
1.0
176
     1
 90
        0
176
     1
 62
    18
420
        0
176
     1
 90
       50
176
     1
 90
        3
176
     1
 62
     5
420
      255
176
     1
290
     0
176
     1
 90
       50
176
     1
 90
       50
176
     1
 90
       50
176
     1
290
     0
176
     1
 90
       50
176
     1
 62
   256
176
     0
 40
1.0
176
     0
 90
        2
176
     1
  1
strokes_ogs.tif
176
     1
290
     0
176
     1
 40
1.0
176
     1
 40
1.0
176
     1
  0
VISUALSTYLE
  5
180
102
{ACAD_REACTORS
330
99
102
}
330
99
100
AcDbVisualStyle
  2
X-Ray
 70
    25
177
     3
291
     0
 70
    58
 90
        2
176
     1
 90
        2
176
     1
 90
        1
176
     1
 90
        1
176
     1
 40
0.5
176
     1
 40
30.0
176
     1
 62
     7
420
 16777215
176
     1
 90
        1
176
     1
 90
        0
176
     1
 62
     7
176
     1
 62
   257
176
     1
 90
        1
176
     1
 90
        1
176
     1
 40
1.0
176
     1
 90
        8
176
     1
 62
     7
176
     1
 40
1.0
176
     1
 90
        1
176
     1
 90
        6
176
     1
 90
        2
176
     1
 62
     7
176
     1
 90
        3
176
     1
 90
        0
176
     1
 90
        0
176
     1
290
     0
176
     1
 90
       13
176
     1
 40
0.0
176
     1
 90
        0
176
     1
290
     0
176
     1
290
     1
176
     1
290
     1
176
     1
290
     0
176
     1
290
     0
176
     1
290
     0
176
     1
290
     0
176
     1
290
     0
176
     1
290
     0
176
     1
 90
       50
176
     1
 40
0.0
176
     1
 40
1.0
176
     1
 90
        0
176
     1
 62
    18
420
        0
176
     1
 90
       50
176
     1
 90
        3
176
     1
 62
     5
420
      255
176
     1
290
     0
176
     1
 90
       50
176
     1
 90
       50
176
     1
 90
       50
176
     1
290
     0
176
     1
 90
       50
176
     1
 62
   256
176
     0
 40
1.0
176
     0
 90
        2
176
     1
  1
strokes_ogs.tif
176
     1
290
     0
176
     1
 40
1.0
176
     1
 40
1.0
176
     1
  0
DICTIONARYVAR
  5
4A0D6
102
{ACAD_REACTORS
330
4A0D5
102
}
330
4A0D5
100
DictionaryVariables
280
     0
  1
2
  0
DICTIONARYVAR
  5
4A0D7
102
{ACAD_REACTORS
330
4A0D5
102
}
330
4A0D5
100
DictionaryVariables
280
     0
  1
400.000000
  0
DICTIONARYVAR
  5
4A0D8
102
{ACAD_REACTORS
330
4A0D5
102
}
330
4A0D5
100
DictionaryVariables
280
     0
  1
1
  0
DICTIONARYVAR
  5
4A0D9
102
{ACAD_REACTORS
330
4A0D5
102
}
330
4A0D5
100
DictionaryVariables
280
     0
  1
1:1
  0
DICTIONARYVAR
  5
4A0DA
102
{ACAD_REACTORS
330
4A0D5
102
}
330
4A0D5
100
DictionaryVariables
280
     0
  1
STANDARD
  0
DICTIONARYVAR
  5
4A0DB
102
{ACAD_REACTORS
330
4A0D5
102
}
330
4A0D5
100
DictionaryVariables
280
     0
  1
STANDARD
  0
DICTIONARYVAR
  5
4A0DC
102
{ACAD_REACTORS
330
4A0D5
102
}
330
4A0D5
100
DictionaryVariables
280
     0
  1
Imperial24
  0
DICTIONARYVAR
  5
4A0DD
102
{ACAD_REACTORS
330
4A0D5
102
}
330
4A0D5
100
DictionaryVariables
280
     0
  1
Imperial24
  0
DICTIONARYVAR
  5
4A0DE
102
{ACAD_REACTORS
330
4A0D5
102
}
330
4A0D5
100
DictionaryVariables
280
     0
  1
-1
  0
DICTIONARYVAR
  5
4A0DF
102
{ACAD_REACTORS
330
4A0D5
102
}
330
4A0D5
100
DictionaryVariables
280
     0
  1
1
  0
DICTIONARYVAR
  5
4A0E0
102
{ACAD_REACTORS
330
4A0D5
102
}
330
4A0D5
100
DictionaryVariables
280
     0
  1
2
  0
DICTIONARYVAR
  5
4A0E1
102
{ACAD_REACTORS
330
4A0D5
102
}
330
4A0D5
100
DictionaryVariables
280
     0
  1
0
  0
DICTIONARYVAR
  5
4A0E2
102
{ACAD_REACTORS
330
4A0D5
102
}
330
4A0D5
100
DictionaryVariables
280
     0
  1
4
  0
DICTIONARYVAR
  5
4A0E3
102
{ACAD_REACTORS
330
4A0D5
102
}
330
4A0D5
100
DictionaryVariables
280
     0
  1
V-Construction
  0
DICTIONARYVAR
  5
4A0E4
102
{ACAD_REACTORS
330
4A0D5
102
}
330
4A0D5
100
DictionaryVariables
280
     0
  1
ByLayer
  0
DICTIONARYVAR
  5
4A0E5
102
{ACAD_REACTORS
330
4A0D5
102
}
330
4A0D5
100
DictionaryVariables
280
     0
  1
0
  0
DICTIONARYVAR
  5
4A0E6
102
{ACAD_REACTORS
330
4A0D5
102
}
330
4A0D5
100
DictionaryVariables
280
     0
  1
0
  0
DICTIONARYVAR
  5
4A0E7
102
{ACAD_REACTORS
330
4A0D5
102
}
330
4A0D5
100
DictionaryVariables
280
     0
  1
0
  0
DICTIONARYVAR
  5
4A0E8
102
{ACAD_REACTORS
330
4A0D5
102
}
330
4A0D5
100
DictionaryVariables
280
     0
  1
2
  0
DICTIONARYVAR
  5
4A0E9
102
{ACAD_REACTORS
330
4A0D5
102
}
330
4A0D5
100
DictionaryVariables
280
     0
  1
1.000000
  0
DICTIONARYVAR
  5
4A0EA
102
{ACAD_REACTORS
330
4A0D5
102
}
330
4A0D5
100
DictionaryVariables
280
     0
  1
1
  0
DICTIONARYVAR
  5
4A0EB
102
{ACAD_REACTORS
330
4A0D5
102
}
330
4A0D5
100
DictionaryVariables
280
     0
  1
1.000000
  0
DICTIONARYVAR
  5
4A0EC
102
{ACAD_REACTORS
330
4A0D5
102
}
330
4A0D5
100
DictionaryVariables
280
     0
  1
1
  0
DICTIONARYVAR
  5
4A0ED
102
{ACAD_REACTORS
330
4A0D5
102
}
330
4A0D5
100
DictionaryVariables
280
     0
  1
0
  0
DICTIONARYVAR
  5
4A0EE
102
{ACAD_REACTORS
330
4A0D5
102
}
330
4A0D5
100
DictionaryVariables
280
     0
  1

  0
DICTIONARYVAR
  5
4A0EF
102
{ACAD_REACTORS
330
4A0D5
102
}
330
4A0D5
100
DictionaryVariables
280
     0
  1
0
  0
DICTIONARYVAR
  5
4A0F0
102
{ACAD_REACTORS
330
4A0D5
102
}
330
4A0D5
100
DictionaryVariables
280
     0
  1
127
  0
XRECORD
  5
81FD1
102
{ACAD_REACTORS
330
81FD0
102
}
330
81FD0
100
AcDbXrecord
280
     1
  0
DICTIONARY
  5
194
330
22
100
AcDbDictionary
280
     1
281
     1
  0
DICTIONARY
  5
188
330
97
100
AcDbDictionary
280
     1
281
     1
  3
FBXASSET
360
189
  0
DICTIONARY
  5
186
330
96
100
AcDbDictionary
280
     1
281
     1
  3
FBXASSET
360
187
  0
DICTIONARY
  5
110
330
98
100
AcDbDictionary
280
     1
281
     1
  3
BUMPTILE
360
112
  3
DIFFUSETILE
360
111
  3
FBXASSET
360
18A
  3
OPACITYTILE
360
113
  3
REFLECTIONTILE
360
114
  0
DICTIONARY
  5
104
330
87
100
AcDbDictionary
280
     1
281
     1
  3
ACAD_ROUNDTRIP_2008_TABLESTYLE_CELLSTYLEMAP
360
82515
  0
XRECORD
  5
189
102
{ACAD_REACTORS
330
188
102
}
330
188
100
AcDbXrecord
280
     1
 70
     1
 90
429727718
  1
508B35C9-AEE7-456F-BE74-D52651303AC6
310
504B03040A0000080000B670623B3DEE336E79000000790000001B0000006175746F6465736B2D64657369676E2D7061636B6167652E786D6C3C3F786D6C2076657273696F6E3D22312E302220656E636F64696E673D227574662D3822203F3E3C666F726D6174733E3C666F726D61743E687474703A2F2F736368656D612E
310
6175746F6465736B2E636F6D2F64657369676E2D7061636B6167652F323030393C2F666F726D61743E3C2F666F726D6174733E504B0304140006080800B670623BD486FD9CA0000000F4000000130000005B436F6E74656E745F54797065735D2E786D6C7D8EC10E82300C865F65E91D8A1E8C310C0EEA1BF002731658846E
310
D98AC1B77784ABF1D8FE5FBFBF75BBCE937A534CCEB38643598122B6FEE978D0B0485F9C41B54DDD7D022595594E1A469170414C76A4D9A4D207E29CF43ECE46F218070CC6BECC4078ACAA135ACF422C856C0E68EA1BF5669944DDD7BCDE7B1F8E415D77AECB980613C2E4AC91FC167A2B244592486606FC29C8FD7F045B9A
310
EF7053A7E60B504B0304140006080800B670623B28ED286BEB0000007C01000008000000636F72652E786D6C8D90416EC3201045AF82665B6183218D6D61A254764FD00B204C5C94182C03558F5F9C3852BBEB6A467FFE9B197D71FA9E6FE8CBACC17AD7012D0820E3B41FAD9B3A48F1826B40272956EFE32F1B20A766D3C1
310
268314D3EAD3B24BDABB685CCCAAF3A3D94515828980F42D371D04FD696655A814B3235C8B45E9AB9A4C419F5D8653B2237A1CB163DE672FD6AC209BF3C08E0D1B30EB19C3FC9D72FCC6EB231EFA33EDE96BDD341517E5064B11EDFCBCAF57A3A2194156843498524CAA0FCA5B7268F9E185D42D21A2DCEC7FA0B48CFF8492
310
759155FBBB0F2C80A4F991FB408A72CB22977B50B96EB9C91F504B0304140006080800B670623B55019EA25F0000007C00000007000000636E782E786D6C4DCB3B0E80201045D1AD90E915ED2CF8AC45050C11660C8261F98AB1B07AC9C97D42D718D865D3E909258CFD00CCE24AC6E326A164D74DC0B4128928FF32603847
310
2BA13128B1252AC747C6BAB984FC68F0B87FE8960A5C09FE86CFB69FBA01504B0304140006080800B670623B7BC41AC871010000D40300000C0000006662782F636F72652E786D6CC553ED6E8320147D15C2DF4501B56B6D90A64BBB27D80B50A5CE54C120983EFEAE1F4DD7A56BBA5FF3879273EEE59E7310BE393735EA95
310
ED2AA333CC428A91D2B9292A5D66D8BB63B0C26823B835C67D2BC348CB46657880B1E0A535BE9DA1DC68A7B403549B42CDA0EC3AE530CA6B5864B8CB3F552343E91D5474A7B095F949962A6421D0502778E72C0840D390E18DC5F170E664C205F7BE2A66B62A605A75AC94C522DDEEE3651AEF837817C741F2CE92E02D592D
310
83FD6ECB76EC7595A651C2C9D02CB8AB9A8BBADC2AE954814544691A3016D0E883256BBA58278B17BA5A53CAC9507ED3E4DBE2C9265F691747B3DCA9ADC382819091F8E1162272A8933DE82182932144F88C09DF060D8140C84E1EEA8B8F1340BDCA9DB1093085F157AA97B557309586747CD0EF0B4EA64E983A6E0EAEEFCE
310
889E9EF17847386AA94B30211D2C0FDE0D3AF9A4610EAD5536E8DD1969631B593F67E381C33F5157F17725E5A636F6BF1491F980C8FC7B90E13E8A2F504B0304140006080800B670623B70102A487D0000009D0000000B0000006662782F636E782E786D6C4DCCD10A83201886E15B91FFDC95A5C30335ACCDFB886521330D
310
A76397BF1A1DECE883878F57749FD5A3B74D2F17830472A901D9F088930B8B849267CC01754AA418F3DF0D5018572BE160506249B16C274D761E8BCFBB7A179E27F65CB39A0F14D396184C9921B81F34C3ACA1B4B99ABB6E6F062A25AA5F69DF23ACBE504B0304140006080800B670623B3610CA3329010000120200003100
310
00006662782F42384135303843342D343331462D343546312D424341352D3532343432364645413344462F636F72652E786D6C8D515B6EC32010BC0AE22B55850D0E446E848992B43E412FE000495162B07854397EA176A4F62F3F2C9A9D991D58BEBB8F37F0AD7D30CE76905418026DA553C65E3A98E219B510EC04F7CEC5
310
3F3408EC30EA0E16180A7EF12E4D0B249D8DDAC68C5AA7F4020E21E80881BCE54B0783FCD2E3500D296646B856D320AFC34557A4CAEDCC133C449F0380794839A138B47B86DB2345744D7A44594FD0E1B867883594369BFE63BF7EEF793D0B054FC9A8456E548E63CE46FB674D8A58F068C6477CE9F510B582A2C1F80D1182
310
70F349E816B32D65AFB8DD62CCEB42FF274A937A52948C8DEB66893BCB021484D7734370E5D2E9F608A3EF93F3119479ABA0E50B14B8C298119A43CCC4FCFCECB8A18B6388CEE7EF5D5D4F994BD86CBBA182D76543B9FCAE2FD7B24DF103504B0304140006080800B670623B1B8617914E0100003303000030000000666278
310
2F42384135303843342D343331462D343546312D424341352D3532343432364645413344462F636E782E786D6CD593C16EC32010447F0571AD6CE3D489D20813A9877E410FBD62D82434182CC055F3F75D1292E692438FBD206B7698593D61BEFD1E2DF982108D773D6D6B460938E5B571FB9ECE6957AD29D90A1EBC4F7736
310
4A9C1CA1A759A682EF839FA72269D8C9D92654AD71C72206887E0E0A22CAF926B15E498B01E0AA19451807D01A34B919F16B070157417138917400F2F6FA41FCF0092A45DEE414C19BDC21783E4BD39D891265658C3D8DEA00A3ACE59CBC8678ACB54CB26EEB6BD7839D7E9348BE70AD9C8321B9BCA7F9A4A26C542347DEE0
310
50F09802D22BA6749A800A394DD62899107273365E3C82CFC6A55557BC06C10774B7ABE7AEC3B0F34CF06446280E154026D0542C187BA9DAB6628BF7B6DBB0E5A65B3EB1F58631DE64BBE083F7B65CC218087E22CABB042E51D1F2268F1FE12B3EA24D40D63E9CFE00120194D60B9D5BC67FE6D39CDF37E20AF817881F504B
310
0304140006080800B670623BBFEF2E3B690500003C100000340000006662782F42384135303843342D343331462D343546312D424341352D3532343432364645413344462F6F626A656374732E786D6CAD575D739B3814FD2B0CFB0C98D84E931D4227B6938EA793B6534F3BFB90198F0099B001899144EAECAFDF231018B0
310
D37A3FFC609090EEE7B94757C1FB7D915B2F54C88CB31BDB7727B64559CC938CA53776A576CE956DBD0F03C1B9EA2DB32D460A7A63EB693B0C52C1ABD24C257447AA5C8D66EF177F5832A68CDA569C13296F6C193FD182B8A4523CA1F2D94D88226EBADBBBBEDB2C1C8A4D05299F46424B222853B014F30C52ACC6287F389C
310
D85E1878FA7B18E87FB36AFAF62AAFF667A83F635211161F291B8999FAB3D5DDC5FCDA99CF6653677679E13B8BFBC5CAF1DF4D27CBCBE5F2FAF6EE1A8AA51290642C117467871F101B91C581D77CEA2C36869F3229E68CD1B8F61F1ED6361B89092D294B90C78C4A68EB793D190E7D1D9BDEE7A91E1B95FDE9F3BCEAEFE809
310
6A6D6F9F7D4B79F4275C90E7A04248AA51D5C4C738DAE06F72885AC4796EBE65D22A88A22223B995679120E2D50EB1542F098381188D4EA111AE3DB043FF20AF6F2B4AE3D7D83D65E5AECA730D4D3BAC91BD05FEA992B565D95F549CD6069B90AB2A63EACA38A45E4B6A87D781574F86817E4C2FCCC72690D62E2729520E37
310
9BAF234797BAF6D62B3BFC781FED37BA1E4F2B2F052FA9501A3E80569BB8F6A9A364D4FA67654E6F803383981F82F21591FF84F23D9882BC896C3FDBCF8C162508933B2E0AE4C69DD43F6BD2BE38DDDBF10BF86CB4FA784D37F3AF16075E67EC9030DECA1FC0A55373F5DFF3378C591FA9BDF485C10B0A8C8BA909E5262639
310
A8E72163488806A595734C81CB77D1DE0ED7604A303B76913CEC0272F412782FF88EFF4636D8AA56DF7B322474C4B767303F625997056C7B032C473C592B36CEBD15F3F9FF5233B7ABCDC74D257624A60F8658567497B14CE1EC3C80B76FD02011038F9EE9EB0F2E12387A9C844D3F09855125116D1D731DF8B43D2CF4E0A0
310
79A020C6BE946BCE0B7EA1E1219331CD73C228AF5A2DDD31A4B1DA918CE91350854D40A71723140BFA92E94E62B0626016CEFA5864A50E5977E8753CEDBEE1CBB7F52780D20E17AF0BA0F5F9B02A3AD07DCC732EB6D1EBB661421BE0C39E21BABF0FE16D22EA6929407C8DE596724C88B749B6DB5512BC7B228ADFD7CB7EA6
310
3A22397E690BA8D5D8D4E40CEC8CDA23C2C0B7D5898640101CEC9C6D331CE328CB93CAFBBAC70A642DF70DF95155945B52F08AA973C23469FD69ADEF84F7BB18F983A8F8C90E37F5D35980B2139A1C523540813E824EF83448CF7C72B598CE97D7CEEDDDDD3B6736BFBC771677EF66CE6A7E7139F7A793E9EDF2B2B3A8B624
310
0CDA13AA5F8388264EC4A0129909F3B7F5A16CEDF08128E97D680ACA4B9BE7B7B58BB638F0B00700EF36AE8B32A705658A68F83EE897FC2B41573190D1CCAF0B92D233A47CFEB019D9809933F67DD1A5467F8CF69AD9A5AE859342D45355448C64F968A371DC2D596ADC6E43D93D1B466F877A64E2893E54F23C4B40388995
310
525E5005DA3983ED45412510D3EFCA13737B3863F74BD30F2A12E5B4B5E489A025CE25500DB855B11ACE5BBFA185D35DD48D8DC3CE7DC69F2944DB42AA6F6CF09BCA622ADD08C7A36E7C6AE18000BAB08E040135C2D21C9D75B3A91B77BB746C403F38018DFE6EC939DD92F16B40BC05294B9CDA035AAD6D330AE27FE4786B
310
8E45145EA34A75BE1C263A676A35A8ACC6297337400BF16C54EF515F3F77CB77EB3583889C754FFA29081AA98E2222ADEF05DA3E63D2EDEA8B8756C05A7FB6CABC4A91CBF325398202CC952E70A008A830324BA200D5E5EF8F5F04C75DB4B0EE3340E071C98B823333B83577596BF3849B69F2085AA0FAFA212F26BEFF5877
310
FDE622B28D88A42E49E43326DA82D31E8CB006401E1DA726059ECEC168F97A6599036306A135688F9AD2E61A6EA178F4CD51974A9F2CCB9F36FE5EBD14601068D9C3BF01504B0304140006080000B670623B000000000000000000000000350000006662782F42384135303843342D343331462D343546312D424341352D35
310
32343432364645413344462F76657274696365732E62696E504B0304140006080800B670623BF270F1330600000004000000360000006662782F42384135303843342D343331462D343546312D424341352D3532343432364645413344462F747269616E676C65732E62696E636660600000504B0304140006080000B67062
310
3B000000000000000000000000370000006662782F42384135303843342D343331462D343546312D424341352D3532343432364645413344462F617474726962757465732E62696E504B0304140006080800B670623B08DA0BD19000000041010000360000006662782F42384135303843342D343331462D343546312D4243
310
41352D3532343432364645413344462F6469726563746F72792E786D6C858F410AC3201045AF22B36F53E9A60B35CBEEBAE80D244E44489C6234F4F835464A48035D0DF398FF9F8AF63D0E6CC63039F212F8F9020C7D47C6792B21C5FE7403D62A1188E2E60C98D7234A5830286103A55745067B9D86B8A3CF9C7F90C11DE6
310
07FB144396D7B6A82D282E9A152AD114D5EF2CB866EEE831B8EEA07A7BB5A8D7D61A2BAAEB7FD5F70921FF497D00504B0304140006080800B670623B3B4606F3FE000000A00100003B0000006662782F42384135303843342D343331462D343546312D424341352D3532343432364645413344462F7265736F75726365732F
310
636F72652E786D6C8D504B6E833010BD0A9A6D65B08134808CA354A427E8052C332156828DFCA97AFC9A40A576D7CDCCE87D344F8F9FBEE647F689CE6B6B7A6039850C8DB2A336530F315C4903D94970676DF82583CCC8197B5861107C72362E3BA4AC096842428D1D7107A5F71820538F74F4E0D50D6799CB1892C2DFF345
310
AABB9C306779A2934E701F5C0A906D4FD609C2A1B7D129F4BCD858C163D4E3AED163FAA9AF1A1D88F67CA98E6D35906AA82A52BFB39ABCD5CD915C86331BD86BD3B665CD8BD52C78D0F34F46E550061C419494B6843142CB0F5677F4D0D58717DA7494F26295FF31C565FCA7296A13AA728FBBD93C0896823C09C18BB5AFB4
310
9E65A6BD762BBE01504B010214000A0000080000B670623B3DEE336E79000000790000001B00000000000000000000000000000000006175746F6465736B2D64657369676E2D7061636B6167652E786D6C504B01021400140006080800B670623BD486FD9CA0000000F40000001300000000000000000000000000B2000000
310
5B436F6E74656E745F54797065735D2E786D6C504B01021400140006080800B670623B28ED286BEB0000007C010000080000000000000000000000000083010000636F72652E786D6C504B01021400140006080800B670623B55019EA25F0000007C000000070000000000000000000000000094020000636E782E786D6C50
310
4B01021400140006080800B670623B7BC41AC871010000D40300000C00000000000000000000000000180300006662782F636F72652E786D6C504B01021400140006080800B670623B70102A487D0000009D0000000B00000000000000000000000000B30400006662782F636E782E786D6C504B01021400140006080800B6
310
70623B3610CA3329010000120200003100000000000000000000000000590500006662782F42384135303843342D343331462D343546312D424341352D3532343432364645413344462F636F72652E786D6C504B01021400140006080800B670623B1B8617914E010000330300003000000000000000000000000000D10600
310
006662782F42384135303843342D343331462D343546312D424341352D3532343432364645413344462F636E782E786D6C504B01021400140006080800B670623BBFEF2E3B690500003C10000034000000000000000000000000006D0800006662782F42384135303843342D343331462D343546312D424341352D35323434
310
32364645413344462F6F626A656374732E786D6C504B01021400140006080000B670623B0000000000000000000000003500000000000000000000000000280E00006662782F42384135303843342D343331462D343546312D424341352D3532343432364645413344462F76657274696365732E62696E504B010214001400
310
06080800B670623BF270F133060000000400000036000000000000000000000000007B0E00006662782F42384135303843342D343331462D343546312D424341352D3532343432364645413344462F747269616E676C65732E62696E504B01021400140006080000B670623B00000000000000000000000037000000000000
310
00000000000000D50E00006662782F42384135303843342D343331462D343546312D424341352D3532343432364645413344462F617474726962757465732E62696E504B01021400140006080800B670623B08DA0BD1900000004101000036000000000000000000000000002A0F00006662782F42384135303843342D3433
310
31462D343546312D424341352D3532343432364645413344462F6469726563746F72792E786D6C504B01021400140006080800B670623B3B4606F3FE000000A00100003B000000000000000000000000000E1000006662782F42384135303843342D343331462D343546312D424341352D3532343432364645413344462F72
310
65736F75726365732F636F72652E786D6C504B0506000000000E000E0080040000651100000000
  0
XRECORD
  5
187
102
{ACAD_REACTORS
330
186
102
}
330
186
100
AcDbXrecord
280
     1
 70
     1
 90
429727718
  1
887D55A9-D0DD-414E-B741-A7DCD4DA2B4C
310
504B03040A0000080000B670623B3DEE336E79000000790000001B0000006175746F6465736B2D64657369676E2D7061636B6167652E786D6C3C3F786D6C2076657273696F6E3D22312E302220656E636F64696E673D227574662D3822203F3E3C666F726D6174733E3C666F726D61743E687474703A2F2F736368656D612E
310
6175746F6465736B2E636F6D2F64657369676E2D7061636B6167652F323030393C2F666F726D61743E3C2F666F726D6174733E504B0304140006080800B670623BD486FD9CA0000000F4000000130000005B436F6E74656E745F54797065735D2E786D6C7D8EC10E82300C865F65E91D8A1E8C310C0EEA1BF002731658846E
310
D98AC1B77784ABF1D8FE5FBFBF75BBCE937A534CCEB38643598122B6FEE978D0B0485F9C41B54DDD7D022595594E1A469170414C76A4D9A4D207E29CF43ECE46F218070CC6BECC4078ACAA135ACF422C856C0E68EA1BF5669944DDD7BCDE7B1F8E415D77AECB980613C2E4AC91FC167A2B244592486606FC29C8FD7F045B9A
310
EF7053A7E60B504B0304140006080800B670623BBC1638F5EC0000007C01000008000000636F72652E786D6C8D90416EC3201045AF82665B61836BE2D8C24471DB9CA01740401C94182C03558F5F9C3852BBEB6A467FFE9B197D7EF89E6EE8CB2CC17AD7032D0820E394D7D68D3DA478C67B4007C117EFE32F1B202727D3C3
310
2A83E0E3E2D3BC49CABB685CCCAAF3DA6CA20CC14440EA969B1E82BA98491632C5EC08D76296EA2A4753D06797E194AC468F2356E77DF66CCD02825543D50CACC62D39ED70FDC68EB8FD68F6F8787A6784342D1DDA1D2F5758F068A7E77DB518198D065111D2624A31A93E69DD11D6D5EC85EC3B4278B9DAFF4069D6FF8492
310
75F1B5DADE7D600104CD8FDC0782976B16B9DC83CA75CD4DFC00504B0304140006080800B670623B55019EA25F0000007C00000007000000636E782E786D6C4DCB3B0E80201045D1AD90E915ED2CF8AC45050C11660C8261F98AB1B07AC9C97D42D718D865D3E909258CFD00CCE24AC6E326A164D74DC0B4128928FF326038
310
472BA13128B1252AC747C6BAB984FC68F0B87FE8960A5C09FE86CFB69FBA01504B0304140006080800B670623B3586FFB671010000D40300000C0000006662782F636F72652E786D6CC553ED6E8320147D15C2DF4541A76D6D90A6DDD627D80B50A4CE54C120983EFEAE1F4DD7A55BBA5FF3879273EEE59E7310B6393735EA
310
95ED2AA3731C851423A5A5292A5DE6D8BB63B0C268C39935C67D29C3488B46E578803167A535BE9D2169B453DA01AA4DA16650749D7218C91A1639EEE4876A4428BC838AEE14B6429E44A9C228041AEA38EB9C0501681A32BC313F1ECE8C4C3867DE57C5CC56054CAB8E95B298A7F12E5EEED224C8E87E11242FE936C8DE96
310
AB60BB7F4D295D66D12E5B30323473E6AAE6A24E5A259C2A308F29CD82280A68FC1E256B9AAE93F489AED694323294DF34F9B678B0C957DA3DC7B3DCA9ADC33C022123F1CD2D44E450277AD04338234388F01913BE0D1A0281909D38D4171F27807A259DB1093085F157AA17B557309586747CD0CF0B46A64E983A6E0EAEEF
310
CE881F9EF1FB8E70D44297604238581EBC1B74B249C31C5AAB6CD0BB33D2C636A27ECCC62F0EFF445DC5DF95244D6DEC7F2922F30191F9F720C37DE49F504B0304140006080800B670623B4220A0FF7D0000009D0000000B0000006662782F636E782E786D6C4DCCD10A83201886E15B91FFDCE542CB0335D0EC3E6259C84A
310
C3E9D8E5AF46073BFAE0E1E315DD675BD1DBA5978F41C2FD4600B9F088930F8B849267CC01754AA418F3DF0D50183727E164506249B1EC174D6E1ECB9A0F5D7D785E68DB8151CD286E5A5363CA6B8A39E90D36D40E96B086F55A43A544F52B1D7B86D517504B0304140006080800B670623B2FA3FEDE290100001202000031
310
0000006662782F45374635344235342D363743322D343832342D383044432D4334454645303536354442422F636F72652E786D6C8D515B6EC32010BC0AE22B55850D2E386E848994D7097A0117488A1283C5A3CAF10BB523B57FF961D1ECCCECC0F2ED7DBC816FED8371B687A4C210682B9D32F6D2C314CFA883602BB8772E
310
FEA141608751F7B0C050F08B77695A20E96CD43666D43AA5177008414708E42D5F7A18E4971E876A483133C2B59A06791D2EBA22556E679EE021FA1C00CC43CA09C5717D6274C7286AD7FB06D1AEA1A8C3873DDAD3E3E98859CB0EBB1DAF67A1E02919B5C88DCA71CCD968FFAC49110B1ECDF8882FBD1EA256503418BF2342
310
106E3E08DD60B6A1EC15771B8C795DE8FF4469524F8A92B1F1AD59E2CEB20005E1F5DC105CB9F4797B84D1F7C9F908CABC55D0F2050A5C61CC1AD2F27A26E6E767C7962E8E213A9FBF7775FDCC5CC266DB960A5E970DE5F2BBBE5CCB36C50F504B0304140006080800B670623B1B8617914E01000033030000300000006662
310
782F45374635344235342D363743322D343832342D383044432D4334454645303536354442422F636E782E786D6CD593C16EC32010447F0571AD6CE3D489D20813A9877E410FBD62D82434182CC055F3F75D1292E692438FBD206B7698593D61BEFD1E2DF982108D773D6D6B460938E5B571FB9ECE6957AD29D90A1EBC4F77
310
364A9C1CA1A759A682EF839FA72269D8C9D92654AD71C72206887E0E0A22CAF926B15E498B01E0AA19451807D01A34B919F16B070157417138917400F2F6FA41FCF0092A45DEE414C19BDC21783E4BD39D891265658C3D8DEA00A3ACE59CBC8678ACB54CB26EEB6BD7839D7E9348BE70AD9C8321B9BCA7F9A4A26C542347DE
310
E050F09802D22BA6749A800A394DD62899107273365E3C82CFC6A55557BC06C10774B7ABE7AEC3B0F34CF06446280E154026D0542C187BA9DAB6628BF7B6DBB0E5A65B3EB1F58631DE64BBE083F7B65CC218087E22CABB042E51D1F2268F1FE12B3EA24D40D63E9CFE00120194D60B9D5BC67FE6D39CDF37E20AF817881F50
310
4B0304140006080800B670623B29652116630500003C100000340000006662782F45374635344235342D363743322D343832342D383044432D4334454645303536354442422F6F626A656374732E786D6CAD575D739B3814FD2B0CFB0C989834C90EA1639B24E3E9A6EDD4D3CE3E64C623834CD8006224913AFDF57B040203
310
B65BEF871F0C12D2FD3CF7E8CA7FBFCB33E3957291B2E2D674ED8969D02262715A24B76625B7D6B569BC0F7CCE98EC2D338D82E4F4D654D366E0279C55A59E8AE99654991CCDDECFFF3444440B6A1A514684B83545F44C7362934AB2988A173B2692D8C97667BB76B3702836E1A47C1E092D09A78584A5982F20C5688C7287
310
C389E904BEA3BE07BEFAD7ABA6A75739B53F43FD69212429A20365233153D70BEF2E2E6FAC4BCF9B5ADEBB0BD79ADFCF43CBBD9A4E16EF168B9BD9DD0D140BC921495BC2E9D60C1E101B9E46BED37CEA2CD6861F3329624541A3DA7F7858DBAC25C6B4A4458C3CA654405BCFEBC970E8AAD8F43E4FD558ABEC4F9FE7557F47
310
4F506B7BFBEC5BCA367FC105710E2AB8A00A554D7CB4A30DFE26FBA86D18CBF4B75418399194A72433B274C3097F33032C554B027F2046A1932B842B0FCCC0DDCBEBDB8AD2F835768F59B9ADB24C41D30C6A64AF817F2A456D59FA83F2E3DA60137255A585BCD60EC9B7929AC18DEFD49381AF1ED30BFDB109A4B1CD488294
310
C3CDE6EBC8D185AABD6568061FEE37BB95AAC7E3CA4BCE4ACAA5820FA0D526AE7DAA2869B5EE5999531BE0CC20E6FBA07C41E43FA27CF7A6206F3CDD793B4F6B919C1462CB788EDCD893FA674CDA17AB7B3B7C019F8D561FAEE966FED562DFE98C1D12C6A9FC015C2A35D7FF3D7FC398F591DA4B5FE0BFA2C0189FEA50AE22
310
92817A1ED3020951A03432862970F976B33383259812CC8E5D240BBA801CBCF8CE2BBEE3BF910DB6AAD5F79E05123AE2DB33981FB1ACCB02B69D00CB014FD68AB573A7627EF9BFD4CC2C5C7D58557C4B22FAA88925A4DBB44825CECE3D78FB060D1231F0E885BE7D673C86A3874958F593906B5502D1563157814FDAC3420D
310
F69A070A22EC4B98E23CFF171A1E5311D12C23056555ABA53B8614563B92D17D02AAB009E8F46284624E5F53D5490C560CCCC2591FF1B45421EB0EBD8EA7ED13BE7C5D7E0428CD60FEF60779EB13E6664FF711CB185F6FDED60D139A001FF60CD1FD6D086F1D51474901E26B2CB794A343BC8ED3EDB612E0DD2351FCB65CF4
310
33D511C9E14B5B40ADC6A6263DB0336A8F700DDF56271A024E70B0B3629DE21847591E55DED73D56206AB927E46FAABC5C939C55853C274C93D69FD6FA4E78BF8B11DF898C9ECD60553FAD39283BA6F18984AA23E8884F83F45C5F5F859797B31B2B9C84A1E5B9DE9D35BFF25C6B76152E422F9C5DCC3D847F5801ED09D5AF
310
41441327A25FF15487F9EB725FB666F048A4701E9A827292E6F97569A32DF61DEC01C0BB8DCBBCCC684E0B49147C1FD54BF685A0AB18C868E6973949E819523E3DAC463660E68C7D9F55A9D1EFA3BD7A76A16AE1A810F95CE59B82A4D968A376DC2E8B44BBDD86B27B368CDE0ED548C7137DA860591A83706223A12CA712B4
310
7306DBF39C0A20A6DF95C7FAF670C6EED7A61F946493D1D6926782963813403548A78AE470DEF80D2D9CEAA26E4D1C76F60BFE74219A06527D6B82DF641A51616F703CAAC6A7160E08A00BEB4810A0274592A1B36E3675E36E978A0DE80727A0D6DF2D39A75BD27E0D8837276589537B40ABB56D5A41F48F1C6FCD3188C4EB
310
A6929D2FFB89CE995A4D00AE813BDD032DC48B56BD437DFDDC2DD7AED70C2272D63DE9A72068A45A92F0A4BE17A8A06B9366E16707AD80B1FC649459952097E74BB23805982B55E0401150A165964402AA8BDF9F3E7386BB686EDCA780C0D382E5392BF460A6EFB2C6EA1937D3F809B440D5F5435C4C5CF7A9EEFAF54564BD
310
2182DA24162F98680B4E7930C21A0079709CEAEB99A372305ABE0C0D7D6078105A83F6A0296DAEE1068A47DD1C55A9F4C9B2FC69E3EFD44B81028E963DF81B504B0304140006080000B670623B000000000000000000000000350000006662782F45374635344235342D363743322D343832342D383044432D433445464530
310
3536354442422F76657274696365732E62696E504B0304140006080800B670623BF270F1330600000004000000360000006662782F45374635344235342D363743322D343832342D383044432D4334454645303536354442422F747269616E676C65732E62696E636660600000504B0304140006080000B670623B00000000
310
0000000000000000370000006662782F45374635344235342D363743322D343832342D383044432D4334454645303536354442422F617474726962757465732E62696E504B0304140006080800B670623B08DA0BD19000000041010000360000006662782F45374635344235342D363743322D343832342D383044432D4334
310
454645303536354442422F6469726563746F72792E786D6C858F410AC3201045AF22B36F53E9A60B35CBEEBAE80D244E44489C6234F4F835464A48035D0DF398FF9F8AF63D0E6CC63039F212F8F9020C7D47C6792B21C5FE7403D62A1188E2E60C98D7234A5830286103A55745067B9D86B8A3CF9C7F90C11DE607FB144396
310
D7B6A82D282E9A152AD114D5EF2CB866EEE831B8EEA07A7BB5A8D7D61A2BAAEB7FD5F70921FF497D00504B0304140006080800B670623B6378F24DFF000000A00100003B0000006662782F45374635344235342D363743322D343832342D383044432D4334454645303536354442422F7265736F75726365732F636F72652E
310
786D6C8D504B6E833010BD0A9A6D65B0094E42641C85B639412F6099496225D8C89FAAC7AF09546A77DDCC8CDE47F3F4C4F16B7C149FE88371B603565228D06A37187BED20C50BD9437194C23B177FC9A0B06AC40E6618A4B87A97A615D2CE46B431A3D60DB8822A048C50E8473E3A08FA86A32A558A5911EEE5A4F45D5DB1
310
6465A6B34E8A107D0E502C4FE609D26370C96B0CA25A58295232C3AA3143FE692E063D485EF7F5AEE71BD2D2F39634AFFC44DAF7DD9E9CCE6F9CD25DCBFA762BAAD92C4534E34F46ED51451C40D694B6843142EB0FD61C283F34FC85EE0F948A6A96FF31A569F8A729191B37F51A77B105902C0779125254735F793DCBCC7B
310
EE567E03504B010214000A0000080000B670623B3DEE336E79000000790000001B00000000000000000000000000000000006175746F6465736B2D64657369676E2D7061636B6167652E786D6C504B01021400140006080800B670623BD486FD9CA0000000F40000001300000000000000000000000000B20000005B436F6E
310
74656E745F54797065735D2E786D6C504B01021400140006080800B670623BBC1638F5EC0000007C010000080000000000000000000000000083010000636F72652E786D6C504B01021400140006080800B670623B55019EA25F0000007C000000070000000000000000000000000095020000636E782E786D6C504B010214
310
00140006080800B670623B3586FFB671010000D40300000C00000000000000000000000000190300006662782F636F72652E786D6C504B01021400140006080800B670623B4220A0FF7D0000009D0000000B00000000000000000000000000B40400006662782F636E782E786D6C504B01021400140006080800B670623B2F
310
A3FEDE290100001202000031000000000000000000000000005A0500006662782F45374635344235342D363743322D343832342D383044432D4334454645303536354442422F636F72652E786D6C504B01021400140006080800B670623B1B8617914E010000330300003000000000000000000000000000D2060000666278
310
2F45374635344235342D363743322D343832342D383044432D4334454645303536354442422F636E782E786D6C504B01021400140006080800B670623B29652116630500003C10000034000000000000000000000000006E0800006662782F45374635344235342D363743322D343832342D383044432D4334454645303536
310
354442422F6F626A656374732E786D6C504B01021400140006080000B670623B0000000000000000000000003500000000000000000000000000230E00006662782F45374635344235342D363743322D343832342D383044432D4334454645303536354442422F76657274696365732E62696E504B01021400140006080800
310
B670623BF270F13306000000040000003600000000000000000000000000760E00006662782F45374635344235342D363743322D343832342D383044432D4334454645303536354442422F747269616E676C65732E62696E504B01021400140006080000B670623B0000000000000000000000003700000000000000000000
310
000000D00E00006662782F45374635344235342D363743322D343832342D383044432D4334454645303536354442422F617474726962757465732E62696E504B01021400140006080800B670623B08DA0BD190000000410100003600000000000000000000000000250F00006662782F45374635344235342D363743322D34
310
3832342D383044432D4334454645303536354442422F6469726563746F72792E786D6C504B01021400140006080800B670623B6378F24DFF000000A00100003B00000000000000000000000000091000006662782F45374635344235342D363743322D343832342D383044432D4334454645303536354442422F7265736F75
310
726365732F636F72652E786D6C504B0506000000000E000E0080040000611100000000
  0
XRECORD
  5
112
102
{ACAD_REACTORS
330
110
102
}
330
110
100
AcDbXrecord
280
     1
270
     1
271
     1
  0
XRECORD
  5
111
102
{ACAD_REACTORS
330
110
102
}
330
110
100
AcDbXrecord
280
     1
270
     1
271
     1
  0
XRECORD
  5
18A
102
{ACAD_REACTORS
330
110
102
}
330
110
100
AcDbXrecord
280
     1
 70
     0
 90
1778669749
  1
9BF507EE-FAF7-4A99-A33D-4EE51894BC40
310
504B03040A0000080000B670623B3DEE336E79000000790000001B0000006175746F6465736B2D64657369676E2D7061636B6167652E786D6C3C3F786D6C2076657273696F6E3D22312E302220656E636F64696E673D227574662D3822203F3E3C666F726D6174733E3C666F726D61743E687474703A2F2F736368656D612E
310
6175746F6465736B2E636F6D2F64657369676E2D7061636B6167652F323030393C2F666F726D61743E3C2F666F726D6174733E504B0304140006080800B670623BD486FD9CA0000000F4000000130000005B436F6E74656E745F54797065735D2E786D6C7D8EC10E82300C865F65E91D8A1E8C310C0EEA1BF002731658846E
310
D98AC1B77784ABF1D8FE5FBFBF75BBCE937A534CCEB38643598122B6FEE978D0B0485F9C41B54DDD7D022595594E1A469170414C76A4D9A4D207E29CF43ECE46F218070CC6BECC4078ACAA135ACF422C856C0E68EA1BF5669944DDD7BCDE7B1F8E415D77AECB980613C2E4AC91FC167A2B244592486606FC29C8FD7F045B9A
310
EF7053A7E60B504B0304140006080800B670623BCA089DFFEC0000007C01000008000000636F72652E786D6C8D90416E83301045AF62CDB632D8402020E32882F604BD80653BC44AB011B6AB1EBF262152BBEB6A467FFE9B197D76FA9EEFE84BAFDE38DB03CD08206DA553C64E3DC470C1474027CE56E7C22F1B202B66DDC3
310
260367D3EAE2B24BD2D9A06D48AA754AEFA2F05E0740F29E9A1EBCBCEA59642286E4F0B76C11F226269DD15797E0188D42CF2346A57DE662F40ABCAEC77628C6120F654571D50C04B7F5B9C1E3997CD4F550BE3745C3F20DE62C98F9755FAE5A04AD801784B498524C8A4F5A75E4D055873772EC0861F966FF03C545FD138A
310
C686B2D8DF7D621E384D8F3C069CE55B16A93C824A75CB8DFF00504B0304140006080800B670623B55019EA25F0000007C00000007000000636E782E786D6C4DCB3B0E80201045D1AD90E915ED2CF8AC45050C11660C8261F98AB1B07AC9C97D42D718D865D3E909258CFD00CCE24AC6E326A164D74DC0B4128928FF326038
310
472BA13128B1252AC747C6BAB984FC68F0B87FE8960A5C09FE86CFB69FBA01504B0304140006080800B670623B68FC0B7272010000D40300000C0000006662782F636F72652E786D6CC5535B6E833010BC8AE5DF0A6C1E8124328E22D29EA01770C0A128602363A31CBFCB234A53A555FA553EC09AD9F5CE8C31DB5DDA060D
310
D2F4B556190E7C8A9154852E6B5565D8D993B7C668C799D1DA7E29C3488956667884316795D1AE5BA0422B2B950554E9522EA0E87B69312A1A5864B82F3E642B7CE12C54F467BF13C55954D20F7CA0A18EB3DE1A1080E621E31BF3D3F1C2C88C73E65C5D2E6C5DC2B4FA544B8379921C36797888BC3C8A032F4E73EA6D927D
310
EA1DF6F42D49F2E8350D5346C666CE6CDD5ED515460A2B4BCC434A375E1078347C0FE22D5D6DE3D50B5D6F2965642CBF6B725DF96493AB958DC245EEDCD6631E809089F8E61622B2A81703E8219C913144F84C09DF070D8140C8561C9BAB8F3340832CAC363130A576376A108D933095FA747AD0CF0B46E64E983A6D0EAE1F
310
CE089F9EF1FB8E70D44255604258581E9D1D75B259C3125A278D37D80B52DAB4A279CEC62F0EFF44DDC43F9454E8469BFF5244960322CBEF41C6FBC83F01504B0304140006080800B670623B0F71DDB67E0000009D0000000B0000006662782F636E782E786D6C4DCCD10A83201886E15B91FFDCA54DB73F502386BB8F5816
310
32D3703976F9ABD1C18E3E78F87855FB990379BBFCF2296AE02706C4C5471A7C9C349475A408A4352AA7B4FEDD80C47E761A7606A3A69CCA72D0E0C6BE8475D3E0E3F3409428EA6B27A84079A782899AA2EC1A7AE3ECCC2FD858CB2D544655BFD2B67BD87C01504B0304140006080800B670623BE134B4FB28010000120200
310
00310000006662782F38353834323741342D343835462D343034322D383541392D4331303331363839454531452F636F72652E786D6C8D515B6EC32010BC0AE22B55850D0EA424C24451959EA0172086A42831583CAA1CBF503B52FB971F16CDCECC0EACD8DFC71BF836215AEF7A481A0C817183D7D65D7A98D3197108F652
310
04EFD31F1A044E8DA6871586525C82CFD3020DDE25E352419DD76601558C264130DCCAA58771F832A36A544E8511AFCDA486ABBA988634A55D7852C4144A00300FA927949C71DABD1D28A29C7D208A6987383B6CD13BC16BB2E1DBE3911C453B0BA5C8D9EA456E758963CFD684674DAA588A64C747FC2118958C86B2C3788B
310
0841B8FB247487D98EB257CC77188BB6D2FF89F2A49F1465EBD2BA5BE2CEB2082511EDDC9042FB7CBA3DC298FBE4430275DE2A9AE1054ADC60CC08E3A29D89E5F9C5714317C7987C28DFBBBA9E0A97B0D97643A568EB864AF95D5FA9759BF207504B0304140006080800B670623B1B8617914E010000330300003000000066
310
62782F38353834323741342D343835462D343034322D383541392D4331303331363839454531452F636E782E786D6CD593C16EC32010447F0571AD6CE3D489D20813A9877E410FBD62D82434182CC055F3F75D1292E692438FBD206B7698593D61BEFD1E2DF982108D773D6D6B460938E5B571FB9ECE6957AD29D90A1EBC4F
310
77364A9C1CA1A759A682EF839FA72269D8C9D92654AD71C72206887E0E0A22CAF926B15E498B01E0AA19451807D01A34B919F16B070157417138917400F2F6FA41FCF0092A45DEE414C19BDC21783E4BD39D891265658C3D8DEA00A3ACE59CBC8678ACB54CB26EEB6BD7839D7E9348BE70AD9C8321B9BCA7F9A4A26C542347
310
DEE050F09802D22BA6749A800A394DD62899107273365E3C82CFC6A55557BC06C10774B7ABE7AEC3B0F34CF06446280E154026D0542C187BA9DAB6628BF7B6DBB0E5A65B3EB1F58631DE64BBE083F7B65CC218087E22CABB042E51D1F2268F1FE12B3EA24D40D63E9CFE00120194D60B9D5BC67FE6D39CDF37E20AF817881F
310
504B0304140006080800B670623B5933D422630500003B100000340000006662782F38353834323741342D343835462D343034322D383541392D4331303331363839454531452F6F626A656374732E786D6CAD575B6FA33814FE2B887D0642934E9B156594264D158D3A534DD4D13E548A0C38942D60649B4EBABF7E3F8321
310
40924EF6928780CDF1B97EE762EFF32E4B8D37CA45C2F21BD3B547A641F39045491EDF98A5DC5AD7A6F1D9F73863B243661A39C9E88DA9B64DDF8B392B0BBD15D12D295339D85DDEFE618890E6D434C2940871638AF08566C426A5641115AF764424B1E3EDCE76ED9AB0CF36E6A47819302D08A7B984A6D8CFC1C5A89572FB
310
CB91E9F89EA3BEFB9EFAD754E3D3544E654F5F7E920B49F2F040D880CDD89D2CEE2E2EA7D6E56432B6269F2E5CEB7679BBB0DCABF168FE693E9FCEEEA6102C240727AD09A75BD3BF876F78127A4EFDA9D5582B7E4CA590E5390D2BFB6161A5B3E618D182E611E2985001691DAB47FDA5AB7CD3F93C566B2DB2BB7D9E55DD13
310
1D468DEECDB3AB290BFE8409E21C54704115AA6AFF68436BFC8DF65E0B184BF5B74418199194272435D224E084BF9B3E481589EFF5D828747285706581E9BB7B7E5D5D911ABFC6EE312DB7659A2A689A7E85EC0DF04FA5A8344BFEA2FCB834E8845895492EAFB541F2BDA0A63FF59C6AD3F7D4637CA13FD68E34B629891172
310
98597F1D183A57B9B75A98FE9765B05BAB7C3C2EBCE0ACA05C2AF8005A4DE09AA7F29216EB9E15397500C6F47CBE77CA7778FE2BD277AF0AE2C693DD6437D1522427B9D8329E2136F6A8FA19A3E6C56ADF0E5F50CF06D48734EDCEBF22F69C56D97EC138153F804B85E6FABFC7AFEFB32E523BE1F3BD372418E363EDCA7548
310
52949E8724474014288D94610BB57C1BEC4C7F854A89CA8E5324F55B871CBC78CE1BBEE3BFE68D6A5589EF3C730474506FCFA8FCF0659516D0ED04580EEA6425581B77CAE797FF4BCECC16EB2FEB926F49481F746159D06D922712BD730FDEAE42BD40F42C7AA5EF3F198F60E86110D6DD20645A9480B795CF95E3E3A659A8
310
C55E724F408873315335CFFB8584874484344D494E59D94869DB90C26A5B64F49C802CAC1D3ABE18A098D3B7444D123D8A9E5AE8F5214F0AE5B2B6E9B575DA3E61CBD3EA2B4009FA940524DD1305FB6A1FB294F14DF0BEA90BA109ECE1481FDC3FFAE8D60E75141700BE82725371B4873751B2DD960265F788137FACE6DD40
310
B575E4F0A5C99F46629D92131467A41EE11ABD8D4CCC039CA0AFB37C93A08B232B8F0AEFCA1E0A1015DF13FC83322B362463652ECF71D3A8B1A7D1BE65DE1D62C44F22C317D35F574FEB16153BA2D13E543D10A80E74C4A65E78A6B7CBCBD1D5DD9DB59C2DAFACC96C3AB566E3F1C29ADCDD5DBAD7D3C9ED7C822ED74F80A6
310
41755310DE4443F44A9E68373FADF6596BFA0F440AE7BECE2727AE9F4F2B1B53B1E7E00CF0DD1E5C65454A339A4BA2D0FBA05ED2EF0443458F47BDBFCA484CCFE0F2ED7E3DD0013B679C7B5499467F0ECEEADDB9CA85A34CE44B99053949D2C1416DB85DE4B136BB7165FBAC0B7AB3542BED4F8CA182A549847A1319316519
310
95A83A67147B9E5101C47487F2485F1ECE38FD568F839204296D3479219888530154036E6528FBFBC66F98E0D4107563A2D7D9AFF8D389681A08F58D89F22693900A3B407754734FC51C10C010D6D640809EE4718AC1BA3ED4AEDB53CA37283F68805A7E4B72CEB0A4EDEAD5DD8C14059A76AFAA56BA6901E13F32BC51C720
310
12AF41295B5BF61BAD3195181FB506E6B40F4C10AF5AF40EF9F5B159AE5DD1F43C72D635E94310D45C2D49785C5D0B94D3B54AB3C5A38349C0587D338AB48C11CBF339599C02CCA54A70A008A8D03C0B2201D5F9EFCF8F9CE12A9A19CB0410789EB32C63B95ECCF455D658BFE0621A3DA32C5075FB101723D77DAE867E7D0F
310
D90444509B44E2151B4DC2290B065803200FBAA9BE9D392A0603F2D5C2D00D6302A615680F66D2FA166E2079D4C551A54AB758161FCEFD4E450A14704CECFEDF504B0304140006080000B670623B000000000000000000000000350000006662782F38353834323741342D343835462D343034322D383541392D4331303331
310
363839454531452F76657274696365732E62696E504B0304140006080800B670623BF270F1330600000004000000360000006662782F38353834323741342D343835462D343034322D383541392D4331303331363839454531452F747269616E676C65732E62696E636660600000504B0304140006080000B670623B000000
310
000000000000000000370000006662782F38353834323741342D343835462D343034322D383541392D4331303331363839454531452F617474726962757465732E62696E504B0304140006080800B670623B08DA0BD19000000041010000360000006662782F38353834323741342D343835462D343034322D383541392D43
310
31303331363839454531452F6469726563746F72792E786D6C858F410AC3201045AF22B36F53E9A60B35CBEEBAE80D244E44489C6234F4F835464A48035D0DF398FF9F8AF63D0E6CC63039F212F8F9020C7D47C6792B21C5FE7403D62A1188E2E60C98D7234A5830286103A55745067B9D86B8A3CF9C7F90C11DE607FB1443
310
96D7B6A82D282E9A152AD114D5EF2CB866EEE831B8EEA07A7BB5A8D7D61A2BAAEB7FD5F70921FF497D00504B0304140006080800B670623BD9A3B367FE000000A00100003B0000006662782F38353834323741342D343835462D343034322D383541392D4331303331363839454531452F7265736F75726365732F636F7265
310
2E786D6C8D504B6E833010BD0A9A6D65B01D0201194711694FD00B586642AD043BF2A7EAF16B122AB5BB6E6646EFA3797AE2F8B5DC8A4FF4C1383B002B291468B59B8C9D0748F1420E501CA5F0CEC55F3228AC5A708015062966EFD27D83B4B3116DCCA875136EA00A012314FA968F0182FEC045952AC5AC08D7F2AEF455CD
310
58B232D3592745883E07289E4FD609D26370C96B0CA27AB252A464A64D63A6FCD35C0C7A904D73EE467EE664DCD58CD4ED4849D79C5A723ED1B7A61977AF2D6F45B59AA58866F9C9A83DAA8813484E6947182394BFB3BAA7FBBEDEBFD0434FA9A856F91F53BA4FFF342563E38E6F719FB60092E5200F428A6AED2BAF479979
310
AFDDCA6F504B010214000A0000080000B670623B3DEE336E79000000790000001B00000000000000000000000000000000006175746F6465736B2D64657369676E2D7061636B6167652E786D6C504B01021400140006080800B670623BD486FD9CA0000000F40000001300000000000000000000000000B20000005B436F6E
310
74656E745F54797065735D2E786D6C504B01021400140006080800B670623BCA089DFFEC0000007C010000080000000000000000000000000083010000636F72652E786D6C504B01021400140006080800B670623B55019EA25F0000007C000000070000000000000000000000000095020000636E782E786D6C504B010214
310
00140006080800B670623B68FC0B7272010000D40300000C00000000000000000000000000190300006662782F636F72652E786D6C504B01021400140006080800B670623B0F71DDB67E0000009D0000000B00000000000000000000000000B50400006662782F636E782E786D6C504B01021400140006080800B670623BE1
310
34B4FB280100001202000031000000000000000000000000005C0500006662782F38353834323741342D343835462D343034322D383541392D4331303331363839454531452F636F72652E786D6C504B01021400140006080800B670623B1B8617914E010000330300003000000000000000000000000000D3060000666278
310
2F38353834323741342D343835462D343034322D383541392D4331303331363839454531452F636E782E786D6C504B01021400140006080800B670623B5933D422630500003B10000034000000000000000000000000006F0800006662782F38353834323741342D343835462D343034322D383541392D4331303331363839
310
454531452F6F626A656374732E786D6C504B01021400140006080000B670623B0000000000000000000000003500000000000000000000000000240E00006662782F38353834323741342D343835462D343034322D383541392D4331303331363839454531452F76657274696365732E62696E504B01021400140006080800
310
B670623BF270F13306000000040000003600000000000000000000000000770E00006662782F38353834323741342D343835462D343034322D383541392D4331303331363839454531452F747269616E676C65732E62696E504B01021400140006080000B670623B0000000000000000000000003700000000000000000000
310
000000D10E00006662782F38353834323741342D343835462D343034322D383541392D4331303331363839454531452F617474726962757465732E62696E504B01021400140006080800B670623B08DA0BD190000000410100003600000000000000000000000000260F00006662782F38353834323741342D343835462D34
310
3034322D383541392D4331303331363839454531452F6469726563746F72792E786D6C504B01021400140006080800B670623BD9A3B367FE000000A00100003B000000000000000000000000000A1000006662782F38353834323741342D343835462D343034322D383541392D4331303331363839454531452F7265736F75
310
726365732F636F72652E786D6C504B0506000000000E000E0080040000611100000000
  0
XRECORD
  5
113
102
{ACAD_REACTORS
330
110
102
}
330
110
100
AcDbXrecord
280
     1
270
     1
271
     1
  0
XRECORD
  5
114
102
{ACAD_REACTORS
330
110
102
}
330
110
100
AcDbXrecord
280
     1
270
     1
271
     1
  0
CELLSTYLEMAP
  5
82515
102
{ACAD_REACTORS
330
104
102
}
330
104
100
AcDbCellStyleMap
 90
        3
300
CELLSTYLE
  1
TABLEFORMAT_BEGIN
 90
        5
170
     1
 91
        0
 92
    32768
 62
   257
 93
        1
300
CONTENTFORMAT
  1
CONTENTFORMAT_BEGIN
 90
        0
 91
        0
 92
      512
 93
        0
300

 40
0.0
140
1.0
 94
        5
 62
     0
340
11
144
0.25
309
CONTENTFORMAT_END
171
     1
301
MARGIN
  1
CELLMARGIN_BEGIN
 40
0.06
 40
0.06
 40
0.06
 40
0.06
 40
0.18
 40
0.18
309
CELLMARGIN_END
 94
        6
 95
        1
302
GRIDFORMAT
  1
GRIDFORMAT_BEGIN
 90
        0
 91
        1
 62
     0
 92
       -2
340
0
 93
        0
 40
0.045
309
GRIDFORMAT_END
 95
        2
302
GRIDFORMAT
  1
GRIDFORMAT_BEGIN
 90
        0
 91
        1
 62
     0
 92
       -2
340
0
 93
        0
 40
0.045
309
GRIDFORMAT_END
 95
        4
302
GRIDFORMAT
  1
GRIDFORMAT_BEGIN
 90
        0
 91
        1
 62
     0
 92
       -2
340
0
 93
        0
 40
0.045
309
GRIDFORMAT_END
 95
        8
302
GRIDFORMAT
  1
GRIDFORMAT_BEGIN
 90
        0
 91
        1
 62
     0
 92
       -2
340
0
 93
        0
 40
0.045
309
GRIDFORMAT_END
 95
       16
302
GRIDFORMAT
  1
GRIDFORMAT_BEGIN
 90
        0
 91
        1
 62
     0
 92
       -2
340
0
 93
        0
 40
0.045
309
GRIDFORMAT_END
 95
       32
302
GRIDFORMAT
  1
GRIDFORMAT_BEGIN
 90
        0
 91
        1
 62
     0
 92
       -2
340
0
 93
        0
 40
0.045
309
GRIDFORMAT_END
309
TABLEFORMAT_END
  1
CELLSTYLE_BEGIN
 90
        1
 91
        1
300
_TITLE
309
CELLSTYLE_END
300
CELLSTYLE
  1
TABLEFORMAT_BEGIN
 90
        5
170
     1
 91
        0
 92
        0
 62
   257
 93
        1
300
CONTENTFORMAT
  1
CONTENTFORMAT_BEGIN
 90
        0
 91
        0
 92
      512
 93
        0
300

 40
0.0
140
1.0
 94
        5
 62
     0
340
11
144
0.18
309
CONTENTFORMAT_END
171
     1
301
MARGIN
  1
CELLMARGIN_BEGIN
 40
0.06
 40
0.06
 40
0.06
 40
0.06
 40
0.18
 40
0.18
309
CELLMARGIN_END
 94
        6
 95
        1
302
GRIDFORMAT
  1
GRIDFORMAT_BEGIN
 90
        0
 91
        1
 62
     0
 92
       -2
340
0
 93
        0
 40
0.045
309
GRIDFORMAT_END
 95
        2
302
GRIDFORMAT
  1
GRIDFORMAT_BEGIN
 90
        0
 91
        1
 62
     0
 92
       -2
340
0
 93
        0
 40
0.045
309
GRIDFORMAT_END
 95
        4
302
GRIDFORMAT
  1
GRIDFORMAT_BEGIN
 90
        0
 91
        1
 62
     0
 92
       -2
340
0
 93
        0
 40
0.045
309
GRIDFORMAT_END
 95
        8
302
GRIDFORMAT
  1
GRIDFORMAT_BEGIN
 90
        0
 91
        1
 62
     0
 92
       -2
340
0
 93
        0
 40
0.045
309
GRIDFORMAT_END
 95
       16
302
GRIDFORMAT
  1
GRIDFORMAT_BEGIN
 90
        0
 91
        1
 62
     0
 92
       -2
340
0
 93
        0
 40
0.045
309
GRIDFORMAT_END
 95
       32
302
GRIDFORMAT
  1
GRIDFORMAT_BEGIN
 90
        0
 91
        1
 62
     0
 92
       -2
340
0
 93
        0
 40
0.045
309
GRIDFORMAT_END
309
TABLEFORMAT_END
  1
CELLSTYLE_BEGIN
 90
        2
 91
        1
300
_HEADER
309
CELLSTYLE_END
300
CELLSTYLE
  1
TABLEFORMAT_BEGIN
 90
        5
170
     1
 91
        0
 92
        0
 62
   257
 93
        1
300
CONTENTFORMAT
  1
CONTENTFORMAT_BEGIN
 90
        0
 91
        0
 92
      512
 93
        0
300

 40
0.0
140
1.0
 94
        2
 62
     0
340
11
144
0.18
309
CONTENTFORMAT_END
171
     1
301
MARGIN
  1
CELLMARGIN_BEGIN
 40
0.06
 40
0.06
 40
0.06
 40
0.06
 40
0.18
 40
0.18
309
CELLMARGIN_END
 94
        6
 95
        1
302
GRIDFORMAT
  1
GRIDFORMAT_BEGIN
 90
        0
 91
        1
 62
     0
 92
       -2
340
0
 93
        0
 40
0.045
309
GRIDFORMAT_END
 95
        2
302
GRIDFORMAT
  1
GRIDFORMAT_BEGIN
 90
        0
 91
        1
 62
     0
 92
       -2
340
0
 93
        0
 40
0.045
309
GRIDFORMAT_END
 95
        4
302
GRIDFORMAT
  1
GRIDFORMAT_BEGIN
 90
        0
 91
        1
 62
     0
 92
       -2
340
0
 93
        0
 40
0.045
309
GRIDFORMAT_END
 95
        8
302
GRIDFORMAT
  1
GRIDFORMAT_BEGIN
 90
        0
 91
        1
 62
     0
 92
       -2
340
0
 93
        0
 40
0.045
309
GRIDFORMAT_END
 95
       16
302
GRIDFORMAT
  1
GRIDFORMAT_BEGIN
 90
        0
 91
        1
 62
     0
 92
       -2
340
0
 93
        0
 40
0.045
309
GRIDFORMAT_END
 95
       32
302
GRIDFORMAT
  1
GRIDFORMAT_BEGIN
 90
        0
 91
        1
 62
     0
 92
       -2
340
0
 93
        0
 40
0.045
309
GRIDFORMAT_END
309
TABLEFORMAT_END
  1
CELLSTYLE_BEGIN
 90
        3
 91
        2
300
_DATA
309
CELLSTYLE_END
  0
ENDSEC
  0
SECTION
  2
ACDSDATA
 70
     2
 71
     8
  0
ACDSSCHEMA
 90
        0
  1
AcDb_Thumbnail_Schema
  2
AcDbDs::ID
280
    10
 91
        8
  2
Thumbnail_Data
280
    15
 91
        0
101
ACDSRECORD
 95
        0
 90
        1
  2
AcDbDs::TreatedAsObjectData
280
     1
291
     1
101
ACDSRECORD
 95
        0
 90
        2
  2
AcDbDs::Legacy
280
     1
291
     1
101
ACDSRECORD
  1
AcDbDs::ID
 90
        3
  2
AcDs:Indexable
280
     1
291
     1
101
ACDSRECORD
  1
AcDbDs::ID
 90
        4
  2
AcDbDs::HandleAttribute
280
     7
282
     1
  0
ACDSSCHEMA
 90
        1
  1
AcDbDs::TreatedAsObjectDataSchema
  2
AcDbDs::TreatedAsObjectData
280
     1
 91
        0
  0
ACDSSCHEMA
 90
        2
  1
AcDbDs::LegacySchema
  2
AcDbDs::Legacy
280
     1
 91
        0
  0
ACDSSCHEMA
 90
        3
  1
AcDbDs::IndexedPropertySchema
  2
AcDs:Indexable
280
     1
 91
        0
  0
ACDSSCHEMA
 90
        4
  1
AcDbDs::HandleAttributeSchema
  2
AcDbDs::HandleAttribute
280
     7
 91
        1
284
     1
  0
ACDSSCHEMA
 90
        5
  1
AcDb3DSolid_ASM_Data
  2
AcDbDs::ID
280
    10
 91
        8
  2
ASM_Data
280
    15
 91
        0
101
ACDSRECORD
 95
        5
 90
        1
  2
AcDbDs::TreatedAsObjectData
280
     1
291
     1
101
ACDSRECORD
 95
        5
 90
        2
  2
AcDbDs::Legacy
280
     1
291
     1
101
ACDSRECORD
  1
AcDbDs::ID
 90
        3
  2
AcDs:Indexable
280
     1
291
     1
101
ACDSRECORD
  1
AcDbDs::ID
 90
        4
  2
AcDbDs::HandleAttribute
280
     7
282
     1
  0
ACDSRECORD
 90
        0
  2
AcDbDs::ID
280
    10
320
22
  2
Thumbnail_Data
280
    15
 94
     1666
310
89504E470D0A1A0A0000000D49484452000001000000006E0803000000FF253DCA00000300504C5445212830FFFFFF2128300000000000000000000000000000000000000000000000000000330000660000990000CC0000FF0033000033330033660033990033CC0033FF0066000066330066660066990066CC0066FF0099
310
000099330099660099990099CC0099FF00CC0000CC3300CC6600CC9900CCCC00CCFF00FF0000FF3300FF6600FF9900FFCC00FFFF3300003300333300663300993300CC3300FF3333003333333333663333993333CC3333FF3366003366333366663366993366CC3366FF3399003399333399663399993399CC3399FF33CC00
310
33CC3333CC6633CC9933CCCC33CCFF33FF0033FF3333FF6633FF9933FFCC33FFFF6600006600336600666600996600CC6600FF6633006633336633666633996633CC6633FF6666006666336666666666996666CC6666FF6699006699336699666699996699CC6699FF66CC0066CC3366CC6666CC9966CCCC66CCFF66FF0066
310
FF3366FF6666FF9966FFCC66FFFF9900009900339900669900999900CC9900FF9933009933339933669933999933CC9933FF9966009966339966669966999966CC9966FF9999009999339999669999999999CC9999FF99CC0099CC3399CC6699CC9999CCCC99CCFF99FF0099FF3399FF6699FF9999FFCC99FFFFCC0000CC00
310
33CC0066CC0099CC00CCCC00FFCC3300CC3333CC3366CC3399CC33CCCC33FFCC6600CC6633CC6666CC6699CC66CCCC66FFCC9900CC9933CC9966CC9999CC99CCCC99FFCCCC00CCCC33CCCC66CCCC99CCCCCCCCCCFFCCFF00CCFF33CCFF66CCFF99CCFFCCCCFFFFFF0000FF0033FF0066FF0099FF00CCFF00FFFF3300FF3333
310
FF3366FF3399FF33CCFF33FFFF6600FF6633FF6666FF6699FF66CCFF66FFFF9900FF9933FF9966FF9999FF99CCFF99FFFFCC00FFCC33FFCC66FFCC99FFCCCCFFCCFFFFFF00FFFF33FFFF66FFFF99FFFFCCFFFFFF0000000D0D0D1A1A1A2828283535354343435050505D5D5D6B6B6B787878868686939393A1A1A1AEAEAEBB
310
BBBBC9C9C9D6D6D6E4E4E4F1F1F1FFFFFF0000000000000000000000000000000000000000000000000000000000002E4550F1000000E94944415478DAEDD8C10E83200C0050FEFF7F7B5F3691805336134FE5BDC4608897D60AD85200000000000000007848C46A01D7B03FB6BB6E7E7828E90BBF2767FCFB6D19EA608F76
310
9B1BCA2355FCDDD852302B81C8B500F485FD1EB7AB5B18EA43FB4290AB060E5F75AD86AF9DA0BEF5C8B74B9CC57FB6E84737644A408CD12C988031984902628D041409B8380D4B804F206D02FEDC05B226A00C07DBF5B6C19B07A1A427C12EA056E993A370B2FFC138FC035F7708BAF96409B8EA8C94D6016859AA6D82351B
310
422561FDDFCB40CA86D8F99EBF5653F477460000000000000000000000000078DC0B0419CA7B783D40840000000049454E44AE4260826A40D023C0F416AF94001002401C44C05618041D808767A50CD6B501D448A0030034E98DDC22512A00E8FC47697525DABBD400482320F69E3F07A723350835621CC4E05359642C02DD
310
1968CA04B9F8311E08B1B7C1254390B607407914AA5D6E1F0E67C188F5347C530104EE84D9356CFF4B38AF4BCC23D27A11682462D0CFC98A1820B725D05E10F0E3ED983A236A3B80DE26E52A13869A69BF5FC7000C00F26FD98A080350CF00E5776C8D1D61883A0F141252DEAF3D50870192EC534786121BA3D9DBA7FF3208
310
D2A3AF222896DF717B5F64D132074C71401BF959138B3C18D828311EF77370238B21E81A044F2A0C8FD64B204E27C16B904E74E3DD3764EB6094FB9288C372D0DD6588693ADA3ECCBC0983FB03036700BC02003C1520DE06C0B322D22AFDB503E2C56FFD53FF2370F3615FEE9974229C1EF0FBDFFAC731F0DA876FFD81CD66
310
B3FD9A7D008464C9A7364B76220000000049454E44AE426082BBF6C2581840B855A0358D18E98F251203406F1A612A80B202BAD38891FF580B500000D49D4988F37FAC813E72214627000A3582A5C338FE00598ED82311F33F3A0000000049454E44AE4260820F467818FD4AC64A010000000049454E44AE42608200187F52
310
539FF6AC0FF2D01229B97F7B56AE64E8787DBF9E93B283504D4929EEDB336DE133B927D0B706F146D8FDD54728002424931276690CDE5FFA471401522320E6FA719CDCC9E90D234F422DA512220CD4066298BF969A4028B717C4D481E25C1BC6C59A99842240E2F24B1F92F8AC20F021F00EFE737AFD0FDF7E00E9E9886BC5
310
1247A50000000049454E44AE426082
  0
ENDSEC
  0
EOF
