  0
SECTION
  2
HEADER
  9
$ACADVER
  1
AC1032
  9
$ACADMAINTVER
 90
      197
  9
$DWGCODEPAGE
  3
ANSI_1252
  9
$LASTSAVEDBY
  1
gregb
  9
$REQUIREDVERSIONS
160
                 0
  9
$INSBASE
 10
0.0
 20
0.0
 30
0.0
  9
$EXTMIN
 10
169062.3103155389
 20
106635.9224639671
 30
-0.0015258207003583
  9
$EXTMAX
 10
169359.5318577783
 20
106864.2543082452
 30
0.0000000349246037
  9
$LIMMIN
 10
0.0
 20
0.0
  9
$LIMMAX
 10
12.0
 20
9.0
  9
$ORTHOMODE
 70
     0
  9
$REGENMODE
 70
     1
  9
$FILLMODE
 70
     1
  9
$QTEXTMODE
 70
     0
  9
$MIRRTEXT
 70
     0
  9
$LTSCALE
 40
1.0
  9
$ATTMODE
 70
     1
  9
$TEXTSIZE
 40
0.2
  9
$TRACEWID
 40
0.05
  9
$TEXTSTYLE
  7
Standard
  9
$CLAYER
  8
freecads.com
  9
$CELTYPE
  6
ByLayer
  9
$CECOLOR
 62
   256
  9
$CELTSCALE
 40
1.0
  9
$DISPSILH
 70
     1
  9
$DIMSCALE
 40
1.0
  9
$DIMASZ
 40
0.18
  9
$DIMEXO
 40
0.0625
  9
$DIMDLI
 40
0.38
  9
$DIMRND
 40
0.0
  9
$DIMDLE
 40
0.0
  9
$DIMEXE
 40
0.18
  9
$DIMTP
 40
0.0
  9
$DIMTM
 40
0.0
  9
$DIMTXT
 40
0.18
  9
$DIMCEN
 40
0.09
  9
$DIMTSZ
 40
0.0
  9
$DIMTOL
 70
     0
  9
$DIMLIM
 70
     0
  9
$DIMTIH
 70
     1
  9
$DIMTOH
 70
     1
  9
$DIMSE1
 70
     0
  9
$DIMSE2
 70
     0
  9
$DIMTAD
 70
     0
  9
$DIMZIN
 70
     0
  9
$DIMBLK
  1

  9
$DIMASO
 70
     1
  9
$DIMSHO
 70
     1
  9
$DIMPOST
  1

  9
$DIMAPOST
  1

  9
$DIMALT
 70
     0
  9
$DIMALTD
 70
     2
  9
$DIMALTF
 40
25.4
  9
$DIMLFAC
 40
1.0
  9
$DIMTOFL
 70
     0
  9
$DIMTVP
 40
0.0
  9
$DIMTIX
 70
     0
  9
$DIMSOXD
 70
     0
  9
$DIMSAH
 70
     0
  9
$DIMBLK1
  1

  9
$DIMBLK2
  1

  9
$DIMSTYLE
  2
Standard
  9
$DIMCLRD
 70
     0
  9
$DIMCLRE
 70
     0
  9
$DIMCLRT
 70
     0
  9
$DIMTFAC
 40
1.0
  9
$DIMGAP
 40
0.09
  9
$DIMJUST
 70
     0
  9
$DIMSD1
 70
     0
  9
$DIMSD2
 70
     0
  9
$DIMTOLJ
 70
     1
  9
$DIMTZIN
 70
     0
  9
$DIMALTZ
 70
     0
  9
$DIMALTTZ
 70
     0
  9
$DIMUPT
 70
     0
  9
$DIMDEC
 70
     4
  9
$DIMTDEC
 70
     4
  9
$DIMALTU
 70
     2
  9
$DIMALTTD
 70
     2
  9
$DIMTXSTY
  7
Standard
  9
$DIMAUNIT
 70
     0
  9
$DIMADEC
 70
     0
  9
$DIMALTRND
 40
0.0
  9
$DIMAZIN
 70
     0
  9
$DIMDSEP
 70
    46
  9
$DIMATFIT
 70
     3
  9
$DIMFRAC
 70
     0
  9
$DIMLDRBLK
  1

  9
$DIMLUNIT
 70
     2
  9
$DIMLWD
 70
    -2
  9
$DIMLWE
 70
    -2
  9
$DIMTMOVE
 70
     0
  9
$DIMFXL
 40
1.0
  9
$DIMFXLON
 70
     0
  9
$DIMJOGANG
 40
0.7853981633974483
  9
$DIMTFILL
 70
     0
  9
$DIMTFILLCLR
 70
     0
  9
$DIMARCSYM
 70
     0
  9
$DIMLTYPE
  6

  9
$DIMLTEX1
  6

  9
$DIMLTEX2
  6

  9
$DIMTXTDIRECTION
 70
     0
  9
$LUNITS
 70
     2
  9
$LUPREC
 70
     4
  9
$SKETCHINC
 40
0.1
  9
$FILLETRAD
 40
0.0
  9
$AUNITS
 70
     0
  9
$AUPREC
 70
     0
  9
$MENU
  1
.
  9
$ELEVATION
 40
0.0
  9
$PELEVATION
 40
0.0
  9
$THICKNESS
 40
0.0
  9
$LIMCHECK
 70
     0
  9
$CHAMFERA
 40
0.0
  9
$CHAMFERB
 40
0.0
  9
$CHAMFERC
 40
0.0
  9
$CHAMFERD
 40
0.0
  9
$SKPOLY
 70
     0
  9
$TDCREATE
 40
2458157.454583334
  9
$TDUCREATE
 40
2458157.287916667
  9
$TDUPDATE
 40
2460670.439837963
  9
$TDUUPDATE
 40
2460670.273171297
  9
$TDINDWG
 40
0.2395023148
  9
$TDUSRTIMER
 40
0.2395023148
  9
$USRTIMER
 70
     1
  9
$ANGBASE
 50
0.0
  9
$ANGDIR
 70
     0
  9
$PDMODE
 70
     0
  9
$PDSIZE
 40
0.0
  9
$PLINEWID
 40
0.0
  9
$SPLFRAME
 70
     0
  9
$SPLINETYPE
 70
     6
  9
$SPLINESEGS
 70
     8
  9
$HANDSEED
  5
8368A
  9
$SURFTAB1
 70
     6
  9
$SURFTAB2
 70
     6
  9
$SURFTYPE
 70
     6
  9
$SURFU
 70
     6
  9
$SURFV
 70
     6
  9
$UCSBASE
  2

  9
$UCSNAME
  2

  9
$UCSORG
 10
0.0
 20
0.0
 30
0.0
  9
$UCSXDIR
 10
1.0
 20
0.0
 30
0.0
  9
$UCSYDIR
 10
0.0
 20
1.0
 30
0.0
  9
$UCSORTHOREF
  2

  9
$UCSORTHOVIEW
 70
     0
  9
$UCSORGTOP
 10
0.0
 20
0.0
 30
0.0
  9
$UCSORGBOTTOM
 10
0.0
 20
0.0
 30
0.0
  9
$UCSORGLEFT
 10
0.0
 20
0.0
 30
0.0
  9
$UCSORGRIGHT
 10
0.0
 20
0.0
 30
0.0
  9
$UCSORGFRONT
 10
0.0
 20
0.0
 30
0.0
  9
$UCSORGBACK
 10
0.0
 20
0.0
 30
0.0
  9
$PUCSBASE
  2

  9
$PUCSNAME
  2

  9
$PUCSORG
 10
0.0
 20
0.0
 30
0.0
  9
$PUCSXDIR
 10
1.0
 20
0.0
 30
0.0
  9
$PUCSYDIR
 10
0.0
 20
1.0
 30
0.0
  9
$PUCSORTHOREF
  2

  9
$PUCSORTHOVIEW
 70
     0
  9
$PUCSORGTOP
 10
0.0
 20
0.0
 30
0.0
  9
$PUCSORGBOTTOM
 10
0.0
 20
0.0
 30
0.0
  9
$PUCSORGLEFT
 10
0.0
 20
0.0
 30
0.0
  9
$PUCSORGRIGHT
 10
0.0
 20
0.0
 30
0.0
  9
$PUCSORGFRONT
 10
0.0
 20
0.0
 30
0.0
  9
$PUCSORGBACK
 10
0.0
 20
0.0
 30
0.0
  9
$USERI1
 70
     0
  9
$USERI2
 70
     0
  9
$USERI3
 70
     0
  9
$USERI4
 70
     0
  9
$USERI5
 70
     0
  9
$USERR1
 40
0.0
  9
$USERR2
 40
0.0
  9
$USERR3
 40
0.0
  9
$USERR4
 40
0.0
  9
$USERR5
 40
0.0
  9
$WORLDVIEW
 70
     1
  9
$SHADEDGE
 70
     3
  9
$SHADEDIF
 70
    70
  9
$TILEMODE
 70
     1
  9
$MAXACTVP
 70
    64
  9
$PINSBASE
 10
0.0
 20
0.0
 30
0.0
  9
$PLIMCHECK
 70
     0
  9
$PEXTMIN
 10
0.0
 20
0.0
 30
0.0
  9
$PEXTMAX
 10
0.0
 20
0.0
 30
0.0
  9
$PLIMMIN
 10
0.0
 20
0.0
  9
$PLIMMAX
 10
12.0
 20
9.0
  9
$UNITMODE
 70
     0
  9
$VISRETAIN
 70
     1
  9
$PLINEGEN
 70
     0
  9
$PSLTSCALE
 70
     1
  9
$TREEDEPTH
 70
  3020
  9
$CMLSTYLE
  2
Standard
  9
$CMLJUST
 70
     0
  9
$CMLSCALE
 40
1.0
  9
$PROXYGRAPHICS
 70
     1
  9
$MEASUREMENT
 70
     0
  9
$CELWEIGHT
370
    -1
  9
$ENDCAPS
280
     0
  9
$JOINSTYLE
280
     0
  9
$LWDISPLAY
290
     0
  9
$INSUNITS
 70
     1
  9
$HYPERLINKBASE
  1

  9
$STYLESHEET
  1
monochrome.ctb
  9
$XEDIT
290
     1
  9
$CEPSNTYPE
380
     0
  9
$PSTYLEMODE
290
     1
  9
$FINGERPRINTGUID
  2
{358EB121-6EE0-9143-8A3E-6E8E8869FDA6}
  9
$VERSIONGUID
  2
{AEAB0828-0C01-F040-B1F7-1CDC7BA51D9F}
  9
$EXTNAMES
290
     1
  9
$PSVPSCALE
 40
0.0
  9
$OLESTARTUP
290
     0
  9
$SORTENTS
280
   127
  9
$INDEXCTL
280
     0
  9
$HIDETEXT
280
     1
  9
$XCLIPFRAME
280
     2
  9
$HALOGAP
280
     0
  9
$OBSCOLOR
 70
   257
  9
$OBSLTYPE
280
     0
  9
$INTERSECTIONDISPLAY
280
     0
  9
$INTERSECTIONCOLOR
 70
   257
  9
$DIMASSOC
280
     2
  9
$PROJECTNAME
  1

  9
$CAMERADISPLAY
290
     0
  9
$LENSLENGTH
 40
50.0
  9
$CAMERAHEIGHT
 40
0.0
  9
$STEPSPERSEC
 40
2.0
  9
$STEPSIZE
 40
6.0
  9
$3DDWFPREC
 40
2.0
  9
$PSOLWIDTH
 40
0.25
  9
$PSOLHEIGHT
 40
4.0
  9
$LOFTANG1
 40
1.570796326794896
  9
$LOFTANG2
 40
1.570796326794896
  9
$LOFTMAG1
 40
0.0
  9
$LOFTMAG2
 40
0.0
  9
$LOFTPARAM
 70
     7
  9
$LOFTNORMALS
280
     1
  9
$LATITUDE
 40
37.795
  9
$LONGITUDE
 40
-122.394
  9
$NORTHDIRECTION
 40
0.0
  9
$TIMEZONE
 70
 -8000
  9
$LIGHTGLYPHDISPLAY
280
     1
  9
$TILEMODELIGHTSYNCH
280
     1
  9
$CMATERIAL
347
96
  9
$SOLIDHIST
280
     0
  9
$SHOWHIST
280
     1
  9
$DWFFRAME
280
     2
  9
$DGNFRAME
280
     0
  9
$REALWORLDSCALE
290
     1
  9
$INTERFERECOLOR
 62
     1
  9
$INTERFEREOBJVS
345
A3
  9
$INTERFEREVPVS
346
A0
  9
$CSHADOW
280
     0
  9
$SHADOWPLANELOCATION
 40
0.0
  0
ENDSEC
  0
SECTION
  2
CLASSES
  0
CLASS
  1
ACDBDICTIONARYWDFLT
  2
AcDbDictionaryWithDefault
  3
ObjectDBX Classes
 90
        0
 91
        1
280
     0
281
     0
  0
CLASS
  1
DICTIONARYVAR
  2
AcDbDictionaryVar
  3
ObjectDBX Classes
 90
        0
 91
       27
280
     0
281
     0
  0
CLASS
  1
TABLESTYLE
  2
AcDbTableStyle
  3
ObjectDBX Classes
 90
     4095
 91
        1
280
     0
281
     0
  0
CLASS
  1
MATERIAL
  2
AcDbMaterial
  3
ObjectDBX Classes
 90
     1153
 91
        3
280
     0
281
     0
  0
CLASS
  1
VISUALSTYLE
  2
AcDbVisualStyle
  3
ObjectDBX Classes
 90
     4095
 91
       25
280
     0
281
     0
  0
CLASS
  1
SCALE
  2
AcDbScale
  3
ObjectDBX Classes
 90
     1153
 91
       34
280
     0
281
     0
  0
CLASS
  1
MLEADERSTYLE
  2
AcDbMLeaderStyle
  3
ACDB_MLEADERSTYLE_CLASS
 90
     4095
 91
        1
280
     0
281
     0
  0
CLASS
  1
CELLSTYLEMAP
  2
AcDbCellStyleMap
  3
ObjectDBX Classes
 90
     1152
 91
        1
280
     0
281
     0
  0
CLASS
  1
EXACXREFPANELOBJECT
  2
ExAcXREFPanelObject
  3
EXAC_ESW
 90
     1025
 91
        1
280
     0
281
     0
  0
CLASS
  1
NPOCOLLECTION
  2
AcDbImpNonPersistentObjectsCollection
  3
ObjectDBX Classes
 90
     1153
 91
        1
280
     0
281
     0
  0
CLASS
  1
LAYER_INDEX
  2
AcDbLayerIndex
  3
ObjectDBX Classes
 90
        0
 91
        0
280
     0
281
     0
  0
CLASS
  1
SPATIAL_INDEX
  2
AcDbSpatialIndex
  3
ObjectDBX Classes
 90
        0
 91
        0
280
     0
281
     0
  0
CLASS
  1
IDBUFFER
  2
AcDbIdBuffer
  3
ObjectDBX Classes
 90
        0
 91
        0
280
     0
281
     0
  0
CLASS
  1
ACDBSECTIONVIEWSTYLE
  2
AcDbSectionViewStyle
  3
ObjectDBX Classes
 90
     1025
 91
        2
280
     0
281
     0
  0
CLASS
  1
ACDBDETAILVIEWSTYLE
  2
AcDbDetailViewStyle
  3
ObjectDBX Classes
 90
     1025
 91
        2
280
     0
281
     0
  0
CLASS
  1
SORTENTSTABLE
  2
AcDbSortentsTable
  3
ObjectDBX Classes
 90
        0
 91
        1
280
     0
281
     0
  0
CLASS
  1
ACAD_EVALUATION_GRAPH
  2
AcDbEvalGraph
  3
ObjectDBX Classes
 90
     1153
 91
        0
280
     0
281
     0
  0
CLASS
  1
BLOCKLINEARPARAMETER
  2
AcDbBlockLinearParameter
  3
ObjectDBX Classes
 90
     1153
 91
        0
280
     0
281
     0
  0
CLASS
  1
BLOCKLINEARGRIP
  2
AcDbBlockLinearGrip
  3
ObjectDBX Classes
 90
     1153
 91
        0
280
     0
281
     0
  0
CLASS
  1
BLOCKGRIPLOCATIONCOMPONENT
  2
AcDbBlockGripExpr
  3
ObjectDBX Classes
 90
     1153
 91
        0
280
     0
281
     0
  0
CLASS
  1
BLOCKSTRETCHACTION
  2
AcDbBlockStretchAction
  3
ObjectDBX Classes
 90
     1153
 91
        0
280
     0
281
     0
  0
CLASS
  1
ACDB_DYNAMICBLOCKPURGEPREVENTER_VERSION
  2
AcDbDynamicBlockPurgePreventer
  3
ObjectDBX Classes
 90
     1153
 91
        0
280
     0
281
     0
  0
CLASS
  1
BLOCKVISIBILITYPARAMETER
  2
AcDbBlockVisibilityParameter
  3
ObjectDBX Classes
 90
     1153
 91
        0
280
     0
281
     0
  0
CLASS
  1
BLOCKVISIBILITYGRIP
  2
AcDbBlockVisibilityGrip
  3
ObjectDBX Classes
 90
     1153
 91
        0
280
     0
281
     0
  0
CLASS
  1
ACDB_BLOCKREPRESENTATION_DATA
  2
AcDbBlockRepresentationData
  3
ObjectDBX Classes
 90
     1153
 91
        0
280
     0
281
     0
  0
CLASS
  1
SURFACE
  2
AcDbSurface
  3
ObjectDBX Classes
 90
     4095
 91
        0
280
     0
281
     1
  0
CLASS
  1
ACDBASSOCPERSSUBENTMANAGER
  2
AcDbAssocPersSubentManager
  3
ObjectDBX Classes
 90
     1024
 91
        1
280
     0
281
     0
  0
CLASS
  1
BLOCKARRAYACTION
  2
AcDbBlockArrayAction
  3
ObjectDBX Classes
 90
     1153
 91
        0
280
     0
281
     0
  0
CLASS
  1
BLOCKLOOKUPPARAMETER
  2
AcDbBlockLookupParameter
  3
ObjectDBX Classes
 90
     1153
 91
        0
280
     0
281
     0
  0
CLASS
  1
BLOCKLOOKUPGRIP
  2
AcDbBlockLookupGrip
  3
ObjectDBX Classes
 90
     1153
 91
        0
280
     0
281
     0
  0
CLASS
  1
BLOCKLOOKUPACTION
  2
AcDbBlockLookupAction
  3
ObjectDBX Classes
 90
     1153
 91
        0
280
     0
281
     0
  0
CLASS
  1
WIPEOUT
  2
AcDbWipeout
  3
WipeOut|Product Desc: Object Enabler for WipeOut entity | Company: Autodesk, Inc. | WEB Address: www.autodesk.com
 90
     2175
 91
        0
280
     0
281
     1
  0
CLASS
  1
WIPEOUTVARIABLES
  2
AcDbWipeoutVariables
  3
"WipeOut|Product Desc:     WipeOut Dbx Application|Company:          Autodesk, Inc.|WEB Address:      www.autodesk.com"
 90
        0
 91
        1
280
     0
281
     0
  0
ENDSEC
  0
SECTION
  2
TABLES
  0
TABLE
  2
VPORT
  5
8
330
0
100
AcDbSymbolTable
 70
     1
  0
VPORT
  5
94
330
8
100
AcDbSymbolTableRecord
100
AcDbViewportTableRecord
  2
*Active
 70
     0
 10
0.0
 20
0.0
 11
1.0
 21
1.0
 12
169290.948047164
 22
106778.9460774269
 13
0.0
 23
0.0
 14
0.5
 24
0.5
 15
0.5
 25
0.5
 16
0.0
 26
0.0
 36
1.0
 17
0.0
 27
0.0
 37
0.0
 40
654.9440019693347
 41
2.293369663941871
 42
50.0
 43
0.0
 44
0.0
 50
0.0
 51
0.0
 71
     0
 72
  1000
 73
     1
 74
     3
 75
     0
 76
     0
 77
     0
 78
     0
281
     0
 65
     1
110
0.0
120
0.0
130
0.0
111
1.0
121
0.0
131
0.0
112
0.0
122
1.0
132
0.0
 79
     0
146
0.0
348
9F
 60
     3
 61
     5
292
     1
282
     1
141
0.0
142
0.0
 63
   250
421
  3355443
1001
ACAD_NAV_VCDISPLAY
1070
     3
  0
ENDTAB
  0
TABLE
  2
LTYPE
  5
5
330
0
100
AcDbSymbolTable
 70
     1
  0
LTYPE
  5
14
330
5
100
AcDbSymbolTableRecord
100
AcDbLinetypeTableRecord
  2
ByBlock
 70
     0
  3

 72
    65
 73
     0
 40
0.0
  0
LTYPE
  5
15
330
5
100
AcDbSymbolTableRecord
100
AcDbLinetypeTableRecord
  2
ByLayer
 70
     0
  3

 72
    65
 73
     0
 40
0.0
  0
LTYPE
  5
16
330
5
100
AcDbSymbolTableRecord
100
AcDbLinetypeTableRecord
  2
Continuous
 70
     0
  3
Solid line
 72
    65
 73
     0
 40
0.0
  0
ENDTAB
  0
TABLE
  2
LAYER
  5
2
102
{ACAD_XDICTIONARY
360
18E
102
}
330
0
100
AcDbSymbolTable
 70
     2
  0
LAYER
  5
10
102
{ACAD_XDICTIONARY
360
E6
102
}
330
2
100
AcDbSymbolTableRecord
100
AcDbLayerTableRecord
  2
0
 70
     0
 62
     7
  6
Continuous
370
    -3
390
F
347
98
348
0
  0
LAYER
  5
204
330
2
100
AcDbSymbolTableRecord
100
AcDbLayerTableRecord
  2
freecads.com
 70
     0
 62
     7
  6
Continuous
370
    -3
390
F
347
98
348
0
1001
AcAecLayerStandard
1000

1000

1001
AcCmTransparency
1071
        0
  0
ENDTAB
  0
TABLE
  2
STYLE
  5
3
330
0
100
AcDbSymbolTable
 70
     3
  0
STYLE
  5
11
330
3
100
AcDbSymbolTableRecord
100
AcDbTextStyleTableRecord
  2
Standard
 70
     0
 40
0.0
 41
1.0
 50
0.0
 71
     0
 42
0.2
  3
arial.ttf
  4

1001
ACAD
1000
Arial
1071
       34
  0
ENDTAB
  0
TABLE
  2
VIEW
  5
6
330
0
100
AcDbSymbolTable
 70
     0
  0
ENDTAB
  0
TABLE
  2
UCS
  5
7
330
0
100
AcDbSymbolTable
 70
     0
  0
ENDTAB
  0
TABLE
  2
APPID
  5
9
330
0
100
AcDbSymbolTable
 70
    32
  0
APPID
  5
12
330
9
100
AcDbSymbolTableRecord
100
AcDbRegAppTableRecord
  2
ACAD
 70
     0
  0
APPID
  5
DD
330
9
100
AcDbSymbolTableRecord
100
AcDbRegAppTableRecord
  2
AcadAnnoPO
 70
     0
  0
APPID
  5
DE
330
9
100
AcDbSymbolTableRecord
100
AcDbRegAppTableRecord
  2
AcadAnnotative
 70
     0
  0
APPID
  5
DF
330
9
100
AcDbSymbolTableRecord
100
AcDbRegAppTableRecord
  2
ACAD_DSTYLE_DIMJAG
 70
     0
  0
APPID
  5
E0
330
9
100
AcDbSymbolTableRecord
100
AcDbRegAppTableRecord
  2
ACAD_DSTYLE_DIMTALN
 70
     0
  0
APPID
  5
107
330
9
100
AcDbSymbolTableRecord
100
AcDbRegAppTableRecord
  2
ACAD_MLEADERVER
 70
     0
  0
APPID
  5
1A6
330
9
100
AcDbSymbolTableRecord
100
AcDbRegAppTableRecord
  2
ACAD_NAV_VCDISPLAY
 70
     0
  0
APPID
  5
205
330
9
100
AcDbSymbolTableRecord
100
AcDbRegAppTableRecord
  2
AcAecLayerStandard
 70
     0
  0
APPID
  5
206
330
9
100
AcDbSymbolTableRecord
100
AcDbRegAppTableRecord
  2
AcCmTransparency
 70
     0
  0
APPID
  5
222
330
9
100
AcDbSymbolTableRecord
100
AcDbRegAppTableRecord
  2
ACAD_PSEXT
 70
     0
  0
APPID
  5
2DA
330
9
100
AcDbSymbolTableRecord
100
AcDbRegAppTableRecord
  2
GradientColor1ACI
 70
     0
  0
APPID
  5
2DB
330
9
100
AcDbSymbolTableRecord
100
AcDbRegAppTableRecord
  2
GradientColor2ACI
 70
     0
  0
APPID
  5
2F3
330
9
100
AcDbSymbolTableRecord
100
AcDbRegAppTableRecord
  2
ACAD_EXEMPT_FROM_CAD_STANDARDS
 70
     0
  0
APPID
  5
A1A
330
9
100
AcDbSymbolTableRecord
100
AcDbRegAppTableRecord
  2
AcDbBlockRepETag
 70
     0
  0
APPID
  5
2282
330
9
100
AcDbSymbolTableRecord
100
AcDbRegAppTableRecord
  2
RAK
 70
     0
  0
APPID
  5
39F4
330
9
100
AcDbSymbolTableRecord
100
AcDbRegAppTableRecord
  2
ACAD_DSTYLE_DIMJOGGED_JOGANGLE_SYMBOL
 70
     0
  0
APPID
  5
39F5
330
9
100
AcDbSymbolTableRecord
100
AcDbRegAppTableRecord
  2
AcDbDynamicBlockGUID
 70
     0
  0
APPID
  5
39F6
330
9
100
AcDbSymbolTableRecord
100
AcDbRegAppTableRecord
  2
ACAD_DSTYLE_DIMBREAK
 70
     0
  0
APPID
  5
3B59
330
9
100
AcDbSymbolTableRecord
100
AcDbRegAppTableRecord
  2
AEC_XDATA_BOUND_SPACE
 70
     0
  0
APPID
  5
75C5
330
9
100
AcDbSymbolTableRecord
100
AcDbRegAppTableRecord
  2
AcDbDynamicBlockTrueName
 70
     0
  0
APPID
  5
75C6
330
9
100
AcDbSymbolTableRecord
100
AcDbRegAppTableRecord
  2
AcDbBlockRepBTag
 70
     0
  0
APPID
  5
75C7
330
9
100
AcDbSymbolTableRecord
100
AcDbRegAppTableRecord
  2
ACAUTHENVIRON
 70
     0
  0
APPID
  5
AA90
330
9
100
AcDbSymbolTableRecord
100
AcDbRegAppTableRecord
  2
Acad_TC
 70
     0
  0
APPID
  5
AA9C
330
9
100
AcDbSymbolTableRecord
100
AcDbRegAppTableRecord
  2
AcDbBlockArrayActionTag
 70
     0
  0
APPID
  5
BEE4
330
9
100
AcDbSymbolTableRecord
100
AcDbRegAppTableRecord
  2
ACAD_DSTYLE_DIMTEXT_FILL
 70
     0
  0
APPID
  5
219E5
330
9
100
AcDbSymbolTableRecord
100
AcDbRegAppTableRecord
  2
AECLAY
 70
     0
  0
APPID
  5
26B46
330
9
100
AcDbSymbolTableRecord
100
AcDbRegAppTableRecord
  2
REVIT
 70
     0
  0
APPID
  5
280A5
330
9
100
AcDbSymbolTableRecord
100
AcDbRegAppTableRecord
  2
HATCHBACKGROUNDCOLOR
 70
     0
  0
APPID
  5
29EE0
330
9
100
AcDbSymbolTableRecord
100
AcDbRegAppTableRecord
  2
ACAD_STEPID
 70
     0
  0
APPID
  5
29EE1
330
9
100
AcDbSymbolTableRecord
100
AcDbRegAppTableRecord
  2
AcLayerTools
 70
     0
  0
APPID
  5
4D86C
330
9
100
AcDbSymbolTableRecord
100
AcDbRegAppTableRecord
  2
PE_URL
 70
     0
  0
APPID
  5
81F8A
330
9
100
AcDbSymbolTableRecord
100
AcDbRegAppTableRecord
  2
DCO15
 70
     0
  0
ENDTAB
  0
TABLE
  2
DIMSTYLE
  5
A
330
0
100
AcDbSymbolTable
 70
     3
100
AcDbDimStyleTable
 71
     1
340
27
  0
DIMSTYLE
105
27
330
A
100
AcDbSymbolTableRecord
100
AcDbDimStyleTableRecord
  2
Standard
 70
     0
340
11
  0
ENDTAB
  0
TABLE
  2
BLOCK_RECORD
  5
1
330
0
100
AcDbSymbolTable
 70
     3
  0
BLOCK_RECORD
  5
1F
102
{ACAD_XDICTIONARY
360
15D
102
}
330
1
100
AcDbSymbolTableRecord
100
AcDbBlockTableRecord
  2
*Model_Space
340
22
 70
     0
280
     1
281
     0
  0
BLOCK_RECORD
  5
58
330
1
100
AcDbSymbolTableRecord
100
AcDbBlockTableRecord
  2
*Paper_Space
340
59
 70
     0
280
     1
281
     0
  0
BLOCK_RECORD
  5
5D
330
1
100
AcDbSymbolTableRecord
100
AcDbBlockTableRecord
  2
*Paper_Space0
340
5E
 70
     0
280
     1
281
     0
  0
ENDTAB
  0
ENDSEC
  0
SECTION
  2
BLOCKS
  0
BLOCK
  5
20
330
1F
100
AcDbEntity
  8
0
100
AcDbBlockBegin
  2
*Model_Space
 70
     0
 10
0.0
 20
0.0
 30
0.0
  3
*Model_Space
  1

  0
ENDBLK
  5
21
330
1F
100
AcDbEntity
  8
0
100
AcDbBlockEnd
  0
BLOCK
  5
5A
330
58
100
AcDbEntity
 67
     1
  8
0
100
AcDbBlockBegin
  2
*Paper_Space
 70
     0
 10
0.0
 20
0.0
 30
0.0
  3
*Paper_Space
  1

  0
ENDBLK
  5
5B
330
58
100
AcDbEntity
 67
     1
  8
0
100
AcDbBlockEnd
  0
BLOCK
  5
5F
330
5D
100
AcDbEntity
 67
     1
  8
0
100
AcDbBlockBegin
  2
*Paper_Space0
 70
     0
 10
0.0
 20
0.0
 30
0.0
  3
*Paper_Space0
  1

  0
ENDBLK
  5
60
330
5D
100
AcDbEntity
 67
     1
  8
0
100
AcDbBlockEnd
  0
ENDSEC
  0
SECTION
  2
ENTITIES
  0
LINE
  5
834CF
330
1F
100
AcDbEntity
  8
freecads.com
100
AcDbLine
 10
169221.3783686991
 20
106816.5243712842
 30
0.0
 11
169189.7696161158
 21
106827.7564884114
 31
0.0
  0
LINE
  5
834D0
330
1F
100
AcDbEntity
  8
freecads.com
100
AcDbLine
 10
169204.2783354226
 20
106820.2660677528
 30
0.0
 11
169220.641728829
 21
106814.4513633967
 31
0.0
  0
LINE
  5
834D1
330
1F
100
AcDbEntity
  8
freecads.com
100
AcDbLine
 10
169189.0329762456
 20
106825.6834805239
 30
0.0
 11
169201.8722659479
 21
106821.1210604984
 31
0.0
  0
LINE
  5
834D2
330
1F
100
AcDbEntity
  8
freecads.com
100
AcDbLine
 10
169069.310545129
 20
106852.4588230233
 30
0.0
 11
169069.4341953477
 21
106852.6951783608
 31
0.0
  0
LINE
  5
834D3
330
1F
100
AcDbEntity
  8
freecads.com
100
AcDbLine
 10
169069.4341953477
 20
106852.6951783608
 30
0.0
 11
169069.535479119
 21
106852.8752607172
 31
0.0
  0
LINE
  5
834D4
330
1F
100
AcDbEntity
  8
freecads.com
100
AcDbLine
 10
169069.535479119
 20
106852.8752607172
 30
0.0
 11
169069.6376819365
 21
106853.0444255681
 31
0.0
  0
LINE
  5
834D5
330
1F
100
AcDbEntity
  8
freecads.com
100
AcDbLine
 10
169069.6376819365
 20
106853.0444255681
 30
0.0
 11
169069.7567611071
 21
106853.2339471419
 31
0.0
  0
LINE
  5
834D6
330
1F
100
AcDbEntity
  8
freecads.com
100
AcDbLine
 10
169069.7567611071
 20
106853.2339471419
 30
0.0
 11
169069.8912131293
 21
106853.4384246605
 31
0.0
  0
LINE
  5
834D7
330
1F
100
AcDbEntity
  8
freecads.com
100
AcDbLine
 10
169069.8912131293
 20
106853.4384246605
 30
0.0
 11
169070.0120950783
 21
106853.6122237815
 31
0.0
  0
LINE
  5
834D8
330
1F
100
AcDbEntity
  8
freecads.com
100
AcDbLine
 10
169070.0120950783
 20
106853.6122237815
 30
0.0
 11
169070.136900082
 21
106853.781905178
 31
0.0
  0
LINE
  5
834D9
330
1F
100
AcDbEntity
  8
freecads.com
100
AcDbLine
 10
169070.136900082
 20
106853.781905178
 30
0.0
 11
169070.2582770017
 21
106853.9401532766
 31
0.0
  0
LINE
  5
834DA
330
1F
100
AcDbEntity
  8
freecads.com
100
AcDbLine
 10
169070.2582770017
 20
106853.9401532766
 30
0.0
 11
169070.370061771
 21
106854.0812660925
 31
0.0
  0
LINE
  5
834DB
330
1F
100
AcDbEntity
  8
freecads.com
100
AcDbLine
 10
169070.370061771
 20
106854.0812660925
 30
0.0
 11
169070.4891811039
 21
106854.2241246278
 31
0.0
  0
LINE
  5
834DC
330
1F
100
AcDbEntity
  8
freecads.com
100
AcDbLine
 10
169070.4891811039
 20
106854.2241246278
 30
0.0
 11
169070.6495435831
 21
106854.405924276
 31
0.0
  0
LINE
  5
834DD
330
1F
100
AcDbEntity
  8
freecads.com
100
AcDbLine
 10
169143.8987634177
 20
106805.6090175838
 30
0.0
 11
169143.5629555005
 21
106801.7707155268
 31
0.0
  0
LINE
  5
834DE
330
1F
100
AcDbEntity
  8
freecads.com
100
AcDbLine
 10
169145.7582692395
 20
106801.6210972444
 30
0.0
 11
169146.12019482
 21
106805.7579255594
 31
0.0
  0
LINE
  5
834DF
330
1F
100
AcDbEntity
  8
freecads.com
100
AcDbLine
 10
169220.3938550387
 20
106811.0659312155
 30
0.0
 11
169219.0545098203
 21
106807.2968259655
 31
0.0
  0
LINE
  5
834E0
330
1F
100
AcDbEntity
  8
freecads.com
100
AcDbLine
 10
169221.1275177078
 20
106806.5601860953
 30
0.0
 11
169222.4668629263
 21
106810.3292913454
 31
0.0
  0
LINE
  5
834E1
330
1F
100
AcDbEntity
  8
freecads.com
100
AcDbLine
 10
169184.9791447911
 20
106827.4545795496
 30
0.0
 11
169147.4259451099
 21
106808.5057173251
 31
0.0
  0
LINE
  5
834E2
330
1F
100
AcDbEntity
  8
freecads.com
100
AcDbLine
 10
169148.4170162093
 20
106806.5415946009
 30
0.0
 11
169185.9702158906
 21
106825.4904568253
 31
0.0
  0
LINE
  5
834E3
330
1F
100
AcDbEntity
  8
freecads.com
100
AcDbLine
 10
169140.7873813987
 20
106808.8496856105
 30
0.0
 11
169091.3347353782
 21
106840.6062871137
 31
0.0
  0
LINE
  5
834E4
330
1F
100
AcDbEntity
  8
freecads.com
100
AcDbLine
 10
169090.1459795874
 20
106838.7551091995
 30
0.0
 11
169139.5986256078
 21
106806.9985076964
 31
0.0
  0
LINE
  5
834E5
330
1F
100
AcDbEntity
  8
freecads.com
100
AcDbLine
 10
169222.4668629263
 20
106810.3292913454
 30
0.0
 11
169223.2614327236
 21
106812.5653221712
 31
0.0
  0
LINE
  5
834E6
330
1F
100
AcDbEntity
  8
freecads.com
100
AcDbLine
 10
169221.1884248361
 20
106813.3019620413
 30
0.0
 11
169220.3938550387
 21
106811.0659312155
 31
0.0
  0
LINE
  5
834E7
330
1F
100
AcDbEntity
  8
freecads.com
100
AcDbLine
 10
169088.7146935636
 20
106845.4025254769
 30
0.0
 11
169088.714695957
 21
106848.3196423708
 31
0.0
  0
LINE
  5
834E8
330
1F
100
AcDbEntity
  8
freecads.com
100
AcDbLine
 10
169086.514695957
 20
106848.3196441758
 30
0.0
 11
169086.5146935636
 21
106845.402527282
 31
0.0
  0
LINE
  5
834E9
330
1F
100
AcDbEntity
  8
freecads.com
100
AcDbLine
 10
169067.7760726326
 20
106849.4543021854
 30
0.0
 11
169069.3104602163
 21
106852.458656723
 31
0.0
  0
LINE
  5
834EA
330
1F
100
AcDbEntity
  8
freecads.com
100
AcDbLine
 10
169067.3511944329
 20
106853.459295314
 30
0.0
 11
169065.8168068492
 21
106850.4549407764
 31
0.0
  0
LINE
  5
834EB
330
1F
100
AcDbEntity
  8
freecads.com
100
AcDbLine
 10
169105.2678493486
 20
106789.2196516422
 30
0.0
 11
169195.1189588512
 21
106789.2196516422
 31
0.0
  0
LINE
  5
834EC
330
1F
100
AcDbEntity
  8
freecads.com
100
AcDbLine
 10
169193.3348837046
 20
106797.4196516422
 30
0.0
 11
169107.0519244952
 21
106797.4196516422
 31
0.0
  0
LINE
  5
834ED
330
1F
100
AcDbEntity
  8
freecads.com
100
AcDbLine
 10
169225.5613816143
 20
106811.8519066544
 30
0.0
 11
169225.6372904163
 21
106811.8881335727
 31
0.0
  0
LINE
  5
834EE
330
1F
100
AcDbEntity
  8
freecads.com
100
AcDbLine
 10
169225.6372904163
 20
106811.8881335727
 30
0.0
 11
169225.755735074
 21
106811.9677816923
 31
0.0
  0
LINE
  5
834EF
330
1F
100
AcDbEntity
  8
freecads.com
100
AcDbLine
 10
169225.755735074
 20
106811.9677816923
 30
0.0
 11
169225.8560343336
 21
106812.0576642111
 31
0.0
  0
LINE
  5
834F0
330
1F
100
AcDbEntity
  8
freecads.com
100
AcDbLine
 10
169225.8560343336
 20
106812.0576642111
 30
0.0
 11
169225.9381596223
 21
106812.153234389
 31
0.0
  0
LINE
  5
834F1
330
1F
100
AcDbEntity
  8
freecads.com
100
AcDbLine
 10
169225.9381596223
 20
106812.153234389
 30
0.0
 11
169226.0025947096
 21
106812.2496476492
 31
0.0
  0
LINE
  5
834F2
330
1F
100
AcDbEntity
  8
freecads.com
100
AcDbLine
 10
169226.0025947096
 20
106812.2496476492
 30
0.0
 11
169226.0501133951
 21
106812.3408624637
 31
0.0
  0
LINE
  5
834F3
330
1F
100
AcDbEntity
  8
freecads.com
100
AcDbLine
 10
169226.0501133951
 20
106812.3408624637
 30
0.0
 11
169226.0819868354
 21
106812.4189035686
 31
0.0
  0
LINE
  5
834F4
330
1F
100
AcDbEntity
  8
freecads.com
100
AcDbLine
 10
169226.0819868354
 20
106812.4189035686
 30
0.0
 11
169226.1019536418
 21
106812.4801080814
 31
0.0
  0
LINE
  5
834F5
330
1F
100
AcDbEntity
  8
freecads.com
100
AcDbLine
 10
169226.1019536418
 20
106812.4801080814
 30
0.0
 11
169226.1152612617
 21
106812.5299742423
 31
0.0
  0
LINE
  5
834F6
330
1F
100
AcDbEntity
  8
freecads.com
100
AcDbLine
 10
169226.1152612617
 20
106812.5299742423
 30
0.0
 11
169226.125215194
 21
106812.5748734518
 31
0.0
  0
LINE
  5
834F7
330
1F
100
AcDbEntity
  8
freecads.com
100
AcDbLine
 10
169226.125215194
 20
106812.5748734518
 30
0.0
 11
169226.1321674133
 21
106812.6125181066
 31
0.0
  0
LINE
  5
834F8
330
1F
100
AcDbEntity
  8
freecads.com
100
AcDbLine
 10
169226.1258372445
 20
106812.578241711
 30
0.0
 11
169226.1280237681
 21
106812.5886550379
 31
0.0
  0
LINE
  5
834F9
330
1F
100
AcDbEntity
  8
freecads.com
100
AcDbLine
 10
169226.1280237681
 20
106812.5886550379
 30
0.0
 11
169226.1283188608
 21
106812.5903484945
 31
0.0
  0
LINE
  5
834FA
330
1F
100
AcDbEntity
  8
freecads.com
100
AcDbLine
 10
169143.572232124
 20
106801.7699047122
 30
0.0
 11
169143.5700518869
 21
106801.7724873431
 31
0.0
  0
LINE
  5
834FB
330
1F
100
AcDbEntity
  8
freecads.com
100
AcDbLine
 10
169143.5700518869
 20
106801.7724873431
 30
0.0
 11
169143.6233295945
 21
106801.7093969857
 31
0.0
  0
LINE
  5
834FC
330
1F
100
AcDbEntity
  8
freecads.com
100
AcDbLine
 10
169143.6233295945
 20
106801.7093969857
 30
0.0
 11
169143.7285016284
 21
106801.5849873479
 31
0.0
  0
LINE
  5
834FD
330
1F
100
AcDbEntity
  8
freecads.com
100
AcDbLine
 10
169143.7285016284
 20
106801.5849873479
 30
0.0
 11
169143.8353918341
 21
106801.4587270228
 31
0.0
  0
LINE
  5
834FE
330
1F
100
AcDbEntity
  8
freecads.com
100
AcDbLine
 10
169143.8353918341
 20
106801.4587270228
 30
0.0
 11
169143.9566384311
 21
106801.3157238242
 31
0.0
  0
LINE
  5
834FF
330
1F
100
AcDbEntity
  8
freecads.com
100
AcDbLine
 10
169143.9566384311
 20
106801.3157238242
 30
0.0
 11
169144.137925162
 21
106801.1023445204
 31
0.0
  0
LINE
  5
83500
330
1F
100
AcDbEntity
  8
freecads.com
100
AcDbLine
 10
169144.137925162
 20
106801.1023445204
 30
0.0
 11
169144.3300217618
 21
106800.8767930249
 31
0.0
  0
LINE
  5
83501
330
1F
100
AcDbEntity
  8
freecads.com
100
AcDbLine
 10
169144.3300217618
 20
106800.8767930249
 30
0.0
 11
169144.3947727258
 21
106800.8008956132
 31
0.0
  0
LINE
  5
83502
330
1F
100
AcDbEntity
  8
freecads.com
100
AcDbLine
 10
169144.7600588637
 20
106800.7689372172
 30
0.0
 11
169144.9804773195
 21
106800.9581501726
 31
0.0
  0
LINE
  5
83503
330
1F
100
AcDbEntity
  8
freecads.com
100
AcDbLine
 10
169144.9804773195
 20
106800.9581501726
 30
0.0
 11
169145.1922898495
 21
106801.1404237426
 31
0.0
  0
LINE
  5
83504
330
1F
100
AcDbEntity
  8
freecads.com
100
AcDbLine
 10
169145.1922898495
 20
106801.1404237426
 30
0.0
 11
169145.3503576846
 21
106801.2767427741
 31
0.0
  0
LINE
  5
83505
330
1F
100
AcDbEntity
  8
freecads.com
100
AcDbLine
 10
169145.3503576846
 20
106801.2767427741
 30
0.0
 11
169145.4940352075
 21
106801.4008655148
 31
0.0
  0
LINE
  5
83506
330
1F
100
AcDbEntity
  8
freecads.com
100
AcDbLine
 10
169145.4940352075
 20
106801.4008655148
 30
0.0
 11
169145.6671256497
 21
106801.5506761263
 31
0.0
  0
LINE
  5
83507
330
1F
100
AcDbEntity
  8
freecads.com
100
AcDbLine
 10
169145.6671256497
 20
106801.5506761263
 30
0.0
 11
169145.7462703238
 21
106801.6192771702
 31
0.0
  0
LINE
  5
83508
330
1F
100
AcDbEntity
  8
freecads.com
100
AcDbLine
 10
169145.7462703238
 20
106801.6192771702
 30
0.0
 11
169145.7492817441
 21
106801.6218886995
 31
0.0
  0
LINE
  5
83509
330
1F
100
AcDbEntity
  8
freecads.com
100
AcDbLine
 10
169071.3703606231
 20
106856.1071072111
 30
0.0
 11
169071.2321607577
 21
106855.6190195672
 31
0.0
  0
LINE
  5
8350A
330
1F
100
AcDbEntity
  8
freecads.com
100
AcDbLine
 10
169071.2321607577
 20
106855.6190195672
 30
0.0
 11
169071.1288193854
 21
106855.2208893484
 31
0.0
  0
LINE
  5
8350B
330
1F
100
AcDbEntity
  8
freecads.com
100
AcDbLine
 10
169071.1288193854
 20
106855.2208893484
 30
0.0
 11
169071.0931537788
 21
106855.0752061671
 31
0.0
  0
LINE
  5
8350C
330
1F
100
AcDbEntity
  8
freecads.com
100
AcDbLine
 10
169071.0931537788
 20
106855.0752061671
 30
0.0
 11
169071.0633300797
 21
106854.9496734412
 31
0.0
  0
LINE
  5
8350D
330
1F
100
AcDbEntity
  8
freecads.com
100
AcDbLine
 10
169071.0633300797
 20
106854.9496734412
 30
0.0
 11
169071.0374992756
 21
106854.8378459036
 31
0.0
  0
LINE
  5
8350E
330
1F
100
AcDbEntity
  8
freecads.com
100
AcDbLine
 10
169071.0374992756
 20
106854.8378459036
 30
0.0
 11
169071.0311701573
 21
106854.8099643219
 31
0.0
  0
LINE
  5
8350F
330
1F
100
AcDbEntity
  8
freecads.com
100
AcDbLine
 10
169072.2613641909
 20
106856.4175220525
 30
0.0
 11
169071.3703606231
 21
106856.1071072111
 31
0.0
  0
LINE
  5
83510
330
1F
100
AcDbEntity
  8
freecads.com
100
AcDbLine
 10
169072.8615071261
 20
106856.202665248
 30
0.0
 11
169072.8263877467
 21
106856.2156015101
 31
0.0
  0
LINE
  5
83511
330
1F
100
AcDbEntity
  8
freecads.com
100
AcDbLine
 10
169072.8263877467
 20
106856.2156015101
 30
0.0
 11
169072.704929968
 21
106856.2599767685
 31
0.0
  0
LINE
  5
83512
330
1F
100
AcDbEntity
  8
freecads.com
100
AcDbLine
 10
169072.704929968
 20
106856.2599767685
 30
0.0
 11
169072.4960582401
 21
106856.3350289512
 31
0.0
  0
LINE
  5
83513
330
1F
100
AcDbEntity
  8
freecads.com
100
AcDbLine
 10
169072.4960582401
 20
106856.3350289512
 30
0.0
 11
169072.2613641909
 21
106856.4175220525
 31
0.0
  0
LINE
  5
83514
330
1F
100
AcDbEntity
  8
freecads.com
100
AcDbLine
 10
169144.7424052372
 20
106806.368499116
 30
0.0
 11
169144.5327226282
 21
106806.1709130448
 31
0.0
  0
LINE
  5
83515
330
1F
100
AcDbEntity
  8
freecads.com
100
AcDbLine
 10
169144.5327226282
 20
106806.1709130448
 30
0.0
 11
169144.3324196656
 21
106805.9867789663
 31
0.0
  0
LINE
  5
83516
330
1F
100
AcDbEntity
  8
freecads.com
100
AcDbLine
 10
169144.3324196656
 20
106805.9867789663
 30
0.0
 11
169144.2073784984
 21
106805.8740447278
 31
0.0
  0
LINE
  5
83517
330
1F
100
AcDbEntity
  8
freecads.com
100
AcDbLine
 10
169144.2073784984
 20
106805.8740447278
 30
0.0
 11
169144.0951365538
 21
106805.7741971485
 31
0.0
  0
LINE
  5
83518
330
1F
100
AcDbEntity
  8
freecads.com
100
AcDbLine
 10
169144.0951365538
 20
106805.7741971485
 30
0.0
 11
169143.9562835437
 21
106805.652407415
 31
0.0
  0
LINE
  5
83519
330
1F
100
AcDbEntity
  8
freecads.com
100
AcDbLine
 10
169143.9562835437
 20
106805.652407415
 30
0.0
 11
169143.9012012672
 21
106805.6046046934
 31
0.0
  0
LINE
  5
8351A
330
1F
100
AcDbEntity
  8
freecads.com
100
AcDbLine
 10
169143.9012012672
 20
106805.6046046934
 30
0.0
 11
169143.905605871
 21
106805.6084189467
 31
0.0
  0
LINE
  5
8351B
330
1F
100
AcDbEntity
  8
freecads.com
100
AcDbLine
 10
169145.5293474022
 20
106806.2996505977
 30
0.0
 11
169144.7424052372
 21
106806.368499116
 31
0.0
  0
LINE
  5
8351C
330
1F
100
AcDbEntity
  8
freecads.com
100
AcDbLine
 10
169146.1144555396
 20
106805.7584276814
 30
0.0
 11
169146.1189699986
 21
106805.7543628098
 31
0.0
  0
LINE
  5
8351D
330
1F
100
AcDbEntity
  8
freecads.com
100
AcDbLine
 10
169146.1189699986
 20
106805.7543628098
 30
0.0
 11
169146.0705138176
 21
106805.7980232974
 31
0.0
  0
LINE
  5
8351E
330
1F
100
AcDbEntity
  8
freecads.com
100
AcDbLine
 10
169146.0705138176
 20
106805.7980232974
 30
0.0
 11
169145.9557345805
 21
106805.9022291891
 31
0.0
  0
LINE
  5
8351F
330
1F
100
AcDbEntity
  8
freecads.com
100
AcDbLine
 10
169145.9557345805
 20
106805.9022291891
 30
0.0
 11
169145.771766542
 21
106806.0716421328
 31
0.0
  0
LINE
  5
83520
330
1F
100
AcDbEntity
  8
freecads.com
100
AcDbLine
 10
169145.771766542
 20
106806.0716421328
 30
0.0
 11
169145.5293474022
 21
106806.2996505977
 31
0.0
  0
LINE
  5
83521
330
1F
100
AcDbEntity
  8
freecads.com
100
AcDbLine
 10
169144.7600588637
 20
106800.7689372172
 30
0.0
 11
169144.3947727258
 21
106800.8008956132
 31
0.0
  0
LINE
  5
83522
330
1F
100
AcDbEntity
  8
freecads.com
100
AcDbLine
 10
169190.177526948
 20
106811.9315546046
 30
0.0
 11
169196.8659906487
 21
106816.101701849
 31
0.0
  0
LINE
  5
83523
330
1F
100
AcDbEntity
  8
freecads.com
100
AcDbLine
 10
169198.3105299032
 20
106785.1196516422
 30
0.0
 11
169196.0109964244
 21
106785.1196516422
 31
0.0
  0
LINE
  5
83524
330
1F
100
AcDbEntity
  8
freecads.com
100
AcDbLine
 10
169196.0109964244
 20
106785.1196516422
 30
0.0
 11
169190.177526948
 21
106811.9315546046
 31
0.0
  0
LINE
  5
83525
330
1F
100
AcDbEntity
  8
freecads.com
100
AcDbLine
 10
169196.8659906487
 20
106816.101701849
 30
0.0
 11
169198.3105299032
 21
106785.1196516422
 31
0.0
  0
LINE
  5
83526
330
1F
100
AcDbEntity
  8
freecads.com
100
AcDbLine
 10
169102.2938374946
 20
106785.1095079364
 30
0.0
 11
169104.3758117753
 21
106785.1095079364
 31
0.0
  0
LINE
  5
83527
330
1F
100
AcDbEntity
  8
freecads.com
100
AcDbLine
 10
169103.7550213334
 20
106816.44854626
 30
0.0
 11
169102.2938374946
 21
106785.1095079364
 31
0.0
  0
LINE
  5
83528
330
1F
100
AcDbEntity
  8
freecads.com
100
AcDbLine
 10
169110.2113884704
 20
106811.9310961368
 30
0.0
 11
169103.7550213334
 21
106816.44854626
 31
0.0
  0
LINE
  5
83529
330
1F
100
AcDbEntity
  8
freecads.com
100
AcDbLine
 10
169104.3758117753
 20
106785.1095079364
 30
0.0
 11
169110.2113884704
 21
106811.9310961368
 31
0.0
  0
LINE
  5
8352A
330
1F
100
AcDbEntity
  8
freecads.com
100
AcDbLine
 10
169224.7973016829
 20
106811.8073787907
 30
0.0
 11
169224.4122735362
 21
106811.9441978958
 31
0.0
  0
LINE
  5
8352B
330
1F
100
AcDbEntity
  8
freecads.com
100
AcDbLine
 10
169223.7551425813
 20
106813.0130911034
 30
0.0
 11
169223.7591374532
 21
106813.0443406338
 31
0.0
  0
LINE
  5
8352C
330
1F
100
AcDbEntity
  8
freecads.com
100
AcDbLine
 10
169223.7591374532
 20
106813.0443406338
 30
0.0
 11
169223.7690157763
 21
106813.1387726179
 31
0.0
  0
LINE
  5
8352D
330
1F
100
AcDbEntity
  8
freecads.com
100
AcDbLine
 10
169223.7690157763
 20
106813.1387726179
 30
0.0
 11
169223.7788849109
 21
106813.2688384152
 31
0.0
  0
LINE
  5
8352E
330
1F
100
AcDbEntity
  8
freecads.com
100
AcDbLine
 10
169223.7788849109
 20
106813.2688384152
 30
0.0
 11
169223.7847833989
 21
106813.4463345724
 31
0.0
  0
LINE
  5
8352F
330
1F
100
AcDbEntity
  8
freecads.com
100
AcDbLine
 10
169223.7847833989
 20
106813.4463345724
 30
0.0
 11
169223.7820906201
 21
106813.6268195327
 31
0.0
  0
LINE
  5
83530
330
1F
100
AcDbEntity
  8
freecads.com
100
AcDbLine
 10
169223.7820906201
 20
106813.6268195327
 30
0.0
 11
169223.7679300871
 21
106813.8363467086
 31
0.0
  0
LINE
  5
83531
330
1F
100
AcDbEntity
  8
freecads.com
100
AcDbLine
 10
169223.7679300871
 20
106813.8363467086
 30
0.0
 11
169223.737535994
 21
106814.0715188086
 31
0.0
  0
LINE
  5
83532
330
1F
100
AcDbEntity
  8
freecads.com
100
AcDbLine
 10
169223.737535994
 20
106814.0715188086
 30
0.0
 11
169223.6881583797
 21
106814.32260941
 31
0.0
  0
LINE
  5
83533
330
1F
100
AcDbEntity
  8
freecads.com
100
AcDbLine
 10
169223.6881583797
 20
106814.32260941
 30
0.0
 11
169223.5595484578
 21
106814.7535148801
 31
0.0
  0
LINE
  5
83534
330
1F
100
AcDbEntity
  8
freecads.com
100
AcDbLine
 10
169067.673284251
 20
106856.4063628385
 30
0.0
 11
169067.364583403
 21
106856.6626269898
 31
0.0
  0
LINE
  5
83535
330
1F
100
AcDbEntity
  8
freecads.com
100
AcDbLine
 10
169067.2848894767
 20
106858.127659629
 30
0.0
 11
169067.3040420999
 21
106858.1474352183
 31
0.0
  0
LINE
  5
83536
330
1F
100
AcDbEntity
  8
freecads.com
100
AcDbLine
 10
169067.3040420999
 20
106858.1474352183
 30
0.0
 11
169067.3604165601
 21
106858.2050684674
 31
0.0
  0
LINE
  5
83537
330
1F
100
AcDbEntity
  8
freecads.com
100
AcDbLine
 10
169067.3604165601
 20
106858.2050684674
 30
0.0
 11
169067.4527815925
 21
106858.298148025
 31
0.0
  0
LINE
  5
83538
330
1F
100
AcDbEntity
  8
freecads.com
100
AcDbLine
 10
169067.4527815925
 20
106858.298148025
 30
0.0
 11
169067.578312019
 21
106858.4219063917
 31
0.0
  0
LINE
  5
83539
330
1F
100
AcDbEntity
  8
freecads.com
100
AcDbLine
 10
169067.578312019
 20
106858.4219063917
 30
0.0
 11
169067.7390907594
 21
106858.5759739713
 31
0.0
  0
LINE
  5
8353A
330
1F
100
AcDbEntity
  8
freecads.com
100
AcDbLine
 10
169067.7390907594
 20
106858.5759739713
 30
0.0
 11
169067.9278232688
 21
106858.7508187196
 31
0.0
  0
LINE
  5
8353B
330
1F
100
AcDbEntity
  8
freecads.com
100
AcDbLine
 10
169067.9278232688
 20
106858.7508187196
 30
0.0
 11
169068.1553799296
 21
106858.9532724393
 31
0.0
  0
LINE
  5
8353C
330
1F
100
AcDbEntity
  8
freecads.com
100
AcDbLine
 10
169068.1553799296
 20
106858.9532724393
 30
0.0
 11
169068.4045243459
 21
106859.1652409548
 31
0.0
  0
LINE
  5
8353D
330
1F
100
AcDbEntity
  8
freecads.com
100
AcDbLine
 10
169068.4045243459
 20
106859.1652409548
 30
0.0
 11
169068.6557435051
 21
106859.3690729597
 31
0.0
  0
LINE
  5
8353E
330
1F
100
AcDbEntity
  8
freecads.com
100
AcDbLine
 10
169068.6557435051
 20
106859.3690729597
 30
0.0
 11
169068.9165294017
 21
106859.5709255788
 31
0.0
  0
LINE
  5
8353F
330
1F
100
AcDbEntity
  8
freecads.com
100
AcDbLine
 10
169070.4324588568
 20
106857.7078551485
 30
0.0
 11
169070.1968233845
 21
106857.5278610363
 31
0.0
  0
LINE
  5
83540
330
1F
100
AcDbEntity
  8
freecads.com
100
AcDbLine
 10
169070.1968233845
 20
106857.5278610363
 30
0.0
 11
169069.9721076153
 21
106857.3472692003
 31
0.0
  0
LINE
  5
83541
330
1F
100
AcDbEntity
  8
freecads.com
100
AcDbLine
 10
169069.9721076153
 20
106857.3472692003
 30
0.0
 11
169069.7645181603
 21
106857.1719981401
 31
0.0
  0
LINE
  5
83542
330
1F
100
AcDbEntity
  8
freecads.com
100
AcDbLine
 10
169069.7645181603
 20
106857.1719981401
 30
0.0
 11
169069.5782446007
 21
106857.0075760283
 31
0.0
  0
LINE
  5
83543
330
1F
100
AcDbEntity
  8
freecads.com
100
AcDbLine
 10
169069.5782446007
 20
106857.0075760283
 30
0.0
 11
169069.4146532835
 21
106856.8571675673
 31
0.0
  0
LINE
  5
83544
330
1F
100
AcDbEntity
  8
freecads.com
100
AcDbLine
 10
169069.4146532835
 20
106856.8571675673
 30
0.0
 11
169069.2787513748
 21
106856.727767112
 31
0.0
  0
LINE
  5
83545
330
1F
100
AcDbEntity
  8
freecads.com
100
AcDbLine
 10
169069.2787513748
 20
106856.727767112
 30
0.0
 11
169069.1661025582
 21
106856.6173056319
 31
0.0
  0
LINE
  5
83546
330
1F
100
AcDbEntity
  8
freecads.com
100
AcDbLine
 10
169069.1661025582
 20
106856.6173056319
 30
0.0
 11
169069.0867923226
 21
106856.537681884
 31
0.0
  0
LINE
  5
83547
330
1F
100
AcDbEntity
  8
freecads.com
100
AcDbLine
 10
169069.0867923226
 20
106856.537681884
 30
0.0
 11
169069.0433088805
 21
106856.493407937
 31
0.0
  0
LINE
  5
83548
330
1F
100
AcDbEntity
  8
freecads.com
100
AcDbLine
 10
169069.0433088805
 20
106856.493407937
 30
0.0
 11
169069.0287627446
 21
106856.4784581821
 31
0.0
  0
LINE
  5
83549
330
1F
100
AcDbEntity
  8
freecads.com
100
AcDbLine
 10
169225.9346816218
 20
106815.2111856813
 30
0.0
 11
169226.0588218974
 21
106814.7145604248
 31
0.0
  0
LINE
  5
8354A
330
1F
100
AcDbEntity
  8
freecads.com
100
AcDbLine
 10
169226.0588218974
 20
106814.7145604248
 30
0.0
 11
169226.1401989912
 21
106814.219392733
 31
0.0
  0
LINE
  5
8354B
330
1F
100
AcDbEntity
  8
freecads.com
100
AcDbLine
 10
169226.1401989912
 20
106814.219392733
 30
0.0
 11
169226.1746061564
 21
106813.8341026729
 31
0.0
  0
LINE
  5
8354C
330
1F
100
AcDbEntity
  8
freecads.com
100
AcDbLine
 10
169226.1746061564
 20
106813.8341026729
 30
0.0
 11
169226.184948845
 21
106813.4741850696
 31
0.0
  0
LINE
  5
8354D
330
1F
100
AcDbEntity
  8
freecads.com
100
AcDbLine
 10
169226.184948845
 20
106813.4741850696
 30
0.0
 11
169226.178497981
 21
106813.2027019061
 31
0.0
  0
LINE
  5
8354E
330
1F
100
AcDbEntity
  8
freecads.com
100
AcDbLine
 10
169226.178497981
 20
106813.2027019061
 30
0.0
 11
169226.1634420992
 21
106812.9699889006
 31
0.0
  0
LINE
  5
8354F
330
1F
100
AcDbEntity
  8
freecads.com
100
AcDbLine
 10
169226.1634420992
 20
106812.9699889006
 30
0.0
 11
169226.1451818817
 21
106812.7862176085
 31
0.0
  0
LINE
  5
83550
330
1F
100
AcDbEntity
  8
freecads.com
100
AcDbLine
 10
169226.1451818817
 20
106812.7862176085
 30
0.0
 11
169226.1296991347
 21
106812.662649199
 31
0.0
  0
LINE
  5
83551
330
1F
100
AcDbEntity
  8
freecads.com
100
AcDbLine
 10
169226.1296991347
 20
106812.662649199
 30
0.0
 11
169226.1274923818
 21
106812.6469199494
 31
0.0
  0
LINE
  5
83552
330
1F
100
AcDbEntity
  8
freecads.com
100
AcDbLine
 10
169141.0035188152
 20
106809.1862634131
 30
0.0
 11
169091.5508727947
 21
106840.9428649162
 31
0.0
  0
LINE
  5
83553
330
1F
100
AcDbEntity
  8
freecads.com
100
AcDbLine
 10
169184.7989500458
 20
106827.8116927722
 30
0.0
 11
169147.2457503645
 21
106808.8628305477
 31
0.0
  0
LINE
  5
83554
330
1F
100
AcDbEntity
  8
freecads.com
100
AcDbLine
 10
169146.1645818925
 20
106811.0055098832
 30
0.0
 11
169183.7177815737
 21
106829.9543721077
 31
0.0
  0
LINE
  5
83555
330
1F
100
AcDbEntity
  8
freecads.com
100
AcDbLine
 10
169092.8476972938
 20
106842.9623317316
 30
0.0
 11
169142.3003433143
 21
106811.2057302285
 31
0.0
  0
LINE
  5
83556
330
1F
100
AcDbEntity
  8
freecads.com
100
AcDbLine
 10
169221.3238479585
 20
106816.9682490702
 30
0.0
 11
169189.9035506376
 21
106828.1333989364
 31
0.0
  0
LINE
  5
83557
330
1F
100
AcDbEntity
  8
freecads.com
100
AcDbLine
 10
169190.7071577686
 20
106830.3948620864
 30
0.0
 11
169222.1274550895
 21
106819.2297122202
 31
0.0
  0
LINE
  5
83558
330
1F
100
AcDbEntity
  8
freecads.com
100
AcDbLine
 10
169091.514695957
 20
106848.3196400734
 30
0.0
 11
169091.5146948066
 21
106846.9174336429
 31
0.0
  0
LINE
  5
83559
330
1F
100
AcDbEntity
  8
freecads.com
100
AcDbLine
 10
169089.1146936762
 20
106845.5396930541
 30
0.0
 11
169089.114695957
 21
106848.3196420426
 31
0.0
  0
LINE
  5
8355A
330
1F
100
AcDbEntity
  8
freecads.com
100
AcDbLine
 10
169226.121752906
 20
106812.6060102273
 30
0.0
 11
169226.1253302367
 21
106812.6307335315
 31
0.0
  0
ARC
  5
8355B
330
1F
100
AcDbEntity
  8
freecads.com
100
AcDbCircle
 10
169149.6856223316
 20
106884.469532473
 30
0.0
 40
82.5835327715689
100
AcDbArc
 50
241.4456886679708
 51
265.7724063012584
  0
ARC
  5
8355C
330
1F
100
AcDbEntity
  8
freecads.com
100
AcDbCircle
 10
169149.6856223316
 20
106884.469532473
 30
0.0
 40
82.07602983480304
100
AcDbArc
 50
212.3768344187692
 51
235.9711404757353
  0
ARC
  5
8355D
330
1F
100
AcDbEntity
  8
freecads.com
100
AcDbCircle
 10
169149.6856223316
 20
106884.469532473
 30
0.0
 40
82.07602983480304
100
AcDbArc
 50
200.2006851131008
 51
212.3768344187692
  0
ARC
  5
8355E
330
1F
100
AcDbEntity
  8
freecads.com
100
AcDbCircle
 10
169149.6856223316
 20
106884.469532473
 30
0.0
 40
82.07602983480304
100
AcDbArc
 50
299.1616382567991
 51
309.4817897185019
  0
ARC
  5
8355F
330
1F
100
AcDbEntity
  8
freecads.com
100
AcDbCircle
 10
169149.6856223316
 20
106884.469532473
 30
0.0
 40
82.07602983480304
100
AcDbArc
 50
267.2798418430831
 51
299.1616382567991
  0
ARC
  5
83560
330
1F
100
AcDbEntity
  8
freecads.com
100
AcDbCircle
 10
169149.6856223316
 20
106884.469532473
 30
0.0
 40
84.27602983480305
100
AcDbArc
 50
200.6607786585516
 51
236.8799441749522
  0
ARC
  5
83561
330
1F
100
AcDbEntity
  8
freecads.com
100
AcDbCircle
 10
169149.6856223316
 20
106884.469532473
 30
0.0
 40
84.27602983480298
100
AcDbArc
 50
241.8793515426044
 51
298.9229896588549
  0
ARC
  5
83562
330
1F
100
AcDbEntity
  8
freecads.com
100
AcDbCircle
 10
169149.6856223316
 20
106884.469532473
 30
0.0
 40
84.27602983480303
100
AcDbArc
 50
304.09844401281
 51
310.3747766550963
  0
ARC
  5
83563
330
1F
100
AcDbEntity
  8
freecads.com
100
AcDbCircle
 10
169077.414695957
 20
106848.3196516422
 30
0.0
 40
9.099999999999994
100
AcDbArc
 50
90.0
 51
120.0105011463917
  0
ARC
  5
83564
330
1F
100
AcDbEntity
  8
freecads.com
100
AcDbCircle
 10
169077.414695957
 20
106848.3196516422
 30
0.0
 40
9.100000066756074
100
AcDbArc
 50
134.5270673590327
 51
138.0238532774096
  0
ARC
  5
83565
330
1F
100
AcDbEntity
  8
freecads.com
100
AcDbCircle
 10
169077.414695957
 20
106848.3196516422
 30
0.0
 40
9.099999999999994
100
AcDbArc
 50
0.0
 51
90.0
  0
ARC
  5
83566
330
1F
100
AcDbEntity
  8
freecads.com
100
AcDbCircle
 10
169077.414695957
 20
106848.3196516422
 30
0.0
 40
11.30000000000002
100
AcDbArc
 50
0.0
 51
138.0238532774096
  0
ARC
  5
83567
330
1F
100
AcDbEntity
  8
freecads.com
100
AcDbCircle
 10
169144.4076831254
 20
106814.4873638035
 30
0.0
 40
6.700000000000025
100
AcDbArc
 50
237.2929717471448
 51
296.7749248881948
  0
ARC
  5
83568
330
1F
100
AcDbEntity
  8
freecads.com
100
AcDbCircle
 10
169144.4076831254
 20
106814.4873638035
 30
0.0
 40
8.90000000000003
100
AcDbArc
 50
237.2929717471448
 51
266.7636646192478
  0
ARC
  5
83569
330
1F
100
AcDbEntity
  8
freecads.com
100
AcDbCircle
 10
169144.4076831254
 20
106814.4873638035
 30
0.0
 40
8.90000000000006
100
AcDbArc
 50
281.0624709275576
 51
296.7749248881948
  0
ARC
  5
8356A
330
1F
100
AcDbEntity
  8
freecads.com
100
AcDbCircle
 10
169220.3403761549
 20
106813.6033147154
 30
0.0
 40
0.9000000000000389
100
AcDbArc
 50
340.4374159770832
 51
70.43741597786885
  0
ARC
  5
8356B
330
1F
100
AcDbEntity
  8
freecads.com
100
AcDbCircle
 10
169220.3403761549
 20
106813.6033147154
 30
0.0
 40
3.099999999999965
100
AcDbArc
 50
340.4374159770832
 51
70.43741597786885
  0
ARC
  5
8356C
330
1F
100
AcDbEntity
  8
freecads.com
100
AcDbCircle
 10
169187.7271146577
 20
106822.008602905
 30
0.0
 40
3.899999999999984
100
AcDbArc
 50
90.0
 51
116.7749248881948
  0
ARC
  5
8356D
330
1F
100
AcDbEntity
  8
freecads.com
100
AcDbCircle
 10
169187.7271146577
 20
106822.008602905
 30
0.0
 40
3.900000000000003
100
AcDbArc
 50
70.43741597786885
 51
90.0
  0
ARC
  5
8356E
330
1F
100
AcDbEntity
  8
freecads.com
100
AcDbCircle
 10
169187.7271146577
 20
106822.008602905
 30
0.0
 40
6.100000000000002
100
AcDbArc
 50
70.43741597786885
 51
116.7749248881948
  0
ARC
  5
8356F
330
1F
100
AcDbEntity
  8
freecads.com
100
AcDbCircle
 10
169094.4146935636
 20
106845.4025208002
 30
0.0
 40
5.700000000000064
100
AcDbArc
 50
203.0967272872859
 51
237.2929717471448
  0
ARC
  5
83570
330
1F
100
AcDbEntity
  8
freecads.com
100
AcDbCircle
 10
169094.4146935636
 20
106845.4025208002
 30
0.0
 40
5.700000000000034
100
AcDbArc
 50
180.0
 51
180.9250620992886
  0
ARC
  5
83571
330
1F
100
AcDbEntity
  8
freecads.com
100
AcDbCircle
 10
169094.4146935636
 20
106845.4025208002
 30
0.0
 40
7.900000000000049
100
AcDbArc
 50
180.0
 51
189.4282488193906
  0
ARC
  5
83572
330
1F
100
AcDbEntity
  8
freecads.com
100
AcDbCircle
 10
169094.4146935636
 20
106845.4025208002
 30
0.0
 40
7.900000000000062
100
AcDbArc
 50
204.985149952374
 51
237.2929717471448
  0
ARC
  5
83573
330
1F
100
AcDbEntity
  8
freecads.com
100
AcDbCircle
 10
169220.0910137641
 20
106806.9285060304
 30
0.0
 40
1.100000000000048
100
AcDbArc
 50
160.4374159770832
 51
340.4374159770832
  0
ARC
  5
83574
330
1F
100
AcDbEntity
  8
freecads.com
100
AcDbCircle
 10
169066.7964397409
 20
106849.9546214809
 30
0.0
 40
1.099999999999986
100
AcDbArc
 50
152.9456351320773
 51
332.9456351320774
  0
ARC
  5
83575
330
1F
100
AcDbEntity
  8
freecads.com
100
AcDbCircle
 10
169224.7470179902
 20
106812.8865068422
 30
0.0
 40
1.000000000000089
100
AcDbArc
 50
213.7685298804317
 51
250.4430009246648
  0
ARC
  5
83576
330
1F
100
AcDbEntity
  8
freecads.com
100
AcDbCircle
 10
169068.0033154682
 20
106857.4320562257
 30
0.0
 40
1.000000000000031
100
AcDbArc
 50
135.9246798230001
 51
230.3026623637972
  0
ARC
  5
83577
330
1F
100
AcDbEntity
  8
freecads.com
100
AcDbCircle
 10
169068.3120163161
 20
106857.1757920744
 30
0.0
 40
0.9999999999999412
100
AcDbArc
 50
230.3026623637972
 51
271.8474904888856
  0
ARC
  5
83578
330
1F
100
AcDbEntity
  8
freecads.com
100
AcDbCircle
 10
169225.1321379875
 20
106812.7496551033
 30
0.0
 40
1.000000000000003
100
AcDbArc
 50
250.4374159778688
 51
295.552628297239
  0
ARC
  5
83579
330
1F
100
AcDbEntity
  8
freecads.com
100
AcDbCircle
 10
169144.4076831254
 20
106814.4873638035
 30
0.0
 40
6.299999999999981
100
AcDbArc
 50
237.2929717471448
 51
296.7749248881948
  0
ARC
  5
8357A
330
1F
100
AcDbEntity
  8
freecads.com
100
AcDbCircle
 10
169144.4076831254
 20
106814.4873638035
 30
0.0
 40
3.900000000000026
100
AcDbArc
 50
237.2929717471448
 51
296.7749248881948
  0
ARC
  5
8357B
330
1F
100
AcDbEntity
  8
freecads.com
100
AcDbCircle
 10
169220.0849536314
 20
106813.4818267139
 30
0.0
 40
3.699999999999964
100
AcDbArc
 50
20.10242888539144
 51
70.43741597786885
  0
ARC
  5
8357C
330
1F
100
AcDbEntity
  8
freecads.com
100
AcDbCircle
 10
169220.0849536314
 20
106813.4818267139
 30
0.0
 40
6.099999999999985
100
AcDbArc
 50
16.46929504947178
 51
70.43741597786885
  0
ARC
  5
8357D
330
1F
100
AcDbEntity
  8
freecads.com
100
AcDbCircle
 10
169187.7271146577
 20
106822.008602905
 30
0.0
 40
6.500000000000032
100
AcDbArc
 50
70.43741597786885
 51
116.7749248881948
  0
ARC
  5
8357E
330
1F
100
AcDbEntity
  8
freecads.com
100
AcDbCircle
 10
169187.7271146577
 20
106822.008602905
 30
0.0
 40
8.900000000000027
100
AcDbArc
 50
70.43741597786885
 51
116.7749248881948
  0
ARC
  5
8357F
330
1F
100
AcDbEntity
  8
freecads.com
100
AcDbCircle
 10
169094.4146935636
 20
106845.4025208002
 30
0.0
 40
2.900000000000022
100
AcDbArc
 50
196.4778096979664
 51
237.2929717471448
  0
ARC
  5
83580
330
1F
100
AcDbEntity
  8
freecads.com
100
AcDbCircle
 10
169094.4146935636
 20
106845.4025208002
 30
0.0
 40
5.300000000000033
100
AcDbArc
 50
202.5837557398753
 51
237.2929717471448
  0
ARC
  5
83581
330
1F
100
AcDbEntity
  8
freecads.com
100
AcDbCircle
 10
169077.414695957
 20
106848.3196516422
 30
0.0
 40
11.70000000000001
100
AcDbArc
 50
0.0
 51
126.6390860007521
  0
ARC
  5
83582
330
1F
100
AcDbEntity
  8
freecads.com
100
AcDbCircle
 10
169077.414695957
 20
106848.3196516422
 30
0.0
 40
14.10000000000001
100
AcDbArc
 50
0.0
 51
127.0640083249876
  0
ARC
  5
83583
330
1F
100
AcDbEntity
  8
freecads.com
100
AcDbCircle
 10
169098.4089138138
 20
106849.7406257889
 30
0.0
 40
6.500000000000028
100
AcDbArc
 50
219.6246801446825
 51
90.0
  0
ARC
  5
83584
330
1F
100
AcDbEntity
  8
freecads.com
100
AcDbCircle
 10
169098.4089138138
 20
106849.7406257889
 30
0.0
 40
6.500000000000028
100
AcDbArc
 50
90.0
 51
201.1520706673566
  0
ARC
  5
83585
330
1F
100
AcDbEntity
  8
freecads.com
100
AcDbCircle
 10
169077.414695957
 20
106848.3196516422
 30
0.0
 40
11.30000000000002
100
AcDbArc
 50
138.0238532774096
 51
152.9456351320773
  0
ARC
  5
83586
330
1F
100
AcDbEntity
  8
freecads.com
100
AcDbCircle
 10
169068.3078304065
 20
106857.3055636912
 30
0.0
 40
1.129839109562601
100
AcDbArc
 50
271.8474904888856
 51
329.2430572712703
  0
ARC
  5
83587
330
1F
100
AcDbEntity
  8
freecads.com
100
AcDbCircle
 10
169094.4146935636
 20
106845.4025208002
 30
0.0
 40
7.900000000000062
100
AcDbArc
 50
189.4282488193906
 51
204.985149952374
  0
ARC
  5
83588
330
1F
100
AcDbEntity
  8
freecads.com
100
AcDbCircle
 10
169094.4146935636
 20
106845.4025208002
 30
0.0
 40
5.700000000000043
100
AcDbArc
 50
180.0
 51
203.0967272872859
  0
ARC
  5
83589
330
1F
100
AcDbEntity
  8
freecads.com
100
AcDbCircle
 10
169095.1248051482
 20
106845.539688123
 30
0.0
 40
6.010111472042666
100
AcDbArc
 50
180.0
 51
201.1912191026937
  0
ARC
  5
8358A
330
1F
100
AcDbEntity
  8
freecads.com
100
AcDbCircle
 10
169114.5112761136
 20
106846.9174147747
 30
0.0
 40
22.99658130700264
100
AcDbArc
 50
180.0
 51
185.8338396671532
  0
ARC
  5
8358B
330
1F
100
AcDbEntity
  8
freecads.com
100
AcDbCircle
 10
169098.4089138138
 20
106849.7406257889
 30
0.0
 40
6.500000000000008
100
AcDbArc
 50
201.1520706673566
 51
219.6246801446825
  0
ARC
  5
8358C
330
1F
100
AcDbEntity
  8
freecads.com
100
AcDbCircle
 10
169224.7467481386
 20
106812.8863264069
 30
0.0
 40
0.9996753820708308
100
AcDbArc
 50
172.7149461079429
 51
213.7685298804317
  0
ARC
  5
8358D
330
1F
100
AcDbEntity
  8
freecads.com
100
AcDbCircle
 10
169202.7918671188
 20
106819.895942326
 30
0.0
 40
1.531855361956351
100
AcDbArc
 50
13.98211731558602
 51
126.8927146389209
  0
LINE
  5
8358E
330
1F
100
AcDbEntity
  8
freecads.com
100
AcDbLine
 10
169303.8555906758
 20
106856.1827928971
 30
0.0
 11
169353.6598519828
 21
106856.1827928971
 31
0.0
  0
LINE
  5
8358F
330
1F
100
AcDbEntity
  8
freecads.com
100
AcDbLine
 10
169301.1840264053
 20
106793.5874944756
 30
0.0
 11
169356.5598519828
 21
106793.5874944756
 31
0.0
  0
LINE
  5
83590
330
1F
100
AcDbEntity
  8
freecads.com
100
AcDbLine
 10
169302.450642315
 20
106852.2109345587
 30
0.0
 11
169302.6912480924
 21
106851.8404249359
 31
0.0
  0
LINE
  5
83591
330
1F
100
AcDbEntity
  8
freecads.com
100
AcDbLine
 10
169302.6912480924
 20
106851.8404249359
 30
0.0
 11
169302.9585024087
 21
106851.4854192116
 31
0.0
  0
LINE
  5
83592
330
1F
100
AcDbEntity
  8
freecads.com
100
AcDbLine
 10
169302.9585024087
 20
106851.4854192116
 30
0.0
 11
169303.2513959536
 21
106851.1472802366
 31
0.0
  0
LINE
  5
83593
330
1F
100
AcDbEntity
  8
freecads.com
100
AcDbLine
 10
169303.2513959536
 20
106851.1472802366
 30
0.0
 11
169303.5686625566
 21
106850.8275322401
 31
0.0
  0
LINE
  5
83594
330
1F
100
AcDbEntity
  8
freecads.com
100
AcDbLine
 10
169303.5686625566
 20
106850.8275322401
 30
0.0
 11
169303.9089178984
 21
106850.52762591
 31
0.0
  0
LINE
  5
83595
330
1F
100
AcDbEntity
  8
freecads.com
100
AcDbLine
 10
169303.9089178984
 20
106850.52762591
 30
0.0
 11
169304.270664593
 21
106850.2489288194
 31
0.0
  0
LINE
  5
83596
330
1F
100
AcDbEntity
  8
freecads.com
100
AcDbLine
 10
169304.270664593
 20
106850.2489288194
 30
0.0
 11
169304.6522992406
 21
106849.9927161003
 31
0.0
  0
LINE
  5
83597
330
1F
100
AcDbEntity
  8
freecads.com
100
AcDbLine
 10
169304.6522992406
 20
106849.9927161003
 30
0.0
 11
169305.0521209408
 21
106849.7601620709
 31
0.0
  0
LINE
  5
83598
330
1F
100
AcDbEntity
  8
freecads.com
100
AcDbLine
 10
169305.0521209408
 20
106849.7601620709
 30
0.0
 11
169305.4683408778
 21
106849.5523330877
 31
0.0
  0
LINE
  5
83599
330
1F
100
AcDbEntity
  8
freecads.com
100
AcDbLine
 10
169305.4683408778
 20
106849.5523330877
 30
0.0
 11
169305.8990925624
 21
106849.3701817442
 31
0.0
  0
LINE
  5
8359A
330
1F
100
AcDbEntity
  8
freecads.com
100
AcDbLine
 10
169305.8990925624
 20
106849.3701817442
 30
0.0
 11
169306.3424423431
 21
106849.2145424086
 31
0.0
  0
LINE
  5
8359B
330
1F
100
AcDbEntity
  8
freecads.com
100
AcDbLine
 10
169306.3424423431
 20
106849.2145424086
 30
0.0
 11
169306.7963998707
 21
106849.0861279834
 31
0.0
  0
LINE
  5
8359C
330
1F
100
AcDbEntity
  8
freecads.com
100
AcDbLine
 10
169306.7963998707
 20
106849.0861279834
 30
0.0
 11
169307.2589282856
 21
106848.9855277079
 31
0.0
  0
LINE
  5
8359D
330
1F
100
AcDbEntity
  8
freecads.com
100
AcDbLine
 10
169307.2589282856
 20
106848.9855277079
 30
0.0
 11
169307.7279539898
 21
106848.913205789
 31
0.0
  0
LINE
  5
8359E
330
1F
100
AcDbEntity
  8
freecads.com
100
AcDbLine
 10
169307.7279539898
 20
106848.913205789
 30
0.0
 11
169308.2013759473
 21
106848.8695006448
 31
0.0
  0
LINE
  5
8359F
330
1F
100
AcDbEntity
  8
freecads.com
100
AcDbLine
 10
169308.2013759473
 20
106848.8695006448
 30
0.0
 11
169308.6840264053
 21
106848.8546214809
 31
0.0
  0
LINE
  5
835A0
330
1F
100
AcDbEntity
  8
freecads.com
100
AcDbLine
 10
169308.6840264053
 20
106848.8546214809
 30
0.0
 11
169349.0598519828
 21
106848.8546214809
 31
0.0
  0
LINE
  5
835A1
330
1F
100
AcDbEntity
  8
freecads.com
100
AcDbLine
 10
169349.0598519828
 20
106848.8546214809
 30
0.0
 11
169349.3261376848
 21
106848.8591468845
 31
0.0
  0
LINE
  5
835A2
330
1F
100
AcDbEntity
  8
freecads.com
100
AcDbLine
 10
169349.3261376848
 20
106848.8591468845
 30
0.0
 11
169349.8010422326
 21
106848.8897662911
 31
0.0
  0
LINE
  5
835A3
330
1F
100
AcDbEntity
  8
freecads.com
100
AcDbLine
 10
169349.8010422326
 20
106848.8897662911
 30
0.0
 11
169350.2727900613
 21
106848.9491808224
 31
0.0
  0
LINE
  5
835A4
330
1F
100
AcDbEntity
  8
freecads.com
100
AcDbLine
 10
169350.2727900613
 20
106848.9491808224
 30
0.0
 11
169350.7392006099
 21
106849.0371474469
 31
0.0
  0
LINE
  5
835A5
330
1F
100
AcDbEntity
  8
freecads.com
100
AcDbLine
 10
169350.7392006099
 20
106849.0371474469
 30
0.0
 11
169351.1981729487
 21
106849.1532988914
 31
0.0
  0
LINE
  5
835A6
330
1F
100
AcDbEntity
  8
freecads.com
100
AcDbLine
 10
169351.1981729487
 20
106849.1532988914
 30
0.0
 11
169351.6476326019
 21
106849.2971414732
 31
0.0
  0
LINE
  5
835A7
330
1F
100
AcDbEntity
  8
freecads.com
100
AcDbLine
 10
169351.6476326019
 20
106849.2971414732
 30
0.0
 11
169352.0855401257
 21
106849.4680551177
 31
0.0
  0
LINE
  5
835A8
330
1F
100
AcDbEntity
  8
freecads.com
100
AcDbLine
 10
169352.0855401257
 20
106849.4680551177
 30
0.0
 11
169352.5099002134
 21
106849.6652936242
 31
0.0
  0
LINE
  5
835A9
330
1F
100
AcDbEntity
  8
freecads.com
100
AcDbLine
 10
169352.5099002134
 20
106849.6652936242
 30
0.0
 11
169352.918771392
 21
106849.8879853755
 31
0.0
  0
LINE
  5
835AA
330
1F
100
AcDbEntity
  8
freecads.com
100
AcDbLine
 10
169352.918771392
 20
106849.8879853755
 30
0.0
 11
169353.3102763461
 21
106850.1351347348
 31
0.0
  0
LINE
  5
835AB
330
1F
100
AcDbEntity
  8
freecads.com
100
AcDbLine
 10
169353.3102763461
 20
106850.1351347348
 30
0.0
 11
169353.6826128307
 21
106850.4056244155
 31
0.0
  0
LINE
  5
835AC
330
1F
100
AcDbEntity
  8
freecads.com
100
AcDbLine
 10
169353.6826128307
 20
106850.4056244155
 30
0.0
 11
169354.0340650323
 21
106850.6982191222
 31
0.0
  0
LINE
  5
835AD
330
1F
100
AcDbEntity
  8
freecads.com
100
AcDbLine
 10
169354.0340650323
 20
106850.6982191222
 30
0.0
 11
169354.3630151197
 21
106851.0115707382
 31
0.0
  0
LINE
  5
835AE
330
1F
100
AcDbEntity
  8
freecads.com
100
AcDbLine
 10
169354.3630151197
 20
106851.0115707382
 30
0.0
 11
169354.6679546091
 21
106851.3442252646
 31
0.0
  0
LINE
  5
835AF
330
1F
100
AcDbEntity
  8
freecads.com
100
AcDbLine
 10
169354.6679546091
 20
106851.3442252646
 30
0.0
 11
169354.9474950662
 21
106851.6946315961
 31
0.0
  0
LINE
  5
835B0
330
1F
100
AcDbEntity
  8
freecads.com
100
AcDbLine
 10
169354.9474950662
 20
106851.6946315961
 30
0.0
 11
169355.2003776163
 21
106852.0611520527
 31
0.0
  0
LINE
  5
835B1
330
1F
100
AcDbEntity
  8
freecads.com
100
AcDbLine
 10
169355.2003776163
 20
106852.0611520527
 30
0.0
 11
169355.4196107972
 21
106852.4313121733
 31
0.0
  0
LINE
  5
835B2
330
1F
100
AcDbEntity
  8
freecads.com
100
AcDbLine
 10
169301.5840264053
 20
106855.1403685053
 30
0.0
 11
169301.6007397099
 21
106854.7459309424
 31
0.0
  0
LINE
  5
835B3
330
1F
100
AcDbEntity
  8
freecads.com
100
AcDbLine
 10
169301.6007397099
 20
106854.7459309424
 30
0.0
 11
169301.6545050043
 21
106854.3188125723
 31
0.0
  0
LINE
  5
835B4
330
1F
100
AcDbEntity
  8
freecads.com
100
AcDbLine
 10
169301.6545050043
 20
106854.3188125723
 30
0.0
 11
169301.7492474093
 21
106853.8736765184
 31
0.0
  0
LINE
  5
835B5
330
1F
100
AcDbEntity
  8
freecads.com
100
AcDbLine
 10
169301.7492474093
 20
106853.8736765184
 30
0.0
 11
169301.8897874795
 21
106853.4072979897
 31
0.0
  0
LINE
  5
835B6
330
1F
100
AcDbEntity
  8
freecads.com
100
AcDbLine
 10
169355.4195338624
 20
106852.431171593
 30
0.0
 11
169355.6611789557
 21
106852.9200753213
 31
0.0
  0
LINE
  5
835B7
330
1F
100
AcDbEntity
  8
freecads.com
100
AcDbLine
 10
169355.6611789557
 20
106852.9200753213
 30
0.0
 11
169355.8540909086
 21
106853.4072979897
 31
0.0
  0
LINE
  5
835B8
330
1F
100
AcDbEntity
  8
freecads.com
100
AcDbLine
 10
169355.8540909086
 20
106853.4072979897
 30
0.0
 11
169355.9946309789
 21
106853.8736765184
 31
0.0
  0
LINE
  5
835B9
330
1F
100
AcDbEntity
  8
freecads.com
100
AcDbLine
 10
169355.9946309789
 20
106853.8736765184
 30
0.0
 11
169356.0893733838
 21
106854.3188125723
 31
0.0
  0
LINE
  5
835BA
330
1F
100
AcDbEntity
  8
freecads.com
100
AcDbLine
 10
169356.0893733838
 20
106854.3188125723
 30
0.0
 11
169356.1431386781
 21
106854.7459309424
 31
0.0
  0
LINE
  5
835BB
330
1F
100
AcDbEntity
  8
freecads.com
100
AcDbLine
 10
169356.1431386781
 20
106854.7459309424
 30
0.0
 11
169356.1598502668
 21
106855.1403280077
 31
0.0
  0
LINE
  5
835BC
330
1F
100
AcDbEntity
  8
freecads.com
100
AcDbLine
 10
169301.5840264053
 20
106857.2453004684
 30
0.0
 11
169301.5840264053
 21
106855.1416275113
 31
0.0
  0
LINE
  5
835BD
330
1F
100
AcDbEntity
  8
freecads.com
100
AcDbLine
 10
169356.1598519828
 20
106855.1416275113
 30
0.0
 11
169356.1598519828
 21
106857.2489941572
 31
0.0
  0
LINE
  5
835BE
330
1F
100
AcDbEntity
  8
freecads.com
100
AcDbLine
 10
169303.7840264053
 20
106811.1593667137
 30
0.0
 11
169303.7840264053
 21
106850.6313921289
 31
0.0
  0
LINE
  5
835BF
330
1F
100
AcDbEntity
  8
freecads.com
100
AcDbLine
 10
169301.5840264053
 20
106855.1416275113
 30
0.0
 11
169301.5840264053
 21
106811.1593667137
 31
0.0
  0
LINE
  5
835C0
330
1F
100
AcDbEntity
  8
freecads.com
100
AcDbLine
 10
169356.1598519828
 20
106811.1593667137
 30
0.0
 11
169356.1598519828
 21
106855.1416275113
 31
0.0
  0
LINE
  5
835C1
330
1F
100
AcDbEntity
  8
freecads.com
100
AcDbLine
 10
169353.9598519828
 20
106850.63166351
 30
0.0
 11
169353.9598519828
 21
106811.1593667137
 31
0.0
  0
LINE
  5
835C2
330
1F
100
AcDbEntity
  8
freecads.com
100
AcDbLine
 10
169327.5598519828
 20
106789.2196516422
 30
0.0
 11
169356.5598519828
 21
106789.2196516422
 31
0.0
  0
LINE
  5
835C3
330
1F
100
AcDbEntity
  8
freecads.com
100
AcDbLine
 10
169301.1840264053
 20
106789.2196516422
 30
0.0
 11
169327.5598519828
 21
106789.2196516422
 31
0.0
  0
LINE
  5
835C4
330
1F
100
AcDbEntity
  8
freecads.com
100
AcDbLine
 10
169301.1840264053
 20
106806.1593667137
 30
0.0
 11
169356.5598519828
 21
106806.1593667137
 31
0.0
  0
LINE
  5
835C5
330
1F
100
AcDbEntity
  8
freecads.com
100
AcDbLine
 10
169356.5598519828
 20
106811.1593667137
 30
0.0
 11
169301.1840264053
 21
106811.1593667137
 31
0.0
  0
LINE
  5
835C6
330
1F
100
AcDbEntity
  8
freecads.com
100
AcDbLine
 10
169355.6598519828
 20
106862.4196516422
 30
0.0
 11
169302.0840264053
 21
106862.4196516422
 31
0.0
  0
LINE
  5
835C7
330
1F
100
AcDbEntity
  8
freecads.com
100
AcDbLine
 10
169301.0898899153
 20
106858.3668974125
 30
0.0
 11
169301.1234425032
 21
106858.1382209312
 31
0.0
  0
LINE
  5
835C8
330
1F
100
AcDbEntity
  8
freecads.com
100
AcDbLine
 10
169301.1234425032
 20
106858.1382209312
 30
0.0
 11
169301.1866883393
 21
106857.9115220889
 31
0.0
  0
LINE
  5
835C9
330
1F
100
AcDbEntity
  8
freecads.com
100
AcDbLine
 10
169301.1866883393
 20
106857.9115220889
 30
0.0
 11
169301.2788875531
 21
106857.69068673
 31
0.0
  0
LINE
  5
835CA
330
1F
100
AcDbEntity
  8
freecads.com
100
AcDbLine
 10
169301.2788875531
 20
106857.69068673
 30
0.0
 11
169301.398004824
 21
106857.4793334064
 31
0.0
  0
LINE
  5
835CB
330
1F
100
AcDbEntity
  8
freecads.com
100
AcDbLine
 10
169301.398004824
 20
106857.4793334064
 30
0.0
 11
169301.5471862566
 21
106857.2729481021
 31
0.0
  0
LINE
  5
835CC
330
1F
100
AcDbEntity
  8
freecads.com
100
AcDbLine
 10
169301.5471862566
 20
106857.2729481021
 30
0.0
 11
169301.7249961543
 21
106857.076585484
 31
0.0
  0
LINE
  5
835CD
330
1F
100
AcDbEntity
  8
freecads.com
100
AcDbLine
 10
169301.7249961543
 20
106857.076585484
 30
0.0
 11
169301.9252053778
 21
106856.8973684747
 31
0.0
  0
LINE
  5
835CE
330
1F
100
AcDbEntity
  8
freecads.com
100
AcDbLine
 10
169301.9252053778
 20
106856.8973684747
 30
0.0
 11
169302.1534774291
 21
106856.730478101
 31
0.0
  0
LINE
  5
835CF
330
1F
100
AcDbEntity
  8
freecads.com
100
AcDbLine
 10
169302.1534774291
 20
106856.730478101
 30
0.0
 11
169302.4032967263
 21
106856.5823139065
 31
0.0
  0
LINE
  5
835D0
330
1F
100
AcDbEntity
  8
freecads.com
100
AcDbLine
 10
169302.4032967263
 20
106856.5823139065
 30
0.0
 11
169302.6669169295
 21
106856.4571933427
 31
0.0
  0
LINE
  5
835D1
330
1F
100
AcDbEntity
  8
freecads.com
100
AcDbLine
 10
169302.6669169295
 20
106856.4571933427
 30
0.0
 11
169302.9505478078
 21
106856.3518940487
 31
0.0
  0
LINE
  5
835D2
330
1F
100
AcDbEntity
  8
freecads.com
100
AcDbLine
 10
169302.9505478078
 20
106856.3518940487
 30
0.0
 11
169303.2459445306
 21
106856.2704364205
 31
0.0
  0
LINE
  5
835D3
330
1F
100
AcDbEntity
  8
freecads.com
100
AcDbLine
 10
169303.2459445306
 20
106856.2704364205
 30
0.0
 11
169303.5461756643
 21
106856.2144865607
 31
0.0
  0
LINE
  5
835D4
330
1F
100
AcDbEntity
  8
freecads.com
100
AcDbLine
 10
169303.5461756643
 20
106856.2144865607
 30
0.0
 11
169303.8555906758
 21
106856.1827928971
 31
0.0
  0
LINE
  5
835D5
330
1F
100
AcDbEntity
  8
freecads.com
100
AcDbLine
 10
169353.6599120011
 20
106856.1788089396
 30
0.0
 11
169353.8602011813
 21
106856.1811294572
 31
0.0
  0
LINE
  5
835D6
330
1F
100
AcDbEntity
  8
freecads.com
100
AcDbLine
 10
169353.8602011813
 20
106856.1811294572
 30
0.0
 11
169354.1686255871
 21
106856.2102583081
 31
0.0
  0
LINE
  5
835D7
330
1F
100
AcDbEntity
  8
freecads.com
100
AcDbLine
 10
169354.1686255871
 20
106856.2102583081
 30
0.0
 11
169354.4732625665
 21
106856.2649207193
 31
0.0
  0
LINE
  5
835D8
330
1F
100
AcDbEntity
  8
freecads.com
100
AcDbLine
 10
169354.4732625665
 20
106856.2649207193
 30
0.0
 11
169354.7668420823
 21
106856.3435299621
 31
0.0
  0
LINE
  5
835D9
330
1F
100
AcDbEntity
  8
freecads.com
100
AcDbLine
 10
169354.7668420823
 20
106856.3435299621
 30
0.0
 11
169355.0530200796
 21
106856.4470502994
 31
0.0
  0
LINE
  5
835DA
330
1F
100
AcDbEntity
  8
freecads.com
100
AcDbLine
 10
169355.0530200796
 20
106856.4470502994
 30
0.0
 11
169355.3269264282
 21
106856.5751942948
 31
0.0
  0
LINE
  5
835DB
330
1F
100
AcDbEntity
  8
freecads.com
100
AcDbLine
 10
169355.3269264282
 20
106856.5751942948
 30
0.0
 11
169355.5781589216
 21
106856.7225232464
 31
0.0
  0
LINE
  5
835DC
330
1F
100
AcDbEntity
  8
freecads.com
100
AcDbLine
 10
169355.5781589216
 20
106856.7225232464
 30
0.0
 11
169355.8140067509
 21
106856.8934234153
 31
0.0
  0
LINE
  5
835DD
330
1F
100
AcDbEntity
  8
freecads.com
100
AcDbLine
 10
169355.8140067509
 20
106856.8934234153
 30
0.0
 11
169356.0287950937
 21
106857.08658786
 31
0.0
  0
LINE
  5
835DE
330
1F
100
AcDbEntity
  8
freecads.com
100
AcDbLine
 10
169356.0287950937
 20
106857.08658786
 30
0.0
 11
169356.2121350397
 21
106857.2923610292
 31
0.0
  0
LINE
  5
835DF
330
1F
100
AcDbEntity
  8
freecads.com
100
AcDbLine
 10
169356.2121350397
 20
106857.2923610292
 30
0.0
 11
169356.3699445238
 21
106857.5175578287
 31
0.0
  0
LINE
  5
835E0
330
1F
100
AcDbEntity
  8
freecads.com
100
AcDbLine
 10
169356.3699445238
 20
106857.5175578287
 30
0.0
 11
169356.4831187777
 21
106857.7286385346
 31
0.0
  0
LINE
  5
835E1
330
1F
100
AcDbEntity
  8
freecads.com
100
AcDbLine
 10
169356.4831187777
 20
106857.7286385346
 30
0.0
 11
169356.5753213118
 21
106857.966934409
 31
0.0
  0
LINE
  5
835E2
330
1F
100
AcDbEntity
  8
freecads.com
100
AcDbLine
 10
169356.5753213118
 20
106857.966934409
 30
0.0
 11
169356.6342879025
 21
106858.211202754
 31
0.0
  0
LINE
  5
835E3
330
1F
100
AcDbEntity
  8
freecads.com
100
AcDbLine
 10
169356.6342879025
 20
106858.211202754
 30
0.0
 11
169356.6590371473
 21
106858.4570507831
 31
0.0
  0
LINE
  5
835E4
330
1F
100
AcDbEntity
  8
freecads.com
100
AcDbLine
 10
169356.6590371473
 20
106858.4570507831
 30
0.0
 11
169356.6570044115
 21
106858.509957831
 31
0.0
  0
LINE
  5
835E5
330
1F
100
AcDbEntity
  8
freecads.com
100
AcDbLine
 10
169303.2894467796
 20
106853.7776803203
 30
0.0
 11
169303.5160957341
 21
106853.4019845196
 31
0.0
  0
LINE
  5
835E6
330
1F
100
AcDbEntity
  8
freecads.com
100
AcDbLine
 10
169303.5160957341
 20
106853.4019845196
 30
0.0
 11
169303.7756663321
 21
106853.0435829642
 31
0.0
  0
LINE
  5
835E7
330
1F
100
AcDbEntity
  8
freecads.com
100
AcDbLine
 10
169303.7756663321
 20
106853.0435829642
 30
0.0
 11
169304.0665050123
 21
106852.7047588055
 31
0.0
  0
LINE
  5
835E8
330
1F
100
AcDbEntity
  8
freecads.com
100
AcDbLine
 10
169304.0665050123
 20
106852.7047588055
 30
0.0
 11
169304.3867590239
 21
106852.3876704797
 31
0.0
  0
LINE
  5
835E9
330
1F
100
AcDbEntity
  8
freecads.com
100
AcDbLine
 10
169304.3867590239
 20
106852.3876704797
 30
0.0
 11
169304.7343882297
 21
106852.0943379575
 31
0.0
  0
LINE
  5
835EA
330
1F
100
AcDbEntity
  8
freecads.com
100
AcDbLine
 10
169304.7343882297
 20
106852.0943379575
 30
0.0
 11
169305.107178102
 21
106851.8266298763
 31
0.0
  0
LINE
  5
835EB
330
1F
100
AcDbEntity
  8
freecads.com
100
AcDbLine
 10
169305.107178102
 20
106851.8266298763
 30
0.0
 11
169305.5027538304
 21
106851.5862516363
 31
0.0
  0
LINE
  5
835EC
330
1F
100
AcDbEntity
  8
freecads.com
100
AcDbLine
 10
169305.5027538304
 20
106851.5862516363
 30
0.0
 11
169305.9185954503
 21
106851.3747345366
 31
0.0
  0
LINE
  5
835ED
330
1F
100
AcDbEntity
  8
freecads.com
100
AcDbLine
 10
169305.9185954503
 20
106851.3747345366
 30
0.0
 11
169306.3520538955
 21
106851.1934260198
 31
0.0
  0
LINE
  5
835EE
330
1F
100
AcDbEntity
  8
freecads.com
100
AcDbLine
 10
169306.3520538955
 20
106851.1934260198
 30
0.0
 11
169306.8003678744
 21
106851.0434810886
 31
0.0
  0
LINE
  5
835EF
330
1F
100
AcDbEntity
  8
freecads.com
100
AcDbLine
 10
169306.8003678744
 20
106851.0434810886
 30
0.0
 11
169307.2606814599
 21
106850.9258549482
 31
0.0
  0
LINE
  5
835F0
330
1F
100
AcDbEntity
  8
freecads.com
100
AcDbLine
 10
169307.2606814599
 20
106850.9258549482
 30
0.0
 11
169307.7300622829
 21
106850.841296921
 31
0.0
  0
LINE
  5
835F1
330
1F
100
AcDbEntity
  8
freecads.com
100
AcDbLine
 10
169307.7300622829
 20
106850.841296921
 30
0.0
 11
169308.2055202127
 21
106850.7903456729
 31
0.0
  0
LINE
  5
835F2
330
1F
100
AcDbEntity
  8
freecads.com
100
AcDbLine
 10
169308.2055202127
 20
106850.7903456729
 30
0.0
 11
169308.6840264053
 21
106850.7733257826
 31
0.0
  0
LINE
  5
835F3
330
1F
100
AcDbEntity
  8
freecads.com
100
AcDbLine
 10
169308.6840264053
 20
106849.9546214809
 30
0.0
 11
169308.2055202127
 21
106849.9716413712
 31
0.0
  0
LINE
  5
835F4
330
1F
100
AcDbEntity
  8
freecads.com
100
AcDbLine
 10
169308.2055202127
 20
106849.9716413712
 30
0.0
 11
169307.7300622829
 21
106850.0225926193
 31
0.0
  0
LINE
  5
835F5
330
1F
100
AcDbEntity
  8
freecads.com
100
AcDbLine
 10
169307.7300622829
 20
106850.0225926193
 30
0.0
 11
169307.2606814599
 21
106850.1071506466
 31
0.0
  0
LINE
  5
835F6
330
1F
100
AcDbEntity
  8
freecads.com
100
AcDbLine
 10
169307.2606814599
 20
106850.1071506466
 30
0.0
 11
169306.8003678744
 21
106850.2247767869
 31
0.0
  0
LINE
  5
835F7
330
1F
100
AcDbEntity
  8
freecads.com
100
AcDbLine
 10
169306.8003678744
 20
106850.2247767869
 30
0.0
 11
169306.3520538955
 21
106850.374721718
 31
0.0
  0
LINE
  5
835F8
330
1F
100
AcDbEntity
  8
freecads.com
100
AcDbLine
 10
169306.3520538955
 20
106850.374721718
 30
0.0
 11
169305.9185954503
 21
106850.5560302349
 31
0.0
  0
LINE
  5
835F9
330
1F
100
AcDbEntity
  8
freecads.com
100
AcDbLine
 10
169305.9185954503
 20
106850.5560302349
 30
0.0
 11
169305.5027538304
 21
106850.7675473346
 31
0.0
  0
LINE
  5
835FA
330
1F
100
AcDbEntity
  8
freecads.com
100
AcDbLine
 10
169305.5027538304
 20
106850.7675473346
 30
0.0
 11
169305.107178102
 21
106851.0079255746
 31
0.0
  0
LINE
  5
835FB
330
1F
100
AcDbEntity
  8
freecads.com
100
AcDbLine
 10
169305.107178102
 20
106851.0079255746
 30
0.0
 11
169304.7343882297
 21
106851.2756336557
 31
0.0
  0
LINE
  5
835FC
330
1F
100
AcDbEntity
  8
freecads.com
100
AcDbLine
 10
169304.7343882297
 20
106851.2756336557
 30
0.0
 11
169304.3867590239
 21
106851.568966178
 31
0.0
  0
LINE
  5
835FD
330
1F
100
AcDbEntity
  8
freecads.com
100
AcDbLine
 10
169304.3867590239
 20
106851.568966178
 30
0.0
 11
169304.0665050123
 21
106851.8860545038
 31
0.0
  0
LINE
  5
835FE
330
1F
100
AcDbEntity
  8
freecads.com
100
AcDbLine
 10
169304.0665050123
 20
106851.8860545038
 30
0.0
 11
169303.7756663321
 21
106852.2248786625
 31
0.0
  0
LINE
  5
835FF
330
1F
100
AcDbEntity
  8
freecads.com
100
AcDbLine
 10
169303.7756663321
 20
106852.2248786625
 30
0.0
 11
169303.5160957341
 21
106852.5832802178
 31
0.0
  0
LINE
  5
83600
330
1F
100
AcDbEntity
  8
freecads.com
100
AcDbLine
 10
169303.5160957341
 20
106852.5832802178
 30
0.0
 11
169303.2894467796
 21
106852.9589760185
 31
0.0
  0
LINE
  5
83601
330
1F
100
AcDbEntity
  8
freecads.com
100
AcDbLine
 10
169303.2894467796
 20
106852.9589760185
 30
0.0
 11
169303.111306027
 21
106853.3141626612
 31
0.0
  0
LINE
  5
83602
330
1F
100
AcDbEntity
  8
freecads.com
100
AcDbLine
 10
169303.111306027
 20
106853.3141626612
 30
0.0
 11
169302.9633368961
 21
106853.6718078302
 31
0.0
  0
LINE
  5
83603
330
1F
100
AcDbEntity
  8
freecads.com
100
AcDbLine
 10
169302.9633368961
 20
106853.6718078302
 30
0.0
 11
169302.8435714845
 21
106854.0390803407
 31
0.0
  0
LINE
  5
83604
330
1F
100
AcDbEntity
  8
freecads.com
100
AcDbLine
 10
169302.8435714845
 20
106854.0390803407
 30
0.0
 11
169302.7571366036
 21
106854.4021276199
 31
0.0
  0
LINE
  5
83605
330
1F
100
AcDbEntity
  8
freecads.com
100
AcDbLine
 10
169302.7571366036
 20
106854.4021276199
 30
0.0
 11
169302.7022920892
 21
106854.7763586478
 31
0.0
  0
LINE
  5
83606
330
1F
100
AcDbEntity
  8
freecads.com
100
AcDbLine
 10
169302.7022920892
 20
106854.7763586478
 30
0.0
 11
169302.6840264053
 21
106855.1416275113
 31
0.0
  0
LINE
  5
83607
330
1F
100
AcDbEntity
  8
freecads.com
100
AcDbLine
 10
169302.6840264053
 20
106855.1416275113
 30
0.0
 11
169302.6840264053
 21
106855.9844364238
 31
0.0
  0
LINE
  5
83608
330
1F
100
AcDbEntity
  8
freecads.com
100
AcDbLine
 10
169302.6840264053
 20
106855.9844364238
 30
0.0
 11
169302.700596909
 21
106855.6293911218
 31
0.0
  0
LINE
  5
83609
330
1F
100
AcDbEntity
  8
freecads.com
100
AcDbLine
 10
169302.700596909
 20
106855.6293911218
 30
0.0
 11
169302.7505490112
 21
106855.2659085748
 31
0.0
  0
LINE
  5
8360A
330
1F
100
AcDbEntity
  8
freecads.com
100
AcDbLine
 10
169302.7505490112
 20
106855.2659085748
 30
0.0
 11
169302.8372578705
 21
106854.8859219277
 31
0.0
  0
LINE
  5
8360B
330
1F
100
AcDbEntity
  8
freecads.com
100
AcDbLine
 10
169302.8372578705
 20
106854.8859219277
 30
0.0
 11
169302.9594690352
 21
106854.5033024729
 31
0.0
  0
LINE
  5
8360C
330
1F
100
AcDbEntity
  8
freecads.com
100
AcDbLine
 10
169302.9594690352
 20
106854.5033024729
 30
0.0
 11
169303.1083733674
 21
106854.1397847233
 31
0.0
  0
LINE
  5
8360D
330
1F
100
AcDbEntity
  8
freecads.com
100
AcDbLine
 10
169303.1083733674
 20
106854.1397847233
 30
0.0
 11
169303.2894467796
 21
106853.7776803203
 31
0.0
  0
LINE
  5
8360E
330
1F
100
AcDbEntity
  8
freecads.com
100
AcDbLine
 10
169349.0598519828
 20
106850.7733257826
 30
0.0
 11
169349.5383581754
 21
106850.7903456729
 31
0.0
  0
LINE
  5
8360F
330
1F
100
AcDbEntity
  8
freecads.com
100
AcDbLine
 10
169349.5383581754
 20
106850.7903456729
 30
0.0
 11
169350.0138161052
 21
106850.841296921
 31
0.0
  0
LINE
  5
83610
330
1F
100
AcDbEntity
  8
freecads.com
100
AcDbLine
 10
169350.0138161052
 20
106850.841296921
 30
0.0
 11
169350.4831969282
 21
106850.9258549482
 31
0.0
  0
LINE
  5
83611
330
1F
100
AcDbEntity
  8
freecads.com
100
AcDbLine
 10
169350.4831969282
 20
106850.9258549482
 30
0.0
 11
169350.9435105137
 21
106851.0434810886
 31
0.0
  0
LINE
  5
83612
330
1F
100
AcDbEntity
  8
freecads.com
100
AcDbLine
 10
169350.9435105137
 20
106851.0434810886
 30
0.0
 11
169351.3918244925
 21
106851.1934260198
 31
0.0
  0
LINE
  5
83613
330
1F
100
AcDbEntity
  8
freecads.com
100
AcDbLine
 10
169351.3918244925
 20
106851.1934260198
 30
0.0
 11
169351.8252829378
 21
106851.3747345366
 31
0.0
  0
LINE
  5
83614
330
1F
100
AcDbEntity
  8
freecads.com
100
AcDbLine
 10
169351.8252829378
 20
106851.3747345366
 30
0.0
 11
169352.2411245577
 21
106851.5862516363
 31
0.0
  0
LINE
  5
83615
330
1F
100
AcDbEntity
  8
freecads.com
100
AcDbLine
 10
169352.2411245577
 20
106851.5862516363
 30
0.0
 11
169352.6367002861
 21
106851.8266298763
 31
0.0
  0
LINE
  5
83616
330
1F
100
AcDbEntity
  8
freecads.com
100
AcDbLine
 10
169352.6367002861
 20
106851.8266298763
 30
0.0
 11
169353.0094901584
 21
106852.0943379575
 31
0.0
  0
LINE
  5
83617
330
1F
100
AcDbEntity
  8
freecads.com
100
AcDbLine
 10
169353.0094901584
 20
106852.0943379575
 30
0.0
 11
169353.3571193642
 21
106852.3876704797
 31
0.0
  0
LINE
  5
83618
330
1F
100
AcDbEntity
  8
freecads.com
100
AcDbLine
 10
169353.3571193642
 20
106852.3876704797
 30
0.0
 11
169353.6773733758
 21
106852.7047588055
 31
0.0
  0
LINE
  5
83619
330
1F
100
AcDbEntity
  8
freecads.com
100
AcDbLine
 10
169353.6773733758
 20
106852.7047588055
 30
0.0
 11
169353.968212056
 21
106853.0435829642
 31
0.0
  0
LINE
  5
8361A
330
1F
100
AcDbEntity
  8
freecads.com
100
AcDbLine
 10
169353.968212056
 20
106853.0435829642
 30
0.0
 11
169354.227782654
 21
106853.4019845196
 31
0.0
  0
LINE
  5
8361B
330
1F
100
AcDbEntity
  8
freecads.com
100
AcDbLine
 10
169354.227782654
 20
106853.4019845196
 30
0.0
 11
169354.4544316085
 21
106853.7776803203
 31
0.0
  0
LINE
  5
8361C
330
1F
100
AcDbEntity
  8
freecads.com
100
AcDbLine
 10
169308.6840264053
 20
106850.7733257826
 30
0.0
 11
169349.0598519828
 21
106850.7733257826
 31
0.0
  0
LINE
  5
8361D
330
1F
100
AcDbEntity
  8
freecads.com
100
AcDbLine
 10
169308.6840264053
 20
106849.9546214809
 30
0.0
 11
169349.0598519828
 21
106849.9546214809
 31
0.0
  0
LINE
  5
8361E
330
1F
100
AcDbEntity
  8
freecads.com
100
AcDbLine
 10
169354.4544316085
 20
106853.7776803203
 30
0.0
 11
169354.6377761554
 21
106854.1448639535
 31
0.0
  0
LINE
  5
8361F
330
1F
100
AcDbEntity
  8
freecads.com
100
AcDbLine
 10
169354.6377761554
 20
106854.1448639535
 30
0.0
 11
169354.7890118071
 21
106854.5159500591
 31
0.0
  0
LINE
  5
83620
330
1F
100
AcDbEntity
  8
freecads.com
100
AcDbLine
 10
169354.7890118071
 20
106854.5159500591
 30
0.0
 11
169354.9100537565
 21
106854.8985348864
 31
0.0
  0
LINE
  5
83621
330
1F
100
AcDbEntity
  8
freecads.com
100
AcDbLine
 10
169354.9100537565
 20
106854.8985348864
 30
0.0
 11
169354.9955818774
 21
106855.2783741788
 31
0.0
  0
LINE
  5
83622
330
1F
100
AcDbEntity
  8
freecads.com
100
AcDbLine
 10
169354.9955818774
 20
106855.2783741788
 30
0.0
 11
169355.0437686935
 21
106855.6343450265
 31
0.0
  0
LINE
  5
83623
330
1F
100
AcDbEntity
  8
freecads.com
100
AcDbLine
 10
169355.0437686935
 20
106855.6343450265
 30
0.0
 11
169355.0598519828
 21
106855.9844364238
 31
0.0
  0
LINE
  5
83624
330
1F
100
AcDbEntity
  8
freecads.com
100
AcDbLine
 10
169355.0598519828
 20
106855.9844364238
 30
0.0
 11
169355.0598519828
 21
106855.1416275113
 31
0.0
  0
LINE
  5
83625
330
1F
100
AcDbEntity
  8
freecads.com
100
AcDbLine
 10
169355.0598519828
 20
106855.1416275113
 30
0.0
 11
169355.0445452911
 21
106854.8079733996
 31
0.0
  0
LINE
  5
83626
330
1F
100
AcDbEntity
  8
freecads.com
100
AcDbLine
 10
169355.0445452911
 20
106854.8079733996
 30
0.0
 11
169354.9982446024
 21
106854.4640123059
 31
0.0
  0
LINE
  5
83627
330
1F
100
AcDbEntity
  8
freecads.com
100
AcDbLine
 10
169354.9982446024
 20
106854.4640123059
 30
0.0
 11
169354.9175832894
 21
106854.1020328142
 31
0.0
  0
LINE
  5
83628
330
1F
100
AcDbEntity
  8
freecads.com
100
AcDbLine
 10
169354.9175832894
 20
106854.1020328142
 30
0.0
 11
169354.803551467
 21
106853.735246897
 31
0.0
  0
LINE
  5
83629
330
1F
100
AcDbEntity
  8
freecads.com
100
AcDbLine
 10
169354.803551467
 20
106853.735246897
 30
0.0
 11
169354.6476700352
 21
106853.3474070702
 31
0.0
  0
LINE
  5
8362A
330
1F
100
AcDbEntity
  8
freecads.com
100
AcDbLine
 10
169354.6476700352
 20
106853.3474070702
 30
0.0
 11
169354.4544316085
 21
106852.9589760185
 31
0.0
  0
LINE
  5
8362B
330
1F
100
AcDbEntity
  8
freecads.com
100
AcDbLine
 10
169354.4544316085
 20
106852.9589760185
 30
0.0
 11
169354.227782654
 21
106852.5832802178
 31
0.0
  0
LINE
  5
8362C
330
1F
100
AcDbEntity
  8
freecads.com
100
AcDbLine
 10
169354.227782654
 20
106852.5832802178
 30
0.0
 11
169353.968212056
 21
106852.2248786625
 31
0.0
  0
LINE
  5
8362D
330
1F
100
AcDbEntity
  8
freecads.com
100
AcDbLine
 10
169353.968212056
 20
106852.2248786625
 30
0.0
 11
169353.6773733758
 21
106851.8860545038
 31
0.0
  0
LINE
  5
8362E
330
1F
100
AcDbEntity
  8
freecads.com
100
AcDbLine
 10
169353.6773733758
 20
106851.8860545038
 30
0.0
 11
169353.3571193642
 21
106851.568966178
 31
0.0
  0
LINE
  5
8362F
330
1F
100
AcDbEntity
  8
freecads.com
100
AcDbLine
 10
169353.3571193642
 20
106851.568966178
 30
0.0
 11
169353.0094901584
 21
106851.2756336557
 31
0.0
  0
LINE
  5
83630
330
1F
100
AcDbEntity
  8
freecads.com
100
AcDbLine
 10
169353.0094901584
 20
106851.2756336557
 30
0.0
 11
169352.6367002861
 21
106851.0079255746
 31
0.0
  0
LINE
  5
83631
330
1F
100
AcDbEntity
  8
freecads.com
100
AcDbLine
 10
169352.6367002861
 20
106851.0079255746
 30
0.0
 11
169352.2411245577
 21
106850.7675473346
 31
0.0
  0
LINE
  5
83632
330
1F
100
AcDbEntity
  8
freecads.com
100
AcDbLine
 10
169352.2411245577
 20
106850.7675473346
 30
0.0
 11
169351.8252829378
 21
106850.5560302349
 31
0.0
  0
LINE
  5
83633
330
1F
100
AcDbEntity
  8
freecads.com
100
AcDbLine
 10
169351.8252829378
 20
106850.5560302349
 30
0.0
 11
169351.3918244925
 21
106850.374721718
 31
0.0
  0
LINE
  5
83634
330
1F
100
AcDbEntity
  8
freecads.com
100
AcDbLine
 10
169351.3918244925
 20
106850.374721718
 30
0.0
 11
169350.9435105137
 21
106850.2247767869
 31
0.0
  0
LINE
  5
83635
330
1F
100
AcDbEntity
  8
freecads.com
100
AcDbLine
 10
169350.9435105137
 20
106850.2247767869
 30
0.0
 11
169350.4831969282
 21
106850.1071506466
 31
0.0
  0
LINE
  5
83636
330
1F
100
AcDbEntity
  8
freecads.com
100
AcDbLine
 10
169350.4831969282
 20
106850.1071506466
 30
0.0
 11
169350.0138161052
 21
106850.0225926193
 31
0.0
  0
LINE
  5
83637
330
1F
100
AcDbEntity
  8
freecads.com
100
AcDbLine
 10
169350.0138161052
 20
106850.0225926193
 30
0.0
 11
169349.5383581754
 21
106849.9716413712
 31
0.0
  0
LINE
  5
83638
330
1F
100
AcDbEntity
  8
freecads.com
100
AcDbLine
 10
169349.5383581754
 20
106849.9716413712
 30
0.0
 11
169349.0598519828
 21
106849.9546214809
 31
0.0
  0
LINE
  5
83639
330
1F
100
AcDbEntity
  8
freecads.com
100
AcDbLine
 10
169302.6840264053
 20
106856.455044999
 30
0.0
 11
169302.6840264053
 21
106855.9844364238
 31
0.0
  0
LINE
  5
8363A
330
1F
100
AcDbEntity
  8
freecads.com
100
AcDbLine
 10
169355.0598519828
 20
106856.4544586028
 30
0.0
 11
169355.0598519828
 21
106855.9844364238
 31
0.0
  0
LINE
  5
8363B
330
1F
100
AcDbEntity
  8
freecads.com
100
AcDbLine
 10
169300.3840264053
 20
106816.101701849
 30
0.0
 11
169301.1840264053
 21
106816.101701849
 31
0.0
  0
LINE
  5
8363C
330
1F
100
AcDbEntity
  8
freecads.com
100
AcDbLine
 10
169301.1840264053
 20
106785.1196516422
 30
0.0
 11
169301.1840264053
 21
106816.101701849
 31
0.0
  0
LINE
  5
8363D
330
1F
100
AcDbEntity
  8
freecads.com
100
AcDbLine
 10
169300.3840264053
 20
106785.1196516422
 30
0.0
 11
169300.3840264053
 21
106816.101701849
 31
0.0
  0
LINE
  5
8363E
330
1F
100
AcDbEntity
  8
freecads.com
100
AcDbLine
 10
169300.3840264053
 20
106785.1196516422
 30
0.0
 11
169301.1840264053
 21
106785.1196516422
 31
0.0
  0
LINE
  5
8363F
330
1F
100
AcDbEntity
  8
freecads.com
100
AcDbLine
 10
169357.3598519828
 20
106816.101701849
 30
0.0
 11
169356.5598519828
 21
106816.101701849
 31
0.0
  0
LINE
  5
83640
330
1F
100
AcDbEntity
  8
freecads.com
100
AcDbLine
 10
169357.3598519828
 20
106816.101701849
 30
0.0
 11
169357.3598519828
 21
106785.1196516422
 31
0.0
  0
LINE
  5
83641
330
1F
100
AcDbEntity
  8
freecads.com
100
AcDbLine
 10
169357.3598519828
 20
106785.1196516422
 30
0.0
 11
169356.5598519828
 21
106785.1196516422
 31
0.0
  0
LINE
  5
83642
330
1F
100
AcDbEntity
  8
freecads.com
100
AcDbLine
 10
169356.5598519828
 20
106816.101701849
 30
0.0
 11
169356.5598519828
 21
106785.1196516422
 31
0.0
  0
LINE
  5
83643
330
1F
100
AcDbEntity
  8
freecads.com
100
AcDbLine
 10
169356.6598519828
 20
106858.7729628883
 30
0.0
 11
169356.6598519828
 21
106858.5102657046
 31
0.0
  0
LINE
  5
83644
330
1F
100
AcDbEntity
  8
freecads.com
100
AcDbLine
 10
169301.0840264053
 20
106858.7729628883
 30
0.0
 11
169301.0840264053
 21
106861.4196516421
 31
0.0
  0
LINE
  5
83645
330
1F
100
AcDbEntity
  8
freecads.com
100
AcDbLine
 10
169356.6598519828
 20
106861.4196516421
 30
0.0
 11
169356.6598519828
 21
106858.7729628883
 31
0.0
  0
LINE
  5
83646
330
1F
100
AcDbEntity
  8
freecads.com
100
AcDbLine
 10
169301.0840264053
 20
106848.3196412221
 30
0.0
 11
169301.0840264053
 21
106861.0196516422
 31
0.0
  0
LINE
  5
83647
330
1F
100
AcDbEntity
  8
freecads.com
100
AcDbLine
 10
169356.6598519828
 20
106861.0196516422
 30
0.0
 11
169356.6598519828
 21
106848.3196412221
 31
0.0
  0
LINE
  5
83648
330
1F
100
AcDbEntity
  8
freecads.com
100
AcDbLine
 10
169301.0840264053
 20
106841.7843094226
 30
0.0
 11
169301.0840264053
 21
106845.4025243283
 31
0.0
  0
LINE
  5
83649
330
1F
100
AcDbEntity
  8
freecads.com
100
AcDbLine
 10
169356.6598519828
 20
106845.4025243283
 30
0.0
 11
169356.6598519828
 21
106841.7843094226
 31
0.0
  0
LINE
  5
8364A
330
1F
100
AcDbEntity
  8
freecads.com
100
AcDbLine
 10
169301.0840264053
 20
106845.4025243283
 30
0.0
 11
169301.0840264053
 21
106848.3196412221
 31
0.0
  0
LINE
  5
8364B
330
1F
100
AcDbEntity
  8
freecads.com
100
AcDbLine
 10
169356.6598519828
 20
106848.3196412221
 30
0.0
 11
169356.6598519828
 21
106845.4025243283
 31
0.0
  0
LINE
  5
8364C
330
1F
100
AcDbEntity
  8
freecads.com
100
AcDbLine
 10
169301.0840264053
 20
106816.101701849
 30
0.0
 11
169301.0840264053
 21
106841.7843094226
 31
0.0
  0
LINE
  5
8364D
330
1F
100
AcDbEntity
  8
freecads.com
100
AcDbLine
 10
169356.6598519828
 20
106841.7843094226
 30
0.0
 11
169356.6598519828
 21
106816.101701849
 31
0.0
  0
LINE
  5
8364E
330
1F
100
AcDbEntity
  8
freecads.com
100
AcDbLine
 10
169301.0840264053
 20
106816.101701849
 30
0.0
 11
169301.0840264053
 21
106829.0615890512
 31
0.0
  0
LINE
  5
8364F
330
1F
100
AcDbEntity
  8
freecads.com
100
AcDbLine
 10
169356.6598519828
 20
106829.0615890512
 30
0.0
 11
169356.6598519828
 21
106816.101701849
 31
0.0
  0
LINE
  5
83650
330
1F
100
AcDbEntity
  8
freecads.com
100
AcDbLine
 10
169301.0840264053
 20
106829.0615890512
 30
0.0
 11
169301.0840264053
 21
106829.9086029051
 31
0.0
  0
LINE
  5
83651
330
1F
100
AcDbEntity
  8
freecads.com
100
AcDbLine
 10
169356.6598519828
 20
106829.9086029051
 30
0.0
 11
169356.6598519828
 21
106829.0615890512
 31
0.0
  0
LINE
  5
83652
330
1F
100
AcDbEntity
  8
freecads.com
100
AcDbLine
 10
169301.0840264053
 20
106829.0756752489
 30
0.0
 11
169301.0840264053
 21
106829.508602905
 31
0.0
  0
LINE
  5
83653
330
1F
100
AcDbEntity
  8
freecads.com
100
AcDbLine
 10
169356.6598519828
 20
106829.508602905
 30
0.0
 11
169356.6598519828
 21
106829.0756752489
 31
0.0
  0
LINE
  5
83654
330
1F
100
AcDbEntity
  8
freecads.com
100
AcDbLine
 10
169301.0840264053
 20
106817.9105253826
 30
0.0
 11
169301.0840264053
 21
106829.0756752489
 31
0.0
  0
LINE
  5
83655
330
1F
100
AcDbEntity
  8
freecads.com
100
AcDbLine
 10
169356.6598519828
 20
106829.0756752489
 30
0.0
 11
169356.6598519828
 21
106817.9105253826
 31
0.0
  0
LINE
  5
83656
330
1F
100
AcDbEntity
  8
freecads.com
100
AcDbLine
 10
169301.0840264053
 20
106816.101701849
 30
0.0
 11
169301.0840264053
 21
106817.9105253826
 31
0.0
  0
LINE
  5
83657
330
1F
100
AcDbEntity
  8
freecads.com
100
AcDbLine
 10
169356.6598519828
 20
106817.9105253826
 30
0.0
 11
169356.6598519828
 21
106816.101701849
 31
0.0
  0
ARC
  5
83658
330
1F
100
AcDbEntity
  8
freecads.com
100
AcDbCircle
 10
169302.0840264053
 20
106861.4196516421
 30
0.0
 40
1.000000000000085
100
AcDbArc
 50
90.0
 51
180.0
  0
ARC
  5
83659
330
1F
100
AcDbEntity
  8
freecads.com
100
AcDbCircle
 10
169355.6598519828
 20
106861.4196516421
 30
0.0
 40
1.000000000000056
100
AcDbArc
 50
0.0
 51
90.0
  0
ARC
  5
8365A
330
1F
100
AcDbEntity
  8
freecads.com
100
AcDbCircle
 10
169306.2470182599
 20
106854.7203205288
 30
0.0
 40
4.550767876100287
100
AcDbArc
 50
196.7698314348946
 51
213.4645089031585
  0
LINE
  5
8365B
330
1F
100
AcDbEntity
  8
freecads.com
100
AcDbLine
 10
169065.8168068492
 20
106643.4285874822
 30
0.0
 11
169068.9804132936
 21
106643.4285874822
 31
0.0
  0
LINE
  5
8365C
330
1F
100
AcDbEntity
  8
freecads.com
100
AcDbLine
 10
169065.8168068492
 20
106698.5467126683
 30
0.0
 11
169068.9804132936
 21
106698.5467126683
 31
0.0
  0
LINE
  5
8365D
330
1F
100
AcDbEntity
  8
freecads.com
100
AcDbLine
 10
169065.8168068492
 20
106643.4285874822
 30
0.0
 11
169065.8168068492
 21
106698.5467126683
 31
0.0
  0
LINE
  5
8365E
330
1F
100
AcDbEntity
  8
freecads.com
100
AcDbLine
 10
169225.8168068492
 20
106651.4934667811
 30
0.0
 11
169225.8168068492
 21
106689.3645432348
 31
0.0
  0
LINE
  5
8365F
330
1F
100
AcDbEntity
  8
freecads.com
100
AcDbLine
 10
169068.9804132936
 20
106643.4285874822
 30
0.0
 11
169068.9804132936
 21
106698.5467126683
 31
0.0
  0
LINE
  5
83660
330
1F
100
AcDbEntity
  8
freecads.com
100
AcDbLine
 10
169223.5044217953
 20
106651.3745587527
 30
0.0
 11
169223.5044217953
 21
106689.4999245126
 31
0.0
  0
LINE
  5
83661
330
1F
100
AcDbEntity
  8
freecads.com
100
AcDbLine
 10
169225.8168068492
 20
106651.4934667811
 30
0.0
 11
169087.2628291822
 21
106644.3687103331
 31
0.0
  0
LINE
  5
83662
330
1F
100
AcDbEntity
  8
freecads.com
100
AcDbLine
 10
169225.8168068492
 20
106689.3645432348
 30
0.0
 11
169087.2628291822
 21
106697.4763473243
 31
0.0
  0
LINE
  5
83663
330
1F
100
AcDbEntity
  8
freecads.com
100
AcDbLine
 10
169186.9018570814
 20
106651.3745587527
 30
0.0
 11
169186.9018570814
 21
106689.4999245126
 31
0.0
  0
LINE
  5
83664
330
1F
100
AcDbEntity
  8
freecads.com
100
AcDbLine
 10
169186.9018570814
 20
106651.3745587527
 30
0.0
 11
169186.8491158675
 21
106649.489660667
 31
0.0
  0
LINE
  5
83665
330
1F
100
AcDbEntity
  8
freecads.com
100
AcDbLine
 10
169186.9018570814
 20
106689.4999245126
 30
0.0
 11
169186.859567934
 21
106691.6453401868
 31
0.0
  0
LINE
  5
83666
330
1F
100
AcDbEntity
  8
freecads.com
100
AcDbLine
 10
169074.8312638878
 20
106643.4285874822
 30
0.0
 11
169074.8312638878
 21
106698.5467126683
 31
0.0
  0
LINE
  5
83667
330
1F
100
AcDbEntity
  8
freecads.com
100
AcDbLine
 10
169087.2628291822
 20
106643.4285874822
 30
0.0
 11
169087.2628291822
 21
106698.5467126683
 31
0.0
  0
LINE
  5
83668
330
1F
100
AcDbEntity
  8
freecads.com
100
AcDbLine
 10
169074.8312638878
 20
106643.7294513491
 30
0.0
 11
169068.9804132936
 21
106643.4285874822
 31
0.0
  0
LINE
  5
83669
330
1F
100
AcDbEntity
  8
freecads.com
100
AcDbLine
 10
169074.8312638878
 20
106698.2041678019
 30
0.0
 11
169068.9804132936
 21
106698.5467126683
 31
0.0
  0
LINE
  5
8366A
330
1F
100
AcDbEntity
  8
freecads.com
100
AcDbLine
 10
169074.8312638878
 20
106643.4285874822
 30
0.0
 11
169087.2628291822
 21
106643.4285874822
 31
0.0
  0
LINE
  5
8366B
330
1F
100
AcDbEntity
  8
freecads.com
100
AcDbLine
 10
169074.8312638878
 20
106698.5467126683
 30
0.0
 11
169087.2628291822
 21
106698.5467126683
 31
0.0
  0
LINE
  5
8366C
330
1F
100
AcDbEntity
  8
freecads.com
100
AcDbLine
 10
169191.1221055519
 20
106648.0447699375
 30
0.0
 11
169107.0613530676
 21
106643.7221774117
 31
0.0
  0
LINE
  5
8366D
330
1F
100
AcDbEntity
  8
freecads.com
100
AcDbLine
 10
169191.1221055519
 20
106692.7116635694
 30
0.0
 11
169107.0613530676
 21
106697.6330982857
 31
0.0
  0
LINE
  5
8366E
330
1F
100
AcDbEntity
  8
freecads.com
100
AcDbLine
 10
169107.0613530676
 20
106643.7221774117
 30
0.0
 11
169107.0613530676
 21
106697.6330982857
 31
0.0
  0
LINE
  5
8366F
330
1F
100
AcDbEntity
  8
freecads.com
100
AcDbLine
 10
169191.1221055519
 20
106648.0447699375
 30
0.0
 11
169191.1221055519
 21
106649.7093873852
 31
0.0
  0
LINE
  5
83670
330
1F
100
AcDbEntity
  8
freecads.com
100
AcDbLine
 10
169191.1221055519
 20
106691.3957849545
 30
0.0
 11
169191.1221055519
 21
106692.7116635694
 31
0.0
  0
ENDSEC
  0
SECTION
  2
OBJECTS
  0
DICTIONARY
  5
C
330
0
100
AcDbDictionary
281
     1
  3
ACAD_ASSOCPERSSUBENTMANAGER
350
2C1D4
  3
ACAD_CIP_PREVIOUS_PRODUCT_INFO
350
1A5
  3
ACAD_COLOR
350
73
  3
ACAD_DETAILVIEWSTYLE
350
1AB
  3
ACAD_GROUP
350
D
  3
ACAD_LAYOUT
350
1A
  3
ACAD_MATERIAL
350
72
  3
ACAD_MLEADERSTYLE
350
D7
  3
ACAD_MLINESTYLE
350
17
  3
ACAD_PLOTSETTINGS
350
19
  3
ACAD_PLOTSTYLENAME
350
E
  3
ACAD_SCALELIST
350
B6
  3
ACAD_SECTIONVIEWSTYLE
350
1A8
  3
ACAD_TABLESTYLE
350
86
  3
ACAD_VISUALSTYLE
350
99
  3
ACAD_WIPEOUT_VARS
350
59B06
  3
ACDB_RECOMPOSE_DATA
350
83689
  3
ACDBVARIABLEDICTIONARY
350
4A0D5
  3
AEC_PROPERTY_SET_DEFS
350
22D1
  3
ASE_INDEX_DICTIONARY
350
81FD0
  0
DICTIONARY
  5
18E
330
2
100
AcDbDictionary
280
     1
281
     1
  3
ACAD_LAYERSTATES
360
18F
  0
DICTIONARY
  5
E6
330
10
100
AcDbDictionary
280
     1
281
     1
  0
DICTIONARY
  5
15D
330
1F
100
AcDbDictionary
280
     1
281
     1
  3
ACAD_SORTENTS
360
28E
  0
ACDBASSOCPERSSUBENTMANAGER
  5
2C1D4
102
{ACAD_REACTORS
330
C
102
}
330
C
100
AcDbAssocPersSubentManager
 90
        2
 90
        3
 90
        0
 90
        2
 90
     1260
 90
        0
 90
     1260
 90
        1
 90
        2
 90
        3
 90
        4
 90
        5
 90
        6
 90
        7
 90
        8
 90
        9
 90
       10
 90
       11
 90
       12
 90
       13
 90
       14
 90
       15
 90
       16
 90
       17
 90
       18
 90
       19
 90
       20
 90
       21
 90
       22
 90
       23
 90
       24
 90
       25
 90
       26
 90
       27
 90
       28
 90
       29
 90
       30
 90
       31
 90
       32
 90
       33
 90
       34
 90
       35
 90
       36
 90
       37
 90
       38
 90
       39
 90
       40
 90
       41
 90
       42
 90
       43
 90
       44
 90
       45
 90
       46
 90
       47
 90
       48
 90
       49
 90
       50
 90
       51
 90
       52
 90
       53
 90
       54
 90
       55
 90
       56
 90
       57
 90
       58
 90
       59
 90
       60
 90
       61
 90
       62
 90
       63
 90
       64
 90
       65
 90
       66
 90
       67
 90
       68
 90
       69
 90
       70
 90
       71
 90
       72
 90
       73
 90
       74
 90
       75
 90
       76
 90
       77
 90
       78
 90
       79
 90
       80
 90
       81
 90
       82
 90
       83
 90
       84
 90
       85
 90
       86
 90
       87
 90
       88
 90
       89
 90
       90
 90
       91
 90
       92
 90
       93
 90
       94
 90
       95
 90
       96
 90
       97
 90
       98
 90
       99
 90
      100
 90
      101
 90
      102
 90
      103
 90
      104
 90
      105
 90
      106
 90
      107
 90
      108
 90
      109
 90
      110
 90
      111
 90
      112
 90
      113
 90
      114
 90
      115
 90
      116
 90
      117
 90
      118
 90
      119
 90
      120
 90
      121
 90
      122
 90
      123
 90
      124
 90
      125
 90
      126
 90
      127
 90
      128
 90
      129
 90
      130
 90
      131
 90
      132
 90
      133
 90
      134
 90
      135
 90
      136
 90
      137
 90
      138
 90
      139
 90
      140
 90
      141
 90
      142
 90
      143
 90
      144
 90
      145
 90
      146
 90
      147
 90
      148
 90
      149
 90
      150
 90
      151
 90
      152
 90
      153
 90
      154
 90
      155
 90
      156
 90
      157
 90
      158
 90
      159
 90
      160
 90
      161
 90
      162
 90
      163
 90
      164
 90
      165
 90
      166
 90
      167
 90
      168
 90
      169
 90
      170
 90
      171
 90
      172
 90
      173
 90
      174
 90
      175
 90
      176
 90
      177
 90
      178
 90
      179
 90
      180
 90
      181
 90
      182
 90
      183
 90
      184
 90
      185
 90
      186
 90
      187
 90
      188
 90
      189
 90
      190
 90
      191
 90
      192
 90
      193
 90
      194
 90
      195
 90
      196
 90
      197
 90
      198
 90
      199
 90
      200
 90
      201
 90
      202
 90
      203
 90
      204
 90
      205
 90
      206
 90
      207
 90
      208
 90
      209
 90
      210
 90
      211
 90
      212
 90
      213
 90
      214
 90
      215
 90
      216
 90
      217
 90
      218
 90
      219
 90
      220
 90
      221
 90
      222
 90
      223
 90
      224
 90
      225
 90
      226
 90
      227
 90
      228
 90
      229
 90
      230
 90
      231
 90
      232
 90
      233
 90
      234
 90
      235
 90
      236
 90
      237
 90
      238
 90
      239
 90
      240
 90
      241
 90
      242
 90
      243
 90
      244
 90
      245
 90
      246
 90
      247
 90
      248
 90
      249
 90
      250
 90
      251
 90
      252
 90
      253
 90
      254
 90
      255
 90
      256
 90
      257
 90
      258
 90
      259
 90
      260
 90
      261
 90
      262
 90
      263
 90
      264
 90
      265
 90
      266
 90
      267
 90
      268
 90
      269
 90
      270
 90
      271
 90
      272
 90
      273
 90
      274
 90
      275
 90
      276
 90
      277
 90
      278
 90
      279
 90
      280
 90
      281
 90
      282
 90
      283
 90
      284
 90
      285
 90
      286
 90
      287
 90
      288
 90
      289
 90
      290
 90
      291
 90
      292
 90
      293
 90
      294
 90
      295
 90
      296
 90
      297
 90
      298
 90
      299
 90
      300
 90
      301
 90
      302
 90
      303
 90
      304
 90
      305
 90
      306
 90
      307
 90
      308
 90
      309
 90
      310
 90
      311
 90
      312
 90
      313
 90
      314
 90
      315
 90
      316
 90
      317
 90
      318
 90
      319
 90
      320
 90
      321
 90
      322
 90
      323
 90
      324
 90
      325
 90
      326
 90
      327
 90
      328
 90
      329
 90
      330
 90
      331
 90
      332
 90
      333
 90
      334
 90
      335
 90
      336
 90
      337
 90
      338
 90
      339
 90
      340
 90
      341
 90
      342
 90
      343
 90
      344
 90
      345
 90
      346
 90
      347
 90
      348
 90
      349
 90
      350
 90
      351
 90
      352
 90
      353
 90
      354
 90
      355
 90
      356
 90
      357
 90
      358
 90
      359
 90
      360
 90
      361
 90
      362
 90
      363
 90
      364
 90
      365
 90
      366
 90
      367
 90
      368
 90
      369
 90
      370
 90
      371
 90
      372
 90
      373
 90
      374
 90
      375
 90
      376
 90
      377
 90
      378
 90
      379
 90
      380
 90
      381
 90
      382
 90
      383
 90
      384
 90
      385
 90
      386
 90
      387
 90
      388
 90
      389
 90
      390
 90
      391
 90
      392
 90
      393
 90
      394
 90
      395
 90
      396
 90
      397
 90
      398
 90
      399
 90
      400
 90
      401
 90
      402
 90
      403
 90
      404
 90
      405
 90
      406
 90
      407
 90
      408
 90
      409
 90
      410
 90
      411
 90
      412
 90
      413
 90
      414
 90
      415
 90
      416
 90
      417
 90
      418
 90
      419
 90
      420
 90
      421
 90
      422
 90
      423
 90
      424
 90
      425
 90
      426
 90
      427
 90
      428
 90
      429
 90
      430
 90
      431
 90
      432
 90
      433
 90
      434
 90
      435
 90
      436
 90
      437
 90
      438
 90
      439
 90
      440
 90
      441
 90
      442
 90
      443
 90
      444
 90
      445
 90
      446
 90
      447
 90
      448
 90
      449
 90
      450
 90
      451
 90
      452
 90
      453
 90
      454
 90
      455
 90
      456
 90
      457
 90
      458
 90
      459
 90
      460
 90
      461
 90
      462
 90
      463
 90
      464
 90
      465
 90
      466
 90
      467
 90
      468
 90
      469
 90
      470
 90
      471
 90
      472
 90
      473
 90
      474
 90
      475
 90
      476
 90
      477
 90
      478
 90
      479
 90
      480
 90
      481
 90
      482
 90
      483
 90
      484
 90
      485
 90
      486
 90
      487
 90
      488
 90
      489
 90
      490
 90
      491
 90
      492
 90
      493
 90
      494
 90
      495
 90
      496
 90
      497
 90
      498
 90
      499
 90
      500
 90
      501
 90
      502
 90
      503
 90
      504
 90
      505
 90
      506
 90
      507
 90
      508
 90
      509
 90
      510
 90
      511
 90
      512
 90
      513
 90
      514
 90
      515
 90
      516
 90
      517
 90
      518
 90
      519
 90
      520
 90
      521
 90
      522
 90
      523
 90
      524
 90
      525
 90
      526
 90
      527
 90
      528
 90
      529
 90
      530
 90
      531
 90
      532
 90
      533
 90
      534
 90
      535
 90
      536
 90
      537
 90
      538
 90
      539
 90
      540
 90
      541
 90
      542
 90
      543
 90
      544
 90
      545
 90
      546
 90
      547
 90
      548
 90
      549
 90
      550
 90
      551
 90
      552
 90
      553
 90
      554
 90
      555
 90
      556
 90
      557
 90
      558
 90
      559
 90
      560
 90
      561
 90
      562
 90
      563
 90
      564
 90
      565
 90
      566
 90
      567
 90
      568
 90
      569
 90
      570
 90
      571
 90
      572
 90
      573
 90
      574
 90
      575
 90
      576
 90
      577
 90
      578
 90
      579
 90
      580
 90
      581
 90
      582
 90
      583
 90
      584
 90
      585
 90
      586
 90
      587
 90
      588
 90
      589
 90
      590
 90
      591
 90
      592
 90
      593
 90
      594
 90
      595
 90
      596
 90
      597
 90
      598
 90
      599
 90
      600
 90
      601
 90
      602
 90
      603
 90
      604
 90
      605
 90
      606
 90
      607
 90
      608
 90
      609
 90
      610
 90
      611
 90
      612
 90
      613
 90
      614
 90
      615
 90
      616
 90
      617
 90
      618
 90
      619
 90
      620
 90
      621
 90
      622
 90
      623
 90
      624
 90
      625
 90
      626
 90
      627
 90
      628
 90
      629
 90
      630
 90
      631
 90
      632
 90
      633
 90
      634
 90
      635
 90
      636
 90
      637
 90
      638
 90
      639
 90
      640
 90
      641
 90
      642
 90
      643
 90
      644
 90
      645
 90
      646
 90
      647
 90
      648
 90
      649
 90
      650
 90
      651
 90
      652
 90
      653
 90
      654
 90
      655
 90
      656
 90
      657
 90
      658
 90
      659
 90
      660
 90
      661
 90
      662
 90
      663
 90
      664
 90
      665
 90
      666
 90
      667
 90
      668
 90
      669
 90
      670
 90
      671
 90
      672
 90
      673
 90
      674
 90
      675
 90
      676
 90
      677
 90
      678
 90
      679
 90
      680
 90
      681
 90
      682
 90
      683
 90
      684
 90
      685
 90
      686
 90
      687
 90
      688
 90
      689
 90
      690
 90
      691
 90
      692
 90
      693
 90
      694
 90
      695
 90
      696
 90
      697
 90
      698
 90
      699
 90
      700
 90
      701
 90
      702
 90
      703
 90
      704
 90
      705
 90
      706
 90
      707
 90
      708
 90
      709
 90
      710
 90
      711
 90
      712
 90
      713
 90
      714
 90
      715
 90
      716
 90
      717
 90
      718
 90
      719
 90
      720
 90
      721
 90
      722
 90
      723
 90
      724
 90
      725
 90
      726
 90
      727
 90
      728
 90
      729
 90
      730
 90
      731
 90
      732
 90
      733
 90
      734
 90
      735
 90
      736
 90
      737
 90
      738
 90
      739
 90
      740
 90
      741
 90
      742
 90
      743
 90
      744
 90
      745
 90
      746
 90
      747
 90
      748
 90
      749
 90
      750
 90
      751
 90
      752
 90
      753
 90
      754
 90
      755
 90
      756
 90
      757
 90
      758
 90
      759
 90
      760
 90
      761
 90
      762
 90
      763
 90
      764
 90
      765
 90
      766
 90
      767
 90
      768
 90
      769
 90
      770
 90
      771
 90
      772
 90
      773
 90
      774
 90
      775
 90
      776
 90
      777
 90
      778
 90
      779
 90
      780
 90
      781
 90
      782
 90
      783
 90
      784
 90
      785
 90
      786
 90
      787
 90
      788
 90
      789
 90
      790
 90
      791
 90
      792
 90
      793
 90
      794
 90
      795
 90
      796
 90
      797
 90
      798
 90
      799
 90
      800
 90
      801
 90
      802
 90
      803
 90
      804
 90
      805
 90
      806
 90
      807
 90
      808
 90
      809
 90
      810
 90
      811
 90
      812
 90
      813
 90
      814
 90
      815
 90
      816
 90
      817
 90
      818
 90
      819
 90
      820
 90
      821
 90
      822
 90
      823
 90
      824
 90
      825
 90
      826
 90
      827
 90
      828
 90
      829
 90
      830
 90
      831
 90
      832
 90
      833
 90
      834
 90
      835
 90
      836
 90
      837
 90
      838
 90
      839
 90
      840
 90
      841
 90
      842
 90
      843
 90
      844
 90
      845
 90
      846
 90
      847
 90
      848
 90
      849
 90
      850
 90
      851
 90
      852
 90
      853
 90
      854
 90
      855
 90
      856
 90
      857
 90
      858
 90
      859
 90
      860
 90
      861
 90
      862
 90
      863
 90
      864
 90
      865
 90
      866
 90
      867
 90
      868
 90
      869
 90
      870
 90
      871
 90
      872
 90
      873
 90
      874
 90
      875
 90
      876
 90
      877
 90
      878
 90
      879
 90
      880
 90
      881
 90
      882
 90
      883
 90
      884
 90
      885
 90
      886
 90
      887
 90
      888
 90
      889
 90
      890
 90
      891
 90
      892
 90
      893
 90
      894
 90
      895
 90
      896
 90
      897
 90
      898
 90
      899
 90
      900
 90
      901
 90
      902
 90
      903
 90
      904
 90
      905
 90
      906
 90
      907
 90
      908
 90
      909
 90
      910
 90
      911
 90
      912
 90
      913
 90
      914
 90
      915
 90
      916
 90
      917
 90
      918
 90
      919
 90
      920
 90
      921
 90
      922
 90
      923
 90
      924
 90
      925
 90
      926
 90
      927
 90
      928
 90
      929
 90
      930
 90
      931
 90
      932
 90
      933
 90
      934
 90
      935
 90
      936
 90
      937
 90
      938
 90
      939
 90
      940
 90
      941
 90
      942
 90
      943
 90
      944
 90
      945
 90
      946
 90
      947
 90
      948
 90
      949
 90
      950
 90
      951
 90
      952
 90
      953
 90
      954
 90
      955
 90
      956
 90
      957
 90
      958
 90
      959
 90
      960
 90
      961
 90
      962
 90
      963
 90
      964
 90
      965
 90
      966
 90
      967
 90
      968
 90
      969
 90
      970
 90
      971
 90
      972
 90
      973
 90
      974
 90
      975
 90
      976
 90
      977
 90
      978
 90
      979
 90
      980
 90
      981
 90
      982
 90
      983
 90
      984
 90
      985
 90
      986
 90
      987
 90
      988
 90
      989
 90
      990
 90
      991
 90
      992
 90
      993
 90
      994
 90
      995
 90
      996
 90
      997
 90
      998
 90
      999
 90
     1000
 90
     1001
 90
     1002
 90
     1003
 90
     1004
 90
     1005
 90
     1006
 90
     1007
 90
     1008
 90
     1009
 90
     1010
 90
     1011
 90
     1012
 90
     1013
 90
     1014
 90
     1015
 90
     1016
 90
     1017
 90
     1018
 90
     1019
 90
     1020
 90
     1021
 90
     1022
 90
     1023
 90
     1024
 90
     1025
 90
     1026
 90
     1027
 90
     1028
 90
     1029
 90
     1030
 90
     1031
 90
     1032
 90
     1033
 90
     1034
 90
     1035
 90
     1036
 90
     1037
 90
     1038
 90
     1039
 90
     1040
 90
     1041
 90
     1042
 90
     1043
 90
     1044
 90
     1045
 90
     1046
 90
     1047
 90
     1048
 90
     1049
 90
     1050
 90
     1051
 90
     1052
 90
     1053
 90
     1054
 90
     1055
 90
     1056
 90
     1057
 90
     1058
 90
     1059
 90
     1060
 90
     1061
 90
     1062
 90
     1063
 90
     1064
 90
     1065
 90
     1066
 90
     1067
 90
     1068
 90
     1069
 90
     1070
 90
     1071
 90
     1072
 90
     1073
 90
     1074
 90
     1075
 90
     1076
 90
     1077
 90
     1078
 90
     1079
 90
     1080
 90
     1081
 90
     1082
 90
     1083
 90
     1084
 90
     1085
 90
     1086
 90
     1087
 90
     1088
 90
     1089
 90
     1090
 90
     1091
 90
     1092
 90
     1093
 90
     1094
 90
     1095
 90
     1096
 90
     1097
 90
     1098
 90
     1099
 90
     1100
 90
     1101
 90
     1102
 90
     1103
 90
     1104
 90
     1105
 90
     1106
 90
     1107
 90
     1108
 90
     1109
 90
     1110
 90
     1111
 90
     1112
 90
     1113
 90
     1114
 90
     1115
 90
     1116
 90
     1117
 90
     1118
 90
     1119
 90
     1120
 90
     1121
 90
     1122
 90
     1123
 90
     1124
 90
     1125
 90
     1126
 90
     1127
 90
     1128
 90
     1129
 90
     1130
 90
     1131
 90
     1132
 90
     1133
 90
     1134
 90
     1135
 90
     1136
 90
     1137
 90
     1138
 90
     1139
 90
     1140
 90
     1141
 90
     1142
 90
     1143
 90
     1144
 90
     1145
 90
     1146
 90
     1147
 90
     1148
 90
     1149
 90
     1150
 90
     1151
 90
     1152
 90
     1153
 90
     1154
 90
     1155
 90
     1156
 90
     1157
 90
     1158
 90
     1159
 90
     1160
 90
     1161
 90
     1162
 90
     1163
 90
     1164
 90
     1165
 90
     1166
 90
     1167
 90
     1168
 90
     1169
 90
     1170
 90
     1171
 90
     1172
 90
     1173
 90
     1174
 90
     1175
 90
     1176
 90
     1177
 90
     1178
 90
     1179
 90
     1180
 90
     1181
 90
     1182
 90
     1183
 90
     1184
 90
     1185
 90
     1186
 90
     1187
 90
     1188
 90
     1189
 90
     1190
 90
     1191
 90
     1192
 90
     1193
 90
     1194
 90
     1195
 90
     1196
 90
     1197
 90
     1198
 90
     1199
 90
     1200
 90
     1201
 90
     1202
 90
     1203
 90
     1204
 90
     1205
 90
     1206
 90
     1207
 90
     1208
 90
     1209
 90
     1210
 90
     1211
 90
     1212
 90
     1213
 90
     1214
 90
     1215
 90
     1216
 90
     1217
 90
     1218
 90
     1219
 90
     1220
 90
     1221
 90
     1222
 90
     1223
 90
     1224
 90
     1225
 90
     1226
 90
     1227
 90
     1228
 90
     1229
 90
     1230
 90
     1231
 90
     1232
 90
     1233
 90
     1234
 90
     1235
 90
     1236
 90
     1237
 90
     1238
 90
     1239
 90
     1240
 90
     1241
 90
     1242
 90
     1243
 90
     1244
 90
     1245
 90
     1246
 90
     1247
 90
     1248
 90
     1249
 90
     1250
 90
     1251
 90
     1252
 90
     1253
 90
     1254
 90
     1255
 90
     1256
 90
     1257
 90
     1258
 90
     1259
 90
     1260
 90
        0
 90
        0
290
     0
  0
XRECORD
  5
1A5
102
{ACAD_REACTORS
330
C
102
}
330
C
100
AcDbXrecord
280
     1
300
ACD
300
2022
300

  0
DICTIONARY
  5
73
102
{ACAD_REACTORS
330
C
102
}
330
C
100
AcDbDictionary
281
     1
  0
DICTIONARY
  5
1AB
102
{ACAD_REACTORS
330
C
102
}
330
C
100
AcDbDictionary
281
     1
  3
Imperial24
350
1AC
  3
Metric50
350
224
  0
DICTIONARY
  5
D
102
{ACAD_REACTORS
330
C
102
}
330
C
100
AcDbDictionary
281
     1
  0
DICTIONARY
  5
1A
102
{ACAD_REACTORS
330
C
102
}
330
C
100
AcDbDictionary
281
     1
  3
Layout1
350
59
  3
Layout2
350
5E
  3
Model
350
22
  0
DICTIONARY
  5
72
102
{ACAD_REACTORS
330
C
102
}
330
C
100
AcDbDictionary
281
     1
  3
ByBlock
350
97
  3
ByLayer
350
96
  3
Global
350
98
  0
DICTIONARY
  5
D7
102
{ACAD_REACTORS
330
C
102
}
330
C
100
AcDbDictionary
281
     1
  3
Standard
350
D8
  0
DICTIONARY
  5
17
102
{ACAD_REACTORS
330
C
102
}
330
C
100
AcDbDictionary
281
     1
  3
Standard
350
18
  0
DICTIONARY
  5
19
102
{ACAD_REACTORS
330
C
102
}
330
C
100
AcDbDictionary
281
     1
  0
ACDBDICTIONARYWDFLT
  5
E
102
{ACAD_REACTORS
330
C
102
}
330
C
100
AcDbDictionary
281
     1
  3
Normal
350
F
100
AcDbDictionaryWithDefault
340
F
  0
DICTIONARY
  5
B6
102
{ACAD_REACTORS
330
C
102
}
330
C
100
AcDbDictionary
281
     1
  3
*A1
350
2283
  3
A0
350
B7
  3
A1
350
124
  3
A2
350
125
  3
A3
350
126
  3
A4
350
127
  3
A5
350
128
  3
A6
350
129
  3
A7
350
12A
  3
A8
350
12B
  3
A9
350
12C
  3
B0
350
12D
  3
B1
350
12E
  3
B2
350
12F
  3
B3
350
130
  3
B4
350
131
  3
B5
350
132
  3
B6
350
133
  3
B7
350
134
  3
B8
350
135
  3
B9
350
136
  3
C0
350
137
  3
C1
350
138
  3
C2
350
139
  3
C3
350
13A
  3
C4
350
13B
  3
C5
350
13C
  3
C6
350
13D
  3
C7
350
13E
  3
C8
350
13F
  3
C9
350
140
  3
D0
350
141
  3
D1
350
142
  3
D2
350
143
  0
DICTIONARY
  5
1A8
102
{ACAD_REACTORS
330
C
102
}
330
C
100
AcDbDictionary
281
     1
  3
Imperial24
350
1AA
  3
Metric50
350
223
  0
DICTIONARY
  5
86
102
{ACAD_REACTORS
330
C
102
}
330
C
100
AcDbDictionary
281
     1
  3
Standard
350
87
  0
DICTIONARY
  5
99
102
{ACAD_REACTORS
330
C
102
}
330
C
100
AcDbDictionary
281
     1
  3
2dWireframe
350
9F
  3
3dWireframe
350
22946
  3
Basic
350
9E
  3
Brighten
350
A5
  3
ColorChange
350
A9
  3
Conceptual
350
A2
  3
Dim
350
A4
  3
EdgeColorOff
350
175
  3
Facepattern
350
A8
  3
Flat
350
9A
  3
FlatWithEdges
350
9B
  3
Gouraud
350
9C
  3
GouraudWithEdges
350
9D
  3
Hidden
350
A1
  3
JitterOff
350
173
  3
Linepattern
350
A7
  3
OverhangOff
350
174
  3
Realistic
350
A3
  3
Shaded
350
182
  3
Shaded with edges
350
181
  3
Shades of Gray
350
17E
  3
Sketchy
350
17F
  3
Thicken
350
A6
  3
Wireframe
350
A0
  3
X-Ray
350
180
  0
WIPEOUTVARIABLES
  5
59B06
102
{ACAD_REACTORS
330
C
102
}
330
C
100
AcDbWipeoutVariables
 70
     1
  0
XRECORD
  5
83689
102
{ACAD_REACTORS
330
C
102
}
330
C
100
AcDbXrecord
280
     1
 90
        1
330
87
  0
DICTIONARY
  5
4A0D5
102
{ACAD_REACTORS
330
C
102
}
330
C
100
AcDbDictionary
281
     2
  3
#COMPAREDIFFTOTAL
350
4A0D6
  3
#REVCLOUDAPPROXARCLEN
350
4A0D7
  3
ANNOALLVISIBLE
350
4A0D8
  3
CANNOSCALE
350
4A0D9
  3
CMLEADERSTYLE
350
4A0DA
  3
CTABLESTYLE
350
4A0DB
  3
CVIEWDETAILSTYLE
350
4A0DC
  3
CVIEWSECTIONSTYLE
350
4A0DD
  3
DIMADEC
350
4A0DE
  3
DIMASSOC
350
4A0DF
  3
DWFFRAME
350
4A0E0
  3
HIDETEXT
350
4A0E1
  3
HPCOLOR
350
4A0E2
  3
HPLAYER
350
4A0E3
  3
HPTRANSPARENCY
350
4A0E4
  3
INDEXCTL
350
4A0E5
  3
LAYEREVAL
350
4A0E6
  3
LAYERNOTIFY
350
4A0E7
  3
LIGHTINGUNITS
350
4A0E8
  3
MLEADERSCALE
350
4A0E9
  3
MSLTSCALE
350
4A0EA
  3
MSOLESCALE
350
4A0EB
  3
PDFFRAME
350
4A0EC
  3
POINTCLOUDCLIPFRAME
350
4A0ED
  3
PROJECTNAME
350
4A0EE
  3
SOLIDHIST
350
4A0EF
  3
SORTENTS
350
4A0F0
  0
DICTIONARY
  5
22D1
102
{ACAD_REACTORS
330
C
102
}
330
C
100
AcDbDictionary
281
     1
  0
DICTIONARY
  5
81FD0
102
{ACAD_REACTORS
330
C
102
}
330
C
100
AcDbDictionary
281
     1
  3
ASEBlockHierarchyIndexRecord
350
81FD1
1001
DCO15
1040
2132591008.0
  0
DICTIONARY
  5
18F
102
{ACAD_REACTORS
330
18E
102
}
330
18E
100
AcDbDictionary
281
     1
  0
SORTENTSTABLE
  5
28E
102
{ACAD_REACTORS
330
15D
102
}
330
15D
100
AcDbSortentsTable
330
1F
  0
ACDBDETAILVIEWSTYLE
  5
1AC
102
{ACAD_REACTORS
330
1AB
102
}
330
1AB
100
AcDbModelDocViewStyle
 70
     0
  3
Imperial24
290
     0
300
Imperial24
 90
        0
100
AcDbDetailViewStyle
 70
     0
 71
     0
 90
        3
 71
     1
340
11
 62
   256
 40
0.24
340
0
 62
   256
 40
0.24
300

 40
0.36
280
     3
 71
     2
340
16
 90
       25
 62
   256
 71
     3
340
11
 62
   256
 40
0.24
 90
        1
 40
0.75
 90
        1
300
%<\AcVar ViewType \f "%tc1">% %<\AcVar ViewDetailId>%\PSCALE %<\AcVar ViewScale \f "%sn">%
 71
     4
340
16
 90
       25
 62
   256
340
16
 90
       25
 62
   256
280
     0
  0
ACDBDETAILVIEWSTYLE
  5
224
102
{ACAD_REACTORS
330
1AB
102
}
330
1AB
100
AcDbModelDocViewStyle
 70
     0
  3
Metric50
290
     0
300
Metric50
 90
        0
100
AcDbDetailViewStyle
 70
     0
 71
     0
 90
        3
 71
     1
340
11
 62
   256
 40
5.0
340
0
 62
   256
 40
5.0
300

 40
0.0
280
     1
 71
     2
340
16
 90
       25
 62
   256
 71
     3
340
11
 62
   256
 40
5.0
 90
        0
 40
15.0
 90
        1
300
%<\AcVar ViewDetailId>% (%<\AcVar ViewScale \f "%sn">%)
 71
     4
340
16
 90
       25
 62
   256
340
16
 90
       25
 62
   256
280
     0
  0
LAYOUT
  5
59
102
{ACAD_REACTORS
330
1A
102
}
330
1A
100
AcDbPlotSettings
  1

  2
None
  4

  6

 40
0.0
 41
0.0
 42
0.0
 43
0.0
 44
0.0
 45
0.0
 46
0.0
 47
0.0
 48
0.0
 49
0.0
140
0.0
141
0.0
142
1.0
143
1.0
 70
   688
 72
     0
 73
     0
 74
     5
  7

 75
    16
147
1.0
 76
     0
 77
     2
 78
   300
148
0.0
149
0.0
100
AcDbLayout
  1
Layout1
 70
     1
 71
     1
 10
0.0
 20
0.0
 11
12.0
 21
9.0
 12
0.0
 22
0.0
 32
0.0
 14
0.0
 24
0.0
 34
0.0
 15
0.0
 25
0.0
 35
0.0
146
0.0
 13
0.0
 23
0.0
 33
0.0
 16
1.0
 26
0.0
 36
0.0
 17
0.0
 27
1.0
 37
0.0
 76
     0
330
58
  0
LAYOUT
  5
5E
102
{ACAD_REACTORS
330
1A
102
}
330
1A
100
AcDbPlotSettings
  1

  2
None
  4

  6

 40
0.0
 41
0.0
 42
0.0
 43
0.0
 44
0.0
 45
0.0
 46
0.0
 47
0.0
 48
0.0
 49
0.0
140
0.0
141
0.0
142
1.0
143
1.0
 70
   688
 72
     0
 73
     0
 74
     5
  7

 75
    16
147
1.0
 76
     0
 77
     2
 78
   300
148
0.0
149
0.0
100
AcDbLayout
  1
Layout2
 70
     1
 71
     2
 10
0.0
 20
0.0
 11
12.0
 21
9.0
 12
0.0
 22
0.0
 32
0.0
 14
0.0
 24
0.0
 34
0.0
 15
0.0
 25
0.0
 35
0.0
146
0.0
 13
0.0
 23
0.0
 33
0.0
 16
1.0
 26
0.0
 36
0.0
 17
0.0
 27
1.0
 37
0.0
 76
     0
330
5D
  0
LAYOUT
  5
22
102
{ACAD_XDICTIONARY
360
194
102
}
102
{ACAD_REACTORS
330
1A
102
}
330
1A
100
AcDbPlotSettings
  1

  2
none_device
  4
ANSI_A_(8.50_x_11.00_Inches)
  6

 40
6.349999904632568
 41
19.04999923706055
 42
6.350006103515625
 43
19.04998779296875
 44
215.8999938964844
 45
279.3999938964844
 46
0.0
 47
0.0
 48
0.0
 49
0.0
140
0.0
141
0.0
142
1.0
143
2.584895464708373
 70
 11952
 72
     0
 73
     1
 74
     0
  7

 75
     0
147
0.3868628397755418
 76
     0
 77
     2
 78
   300
148
0.0
149
0.0
100
AcDbLayout
  1
Model
 70
     1
 71
     0
 10
0.0
 20
0.0
 11
12.0
 21
9.0
 12
0.0
 22
0.0
 32
0.0
 14
0.0
 24
0.0
 34
0.0
 15
0.0
 25
0.0
 35
0.0
146
0.0
 13
0.0
 23
0.0
 33
0.0
 16
1.0
 26
0.0
 36
0.0
 17
0.0
 27
1.0
 37
0.0
 76
     0
330
1F
331
94
  0
MATERIAL
  5
97
102
{ACAD_XDICTIONARY
360
188
102
}
102
{ACAD_REACTORS
330
72
102
}
330
72
100
AcDbMaterial
  1
ByBlock
 94
       63
  0
MATERIAL
  5
96
102
{ACAD_XDICTIONARY
360
186
102
}
102
{ACAD_REACTORS
330
72
102
}
330
72
100
AcDbMaterial
  1
ByLayer
 94
       63
  0
MATERIAL
  5
98
102
{ACAD_XDICTIONARY
360
110
102
}
102
{ACAD_REACTORS
330
72
102
}
330
72
100
AcDbMaterial
  1
Global
 43
0.0208000000566244
 43
0.0
 43
0.0
 43
0.0
 43
0.0
 43
0.0208000000566244
 43
0.0
 43
0.0
 43
0.0
 43
0.0
 43
1.0
 43
0.0
 43
0.0
 43
0.0
 43
0.0
 43
1.0
 49
0.0208000000566244
 49
0.0
 49
0.0
 49
0.0
 49
0.0
 49
0.0208000000566244
 49
0.0
 49
0.0
 49
0.0
 49
0.0
 49
1.0
 49
0.0
 49
0.0
 49
0.0
 49
0.0
 49
1.0
142
0.0208000000566244
142
0.0
142
0.0
142
0.0
142
0.0
142
0.0208000000566244
142
0.0
142
0.0
142
0.0
142
0.0
142
1.0
142
0.0
142
0.0
142
0.0
142
0.0
142
1.0
144
0.0208000000566244
144
0.0
144
0.0
144
0.0
144
0.0
144
0.0208000000566244
144
0.0
144
0.0
144
0.0
144
0.0
144
1.0
144
0.0
144
0.0
144
0.0
144
0.0
144
1.0
 94
       63
1001
ACAD
1070
    -1
1070
     3
1070
     0
1000

1071
        0
1070
     0
  0
MLEADERSTYLE
  5
D8
102
{ACAD_REACTORS
330
D7
102
}
330
D7
100
AcDbMLeaderStyle
179
     2
170
     2
171
     1
172
     0
 90
        2
 40
0.0
 41
0.0
173
     1
 91
-1056964608
340
14
 92
       -2
290
     1
 42
0.09
291
     1
 43
0.36
  3
Standard
 44
0.18
300

342
11
174
     1
178
     1
175
     1
176
     0
 93
-1056964608
 45
0.18
292
     0
297
     0
 46
0.18
 94
-1056964608
 47
1.0
 49
1.0
140
1.0
293
     1
141
0.0
294
     1
177
     0
142
1.0
295
     0
296
     0
143
0.125
271
     0
272
     9
273
     9
298
     0
  0
MLINESTYLE
  5
18
102
{ACAD_REACTORS
330
17
102
}
330
17
100
AcDbMlineStyle
  2
STANDARD
 70
     0
  3

 62
   256
 51
90.0
 52
90.0
 71
     2
 49
0.5
 62
   256
  6
BYLAYER
 49
-0.5
 62
   256
  6
BYLAYER
  0
ACDBPLACEHOLDER
  5
F
102
{ACAD_REACTORS
330
E
102
}
330
E
  0
SCALE
  5
2283
102
{ACAD_REACTORS
330
B6
102
}
330
B6
100
AcDbScale
 70
     0
300
1:75
140
1.0
141
75.0
290
     0
  0
SCALE
  5
B7
102
{ACAD_REACTORS
330
B6
102
}
330
B6
100
AcDbScale
 70
     0
300
1:1
140
1.0
141
1.0
290
     1
  0
SCALE
  5
124
102
{ACAD_REACTORS
330
B6
102
}
330
B6
100
AcDbScale
 70
     0
300
1:2
140
1.0
141
2.0
290
     0
  0
SCALE
  5
125
102
{ACAD_REACTORS
330
B6
102
}
330
B6
100
AcDbScale
 70
     0
300
1:4
140
1.0
141
4.0
290
     0
  0
SCALE
  5
126
102
{ACAD_REACTORS
330
B6
102
}
330
B6
100
AcDbScale
 70
     0
300
1:5
140
1.0
141
5.0
290
     0
  0
SCALE
  5
127
102
{ACAD_REACTORS
330
B6
102
}
330
B6
100
AcDbScale
 70
     0
300
1:8
140
1.0
141
8.0
290
     0
  0
SCALE
  5
128
102
{ACAD_REACTORS
330
B6
102
}
330
B6
100
AcDbScale
 70
     0
300
1:10
140
1.0
141
10.0
290
     0
  0
SCALE
  5
129
102
{ACAD_REACTORS
330
B6
102
}
330
B6
100
AcDbScale
 70
     0
300
1:16
140
1.0
141
16.0
290
     0
  0
SCALE
  5
12A
102
{ACAD_REACTORS
330
B6
102
}
330
B6
100
AcDbScale
 70
     0
300
1:20
140
1.0
141
20.0
290
     0
  0
SCALE
  5
12B
102
{ACAD_REACTORS
330
B6
102
}
330
B6
100
AcDbScale
 70
     0
300
1:30
140
1.0
141
30.0
290
     0
  0
SCALE
  5
12C
102
{ACAD_REACTORS
330
B6
102
}
330
B6
100
AcDbScale
 70
     0
300
1:40
140
1.0
141
40.0
290
     0
  0
SCALE
  5
12D
102
{ACAD_REACTORS
330
B6
102
}
330
B6
100
AcDbScale
 70
     0
300
1:50
140
1.0
141
50.0
290
     0
  0
SCALE
  5
12E
102
{ACAD_REACTORS
330
B6
102
}
330
B6
100
AcDbScale
 70
     0
300
1:100
140
1.0
141
100.0
290
     0
  0
SCALE
  5
12F
102
{ACAD_REACTORS
330
B6
102
}
330
B6
100
AcDbScale
 70
     0
300
2:1
140
2.0
141
1.0
290
     0
  0
SCALE
  5
130
102
{ACAD_REACTORS
330
B6
102
}
330
B6
100
AcDbScale
 70
     0
300
4:1
140
4.0
141
1.0
290
     0
  0
SCALE
  5
131
102
{ACAD_REACTORS
330
B6
102
}
330
B6
100
AcDbScale
 70
     0
300
8:1
140
8.0
141
1.0
290
     0
  0
SCALE
  5
132
102
{ACAD_REACTORS
330
B6
102
}
330
B6
100
AcDbScale
 70
     0
300
10:1
140
10.0
141
1.0
290
     0
  0
SCALE
  5
133
102
{ACAD_REACTORS
330
B6
102
}
330
B6
100
AcDbScale
 70
     0
300
100:1
140
100.0
141
1.0
290
     0
  0
SCALE
  5
134
102
{ACAD_REACTORS
330
B6
102
}
330
B6
100
AcDbScale
 70
     0
300
1/128" = 1'-0"
140
0.0078125
141
12.0
290
     0
  0
SCALE
  5
135
102
{ACAD_REACTORS
330
B6
102
}
330
B6
100
AcDbScale
 70
     0
300
1/64" = 1'-0"
140
0.015625
141
12.0
290
     0
  0
SCALE
  5
136
102
{ACAD_REACTORS
330
B6
102
}
330
B6
100
AcDbScale
 70
     0
300
1/32" = 1'-0"
140
0.03125
141
12.0
290
     0
  0
SCALE
  5
137
102
{ACAD_REACTORS
330
B6
102
}
330
B6
100
AcDbScale
 70
     0
300
1/16" = 1'-0"
140
0.0625
141
12.0
290
     0
  0
SCALE
  5
138
102
{ACAD_REACTORS
330
B6
102
}
330
B6
100
AcDbScale
 70
     0
300
3/32" = 1'-0"
140
0.09375
141
12.0
290
     0
  0
SCALE
  5
139
102
{ACAD_REACTORS
330
B6
102
}
330
B6
100
AcDbScale
 70
     0
300
1/8" = 1'-0"
140
0.125
141
12.0
290
     0
  0
SCALE
  5
13A
102
{ACAD_REACTORS
330
B6
102
}
330
B6
100
AcDbScale
 70
     0
300
3/16" = 1'-0"
140
0.1875
141
12.0
290
     0
  0
SCALE
  5
13B
102
{ACAD_REACTORS
330
B6
102
}
330
B6
100
AcDbScale
 70
     0
300
1/4" = 1'-0"
140
0.25
141
12.0
290
     0
  0
SCALE
  5
13C
102
{ACAD_REACTORS
330
B6
102
}
330
B6
100
AcDbScale
 70
     0
300
3/8" = 1'-0"
140
0.375
141
12.0
290
     0
  0
SCALE
  5
13D
102
{ACAD_REACTORS
330
B6
102
}
330
B6
100
AcDbScale
 70
     0
300
1/2" = 1'-0"
140
0.5
141
12.0
290
     0
  0
SCALE
  5
13E
102
{ACAD_REACTORS
330
B6
102
}
330
B6
100
AcDbScale
 70
     0
300
3/4" = 1'-0"
140
0.75
141
12.0
290
     0
  0
SCALE
  5
13F
102
{ACAD_REACTORS
330
B6
102
}
330
B6
100
AcDbScale
 70
     0
300
1" = 1'-0"
140
1.0
141
12.0
290
     0
  0
SCALE
  5
140
102
{ACAD_REACTORS
330
B6
102
}
330
B6
100
AcDbScale
 70
     0
300
1-1/2" = 1'-0"
140
1.5
141
12.0
290
     0
  0
SCALE
  5
141
102
{ACAD_REACTORS
330
B6
102
}
330
B6
100
AcDbScale
 70
     0
300
3" = 1'-0"
140
3.0
141
12.0
290
     0
  0
SCALE
  5
142
102
{ACAD_REACTORS
330
B6
102
}
330
B6
100
AcDbScale
 70
     0
300
6" = 1'-0"
140
6.0
141
12.0
290
     0
  0
SCALE
  5
143
102
{ACAD_REACTORS
330
B6
102
}
330
B6
100
AcDbScale
 70
     0
300
1'-0" = 1'-0"
140
12.0
141
12.0
290
     0
  0
ACDBSECTIONVIEWSTYLE
  5
1AA
102
{ACAD_REACTORS
330
1A8
102
}
330
1A8
100
AcDbModelDocViewStyle
 70
     0
  3
Imperial24
290
     0
300
Imperial24
 90
        0
100
AcDbSectionViewStyle
 70
     0
 71
     0
 90
       78
 71
     1
340
11
 62
   256
 40
0.24
340
0
340
0
 62
   256
 40
0.24
300
I, O, Q, S, X, Z
 40
0.48
 90
        3
 40
0.18
 90
        1
 71
     2
340
16
 90
       25
 62
   256
340
16
 90
       50
 62
   256
 40
0.24
 40
0.0
 40
0.24
 71
     3
340
11
 62
   256
 40
0.24
 90
        1
 40
0.75
 90
        1
300
%<\AcVar ViewType \f "%tc1">% %<\AcVar ViewSectionStartId>%-%<\AcVar ViewSectionEndId>%\PSCALE %<\AcVar ViewScale \f "%sn">%
 71
     4
 62
   256
 62
   257
300
ANSI31
 40
1.0
 90
        0
290
     0
290
     0
 90
        6
 40
0.0
 40
1.570796326794896
 40
0.2617993877991494
 40
1.308996938995747
 40
-0.2617993877991494
 40
1.832595714594046
  0
ACDBSECTIONVIEWSTYLE
  5
223
102
{ACAD_REACTORS
330
1A8
102
}
330
1A8
100
AcDbModelDocViewStyle
 70
     0
  3
Metric50
290
     0
300
Metric50
 90
        0
100
AcDbSectionViewStyle
 70
     0
 71
     0
 90
      102
 71
     1
340
11
 62
   256
 40
5.0
340
0
340
0
 62
   256
 40
5.0
300
I, O, Q, S, X, Z
 40
10.0
 90
        0
 40
2.5
 90
        0
 71
     2
340
16
 90
       25
 62
   256
340
16
 90
       50
 62
   256
 40
5.0
 40
2.5
 40
5.0
 71
     3
340
11
 62
   256
 40
5.0
 90
        0
 40
15.0
 90
        1
300
%<\AcVar ViewSectionStartId>%-%<\AcVar ViewSectionEndId>% (%<\AcVar ViewScale \f "%sn">%)
 71
     4
 62
   256
 62
   257
300
ANSI31
 40
1.0
 90
        0
290
     0
290
     0
 90
        6
 40
0.0
 40
1.570796326794896
 40
0.2617993877991494
 40
1.308996938995747
 40
-0.2617993877991494
 40
1.832595714594046
  0
TABLESTYLE
  5
87
102
{ACAD_XDICTIONARY
360
104
102
}
102
{ACAD_REACTORS
330
86
102
}
330
86
100
AcDbTableStyle
280
     0
  3
Standard
 70
     0
 71
     0
 40
0.06
 41
0.06
280
     0
281
     0
  7
Standard
140
0.18
170
     2
 62
     0
 63
     7
283
     0
 90
      512
 91
        0
  1

274
    -2
284
     1
 64
     0
275
    -2
285
     1
 65
     0
276
    -2
286
     1
 66
     0
277
    -2
287
     1
 67
     0
278
    -2
288
     1
 68
     0
279
    -2
289
     1
 69
     0
  7
Standard
140
0.25
170
     5
 62
     0
 63
     7
283
     0
 90
      512
 91
        0
  1

274
    -2
284
     1
 64
     0
275
    -2
285
     1
 65
     0
276
    -2
286
     1
 66
     0
277
    -2
287
     1
 67
     0
278
    -2
288
     1
 68
     0
279
    -2
289
     1
 69
     0
  7
Standard
140
0.18
170
     5
 62
     0
 63
     7
283
     0
 90
      512
 91
        0
  1

274
    -2
284
     1
 64
     0
275
    -2
285
     1
 65
     0
276
    -2
286
     1
 66
     0
277
    -2
287
     1
 67
     0
278
    -2
288
     1
 68
     0
279
    -2
289
     1
 69
     0
  0
VISUALSTYLE
  5
9F
102
{ACAD_REACTORS
330
99
102
}
330
99
100
AcDbVisualStyle
  2
2dWireframe
 70
     4
177
     3
291
     0
 70
    58
 90
        0
176
     1
 90
        2
176
     1
 90
        1
176
     1
 90
        0
176
     1
 40
0.6
176
     1
 40
30.0
176
     1
 62
     7
420
 16777215
176
     1
 90
        1
176
     1
 90
        4
176
     1
 62
     7
176
     1
 62
   257
176
     1
 90
        1
176
     1
 90
        1
176
     1
 40
1.0
176
     1
 90
        0
176
     1
 62
   257
176
     1
 40
1.0
176
     1
 90
        1
176
     1
 90
        6
176
     1
 90
        2
176
     1
 62
     7
176
     1
 90
        5
176
     1
 90
        0
176
     1
 90
        0
176
     1
290
     0
176
     1
 90
        1
176
     1
 40
0.0
176
     1
 90
        0
176
     1
290
     1
176
     1
290
     1
176
     1
290
     0
176
     1
290
     0
176
     1
290
     0
176
     1
290
     0
176
     1
290
     0
176
     1
290
     0
176
     1
290
     0
176
     1
 90
       50
176
     1
 40
0.0
176
     1
 40
1.0
176
     1
 90
        0
176
     1
 62
    18
420
        0
176
     1
 90
       50
176
     1
 90
        3
176
     1
 62
     5
420
      255
176
     1
290
     0
176
     1
 90
       50
176
     1
 90
       50
176
     1
 90
       50
176
     1
290
     0
176
     1
 90
       50
176
     1
 62
   256
176
     0
 40
1.0
176
     0
 90
        2
176
     1
  1
strokes_ogs.tif
176
     1
290
     0
176
     1
 40
1.0
176
     1
 40
1.0
176
     1
  0
VISUALSTYLE
  5
22946
102
{ACAD_REACTORS
330
99
102
}
330
99
100
AcDbVisualStyle
  2
3dWireframe
 70
     5
177
     3
291
     0
 70
    58
 90
        0
176
     1
 90
        2
176
     1
 90
        0
176
     1
 90
        0
176
     1
 40
0.6
176
     1
 40
30.0
176
     1
 62
     7
176
     1
 90
        1
176
     1
 90
        4
176
     1
 62
     7
176
     1
 62
   257
176
     1
 90
        1
176
     1
 90
        1
176
     1
 40
1.0
176
     1
 90
        0
176
     1
 62
   257
176
     1
 40
1.0
176
     1
 90
        1
176
     1
 90
        6
176
     1
 90
        2
176
     1
 62
     7
176
     1
 90
        5
176
     1
 90
        0
176
     1
 90
        0
176
     1
290
     0
176
     1
 90
        1
176
     1
 40
0.0
176
     1
 90
        0
176
     1
290
     0
176
     1
290
     1
176
     1
290
     1
176
     1
290
     0
176
     1
290
     0
176
     1
290
     0
176
     1
290
     0
176
     1
290
     0
176
     1
290
     0
176
     1
 90
       50
176
     1
 40
0.0
176
     1
 40
1.0
176
     1
 90
        0
176
     1
 62
    18
420
        0
176
     1
 90
       50
176
     1
 90
        3
176
     1
 62
     5
420
      255
176
     1
290
     0
176
     1
 90
       50
176
     1
 90
       50
176
     1
 90
       50
176
     1
290
     0
176
     1
 90
       50
176
     1
 62
   256
176
     0
 40
1.0
176
     0
 90
        2
176
     1
  1
strokes_ogs.tif
176
     1
290
     0
176
     1
 40
1.0
176
     1
 40
1.0
176
     1
  0
VISUALSTYLE
  5
9E
102
{ACAD_REACTORS
330
99
102
}
330
99
100
AcDbVisualStyle
  2
Basic
 70
     7
177
     3
291
     1
 70
    58
 90
        1
176
     1
 90
        0
176
     1
 90
        1
176
     1
 90
        0
176
     1
 40
0.6
176
     1
 40
30.0
176
     1
 62
     7
420
 16777215
176
     1
 90
        0
176
     1
 90
        4
176
     1
 62
     7
176
     1
 62
   257
176
     1
 90
        1
176
     1
 90
        1
176
     1
 40
1.0
176
     1
 90
        8
176
     1
 62
     7
176
     1
 40
1.0
176
     1
 90
        1
176
     1
 90
        6
176
     1
 90
        2
176
     1
 62
     7
176
     1
 90
        5
176
     1
 90
        0
176
     1
 90
        0
176
     1
290
     0
176
     1
 90
        1
176
     1
 40
0.0
176
     1
 90
        0
176
     1
290
     0
176
     1
290
     1
176
     1
290
     1
176
     1
290
     0
176
     1
290
     0
176
     1
290
     0
176
     1
290
     0
176
     1
290
     0
176
     1
290
     0
176
     1
 90
       50
176
     1
 40
0.0
176
     1
 40
1.0
176
     1
 90
        0
176
     1
 62
    18
420
        0
176
     1
 90
       50
176
     1
 90
        3
176
     1
 62
     5
420
      255
176
     1
290
     0
176
     1
 90
       50
176
     1
 90
       50
176
     1
 90
       50
176
     1
290
     0
176
     1
 90
       50
176
     1
 62
   256
176
     0
 40
1.0
176
     0
 90
        2
176
     1
  1
strokes_ogs.tif
176
     1
290
     0
176
     1
 40
1.0
176
     1
 40
1.0
176
     1
  0
VISUALSTYLE
  5
A5
102
{ACAD_REACTORS
330
99
102
}
330
99
100
AcDbVisualStyle
  2
Brighten
 70
    12
177
     3
291
     1
 70
    58
 90
        2
176
     1
 90
        2
176
     1
 90
        1
176
     1
 90
        0
176
     1
 40
0.6
176
     1
 40
30.0
176
     1
 62
     7
420
 16777215
176
     1
 90
        1
176
     1
 90
        4
176
     1
 62
     7
176
     1
 62
   257
176
     1
 90
        1
176
     1
 90
        1
176
     1
 40
1.0
176
     1
 90
        8
176
     1
 62
     7
176
     1
 40
1.0
176
     1
 90
        1
176
     1
 90
        6
176
     1
 90
        2
176
     1
 62
     7
176
     1
 90
        5
176
     1
 90
        0
176
     1
 90
        0
176
     1
290
     0
176
     1
 90
        1
176
     1
 40
50.0
176
     1
 90
        0
176
     1
290
     0
176
     1
290
     1
176
     1
290
     1
176
     1
290
     0
176
     1
290
     0
176
     1
290
     0
176
     1
290
     0
176
     1
290
     0
176
     1
290
     0
176
     1
 90
       50
176
     1
 40
0.0
176
     1
 40
1.0
176
     1
 90
        0
176
     1
 62
    18
420
        0
176
     1
 90
       50
176
     1
 90
        3
176
     1
 62
     5
420
      255
176
     1
290
     0
176
     1
 90
       50
176
     1
 90
       50
176
     1
 90
       50
176
     1
290
     0
176
     1
 90
       50
176
     1
 62
   256
176
     0
 40
1.0
176
     0
 90
        2
176
     1
  1
strokes_ogs.tif
176
     1
290
     0
176
     1
 40
1.0
176
     1
 40
1.0
176
     1
  0
VISUALSTYLE
  5
A9
102
{ACAD_REACTORS
330
99
102
}
330
99
100
AcDbVisualStyle
  2
ColorChange
 70
    16
177
     3
291
     1
 70
    58
 90
        2
176
     1
 90
        2
176
     1
 90
        3
176
     1
 90
        0
176
     1
 40
0.6
176
     1
 40
30.0
176
     1
 62
     8
420
  8421504
176
     1
 90
        1
176
     1
 90
        4
176
     1
 62
     7
176
     1
 62
   257
176
     1
 90
        1
176
     1
 90
        1
176
     1
 40
1.0
176
     1
 90
        8
176
     1
 62
     8
420
  8421504
176
     1
 40
1.0
176
     1
 90
        1
176
     1
 90
        6
176
     1
 90
        2
176
     1
 62
     7
176
     1
 90
        5
176
     1
 90
        0
176
     1
 90
        0
176
     1
290
     0
176
     1
 90
        1
176
     1
 40
0.0
176
     1
 90
        0
176
     1
290
     0
176
     1
290
     1
176
     1
290
     1
176
     1
290
     0
176
     1
290
     0
176
     1
290
     0
176
     1
290
     0
176
     1
290
     0
176
     1
290
     0
176
     1
 90
       50
176
     1
 40
0.0
176
     1
 40
1.0
176
     1
 90
        0
176
     1
 62
    18
420
        0
176
     1
 90
       50
176
     1
 90
        3
176
     1
 62
     5
420
      255
176
     1
290
     0
176
     1
 90
       50
176
     1
 90
       50
176
     1
 90
       50
176
     1
290
     0
176
     1
 90
       50
176
     1
 62
   256
176
     0
 40
1.0
176
     0
 90
        2
176
     1
  1
strokes_ogs.tif
176
     1
290
     0
176
     1
 40
1.0
176
     1
 40
1.0
176
     1
  0
VISUALSTYLE
  5
A2
102
{ACAD_REACTORS
330
99
102
}
330
99
100
AcDbVisualStyle
  2
Conceptual
 70
     9
177
     3
291
     0
 70
    58
 90
        3
176
     1
 90
        2
176
     1
 90
        1
176
     1
 90
        0
176
     1
 40
0.6
176
     1
 40
30.0
176
     1
 62
     7
420
 16777215
176
     1
 90
        2
176
     1
 90
        2
176
     1
 62
     7
176
     1
 62
   257
176
     1
 90
        1
176
     1
 90
        1
176
     1
 40
40.0
176
     1
 90
        8
176
     1
 62
     7
176
     1
 40
1.0
176
     1
 90
        1
176
     1
 90
        6
176
     1
 90
        2
176
     1
 62
     7
176
     1
 90
        3
176
     1
 90
        0
176
     1
 90
        0
176
     1
290
     0
176
     1
 90
        1
176
     1
 40
0.0
176
     1
 90
        0
176
     1
290
     0
176
     1
290
     1
176
     1
290
     1
176
     1
290
     0
176
     1
290
     0
176
     1
290
     0
176
     1
290
     0
176
     1
290
     0
176
     1
290
     0
176
     1
 90
       50
176
     1
 40
0.0
176
     1
 40
1.0
176
     1
 90
        0
176
     1
 62
    18
420
        0
176
     1
 90
       50
176
     1
 90
        3
176
     1
 62
     5
420
      255
176
     1
290
     0
176
     1
 90
       50
176
     1
 90
       50
176
     1
 90
       50
176
     1
290
     0
176
     1
 90
       50
176
     1
 62
   256
176
     0
 40
1.0
176
     0
 90
        2
176
     1
  1
strokes_ogs.tif
176
     1
290
     0
176
     1
 40
1.0
176
     1
 40
1.0
176
     1
  0
VISUALSTYLE
  5
A4
102
{ACAD_REACTORS
330
99
102
}
330
99
100
AcDbVisualStyle
  2
Dim
 70
    11
177
     3
291
     1
 70
    58
 90
        2
176
     1
 90
        2
176
     1
 90
        1
176
     1
 90
        0
176
     1
 40
0.6
176
     1
 40
30.0
176
     1
 62
     7
420
 16777215
176
     1
 90
        1
176
     1
 90
        4
176
     1
 62
     7
176
     1
 62
   257
176
     1
 90
        1
176
     1
 90
        1
176
     1
 40
1.0
176
     1
 90
        8
176
     1
 62
     7
176
     1
 40
1.0
176
     1
 90
        1
176
     1
 90
        6
176
     1
 90
        2
176
     1
 62
     7
176
     1
 90
        5
176
     1
 90
        0
176
     1
 90
        0
176
     1
290
     0
176
     1
 90
        1
176
     1
 40
-50.0
176
     1
 90
        0
176
     1
290
     0
176
     1
290
     1
176
     1
290
     1
176
     1
290
     0
176
     1
290
     0
176
     1
290
     0
176
     1
290
     0
176
     1
290
     0
176
     1
290
     0
176
     1
 90
       50
176
     1
 40
0.0
176
     1
 40
1.0
176
     1
 90
        0
176
     1
 62
    18
420
        0
176
     1
 90
       50
176
     1
 90
        3
176
     1
 62
     5
420
      255
176
     1
290
     0
176
     1
 90
       50
176
     1
 90
       50
176
     1
 90
       50
176
     1
290
     0
176
     1
 90
       50
176
     1
 62
   256
176
     0
 40
1.0
176
     0
 90
        2
176
     1
  1
strokes_ogs.tif
176
     1
290
     0
176
     1
 40
1.0
176
     1
 40
1.0
176
     1
  0
VISUALSTYLE
  5
175
102
{ACAD_REACTORS
330
99
102
}
330
99
100
AcDbVisualStyle
  2
EdgeColorOff
 70
    22
177
     3
291
     1
 70
    58
 90
        2
176
     0
 90
        2
176
     0
 90
        0
176
     0
 90
        0
176
     0
 40
0.6
176
     0
 40
30.0
176
     0
 62
     7
420
 16777215
176
     0
 90
        1
176
     0
 90
        4
176
     0
 62
     7
176
     0
 62
   257
176
     0
 90
        1
176
     0
 90
        1
176
     0
 40
1.0
176
     0
 90
        8
176
     2
 62
     7
176
     0
 40
1.0
176
     0
 90
        1
176
     0
 90
        6
176
     0
 90
        2
176
     0
 62
     7
176
     0
 90
        5
176
     0
 90
        0
176
     0
 90
        0
176
     0
290
     0
176
     0
 90
        1
176
     0
 40
0.0
176
     0
 90
        0
176
     0
290
     0
176
     1
290
     1
176
     1
290
     1
176
     1
290
     0
176
     1
290
     0
176
     1
290
     0
176
     1
290
     0
176
     1
290
     0
176
     1
290
     0
176
     1
 90
       50
176
     1
 40
0.0
176
     1
 40
1.0
176
     1
 90
        0
176
     1
 62
    18
420
        0
176
     1
 90
       50
176
     1
 90
        3
176
     1
 62
     5
420
      255
176
     1
290
     0
176
     1
 90
       50
176
     1
 90
       50
176
     1
 90
       50
176
     1
290
     0
176
     1
 90
       50
176
     1
 62
   256
176
     0
 40
1.0
176
     0
 90
        2
176
     1
  1
strokes_ogs.tif
176
     1
290
     0
176
     1
 40
1.0
176
     1
 40
1.0
176
     1
  0
VISUALSTYLE
  5
A8
102
{ACAD_REACTORS
330
99
102
}
330
99
100
AcDbVisualStyle
  2
Facepattern
 70
    15
177
     3
291
     1
 70
    58
 90
        2
176
     1
 90
        2
176
     1
 90
        1
176
     1
 90
        0
176
     1
 40
0.6
176
     1
 40
30.0
176
     1
 62
     7
420
 16777215
176
     1
 90
        1
176
     1
 90
        4
176
     1
 62
     7
176
     1
 62
   257
176
     1
 90
        1
176
     1
 90
        1
176
     1
 40
1.0
176
     1
 90
        8
176
     1
 62
     7
176
     1
 40
1.0
176
     1
 90
        1
176
     1
 90
        6
176
     1
 90
        2
176
     1
 62
     7
176
     1
 90
        5
176
     1
 90
        0
176
     1
 90
        0
176
     1
290
     0
176
     1
 90
        1
176
     1
 40
0.0
176
     1
 90
        0
176
     1
290
     0
176
     1
290
     1
176
     1
290
     1
176
     1
290
     0
176
     1
290
     0
176
     1
290
     0
176
     1
290
     0
176
     1
290
     0
176
     1
290
     0
176
     1
 90
       50
176
     1
 40
0.0
176
     1
 40
1.0
176
     1
 90
        0
176
     1
 62
    18
420
        0
176
     1
 90
       50
176
     1
 90
        3
176
     1
 62
     5
420
      255
176
     1
290
     0
176
     1
 90
       50
176
     1
 90
       50
176
     1
 90
       50
176
     1
290
     0
176
     1
 90
       50
176
     1
 62
   256
176
     0
 40
1.0
176
     0
 90
        2
176
     1
  1
strokes_ogs.tif
176
     1
290
     0
176
     1
 40
1.0
176
     1
 40
1.0
176
     1
  0
VISUALSTYLE
  5
9A
102
{ACAD_REACTORS
330
99
102
}
330
99
100
AcDbVisualStyle
  2
Flat
 70
     0
177
     3
291
     1
 70
    58
 90
        2
176
     1
 90
        1
176
     1
 90
        1
176
     1
 90
        2
176
     1
 40
0.6
176
     1
 40
30.0
176
     1
 62
     7
420
 16777215
176
     1
 90
        0
176
     1
 90
        0
176
     1
 62
     7
176
     1
 62
   257
176
     1
 90
        1
176
     1
 90
        1
176
     1
 40
1.0
176
     1
 90
        8
176
     1
 62
     7
176
     1
 40
1.0
176
     1
 90
        1
176
     1
 90
        6
176
     1
 90
        2
176
     1
 62
     7
176
     1
 90
        5
176
     1
 90
        0
176
     1
 90
        0
176
     1
290
     0
176
     1
 90
       13
176
     1
 40
0.0
176
     1
 90
        0
176
     1
290
     0
176
     1
290
     1
176
     1
290
     1
176
     1
290
     0
176
     1
290
     0
176
     1
290
     0
176
     1
290
     0
176
     1
290
     0
176
     1
290
     0
176
     1
 90
       50
176
     1
 40
0.0
176
     1
 40
1.0
176
     1
 90
        0
176
     1
 62
    18
420
        0
176
     1
 90
       50
176
     1
 90
        3
176
     1
 62
     5
420
      255
176
     1
290
     0
176
     1
 90
       50
176
     1
 90
       50
176
     1
 90
       50
176
     1
290
     0
176
     1
 90
       50
176
     1
 62
   256
176
     0
 40
1.0
176
     0
 90
        2
176
     1
  1
strokes_ogs.tif
176
     1
290
     0
176
     1
 40
1.0
176
     1
 40
1.0
176
     1
  0
VISUALSTYLE
  5
9B
102
{ACAD_REACTORS
330
99
102
}
330
99
100
AcDbVisualStyle
  2
FlatWithEdges
 70
     1
177
     3
291
     1
 70
    58
 90
        2
176
     1
 90
        1
176
     1
 90
        1
176
     1
 90
        2
176
     1
 40
0.6
176
     1
 40
30.0
176
     1
 62
     7
420
 16777215
176
     1
 90
        1
176
     1
 90
        0
176
     1
 62
     7
176
     1
 62
   257
176
     1
 90
        1
176
     1
 90
        1
176
     1
 40
1.0
176
     1
 90
        0
176
     1
 62
   257
176
     1
 40
1.0
176
     1
 90
        1
176
     1
 90
        6
176
     1
 90
        2
176
     1
 62
     7
176
     1
 90
        5
176
     1
 90
        0
176
     1
 90
        0
176
     1
290
     0
176
     1
 90
       13
176
     1
 40
0.0
176
     1
 90
        0
176
     1
290
     0
176
     1
290
     1
176
     1
290
     1
176
     1
290
     0
176
     1
290
     0
176
     1
290
     0
176
     1
290
     0
176
     1
290
     0
176
     1
290
     0
176
     1
 90
       50
176
     1
 40
0.0
176
     1
 40
1.0
176
     1
 90
        0
176
     1
 62
    18
420
        0
176
     1
 90
       50
176
     1
 90
        3
176
     1
 62
     5
420
      255
176
     1
290
     0
176
     1
 90
       50
176
     1
 90
       50
176
     1
 90
       50
176
     1
290
     0
176
     1
 90
       50
176
     1
 62
   256
176
     0
 40
1.0
176
     0
 90
        2
176
     1
  1
strokes_ogs.tif
176
     1
290
     0
176
     1
 40
1.0
176
     1
 40
1.0
176
     1
  0
VISUALSTYLE
  5
9C
102
{ACAD_REACTORS
330
99
102
}
330
99
100
AcDbVisualStyle
  2
Gouraud
 70
     2
177
     3
291
     1
 70
    58
 90
        2
176
     1
 90
        2
176
     1
 90
        1
176
     1
 90
        2
176
     1
 40
0.6
176
     1
 40
30.0
176
     1
 62
     7
420
 16777215
176
     1
 90
        0
176
     1
 90
        0
176
     1
 62
     7
176
     1
 62
   257
176
     1
 90
        1
176
     1
 90
        1
176
     1
 40
1.0
176
     1
 90
        0
176
     1
 62
     7
176
     1
 40
1.0
176
     1
 90
        1
176
     1
 90
        6
176
     1
 90
        2
176
     1
 62
     7
176
     1
 90
        5
176
     1
 90
        0
176
     1
 90
        0
176
     1
290
     0
176
     1
 90
       13
176
     1
 40
0.0
176
     1
 90
        0
176
     1
290
     0
176
     1
290
     1
176
     1
290
     1
176
     1
290
     0
176
     1
290
     0
176
     1
290
     0
176
     1
290
     0
176
     1
290
     0
176
     1
290
     0
176
     1
 90
       50
176
     1
 40
0.0
176
     1
 40
1.0
176
     1
 90
        0
176
     1
 62
    18
420
        0
176
     1
 90
       50
176
     1
 90
        3
176
     1
 62
     5
420
      255
176
     1
290
     0
176
     1
 90
       50
176
     1
 90
       50
176
     1
 90
       50
176
     1
290
     0
176
     1
 90
       50
176
     1
 62
   256
176
     0
 40
1.0
176
     0
 90
        2
176
     1
  1
strokes_ogs.tif
176
     1
290
     0
176
     1
 40
1.0
176
     1
 40
1.0
176
     1
  0
VISUALSTYLE
  5
9D
102
{ACAD_REACTORS
330
99
102
}
330
99
100
AcDbVisualStyle
  2
GouraudWithEdges
 70
     3
177
     3
291
     1
 70
    58
 90
        2
176
     1
 90
        2
176
     1
 90
        1
176
     1
 90
        2
176
     1
 40
0.6
176
     1
 40
30.0
176
     1
 62
     7
420
 16777215
176
     1
 90
        1
176
     1
 90
        0
176
     1
 62
     7
176
     1
 62
   257
176
     1
 90
        1
176
     1
 90
        1
176
     1
 40
1.0
176
     1
 90
        0
176
     1
 62
   257
176
     1
 40
1.0
176
     1
 90
        1
176
     1
 90
        6
176
     1
 90
        2
176
     1
 62
     7
176
     1
 90
        5
176
     1
 90
        0
176
     1
 90
        0
176
     1
290
     0
176
     1
 90
       13
176
     1
 40
0.0
176
     1
 90
        0
176
     1
290
     0
176
     1
290
     1
176
     1
290
     1
176
     1
290
     0
176
     1
290
     0
176
     1
290
     0
176
     1
290
     0
176
     1
290
     0
176
     1
290
     0
176
     1
 90
       50
176
     1
 40
0.0
176
     1
 40
1.0
176
     1
 90
        0
176
     1
 62
    18
420
        0
176
     1
 90
       50
176
     1
 90
        3
176
     1
 62
     5
420
      255
176
     1
290
     0
176
     1
 90
       50
176
     1
 90
       50
176
     1
 90
       50
176
     1
290
     0
176
     1
 90
       50
176
     1
 62
   256
176
     0
 40
1.0
176
     0
 90
        2
176
     1
  1
strokes_ogs.tif
176
     1
290
     0
176
     1
 40
1.0
176
     1
 40
1.0
176
     1
  0
VISUALSTYLE
  5
A1
102
{ACAD_REACTORS
330
99
102
}
330
99
100
AcDbVisualStyle
  2
Hidden
 70
     6
177
     3
291
     0
 70
    58
 90
        1
176
     1
 90
        2
176
     1
 90
        2
176
     1
 90
        0
176
     1
 40
0.6
176
     1
 40
30.0
176
     1
 62
     7
420
 16777215
176
     1
 90
        2
176
     1
 90
        2
176
     1
 62
     7
176
     1
 62
   257
176
     1
 90
        2
176
     1
 90
        1
176
     1
 40
40.0
176
     1
 90
        0
176
     1
 62
   257
176
     1
 40
1.0
176
     1
 90
        1
176
     1
 90
        6
176
     1
 90
        2
176
     1
 62
     7
176
     1
 90
        3
176
     1
 90
        0
176
     1
 90
        0
176
     1
290
     0
176
     1
 90
        1
176
     1
 40
0.0
176
     1
 90
        0
176
     1
290
     0
176
     1
290
     1
176
     1
290
     1
176
     1
290
     0
176
     1
290
     0
176
     1
290
     0
176
     1
290
     0
176
     1
290
     0
176
     1
290
     0
176
     1
 90
       50
176
     1
 40
0.0
176
     1
 40
1.0
176
     1
 90
        0
176
     1
 62
    18
420
        0
176
     1
 90
       50
176
     1
 90
        3
176
     1
 62
     5
420
      255
176
     1
290
     0
176
     1
 90
       50
176
     1
 90
       50
176
     1
 90
       50
176
     1
290
     0
176
     1
 90
       50
176
     1
 62
   256
176
     0
 40
1.0
176
     0
 90
        2
176
     1
  1
strokes_ogs.tif
176
     1
290
     0
176
     1
 40
1.0
176
     1
 40
1.0
176
     1
  0
VISUALSTYLE
  5
173
102
{ACAD_REACTORS
330
99
102
}
330
99
100
AcDbVisualStyle
  2
JitterOff
 70
    20
177
     3
291
     1
 70
    58
 90
        2
176
     0
 90
        2
176
     0
 90
        0
176
     0
 90
        0
176
     0
 40
0.6
176
     0
 40
30.0
176
     0
 62
     7
420
 16777215
176
     0
 90
        1
176
     0
 90
        4
176
     0
 62
     7
176
     0
 62
   257
176
     0
 90
        1
176
     0
 90
        1
176
     0
 40
1.0
176
     0
 90
       10
176
     2
 62
     7
176
     0
 40
1.0
176
     0
 90
        1
176
     0
 90
        6
176
     0
 90
        2
176
     0
 62
     7
176
     0
 90
        5
176
     0
 90
        0
176
     0
 90
        0
176
     0
290
     0
176
     0
 90
        1
176
     0
 40
0.0
176
     0
 90
        0
176
     0
290
     0
176
     1
290
     1
176
     1
290
     1
176
     1
290
     0
176
     1
290
     0
176
     1
290
     0
176
     1
290
     0
176
     1
290
     0
176
     1
290
     0
176
     1
 90
       50
176
     1
 40
0.0
176
     1
 40
1.0
176
     1
 90
        0
176
     1
 62
    18
420
        0
176
     1
 90
       50
176
     1
 90
        3
176
     1
 62
     5
420
      255
176
     1
290
     0
176
     1
 90
       50
176
     1
 90
       50
176
     1
 90
       50
176
     1
290
     0
176
     1
 90
       50
176
     1
 62
   256
176
     0
 40
1.0
176
     0
 90
        2
176
     1
  1
strokes_ogs.tif
176
     1
290
     0
176
     1
 40
1.0
176
     1
 40
1.0
176
     1
  0
VISUALSTYLE
  5
A7
102
{ACAD_REACTORS
330
99
102
}
330
99
100
AcDbVisualStyle
  2
Linepattern
 70
    14
177
     3
291
     1
 70
    58
 90
        2
176
     1
 90
        2
176
     1
 90
        1
176
     1
 90
        0
176
     1
 40
0.6
176
     1
 40
30.0
176
     1
 62
     7
420
 16777215
176
     1
 90
        1
176
     1
 90
        4
176
     1
 62
     7
176
     1
 62
   257
176
     1
 90
        7
176
     1
 90
        7
176
     1
 40
1.0
176
     1
 90
        8
176
     1
 62
     7
176
     1
 40
1.0
176
     1
 90
        1
176
     1
 90
        6
176
     1
 90
        2
176
     1
 62
     7
176
     1
 90
        5
176
     1
 90
        0
176
     1
 90
        0
176
     1
290
     0
176
     1
 90
        1
176
     1
 40
0.0
176
     1
 90
        0
176
     1
290
     0
176
     1
290
     1
176
     1
290
     1
176
     1
290
     0
176
     1
290
     0
176
     1
290
     0
176
     1
290
     0
176
     1
290
     0
176
     1
290
     0
176
     1
 90
       50
176
     1
 40
0.0
176
     1
 40
1.0
176
     1
 90
        0
176
     1
 62
    18
420
        0
176
     1
 90
       50
176
     1
 90
        3
176
     1
 62
     5
420
      255
176
     1
290
     0
176
     1
 90
       50
176
     1
 90
       50
176
     1
 90
       50
176
     1
290
     0
176
     1
 90
       50
176
     1
 62
   256
176
     0
 40
1.0
176
     0
 90
        2
176
     1
  1
strokes_ogs.tif
176
     1
290
     0
176
     1
 40
1.0
176
     1
 40
1.0
176
     1
  0
VISUALSTYLE
  5
174
102
{ACAD_REACTORS
330
99
102
}
330
99
100
AcDbVisualStyle
  2
OverhangOff
 70
    21
177
     3
291
     1
 70
    58
 90
        2
176
     0
 90
        2
176
     0
 90
        0
176
     0
 90
        0
176
     0
 40
0.6
176
     0
 40
30.0
176
     0
 62
     7
420
 16777215
176
     0
 90
        1
176
     0
 90
        4
176
     0
 62
     7
176
     0
 62
   257
176
     0
 90
        1
176
     0
 90
        1
176
     0
 40
1.0
176
     0
 90
        9
176
     2
 62
     7
176
     0
 40
1.0
176
     0
 90
        1
176
     0
 90
        6
176
     0
 90
        2
176
     0
 62
     7
176
     0
 90
        5
176
     0
 90
        0
176
     0
 90
        0
176
     0
290
     0
176
     0
 90
        1
176
     0
 40
0.0
176
     0
 90
        0
176
     0
290
     0
176
     1
290
     1
176
     1
290
     1
176
     1
290
     0
176
     1
290
     0
176
     1
290
     0
176
     1
290
     0
176
     1
290
     0
176
     1
290
     0
176
     1
 90
       50
176
     1
 40
0.0
176
     1
 40
1.0
176
     1
 90
        0
176
     1
 62
    18
420
        0
176
     1
 90
       50
176
     1
 90
        3
176
     1
 62
     5
420
      255
176
     1
290
     0
176
     1
 90
       50
176
     1
 90
       50
176
     1
 90
       50
176
     1
290
     0
176
     1
 90
       50
176
     1
 62
   256
176
     0
 40
1.0
176
     0
 90
        2
176
     1
  1
strokes_ogs.tif
176
     1
290
     0
176
     1
 40
1.0
176
     1
 40
1.0
176
     1
  0
VISUALSTYLE
  5
A3
102
{ACAD_REACTORS
330
99
102
}
330
99
100
AcDbVisualStyle
  2
Realistic
 70
     8
177
     3
291
     0
 70
    58
 90
        2
176
     1
 90
        2
176
     1
 90
        0
176
     1
 90
        2
176
     1
 40
0.6
176
     1
 40
30.0
176
     1
 62
     7
420
 16777215
176
     1
 90
        0
176
     1
 90
        0
176
     1
 62
     7
176
     1
 62
   257
176
     1
 90
        1
176
     1
 90
        1
176
     1
 40
1.0
176
     1
 90
        8
176
     1
 62
   257
176
     1
 40
1.0
176
     1
 90
        1
176
     1
 90
        6
176
     1
 90
        2
176
     1
 62
     7
176
     1
 90
        3
176
     1
 90
        0
176
     1
 90
        0
176
     1
290
     0
176
     1
 90
       13
176
     1
 40
0.0
176
     1
 90
        0
176
     1
290
     0
176
     1
290
     1
176
     1
290
     1
176
     1
290
     0
176
     1
290
     0
176
     1
290
     0
176
     1
290
     0
176
     1
290
     0
176
     1
290
     0
176
     1
 90
       50
176
     1
 40
0.0
176
     1
 40
1.0
176
     1
 90
        0
176
     1
 62
    18
420
        0
176
     1
 90
       50
176
     1
 90
        3
176
     1
 62
     5
420
      255
176
     1
290
     0
176
     1
 90
       50
176
     1
 90
       50
176
     1
 90
       50
176
     1
290
     0
176
     1
 90
       50
176
     1
 62
   256
176
     0
 40
1.0
176
     0
 90
        2
176
     1
  1
strokes_ogs.tif
176
     1
290
     0
176
     1
 40
1.0
176
     1
 40
1.0
176
     1
  0
VISUALSTYLE
  5
182
102
{ACAD_REACTORS
330
99
102
}
330
99
100
AcDbVisualStyle
  2
Shaded
 70
    27
177
     3
291
     0
 70
    58
 90
        2
176
     1
 90
        2
176
     1
 90
        1
176
     1
 90
        2
176
     1
 40
0.6
176
     1
 40
30.0
176
     1
 62
     7
420
 16777215
176
     1
 90
        0
176
     1
 90
        4
176
     1
 62
     7
176
     1
 62
   257
176
     1
 90
        1
176
     1
 90
        1
176
     1
 40
1.0
176
     1
 90
        8
176
     1
 62
   257
176
     1
 40
1.0
176
     1
 90
        1
176
     1
 90
        6
176
     1
 90
        2
176
     1
 62
     8
420
  7895160
176
     1
 90
        3
176
     1
 90
        0
176
     1
 90
        0
176
     1
290
     0
176
     1
 90
        5
176
     1
 40
0.0
176
     1
 90
        0
176
     1
290
     0
176
     1
290
     1
176
     1
290
     1
176
     1
290
     0
176
     1
290
     0
176
     1
290
     0
176
     1
290
     0
176
     1
290
     0
176
     1
290
     0
176
     1
 90
       50
176
     1
 40
0.0
176
     1
 40
1.0
176
     1
 90
        0
176
     1
 62
    18
420
        0
176
     1
 90
       50
176
     1
 90
        3
176
     1
 62
     5
420
      255
176
     1
290
     0
176
     1
 90
       50
176
     1
 90
       50
176
     1
 90
       50
176
     1
290
     0
176
     1
 90
       50
176
     1
 62
   256
176
     0
 40
1.0
176
     0
 90
        2
176
     1
  1
strokes_ogs.tif
176
     1
290
     0
176
     1
 40
1.0
176
     1
 40
1.0
176
     1
  0
VISUALSTYLE
  5
181
102
{ACAD_REACTORS
330
99
102
}
330
99
100
AcDbVisualStyle
  2
Shaded with edges
 70
    26
177
     3
291
     0
 70
    58
 90
        2
176
     1
 90
        2
176
     1
 90
        1
176
     1
 90
        2
176
     1
 40
0.6
176
     1
 40
30.0
176
     1
 62
     7
420
 16777215
176
     1
 90
        1
176
     1
 90
        2
176
     1
 62
     7
176
     1
 62
   257
176
     1
 90
        2
176
     1
 90
        1
176
     1
 40
1.0
176
     1
 90
        8
176
     1
 62
   257
176
     1
 40
1.0
176
     1
 90
        1
176
     1
 90
        6
176
     1
 90
        2
176
     1
 62
     7
176
     1
 90
        3
176
     1
 90
        0
176
     1
 90
        0
176
     1
290
     0
176
     1
 90
        5
176
     1
 40
0.0
176
     1
 90
        0
176
     1
290
     0
176
     1
290
     1
176
     1
290
     1
176
     1
290
     0
176
     1
290
     0
176
     1
290
     0
176
     1
290
     0
176
     1
290
     0
176
     1
290
     0
176
     1
 90
       50
176
     1
 40
0.0
176
     1
 40
1.0
176
     1
 90
        0
176
     1
 62
    18
420
        0
176
     1
 90
       50
176
     1
 90
        3
176
     1
 62
     5
420
      255
176
     1
290
     0
176
     1
 90
       50
176
     1
 90
       50
176
     1
 90
       50
176
     1
290
     0
176
     1
 90
       50
176
     1
 62
   256
176
     0
 40
1.0
176
     0
 90
        2
176
     1
  1
strokes_ogs.tif
176
     1
290
     0
176
     1
 40
1.0
176
     1
 40
1.0
176
     1
  0
VISUALSTYLE
  5
17E
102
{ACAD_REACTORS
330
99
102
}
330
99
100
AcDbVisualStyle
  2
Shades of Gray
 70
    23
177
     3
291
     0
 70
    58
 90
        2
176
     1
 90
        2
176
     1
 90
        3
176
     1
 90
        0
176
     1
 40
0.6
176
     1
 40
30.0
176
     1
 62
     7
420
 16777215
176
     1
 90
        2
176
     1
 90
        2
176
     1
 62
     7
176
     1
 62
     7
176
     1
 90
        1
176
     1
 90
        1
176
     1
 40
40.0
176
     1
 90
        8
176
     1
 62
     7
176
     1
 40
1.0
176
     1
 90
        1
176
     1
 90
        6
176
     1
 90
        2
176
     1
 62
     7
176
     1
 90
        3
176
     1
 90
        0
176
     1
 90
        0
176
     1
290
     0
176
     1
 90
        1
176
     1
 40
0.0
176
     1
 90
        0
176
     1
290
     0
176
     1
290
     1
176
     1
290
     1
176
     1
290
     0
176
     1
290
     0
176
     1
290
     0
176
     1
290
     0
176
     1
290
     0
176
     1
290
     0
176
     1
 90
       50
176
     1
 40
0.0
176
     1
 40
1.0
176
     1
 90
        0
176
     1
 62
    18
420
        0
176
     1
 90
       50
176
     1
 90
        3
176
     1
 62
     5
420
      255
176
     1
290
     0
176
     1
 90
       50
176
     1
 90
       50
176
     1
 90
       50
176
     1
290
     0
176
     1
 90
       50
176
     1
 62
   256
176
     0
 40
1.0
176
     0
 90
        2
176
     1
  1
strokes_ogs.tif
176
     1
290
     0
176
     1
 40
1.0
176
     1
 40
1.0
176
     1
  0
VISUALSTYLE
  5
17F
102
{ACAD_REACTORS
330
99
102
}
330
99
100
AcDbVisualStyle
  2
Sketchy
 70
    24
177
     3
291
     0
 70
    58
 90
        1
176
     1
 90
        2
176
     1
 90
        2
176
     1
 90
        0
176
     1
 40
0.6
176
     1
 40
30.0
176
     1
 62
     7
420
 16777215
176
     1
 90
        2
176
     1
 90
        2
176
     1
 62
     7
176
     1
 62
     7
176
     1
 90
        1
176
     1
 90
        1
176
     1
 40
40.0
176
     1
 90
       11
176
     1
 62
     7
176
     1
 40
1.0
176
     1
 90
        1
176
     1
 90
        6
176
     1
 90
        2
176
     1
 62
     7
176
     1
 90
        6
176
     1
 90
        0
176
     1
 90
        0
176
     1
290
     0
176
     1
 90
        1
176
     1
 40
0.0
176
     1
 90
        0
176
     1
290
     0
176
     1
290
     1
176
     1
290
     1
176
     1
290
     0
176
     1
290
     0
176
     1
290
     0
176
     1
290
     0
176
     1
290
     0
176
     1
290
     0
176
     1
 90
       50
176
     1
 40
0.0
176
     1
 40
1.0
176
     1
 90
        0
176
     1
 62
    18
420
        0
176
     1
 90
       50
176
     1
 90
        3
176
     1
 62
     5
420
      255
176
     1
290
     0
176
     1
 90
       50
176
     1
 90
       50
176
     1
 90
       50
176
     1
290
     0
176
     1
 90
       50
176
     1
 62
   256
176
     0
 40
1.0
176
     0
 90
        2
176
     1
  1
strokes_ogs.tif
176
     1
290
     0
176
     1
 40
1.0
176
     1
 40
1.0
176
     1
  0
VISUALSTYLE
  5
A6
102
{ACAD_REACTORS
330
99
102
}
330
99
100
AcDbVisualStyle
  2
Thicken
 70
    13
177
     3
291
     1
 70
    58
 90
        2
176
     1
 90
        2
176
     1
 90
        1
176
     1
 90
        0
176
     1
 40
0.6
176
     1
 40
30.0
176
     1
 62
     7
420
 16777215
176
     1
 90
        1
176
     1
 90
        4
176
     1
 62
     7
176
     1
 62
   257
176
     1
 90
        1
176
     1
 90
        1
176
     1
 40
1.0
176
     1
 90
       12
176
     1
 62
     7
176
     1
 40
1.0
176
     1
 90
        1
176
     1
 90
        6
176
     1
 90
        2
176
     1
 62
     7
176
     1
 90
        5
176
     1
 90
        0
176
     1
 90
        0
176
     1
290
     0
176
     1
 90
        1
176
     1
 40
0.0
176
     1
 90
        0
176
     1
290
     0
176
     1
290
     1
176
     1
290
     1
176
     1
290
     0
176
     1
290
     0
176
     1
290
     0
176
     1
290
     0
176
     1
290
     0
176
     1
290
     0
176
     1
 90
       50
176
     1
 40
0.0
176
     1
 40
1.0
176
     1
 90
        0
176
     1
 62
    18
420
        0
176
     1
 90
       50
176
     1
 90
        3
176
     1
 62
     5
420
      255
176
     1
290
     0
176
     1
 90
       50
176
     1
 90
       50
176
     1
 90
       50
176
     1
290
     0
176
     1
 90
       50
176
     1
 62
   256
176
     0
 40
1.0
176
     0
 90
        2
176
     1
  1
strokes_ogs.tif
176
     1
290
     0
176
     1
 40
1.0
176
     1
 40
1.0
176
     1
  0
VISUALSTYLE
  5
A0
102
{ACAD_REACTORS
330
99
102
}
330
99
100
AcDbVisualStyle
  2
Wireframe
 70
     5
177
     3
291
     0
 70
    58
 90
        0
176
     1
 90
        2
176
     1
 90
        0
176
     1
 90
        0
176
     1
 40
0.6
176
     1
 40
30.0
176
     1
 62
     7
420
 16777215
176
     1
 90
        1
176
     1
 90
        4
176
     1
 62
     7
176
     1
 62
   257
176
     1
 90
        1
176
     1
 90
        1
176
     1
 40
1.0
176
     1
 90
        0
176
     1
 62
   257
176
     1
 40
1.0
176
     1
 90
        1
176
     1
 90
        6
176
     1
 90
        2
176
     1
 62
     7
176
     1
 90
        3
176
     1
 90
        0
176
     1
 90
        0
176
     1
290
     0
176
     1
 90
        1
176
     1
 40
0.0
176
     1
 90
        0
176
     1
290
     0
176
     1
290
     1
176
     1
290
     1
176
     1
290
     0
176
     1
290
     0
176
     1
290
     0
176
     1
290
     0
176
     1
290
     0
176
     1
290
     0
176
     1
 90
       50
176
     1
 40
0.0
176
     1
 40
1.0
176
     1
 90
        0
176
     1
 62
    18
420
        0
176
     1
 90
       50
176
     1
 90
        3
176
     1
 62
     5
420
      255
176
     1
290
     0
176
     1
 90
       50
176
     1
 90
       50
176
     1
 90
       50
176
     1
290
     0
176
     1
 90
       50
176
     1
 62
   256
176
     0
 40
1.0
176
     0
 90
        2
176
     1
  1
strokes_ogs.tif
176
     1
290
     0
176
     1
 40
1.0
176
     1
 40
1.0
176
     1
  0
VISUALSTYLE
  5
180
102
{ACAD_REACTORS
330
99
102
}
330
99
100
AcDbVisualStyle
  2
X-Ray
 70
    25
177
     3
291
     0
 70
    58
 90
        2
176
     1
 90
        2
176
     1
 90
        1
176
     1
 90
        1
176
     1
 40
0.5
176
     1
 40
30.0
176
     1
 62
     7
420
 16777215
176
     1
 90
        1
176
     1
 90
        0
176
     1
 62
     7
176
     1
 62
   257
176
     1
 90
        1
176
     1
 90
        1
176
     1
 40
1.0
176
     1
 90
        8
176
     1
 62
     7
176
     1
 40
1.0
176
     1
 90
        1
176
     1
 90
        6
176
     1
 90
        2
176
     1
 62
     7
176
     1
 90
        3
176
     1
 90
        0
176
     1
 90
        0
176
     1
290
     0
176
     1
 90
       13
176
     1
 40
0.0
176
     1
 90
        0
176
     1
290
     0
176
     1
290
     1
176
     1
290
     1
176
     1
290
     0
176
     1
290
     0
176
     1
290
     0
176
     1
290
     0
176
     1
290
     0
176
     1
290
     0
176
     1
 90
       50
176
     1
 40
0.0
176
     1
 40
1.0
176
     1
 90
        0
176
     1
 62
    18
420
        0
176
     1
 90
       50
176
     1
 90
        3
176
     1
 62
     5
420
      255
176
     1
290
     0
176
     1
 90
       50
176
     1
 90
       50
176
     1
 90
       50
176
     1
290
     0
176
     1
 90
       50
176
     1
 62
   256
176
     0
 40
1.0
176
     0
 90
        2
176
     1
  1
strokes_ogs.tif
176
     1
290
     0
176
     1
 40
1.0
176
     1
 40
1.0
176
     1
  0
DICTIONARYVAR
  5
4A0D6
102
{ACAD_REACTORS
330
4A0D5
102
}
330
4A0D5
100
DictionaryVariables
280
     0
  1
2
  0
DICTIONARYVAR
  5
4A0D7
102
{ACAD_REACTORS
330
4A0D5
102
}
330
4A0D5
100
DictionaryVariables
280
     0
  1
400.000000
  0
DICTIONARYVAR
  5
4A0D8
102
{ACAD_REACTORS
330
4A0D5
102
}
330
4A0D5
100
DictionaryVariables
280
     0
  1
1
  0
DICTIONARYVAR
  5
4A0D9
102
{ACAD_REACTORS
330
4A0D5
102
}
330
4A0D5
100
DictionaryVariables
280
     0
  1
1:1
  0
DICTIONARYVAR
  5
4A0DA
102
{ACAD_REACTORS
330
4A0D5
102
}
330
4A0D5
100
DictionaryVariables
280
     0
  1
STANDARD
  0
DICTIONARYVAR
  5
4A0DB
102
{ACAD_REACTORS
330
4A0D5
102
}
330
4A0D5
100
DictionaryVariables
280
     0
  1
STANDARD
  0
DICTIONARYVAR
  5
4A0DC
102
{ACAD_REACTORS
330
4A0D5
102
}
330
4A0D5
100
DictionaryVariables
280
     0
  1
Imperial24
  0
DICTIONARYVAR
  5
4A0DD
102
{ACAD_REACTORS
330
4A0D5
102
}
330
4A0D5
100
DictionaryVariables
280
     0
  1
Imperial24
  0
DICTIONARYVAR
  5
4A0DE
102
{ACAD_REACTORS
330
4A0D5
102
}
330
4A0D5
100
DictionaryVariables
280
     0
  1
-1
  0
DICTIONARYVAR
  5
4A0DF
102
{ACAD_REACTORS
330
4A0D5
102
}
330
4A0D5
100
DictionaryVariables
280
     0
  1
1
  0
DICTIONARYVAR
  5
4A0E0
102
{ACAD_REACTORS
330
4A0D5
102
}
330
4A0D5
100
DictionaryVariables
280
     0
  1
2
  0
DICTIONARYVAR
  5
4A0E1
102
{ACAD_REACTORS
330
4A0D5
102
}
330
4A0D5
100
DictionaryVariables
280
     0
  1
0
  0
DICTIONARYVAR
  5
4A0E2
102
{ACAD_REACTORS
330
4A0D5
102
}
330
4A0D5
100
DictionaryVariables
280
     0
  1
4
  0
DICTIONARYVAR
  5
4A0E3
102
{ACAD_REACTORS
330
4A0D5
102
}
330
4A0D5
100
DictionaryVariables
280
     0
  1
V-Construction
  0
DICTIONARYVAR
  5
4A0E4
102
{ACAD_REACTORS
330
4A0D5
102
}
330
4A0D5
100
DictionaryVariables
280
     0
  1
ByLayer
  0
DICTIONARYVAR
  5
4A0E5
102
{ACAD_REACTORS
330
4A0D5
102
}
330
4A0D5
100
DictionaryVariables
280
     0
  1
0
  0
DICTIONARYVAR
  5
4A0E6
102
{ACAD_REACTORS
330
4A0D5
102
}
330
4A0D5
100
DictionaryVariables
280
     0
  1
0
  0
DICTIONARYVAR
  5
4A0E7
102
{ACAD_REACTORS
330
4A0D5
102
}
330
4A0D5
100
DictionaryVariables
280
     0
  1
0
  0
DICTIONARYVAR
  5
4A0E8
102
{ACAD_REACTORS
330
4A0D5
102
}
330
4A0D5
100
DictionaryVariables
280
     0
  1
2
  0
DICTIONARYVAR
  5
4A0E9
102
{ACAD_REACTORS
330
4A0D5
102
}
330
4A0D5
100
DictionaryVariables
280
     0
  1
1.000000
  0
DICTIONARYVAR
  5
4A0EA
102
{ACAD_REACTORS
330
4A0D5
102
}
330
4A0D5
100
DictionaryVariables
280
     0
  1
1
  0
DICTIONARYVAR
  5
4A0EB
102
{ACAD_REACTORS
330
4A0D5
102
}
330
4A0D5
100
DictionaryVariables
280
     0
  1
1.000000
  0
DICTIONARYVAR
  5
4A0EC
102
{ACAD_REACTORS
330
4A0D5
102
}
330
4A0D5
100
DictionaryVariables
280
     0
  1
1
  0
DICTIONARYVAR
  5
4A0ED
102
{ACAD_REACTORS
330
4A0D5
102
}
330
4A0D5
100
DictionaryVariables
280
     0
  1
0
  0
DICTIONARYVAR
  5
4A0EE
102
{ACAD_REACTORS
330
4A0D5
102
}
330
4A0D5
100
DictionaryVariables
280
     0
  1

  0
DICTIONARYVAR
  5
4A0EF
102
{ACAD_REACTORS
330
4A0D5
102
}
330
4A0D5
100
DictionaryVariables
280
     0
  1
0
  0
DICTIONARYVAR
  5
4A0F0
102
{ACAD_REACTORS
330
4A0D5
102
}
330
4A0D5
100
DictionaryVariables
280
     0
  1
127
  0
XRECORD
  5
81FD1
102
{ACAD_REACTORS
330
81FD0
102
}
330
81FD0
100
AcDbXrecord
280
     1
  0
DICTIONARY
  5
194
330
22
100
AcDbDictionary
280
     1
281
     1
  0
DICTIONARY
  5
188
330
97
100
AcDbDictionary
280
     1
281
     1
  3
FBXASSET
360
189
  0
DICTIONARY
  5
186
330
96
100
AcDbDictionary
280
     1
281
     1
  3
FBXASSET
360
187
  0
DICTIONARY
  5
110
330
98
100
AcDbDictionary
280
     1
281
     1
  3
BUMPTILE
360
112
  3
DIFFUSETILE
360
111
  3
FBXASSET
360
18A
  3
OPACITYTILE
360
113
  3
REFLECTIONTILE
360
114
  0
DICTIONARY
  5
104
330
87
100
AcDbDictionary
280
     1
281
     1
  3
ACAD_ROUNDTRIP_2008_TABLESTYLE_CELLSTYLEMAP
360
83688
  0
XRECORD
  5
189
102
{ACAD_REACTORS
330
188
102
}
330
188
100
AcDbXrecord
280
     1
 70
     1
 90
429727718
  1
508B35C9-AEE7-456F-BE74-D52651303AC6
310
504B03040A0000080000B670623B3DEE336E79000000790000001B0000006175746F6465736B2D64657369676E2D7061636B6167652E786D6C3C3F786D6C2076657273696F6E3D22312E302220656E636F64696E673D227574662D3822203F3E3C666F726D6174733E3C666F726D61743E687474703A2F2F736368656D612E
310
6175746F6465736B2E636F6D2F64657369676E2D7061636B6167652F323030393C2F666F726D61743E3C2F666F726D6174733E504B0304140006080800B670623BD486FD9CA0000000F4000000130000005B436F6E74656E745F54797065735D2E786D6C7D8EC10E82300C865F65E91D8A1E8C310C0EEA1BF002731658846E
310
D98AC1B77784ABF1D8FE5FBFBF75BBCE937A534CCEB38643598122B6FEE978D0B0485F9C41B54DDD7D022595594E1A469170414C76A4D9A4D207E29CF43ECE46F218070CC6BECC4078ACAA135ACF422C856C0E68EA1BF5669944DDD7BCDE7B1F8E415D77AECB980613C2E4AC91FC167A2B244592486606FC29C8FD7F045B9A
310
EF7053A7E60B504B0304140006080800B670623B28ED286BEB0000007C01000008000000636F72652E786D6C8D90416EC3201045AF82665B6183218D6D61A254764FD00B204C5C94182C03558F5F9C3852BBEB6A467FFE9B197D71FA9E6FE8CBACC17AD7012D0820E3B41FAD9B3A48F1826B40272956EFE32F1B20A766D3C1
310
268314D3EAD3B24BDABB685CCCAAF3A3D94515828980F42D371D04FD696655A814B3235C8B45E9AB9A4C419F5D8653B2237A1CB163DE672FD6AC209BF3C08E0D1B30EB19C3FC9D72FCC6EB231EFA33EDE96BDD341517E5064B11EDFCBCAF57A3A2194156843498524CAA0FCA5B7268F9E185D42D21A2DCEC7FA0B48CFF8492
310
759155FBBB0F2C80A4F991FB408A72CB22977B50B96EB9C91F504B0304140006080800B670623B55019EA25F0000007C00000007000000636E782E786D6C4DCB3B0E80201045D1AD90E915ED2CF8AC45050C11660C8261F98AB1B07AC9C97D42D718D865D3E909258CFD00CCE24AC6E326A164D74DC0B4128928FF32603847
310
2BA13128B1252AC747C6BAB984FC68F0B87FE8960A5C09FE86CFB69FBA01504B0304140006080800B670623B7BC41AC871010000D40300000C0000006662782F636F72652E786D6CC553ED6E8320147D15C2DF4501B56B6D90A64BBB27D80B50A5CE54C120983EFEAE1F4DD7A56BBA5FF3879273EEE59E7310BE393735EA95
310
ED2AA333CC428A91D2B9292A5D66D8BB63B0C26823B835C67D2BC348CB46657880B1E0A535BE9DA1DC68A7B403549B42CDA0EC3AE530CA6B5864B8CB3F552343E91D5474A7B095F949962A6421D0502778E72C0840D390E18DC5F170E664C205F7BE2A66B62A605A75AC94C522DDEEE3651AEF837817C741F2CE92E02D592D
310
83FD6ECB76EC7595A651C2C9D02CB8AB9A8BBADC2AE954814544691A3016D0E883256BBA58278B17BA5A53CAC9507ED3E4DBE2C9265F691747B3DCA9ADC382819091F8E1162272A8933DE82182932144F88C09DF060D8140C84E1EEA8B8F1340BDCA9DB1093085F157AA97B557309586747CD0EF0B4EA64E983A6E0EAEEFCE
310
889E9EF17847386AA94B30211D2C0FDE0D3AF9A4610EAD5536E8DD1969631B593F67E381C33F5157F17725E5A636F6BF1491F980C8FC7B90E13E8A2F504B0304140006080800B670623B70102A487D0000009D0000000B0000006662782F636E782E786D6C4DCCD10A83201886E15B91FFDC95A5C30335ACCDFB886521330D
310
A76397BF1A1DECE883878F57749FD5A3B74D2F17830472A901D9F088930B8B849267CC01754AA418F3DF0D5018572BE160506249B16C274D761E8BCFBB7A179E27F65CB39A0F14D396184C9921B81F34C3ACA1B4B99ABB6E6F062A25AA5F69DF23ACBE504B0304140006080800B670623B3610CA3329010000120200003100
310
00006662782F42384135303843342D343331462D343546312D424341352D3532343432364645413344462F636F72652E786D6C8D515B6EC32010BC0AE22B55850D0E446E848992B43E412FE000495162B07854397EA176A4F62F3F2C9A9D991D58BEBB8F37F0AD7D30CE76905418026DA553C65E3A98E219B510EC04F7CEC5
310
3F3408EC30EA0E16180A7EF12E4D0B249D8DDAC68C5AA7F4020E21E80881BCE54B0783FCD2E3500D296646B856D320AFC34557A4CAEDCC133C449F0380794839A138B47B86DB2345744D7A44594FD0E1B867883594369BFE63BF7EEF793D0B054FC9A8456E548E63CE46FB674D8A58F068C6477CE9F510B582A2C1F80D1182
310
70F349E816B32D65AFB8DD62CCEB42FF274A937A52948C8DEB66893BCB021484D7734370E5D2E9F608A3EF93F3119479ABA0E50B14B8C298119A43CCC4FCFCECB8A18B6388CEE7EF5D5D4F994BD86CBBA182D76543B9FCAE2FD7B24DF103504B0304140006080800B670623B1B8617914E0100003303000030000000666278
310
2F42384135303843342D343331462D343546312D424341352D3532343432364645413344462F636E782E786D6CD593C16EC32010447F0571AD6CE3D489D20813A9877E410FBD62D82434182CC055F3F75D1292E692438FBD206B7698593D61BEFD1E2DF982108D773D6D6B460938E5B571FB9ECE6957AD29D90A1EBC4F7736
310
4A9C1CA1A759A682EF839FA72269D8C9D92654AD71C72206887E0E0A22CAF926B15E498B01E0AA19451807D01A34B919F16B070157417138917400F2F6FA41FCF0092A45DEE414C19BDC21783E4BD39D891265658C3D8DEA00A3ACE59CBC8678ACB54CB26EEB6BD7839D7E9348BE70AD9C8321B9BCA7F9A4A26C542347DEE0
310
50F09802D22BA6749A800A394DD62899107273365E3C82CFC6A55557BC06C10774B7ABE7AEC3B0F34CF06446280E154026D0542C187BA9DAB6628BF7B6DBB0E5A65B3EB1F58631DE64BBE083F7B65CC218087E22CABB042E51D1F2268F1FE12B3EA24D40D63E9CFE00120194D60B9D5BC67FE6D39CDF37E20AF817881F504B
310
0304140006080800B670623BBFEF2E3B690500003C100000340000006662782F42384135303843342D343331462D343546312D424341352D3532343432364645413344462F6F626A656374732E786D6CAD575D739B3814FD2B0CFB0C98D84E931D4227B6938EA793B6534F3BFB90198F0099B001899144EAECAFDF231018B0
310
D37A3FFC609090EEE7B94757C1FB7D915B2F54C88CB31BDB7727B64559CC938CA53776A576CE956DBD0F03C1B9EA2DB32D460A7A63EB693B0C52C1ABD24C257447AA5C8D66EF177F5832A68CDA569C13296F6C193FD182B8A4523CA1F2D94D88226EBADBBBBEDB2C1C8A4D05299F46424B222853B014F30C52ACC6287F389C
310
D85E1878FA7B18E87FB36AFAF62AAFF667A83F635211161F291B8999FAB3D5DDC5FCDA99CF6653677679E13B8BFBC5CAF1DF4D27CBCBE5F2FAF6EE1A8AA51290642C117467871F101B91C581D77CEA2C36869F3229E68CD1B8F61F1ED6361B89092D294B90C78C4A68EB793D190E7D1D9BDEE7A91E1B95FDE9F3BCEAEFE809
310
6A6D6F9F7D4B79F4275C90E7A04248AA51D5C4C738DAE06F72885AC4796EBE65D22A88A22223B995679120E2D50EB1542F098381188D4EA111AE3DB043FF20AF6F2B4AE3D7D83D65E5AECA730D4D3BAC91BD05FEA992B565D95F549CD6069B90AB2A63EACA38A45E4B6A87D781574F86817E4C2FCCC72690D62E2729520E37
310
9BAF234797BAF6D62B3BFC781FED37BA1E4F2B2F052FA9501A3E80569BB8F6A9A364D4FA67654E6F803383981F82F21591FF84F23D9882BC896C3FDBCF8C162508933B2E0AE4C69DD43F6BD2BE38DDDBF10BF86CB4FA784D37F3AF16075E67EC9030DECA1FC0A55373F5DFF3378C591FA9BDF485C10B0A8C8BA909E5262639
310
A8E72163488806A595734C81CB77D1DE0ED7604A303B76913CEC0272F412782FF88EFF4636D8AA56DF7B322474C4B767303F625997056C7B032C473C592B36CEBD15F3F9FF5233B7ABCDC74D257624A60F8658567497B14CE1EC3C80B76FD02011038F9EE9EB0F2E12387A9C844D3F09855125116D1D731DF8B43D2CF4E0A0
310
79A020C6BE946BCE0B7EA1E1219331CD73C228AF5A2DDD31A4B1DA918CE91350854D40A71723140BFA92E94E62B0626016CEFA5864A50E5977E8753CEDBEE1CBB7F52780D20E17AF0BA0F5F9B02A3AD07DCC732EB6D1EBB661421BE0C39E21BABF0FE16D22EA6929407C8DE596724C88B749B6DB5512BC7B228ADFD7CB7EA6
310
3A22397E690BA8D5D8D4E40CEC8CDA23C2C0B7D5898640101CEC9C6D331CE328CB93CAFBBAC70A642DF70DF95155945B52F08AA973C23469FD69ADEF84F7BB18F983A8F8C90E37F5D35980B2139A1C523540813E824EF83448CF7C72B598CE97D7CEEDDDDD3B6736BFBC771677EF66CE6A7E7139F7A793E9EDF2B2B3A8B624
310
0CDA13AA5F8388264EC4A0129909F3B7F5A16CEDF08128E97D680ACA4B9BE7B7B58BB638F0B00700EF36AE8B32A705658A68F83EE897FC2B41573190D1CCAF0B92D233A47CFEB019D9809933F67DD1A5467F8CF69AD9A5AE859342D45355448C64F968A371DC2D596ADC6E43D93D1B466F877A64E2893E54F23C4B40388995
310
525E5005DA3983ED45412510D3EFCA13737B3863F74BD30F2A12E5B4B5E489A025CE25500DB855B11ACE5BBFA185D35DD48D8DC3CE7DC69F2944DB42AA6F6CF09BCA622ADD08C7A36E7C6AE18000BAB08E040135C2D21C9D75B3A91B77BB746C403F38018DFE6EC939DD92F16B40BC05294B9CDA035AAD6D330AE27FE4786B
310
8E45145EA34A75BE1C263A676A35A8ACC6297337400BF16C54EF515F3F77CB77EB3583889C754FFA29081AA98E2222ADEF05DA3E63D2EDEA8B8756C05A7FB6CABC4A91CBF325398202CC952E70A008A830324BA200D5E5EF8F5F04C75DB4B0EE3340E071C98B823333B83577596BF3849B69F2085AA0FAFA212F26BEFF5877
310
FDE622B28D88A42E49E43326DA82D31E8CB006401E1DA726059ECEC168F97A6599036306A135688F9AD2E61A6EA178F4CD51974A9F2CCB9F36FE5EBD14601068D9C3BF01504B0304140006080000B670623B000000000000000000000000350000006662782F42384135303843342D343331462D343546312D424341352D35
310
32343432364645413344462F76657274696365732E62696E504B0304140006080800B670623BF270F1330600000004000000360000006662782F42384135303843342D343331462D343546312D424341352D3532343432364645413344462F747269616E676C65732E62696E636660600000504B0304140006080000B67062
310
3B000000000000000000000000370000006662782F42384135303843342D343331462D343546312D424341352D3532343432364645413344462F617474726962757465732E62696E504B0304140006080800B670623B08DA0BD19000000041010000360000006662782F42384135303843342D343331462D343546312D4243
310
41352D3532343432364645413344462F6469726563746F72792E786D6C858F410AC3201045AF22B36F53E9A60B35CBEEBAE80D244E44489C6234F4F835464A48035D0DF398FF9F8AF63D0E6CC63039F212F8F9020C7D47C6792B21C5FE7403D62A1188E2E60C98D7234A5830286103A55745067B9D86B8A3CF9C7F90C11DE6
310
07FB144396D7B6A82D282E9A152AD114D5EF2CB866EEE831B8EEA07A7BB5A8D7D61A2BAAEB7FD5F70921FF497D00504B0304140006080800B670623B3B4606F3FE000000A00100003B0000006662782F42384135303843342D343331462D343546312D424341352D3532343432364645413344462F7265736F75726365732F
310
636F72652E786D6C8D504B6E833010BD0A9A6D65B08134808CA354A427E8052C332156828DFCA97AFC9A40A576D7CDCCE87D344F8F9FBEE647F689CE6B6B7A6039850C8DB2A336530F315C4903D94970676DF82583CCC8197B5861107C72362E3BA4AC096842428D1D7107A5F71820538F74F4E0D50D6799CB1892C2DFF345
310
AABB9C306779A2934E701F5C0A906D4FD609C2A1B7D129F4BCD858C163D4E3AED163FAA9AF1A1D88F67CA98E6D35906AA82A52BFB39ABCD5CD915C86331BD86BD3B665CD8BD52C78D0F34F46E550061C419494B6843142CB0F5677F4D0D58717DA7494F26295FF31C565FCA7296A13AA728FBBD93C0896823C09C18BB5AFB4
310
9E65A6BD762BBE01504B010214000A0000080000B670623B3DEE336E79000000790000001B00000000000000000000000000000000006175746F6465736B2D64657369676E2D7061636B6167652E786D6C504B01021400140006080800B670623BD486FD9CA0000000F40000001300000000000000000000000000B2000000
310
5B436F6E74656E745F54797065735D2E786D6C504B01021400140006080800B670623B28ED286BEB0000007C010000080000000000000000000000000083010000636F72652E786D6C504B01021400140006080800B670623B55019EA25F0000007C000000070000000000000000000000000094020000636E782E786D6C50
310
4B01021400140006080800B670623B7BC41AC871010000D40300000C00000000000000000000000000180300006662782F636F72652E786D6C504B01021400140006080800B670623B70102A487D0000009D0000000B00000000000000000000000000B30400006662782F636E782E786D6C504B01021400140006080800B6
310
70623B3610CA3329010000120200003100000000000000000000000000590500006662782F42384135303843342D343331462D343546312D424341352D3532343432364645413344462F636F72652E786D6C504B01021400140006080800B670623B1B8617914E010000330300003000000000000000000000000000D10600
310
006662782F42384135303843342D343331462D343546312D424341352D3532343432364645413344462F636E782E786D6C504B01021400140006080800B670623BBFEF2E3B690500003C10000034000000000000000000000000006D0800006662782F42384135303843342D343331462D343546312D424341352D35323434
310
32364645413344462F6F626A656374732E786D6C504B01021400140006080000B670623B0000000000000000000000003500000000000000000000000000280E00006662782F42384135303843342D343331462D343546312D424341352D3532343432364645413344462F76657274696365732E62696E504B010214001400
310
06080800B670623BF270F133060000000400000036000000000000000000000000007B0E00006662782F42384135303843342D343331462D343546312D424341352D3532343432364645413344462F747269616E676C65732E62696E504B01021400140006080000B670623B00000000000000000000000037000000000000
310
00000000000000D50E00006662782F42384135303843342D343331462D343546312D424341352D3532343432364645413344462F617474726962757465732E62696E504B01021400140006080800B670623B08DA0BD1900000004101000036000000000000000000000000002A0F00006662782F42384135303843342D3433
310
31462D343546312D424341352D3532343432364645413344462F6469726563746F72792E786D6C504B01021400140006080800B670623B3B4606F3FE000000A00100003B000000000000000000000000000E1000006662782F42384135303843342D343331462D343546312D424341352D3532343432364645413344462F72
310
65736F75726365732F636F72652E786D6C504B0506000000000E000E0080040000651100000000
  0
XRECORD
  5
187
102
{ACAD_REACTORS
330
186
102
}
330
186
100
AcDbXrecord
280
     1
 70
     1
 90
429727718
  1
887D55A9-D0DD-414E-B741-A7DCD4DA2B4C
310
504B03040A0000080000B670623B3DEE336E79000000790000001B0000006175746F6465736B2D64657369676E2D7061636B6167652E786D6C3C3F786D6C2076657273696F6E3D22312E302220656E636F64696E673D227574662D3822203F3E3C666F726D6174733E3C666F726D61743E687474703A2F2F736368656D612E
310
6175746F6465736B2E636F6D2F64657369676E2D7061636B6167652F323030393C2F666F726D61743E3C2F666F726D6174733E504B0304140006080800B670623BD486FD9CA0000000F4000000130000005B436F6E74656E745F54797065735D2E786D6C7D8EC10E82300C865F65E91D8A1E8C310C0EEA1BF002731658846E
310
D98AC1B77784ABF1D8FE5FBFBF75BBCE937A534CCEB38643598122B6FEE978D0B0485F9C41B54DDD7D022595594E1A469170414C76A4D9A4D207E29CF43ECE46F218070CC6BECC4078ACAA135ACF422C856C0E68EA1BF5669944DDD7BCDE7B1F8E415D77AECB980613C2E4AC91FC167A2B244592486606FC29C8FD7F045B9A
310
EF7053A7E60B504B0304140006080800B670623BBC1638F5EC0000007C01000008000000636F72652E786D6C8D90416EC3201045AF82665B61836BE2D8C24471DB9CA01740401C94182C03558F5F9C3852BBEB6A467FFE9B197D7EF89E6EE8CB2CC17AD7032D0820E394D7D68D3DA478C67B4007C117EFE32F1B202727D3C3
310
2A83E0E3E2D3BC49CABB685CCCAAF3DA6CA20CC14440EA969B1E82BA98491632C5EC08D76296EA2A4753D06797E194AC468F2356E77DF66CCD02825543D50CACC62D39ED70FDC68EB8FD68F6F8787A6784342D1DDA1D2F5758F068A7E77DB518198D065111D2624A31A93E69DD11D6D5EC85EC3B4278B9DAFF4069D6FF8492
310
75F1B5DADE7D600104CD8FDC0782976B16B9DC83CA75CD4DFC00504B0304140006080800B670623B55019EA25F0000007C00000007000000636E782E786D6C4DCB3B0E80201045D1AD90E915ED2CF8AC45050C11660C8261F98AB1B07AC9C97D42D718D865D3E909258CFD00CCE24AC6E326A164D74DC0B4128928FF326038
310
472BA13128B1252AC747C6BAB984FC68F0B87FE8960A5C09FE86CFB69FBA01504B0304140006080800B670623B3586FFB671010000D40300000C0000006662782F636F72652E786D6CC553ED6E8320147D15C2DF4541A76D6D90A6DDD627D80B50A4CE54C120983EFEAE1F4DD7A55BBA5FF3879273EEE59E7310B6393735EA
310
95ED2AA3731C851423A5A5292A5DE6D8BB63B0C268C39935C67D29C3488B46E578803167A535BE9D2169B453DA01AA4DA16650749D7218C91A1639EEE4876A4428BC838AEE14B6429E44A9C228041AEA38EB9C0501681A32BC313F1ECE8C4C3867DE57C5CC56054CAB8E95B298A7F12E5EEED224C8E87E11242FE936C8DE96
310
AB60BB7F4D295D66D12E5B30323473E6AAE6A24E5A259C2A308F29CD82280A68FC1E256B9AAE93F489AED694323294DF34F9B678B0C957DA3DC7B3DCA9ADC33C022123F1CD2D44E450277AD04338234388F01913BE0D1A0281909D38D4171F27807A259DB1093085F157AA17B557309586747CD0CF0B46A64E983A6E0EAEEF
310
CE881F9EF1FB8E70D44297604238581EBC1B74B249C31C5AAB6CD0BB33D2C636A27ECCC62F0EFF445DC5DF95244D6DEC7F2922F30191F9F720C37DE49F504B0304140006080800B670623B4220A0FF7D0000009D0000000B0000006662782F636E782E786D6C4DCCD10A83201886E15B91FFDCE542CB0335D0EC3E6259C84A
310
C3E9D8E5AF46073BFAE0E1E315DD675BD1DBA5978F41C2FD4600B9F088930F8B849267CC01754AA418F3DF0D50183727E164506249B1EC174D6E1ECB9A0F5D7D785E68DB8151CD286E5A5363CA6B8A39E90D36D40E96B086F55A43A544F52B1D7B86D517504B0304140006080800B670623B2FA3FEDE290100001202000031
310
0000006662782F45374635344235342D363743322D343832342D383044432D4334454645303536354442422F636F72652E786D6C8D515B6EC32010BC0AE22B55850D2E386E848994D7097A0117488A1283C5A3CAF10BB523B57FF961D1ECCCECC0F2ED7DBC816FED8371B687A4C210682B9D32F6D2C314CFA883602BB8772E
310
FEA141608751F7B0C050F08B77695A20E96CD43666D43AA5177008414708E42D5F7A18E4971E876A483133C2B59A06791D2EBA22556E679EE021FA1C00CC43CA09C5717D6274C7286AD7FB06D1AEA1A8C3873DDAD3E3E98859CB0EBB1DAF67A1E02919B5C88DCA71CCD968FFAC49110B1ECDF8882FBD1EA256503418BF2342
310
106E3E08DD60B6A1EC15771B8C795DE8FF4469524F8A92B1F1AD59E2CEB20005E1F5DC105CB9F4797B84D1F7C9F908CABC55D0F2050A5C61CC1AD2F27A26E6E767C7962E8E213A9FBF7775FDCC5CC266DB960A5E970DE5F2BBBE5CCB36C50F504B0304140006080800B670623B1B8617914E01000033030000300000006662
310
782F45374635344235342D363743322D343832342D383044432D4334454645303536354442422F636E782E786D6CD593C16EC32010447F0571AD6CE3D489D20813A9877E410FBD62D82434182CC055F3F75D1292E692438FBD206B7698593D61BEFD1E2DF982108D773D6D6B460938E5B571FB9ECE6957AD29D90A1EBC4F77
310
364A9C1CA1A759A682EF839FA72269D8C9D92654AD71C72206887E0E0A22CAF926B15E498B01E0AA19451807D01A34B919F16B070157417138917400F2F6FA41FCF0092A45DEE414C19BDC21783E4BD39D891265658C3D8DEA00A3ACE59CBC8678ACB54CB26EEB6BD7839D7E9348BE70AD9C8321B9BCA7F9A4A26C542347DE
310
E050F09802D22BA6749A800A394DD62899107273365E3C82CFC6A55557BC06C10774B7ABE7AEC3B0F34CF06446280E154026D0542C187BA9DAB6628BF7B6DBB0E5A65B3EB1F58631DE64BBE083F7B65CC218087E22CABB042E51D1F2268F1FE12B3EA24D40D63E9CFE00120194D60B9D5BC67FE6D39CDF37E20AF817881F50
310
4B0304140006080800B670623B29652116630500003C100000340000006662782F45374635344235342D363743322D343832342D383044432D4334454645303536354442422F6F626A656374732E786D6CAD575D739B3814FD2B0CFB0C989834C90EA1639B24E3E9A6EDD4D3CE3E64C623834CD8006224913AFDF57B040203
310
B65BEF871F0C12D2FD3CF7E8CA7FBFCB33E3957291B2E2D674ED8969D02262715A24B76625B7D6B569BC0F7CCE98EC2D338D82E4F4D654D366E0279C55A59E8AE99654991CCDDECFFF3444440B6A1A514684B83545F44C7362934AB2988A173B2692D8C97667BB76B3702836E1A47C1E092D09A78584A5982F20C5688C7287
310
C389E904BEA3BE07BEFAD7ABA6A75739B53F43FD69212429A20365233153D70BEF2E2E6FAC4BCF9B5ADEBB0BD79ADFCF43CBBD9A4E16EF168B9BD9DD0D140BC921495BC2E9D60C1E101B9E46BED37CEA2CD6861F3329624541A3DA7F7858DBAC25C6B4A4458C3CA654405BCFEBC970E8AAD8F43E4FD558ABEC4F9FE7557F47
310
4F506B7BFBEC5BCA367FC105710E2AB8A00A554D7CB4A30DFE26FBA86D18CBF4B75418399194A72433B274C3097F33032C554B027F2046A1932B842B0FCCC0DDCBEBDB8AD2F835768F59B9ADB24C41D30C6A64AF817F2A456D59FA83F2E3DA60137255A585BCD60EC9B7929AC18DEFD49381AF1ED30BFDB109A4B1CD488294
310
C3CDE6EBC8D185AABD6568061FEE37BB95AAC7E3CA4BCE4ACAA5820FA0D526AE7DAA2869B5EE5999531BE0CC20E6FBA07C41E43FA27CF7A6206F3CDD793B4F6B919C1462CB788EDCD893FA674CDA17AB7B3B7C019F8D561FAEE966FED562DFE98C1D12C6A9FC015C2A35D7FF3D7FC398F591DA4B5FE0BFA2C0189FEA50AE22
310
92817A1ED3020951A03432862970F976B33383259812CC8E5D240BBA801CBCF8CE2BBEE3BF910DB6AAD5F79E05123AE2DB33981FB1ACCB02B69D00CB014FD68AB573A7627EF9BFD4CC2C5C7D58557C4B22FAA88925A4DBB44825CECE3D78FB060D1231F0E885BE7D673C86A3874958F593906B5502D1563157814FDAC3420D
310
F69A070A22EC4B98E23CFF171A1E5311D12C23056555ABA53B8614563B92D17D02AAB009E8F46284624E5F53D5490C560CCCC2591FF1B45421EB0EBD8EA7ED13BE7C5D7E0428CD60FEF60779EB13E6664FF711CB185F6FDED60D139A001FF60CD1FD6D086F1D51474901E26B2CB794A343BC8ED3EDB612E0DD2351FCB65CF4
310
33D511C9E14B5B40ADC6A6263DB0336A8F700DDF56271A024E70B0B3629DE21847591E55DED73D56206AB927E46FAABC5C939C55853C274C93D69FD6FA4E78BF8B11DF898C9ECD60553FAD39283BA6F18984AA23E8884F83F45C5F5F859797B31B2B9C84A1E5B9DE9D35BFF25C6B76152E422F9C5DCC3D847F5801ED09D5AF
310
41441327A25FF15487F9EB725FB666F048A4701E9A827292E6F97569A32DF61DEC01C0BB8DCBBCCC684E0B49147C1FD54BF685A0AB18C868E6973949E819523E3DAC463660E68C7D9F55A9D1EFA3BD7A76A16AE1A810F95CE59B82A4D968A376DC2E8B44BBDD86B27B368CDE0ED548C7137DA860591A83706223A12CA712B4
310
7306DBF39C0A20A6DF95C7FAF670C6EED7A61F946493D1D6926782963813403548A78AE470DEF80D2D9CEAA26E4D1C76F60BFE74219A06527D6B82DF641A51616F703CAAC6A7160E08A00BEB4810A0274592A1B36E3675E36E978A0DE80727A0D6DF2D39A75BD27E0D8837276589537B40ABB56D5A41F48F1C6FCD3188C4EB
310
A6929D2FFB89CE995A4D00AE813BDD032DC48B56BD437DFDDC2DD7AED70C2272D63DE9A72068A45A92F0A4BE17A8A06B9366E16707AD80B1FC649459952097E74BB23805982B55E0401150A165964402AA8BDF9F3E7386BB686EDCA780C0D382E5392BF460A6EFB2C6EA1937D3F809B440D5F5435C4C5CF7A9EEFAF54564BD
310
2182DA24162F98680B4E7930C21A0079709CEAEB99A372305ABE0C0D7D6078105A83F6A0296DAEE1068A47DD1C55A9F4C9B2FC69E3EFD44B81028E963DF81B504B0304140006080000B670623B000000000000000000000000350000006662782F45374635344235342D363743322D343832342D383044432D433445464530
310
3536354442422F76657274696365732E62696E504B0304140006080800B670623BF270F1330600000004000000360000006662782F45374635344235342D363743322D343832342D383044432D4334454645303536354442422F747269616E676C65732E62696E636660600000504B0304140006080000B670623B00000000
310
0000000000000000370000006662782F45374635344235342D363743322D343832342D383044432D4334454645303536354442422F617474726962757465732E62696E504B0304140006080800B670623B08DA0BD19000000041010000360000006662782F45374635344235342D363743322D343832342D383044432D4334
310
454645303536354442422F6469726563746F72792E786D6C858F410AC3201045AF22B36F53E9A60B35CBEEBAE80D244E44489C6234F4F835464A48035D0DF398FF9F8AF63D0E6CC63039F212F8F9020C7D47C6792B21C5FE7403D62A1188E2E60C98D7234A5830286103A55745067B9D86B8A3CF9C7F90C11DE607FB144396
310
D7B6A82D282E9A152AD114D5EF2CB866EEE831B8EEA07A7BB5A8D7D61A2BAAEB7FD5F70921FF497D00504B0304140006080800B670623B6378F24DFF000000A00100003B0000006662782F45374635344235342D363743322D343832342D383044432D4334454645303536354442422F7265736F75726365732F636F72652E
310
786D6C8D504B6E833010BD0A9A6D65B0094E42641C85B639412F6099496225D8C89FAAC7AF09546A77DDCC8CDE47F3F4C4F16B7C149FE88371B603565228D06A37187BED20C50BD9437194C23B177FC9A0B06AC40E6618A4B87A97A615D2CE46B431A3D60DB8822A048C50E8473E3A08FA86A32A558A5911EEE5A4F45D5DB1
310
6465A6B34E8A107D0E502C4FE609D26370C96B0CA25A58295232C3AA3143FE692E063D485EF7F5AEE71BD2D2F39634AFFC44DAF7DD9E9CCE6F9CD25DCBFA762BAAD92C4534E34F46ED51451C40D694B6843142EB0FD61C283F34FC85EE0F948A6A96FF31A569F8A729191B37F51A77B105902C0779125254735F793DCBCC7B
310
EE567E03504B010214000A0000080000B670623B3DEE336E79000000790000001B00000000000000000000000000000000006175746F6465736B2D64657369676E2D7061636B6167652E786D6C504B01021400140006080800B670623BD486FD9CA0000000F40000001300000000000000000000000000B20000005B436F6E
310
74656E745F54797065735D2E786D6C504B01021400140006080800B670623BBC1638F5EC0000007C010000080000000000000000000000000083010000636F72652E786D6C504B01021400140006080800B670623B55019EA25F0000007C000000070000000000000000000000000095020000636E782E786D6C504B010214
310
00140006080800B670623B3586FFB671010000D40300000C00000000000000000000000000190300006662782F636F72652E786D6C504B01021400140006080800B670623B4220A0FF7D0000009D0000000B00000000000000000000000000B40400006662782F636E782E786D6C504B01021400140006080800B670623B2F
310
A3FEDE290100001202000031000000000000000000000000005A0500006662782F45374635344235342D363743322D343832342D383044432D4334454645303536354442422F636F72652E786D6C504B01021400140006080800B670623B1B8617914E010000330300003000000000000000000000000000D2060000666278
310
2F45374635344235342D363743322D343832342D383044432D4334454645303536354442422F636E782E786D6C504B01021400140006080800B670623B29652116630500003C10000034000000000000000000000000006E0800006662782F45374635344235342D363743322D343832342D383044432D4334454645303536
310
354442422F6F626A656374732E786D6C504B01021400140006080000B670623B0000000000000000000000003500000000000000000000000000230E00006662782F45374635344235342D363743322D343832342D383044432D4334454645303536354442422F76657274696365732E62696E504B01021400140006080800
310
B670623BF270F13306000000040000003600000000000000000000000000760E00006662782F45374635344235342D363743322D343832342D383044432D4334454645303536354442422F747269616E676C65732E62696E504B01021400140006080000B670623B0000000000000000000000003700000000000000000000
310
000000D00E00006662782F45374635344235342D363743322D343832342D383044432D4334454645303536354442422F617474726962757465732E62696E504B01021400140006080800B670623B08DA0BD190000000410100003600000000000000000000000000250F00006662782F45374635344235342D363743322D34
310
3832342D383044432D4334454645303536354442422F6469726563746F72792E786D6C504B01021400140006080800B670623B6378F24DFF000000A00100003B00000000000000000000000000091000006662782F45374635344235342D363743322D343832342D383044432D4334454645303536354442422F7265736F75
310
726365732F636F72652E786D6C504B0506000000000E000E0080040000611100000000
  0
XRECORD
  5
112
102
{ACAD_REACTORS
330
110
102
}
330
110
100
AcDbXrecord
280
     1
270
     1
271
     1
  0
XRECORD
  5
111
102
{ACAD_REACTORS
330
110
102
}
330
110
100
AcDbXrecord
280
     1
270
     1
271
     1
  0
XRECORD
  5
18A
102
{ACAD_REACTORS
330
110
102
}
330
110
100
AcDbXrecord
280
     1
 70
     0
 90
1778669749
  1
9BF507EE-FAF7-4A99-A33D-4EE51894BC40
310
504B03040A0000080000B670623B3DEE336E79000000790000001B0000006175746F6465736B2D64657369676E2D7061636B6167652E786D6C3C3F786D6C2076657273696F6E3D22312E302220656E636F64696E673D227574662D3822203F3E3C666F726D6174733E3C666F726D61743E687474703A2F2F736368656D612E
310
6175746F6465736B2E636F6D2F64657369676E2D7061636B6167652F323030393C2F666F726D61743E3C2F666F726D6174733E504B0304140006080800B670623BD486FD9CA0000000F4000000130000005B436F6E74656E745F54797065735D2E786D6C7D8EC10E82300C865F65E91D8A1E8C310C0EEA1BF002731658846E
310
D98AC1B77784ABF1D8FE5FBFBF75BBCE937A534CCEB38643598122B6FEE978D0B0485F9C41B54DDD7D022595594E1A469170414C76A4D9A4D207E29CF43ECE46F218070CC6BECC4078ACAA135ACF422C856C0E68EA1BF5669944DDD7BCDE7B1F8E415D77AECB980613C2E4AC91FC167A2B244592486606FC29C8FD7F045B9A
310
EF7053A7E60B504B0304140006080800B670623BCA089DFFEC0000007C01000008000000636F72652E786D6C8D90416E83301045AF62CDB632D8402020E32882F604BD80653BC44AB011B6AB1EBF262152BBEB6A467FFE9B197D76FA9EEFE84BAFDE38DB03CD08206DA553C64E3DC470C1474027CE56E7C22F1B202B66DDC3
310
260367D3EAE2B24BD2D9A06D48AA754AEFA2F05E0740F29E9A1EBCBCEA59642286E4F0B76C11F226269DD15797E0188D42CF2346A57DE662F40ABCAEC77628C6120F654571D50C04B7F5B9C1E3997CD4F550BE3745C3F20DE62C98F9755FAE5A04AD801784B498524C8A4F5A75E4D055873772EC0861F966FF03C545FD138A
310
C686B2D8DF7D621E384D8F3C069CE55B16A93C824A75CB8DFF00504B0304140006080800B670623B55019EA25F0000007C00000007000000636E782E786D6C4DCB3B0E80201045D1AD90E915ED2CF8AC45050C11660C8261F98AB1B07AC9C97D42D718D865D3E909258CFD00CCE24AC6E326A164D74DC0B4128928FF326038
310
472BA13128B1252AC747C6BAB984FC68F0B87FE8960A5C09FE86CFB69FBA01504B0304140006080800B670623B68FC0B7272010000D40300000C0000006662782F636F72652E786D6CC5535B6E833010BC8AE5DF0A6C1E8124328E22D29EA01770C0A128602363A31CBFCB234A53A555FA553EC09AD9F5CE8C31DB5DDA060D
310
D2F4B556190E7C8A9154852E6B5565D8D993B7C668C799D1DA7E29C3488956667884316795D1AE5BA0422B2B950554E9522EA0E87B69312A1A5864B82F3E642B7CE12C54F467BF13C55954D20F7CA0A18EB3DE1A1080E621E31BF3D3F1C2C88C73E65C5D2E6C5DC2B4FA544B8379921C36797888BC3C8A032F4E73EA6D927D
310
EA1DF6F42D49F2E8350D5346C666CE6CDD5ED515460A2B4BCC434A375E1078347C0FE22D5D6DE3D50B5D6F2965642CBF6B725DF96493AB958DC245EEDCD6631E809089F8E61622B2A81703E8219C913144F84C09DF070D8140C8561C9BAB8F3340832CAC363130A576376A108D933095FA747AD0CF0B46E64E983A6D0EAE1F
310
CE089F9EF1FB8E70D44255604258581E9D1D75B259C3125A278D37D80B52DAB4A279CEC62F0EFF44DDC43F9454E8469BFF5244960322CBEF41C6FBC83F01504B0304140006080800B670623B0F71DDB67E0000009D0000000B0000006662782F636E782E786D6C4DCCD10A83201886E15B91FFDCA54DB73F502386BB8F5816
310
32D3703976F9ABD1C18E3E78F87855FB990379BBFCF2296AE02706C4C5471A7C9C349475A408A4352AA7B4FEDD80C47E761A7606A3A69CCA72D0E0C6BE8475D3E0E3F3409428EA6B27A84079A782899AA2EC1A7AE3ECCC2FD858CB2D544655BFD2B67BD87C01504B0304140006080800B670623BE134B4FB28010000120200
310
00310000006662782F38353834323741342D343835462D343034322D383541392D4331303331363839454531452F636F72652E786D6C8D515B6EC32010BC0AE22B55850D0EA424C24451959EA0172086A42831583CAA1CBF503B52FB971F16CDCECC0EACD8DFC71BF836215AEF7A481A0C817183D7D65D7A98D3197108F652
310
04EFD31F1A044E8DA6871586525C82CFD3020DDE25E352419DD76601558C264130DCCAA58771F832A36A544E8511AFCDA486ABBA988634A55D7852C4144A00300FA927949C71DABD1D28A29C7D208A6987383B6CD13BC16BB2E1DBE3911C453B0BA5C8D9EA456E758963CFD684674DAA588A64C747FC2118958C86B2C3788B
310
0841B8FB247487D98EB257CC77188BB6D2FF89F2A49F1465EBD2BA5BE2CEB2082511EDDC9042FB7CBA3DC298FBE4430275DE2A9AE1054ADC60CC08E3A29D89E5F9C5714317C7987C28DFBBBA9E0A97B0D97643A568EB864AF95D5FA9759BF207504B0304140006080800B670623B1B8617914E010000330300003000000066
310
62782F38353834323741342D343835462D343034322D383541392D4331303331363839454531452F636E782E786D6CD593C16EC32010447F0571AD6CE3D489D20813A9877E410FBD62D82434182CC055F3F75D1292E692438FBD206B7698593D61BEFD1E2DF982108D773D6D6B460938E5B571FB9ECE6957AD29D90A1EBC4F
310
77364A9C1CA1A759A682EF839FA72269D8C9D92654AD71C72206887E0E0A22CAF926B15E498B01E0AA19451807D01A34B919F16B070157417138917400F2F6FA41FCF0092A45DEE414C19BDC21783E4BD39D891265658C3D8DEA00A3ACE59CBC8678ACB54CB26EEB6BD7839D7E9348BE70AD9C8321B9BCA7F9A4A26C542347
310
DEE050F09802D22BA6749A800A394DD62899107273365E3C82CFC6A55557BC06C10774B7ABE7AEC3B0F34CF06446280E154026D0542C187BA9DAB6628BF7B6DBB0E5A65B3EB1F58631DE64BBE083F7B65CC218087E22CABB042E51D1F2268F1FE12B3EA24D40D63E9CFE00120194D60B9D5BC67FE6D39CDF37E20AF817881F
310
504B0304140006080800B670623B5933D422630500003B100000340000006662782F38353834323741342D343835462D343034322D383541392D4331303331363839454531452F6F626A656374732E786D6CAD575B6FA33814FE2B887D0642934E9B156594264D158D3A534DD4D13E548A0C38942D60649B4EBABF7E3F8321
310
40924EF6928780CDF1B97EE762EFF32E4B8D37CA45C2F21BD3B547A641F39045491EDF98A5DC5AD7A6F1D9F73863B243661A39C9E88DA9B64DDF8B392B0BBD15D12D295339D85DDEFE618890E6D434C2940871638AF08566C426A5641115AF764424B1E3EDCE76ED9AB0CF36E6A47819302D08A7B984A6D8CFC1C5A89572FB
310
CB91E9F89EA3BEFB9EFAD754E3D3544E654F5F7E920B49F2F040D880CDD89D2CEE2E2EA7D6E56432B6269F2E5CEB7679BBB0DCABF168FE693E9FCEEEA6102C240727AD09A75BD3BF876F78127A4EFDA9D5582B7E4CA590E5390D2BFB6161A5B3E618D182E611E2985001691DAB47FDA5AB7CD3F93C566B2DB2BB7D9E55DD13
310
1D468DEECDB3AB290BFE8409E21C54704115AA6AFF68436BFC8DF65E0B184BF5B74418199194272435D224E084BF9B3E481589EFF5D828747285706581E9BB7B7E5D5D911ABFC6EE312DB7659A2A689A7E85EC0DF04FA5A8344BFEA2FCB834E8845895492EAFB541F2BDA0A63FF59C6AD3F7D4637CA13FD68E34B629891172
310
98597F1D183A57B9B75A98FE9765B05BAB7C3C2EBCE0ACA05C2AF8005A4DE09AA7F29216EB9E15397500C6F47CBE77CA7778FE2BD277AF0AE2C693DD6437D1522427B9D8329E2136F6A8FA19A3E6C56ADF0E5F50CF06D48734EDCEBF22F69C56D97EC138153F804B85E6FABFC7AFEFB32E523BE1F3BD372418E363EDCA7548
310
52949E8724474014288D94610BB57C1BEC4C7F854A89CA8E5324F55B871CBC78CE1BBEE3BFE68D6A5589EF3C730474506FCFA8FCF0659516D0ED04580EEA6425581B77CAE797FF4BCECC16EB2FEB926F49481F746159D06D922712BD730FDEAE42BD40F42C7AA5EF3F198F60E86110D6DD20645A9480B795CF95E3E3A659A8
310
C55E724F408873315335CFFB8584874484344D494E59D94869DB90C26A5B64F49C802CAC1D3ABE18A098D3B7444D123D8A9E5AE8F5214F0AE5B2B6E9B575DA3E61CBD3EA2B4009FA940524DD1305FB6A1FB294F14DF0BEA90BA109ECE1481FDC3FFAE8D60E75141700BE82725371B4873751B2DD960265F788137FACE6DD40
310
B575E4F0A5C99F46629D92131467A41EE11ABD8D4CCC039CA0AFB37C93A08B232B8F0AEFCA1E0A1015DF13FC83322B362463652ECF71D3A8B1A7D1BE65DE1D62C44F22C317D35F574FEB16153BA2D13E543D10A80E74C4A65E78A6B7CBCBD1D5DD9DB59C2DAFACC96C3AB566E3F1C29ADCDD5DBAD7D3C9ED7C822ED74F80A6
310
41755310DE4443F44A9E68373FADF6596BFA0F440AE7BECE2727AE9F4F2B1B53B1E7E00CF0DD1E5C65454A339A4BA2D0FBA05ED2EF0443458F47BDBFCA484CCFE0F2ED7E3DD0013B679C7B5499467F0ECEEADDB9CA85A34CE44B99053949D2C1416DB85DE4B136BB7165FBAC0B7AB3542BED4F8CA182A549847A1319316519
310
95A83A67147B9E5101C47487F2485F1ECE38FD568F839204296D3479219888530154036E6528FBFBC66F98E0D4107563A2D7D9AFF8D389681A08F58D89F22693900A3B407754734FC51C10C010D6D640809EE4718AC1BA3ED4AEDB53CA37283F68805A7E4B72CEB0A4EDEAD5DD8C14059A76AFAA56BA6901E13F32BC51C720
310
12AF41295B5BF61BAD3195181FB506E6B40F4C10AF5AF40EF9F5B159AE5DD1F43C72D635E94310D45C2D49785C5D0B94D3B54AB3C5A38349C0587D338AB48C11CBF339599C02CCA54A70A008A8D03C0B2201D5F9EFCF8F9CE12A9A19CB0410789EB32C63B95ECCF455D658BFE0621A3DA32C5075FB101723D77DAE867E7D0F
310
D90444509B44E2151B4DC2290B065803200FBAA9BE9D392A0603F2D5C2D00D6302A615680F66D2FA166E2079D4C551A54AB758161FCEFD4E450A14704CECFEDF504B0304140006080000B670623B000000000000000000000000350000006662782F38353834323741342D343835462D343034322D383541392D4331303331
310
363839454531452F76657274696365732E62696E504B0304140006080800B670623BF270F1330600000004000000360000006662782F38353834323741342D343835462D343034322D383541392D4331303331363839454531452F747269616E676C65732E62696E636660600000504B0304140006080000B670623B000000
310
000000000000000000370000006662782F38353834323741342D343835462D343034322D383541392D4331303331363839454531452F617474726962757465732E62696E504B0304140006080800B670623B08DA0BD19000000041010000360000006662782F38353834323741342D343835462D343034322D383541392D43
310
31303331363839454531452F6469726563746F72792E786D6C858F410AC3201045AF22B36F53E9A60B35CBEEBAE80D244E44489C6234F4F835464A48035D0DF398FF9F8AF63D0E6CC63039F212F8F9020C7D47C6792B21C5FE7403D62A1188E2E60C98D7234A5830286103A55745067B9D86B8A3CF9C7F90C11DE607FB1443
310
96D7B6A82D282E9A152AD114D5EF2CB866EEE831B8EEA07A7BB5A8D7D61A2BAAEB7FD5F70921FF497D00504B0304140006080800B670623BD9A3B367FE000000A00100003B0000006662782F38353834323741342D343835462D343034322D383541392D4331303331363839454531452F7265736F75726365732F636F7265
310
2E786D6C8D504B6E833010BD0A9A6D65B01D0201194711694FD00B586642AD043BF2A7EAF16B122AB5BB6E6646EFA3797AE2F8B5DC8A4FF4C1383B002B291468B59B8C9D0748F1420E501CA5F0CEC55F3228AC5A708015062966EFD27D83B4B3116DCCA875136EA00A012314FA968F0182FEC045952AC5AC08D7F2AEF455CD
310
58B232D3592745883E07289E4FD609D26370C96B0CA27AB252A464A64D63A6FCD35C0C7A904D73EE467EE664DCD58CD4ED4849D79C5A723ED1B7A61977AF2D6F45B59AA58866F9C9A83DAA8813484E6947182394BFB3BAA7FBBEDEBFD0434FA9A856F91F53BA4FFF342563E38E6F719FB60092E5200F428A6AED2BAF479979
310
AFDDCA6F504B010214000A0000080000B670623B3DEE336E79000000790000001B00000000000000000000000000000000006175746F6465736B2D64657369676E2D7061636B6167652E786D6C504B01021400140006080800B670623BD486FD9CA0000000F40000001300000000000000000000000000B20000005B436F6E
310
74656E745F54797065735D2E786D6C504B01021400140006080800B670623BCA089DFFEC0000007C010000080000000000000000000000000083010000636F72652E786D6C504B01021400140006080800B670623B55019EA25F0000007C000000070000000000000000000000000095020000636E782E786D6C504B010214
310
00140006080800B670623B68FC0B7272010000D40300000C00000000000000000000000000190300006662782F636F72652E786D6C504B01021400140006080800B670623B0F71DDB67E0000009D0000000B00000000000000000000000000B50400006662782F636E782E786D6C504B01021400140006080800B670623BE1
310
34B4FB280100001202000031000000000000000000000000005C0500006662782F38353834323741342D343835462D343034322D383541392D4331303331363839454531452F636F72652E786D6C504B01021400140006080800B670623B1B8617914E010000330300003000000000000000000000000000D3060000666278
310
2F38353834323741342D343835462D343034322D383541392D4331303331363839454531452F636E782E786D6C504B01021400140006080800B670623B5933D422630500003B10000034000000000000000000000000006F0800006662782F38353834323741342D343835462D343034322D383541392D4331303331363839
310
454531452F6F626A656374732E786D6C504B01021400140006080000B670623B0000000000000000000000003500000000000000000000000000240E00006662782F38353834323741342D343835462D343034322D383541392D4331303331363839454531452F76657274696365732E62696E504B01021400140006080800
310
B670623BF270F13306000000040000003600000000000000000000000000770E00006662782F38353834323741342D343835462D343034322D383541392D4331303331363839454531452F747269616E676C65732E62696E504B01021400140006080000B670623B0000000000000000000000003700000000000000000000
310
000000D10E00006662782F38353834323741342D343835462D343034322D383541392D4331303331363839454531452F617474726962757465732E62696E504B01021400140006080800B670623B08DA0BD190000000410100003600000000000000000000000000260F00006662782F38353834323741342D343835462D34
310
3034322D383541392D4331303331363839454531452F6469726563746F72792E786D6C504B01021400140006080800B670623BD9A3B367FE000000A00100003B000000000000000000000000000A1000006662782F38353834323741342D343835462D343034322D383541392D4331303331363839454531452F7265736F75
310
726365732F636F72652E786D6C504B0506000000000E000E0080040000611100000000
  0
XRECORD
  5
113
102
{ACAD_REACTORS
330
110
102
}
330
110
100
AcDbXrecord
280
     1
270
     1
271
     1
  0
XRECORD
  5
114
102
{ACAD_REACTORS
330
110
102
}
330
110
100
AcDbXrecord
280
     1
270
     1
271
     1
  0
CELLSTYLEMAP
  5
83688
102
{ACAD_REACTORS
330
104
102
}
330
104
100
AcDbCellStyleMap
 90
        3
300
CELLSTYLE
  1
TABLEFORMAT_BEGIN
 90
        5
170
     1
 91
        0
 92
    32768
 62
   257
 93
        1
300
CONTENTFORMAT
  1
CONTENTFORMAT_BEGIN
 90
        0
 91
        0
 92
      512
 93
        0
300

 40
0.0
140
1.0
 94
        5
 62
     0
340
11
144
0.25
309
CONTENTFORMAT_END
171
     1
301
MARGIN
  1
CELLMARGIN_BEGIN
 40
0.06
 40
0.06
 40
0.06
 40
0.06
 40
0.18
 40
0.18
309
CELLMARGIN_END
 94
        6
 95
        1
302
GRIDFORMAT
  1
GRIDFORMAT_BEGIN
 90
        0
 91
        1
 62
     0
 92
       -2
340
0
 93
        0
 40
0.045
309
GRIDFORMAT_END
 95
        2
302
GRIDFORMAT
  1
GRIDFORMAT_BEGIN
 90
        0
 91
        1
 62
     0
 92
       -2
340
0
 93
        0
 40
0.045
309
GRIDFORMAT_END
 95
        4
302
GRIDFORMAT
  1
GRIDFORMAT_BEGIN
 90
        0
 91
        1
 62
     0
 92
       -2
340
0
 93
        0
 40
0.045
309
GRIDFORMAT_END
 95
        8
302
GRIDFORMAT
  1
GRIDFORMAT_BEGIN
 90
        0
 91
        1
 62
     0
 92
       -2
340
0
 93
        0
 40
0.045
309
GRIDFORMAT_END
 95
       16
302
GRIDFORMAT
  1
GRIDFORMAT_BEGIN
 90
        0
 91
        1
 62
     0
 92
       -2
340
0
 93
        0
 40
0.045
309
GRIDFORMAT_END
 95
       32
302
GRIDFORMAT
  1
GRIDFORMAT_BEGIN
 90
        0
 91
        1
 62
     0
 92
       -2
340
0
 93
        0
 40
0.045
309
GRIDFORMAT_END
309
TABLEFORMAT_END
  1
CELLSTYLE_BEGIN
 90
        1
 91
        1
300
_TITLE
309
CELLSTYLE_END
300
CELLSTYLE
  1
TABLEFORMAT_BEGIN
 90
        5
170
     1
 91
        0
 92
        0
 62
   257
 93
        1
300
CONTENTFORMAT
  1
CONTENTFORMAT_BEGIN
 90
        0
 91
        0
 92
      512
 93
        0
300

 40
0.0
140
1.0
 94
        5
 62
     0
340
11
144
0.18
309
CONTENTFORMAT_END
171
     1
301
MARGIN
  1
CELLMARGIN_BEGIN
 40
0.06
 40
0.06
 40
0.06
 40
0.06
 40
0.18
 40
0.18
309
CELLMARGIN_END
 94
        6
 95
        1
302
GRIDFORMAT
  1
GRIDFORMAT_BEGIN
 90
        0
 91
        1
 62
     0
 92
       -2
340
0
 93
        0
 40
0.045
309
GRIDFORMAT_END
 95
        2
302
GRIDFORMAT
  1
GRIDFORMAT_BEGIN
 90
        0
 91
        1
 62
     0
 92
       -2
340
0
 93
        0
 40
0.045
309
GRIDFORMAT_END
 95
        4
302
GRIDFORMAT
  1
GRIDFORMAT_BEGIN
 90
        0
 91
        1
 62
     0
 92
       -2
340
0
 93
        0
 40
0.045
309
GRIDFORMAT_END
 95
        8
302
GRIDFORMAT
  1
GRIDFORMAT_BEGIN
 90
        0
 91
        1
 62
     0
 92
       -2
340
0
 93
        0
 40
0.045
309
GRIDFORMAT_END
 95
       16
302
GRIDFORMAT
  1
GRIDFORMAT_BEGIN
 90
        0
 91
        1
 62
     0
 92
       -2
340
0
 93
        0
 40
0.045
309
GRIDFORMAT_END
 95
       32
302
GRIDFORMAT
  1
GRIDFORMAT_BEGIN
 90
        0
 91
        1
 62
     0
 92
       -2
340
0
 93
        0
 40
0.045
309
GRIDFORMAT_END
309
TABLEFORMAT_END
  1
CELLSTYLE_BEGIN
 90
        2
 91
        1
300
_HEADER
309
CELLSTYLE_END
300
CELLSTYLE
  1
TABLEFORMAT_BEGIN
 90
        5
170
     1
 91
        0
 92
        0
 62
   257
 93
        1
300
CONTENTFORMAT
  1
CONTENTFORMAT_BEGIN
 90
        0
 91
        0
 92
      512
 93
        0
300

 40
0.0
140
1.0
 94
        2
 62
     0
340
11
144
0.18
309
CONTENTFORMAT_END
171
     1
301
MARGIN
  1
CELLMARGIN_BEGIN
 40
0.06
 40
0.06
 40
0.06
 40
0.06
 40
0.18
 40
0.18
309
CELLMARGIN_END
 94
        6
 95
        1
302
GRIDFORMAT
  1
GRIDFORMAT_BEGIN
 90
        0
 91
        1
 62
     0
 92
       -2
340
0
 93
        0
 40
0.045
309
GRIDFORMAT_END
 95
        2
302
GRIDFORMAT
  1
GRIDFORMAT_BEGIN
 90
        0
 91
        1
 62
     0
 92
       -2
340
0
 93
        0
 40
0.045
309
GRIDFORMAT_END
 95
        4
302
GRIDFORMAT
  1
GRIDFORMAT_BEGIN
 90
        0
 91
        1
 62
     0
 92
       -2
340
0
 93
        0
 40
0.045
309
GRIDFORMAT_END
 95
        8
302
GRIDFORMAT
  1
GRIDFORMAT_BEGIN
 90
        0
 91
        1
 62
     0
 92
       -2
340
0
 93
        0
 40
0.045
309
GRIDFORMAT_END
 95
       16
302
GRIDFORMAT
  1
GRIDFORMAT_BEGIN
 90
        0
 91
        1
 62
     0
 92
       -2
340
0
 93
        0
 40
0.045
309
GRIDFORMAT_END
 95
       32
302
GRIDFORMAT
  1
GRIDFORMAT_BEGIN
 90
        0
 91
        1
 62
     0
 92
       -2
340
0
 93
        0
 40
0.045
309
GRIDFORMAT_END
309
TABLEFORMAT_END
  1
CELLSTYLE_BEGIN
 90
        3
 91
        2
300
_DATA
309
CELLSTYLE_END
  0
ENDSEC
  0
SECTION
  2
ACDSDATA
 70
     2
 71
     8
  0
ACDSSCHEMA
 90
        0
  1
AcDb_Thumbnail_Schema
  2
AcDbDs::ID
280
    10
 91
        8
  2
Thumbnail_Data
280
    15
 91
        0
101
ACDSRECORD
 95
        0
 90
        1
  2
AcDbDs::TreatedAsObjectData
280
     1
291
     1
101
ACDSRECORD
 95
        0
 90
        2
  2
AcDbDs::Legacy
280
     1
291
     1
101
ACDSRECORD
  1
AcDbDs::ID
 90
        3
  2
AcDs:Indexable
280
     1
291
     1
101
ACDSRECORD
  1
AcDbDs::ID
 90
        4
  2
AcDbDs::HandleAttribute
280
     7
282
     1
  0
ACDSSCHEMA
 90
        1
  1
AcDbDs::TreatedAsObjectDataSchema
  2
AcDbDs::TreatedAsObjectData
280
     1
 91
        0
  0
ACDSSCHEMA
 90
        2
  1
AcDbDs::LegacySchema
  2
AcDbDs::Legacy
280
     1
 91
        0
  0
ACDSSCHEMA
 90
        3
  1
AcDbDs::IndexedPropertySchema
  2
AcDs:Indexable
280
     1
 91
        0
  0
ACDSSCHEMA
 90
        4
  1
AcDbDs::HandleAttributeSchema
  2
AcDbDs::HandleAttribute
280
     7
 91
        1
284
     1
  0
ACDSSCHEMA
 90
        5
  1
AcDb3DSolid_ASM_Data
  2
AcDbDs::ID
280
    10
 91
        8
  2
ASM_Data
280
    15
 91
        0
101
ACDSRECORD
 95
        5
 90
        1
  2
AcDbDs::TreatedAsObjectData
280
     1
291
     1
101
ACDSRECORD
 95
        5
 90
        2
  2
AcDbDs::Legacy
280
     1
291
     1
101
ACDSRECORD
  1
AcDbDs::ID
 90
        3
  2
AcDs:Indexable
280
     1
291
     1
101
ACDSRECORD
  1
AcDbDs::ID
 90
        4
  2
AcDbDs::HandleAttribute
280
     7
282
     1
  0
ACDSRECORD
 90
        0
  2
AcDbDs::ID
280
    10
320
22
  2
Thumbnail_Data
280
    15
 94
     1666
310
89504E470D0A1A0A0000000D49484452000001000000006E0803000000FF253DCA00000300504C5445212830FFFFFF2128300000000000000000000000000000000000000000000000000000330000660000990000CC0000FF0033000033330033660033990033CC0033FF0066000066330066660066990066CC0066FF0099
310
000099330099660099990099CC0099FF00CC0000CC3300CC6600CC9900CCCC00CCFF00FF0000FF3300FF6600FF9900FFCC00FFFF3300003300333300663300993300CC3300FF3333003333333333663333993333CC3333FF3366003366333366663366993366CC3366FF3399003399333399663399993399CC3399FF33CC00
310
33CC3333CC6633CC9933CCCC33CCFF33FF0033FF3333FF6633FF9933FFCC33FFFF6600006600336600666600996600CC6600FF6633006633336633666633996633CC6633FF6666006666336666666666996666CC6666FF6699006699336699666699996699CC6699FF66CC0066CC3366CC6666CC9966CCCC66CCFF66FF0066
310
FF3366FF6666FF9966FFCC66FFFF9900009900339900669900999900CC9900FF9933009933339933669933999933CC9933FF9966009966339966669966999966CC9966FF9999009999339999669999999999CC9999FF99CC0099CC3399CC6699CC9999CCCC99CCFF99FF0099FF3399FF6699FF9999FFCC99FFFFCC0000CC00
310
33CC0066CC0099CC00CCCC00FFCC3300CC3333CC3366CC3399CC33CCCC33FFCC6600CC6633CC6666CC6699CC66CCCC66FFCC9900CC9933CC9966CC9999CC99CCCC99FFCCCC00CCCC33CCCC66CCCC99CCCCCCCCCCFFCCFF00CCFF33CCFF66CCFF99CCFFCCCCFFFFFF0000FF0033FF0066FF0099FF00CCFF00FFFF3300FF3333
310
FF3366FF3399FF33CCFF33FFFF6600FF6633FF6666FF6699FF66CCFF66FFFF9900FF9933FF9966FF9999FF99CCFF99FFFFCC00FFCC33FFCC66FFCC99FFCCCCFFCCFFFFFF00FFFF33FFFF66FFFF99FFFFCCFFFFFF0000000D0D0D1A1A1A2828283535354343435050505D5D5D6B6B6B787878868686939393A1A1A1AEAEAEBB
310
BBBBC9C9C9D6D6D6E4E4E4F1F1F1FFFFFF0000000000000000000000000000000000000000000000000000000000002E4550F1000000E94944415478DAEDD8C10E83200C0050FEFF7F7B5F3691805336134FE5BDC4608897D60AD85200000000000000007848C46A01D7B03FB6BB6E7E7828E90BBF2767FCFB6D19EA608F76
310
9B1BCA2355FCDDD852302B81C8B500F485FD1EB7AB5B18EA43FB4290AB060E5F75AD86AF9DA0BEF5C8B74B9CC57FB6E84737644A408CD12C988031984902628D041409B8380D4B804F206D02FEDC05B226A00C07DBF5B6C19B07A1A427C12EA056E993A370B2FFC138FC035F7708BAF96409B8EA8C94D6016859AA6D82351B
310
422561FDDFCB40CA86D8F99EBF5653F477460000000000000000000000000078DC0B0419CA7B783D40840000000049454E44AE4260826A40D023C0F416AF94001002401C44C05618041D808767A50CD6B501D448A0030034E98DDC22512A00E8FC47697525DABBD400482320F69E3F07A723350835621CC4E05359642C02DD
310
1968CA04B9F8311E08B1B7C1254390B607407914AA5D6E1F0E67C188F5347C530104EE84D9356CFF4B38AF4BCC23D27A11682462D0CFC98A1820B725D05E10F0E3ED983A236A3B80DE26E52A13869A69BF5FC7000C00F26FD98A080350CF00E5776C8D1D61883A0F141252DEAF3D50870192EC534786121BA3D9DBA7FF3208
310
D2A3AF222896DF717B5F64D132074C71401BF959138B3C18D828311EF77370238B21E81A044F2A0C8FD64B204E27C16B904E74E3DD3764EB6094FB9288C372D0DD6588693ADA3ECCBC0983FB03036700BC02003C1520DE06C0B322D22AFDB503E2C56FFD53FF2370F3615FEE9974229C1EF0FBDFFAC731F0DA876FFD81CD66
310
B3FD9A7D008464C9A7364B76220000000049454E44AE426082BBF6C2581840B855A0358D18E98F251203406F1A612A80B202BAD38891FF580B500000D49D4988F37FAC813E72214627000A3582A5C338FE00598ED82311F33F3A0000000049454E44AE4260820F467818FD4AC64A010000000049454E44AE42608200187F52
310
539FF6AC0FF2D01229B97F7B56AE64E8787DBF9E93B283504D4929EEDB336DE133B927D0B706F146D8FDD54728002424931276690CDE5FFA471401522320E6FA719CDCC9E90D234F422DA512220CD4066298BF969A4028B717C4D481E25C1BC6C59A99842240E2F24B1F92F8AC20F021F00EFE737AFD0FDF7E00E9E9886BC5
310
1247A50000000049454E44AE426082
  0
ENDSEC
  0
EOF
