  0
SECTION
  2
HEADER
  9
$ACADVER
  1
AC1032
  9
$ACADMAINTVER
 90
      197
  9
$DWGCODEPAGE
  3
ANSI_1252
  9
$LASTSAVEDBY
  1
gregb
  9
$REQUIREDVERSIONS
160
                 0
  9
$INSBASE
 10
0.0
 20
0.0
 30
0.0
  9
$EXTMIN
 10
115003.4415844728
 20
107735.5760171236
 30
0.0
  9
$EXTMAX
 10
115044.90266647
 20
107753.9825766279
 30
0.0
  9
$LIMMIN
 10
0.0
 20
0.0
  9
$LIMMAX
 10
12.0
 20
9.0
  9
$ORTHOMODE
 70
     1
  9
$REGENMODE
 70
     1
  9
$FILLMODE
 70
     1
  9
$QTEXTMODE
 70
     0
  9
$MIRRTEXT
 70
     0
  9
$LTSCALE
 40
1.0
  9
$ATTMODE
 70
     1
  9
$TEXTSIZE
 40
0.2
  9
$TRACEWID
 40
0.05
  9
$TEXTSTYLE
  7
Standard
  9
$CLAYER
  8
freecads.com
  9
$CELTYPE
  6
ByLayer
  9
$CECOLOR
 62
   256
  9
$CELTSCALE
 40
1.0
  9
$DISPSILH
 70
     1
  9
$DIMSCALE
 40
1.0
  9
$DIMASZ
 40
0.18
  9
$DIMEXO
 40
0.0625
  9
$DIMDLI
 40
0.38
  9
$DIMRND
 40
0.0
  9
$DIMDLE
 40
0.0
  9
$DIMEXE
 40
0.18
  9
$DIMTP
 40
0.0
  9
$DIMTM
 40
0.0
  9
$DIMTXT
 40
0.18
  9
$DIMCEN
 40
0.09
  9
$DIMTSZ
 40
0.0
  9
$DIMTOL
 70
     0
  9
$DIMLIM
 70
     0
  9
$DIMTIH
 70
     1
  9
$DIMTOH
 70
     1
  9
$DIMSE1
 70
     0
  9
$DIMSE2
 70
     0
  9
$DIMTAD
 70
     0
  9
$DIMZIN
 70
     0
  9
$DIMBLK
  1

  9
$DIMASO
 70
     1
  9
$DIMSHO
 70
     1
  9
$DIMPOST
  1

  9
$DIMAPOST
  1

  9
$DIMALT
 70
     0
  9
$DIMALTD
 70
     2
  9
$DIMALTF
 40
25.4
  9
$DIMLFAC
 40
1.0
  9
$DIMTOFL
 70
     0
  9
$DIMTVP
 40
0.0
  9
$DIMTIX
 70
     0
  9
$DIMSOXD
 70
     0
  9
$DIMSAH
 70
     0
  9
$DIMBLK1
  1

  9
$DIMBLK2
  1

  9
$DIMSTYLE
  2
Standard
  9
$DIMCLRD
 70
     0
  9
$DIMCLRE
 70
     0
  9
$DIMCLRT
 70
     0
  9
$DIMTFAC
 40
1.0
  9
$DIMGAP
 40
0.09
  9
$DIMJUST
 70
     0
  9
$DIMSD1
 70
     0
  9
$DIMSD2
 70
     0
  9
$DIMTOLJ
 70
     1
  9
$DIMTZIN
 70
     0
  9
$DIMALTZ
 70
     0
  9
$DIMALTTZ
 70
     0
  9
$DIMUPT
 70
     0
  9
$DIMDEC
 70
     4
  9
$DIMTDEC
 70
     4
  9
$DIMALTU
 70
     2
  9
$DIMALTTD
 70
     2
  9
$DIMTXSTY
  7
Standard
  9
$DIMAUNIT
 70
     0
  9
$DIMADEC
 70
     0
  9
$DIMALTRND
 40
0.0
  9
$DIMAZIN
 70
     0
  9
$DIMDSEP
 70
    46
  9
$DIMATFIT
 70
     3
  9
$DIMFRAC
 70
     0
  9
$DIMLDRBLK
  1

  9
$DIMLUNIT
 70
     2
  9
$DIMLWD
 70
    -2
  9
$DIMLWE
 70
    -2
  9
$DIMTMOVE
 70
     0
  9
$DIMFXL
 40
1.0
  9
$DIMFXLON
 70
     0
  9
$DIMJOGANG
 40
0.7853981633974483
  9
$DIMTFILL
 70
     0
  9
$DIMTFILLCLR
 70
     0
  9
$DIMARCSYM
 70
     0
  9
$DIMLTYPE
  6

  9
$DIMLTEX1
  6

  9
$DIMLTEX2
  6

  9
$DIMTXTDIRECTION
 70
     0
  9
$LUNITS
 70
     2
  9
$LUPREC
 70
     4
  9
$SKETCHINC
 40
0.1
  9
$FILLETRAD
 40
0.0
  9
$AUNITS
 70
     0
  9
$AUPREC
 70
     0
  9
$MENU
  1
.
  9
$ELEVATION
 40
0.0
  9
$PELEVATION
 40
0.0
  9
$THICKNESS
 40
0.0
  9
$LIMCHECK
 70
     0
  9
$CHAMFERA
 40
0.0
  9
$CHAMFERB
 40
0.0
  9
$CHAMFERC
 40
0.0
  9
$CHAMFERD
 40
0.0
  9
$SKPOLY
 70
     0
  9
$TDCREATE
 40
2458157.454583334
  9
$TDUCREATE
 40
2458157.287916667
  9
$TDUPDATE
 40
2460671.814351852
  9
$TDUUPDATE
 40
2460671.647685185
  9
$TDINDWG
 40
0.2082523148
  9
$TDUSRTIMER
 40
0.2082523148
  9
$USRTIMER
 70
     1
  9
$ANGBASE
 50
0.0
  9
$ANGDIR
 70
     0
  9
$PDMODE
 70
     0
  9
$PDSIZE
 40
0.0
  9
$PLINEWID
 40
0.0
  9
$SPLFRAME
 70
     0
  9
$SPLINETYPE
 70
     6
  9
$SPLINESEGS
 70
     8
  9
$HANDSEED
  5
5F988
  9
$SURFTAB1
 70
     6
  9
$SURFTAB2
 70
     6
  9
$SURFTYPE
 70
     6
  9
$SURFU
 70
     6
  9
$SURFV
 70
     6
  9
$UCSBASE
  2

  9
$UCSNAME
  2

  9
$UCSORG
 10
0.0
 20
0.0
 30
0.0
  9
$UCSXDIR
 10
1.0
 20
0.0
 30
0.0
  9
$UCSYDIR
 10
0.0
 20
1.0
 30
0.0
  9
$UCSORTHOREF
  2

  9
$UCSORTHOVIEW
 70
     0
  9
$UCSORGTOP
 10
0.0
 20
0.0
 30
0.0
  9
$UCSORGBOTTOM
 10
0.0
 20
0.0
 30
0.0
  9
$UCSORGLEFT
 10
0.0
 20
0.0
 30
0.0
  9
$UCSORGRIGHT
 10
0.0
 20
0.0
 30
0.0
  9
$UCSORGFRONT
 10
0.0
 20
0.0
 30
0.0
  9
$UCSORGBACK
 10
0.0
 20
0.0
 30
0.0
  9
$PUCSBASE
  2

  9
$PUCSNAME
  2

  9
$PUCSORG
 10
0.0
 20
0.0
 30
0.0
  9
$PUCSXDIR
 10
1.0
 20
0.0
 30
0.0
  9
$PUCSYDIR
 10
0.0
 20
1.0
 30
0.0
  9
$PUCSORTHOREF
  2

  9
$PUCSORTHOVIEW
 70
     0
  9
$PUCSORGTOP
 10
0.0
 20
0.0
 30
0.0
  9
$PUCSORGBOTTOM
 10
0.0
 20
0.0
 30
0.0
  9
$PUCSORGLEFT
 10
0.0
 20
0.0
 30
0.0
  9
$PUCSORGRIGHT
 10
0.0
 20
0.0
 30
0.0
  9
$PUCSORGFRONT
 10
0.0
 20
0.0
 30
0.0
  9
$PUCSORGBACK
 10
0.0
 20
0.0
 30
0.0
  9
$USERI1
 70
     0
  9
$USERI2
 70
     0
  9
$USERI3
 70
     0
  9
$USERI4
 70
     0
  9
$USERI5
 70
     0
  9
$USERR1
 40
0.0
  9
$USERR2
 40
0.0
  9
$USERR3
 40
0.0
  9
$USERR4
 40
0.0
  9
$USERR5
 40
0.0
  9
$WORLDVIEW
 70
     1
  9
$SHADEDGE
 70
     3
  9
$SHADEDIF
 70
    70
  9
$TILEMODE
 70
     1
  9
$MAXACTVP
 70
    64
  9
$PINSBASE
 10
0.0
 20
0.0
 30
0.0
  9
$PLIMCHECK
 70
     0
  9
$PEXTMIN
 10
0.0
 20
0.0
 30
0.0
  9
$PEXTMAX
 10
0.0
 20
0.0
 30
0.0
  9
$PLIMMIN
 10
0.0
 20
0.0
  9
$PLIMMAX
 10
12.0
 20
9.0
  9
$UNITMODE
 70
     0
  9
$VISRETAIN
 70
     1
  9
$PLINEGEN
 70
     0
  9
$PSLTSCALE
 70
     1
  9
$TREEDEPTH
 70
  3020
  9
$CMLSTYLE
  2
Standard
  9
$CMLJUST
 70
     0
  9
$CMLSCALE
 40
1.0
  9
$PROXYGRAPHICS
 70
     1
  9
$MEASUREMENT
 70
     0
  9
$CELWEIGHT
370
    -1
  9
$ENDCAPS
280
     0
  9
$JOINSTYLE
280
     0
  9
$LWDISPLAY
290
     0
  9
$INSUNITS
 70
     1
  9
$HYPERLINKBASE
  1

  9
$STYLESHEET
  1
monochrome.ctb
  9
$XEDIT
290
     1
  9
$CEPSNTYPE
380
     0
  9
$PSTYLEMODE
290
     1
  9
$FINGERPRINTGUID
  2
{358EB121-6EE0-9143-8A3E-6E8E8869FDA6}
  9
$VERSIONGUID
  2
{9E9EE0AD-3DC8-8E4A-BD38-176D666DD444}
  9
$EXTNAMES
290
     1
  9
$PSVPSCALE
 40
0.0
  9
$OLESTARTUP
290
     0
  9
$SORTENTS
280
   127
  9
$INDEXCTL
280
     0
  9
$HIDETEXT
280
     1
  9
$XCLIPFRAME
280
     2
  9
$HALOGAP
280
     0
  9
$OBSCOLOR
 70
   257
  9
$OBSLTYPE
280
     0
  9
$INTERSECTIONDISPLAY
280
     0
  9
$INTERSECTIONCOLOR
 70
   257
  9
$DIMASSOC
280
     2
  9
$PROJECTNAME
  1

  9
$CAMERADISPLAY
290
     0
  9
$LENSLENGTH
 40
50.0
  9
$CAMERAHEIGHT
 40
0.0
  9
$STEPSPERSEC
 40
2.0
  9
$STEPSIZE
 40
6.0
  9
$3DDWFPREC
 40
2.0
  9
$PSOLWIDTH
 40
0.25
  9
$PSOLHEIGHT
 40
4.0
  9
$LOFTANG1
 40
1.570796326794896
  9
$LOFTANG2
 40
1.570796326794896
  9
$LOFTMAG1
 40
0.0
  9
$LOFTMAG2
 40
0.0
  9
$LOFTPARAM
 70
     7
  9
$LOFTNORMALS
280
     1
  9
$LATITUDE
 40
37.795
  9
$LONGITUDE
 40
-122.394
  9
$NORTHDIRECTION
 40
0.0
  9
$TIMEZONE
 70
 -8000
  9
$LIGHTGLYPHDISPLAY
280
     1
  9
$TILEMODELIGHTSYNCH
280
     1
  9
$CMATERIAL
347
96
  9
$SOLIDHIST
280
     0
  9
$SHOWHIST
280
     1
  9
$DWFFRAME
280
     2
  9
$DGNFRAME
280
     0
  9
$REALWORLDSCALE
290
     1
  9
$INTERFERECOLOR
 62
     1
  9
$INTERFEREOBJVS
345
A3
  9
$INTERFEREVPVS
346
A0
  9
$CSHADOW
280
     0
  9
$SHADOWPLANELOCATION
 40
0.0
  0
ENDSEC
  0
SECTION
  2
CLASSES
  0
CLASS
  1
ACDBDICTIONARYWDFLT
  2
AcDbDictionaryWithDefault
  3
ObjectDBX Classes
 90
        0
 91
        1
280
     0
281
     0
  0
CLASS
  1
DICTIONARYVAR
  2
AcDbDictionaryVar
  3
ObjectDBX Classes
 90
        0
 91
       27
280
     0
281
     0
  0
CLASS
  1
TABLESTYLE
  2
AcDbTableStyle
  3
ObjectDBX Classes
 90
     4095
 91
        1
280
     0
281
     0
  0
CLASS
  1
MATERIAL
  2
AcDbMaterial
  3
ObjectDBX Classes
 90
     1153
 91
        3
280
     0
281
     0
  0
CLASS
  1
VISUALSTYLE
  2
AcDbVisualStyle
  3
ObjectDBX Classes
 90
     4095
 91
       25
280
     0
281
     0
  0
CLASS
  1
SCALE
  2
AcDbScale
  3
ObjectDBX Classes
 90
     1153
 91
       34
280
     0
281
     0
  0
CLASS
  1
MLEADERSTYLE
  2
AcDbMLeaderStyle
  3
ACDB_MLEADERSTYLE_CLASS
 90
     4095
 91
        1
280
     0
281
     0
  0
CLASS
  1
CELLSTYLEMAP
  2
AcDbCellStyleMap
  3
ObjectDBX Classes
 90
     1152
 91
        1
280
     0
281
     0
  0
CLASS
  1
EXACXREFPANELOBJECT
  2
ExAcXREFPanelObject
  3
EXAC_ESW
 90
     1025
 91
        1
280
     0
281
     0
  0
CLASS
  1
NPOCOLLECTION
  2
AcDbImpNonPersistentObjectsCollection
  3
ObjectDBX Classes
 90
     1153
 91
        1
280
     0
281
     0
  0
CLASS
  1
LAYER_INDEX
  2
AcDbLayerIndex
  3
ObjectDBX Classes
 90
        0
 91
        0
280
     0
281
     0
  0
CLASS
  1
SPATIAL_INDEX
  2
AcDbSpatialIndex
  3
ObjectDBX Classes
 90
        0
 91
        0
280
     0
281
     0
  0
CLASS
  1
IDBUFFER
  2
AcDbIdBuffer
  3
ObjectDBX Classes
 90
        0
 91
        0
280
     0
281
     0
  0
CLASS
  1
ACDBSECTIONVIEWSTYLE
  2
AcDbSectionViewStyle
  3
ObjectDBX Classes
 90
     1025
 91
        2
280
     0
281
     0
  0
CLASS
  1
ACDBDETAILVIEWSTYLE
  2
AcDbDetailViewStyle
  3
ObjectDBX Classes
 90
     1025
 91
        2
280
     0
281
     0
  0
CLASS
  1
SORTENTSTABLE
  2
AcDbSortentsTable
  3
ObjectDBX Classes
 90
        0
 91
        1
280
     0
281
     0
  0
CLASS
  1
ACAD_EVALUATION_GRAPH
  2
AcDbEvalGraph
  3
ObjectDBX Classes
 90
     1153
 91
        0
280
     0
281
     0
  0
CLASS
  1
BLOCKLINEARPARAMETER
  2
AcDbBlockLinearParameter
  3
ObjectDBX Classes
 90
     1153
 91
        0
280
     0
281
     0
  0
CLASS
  1
BLOCKLINEARGRIP
  2
AcDbBlockLinearGrip
  3
ObjectDBX Classes
 90
     1153
 91
        0
280
     0
281
     0
  0
CLASS
  1
BLOCKGRIPLOCATIONCOMPONENT
  2
AcDbBlockGripExpr
  3
ObjectDBX Classes
 90
     1153
 91
        0
280
     0
281
     0
  0
CLASS
  1
BLOCKSTRETCHACTION
  2
AcDbBlockStretchAction
  3
ObjectDBX Classes
 90
     1153
 91
        0
280
     0
281
     0
  0
CLASS
  1
ACDB_DYNAMICBLOCKPURGEPREVENTER_VERSION
  2
AcDbDynamicBlockPurgePreventer
  3
ObjectDBX Classes
 90
     1153
 91
        0
280
     0
281
     0
  0
CLASS
  1
BLOCKVISIBILITYPARAMETER
  2
AcDbBlockVisibilityParameter
  3
ObjectDBX Classes
 90
     1153
 91
        0
280
     0
281
     0
  0
CLASS
  1
BLOCKVISIBILITYGRIP
  2
AcDbBlockVisibilityGrip
  3
ObjectDBX Classes
 90
     1153
 91
        0
280
     0
281
     0
  0
CLASS
  1
ACDB_BLOCKREPRESENTATION_DATA
  2
AcDbBlockRepresentationData
  3
ObjectDBX Classes
 90
     1153
 91
        0
280
     0
281
     0
  0
CLASS
  1
SURFACE
  2
AcDbSurface
  3
ObjectDBX Classes
 90
     4095
 91
        0
280
     0
281
     1
  0
CLASS
  1
ACDBASSOCPERSSUBENTMANAGER
  2
AcDbAssocPersSubentManager
  3
ObjectDBX Classes
 90
     1024
 91
        1
280
     0
281
     0
  0
CLASS
  1
BLOCKARRAYACTION
  2
AcDbBlockArrayAction
  3
ObjectDBX Classes
 90
     1153
 91
        0
280
     0
281
     0
  0
CLASS
  1
BLOCKLOOKUPPARAMETER
  2
AcDbBlockLookupParameter
  3
ObjectDBX Classes
 90
     1153
 91
        0
280
     0
281
     0
  0
CLASS
  1
BLOCKLOOKUPGRIP
  2
AcDbBlockLookupGrip
  3
ObjectDBX Classes
 90
     1153
 91
        0
280
     0
281
     0
  0
CLASS
  1
BLOCKLOOKUPACTION
  2
AcDbBlockLookupAction
  3
ObjectDBX Classes
 90
     1153
 91
        0
280
     0
281
     0
  0
CLASS
  1
WIPEOUT
  2
AcDbWipeout
  3
WipeOut|Product Desc: Object Enabler for WipeOut entity | Company: Autodesk, Inc. | WEB Address: www.autodesk.com
 90
     2175
 91
        0
280
     0
281
     1
  0
CLASS
  1
WIPEOUTVARIABLES
  2
AcDbWipeoutVariables
  3
"WipeOut|Product Desc:     WipeOut Dbx Application|Company:          Autodesk, Inc.|WEB Address:      www.autodesk.com"
 90
        0
 91
        0
280
     0
281
     0
  0
ENDSEC
  0
SECTION
  2
TABLES
  0
TABLE
  2
VPORT
  5
8
330
0
100
AcDbSymbolTable
 70
     1
  0
VPORT
  5
94
330
8
100
AcDbSymbolTableRecord
100
AcDbViewportTableRecord
  2
*Active
 70
     0
 10
0.0
 20
0.0
 11
1.0
 21
1.0
 12
115029.2348537863
 22
107748.7877457896
 13
0.0
 23
0.0
 14
0.5
 24
0.5
 15
0.5
 25
0.5
 16
0.0
 26
0.0
 36
1.0
 17
0.0
 27
0.0
 37
0.0
 40
58.16045568844129
 41
2.293369663941871
 42
50.0
 43
0.0
 44
0.0
 50
0.0
 51
0.0
 71
     0
 72
  1000
 73
     1
 74
     3
 75
     0
 76
     0
 77
     0
 78
     0
281
     0
 65
     1
110
0.0
120
0.0
130
0.0
111
1.0
121
0.0
131
0.0
112
0.0
122
1.0
132
0.0
 79
     0
146
0.0
348
9F
 60
     3
 61
     5
292
     1
282
     1
141
0.0
142
0.0
 63
   250
421
  3355443
1001
ACAD_NAV_VCDISPLAY
1070
     3
  0
ENDTAB
  0
TABLE
  2
LTYPE
  5
5
330
0
100
AcDbSymbolTable
 70
     1
  0
LTYPE
  5
14
330
5
100
AcDbSymbolTableRecord
100
AcDbLinetypeTableRecord
  2
ByBlock
 70
     0
  3

 72
    65
 73
     0
 40
0.0
  0
LTYPE
  5
15
330
5
100
AcDbSymbolTableRecord
100
AcDbLinetypeTableRecord
  2
ByLayer
 70
     0
  3

 72
    65
 73
     0
 40
0.0
  0
LTYPE
  5
16
330
5
100
AcDbSymbolTableRecord
100
AcDbLinetypeTableRecord
  2
Continuous
 70
     0
  3
Solid line
 72
    65
 73
     0
 40
0.0
  0
ENDTAB
  0
TABLE
  2
LAYER
  5
2
102
{ACAD_XDICTIONARY
360
18E
102
}
330
0
100
AcDbSymbolTable
 70
     2
  0
LAYER
  5
10
102
{ACAD_XDICTIONARY
360
E6
102
}
330
2
100
AcDbSymbolTableRecord
100
AcDbLayerTableRecord
  2
0
 70
     0
 62
     7
  6
Continuous
370
    -3
390
F
347
98
348
0
  0
LAYER
  5
204
330
2
100
AcDbSymbolTableRecord
100
AcDbLayerTableRecord
  2
freecads.com
 70
     0
 62
     7
  6
Continuous
370
    -3
390
F
347
98
348
0
1001
AcAecLayerStandard
1000

1000

1001
AcCmTransparency
1071
        0
  0
ENDTAB
  0
TABLE
  2
STYLE
  5
3
330
0
100
AcDbSymbolTable
 70
     2
  0
STYLE
  5
11
330
3
100
AcDbSymbolTableRecord
100
AcDbTextStyleTableRecord
  2
Standard
 70
     0
 40
0.0
 41
1.0
 50
0.0
 71
     0
 42
0.2
  3
arial.ttf
  4

1001
ACAD
1000
Arial
1071
       34
  0
ENDTAB
  0
TABLE
  2
VIEW
  5
6
330
0
100
AcDbSymbolTable
 70
     0
  0
ENDTAB
  0
TABLE
  2
UCS
  5
7
330
0
100
AcDbSymbolTable
 70
     0
  0
ENDTAB
  0
TABLE
  2
APPID
  5
9
330
0
100
AcDbSymbolTable
 70
    35
  0
APPID
  5
12
330
9
100
AcDbSymbolTableRecord
100
AcDbRegAppTableRecord
  2
ACAD
 70
     0
  0
APPID
  5
DD
330
9
100
AcDbSymbolTableRecord
100
AcDbRegAppTableRecord
  2
AcadAnnoPO
 70
     0
  0
APPID
  5
DE
330
9
100
AcDbSymbolTableRecord
100
AcDbRegAppTableRecord
  2
AcadAnnotative
 70
     0
  0
APPID
  5
DF
330
9
100
AcDbSymbolTableRecord
100
AcDbRegAppTableRecord
  2
ACAD_DSTYLE_DIMJAG
 70
     0
  0
APPID
  5
E0
330
9
100
AcDbSymbolTableRecord
100
AcDbRegAppTableRecord
  2
ACAD_DSTYLE_DIMTALN
 70
     0
  0
APPID
  5
107
330
9
100
AcDbSymbolTableRecord
100
AcDbRegAppTableRecord
  2
ACAD_MLEADERVER
 70
     0
  0
APPID
  5
1A6
330
9
100
AcDbSymbolTableRecord
100
AcDbRegAppTableRecord
  2
ACAD_NAV_VCDISPLAY
 70
     0
  0
APPID
  5
205
330
9
100
AcDbSymbolTableRecord
100
AcDbRegAppTableRecord
  2
AcAecLayerStandard
 70
     0
  0
APPID
  5
206
330
9
100
AcDbSymbolTableRecord
100
AcDbRegAppTableRecord
  2
AcCmTransparency
 70
     0
  0
APPID
  5
222
330
9
100
AcDbSymbolTableRecord
100
AcDbRegAppTableRecord
  2
ACAD_PSEXT
 70
     0
  0
APPID
  5
2DA
330
9
100
AcDbSymbolTableRecord
100
AcDbRegAppTableRecord
  2
GradientColor1ACI
 70
     0
  0
APPID
  5
2DB
330
9
100
AcDbSymbolTableRecord
100
AcDbRegAppTableRecord
  2
GradientColor2ACI
 70
     0
  0
APPID
  5
2F3
330
9
100
AcDbSymbolTableRecord
100
AcDbRegAppTableRecord
  2
ACAD_EXEMPT_FROM_CAD_STANDARDS
 70
     0
  0
APPID
  5
A1A
330
9
100
AcDbSymbolTableRecord
100
AcDbRegAppTableRecord
  2
AcDbBlockRepETag
 70
     0
  0
APPID
  5
2282
330
9
100
AcDbSymbolTableRecord
100
AcDbRegAppTableRecord
  2
RAK
 70
     0
  0
APPID
  5
39F4
330
9
100
AcDbSymbolTableRecord
100
AcDbRegAppTableRecord
  2
ACAD_DSTYLE_DIMJOGGED_JOGANGLE_SYMBOL
 70
     0
  0
APPID
  5
39F5
330
9
100
AcDbSymbolTableRecord
100
AcDbRegAppTableRecord
  2
AcDbDynamicBlockGUID
 70
     0
  0
APPID
  5
39F6
330
9
100
AcDbSymbolTableRecord
100
AcDbRegAppTableRecord
  2
ACAD_DSTYLE_DIMBREAK
 70
     0
  0
APPID
  5
3B59
330
9
100
AcDbSymbolTableRecord
100
AcDbRegAppTableRecord
  2
AEC_XDATA_BOUND_SPACE
 70
     0
  0
APPID
  5
75C5
330
9
100
AcDbSymbolTableRecord
100
AcDbRegAppTableRecord
  2
AcDbDynamicBlockTrueName
 70
     0
  0
APPID
  5
75C6
330
9
100
AcDbSymbolTableRecord
100
AcDbRegAppTableRecord
  2
AcDbBlockRepBTag
 70
     0
  0
APPID
  5
75C7
330
9
100
AcDbSymbolTableRecord
100
AcDbRegAppTableRecord
  2
ACAUTHENVIRON
 70
     0
  0
APPID
  5
AA90
330
9
100
AcDbSymbolTableRecord
100
AcDbRegAppTableRecord
  2
Acad_TC
 70
     0
  0
APPID
  5
AA9C
330
9
100
AcDbSymbolTableRecord
100
AcDbRegAppTableRecord
  2
AcDbBlockArrayActionTag
 70
     0
  0
APPID
  5
BEE4
330
9
100
AcDbSymbolTableRecord
100
AcDbRegAppTableRecord
  2
ACAD_DSTYLE_DIMTEXT_FILL
 70
     0
  0
APPID
  5
219E5
330
9
100
AcDbSymbolTableRecord
100
AcDbRegAppTableRecord
  2
AECLAY
 70
     0
  0
APPID
  5
26B46
330
9
100
AcDbSymbolTableRecord
100
AcDbRegAppTableRecord
  2
REVIT
 70
     0
  0
APPID
  5
280A5
330
9
100
AcDbSymbolTableRecord
100
AcDbRegAppTableRecord
  2
HATCHBACKGROUNDCOLOR
 70
     0
  0
APPID
  5
29EE0
330
9
100
AcDbSymbolTableRecord
100
AcDbRegAppTableRecord
  2
ACAD_STEPID
 70
     0
  0
APPID
  5
29EE1
330
9
100
AcDbSymbolTableRecord
100
AcDbRegAppTableRecord
  2
AcLayerTools
 70
     0
  0
APPID
  5
4D86C
330
9
100
AcDbSymbolTableRecord
100
AcDbRegAppTableRecord
  2
PE_URL
 70
     0
  0
APPID
  5
5D3B3
330
9
100
AcDbSymbolTableRecord
100
AcDbRegAppTableRecord
  2
GENIUS_GENODEF_13
 70
     0
  0
APPID
  5
5D3B4
330
9
100
AcDbSymbolTableRecord
100
AcDbRegAppTableRecord
  2
GENIUS_GENFIL_13
 70
     0
  0
APPID
  5
5D3B5
330
9
100
AcDbSymbolTableRecord
100
AcDbRegAppTableRecord
  2
GENIUS_GENOBJ-N-CHA_13
 70
     0
  0
APPID
  5
5D3B6
330
9
100
AcDbSymbolTableRecord
100
AcDbRegAppTableRecord
  2
ACADSTRINGINFO
 70
     0
  0
ENDTAB
  0
TABLE
  2
DIMSTYLE
  5
A
330
0
100
AcDbSymbolTable
 70
     2
100
AcDbDimStyleTable
 71
     1
340
27
  0
DIMSTYLE
105
27
330
A
100
AcDbSymbolTableRecord
100
AcDbDimStyleTableRecord
  2
Standard
 70
     0
340
11
  0
ENDTAB
  0
TABLE
  2
BLOCK_RECORD
  5
1
330
0
100
AcDbSymbolTable
 70
     2
  0
BLOCK_RECORD
  5
1F
102
{ACAD_XDICTIONARY
360
15D
102
}
330
1
100
AcDbSymbolTableRecord
100
AcDbBlockTableRecord
  2
*Model_Space
340
22
 70
     0
280
     1
281
     0
  0
BLOCK_RECORD
  5
58
330
1
100
AcDbSymbolTableRecord
100
AcDbBlockTableRecord
  2
*Paper_Space
340
59
 70
     0
280
     1
281
     0
  0
BLOCK_RECORD
  5
5D
330
1
100
AcDbSymbolTableRecord
100
AcDbBlockTableRecord
  2
*Paper_Space0
340
5E
 70
     0
280
     1
281
     0
  0
ENDTAB
  0
ENDSEC
  0
SECTION
  2
BLOCKS
  0
BLOCK
  5
20
330
1F
100
AcDbEntity
  8
0
100
AcDbBlockBegin
  2
*Model_Space
 70
     0
 10
0.0
 20
0.0
 30
0.0
  3
*Model_Space
  1

  0
ENDBLK
  5
21
330
1F
100
AcDbEntity
  8
0
100
AcDbBlockEnd
  0
BLOCK
  5
5A
330
58
100
AcDbEntity
 67
     1
  8
0
100
AcDbBlockBegin
  2
*Paper_Space
 70
     0
 10
0.0
 20
0.0
 30
0.0
  3
*Paper_Space
  1

  0
ENDBLK
  5
5B
330
58
100
AcDbEntity
 67
     1
  8
0
100
AcDbBlockEnd
  0
BLOCK
  5
5F
330
5D
100
AcDbEntity
 67
     1
  8
0
100
AcDbBlockBegin
  2
*Paper_Space0
 70
     0
 10
0.0
 20
0.0
 30
0.0
  3
*Paper_Space0
  1

  0
ENDBLK
  5
60
330
5D
100
AcDbEntity
 67
     1
  8
0
100
AcDbBlockEnd
  0
ENDSEC
  0
SECTION
  2
ENTITIES
  0
LINE
  5
5F6E3
330
1F
100
AcDbEntity
  8
freecads.com
100
AcDbLine
 10
115020.2023973415
 20
107735.8278971172
 30
0.0
 11
115023.5817148853
 21
107735.8279034168
 31
0.0
  0
LINE
  5
5F6E4
330
1F
100
AcDbEntity
  8
freecads.com
100
AcDbLine
 10
115023.5817148852
 20
107735.5760561257
 30
0.0
 11
115020.2023971632
 21
107735.5760498261
 31
0.0
  0
LINE
  5
5F6E5
330
1F
100
AcDbEntity
  8
freecads.com
100
AcDbLine
 10
115020.2023973415
 20
107735.8278971172
 30
0.0
 11
115020.2023971632
 21
107735.5760498261
 31
0.0
  0
LWPOLYLINE
  5
5F6E6
330
1F
100
AcDbEntity
  8
freecads.com
100
AcDbPolyline
 90
      122
 70
     0
 43
0.0
 10
115020.2023971632
 20
107735.5760498261
 10
115004.8677010561
 20
107735.5761571307
 10
115004.8071815636
 20
107735.5775119548
 10
115004.7622277836
 20
107735.5798923211
 10
115004.7173522308
 20
107735.5835638316
 10
115004.6725937951
 20
107735.5885220944
 10
115004.6279913665
 20
107735.594762718
 10
115004.583583835
 20
107735.6022813107
 10
115004.5394100906
 20
107735.6110734808
 10
115004.4955090231
 20
107735.6211348367
 10
115004.4519195226
 20
107735.6324609868
 10
115004.408680479
 20
107735.6450475393
 10
115004.3658307823
 20
107735.6588901026
 10
115004.3234093225
 20
107735.6739842851
 10
115004.2814549895
 20
107735.6903256951
 10
115004.2400066732
 20
107735.7079099409
 10
115004.1991032637
 20
107735.7267326309
 10
115004.1587836509
 20
107735.7467893735
 10
115004.1190867248
 20
107735.7680757769
 10
115004.0812034242
 20
107735.7898979857
 10
115004.0439860275
 20
107735.812854939
 10
115004.0074776204
 20
107735.8369278946
 10
115003.9717212886
 20
107735.8620981101
 10
115003.9367601179
 20
107735.8883468432
 10
115003.9026371939
 20
107735.9156553518
 10
115003.8693956025
 20
107735.9440048935
 10
115003.8370784293
 20
107735.973376726
 10
115003.8057287601
 20
107736.0037521072
 10
115003.7753896806
 20
107736.0351122946
 10
115003.7461042765
 20
107736.0674385461
 10
115003.7179156335
 20
107736.1007121193
 10
115003.6908668375
 20
107736.1349142721
 10
115003.665000974
 20
107736.1700262621
 10
115003.6525251063
 20
107736.187917589
 10
115003.6403611289
 20
107736.2060293469
 10
115003.6285144275
 20
107736.2243591931
 10
115003.6169903879
 20
107736.2429047846
 10
115003.6041609816
 20
107736.2644642609
 10
115003.5917705605
 20
107736.2862941862
 10
115003.5798254794
 20
107736.3083835735
 10
115003.5683320931
 20
107736.3307214356
 10
115003.5572967566
 20
107736.3532967854
 10
115003.5467258247
 20
107736.3760986357
 10
115003.5366256523
 20
107736.3991159995
 10
115003.5270025943
 20
107736.4223378896
 10
115003.5178630055
 20
107736.445753319
 10
115003.5092132409
 20
107736.4693513004
 10
115003.5010596553
 20
107736.4931208467
 10
115003.4934086036
 20
107736.517050971
 10
115003.4862664406
 20
107736.5411306859
 10
115003.4796395213
 20
107736.5653490044
 10
115003.4735342005
 20
107736.5896949395
 10
115003.4679568331
 20
107736.6141575038
 10
115003.4630974285
 20
107736.6377760426
 10
115003.45873188
 20
107736.6614831793
 10
115003.4548601721
 20
107736.685269865
 10
115003.4514822897
 20
107736.7091270505
 10
115003.4485982175
 20
107736.7330456867
 10
115003.4462079401
 20
107736.7570167246
 10
115003.4443114422
 20
107736.7810311149
 10
115003.4429087085
 20
107736.8050798086
 10
115003.4419997238
 20
107736.8291537566
 10
115003.4415844728
 20
107736.8532439098
 10
115003.4416629401
 20
107736.8773412191
 10
115003.4422351104
 20
107736.9014366353
 10
115003.4433009685
 20
107736.9255211094
 10
115003.4448604991
 20
107736.9495855923
 10
115003.4469136868
 20
107736.9736210349
 10
115003.4494605164
 20
107736.9976183879
 10
115005.3239489909
 20
107750.5439097439
 10
115005.3308704735
 20
107750.5868074856
 10
115005.3388339089
 20
107750.6295105007
 10
115005.3481004197
 20
107750.6719239516
 10
115005.3533039293
 20
107750.6929924535
 10
115005.3589311287
 20
107750.7139530001
 10
115005.3648535622
 20
107750.7342893861
 10
115005.3711960179
 20
107750.7545071282
 10
115005.3779441175
 20
107750.7746016353
 10
115005.3850834827
 20
107750.7945683157
 10
115005.3925997354
 20
107750.8144025781
 10
115005.4004784971
 20
107750.8340998311
 10
115005.4172660349
 20
107750.873064943
 10
115005.4353070951
 20
107750.9113467606
 10
115005.4545982227
 20
107750.9489918382
 10
115005.4751173687
 20
107750.9859640297
 10
115005.4968424844
 20
107751.0222271895
 10
115005.5197515208
 20
107751.0577451717
 10
115005.5438224291
 20
107751.0924818303
 10
115005.5690331605
 20
107751.1264010196
 10
115005.5953616661
 20
107751.1594665937
 10
115005.6231820514
 20
107751.1920993087
 10
115005.6520820936
 20
107751.2237976587
 10
115005.6820141423
 20
107751.2545426855
 10
115005.7129305471
 20
107751.2843154309
 10
115005.7447836573
 20
107751.3130969366
 10
115005.7775258224
 20
107751.3408682443
 10
115005.811109392
 20
107751.3676103958
 10
115005.8454867156
 20
107751.3933044328
 10
115005.8817306135
 20
107751.4186920106
 10
115005.9187304684
 20
107751.442937523
 10
115005.9564483856
 20
107751.4660342671
 10
115005.9948464702
 20
107751.48797554
 10
115006.0338868272
 20
107751.5087546388
 10
115006.0735315618
 20
107751.5283648604
 10
115006.1137427792
 20
107751.546799502
 10
115006.1544825844
 20
107751.5640518606
 10
115006.1957130826
 20
107751.5801152334
 10
115006.2373963788
 20
107751.5949829173
 10
115006.2794945783
 20
107751.6086482094
 10
115006.3219697861
 20
107751.6211044069
 10
115006.3647841074
 20
107751.6323448068
 10
115006.4078996472
 20
107751.6423627061
 10
115006.4512785108
 20
107751.6511514019
 10
115006.4948828031
 20
107751.6587041913
 10
115006.5259642002
 20
107751.6633148481
 10
115006.5571287849
 20
107751.6673042198
 10
115006.5883651731
 20
107751.670677659
 10
115006.6196619804
 20
107751.6734405183
 10
115006.6510078226
 20
107751.6755981503
 10
115006.6823913157
 20
107751.6771559076
 10
115006.7138010752
 20
107751.6781191427
 10
115010.4381085713
 20
107751.6784137269
  0
LWPOLYLINE
  5
5F6E7
330
1F
100
AcDbEntity
  8
freecads.com
100
AcDbPolyline
 90
      127
 70
     0
 43
0.0
 10
115010.4381085713
 20
107751.4265679804
 10
115006.7558783474
 20
107751.4266510464
 10
115006.6980790682
 20
107751.4256620133
 10
115006.6630239079
 20
107751.4239987583
 10
115006.6280233435
 20
107751.4214265497
 10
115006.5931019894
 20
107751.4179416281
 10
115006.55828446
 20
107751.4135402341
 10
115006.5246888888
 20
107751.4084017329
 10
115006.4912363673
 20
107751.4024023413
 10
115006.457949492
 20
107751.3955441858
 10
115006.4248508594
 20
107751.3878293927
 10
115006.3919630657
 20
107751.3792600887
 10
115006.3593087075
 20
107751.3698384
 10
115006.326910381
 20
107751.3595664532
 10
115006.2947906828
 20
107751.3484463747
 10
115006.2553060483
 20
107751.3334517334
 10
115006.2163390657
 20
107751.317156887
 10
115006.1779423625
 20
107751.2995676756
 10
115006.1401685664
 20
107751.2806899392
 10
115006.1030703048
 20
107751.260529518
 10
115006.0847909456
 20
107751.2499701256
 10
115006.0667002054
 20
107751.2390922521
 10
115006.0488046626
 20
107751.2278966273
 10
115006.0311108958
 20
107751.2163839814
 10
115006.0136254832
 20
107751.2045550443
 10
115005.9963550035
 20
107751.192410546
 10
115005.9667123617
 20
107751.170435268
 10
115005.9377882396
 20
107751.1475150377
 10
115005.9096247459
 20
107751.1236662777
 10
115005.8822639891
 20
107751.0989054104
 10
115005.8557480778
 20
107751.0732488582
 10
115005.8301191206
 20
107751.0467130437
 10
115005.8054192261
 20
107751.0193143894
 10
115005.7934308363
 20
107751.0052966292
 10
115005.7816905029
 20
107750.9910693176
 10
115005.7606828058
 20
107750.964259228
 10
115005.740569425
 20
107750.9367686733
 10
115005.7213810999
 20
107750.9086245584
 10
115005.7031485704
 20
107750.8798537885
 10
115005.6859025759
 20
107750.8504832688
 10
115005.6696738561
 20
107750.8205399043
 10
115005.6619505804
 20
107750.8053618132
 10
115005.6544931508
 20
107750.7900506003
 10
115005.6473054096
 20
107750.7746096288
 10
115005.6403911994
 20
107750.7590422619
 10
115005.6339586919
 20
107750.7438453875
 10
115005.6277940006
 20
107750.7285372503
 10
115005.6219046736
 20
107750.7131220324
 10
115005.616298259
 20
107750.6976039158
 10
115005.610982305
 20
107750.6819870829
 10
115005.6059643596
 20
107750.6662757157
 10
115005.6012519709
 20
107750.6504739965
 10
115005.5968526871
 20
107750.6345861072
 10
115005.5926885207
 20
107750.6182911959
 10
115005.5888306839
 20
107750.6019199317
 10
115005.5819239742
 20
107750.5689843675
 10
115005.5759125086
 20
107750.53585146
 10
115005.5705762374
 20
107750.5025932544
 10
115003.6981341636
 20
107736.9683043342
 10
115003.6959684247
 20
107736.9490276902
 10
115003.6942301678
 20
107736.9297088232
 10
115003.6929178722
 20
107736.9103566815
 10
115003.6920300172
 20
107736.8909802135
 10
115003.6915650819
 20
107736.8715883676
 10
115003.6915215456
 20
107736.8521900922
 10
115003.6918978876
 20
107736.8327943357
 10
115003.6926925871
 20
107736.8134100465
 10
115003.6939041233
 20
107736.7940461729
 10
115003.6955309755
 20
107736.7747116634
 10
115003.6975716229
 20
107736.7554154663
 10
115003.7000245448
 20
107736.73616653
 10
115003.7028882204
 20
107736.7169738029
 10
115003.706161129
 20
107736.6978462335
 10
115003.7098417497
 20
107736.67879277
 10
115003.7139285619
 20
107736.6598223609
 10
115003.7185595294
 20
107736.6403821198
 10
115003.7236140237
 20
107736.6210472489
 10
115003.7290864036
 20
107736.6018255463
 10
115003.7349710284
 20
107736.58272481
 10
115003.7412622569
 20
107736.563752838
 10
115003.7479544483
 20
107736.5449174285
 10
115003.7550419617
 20
107736.5262263794
 10
115003.762519156
 20
107736.5076874887
 10
115003.7703803904
 20
107736.4893085546
 10
115003.7786200239
 20
107736.471097375
 10
115003.7872324156
 20
107736.453061748
 10
115003.7962119244
 20
107736.4352094716
 10
115003.8055529095
 20
107736.4175483439
 10
115003.8152497299
 20
107736.4000861629
 10
115003.8252967447
 20
107736.3828307267
 10
115003.8356883129
 20
107736.3657898332
 10
115003.8452866379
 20
107736.350709886
 10
115003.8551523033
 20
107736.3358102535
 10
115003.8652805903
 20
107736.3210927679
 10
115003.8756667802
 20
107736.3065592616
 10
115003.8971939933
 20
107736.2780515164
 10
115003.9196961927
 20
107736.2503016767
 10
115003.943135628
 20
107736.2233244013
 10
115003.9674745492
 20
107736.1971343492
 10
115003.9926752061
 20
107736.1717461791
 10
115004.0186998486
 20
107736.14717455
 10
115004.0455107265
 20
107736.1234341207
 10
115004.0730700897
 20
107736.10053955
 10
115004.101340188
 20
107736.0785054968
 10
115004.1302832713
 20
107736.0573466199
 10
115004.1598615894
 20
107736.0370775783
 10
115004.1900373922
 20
107736.0177130307
 10
115004.2207729296
 20
107735.999267636
 10
115004.2520304513
 20
107735.9817560531
 10
115004.2852799245
 20
107735.9644338176
 10
115004.3190288206
 20
107735.9481506706
 10
115004.3532456582
 20
107735.9329058173
 10
115004.3878989561
 20
107735.9186984628
 10
115004.4229572328
 20
107735.9055278123
 10
115004.458389007
 20
107735.893393071
 10
115004.4941627973
 20
107735.882293444
 10
115004.5302471223
 20
107735.8722281366
 10
115004.5666105007
 20
107735.8631963538
 10
115004.6032214511
 20
107735.8551973008
 10
115004.6400484922
 20
107735.8482301829
 10
115004.6770601426
 20
107735.8422942051
 10
115004.7142249209
 20
107735.8373885727
 10
115004.7515113458
 20
107735.8335124908
 10
115004.7888879358
 20
107735.8306651646
 10
115004.8263232098
 20
107735.8288457992
 10
115004.8920773535
 20
107735.8277824134
 10
115020.2023971632
 20
107735.8278971172
  0
LINE
  5
5F6E8
330
1F
100
AcDbEntity
  8
freecads.com
100
AcDbLine
 10
115010.4381085713
 20
107751.4265679804
 30
0.0
 11
115010.4381085713
 21
107751.6784137269
 31
0.0
  0
LINE
  5
5F6E9
330
1F
100
AcDbEntity
  8
freecads.com
100
AcDbLine
 10
115024.7629325346
 20
107735.5788673534
 30
0.0
 11
115024.7629325346
 21
107736.9829468255
 31
0.0
  0
LINE
  5
5F6EA
330
1F
100
AcDbEntity
  8
freecads.com
100
AcDbLine
 10
115024.7629325346
 20
107738.3122501484
 30
0.0
 11
115024.7629325346
 21
107749.0354849534
 31
0.0
  0
LINE
  5
5F6EB
330
1F
100
AcDbEntity
  8
freecads.com
100
AcDbLine
 10
115024.7629325346
 20
107750.5328613528
 30
0.0
 11
115024.7629325346
 21
107751.6784137269
 31
0.0
  0
LINE
  5
5F6EC
330
1F
100
AcDbEntity
  8
freecads.com
100
AcDbLine
 10
115023.5818301724
 20
107751.6771481193
 30
0.0
 11
115023.5818301724
 21
107750.6084309461
 31
0.0
  0
LINE
  5
5F6ED
330
1F
100
AcDbEntity
  8
freecads.com
100
AcDbLine
 10
115023.5818301724
 20
107750.5328613528
 30
0.0
 11
115023.5818301724
 21
107749.0354849534
 31
0.0
  0
LINE
  5
5F6EE
330
1F
100
AcDbEntity
  8
freecads.com
100
AcDbLine
 10
115023.5818301724
 20
107748.7348300602
 30
0.0
 11
115023.5818301724
 21
107738.8908913914
 31
0.0
  0
LINE
  5
5F6EF
330
1F
100
AcDbEntity
  8
freecads.com
100
AcDbLine
 10
115023.5818301724
 20
107738.3122501484
 30
0.0
 11
115023.5818301724
 21
107735.5760498261
 31
0.0
  0
LINE
  5
5F6F0
330
1F
100
AcDbEntity
  8
freecads.com
100
AcDbLine
 10
115023.5818301724
 20
107738.3122501484
 30
0.0
 11
115023.5818301724
 21
107738.8908913911
 31
0.0
  0
LINE
  5
5F6F1
330
1F
100
AcDbEntity
  8
freecads.com
100
AcDbLine
 10
115023.5818301724
 20
107748.7348300584
 30
0.0
 11
115023.5818301724
 21
107749.0354849534
 31
0.0
  0
LINE
  5
5F6F2
330
1F
100
AcDbEntity
  8
freecads.com
100
AcDbLine
 10
115023.5818301724
 20
107750.5328613528
 30
0.0
 11
115023.5818301724
 21
107750.6084309461
 31
0.0
  0
LINE
  5
5F6F3
330
1F
100
AcDbEntity
  8
freecads.com
100
AcDbLine
 10
115023.5818301719
 20
107751.6771481193
 30
0.0
 11
115023.5818301719
 21
107751.6784667572
 31
0.0
  0
LWPOLYLINE
  5
5F6F4
330
1F
100
AcDbEntity
  8
freecads.com
100
AcDbPolyline
 90
      123
 70
     0
 43
0.0
 10
115037.9065388486
 20
107751.6784137269
 10
115041.6308444108
 20
107751.678121301
 10
115041.6622497963
 20
107751.6771530467
 10
115041.693628246
 20
107751.6755899117
 10
115041.7249688425
 20
107751.6734268605
 10
115041.7562606687
 20
107751.6706588576
 10
115041.7874928072
 20
107751.6672808674
 10
115041.8186543408
 20
107751.6632878546
 10
115041.8497343522
 20
107751.6586747835
 10
115041.8933400796
 20
107751.6511210635
 10
115041.9367238873
 20
107751.642334053
 10
115041.9798471611
 20
107751.6323200093
 10
115042.0226712867
 20
107751.6210851894
 10
115042.0651576499
 20
107751.6086358506
 10
115042.1072676364
 20
107751.5949782501
 10
115042.1489626318
 20
107751.5801186451
 10
115042.1902040221
 20
107751.5640632928
 10
115042.2309531927
 20
107751.5468184505
 10
115042.2711715297
 20
107751.5283903753
 10
115042.3108204185
 20
107751.5087853244
 10
115042.349861245
 20
107751.488009555
 10
115042.3882553949
 20
107751.4660693244
 10
115042.4259642539
 20
107751.4429708897
 10
115042.4629492078
 20
107751.4187205082
 10
115042.4991716423
 20
107751.3933244371
 10
115042.5335219763
 20
107751.3676186146
 10
115042.5670756344
 20
107751.3408624245
 10
115042.5997888877
 20
107751.3130763968
 10
115042.6316180074
 20
107751.2842810618
 10
115042.6625192647
 20
107751.2544969497
 10
115042.6924489308
 20
107751.2237445907
 10
115042.7213632768
 20
107751.1920445151
 10
115042.749218574
 20
107751.1594172529
 10
115042.7756030029
 20
107751.1263648563
 10
115042.8008823099
 20
107751.0924643122
 10
115042.8250232559
 20
107751.0577487291
 10
115042.8479926018
 20
107751.0222512151
 10
115042.8697571086
 20
107750.9860048787
 10
115042.890283537
 20
107750.9490428282
 10
115042.9095386481
 20
107750.911398172
 10
115042.9274892027
 20
107750.8731040183
 10
115042.9359818378
 20
107750.8536829091
 10
115042.9441308502
 20
107750.8341129489
 10
115042.9519284807
 20
107750.8144000356
 10
115042.9593669701
 20
107750.7945500673
 10
115042.9664385593
 20
107750.7745689421
 10
115042.9731354892
 20
107750.7544625581
 10
115042.9794500006
 20
107750.7342368132
 10
115042.9853743343
 20
107750.7138976055
 10
115042.991038487
 20
107750.6929403977
 10
115042.9963070398
 20
107750.6718803816
 10
115043.0057470501
 20
107750.6294926708
 10
115043.0138737731
 20
107750.5868159654
 10
115043.0208666164
 20
107750.5439317583
 10
115044.8819358342
 20
107737.09263958
 10
115044.8949307719
 20
107736.9976899225
 10
115044.897390393
 20
107736.9736972131
 10
115044.8993857431
 20
107736.9496591157
 10
115044.9009139241
 20
107736.9255856377
 10
115044.9019720376
 20
107736.9014867868
 10
115044.9025571857
 20
107736.8773725705
 10
115044.90266647
 20
107736.8532529963
 10
115044.9022969925
 20
107736.8291380718
 10
115044.901445855
 20
107736.8050378045
 10
115044.9001101593
 20
107736.7809622019
 10
115044.8982870072
 20
107736.7569212717
 10
115044.8959735006
 20
107736.7329250212
 10
115044.8931667412
 20
107736.7089834582
 10
115044.889863831
 20
107736.6851065901
 10
115044.8860618718
 20
107736.6613044245
 10
115044.8817579653
 20
107736.6375869688
 10
115044.8769492134
 20
107736.6139642307
 10
115044.8714105244
 20
107736.589504504
 10
115044.865330143
 20
107736.5651682354
 10
115044.8587156931
 20
107736.5409655837
 10
115044.8515747987
 20
107736.5169067073
 10
115044.8439150837
 20
107736.4930017646
 10
115044.835744172
 20
107736.4692609144
 10
115044.8270696876
 20
107736.445694315
 10
115044.8178992543
 20
107736.422312125
 10
115044.8082404962
 20
107736.3991245029
 10
115044.798101037
 20
107736.3761416073
 10
115044.7874885009
 20
107736.3533735966
 10
115044.7764105116
 20
107736.3308306295
 10
115044.7648746932
 20
107736.3085228643
 10
115044.7528886695
 20
107736.2864604598
 10
115044.7404600644
 20
107736.2646535743
 10
115044.727596502
 20
107736.2431123664
 10
115044.7160468194
 20
107736.22457828
 10
115044.7041783083
 20
107736.2062559231
 10
115044.6795056114
 20
107736.1702566906
 10
115044.6536200323
 20
107736.1351352546
 10
115044.6265631923
 20
107736.1009122006
 10
115044.5983767125
 20
107736.0676081143
 10
115044.5691022141
 20
107736.0352435812
 10
115044.5387813182
 20
107736.003839187
 10
115044.507455646
 20
107735.9734155173
 10
115044.4751668186
 20
107735.9439931578
 10
115044.4419564572
 20
107735.9155926939
 10
115044.407866183
 20
107735.8882347114
 10
115044.3729376171
 20
107735.8619397959
 10
115044.3372123807
 20
107735.836728533
 10
115044.3007320949
 20
107735.8126215083
 10
115044.2635383809
 20
107735.7896393074
 10
115044.2256728598
 20
107735.7678025159
 10
115044.1859869456
 20
107735.7465135794
 10
115044.1456713936
 20
107735.7264659337
 10
115044.1047659692
 20
107735.7076623139
 10
115044.0633104374
 20
107735.6901054549
 10
115044.0213445635
 20
107735.6737980917
 10
115043.9789081127
 20
107735.6587429592
 10
115043.9360408501
 20
107735.6449427924
 10
115043.8927825409
 20
107735.6324003263
 10
115043.8491729504
 20
107735.6211182958
 10
115043.8052518437
 20
107735.611099436
 10
115043.761058986
 20
107735.6023464817
 10
115043.7166341425
 20
107735.594862168
 10
115043.6720170784
 20
107735.5886492298
 10
115043.6272475589
 20
107735.5837104022
 10
115043.5823653492
 20
107735.5800484199
 10
115043.5374102144
 20
107735.5776660181
 10
115043.4768974359
 20
107735.5762901782
 10
115028.1422502566
 20
107735.5760498261
  0
LWPOLYLINE
  5
5F6F5
330
1F
100
AcDbEntity
  8
freecads.com
100
AcDbPolyline
 90
      129
 70
     0
 43
0.0
 10
115028.1422502566
 20
107735.8278971172
 10
115043.5183074204
 20
107735.8288348108
 10
115043.5557375442
 20
107735.8305676305
 10
115043.5931121291
 20
107735.833354164
 10
115043.6303992833
 20
107735.8371925062
 10
115043.6675671151
 20
107735.8420807521
 10
115043.7045837323
 20
107735.8480169967
 10
115043.7414172434
 20
107735.8549993349
 10
115043.7780357564
 20
107735.8630258618
 10
115043.8144073794
 20
107735.8720946723
 10
115043.8505002205
 20
107735.8822038615
 10
115043.8862823881
 20
107735.8933515242
 10
115043.9217219901
 20
107735.9055357555
 10
115043.9567871348
 20
107735.9187546504
 10
115043.9914459302
 20
107735.9330063038
 10
115044.0256664846
 20
107735.9482888107
 10
115044.0594169061
 20
107735.9646002662
 10
115044.0926653028
 20
107735.9819387651
 10
115044.1239191263
 20
107735.9994528496
 10
115044.1546486786
 20
107736.0178891264
 10
115044.1848166701
 20
107736.0372347659
 10
115044.2143858111
 20
107736.0574769387
 10
115044.2433188123
 20
107736.0786028151
 10
115044.271578384
 20
107736.1005995655
 10
115044.2991272368
 20
107736.1234543603
 10
115044.3259280812
 20
107736.1471543701
 10
115044.3519436274
 20
107736.1716867651
 10
115044.3771365862
 20
107736.1970387158
 10
115044.4014696679
 20
107736.2231973927
 10
115044.424905583
 20
107736.2501499661
 10
115044.4474070419
 20
107736.2778836065
 10
115044.4582956974
 20
107736.2920393176
 10
115044.4689367552
 20
107736.3063854843
 10
115044.4793255543
 20
107736.3209205029
 10
115044.4894574333
 20
107736.3356427698
 10
115044.4993277313
 20
107736.3505506813
 10
115044.5089317868
 20
107736.3656426336
 10
115044.5193310564
 20
107736.3827014219
 10
115044.5293869217
 20
107736.3999788854
 10
115044.5390934512
 20
107736.4174664317
 10
115044.5484447133
 20
107736.4351554685
 10
115044.5574347767
 20
107736.4530374033
 10
115044.5660577098
 20
107736.4711036438
 10
115044.5743075812
 20
107736.4893455976
 10
115044.5821784595
 20
107736.5077546723
 10
115044.5896644132
 20
107736.5263222755
 10
115044.5967595107
 20
107736.5450398148
 10
115044.6034578208
 20
107736.5638986979
 10
115044.6097534118
 20
107736.5828903323
 10
115044.6156403523
 20
107736.6020061257
 10
115044.621112711
 20
107736.6212374856
 10
115044.6261645562
 20
107736.6405758198
 10
115044.6307899566
 20
107736.6600125358
 10
115044.6348684337
 20
107736.6789724043
 10
115044.6385382618
 20
107736.6980092001
 10
115044.641798488
 20
107736.7171151859
 10
115044.6446481592
 20
107736.7362826247
 10
115044.6470863228
 20
107736.7555037795
 10
115044.6491120257
 20
107736.7747709131
 10
115044.6507243152
 20
107736.7940762886
 10
115044.6519222384
 20
107736.8134121686
 10
115044.6527048423
 20
107736.8327708164
 10
115044.6530711742
 20
107736.8521444946
 10
115044.6530202811
 20
107736.8715254664
 10
115044.6525512103
 20
107736.8909059945
 10
115044.6516630087
 20
107736.910278342
 10
115044.6503547235
 20
107736.9296347717
 10
115044.6486254019
 20
107736.9489675465
 10
115044.646474091
 20
107736.9682689295
 10
115042.7694403624
 20
107750.532865361
 10
115042.7643728611
 20
107750.5630510331
 10
115042.7608471932
 20
107750.5810535433
 10
115042.756928331
 20
107750.5989788931
 10
115042.7526295001
 20
107750.6168237053
 10
115042.7479639259
 20
107750.6345846026
 10
115042.7434672067
 20
107750.6504734373
 10
115042.738687704
 20
107750.6662851088
 10
115042.7336282358
 20
107750.6820129757
 10
115042.7282916205
 20
107750.6976503966
 10
115042.7226806761
 20
107750.7131907302
 10
115042.7167982209
 20
107750.7286273351
 10
115042.710647073
 20
107750.7439535699
 10
115042.7042300506
 20
107750.7591627934
 10
115042.6970366382
 20
107750.7753799056
 10
115042.6895436717
 20
107750.7914513678
 10
115042.6817557556
 20
107750.8073745032
 10
115042.6736774946
 20
107750.8231466353
 10
115042.6653134934
 20
107750.8387650874
 10
115042.6566683566
 20
107750.854227183
 10
115042.647746689
 20
107750.8695302455
 10
115042.638553095
 20
107750.8846715982
 10
115042.6290921795
 20
107750.8996485645
 10
115042.6193685471
 20
107750.9144584679
 10
115042.5991515501
 20
107750.9435663793
 10
115042.5779389413
 20
107750.9719739196
 10
115042.555767558
 20
107750.9996596758
 10
115042.5326742374
 20
107751.0266022351
 10
115042.5086958168
 20
107751.0527801847
 10
115042.4838691334
 20
107751.0781721116
 10
115042.4582310246
 20
107751.1027566032
 10
115042.4318183276
 20
107751.1265122464
 10
115042.4046678796
 20
107751.1494176284
 10
115042.376816518
 20
107751.1714513365
 10
115042.3483010801
 20
107751.1925919576
 10
115042.3310307802
 20
107751.204741233
 10
115042.3135449939
 20
107751.216566941
 10
115042.2958503808
 20
107751.2280693979
 10
115042.2779536008
 20
107751.2392489203
 10
115042.2598613135
 20
107751.2501058246
 10
115042.2415801788
 20
107751.2606404273
 10
115042.2044780059
 20
107751.2807439934
 10
115042.1667003601
 20
107751.2995621504
 10
115042.1283005194
 20
107751.3170974297
 10
115042.0893317616
 20
107751.3333523629
 10
115042.0498473649
 20
107751.3483294816
 10
115042.0177296162
 20
107751.3594558171
 10
115041.9853344316
 20
107751.3697487878
 10
115041.9526838745
 20
107751.3792011077
 10
115041.9198000084
 20
107751.3878054908
 10
115041.8867048967
 20
107751.3955546511
 10
115041.8534206032
 20
107751.4024413024
 10
115041.8199691911
 20
107751.4084581588
 10
115041.7863727241
 20
107751.4135979341
 10
115041.7515519794
 20
107751.4179813163
 10
115041.7166263942
 20
107751.4214386051
 10
115041.6816222733
 20
107751.4239867047
 10
115041.6465659215
 20
107751.425642519
 10
115041.5887696766
 20
107751.4266587331
 10
115037.9065388486
 20
107751.4265679804
  0
LINE
  5
5F6F6
330
1F
100
AcDbEntity
  8
freecads.com
100
AcDbLine
 10
115028.1422502566
 20
107735.8278971172
 30
0.0
 11
115028.1422502566
 21
107735.5760498261
 31
0.0
  0
LINE
  5
5F6F7
330
1F
100
AcDbEntity
  8
freecads.com
100
AcDbLine
 10
115037.9065388486
 20
107751.6784137269
 30
0.0
 11
115037.9065388486
 21
107751.4265679804
 31
0.0
  0
LINE
  5
5F6F8
330
1F
100
AcDbEntity
  8
freecads.com
100
AcDbLine
 10
115006.0597492257
 20
107753.7266698658
 30
0.0
 11
115006.0741410575
 21
107753.7266698658
 31
0.0
  0
LINE
  5
5F6F9
330
1F
100
AcDbEntity
  8
freecads.com
100
AcDbLine
 10
115006.0777808014
 20
107753.7266698658
 30
0.0
 11
115006.0788579876
 21
107753.7266698658
 31
0.0
  0
LINE
  5
5F6FA
330
1F
100
AcDbEntity
  8
freecads.com
100
AcDbLine
 10
115006.0880323252
 20
107753.7266698658
 30
0.0
 11
115006.0895968747
 21
107753.7266698658
 31
0.0
  0
LINE
  5
5F6FB
330
1F
100
AcDbEntity
  8
freecads.com
100
AcDbLine
 10
115006.1006410185
 20
107753.7266698658
 30
0.0
 11
115006.1027155094
 21
107753.7266698658
 31
0.0
  0
LINE
  5
5F6FC
330
1F
100
AcDbEntity
  8
freecads.com
100
AcDbLine
 10
115006.115634597
 20
107753.7266698658
 30
0.0
 11
115006.118211426
 21
107753.7266698658
 31
0.0
  0
LINE
  5
5F6FD
330
1F
100
AcDbEntity
  8
freecads.com
100
AcDbLine
 10
115006.1330401931
 20
107753.7266698658
 30
0.0
 11
115006.1360821589
 21
107753.7266698658
 31
0.0
  0
LINE
  5
5F6FE
330
1F
100
AcDbEntity
  8
freecads.com
100
AcDbLine
 10
115006.1528843232
 20
107753.7266698658
 30
0.0
 11
115006.1563252426
 21
107753.7266698658
 31
0.0
  0
LINE
  5
5F6FF
330
1F
100
AcDbEntity
  8
freecads.com
100
AcDbLine
 10
115006.1751928544
 20
107753.7266698658
 30
0.0
 11
115006.1789382114
 21
107753.7266698658
 31
0.0
  0
LINE
  5
5F700
330
1F
100
AcDbEntity
  8
freecads.com
100
AcDbLine
 10
115006.1999909725
 20
107753.7266698658
 30
0.0
 11
115006.2039185997
 21
107753.7266698658
 31
0.0
  0
LINE
  5
5F701
330
1F
100
AcDbEntity
  8
freecads.com
100
AcDbLine
 10
115006.2273031483
 20
107753.7266698658
 30
0.0
 11
115006.2312639421
 21
107753.7266698658
 31
0.0
  0
LINE
  5
5F702
330
1F
100
AcDbEntity
  8
freecads.com
100
AcDbLine
 10
115006.2571531051
 20
107753.7266698658
 30
0.0
 11
115006.2609717729
 21
107753.7266698658
 31
0.0
  0
LINE
  5
5F703
330
1F
100
AcDbEntity
  8
freecads.com
100
AcDbLine
 10
115006.2895637864
 20
107753.7266698658
 30
0.0
 11
115006.2930396265
 21
107753.7266698658
 31
0.0
  0
LINE
  5
5F704
330
1F
100
AcDbEntity
  8
freecads.com
100
AcDbLine
 10
115006.324557318
 20
107753.7266698658
 30
0.0
 11
115006.3274650372
 21
107753.7266698658
 31
0.0
  0
LINE
  5
5F705
330
1F
100
AcDbEntity
  8
freecads.com
100
AcDbLine
 10
115006.3621549896
 20
107753.7266698658
 30
0.0
 11
115006.3642455396
 21
107753.7266698658
 31
0.0
  0
LINE
  5
5F706
330
1F
100
AcDbEntity
  8
freecads.com
100
AcDbLine
 10
115006.4023772016
 20
107753.7266698658
 30
0.0
 11
115006.4056551023
 21
107753.7266698658
 31
0.0
  0
LINE
  5
5F707
330
1F
100
AcDbEntity
  8
freecads.com
100
AcDbLine
 10
115006.4452434507
 20
107753.7266698658
 30
0.0
 11
115006.4496812735
 21
107753.7266698658
 31
0.0
  0
LINE
  5
5F708
330
1F
100
AcDbEntity
  8
freecads.com
100
AcDbLine
 10
115006.49077229
 20
107753.7266698658
 30
0.0
 11
115006.4963151402
 21
107753.7266698658
 31
0.0
  0
LINE
  5
5F709
330
1F
100
AcDbEntity
  8
freecads.com
100
AcDbLine
 10
115006.5389813052
 20
107753.7266698658
 30
0.0
 11
115006.5455477893
 21
107753.7266698658
 31
0.0
  0
LINE
  5
5F70A
330
1F
100
AcDbEntity
  8
freecads.com
100
AcDbLine
 10
115006.5898870598
 20
107753.7266698658
 30
0.0
 11
115006.5973703077
 21
107753.7266698658
 31
0.0
  0
LINE
  5
5F70B
330
1F
100
AcDbEntity
  8
freecads.com
100
AcDbLine
 10
115006.6435051001
 20
107753.7266698658
 30
0.0
 11
115006.6517737823
 21
107753.7266698658
 31
0.0
  0
LINE
  5
5F70C
330
1F
100
AcDbEntity
  8
freecads.com
100
AcDbLine
 10
115006.6998499022
 20
107753.7266698658
 30
0.0
 11
115006.7087492997
 21
107753.7266698658
 31
0.0
  0
LINE
  5
5F70D
330
1F
100
AcDbEntity
  8
freecads.com
100
AcDbLine
 10
115006.7589348485
 20
107753.7266698658
 30
0.0
 11
115006.7682879465
 21
107753.7266698658
 31
0.0
  0
LINE
  5
5F70E
330
1F
100
AcDbEntity
  8
freecads.com
100
AcDbLine
 10
115006.8207721919
 20
107753.7266698658
 30
0.0
 11
115006.8303808104
 21
107753.7266698658
 31
0.0
  0
LINE
  5
5F70F
330
1F
100
AcDbEntity
  8
freecads.com
100
AcDbLine
 10
115006.8853730578
 20
107753.7266698658
 30
0.0
 11
115006.8950189782
 21
107753.7266698658
 31
0.0
  0
LINE
  5
5F710
330
1F
100
AcDbEntity
  8
freecads.com
100
AcDbLine
 10
115006.9527473735
 20
107753.7266698658
 30
0.0
 11
115006.962193537
 21
107753.7266698658
 31
0.0
  0
LINE
  5
5F711
330
1F
100
AcDbEntity
  8
freecads.com
100
AcDbLine
 10
115007.022903871
 20
107753.7266698658
 30
0.0
 11
115007.0318955736
 21
107753.7266698658
 31
0.0
  0
LINE
  5
5F712
330
1F
100
AcDbEntity
  8
freecads.com
100
AcDbLine
 10
115007.095850055
 20
107753.7266698658
 30
0.0
 11
115007.1041161748
 21
107753.7266698658
 31
0.0
  0
LINE
  5
5F713
330
1F
100
AcDbEntity
  8
freecads.com
100
AcDbLine
 10
115007.1715921793
 20
107753.7266698658
 30
0.0
 11
115007.1788464277
 21
107753.7266698658
 31
0.0
  0
LINE
  5
5F714
330
1F
100
AcDbEntity
  8
freecads.com
100
AcDbLine
 10
115007.2501352237
 20
107753.7266698658
 30
0.0
 11
115007.256077419
 21
107753.7266698658
 31
0.0
  0
LINE
  5
5F715
330
1F
100
AcDbEntity
  8
freecads.com
100
AcDbLine
 10
115007.3314828723
 20
107753.7266698658
 30
0.0
 11
115007.3358002425
 21
107753.7266698658
 31
0.0
  0
LINE
  5
5F716
330
1F
100
AcDbEntity
  8
freecads.com
100
AcDbLine
 10
115007.4156374932
 20
107753.7266698658
 30
0.0
 11
115007.4213294343
 21
107753.7266698658
 31
0.0
  0
LINE
  5
5F717
330
1F
100
AcDbEntity
  8
freecads.com
100
AcDbLine
 10
115007.5026001196
 20
107753.7266698658
 30
0.0
 11
115007.5095265157
 21
107753.7266698658
 31
0.0
  0
LINE
  5
5F718
330
1F
100
AcDbEntity
  8
freecads.com
100
AcDbLine
 10
115007.5923704314
 20
107753.7266698658
 30
0.0
 11
115007.6003747816
 21
107753.7266698658
 31
0.0
  0
LINE
  5
5F719
330
1F
100
AcDbEntity
  8
freecads.com
100
AcDbLine
 10
115007.6849467392
 20
107753.7266698658
 30
0.0
 11
115007.6938575339
 21
107753.7266698658
 31
0.0
  0
LINE
  5
5F71A
330
1F
100
AcDbEntity
  8
freecads.com
100
AcDbLine
 10
115007.7803259686
 20
107753.7266698658
 30
0.0
 11
115007.7899580744
 21
107753.7266698658
 31
0.0
  0
LINE
  5
5F71B
330
1F
100
AcDbEntity
  8
freecads.com
100
AcDbLine
 10
115007.8785036472
 20
107753.7266698658
 30
0.0
 11
115007.8886597053
 21
107753.7266698658
 31
0.0
  0
LINE
  5
5F71C
330
1F
100
AcDbEntity
  8
freecads.com
100
AcDbLine
 10
115007.9794738925
 20
107753.7266698658
 30
0.0
 11
115007.9899457285
 21
107753.7266698658
 31
0.0
  0
LINE
  5
5F71D
330
1F
100
AcDbEntity
  8
freecads.com
100
AcDbLine
 10
115008.0832294013
 20
107753.7266698658
 30
0.0
 11
115008.0937994458
 21
107753.7266698658
 31
0.0
  0
LINE
  5
5F71E
330
1F
100
AcDbEntity
  8
freecads.com
100
AcDbLine
 10
115008.1897614407
 20
107753.7266698658
 30
0.0
 11
115008.2002041594
 21
107753.7266698658
 31
0.0
  0
LINE
  5
5F71F
330
1F
100
AcDbEntity
  8
freecads.com
100
AcDbLine
 10
115008.2990598412
 20
107753.7266698658
 30
0.0
 11
115008.3091431711
 21
107753.7266698658
 31
0.0
  0
LINE
  5
5F720
330
1F
100
AcDbEntity
  8
freecads.com
100
AcDbLine
 10
115008.4111129911
 20
107753.7266698658
 30
0.0
 11
115008.4205997879
 21
107753.7266698658
 31
0.0
  0
LINE
  5
5F721
330
1F
100
AcDbEntity
  8
freecads.com
100
AcDbLine
 10
115008.5259078325
 20
107753.7266698658
 30
0.0
 11
115008.5345572914
 21
107753.7266698658
 31
0.0
  0
LINE
  5
5F722
330
1F
100
AcDbEntity
  8
freecads.com
100
AcDbLine
 10
115008.6434298594
 20
107753.7266698658
 30
0.0
 11
115008.6509990148
 21
107753.7266698658
 31
0.0
  0
LINE
  5
5F723
330
1F
100
AcDbEntity
  8
freecads.com
100
AcDbLine
 10
115008.7636631174
 20
107753.7266698658
 30
0.0
 11
115008.7699082388
 21
107753.7266698658
 31
0.0
  0
LINE
  5
5F724
330
1F
100
AcDbEntity
  8
freecads.com
100
AcDbLine
 10
115008.8865902054
 20
107753.7266698658
 30
0.0
 11
115009.0150624151
 21
107753.7266698658
 31
0.0
  0
LINE
  5
5F725
330
1F
100
AcDbEntity
  8
freecads.com
100
AcDbLine
 10
115009.1404490569
 20
107753.7266698658
 30
0.0
 11
115009.1440332327
 21
107753.7266698658
 31
0.0
  0
LINE
  5
5F726
330
1F
100
AcDbEntity
  8
freecads.com
100
AcDbLine
 10
115009.2713388166
 20
107753.7266698658
 30
0.0
 11
115009.2755028814
 21
107753.7266698658
 31
0.0
  0
LINE
  5
5F727
330
1F
100
AcDbEntity
  8
freecads.com
100
AcDbLine
 10
115009.4048384284
 20
107753.7266698658
 30
0.0
 11
115009.4094469197
 21
107753.7266698658
 31
0.0
  0
LINE
  5
5F728
330
1F
100
AcDbEntity
  8
freecads.com
100
AcDbLine
 10
115010.8772958769
 20
107753.7266698658
 30
0.0
 11
115011.4477780411
 21
107753.7266698658
 31
0.0
  0
LINE
  5
5F729
330
1F
100
AcDbEntity
  8
freecads.com
100
AcDbLine
 10
115011.530787244
 20
107753.7266698658
 30
0.0
 11
115012.0413348625
 21
107753.7266698658
 31
0.0
  0
LINE
  5
5F72A
330
1F
100
AcDbEntity
  8
freecads.com
100
AcDbLine
 10
115012.044642122
 20
107753.7266698658
 30
0.0
 11
115012.2155812294
 21
107753.7266698658
 31
0.0
  0
LINE
  5
5F72B
330
1F
100
AcDbEntity
  8
freecads.com
100
AcDbLine
 10
115012.2196413153
 20
107753.7266698658
 30
0.0
 11
115012.3918093487
 21
107753.7266698658
 31
0.0
  0
LINE
  5
5F72C
330
1F
100
AcDbEntity
  8
freecads.com
100
AcDbLine
 10
115012.3965652971
 20
107753.7266698658
 30
0.0
 11
115012.5699891239
 21
107753.7266698658
 31
0.0
  0
LINE
  5
5F72D
330
1F
100
AcDbEntity
  8
freecads.com
100
AcDbLine
 10
115012.5753670374
 20
107753.7266698658
 30
0.0
 11
115012.7500904581
 21
107753.7266698658
 31
0.0
  0
LINE
  5
5F72E
330
1F
100
AcDbEntity
  8
freecads.com
100
AcDbLine
 10
115012.7559986592
 20
107753.7266698658
 30
0.0
 11
115012.932083233
 21
107753.7266698658
 31
0.0
  0
LINE
  5
5F72F
330
1F
100
AcDbEntity
  8
freecads.com
100
AcDbLine
 10
115012.9384114808
 20
107753.7266698658
 30
0.0
 11
115013.1159373952
 21
107753.7266698658
 31
0.0
  0
LINE
  5
5F730
330
1F
100
AcDbEntity
  8
freecads.com
100
AcDbLine
 10
115013.1225560587
 20
107753.7266698658
 30
0.0
 11
115013.3016228265
 21
107753.7266698658
 31
0.0
  0
LINE
  5
5F731
330
1F
100
AcDbEntity
  8
freecads.com
100
AcDbLine
 10
115013.3083822318
 20
107753.7266698658
 30
0.0
 11
115015.2309701907
 21
107753.7266698658
 31
0.0
  0
LINE
  5
5F732
330
1F
100
AcDbEntity
  8
freecads.com
100
AcDbLine
 10
115015.2476739623
 20
107753.7266698658
 30
0.0
 11
115015.4302602568
 21
107753.7266698658
 31
0.0
  0
LINE
  5
5F733
330
1F
100
AcDbEntity
  8
freecads.com
100
AcDbLine
 10
115015.4485274219
 20
107753.7266698658
 30
0.0
 11
115015.6309380368
 21
107753.7266698658
 31
0.0
  0
LINE
  5
5F734
330
1F
100
AcDbEntity
  8
freecads.com
100
AcDbLine
 10
115015.6504212505
 20
107753.7266698658
 30
0.0
 11
115015.8329712431
 21
107753.7266698658
 31
0.0
  0
LINE
  5
5F735
330
1F
100
AcDbEntity
  8
freecads.com
100
AcDbLine
 10
115015.8533001575
 20
107753.7266698658
 30
0.0
 11
115016.0363275881
 21
107753.7266698658
 31
0.0
  0
LINE
  5
5F736
330
1F
100
AcDbEntity
  8
freecads.com
100
AcDbLine
 10
115016.0571087851
 20
107753.7266698658
 30
0.0
 11
115016.2409747843
 21
107753.7266698658
 31
0.0
  0
LINE
  5
5F737
330
1F
100
AcDbEntity
  8
freecads.com
100
AcDbLine
 10
115016.2617917539
 20
107753.7266698658
 30
0.0
 11
115016.446880544
 21
107753.7266698658
 31
0.0
  0
LINE
  5
5F738
330
1F
100
AcDbEntity
  8
freecads.com
100
AcDbLine
 10
115016.4672937082
 20
107753.7266698658
 30
0.0
 11
115016.6540125796
 21
107753.7266698658
 31
0.0
  0
LINE
  5
5F739
330
1F
100
AcDbEntity
  8
freecads.com
100
AcDbLine
 10
115016.6735593609
 20
107753.7266698658
 30
0.0
 11
115018.3182015865
 21
107753.7266698658
 31
0.0
  0
LINE
  5
5F73A
330
1F
100
AcDbEntity
  8
freecads.com
100
AcDbLine
 10
115018.3445999703
 20
107753.7266698658
 30
0.0
 11
115018.5264415697
 21
107753.7266698658
 31
0.0
  0
LINE
  5
5F73B
330
1F
100
AcDbEntity
  8
freecads.com
100
AcDbLine
 10
115018.555283431
 20
107753.7266698658
 30
0.0
 11
115018.7355110015
 21
107753.7266698658
 31
0.0
  0
LINE
  5
5F73C
330
1F
100
AcDbEntity
  8
freecads.com
100
AcDbLine
 10
115018.7661907618
 20
107753.7266698658
 30
0.0
 11
115018.9453788023
 21
107753.7266698658
 31
0.0
  0
LINE
  5
5F73D
330
1F
100
AcDbEntity
  8
freecads.com
100
AcDbLine
 10
115018.9772701471
 20
107753.7266698658
 30
0.0
 11
115019.1560138927
 21
107753.7266698658
 31
0.0
  0
LINE
  5
5F73E
330
1F
100
AcDbEntity
  8
freecads.com
100
AcDbLine
 10
115019.1884703088
 20
107753.7266698658
 30
0.0
 11
115019.3673851929
 21
107753.7266698658
 31
0.0
  0
LINE
  5
5F73F
330
1F
100
AcDbEntity
  8
freecads.com
100
AcDbLine
 10
115019.399740538
 20
107753.7266698658
 30
0.0
 11
115019.5794616236
 21
107753.7266698658
 31
0.0
  0
LINE
  5
5F740
330
1F
100
AcDbEntity
  8
freecads.com
100
AcDbLine
 10
115019.6110307262
 20
107753.7266698658
 30
0.0
 11
115019.792212105
 21
107753.7266698658
 31
0.0
  0
LINE
  5
5F741
330
1F
100
AcDbEntity
  8
freecads.com
100
AcDbLine
 10
115019.8222913943
 20
107753.7266698658
 30
0.0
 11
115020.0056055577
 21
107753.7266698658
 31
0.0
  0
LINE
  5
5F742
330
1F
100
AcDbEntity
  8
freecads.com
100
AcDbLine
 10
115020.0334737212
 20
107753.7266698658
 30
0.0
 11
115021.8917561611
 21
107753.7266698658
 31
0.0
  0
LINE
  5
5F743
330
1F
100
AcDbEntity
  8
freecads.com
100
AcDbLine
 10
115021.922891816
 20
107753.7266698658
 30
0.0
 11
115022.098120214
 21
107753.7266698658
 31
0.0
  0
LINE
  5
5F744
330
1F
100
AcDbEntity
  8
freecads.com
100
AcDbLine
 10
115022.1307678234
 20
107753.7266698658
 30
0.0
 11
115022.3047573257
 21
107753.7266698658
 31
0.0
  0
LINE
  5
5F745
330
1F
100
AcDbEntity
  8
freecads.com
100
AcDbLine
 10
115022.338078592
 20
107753.7266698658
 30
0.0
 11
115022.5116401902
 21
107753.7266698658
 31
0.0
  0
LINE
  5
5F746
330
1F
100
AcDbEntity
  8
freecads.com
100
AcDbLine
 10
115022.5447849608
 20
107753.7266698658
 30
0.0
 11
115022.7187415013
 21
107753.7266698658
 31
0.0
  0
LINE
  5
5F747
330
1F
100
AcDbEntity
  8
freecads.com
100
AcDbLine
 10
115022.7508485982
 20
107753.7266698658
 30
0.0
 11
115022.926033953
 21
107753.7266698658
 31
0.0
  0
LINE
  5
5F748
330
1F
100
AcDbEntity
  8
freecads.com
100
AcDbLine
 10
115022.9562321106
 20
107753.7266698658
 30
0.0
 11
115023.1334902393
 21
107753.7266698658
 31
0.0
  0
LINE
  5
5F749
330
1F
100
AcDbEntity
  8
freecads.com
100
AcDbLine
 10
115023.1608990263
 20
107753.7266698658
 30
0.0
 11
115023.3648138023
 21
107753.7266698658
 31
0.0
  0
LINE
  5
5F74A
330
1F
100
AcDbEntity
  8
freecads.com
100
AcDbLine
 10
115023.548785091
 20
107753.7266698658
 30
0.0
 11
115024.7957643014
 21
107753.7266698658
 31
0.0
  0
LINE
  5
5F74B
330
1F
100
AcDbEntity
  8
freecads.com
100
AcDbLine
 10
115024.9797331492
 20
107753.7266698658
 30
0.0
 11
115025.1836479252
 21
107753.7266698658
 31
0.0
  0
LINE
  5
5F74C
330
1F
100
AcDbEntity
  8
freecads.com
100
AcDbLine
 10
115025.2110589883
 20
107753.7266698658
 30
0.0
 11
115025.3883148409
 21
107753.7266698658
 31
0.0
  0
LINE
  5
5F74D
330
1F
100
AcDbEntity
  8
freecads.com
100
AcDbLine
 10
115025.4185151482
 20
107753.7266698658
 30
0.0
 11
115025.5936983533
 21
107753.7266698658
 31
0.0
  0
LINE
  5
5F74E
330
1F
100
AcDbEntity
  8
freecads.com
100
AcDbLine
 10
115025.6258074477
 20
107753.7266698658
 30
0.0
 11
115025.7997619907
 21
107753.7266698658
 31
0.0
  0
LINE
  5
5F74F
330
1F
100
AcDbEntity
  8
freecads.com
100
AcDbLine
 10
115025.8329085829
 20
107753.7266698658
 30
0.0
 11
115026.0064683594
 21
107753.7266698658
 31
0.0
  0
LINE
  5
5F750
330
1F
100
AcDbEntity
  8
freecads.com
100
AcDbLine
 10
115026.0397912505
 20
107753.7266698658
 30
0.0
 11
115026.2137791279
 21
107753.7266698658
 31
0.0
  0
LINE
  5
5F751
330
1F
100
AcDbEntity
  8
freecads.com
100
AcDbLine
 10
115026.2464281466
 20
107753.7266698658
 30
0.0
 11
115026.4216551352
 21
107753.7266698658
 31
0.0
  0
LINE
  5
5F752
330
1F
100
AcDbEntity
  8
freecads.com
100
AcDbLine
 10
115026.4527919678
 20
107753.7266698658
 30
0.0
 11
115028.3110732296
 21
107753.7266698658
 31
0.0
  0
LINE
  5
5F753
330
1F
100
AcDbEntity
  8
freecads.com
100
AcDbLine
 10
115028.3389401273
 20
107753.7266698658
 30
0.0
 11
115028.5222555564
 21
107753.7266698658
 31
0.0
  0
LINE
  5
5F754
330
1F
100
AcDbEntity
  8
freecads.com
100
AcDbLine
 10
115028.5523333348
 20
107753.7266698658
 30
0.0
 11
115028.7335162245
 21
107753.7266698658
 31
0.0
  0
LINE
  5
5F755
330
1F
100
AcDbEntity
  8
freecads.com
100
AcDbLine
 10
115028.7650835965
 20
107753.7266698658
 30
0.0
 11
115028.9448064127
 21
107753.7266698658
 31
0.0
  0
LINE
  5
5F756
330
1F
100
AcDbEntity
  8
freecads.com
100
AcDbLine
 10
115028.9771598382
 20
107753.7266698658
 30
0.0
 11
115029.156076642
 21
107753.7266698658
 31
0.0
  0
LINE
  5
5F757
330
1F
100
AcDbEntity
  8
freecads.com
100
AcDbLine
 10
115029.1885309859
 20
107753.7266698658
 30
0.0
 11
115029.3672768037
 21
107753.7266698658
 31
0.0
  0
LINE
  5
5F758
330
1F
100
AcDbEntity
  8
freecads.com
100
AcDbLine
 10
115029.3991659652
 20
107753.7266698658
 30
0.0
 11
115029.578356189
 21
107753.7266698658
 31
0.0
  0
LINE
  5
5F759
330
1F
100
AcDbEntity
  8
freecads.com
100
AcDbLine
 10
115029.6090337022
 20
107753.7266698658
 30
0.0
 11
115029.7892635197
 21
107753.7266698658
 31
0.0
  0
LINE
  5
5F75A
330
1F
100
AcDbEntity
  8
freecads.com
100
AcDbLine
 10
115029.8181031226
 20
107753.7266698658
 30
0.0
 11
115029.9999469804
 21
107753.7266698658
 31
0.0
  0
LINE
  5
5F75B
330
1F
100
AcDbEntity
  8
freecads.com
100
AcDbLine
 10
115030.0263431523
 20
107753.7266698658
 30
0.0
 11
115031.6709875898
 21
107753.7266698658
 31
0.0
  0
LINE
  5
5F75C
330
1F
100
AcDbEntity
  8
freecads.com
100
AcDbLine
 10
115031.6905351615
 20
107753.7266698658
 30
0.0
 11
115031.8772532425
 21
107753.7266698658
 31
0.0
  0
LINE
  5
5F75D
330
1F
100
AcDbEntity
  8
freecads.com
100
AcDbLine
 10
115031.8976678501
 20
107753.7266698658
 30
0.0
 11
115032.0827551969
 21
107753.7266698658
 31
0.0
  0
LINE
  5
5F75E
330
1F
100
AcDbEntity
  8
freecads.com
100
AcDbLine
 10
115032.1035742819
 20
107753.7266698658
 30
0.0
 11
115032.2874381656
 21
107753.7266698658
 31
0.0
  0
LINE
  5
5F75F
330
1F
100
AcDbEntity
  8
freecads.com
100
AcDbLine
 10
115032.3082221547
 20
107753.7266698658
 30
0.0
 11
115032.4912467932
 21
107753.7266698658
 31
0.0
  0
LINE
  5
5F760
330
1F
100
AcDbEntity
  8
freecads.com
100
AcDbLine
 10
115032.5115791664
 20
107753.7266698658
 30
0.0
 11
115032.6941257002
 21
107753.7266698658
 31
0.0
  0
LINE
  5
5F761
330
1F
100
AcDbEntity
  8
freecads.com
100
AcDbLine
 10
115032.7136130149
 20
107753.7266698658
 30
0.0
 11
115032.8960195288
 21
107753.7266698658
 31
0.0
  0
LINE
  5
5F762
330
1F
100
AcDbEntity
  8
freecads.com
100
AcDbLine
 10
115032.9142913981
 20
107753.7266698658
 30
0.0
 11
115033.0968729885
 21
107753.7266698658
 31
0.0
  0
LINE
  5
5F763
330
1F
100
AcDbEntity
  8
freecads.com
100
AcDbLine
 10
115033.1135820138
 20
107753.7266698658
 30
0.0
 11
115035.0361647189
 21
107753.7266698658
 31
0.0
  0
LINE
  5
5F764
330
1F
100
AcDbEntity
  8
freecads.com
100
AcDbLine
 10
115035.0429292569
 20
107753.7266698658
 30
0.0
 11
115035.221990892
 21
107753.7266698658
 31
0.0
  0
LINE
  5
5F765
330
1F
100
AcDbEntity
  8
freecads.com
100
AcDbLine
 10
115035.2286140993
 20
107753.7266698658
 30
0.0
 11
115035.4061354699
 21
107753.7266698658
 31
0.0
  0
LINE
  5
5F766
330
1F
100
AcDbEntity
  8
freecads.com
100
AcDbLine
 10
115035.4124676153
 20
107753.7266698658
 30
0.0
 11
115035.5885482914
 21
107753.7266698658
 31
0.0
  0
LINE
  5
5F767
330
1F
100
AcDbEntity
  8
freecads.com
100
AcDbLine
 10
115035.5944597232
 20
107753.7266698658
 30
0.0
 11
115035.7691799132
 21
107753.7266698658
 31
0.0
  0
LINE
  5
5F768
330
1F
100
AcDbEntity
  8
freecads.com
100
AcDbLine
 10
115035.7745603413
 20
107753.7266698658
 30
0.0
 11
115035.9479816535
 21
107753.7266698658
 31
0.0
  0
LINE
  5
5F769
330
1F
100
AcDbEntity
  8
freecads.com
100
AcDbLine
 10
115035.9527393878
 20
107753.7266698658
 30
0.0
 11
115036.1249056353
 21
107753.7266698658
 31
0.0
  0
LINE
  5
5F76A
330
1F
100
AcDbEntity
  8
freecads.com
100
AcDbLine
 10
115036.1289667813
 20
107753.7266698658
 30
0.0
 11
115036.2999048286
 21
107753.7266698658
 31
0.0
  0
LINE
  5
5F76B
330
1F
100
AcDbEntity
  8
freecads.com
100
AcDbLine
 10
115036.3032124398
 20
107753.7266698658
 30
0.0
 11
115036.8137581896
 21
107753.7266698658
 31
0.0
  0
LINE
  5
5F76C
330
1F
100
AcDbEntity
  8
freecads.com
100
AcDbLine
 10
115036.8967671425
 20
107753.7266698658
 30
0.0
 11
115037.4672510738
 21
107753.7266698658
 31
0.0
  0
LINE
  5
5F76D
330
1F
100
AcDbEntity
  8
freecads.com
100
AcDbLine
 10
115038.9350984966
 20
107753.7266698658
 30
0.0
 11
115038.9397085223
 21
107753.7266698658
 31
0.0
  0
LINE
  5
5F76E
330
1F
100
AcDbEntity
  8
freecads.com
100
AcDbLine
 10
115039.0690429566
 20
107753.7266698658
 30
0.0
 11
115039.0732081349
 21
107753.7266698658
 31
0.0
  0
LINE
  5
5F76F
330
1F
100
AcDbEntity
  8
freecads.com
100
AcDbLine
 10
115039.2005130616
 20
107753.7266698658
 30
0.0
 11
115039.2040978951
 21
107753.7266698658
 31
0.0
  0
LINE
  5
5F770
330
1F
100
AcDbEntity
  8
freecads.com
100
AcDbLine
 10
115039.3294843678
 20
107753.7266698658
 30
0.0
 11
115039.4579567454
 21
107753.7266698658
 31
0.0
  0
LINE
  5
5F771
330
1F
100
AcDbEntity
  8
freecads.com
100
AcDbLine
 10
115039.5746395592
 20
107753.7266698658
 30
0.0
 11
115039.5808838333
 21
107753.7266698658
 31
0.0
  0
LINE
  5
5F772
330
1F
100
AcDbEntity
  8
freecads.com
100
AcDbLine
 10
115039.6935493058
 20
107753.7266698658
 30
0.0
 11
115039.7011170914
 21
107753.7266698658
 31
0.0
  0
LINE
  5
5F773
330
1F
100
AcDbEntity
  8
freecads.com
100
AcDbLine
 10
115039.8099915431
 20
107753.7266698658
 30
0.0
 11
115039.8186391182
 21
107753.7266698658
 31
0.0
  0
LINE
  5
5F774
330
1F
100
AcDbEntity
  8
freecads.com
100
AcDbLine
 10
115039.9239495636
 20
107753.7266698658
 30
0.0
 11
115039.9334339596
 21
107753.7266698658
 31
0.0
  0
LINE
  5
5F775
330
1F
100
AcDbEntity
  8
freecads.com
100
AcDbLine
 10
115040.0354066598
 20
107753.7266698658
 30
0.0
 11
115040.0454871095
 21
107753.7266698658
 31
0.0
  0
LINE
  5
5F776
330
1F
100
AcDbEntity
  8
freecads.com
100
AcDbLine
 10
115040.1443461242
 20
107753.7266698658
 30
0.0
 11
115040.1547855101
 21
107753.7266698658
 31
0.0
  0
LINE
  5
5F777
330
1F
100
AcDbEntity
  8
freecads.com
100
AcDbLine
 10
115040.2507512493
 20
107753.7266698658
 30
0.0
 11
115040.2613175494
 21
107753.7266698658
 31
0.0
  0
LINE
  5
5F778
330
1F
100
AcDbEntity
  8
freecads.com
100
AcDbLine
 10
115040.3546053276
 20
107753.7266698658
 30
0.0
 11
115040.3650730582
 21
107753.7266698658
 31
0.0
  0
LINE
  5
5F779
330
1F
100
AcDbEntity
  8
freecads.com
100
AcDbLine
 10
115040.4558916517
 20
107753.7266698658
 30
0.0
 11
115040.4660433036
 21
107753.7266698658
 31
0.0
  0
LINE
  5
5F77A
330
1F
100
AcDbEntity
  8
freecads.com
100
AcDbLine
 10
115040.554593514
 20
107753.7266698658
 30
0.0
 11
115040.5642209822
 21
107753.7266698658
 31
0.0
  0
LINE
  5
5F77B
330
1F
100
AcDbEntity
  8
freecads.com
100
AcDbLine
 10
115040.6506942072
 20
107753.7266698658
 30
0.0
 11
115040.6596002115
 21
107753.7266698658
 31
0.0
  0
LINE
  5
5F77C
330
1F
100
AcDbEntity
  8
freecads.com
100
AcDbLine
 10
115040.7441770236
 20
107753.7266698658
 30
0.0
 11
115040.7521765193
 21
107753.7266698658
 31
0.0
  0
LINE
  5
5F77D
330
1F
100
AcDbEntity
  8
freecads.com
100
AcDbLine
 10
115040.8350252558
 20
107753.7266698658
 30
0.0
 11
115040.8419468311
 21
107753.7266698658
 31
0.0
  0
LINE
  5
5F77E
330
1F
100
AcDbEntity
  8
freecads.com
100
AcDbLine
 10
115040.9232221963
 20
107753.7266698658
 30
0.0
 11
115040.9289094576
 21
107753.7266698658
 31
0.0
  0
LINE
  5
5F77F
330
1F
100
AcDbEntity
  8
freecads.com
100
AcDbLine
 10
115041.0087511377
 20
107753.7266698658
 30
0.0
 11
115041.0130640785
 21
107753.7266698658
 31
0.0
  0
LINE
  5
5F780
330
1F
100
AcDbEntity
  8
freecads.com
100
AcDbLine
 10
115041.0884735917
 20
107753.7266698658
 30
0.0
 11
115041.0944117271
 21
107753.7266698658
 31
0.0
  0
LINE
  5
5F781
330
1F
100
AcDbEntity
  8
freecads.com
100
AcDbLine
 10
115041.1657041182
 20
107753.7266698658
 30
0.0
 11
115041.1729547714
 21
107753.7266698658
 31
0.0
  0
LINE
  5
5F782
330
1F
100
AcDbEntity
  8
freecads.com
100
AcDbLine
 10
115041.2404338187
 20
107753.7266698658
 30
0.0
 11
115041.2486968957
 21
107753.7266698658
 31
0.0
  0
LINE
  5
5F783
330
1F
100
AcDbEntity
  8
freecads.com
100
AcDbLine
 10
115041.3126537948
 20
107753.7266698658
 30
0.0
 11
115041.3216430797
 21
107753.7266698658
 31
0.0
  0
LINE
  5
5F784
330
1F
100
AcDbEntity
  8
freecads.com
100
AcDbLine
 10
115041.3823551479
 20
107753.7266698658
 30
0.0
 11
115041.3917995772
 21
107753.7266698658
 31
0.0
  0
LINE
  5
5F785
330
1F
100
AcDbEntity
  8
freecads.com
100
AcDbLine
 10
115041.4495289794
 20
107753.7266698658
 30
0.0
 11
115041.4591738929
 21
107753.7266698658
 31
0.0
  0
LINE
  5
5F786
330
1F
100
AcDbEntity
  8
freecads.com
100
AcDbLine
 10
115041.5141663909
 20
107753.7266698658
 30
0.0
 11
115041.5237747588
 21
107753.7266698658
 31
0.0
  0
LINE
  5
5F787
330
1F
100
AcDbEntity
  8
freecads.com
100
AcDbLine
 10
115041.5762584837
 20
107753.7266698658
 30
0.0
 11
115041.5856121022
 21
107753.7266698658
 31
0.0
  0
LINE
  5
5F788
330
1F
100
AcDbEntity
  8
freecads.com
100
AcDbLine
 10
115041.6357963595
 20
107753.7266698658
 30
0.0
 11
115041.6446970485
 21
107753.7266698658
 31
0.0
  0
LINE
  5
5F789
330
1F
100
AcDbEntity
  8
freecads.com
100
AcDbLine
 10
115041.6927711197
 20
107753.7266698658
 30
0.0
 11
115041.7010418506
 21
107753.7266698658
 31
0.0
  0
LINE
  5
5F78A
330
1F
100
AcDbEntity
  8
freecads.com
100
AcDbLine
 10
115041.7471738657
 20
107753.7266698658
 30
0.0
 11
115041.754659891
 21
107753.7266698658
 31
0.0
  0
LINE
  5
5F78B
330
1F
100
AcDbEntity
  8
freecads.com
100
AcDbLine
 10
115041.798995699
 20
107753.7266698658
 30
0.0
 11
115041.8055656457
 21
107753.7266698658
 31
0.0
  0
LINE
  5
5F78C
330
1F
100
AcDbEntity
  8
freecads.com
100
AcDbLine
 10
115041.8482277211
 20
107753.7266698658
 30
0.0
 11
115041.8537746551
 21
107753.7266698658
 31
0.0
  0
LINE
  5
5F78D
330
1F
100
AcDbEntity
  8
freecads.com
100
AcDbLine
 10
115041.8948610335
 20
107753.7266698658
 30
0.0
 11
115041.8993035001
 21
107753.7266698658
 31
0.0
  0
LINE
  5
5F78E
330
1F
100
AcDbEntity
  8
freecads.com
100
AcDbLine
 10
115041.9388867377
 20
107753.7266698658
 30
0.0
 11
115041.9421697492
 21
107753.7266698658
 31
0.0
  0
LINE
  5
5F78F
330
1F
100
AcDbEntity
  8
freecads.com
100
AcDbLine
 10
115041.980295935
 20
107753.7266698658
 30
0.0
 11
115041.9823919612
 21
107753.7266698658
 31
0.0
  0
LINE
  5
5F790
330
1F
100
AcDbEntity
  8
freecads.com
100
AcDbLine
 10
115042.0170761959
 20
107753.7266698658
 30
0.0
 11
115042.0199896328
 21
107753.7266698658
 31
0.0
  0
LINE
  5
5F791
330
1F
100
AcDbEntity
  8
freecads.com
100
AcDbLine
 10
115042.0515014649
 20
107753.7266698658
 30
0.0
 11
115042.0549831645
 21
107753.7266698658
 31
0.0
  0
LINE
  5
5F792
330
1F
100
AcDbEntity
  8
freecads.com
100
AcDbLine
 10
115042.0835692718
 20
107753.7266698658
 30
0.0
 11
115042.0873938456
 21
107753.7266698658
 31
0.0
  0
LINE
  5
5F793
330
1F
100
AcDbEntity
  8
freecads.com
100
AcDbLine
 10
115042.1132771465
 20
107753.7266698658
 30
0.0
 11
115042.1172438024
 21
107753.7266698658
 31
0.0
  0
LINE
  5
5F794
330
1F
100
AcDbEntity
  8
freecads.com
100
AcDbLine
 10
115042.1406226189
 20
107753.7266698658
 30
0.0
 11
115042.1445559782
 21
107753.7266698658
 31
0.0
  0
LINE
  5
5F795
330
1F
100
AcDbEntity
  8
freecads.com
100
AcDbLine
 10
115042.1656032188
 20
107753.7266698658
 30
0.0
 11
115042.1693540963
 21
107753.7266698658
 31
0.0
  0
LINE
  5
5F796
330
1F
100
AcDbEntity
  8
freecads.com
100
AcDbLine
 10
115042.188216476
 20
107753.7266698658
 30
0.0
 11
115042.1916626276
 21
107753.7266698658
 31
0.0
  0
LINE
  5
5F797
330
1F
100
AcDbEntity
  8
freecads.com
100
AcDbLine
 10
115042.2084599205
 20
107753.7266698658
 30
0.0
 11
115042.2115067576
 21
107753.7266698658
 31
0.0
  0
LINE
  5
5F798
330
1F
100
AcDbEntity
  8
freecads.com
100
AcDbLine
 10
115042.226331082
 20
107753.7266698658
 30
0.0
 11
115042.2289123538
 21
107753.7266698658
 31
0.0
  0
LINE
  5
5F799
330
1F
100
AcDbEntity
  8
freecads.com
100
AcDbLine
 10
115042.2418274906
 20
107753.7266698658
 30
0.0
 11
115042.2439059323
 21
107753.7266698658
 31
0.0
  0
LINE
  5
5F79A
330
1F
100
AcDbEntity
  8
freecads.com
100
AcDbLine
 10
115042.2549466759
 20
107753.7266698658
 30
0.0
 11
115042.2565146256
 21
107753.7266698658
 31
0.0
  0
LINE
  5
5F79B
330
1F
100
AcDbEntity
  8
freecads.com
100
AcDbLine
 10
115042.2656861679
 20
107753.7266698658
 30
0.0
 11
115042.2667661493
 21
107753.7266698658
 31
0.0
  0
LINE
  5
5F79C
330
1F
100
AcDbEntity
  8
freecads.com
100
AcDbLine
 10
115042.2704048228
 20
107753.7266698658
 30
0.0
 11
115042.2847977995
 21
107753.7266698658
 31
0.0
  0
LINE
  5
5F79D
330
1F
100
AcDbEntity
  8
freecads.com
100
AcDbLine
 10
115042.0272925324
 20
107753.9825753776
 30
0.0
 11
115006.3172544917
 21
107753.9825753776
 31
0.0
  0
LINE
  5
5F79E
330
1F
100
AcDbEntity
  8
freecads.com
100
AcDbLine
 10
115042.0485762425
 20
107751.7384808894
 30
0.0
 11
115006.2959706989
 21
107751.7384808894
 31
0.0
  0
LINE
  5
5F79F
330
1F
100
AcDbEntity
  8
freecads.com
100
AcDbLine
 10
115028.1422500783
 20
107735.8278971172
 30
0.0
 11
115024.7628172475
 21
107735.827903417
 31
0.0
  0
LINE
  5
5F7A0
330
1F
100
AcDbEntity
  8
freecads.com
100
AcDbLine
 10
115024.7628172475
 20
107735.5760561259
 30
0.0
 11
115028.1422502566
 21
107735.5760498261
 31
0.0
  0
LINE
  5
5F7A1
330
1F
100
AcDbEntity
  8
freecads.com
100
AcDbLine
 10
115024.7629325346
 20
107750.5328613528
 30
0.0
 11
115024.7629325346
 21
107749.0354849534
 31
0.0
  0
LINE
  5
5F7A2
330
1F
100
AcDbEntity
  8
freecads.com
100
AcDbLine
 10
115024.7629325346
 20
107738.3122501484
 30
0.0
 11
115024.7629325346
 21
107736.9829468255
 31
0.0
  0
LINE
  5
5F7A3
330
1F
100
AcDbEntity
  8
freecads.com
100
AcDbLine
 10
115024.7629325346
 20
107735.5788673534
 30
0.0
 11
115024.7629325346
 21
107735.5760498261
 31
0.0
  0
LINE
  5
5F7A4
330
1F
100
AcDbEntity
  8
freecads.com
100
AcDbLine
 10
115042.284797022
 20
107751.9747013619
 30
0.0
 11
115042.2611686791
 21
107751.9747013619
 31
0.0
  0
LINE
  5
5F7A5
330
1F
100
AcDbEntity
  8
freecads.com
100
AcDbLine
 10
115042.2565146256
 20
107751.9747013619
 30
0.0
 11
115042.2551592841
 21
107751.9747013619
 31
0.0
  0
LINE
  5
5F7A6
330
1F
100
AcDbEntity
  8
freecads.com
100
AcDbLine
 10
115042.2439059323
 20
107751.9747013619
 30
0.0
 11
115042.2421327333
 21
107751.9747013619
 31
0.0
  0
LINE
  5
5F7A7
330
1F
100
AcDbEntity
  8
freecads.com
100
AcDbLine
 10
115042.2289123538
 20
107751.9747013619
 30
0.0
 11
115042.2267455046
 21
107751.9747013619
 31
0.0
  0
LINE
  5
5F7A8
330
1F
100
AcDbEntity
  8
freecads.com
100
AcDbLine
 10
115042.2115067576
 20
107751.9747013619
 30
0.0
 11
115042.209000022
 21
107751.9747013619
 31
0.0
  0
LINE
  5
5F7A9
330
1F
100
AcDbEntity
  8
freecads.com
100
AcDbLine
 10
115042.1916626276
 20
107751.9747013619
 30
0.0
 11
115042.1888987098
 21
107751.9747013619
 31
0.0
  0
LINE
  5
5F7AA
330
1F
100
AcDbEntity
  8
freecads.com
100
AcDbLine
 10
115042.1693540963
 20
107751.9747013619
 30
0.0
 11
115042.1664439921
 21
107751.9747013619
 31
0.0
  0
LINE
  5
5F7AB
330
1F
100
AcDbEntity
  8
freecads.com
100
AcDbLine
 10
115042.1445559782
 20
107751.9747013619
 30
0.0
 11
115042.1416382931
 21
107751.9747013619
 31
0.0
  0
LINE
  5
5F7AC
330
1F
100
AcDbEntity
  8
freecads.com
100
AcDbLine
 10
115042.1172438024
 20
107751.9747013619
 30
0.0
 11
115042.114484037
 21
107751.9747013619
 31
0.0
  0
LINE
  5
5F7AD
330
1F
100
AcDbEntity
  8
freecads.com
100
AcDbLine
 10
115042.0873938472
 20
107751.9747013619
 30
0.0
 11
115042.0849836479
 21
107751.9747013619
 31
0.0
  0
LINE
  5
5F7AE
330
1F
100
AcDbEntity
  8
freecads.com
100
AcDbLine
 10
115042.0549831656
 20
107751.9747013619
 30
0.0
 11
115041.941161036
 21
107751.9747013619
 31
0.0
  0
LINE
  5
5F7AF
330
1F
100
AcDbEntity
  8
freecads.com
100
AcDbLine
 10
115041.8993034983
 20
107751.9747013619
 30
0.0
 11
115041.8972754105
 21
107751.9747013619
 31
0.0
  0
LINE
  5
5F7B0
330
1F
100
AcDbEntity
  8
freecads.com
100
AcDbLine
 10
115041.8537746584
 20
107751.9747013619
 30
0.0
 11
115041.8507819412
 21
107751.9747013619
 31
0.0
  0
LINE
  5
5F7B1
330
1F
100
AcDbEntity
  8
freecads.com
100
AcDbLine
 10
115041.8055656488
 20
107751.9747013619
 30
0.0
 11
115041.8016895212
 21
107751.9747013619
 31
0.0
  0
LINE
  5
5F7B2
330
1F
100
AcDbEntity
  8
freecads.com
100
AcDbLine
 10
115041.7546598942
 20
107751.9747013619
 30
0.0
 11
115041.7500070434
 21
107751.9747013619
 31
0.0
  0
LINE
  5
5F7B3
330
1F
100
AcDbEntity
  8
freecads.com
100
AcDbLine
 10
115041.7010418541
 20
107751.9747013619
 30
0.0
 11
115041.6957434008
 21
107751.9747013619
 31
0.0
  0
LINE
  5
5F7B4
330
1F
100
AcDbEntity
  8
freecads.com
100
AcDbLine
 10
115041.6446970524
 20
107751.9747013619
 30
0.0
 11
115041.6389074862
 21
107751.9747013619
 31
0.0
  0
LINE
  5
5F7B5
330
1F
100
AcDbEntity
  8
freecads.com
100
AcDbLine
 10
115041.5856121067
 20
107751.9747013619
 30
0.0
 11
115041.5795081928
 21
107751.9747013619
 31
0.0
  0
LINE
  5
5F7B6
330
1F
100
AcDbEntity
  8
freecads.com
100
AcDbLine
 10
115041.5237747564
 20
107751.9747013619
 30
0.0
 11
115041.5175544097
 21
107751.9747013619
 31
0.0
  0
LINE
  5
5F7B7
330
1F
100
AcDbEntity
  8
freecads.com
100
AcDbLine
 10
115041.4591738908
 20
107751.9747013619
 30
0.0
 11
115041.4530550418
 21
107751.9747013619
 31
0.0
  0
LINE
  5
5F7B8
330
1F
100
AcDbEntity
  8
freecads.com
100
AcDbLine
 10
115041.3917995755
 20
107751.9747013619
 30
0.0
 11
115041.3860189701
 21
107751.9747013619
 31
0.0
  0
LINE
  5
5F7B9
330
1F
100
AcDbEntity
  8
freecads.com
100
AcDbLine
 10
115041.3216430785
 20
107751.9747013619
 30
0.0
 11
115041.3164550912
 21
107751.9747013619
 31
0.0
  0
LINE
  5
5F7BA
330
1F
100
AcDbEntity
  8
freecads.com
100
AcDbLine
 10
115041.2486968948
 20
107751.9747013619
 30
0.0
 11
115041.2443722982
 21
107751.9747013619
 31
0.0
  0
LINE
  5
5F7BB
330
1F
100
AcDbEntity
  8
freecads.com
100
AcDbLine
 10
115041.1729547709
 20
107751.9747013619
 30
0.0
 11
115040.9275537656
 21
107751.9747013619
 31
0.0
  0
LINE
  5
5F7BC
330
1F
100
AcDbEntity
  8
freecads.com
100
AcDbLine
 10
115040.8419468309
 20
107751.9747013619
 30
0.0
 11
115040.8393300983
 21
107751.9747013619
 31
0.0
  0
LINE
  5
5F7BD
330
1F
100
AcDbEntity
  8
freecads.com
100
AcDbLine
 10
115040.752176519
 20
107751.9747013619
 30
0.0
 11
115040.7484451329
 21
107751.9747013619
 31
0.0
  0
LINE
  5
5F7BE
330
1F
100
AcDbEntity
  8
freecads.com
100
AcDbLine
 10
115040.6596002112
 20
107751.9747013619
 30
0.0
 11
115040.6549156397
 21
107751.9747013619
 31
0.0
  0
LINE
  5
5F7BF
330
1F
100
AcDbEntity
  8
freecads.com
100
AcDbLine
 10
115040.5642209818
 20
107751.9747013619
 30
0.0
 11
115040.5587583892
 21
107751.9747013619
 31
0.0
  0
LINE
  5
5F7C0
330
1F
100
AcDbEntity
  8
freecads.com
100
AcDbLine
 10
115040.4660433032
 20
107751.9747013619
 30
0.0
 11
115040.4599901518
 21
107751.9747013619
 31
0.0
  0
LINE
  5
5F7C1
330
1F
100
AcDbEntity
  8
freecads.com
100
AcDbLine
 10
115040.3650730579
 20
107751.9747013619
 30
0.0
 11
115040.358627698
 21
107751.9747013619
 31
0.0
  0
LINE
  5
5F7C2
330
1F
100
AcDbEntity
  8
freecads.com
100
AcDbLine
 10
115040.2613175492
 20
107751.9747013619
 30
0.0
 11
115040.2546877982
 21
107751.9747013619
 31
0.0
  0
LINE
  5
5F7C3
330
1F
100
AcDbEntity
  8
freecads.com
100
AcDbLine
 10
115040.1547855098
 20
107751.9747013619
 30
0.0
 11
115040.1481872229
 21
107751.9747013619
 31
0.0
  0
LINE
  5
5F7C4
330
1F
100
AcDbEntity
  8
freecads.com
100
AcDbLine
 10
115040.0454871093
 20
107751.9747013619
 30
0.0
 11
115040.0391427424
 21
107751.9747013619
 31
0.0
  0
LINE
  5
5F7C5
330
1F
100
AcDbEntity
  8
freecads.com
100
AcDbLine
 10
115039.9334339595
 20
107751.9747013619
 30
0.0
 11
115039.9275711273
 21
107751.9747013619
 31
0.0
  0
LINE
  5
5F7C6
330
1F
100
AcDbEntity
  8
freecads.com
100
AcDbLine
 10
115039.8186391181
 20
107751.9747013619
 30
0.0
 11
115039.8134891479
 21
107751.9747013619
 31
0.0
  0
LINE
  5
5F7C7
330
1F
100
AcDbEntity
  8
freecads.com
100
AcDbLine
 10
115039.7011170913
 20
107751.9747013619
 30
0.0
 11
115039.6969135747
 21
107751.9747013619
 31
0.0
  0
LINE
  5
5F7C8
330
1F
100
AcDbEntity
  8
freecads.com
100
AcDbLine
 10
115039.5808838311
 20
107751.9747013619
 30
0.0
 11
115039.0716888331
 21
107751.9747013619
 31
0.0
  0
LINE
  5
5F7C9
330
1F
100
AcDbEntity
  8
freecads.com
100
AcDbLine
 10
115038.9397085259
 20
107751.9747013619
 30
0.0
 11
115038.9376016477
 21
107751.9747013619
 31
0.0
  0
LINE
  5
5F7CA
330
1F
100
AcDbEntity
  8
freecads.com
100
AcDbLine
 10
115037.467251072
 20
107751.9747013619
 30
0.0
 11
115036.8966523515
 21
107751.9747013619
 31
0.0
  0
LINE
  5
5F7CB
330
1F
100
AcDbEntity
  8
freecads.com
100
AcDbLine
 10
115036.8135241856
 20
107751.9747013619
 30
0.0
 11
115036.302227299
 21
107751.9747013619
 31
0.0
  0
LINE
  5
5F7CC
330
1F
100
AcDbEntity
  8
freecads.com
100
AcDbLine
 10
115036.2999048281
 20
107751.9747013619
 30
0.0
 11
115036.1277198334
 21
107751.9747013619
 31
0.0
  0
LINE
  5
5F7CD
330
1F
100
AcDbEntity
  8
freecads.com
100
AcDbLine
 10
115035.4061354695
 20
107751.9747013619
 30
0.0
 11
115035.2259790947
 21
107751.9747013619
 31
0.0
  0
LINE
  5
5F7CE
330
1F
100
AcDbEntity
  8
freecads.com
100
AcDbLine
 10
115035.2219908917
 20
107751.9747013619
 30
0.0
 11
115035.0400019189
 21
107751.9747013619
 31
0.0
  0
LINE
  5
5F7CF
330
1F
100
AcDbEntity
  8
freecads.com
100
AcDbLine
 10
115035.0361647185
 20
107751.9747013619
 30
0.0
 11
115034.852218947
 21
107751.9747013619
 31
0.0
  0
LINE
  5
5F7D0
330
1F
100
AcDbEntity
  8
freecads.com
100
AcDbLine
 10
115034.8487077844
 20
107751.9747013619
 30
0.0
 11
115033.1071868599
 21
107751.9747013619
 31
0.0
  0
LINE
  5
5F7D1
330
1F
100
AcDbEntity
  8
freecads.com
100
AcDbLine
 10
115033.0968729882
 20
107751.9747013619
 30
0.0
 11
115032.9074955624
 21
107751.9747013619
 31
0.0
  0
LINE
  5
5F7D2
330
1F
100
AcDbEntity
  8
freecads.com
100
AcDbLine
 10
115032.8960195286
 20
107751.9747013619
 30
0.0
 11
115032.7064127093
 21
107751.9747013619
 31
0.0
  0
LINE
  5
5F7D3
330
1F
100
AcDbEntity
  8
freecads.com
100
AcDbLine
 10
115032.6941257
 20
107751.9747013619
 30
0.0
 11
115032.5039707614
 21
107751.9747013619
 31
0.0
  0
LINE
  5
5F7D4
330
1F
100
AcDbEntity
  8
freecads.com
100
AcDbLine
 10
115032.491246793
 20
107751.9747013619
 30
0.0
 11
115032.3002021866
 21
107751.9747013619
 31
0.0
  0
LINE
  5
5F7D5
330
1F
100
AcDbEntity
  8
freecads.com
100
AcDbLine
 10
115032.2874381654
 20
107751.9747013619
 30
0.0
 11
115032.0951394736
 21
107751.9747013619
 31
0.0
  0
LINE
  5
5F7D6
330
1F
100
AcDbEntity
  8
freecads.com
100
AcDbLine
 10
115032.0827551966
 20
107751.9747013619
 30
0.0
 11
115031.8888150375
 21
107751.9747013619
 31
0.0
  0
LINE
  5
5F7D7
330
1F
100
AcDbEntity
  8
freecads.com
100
AcDbLine
 10
115031.8772532423
 20
107751.9747013619
 30
0.0
 11
115031.6812613668
 21
107751.9747013619
 31
0.0
  0
LINE
  5
5F7D8
330
1F
100
AcDbEntity
  8
freecads.com
100
AcDbLine
 10
115031.6709875895
 20
107751.9747013619
 30
0.0
 11
115029.806919793
 21
107751.9747013619
 31
0.0
  0
LINE
  5
5F7D9
330
1F
100
AcDbEntity
  8
freecads.com
100
AcDbLine
 10
115029.7892635196
 20
107751.9747013619
 30
0.0
 11
115029.5978154232
 21
107751.9747013619
 31
0.0
  0
LINE
  5
5F7DA
330
1F
100
AcDbEntity
  8
freecads.com
100
AcDbLine
 10
115029.5783561889
 20
107751.9747013619
 30
0.0
 11
115029.3879143862
 21
107751.9747013619
 31
0.0
  0
LINE
  5
5F7DB
330
1F
100
AcDbEntity
  8
freecads.com
100
AcDbLine
 10
115029.3672768036
 20
107751.9747013619
 30
0.0
 11
115029.1772477676
 21
107751.9747013619
 31
0.0
  0
LINE
  5
5F7DC
330
1F
100
AcDbEntity
  8
freecads.com
100
AcDbLine
 10
115029.1560766419
 20
107751.9747013619
 30
0.0
 11
115028.9658466532
 21
107751.9747013619
 31
0.0
  0
LINE
  5
5F7DD
330
1F
100
AcDbEntity
  8
freecads.com
100
AcDbLine
 10
115028.9448064127
 20
107751.9747013619
 30
0.0
 11
115028.7537421288
 21
107751.9747013619
 31
0.0
  0
LINE
  5
5F7DE
330
1F
100
AcDbEntity
  8
freecads.com
100
AcDbLine
 10
115028.7335162245
 20
107751.9747013619
 30
0.0
 11
115028.5409652801
 21
107751.9747013619
 31
0.0
  0
LINE
  5
5F7DF
330
1F
100
AcDbEntity
  8
freecads.com
100
AcDbLine
 10
115028.5222555564
 20
107751.9747013619
 30
0.0
 11
115028.3275471928
 21
107751.9747013619
 31
0.0
  0
LINE
  5
5F7E0
330
1F
100
AcDbEntity
  8
freecads.com
100
AcDbLine
 10
115028.3110732295
 20
107751.9747013619
 30
0.0
 11
115027.6784740942
 21
107751.9747013619
 31
0.0
  0
LINE
  5
5F7E1
330
1F
100
AcDbEntity
  8
freecads.com
100
AcDbLine
 10
115027.5732791283
 20
107751.9747013619
 30
0.0
 11
115026.4448309141
 21
107751.9747013619
 31
0.0
  0
LINE
  5
5F7E2
330
1F
100
AcDbEntity
  8
freecads.com
100
AcDbLine
 10
115026.4216551332
 20
107751.9747013619
 30
0.0
 11
115026.2391805406
 21
107751.9747013619
 31
0.0
  0
LINE
  5
5F7E3
330
1F
100
AcDbEntity
  8
freecads.com
100
AcDbLine
 10
115026.2137791269
 20
107751.9747013619
 30
0.0
 11
115026.0332599655
 21
107751.9747013619
 31
0.0
  0
LINE
  5
5F7E4
330
1F
100
AcDbEntity
  8
freecads.com
100
AcDbLine
 10
115026.0064683589
 20
107751.9747013619
 30
0.0
 11
115025.8270962056
 21
107751.9747013619
 31
0.0
  0
LINE
  5
5F7E5
330
1F
100
AcDbEntity
  8
freecads.com
100
AcDbLine
 10
115025.7997619907
 20
107751.9747013619
 30
0.0
 11
115025.6207162774
 21
107751.9747013619
 31
0.0
  0
LINE
  5
5F7E6
330
1F
100
AcDbEntity
  8
freecads.com
100
AcDbLine
 10
115025.5936983536
 20
107751.9747013619
 30
0.0
 11
115025.4141471978
 21
107751.9747013619
 31
0.0
  0
LINE
  5
5F7E7
330
1F
100
AcDbEntity
  8
freecads.com
100
AcDbLine
 10
115025.3883148413
 20
107751.9747013619
 30
0.0
 11
115025.2074159834
 21
107751.9747013619
 31
0.0
  0
LINE
  5
5F7E8
330
1F
100
AcDbEntity
  8
freecads.com
100
AcDbLine
 10
115025.1836479257
 20
107751.9747013619
 30
0.0
 11
115024.9797331497
 21
107751.9747013619
 31
0.0
  0
LINE
  5
5F7E9
330
1F
100
AcDbEntity
  8
freecads.com
100
AcDbLine
 10
115024.7935752173
 20
107751.9747013619
 30
0.0
 11
115023.5509740031
 21
107751.9747013619
 31
0.0
  0
LINE
  5
5F7EA
330
1F
100
AcDbEntity
  8
freecads.com
100
AcDbLine
 10
115023.3648138018
 20
107751.9747013619
 30
0.0
 11
115023.1608990259
 21
107751.9747013619
 31
0.0
  0
LINE
  5
5F7EB
330
1F
100
AcDbEntity
  8
freecads.com
100
AcDbLine
 10
115023.1371328989
 20
107751.9747013619
 30
0.0
 11
115022.9562321104
 21
107751.9747013619
 31
0.0
  0
LINE
  5
5F7EC
330
1F
100
AcDbEntity
  8
freecads.com
100
AcDbLine
 10
115022.9304014609
 20
107751.9747013619
 30
0.0
 11
115022.7508485982
 21
107751.9747013619
 31
0.0
  0
LINE
  5
5F7ED
330
1F
100
AcDbEntity
  8
freecads.com
100
AcDbLine
 10
115022.7238321314
 20
107751.9747013619
 30
0.0
 11
115022.5447849612
 21
107751.9747013619
 31
0.0
  0
LINE
  5
5F7EE
330
1F
100
AcDbEntity
  8
freecads.com
100
AcDbLine
 10
115022.5174519347
 20
107751.9747013619
 30
0.0
 11
115022.338078593
 21
107751.9747013619
 31
0.0
  0
LINE
  5
5F7EF
330
1F
100
AcDbEntity
  8
freecads.com
100
AcDbLine
 10
115022.3112878951
 20
107751.9747013619
 30
0.0
 11
115022.1307678005
 21
107751.9747013619
 31
0.0
  0
LINE
  5
5F7F0
330
1F
100
AcDbEntity
  8
freecads.com
100
AcDbLine
 10
115022.1053670371
 20
107751.9747013619
 30
0.0
 11
115021.9228918188
 21
107751.9747013619
 31
0.0
  0
LINE
  5
5F7F1
330
1F
100
AcDbEntity
  8
freecads.com
100
AcDbLine
 10
115021.8997163848
 20
107751.9747013619
 30
0.0
 11
115020.7712674642
 21
107751.9747013619
 31
0.0
  0
LINE
  5
5F7F2
330
1F
100
AcDbEntity
  8
freecads.com
100
AcDbLine
 10
115020.6660728563
 20
107751.9747013619
 30
0.0
 11
115020.0334737212
 21
107751.9747013619
 31
0.0
  0
LINE
  5
5F7F3
330
1F
100
AcDbEntity
  8
freecads.com
100
AcDbLine
 10
115020.0169989258
 20
107751.9747013619
 30
0.0
 11
115019.8222913944
 21
107751.9747013619
 31
0.0
  0
LINE
  5
5F7F4
330
1F
100
AcDbEntity
  8
freecads.com
100
AcDbLine
 10
115019.8035809079
 20
107751.9747013619
 30
0.0
 11
115019.6110307263
 21
107751.9747013619
 31
0.0
  0
LINE
  5
5F7F5
330
1F
100
AcDbEntity
  8
freecads.com
100
AcDbLine
 10
115019.5908041567
 20
107751.9747013619
 30
0.0
 11
115019.3997405381
 21
107751.9747013619
 31
0.0
  0
LINE
  5
5F7F6
330
1F
100
AcDbEntity
  8
freecads.com
100
AcDbLine
 10
115019.3786997521
 20
107751.9747013619
 30
0.0
 11
115019.1884703088
 21
107751.9747013619
 31
0.0
  0
LINE
  5
5F7F7
330
1F
100
AcDbEntity
  8
freecads.com
100
AcDbLine
 10
115019.1672987742
 20
107751.9747013619
 30
0.0
 11
115018.9772701471
 21
107751.9747013619
 31
0.0
  0
LINE
  5
5F7F8
330
1F
100
AcDbEntity
  8
freecads.com
100
AcDbLine
 10
115018.9566323031
 20
107751.9747013619
 30
0.0
 11
115018.7661907618
 21
107751.9747013619
 31
0.0
  0
LINE
  5
5F7F9
330
1F
100
AcDbEntity
  8
freecads.com
100
AcDbLine
 10
115018.7467314189
 20
107751.9747013619
 30
0.0
 11
115018.5552834311
 21
107751.9747013619
 31
0.0
  0
LINE
  5
5F7FA
330
1F
100
AcDbEntity
  8
freecads.com
100
AcDbLine
 10
115018.5376272015
 20
107751.9747013619
 30
0.0
 11
115018.3445999704
 21
107751.9747013619
 31
0.0
  0
LINE
  5
5F7FB
330
1F
100
AcDbEntity
  8
freecads.com
100
AcDbLine
 10
115018.3293507312
 20
107751.9747013619
 30
0.0
 11
115016.6735593612
 21
107751.9747013619
 31
0.0
  0
LINE
  5
5F7FC
330
1F
100
AcDbEntity
  8
freecads.com
100
AcDbLine
 10
115016.6632861342
 20
107751.9747013619
 30
0.0
 11
115016.4672937085
 21
107751.9747013619
 31
0.0
  0
LINE
  5
5F7FD
330
1F
100
AcDbEntity
  8
freecads.com
100
AcDbLine
 10
115016.4557323895
 20
107751.9747013619
 30
0.0
 11
115016.2617917542
 21
107751.9747013619
 31
0.0
  0
LINE
  5
5F7FE
330
1F
100
AcDbEntity
  8
freecads.com
100
AcDbLine
 10
115016.2494078606
 20
107751.9747013619
 30
0.0
 11
115016.0571087854
 21
107751.9747013619
 31
0.0
  0
LINE
  5
5F7FF
330
1F
100
AcDbEntity
  8
freecads.com
100
AcDbLine
 10
115016.044345015
 20
107751.9747013619
 30
0.0
 11
115015.8533001579
 21
107751.9747013619
 31
0.0
  0
LINE
  5
5F800
330
1F
100
AcDbEntity
  8
freecads.com
100
AcDbLine
 10
115015.8405763201
 20
107751.9747013619
 30
0.0
 11
115015.6504212509
 21
107751.9747013619
 31
0.0
  0
LINE
  5
5F801
330
1F
100
AcDbEntity
  8
freecads.com
100
AcDbLine
 10
115015.6381342437
 20
107751.9747013619
 30
0.0
 11
115015.4485274223
 21
107751.9747013619
 31
0.0
  0
LINE
  5
5F802
330
1F
100
AcDbEntity
  8
freecads.com
100
AcDbLine
 10
115015.4370512531
 20
107751.9747013619
 30
0.0
 11
115015.2476739627
 21
107751.9747013619
 31
0.0
  0
LINE
  5
5F803
330
1F
100
AcDbEntity
  8
freecads.com
100
AcDbLine
 10
115015.2373598158
 20
107751.9747013619
 30
0.0
 11
115013.3083822325
 21
107751.9747013619
 31
0.0
  0
LINE
  5
5F804
330
1F
100
AcDbEntity
  8
freecads.com
100
AcDbLine
 10
115013.3045439993
 20
107751.9747013619
 30
0.0
 11
115013.1225560593
 21
107751.9747013619
 31
0.0
  0
LINE
  5
5F805
330
1F
100
AcDbEntity
  8
freecads.com
100
AcDbLine
 10
115013.1185668626
 20
107751.9747013619
 30
0.0
 11
115012.9384114814
 21
107751.9747013619
 31
0.0
  0
LINE
  5
5F806
330
1F
100
AcDbEntity
  8
freecads.com
100
AcDbLine
 10
115012.393321229
 20
107751.9747013619
 30
0.0
 11
115012.2196413159
 21
107751.9747013619
 31
0.0
  0
LINE
  5
5F807
330
1F
100
AcDbEntity
  8
freecads.com
100
AcDbLine
 10
115012.2168267248
 20
107751.9747013619
 30
0.0
 11
115011.5310233812
 21
107751.9747013619
 31
0.0
  0
LINE
  5
5F808
330
1F
100
AcDbEntity
  8
freecads.com
100
AcDbLine
 10
115011.4478953823
 20
107751.9747013619
 30
0.0
 11
115010.8772958781
 21
107751.9747013619
 31
0.0
  0
LINE
  5
5F809
330
1F
100
AcDbEntity
  8
freecads.com
100
AcDbLine
 10
115009.4069493695
 20
107751.9747013619
 30
0.0
 11
115009.4048384244
 21
107751.9747013619
 31
0.0
  0
LINE
  5
5F80A
330
1F
100
AcDbEntity
  8
freecads.com
100
AcDbLine
 10
115009.2728619165
 20
107751.9747013619
 30
0.0
 11
115008.7636631201
 21
107751.9747013619
 31
0.0
  0
LINE
  5
5F80B
330
1F
100
AcDbEntity
  8
freecads.com
100
AcDbLine
 10
115008.6476338607
 20
107751.9747013619
 30
0.0
 11
115008.6434298594
 21
107751.9747013619
 31
0.0
  0
LINE
  5
5F80C
330
1F
100
AcDbEntity
  8
freecads.com
100
AcDbLine
 10
115008.5310573187
 20
107751.9747013619
 30
0.0
 11
115008.5259078326
 21
107751.9747013619
 31
0.0
  0
LINE
  5
5F80D
330
1F
100
AcDbEntity
  8
freecads.com
100
AcDbLine
 10
115008.4169743242
 20
107751.9747013619
 30
0.0
 11
115008.4111129913
 21
107751.9747013619
 31
0.0
  0
LINE
  5
5F80E
330
1F
100
AcDbEntity
  8
freecads.com
100
AcDbLine
 10
115008.3054016732
 20
107751.9747013619
 30
0.0
 11
115008.2990598414
 21
107751.9747013619
 31
0.0
  0
LINE
  5
5F80F
330
1F
100
AcDbEntity
  8
freecads.com
100
AcDbLine
 10
115008.196356162
 20
107751.9747013619
 30
0.0
 11
115008.1897614409
 21
107751.9747013619
 31
0.0
  0
LINE
  5
5F810
330
1F
100
AcDbEntity
  8
freecads.com
100
AcDbLine
 10
115008.0898545866
 20
107751.9747013619
 30
0.0
 11
115008.0832294016
 21
107751.9747013619
 31
0.0
  0
LINE
  5
5F811
330
1F
100
AcDbEntity
  8
freecads.com
100
AcDbLine
 10
115007.9859137432
 20
107751.9747013619
 30
0.0
 11
115007.9794738928
 21
107751.9747013619
 31
0.0
  0
LINE
  5
5F812
330
1F
100
AcDbEntity
  8
freecads.com
100
AcDbLine
 10
115007.8845504278
 20
107751.9747013619
 30
0.0
 11
115007.8785036475
 21
107751.9747013619
 31
0.0
  0
LINE
  5
5F813
330
1F
100
AcDbEntity
  8
freecads.com
100
AcDbLine
 10
115007.7857814366
 20
107751.9747013619
 30
0.0
 11
115007.7803259689
 21
107751.9747013619
 31
0.0
  0
LINE
  5
5F814
330
1F
100
AcDbEntity
  8
freecads.com
100
AcDbLine
 10
115007.6896235656
 20
107751.9747013619
 30
0.0
 11
115007.6849467396
 21
107751.9747013619
 31
0.0
  0
LINE
  5
5F815
330
1F
100
AcDbEntity
  8
freecads.com
100
AcDbLine
 10
115007.5960936111
 20
107751.9747013619
 30
0.0
 11
115007.5923704318
 21
107751.9747013619
 31
0.0
  0
LINE
  5
5F816
330
1F
100
AcDbEntity
  8
freecads.com
100
AcDbLine
 10
115007.505208369
 20
107751.9747013619
 30
0.0
 11
115007.5026001198
 21
107751.9747013619
 31
0.0
  0
LINE
  5
5F817
330
1F
100
AcDbEntity
  8
freecads.com
100
AcDbLine
 10
115007.4169846355
 20
107751.9747013619
 30
0.0
 11
115007.1715921799
 21
107751.9747013619
 31
0.0
  0
LINE
  5
5F818
330
1F
100
AcDbEntity
  8
freecads.com
100
AcDbLine
 10
115007.1001680824
 20
107751.9747013619
 30
0.0
 11
115007.0958500559
 21
107751.9747013619
 31
0.0
  0
LINE
  5
5F819
330
1F
100
AcDbEntity
  8
freecads.com
100
AcDbLine
 10
115007.0280862417
 20
107751.9747013619
 30
0.0
 11
115007.0229038723
 21
107751.9747013619
 31
0.0
  0
LINE
  5
5F81A
330
1F
100
AcDbEntity
  8
freecads.com
100
AcDbLine
 10
115006.9585234418
 20
107751.9747013619
 30
0.0
 11
115006.9527473752
 21
107751.9747013619
 31
0.0
  0
LINE
  5
5F81B
330
1F
100
AcDbEntity
  8
freecads.com
100
AcDbLine
 10
115006.8914885474
 20
107751.9747013619
 30
0.0
 11
115006.8853730599
 21
107751.9747013619
 31
0.0
  0
LINE
  5
5F81C
330
1F
100
AcDbEntity
  8
freecads.com
100
AcDbLine
 10
115006.8269904226
 20
107751.9747013619
 30
0.0
 11
115006.8207721943
 21
107751.9747013619
 31
0.0
  0
LINE
  5
5F81D
330
1F
100
AcDbEntity
  8
freecads.com
100
AcDbLine
 10
115006.7650379319
 20
107751.9747013619
 30
0.0
 11
115006.7589348441
 21
107751.9747013619
 31
0.0
  0
LINE
  5
5F81E
330
1F
100
AcDbEntity
  8
freecads.com
100
AcDbLine
 10
115006.7056399397
 20
107751.9747013619
 30
0.0
 11
115006.6998498983
 21
107751.9747013619
 31
0.0
  0
LINE
  5
5F81F
330
1F
100
AcDbEntity
  8
freecads.com
100
AcDbLine
 10
115006.6488053104
 20
107751.9747013619
 30
0.0
 11
115006.6435050966
 21
107751.9747013619
 31
0.0
  0
LINE
  5
5F820
330
1F
100
AcDbEntity
  8
freecads.com
100
AcDbLine
 10
115006.5945429083
 20
107751.9747013619
 30
0.0
 11
115006.5898870565
 21
107751.9747013619
 31
0.0
  0
LINE
  5
5F821
330
1F
100
AcDbEntity
  8
freecads.com
100
AcDbLine
 10
115006.5428615978
 20
107751.9747013619
 30
0.0
 11
115006.5389813019
 21
107751.9747013619
 31
0.0
  0
LINE
  5
5F822
330
1F
100
AcDbEntity
  8
freecads.com
100
AcDbLine
 10
115006.4937702433
 20
107751.9747013619
 30
0.0
 11
115006.4907722923
 21
107751.9747013619
 31
0.0
  0
LINE
  5
5F823
330
1F
100
AcDbEntity
  8
freecads.com
100
AcDbLine
 10
115006.4472777092
 20
107751.9747013619
 30
0.0
 11
115006.4452434524
 21
107751.9747013619
 31
0.0
  0
LINE
  5
5F824
330
1F
100
AcDbEntity
  8
freecads.com
100
AcDbLine
 10
115006.4033928599
 20
107751.9747013619
 30
0.0
 11
115006.4023772026
 21
107751.9747013619
 31
0.0
  0
LINE
  5
5F825
330
1F
100
AcDbEntity
  8
freecads.com
100
AcDbLine
 10
115006.3822508812
 20
107751.9747013619
 30
0.0
 11
115006.3245573193
 21
107751.9747013619
 31
0.0
  0
LINE
  5
5F826
330
1F
100
AcDbEntity
  8
freecads.com
100
AcDbLine
 10
115006.2914154841
 20
107751.9747013619
 30
0.0
 11
115006.2895637851
 21
107751.9747013619
 31
0.0
  0
LINE
  5
5F827
330
1F
100
AcDbEntity
  8
freecads.com
100
AcDbLine
 10
115006.2595714084
 20
107751.9747013619
 30
0.0
 11
115006.2571531034
 21
107751.9747013619
 31
0.0
  0
LINE
  5
5F828
330
1F
100
AcDbEntity
  8
freecads.com
100
AcDbLine
 10
115006.2300708919
 20
107751.9747013619
 30
0.0
 11
115006.2273031483
 21
107751.9747013619
 31
0.0
  0
LINE
  5
5F829
330
1F
100
AcDbEntity
  8
freecads.com
100
AcDbLine
 10
115006.2029163732
 20
107751.9747013619
 30
0.0
 11
115006.1999909725
 21
107751.9747013619
 31
0.0
  0
LINE
  5
5F82A
330
1F
100
AcDbEntity
  8
freecads.com
100
AcDbLine
 10
115006.1781102907
 20
107751.9747013619
 30
0.0
 11
115006.1751928544
 21
107751.9747013619
 31
0.0
  0
LINE
  5
5F82B
330
1F
100
AcDbEntity
  8
freecads.com
100
AcDbLine
 10
115006.1556550829
 20
107751.9747013619
 30
0.0
 11
115006.1528843232
 21
107751.9747013619
 31
0.0
  0
LINE
  5
5F82C
330
1F
100
AcDbEntity
  8
freecads.com
100
AcDbLine
 10
115006.1355531882
 20
107751.9747013619
 30
0.0
 11
115006.1330401931
 21
107751.9747013619
 31
0.0
  0
LINE
  5
5F82D
330
1F
100
AcDbEntity
  8
freecads.com
100
AcDbLine
 10
115006.1178070451
 20
107751.9747013619
 30
0.0
 11
115006.115634597
 21
107751.9747013619
 31
0.0
  0
LINE
  5
5F82E
330
1F
100
AcDbEntity
  8
freecads.com
100
AcDbLine
 10
115006.1024190921
 20
107751.9747013619
 30
0.0
 11
115006.1006410185
 21
107751.9747013619
 31
0.0
  0
LINE
  5
5F82F
330
1F
100
AcDbEntity
  8
freecads.com
100
AcDbLine
 10
115006.0893917676
 20
107751.9747013619
 30
0.0
 11
115006.0880323252
 21
107751.9747013619
 31
0.0
  0
LINE
  5
5F830
330
1F
100
AcDbEntity
  8
freecads.com
100
AcDbLine
 10
115006.0833799176
 20
107751.9747013619
 30
0.0
 11
115006.0597499192
 21
107751.9747013619
 31
0.0
  0
LINE
  5
5F831
330
1F
100
AcDbEntity
  8
freecads.com
100
AcDbLine
 10
115006.0833799197
 20
107751.9747013619
 30
0.0
 11
115006.0880323252
 21
107751.9747013619
 31
0.0
  0
LINE
  5
5F832
330
1F
100
AcDbEntity
  8
freecads.com
100
AcDbLine
 10
115006.0893917682
 20
107751.9747013619
 30
0.0
 11
115006.1006410185
 21
107751.9747013619
 31
0.0
  0
LINE
  5
5F833
330
1F
100
AcDbEntity
  8
freecads.com
100
AcDbLine
 10
115006.1024190924
 20
107751.9747013619
 30
0.0
 11
115006.115634597
 21
107751.9747013619
 31
0.0
  0
LINE
  5
5F834
330
1F
100
AcDbEntity
  8
freecads.com
100
AcDbLine
 10
115006.1178070453
 20
107751.9747013619
 30
0.0
 11
115006.1330401931
 21
107751.9747013619
 31
0.0
  0
LINE
  5
5F835
330
1F
100
AcDbEntity
  8
freecads.com
100
AcDbLine
 10
115006.1355531883
 20
107751.9747013619
 30
0.0
 11
115006.1528843232
 21
107751.9747013619
 31
0.0
  0
LINE
  5
5F836
330
1F
100
AcDbEntity
  8
freecads.com
100
AcDbLine
 10
115006.1556550829
 20
107751.9747013619
 30
0.0
 11
115006.1751928544
 21
107751.9747013619
 31
0.0
  0
LINE
  5
5F837
330
1F
100
AcDbEntity
  8
freecads.com
100
AcDbLine
 10
115006.1781102907
 20
107751.9747013619
 30
0.0
 11
115006.1999909725
 21
107751.9747013619
 31
0.0
  0
LINE
  5
5F838
330
1F
100
AcDbEntity
  8
freecads.com
100
AcDbLine
 10
115006.2029163732
 20
107751.9747013619
 30
0.0
 11
115006.2273031483
 21
107751.9747013619
 31
0.0
  0
LINE
  5
5F839
330
1F
100
AcDbEntity
  8
freecads.com
100
AcDbLine
 10
115006.2300708919
 20
107751.9747013619
 30
0.0
 11
115006.2571531051
 21
107751.9747013619
 31
0.0
  0
LINE
  5
5F83A
330
1F
100
AcDbEntity
  8
freecads.com
100
AcDbLine
 10
115006.2595714084
 20
107751.9747013619
 30
0.0
 11
115006.2895637856
 21
107751.9747013619
 31
0.0
  0
LINE
  5
5F83B
330
1F
100
AcDbEntity
  8
freecads.com
100
AcDbLine
 10
115006.2914154841
 20
107751.9747013619
 30
0.0
 11
115006.3245573194
 21
107751.9747013619
 31
0.0
  0
LINE
  5
5F83C
330
1F
100
AcDbEntity
  8
freecads.com
100
AcDbLine
 10
115006.3822508812
 20
107751.9747013619
 30
0.0
 11
115006.4023772027
 21
107751.9747013619
 31
0.0
  0
LINE
  5
5F83D
330
1F
100
AcDbEntity
  8
freecads.com
100
AcDbLine
 10
115006.4033928599
 20
107751.9747013619
 30
0.0
 11
115006.4452434527
 21
107751.9747013619
 31
0.0
  0
LINE
  5
5F83E
330
1F
100
AcDbEntity
  8
freecads.com
100
AcDbLine
 10
115006.4472777092
 20
107751.9747013619
 30
0.0
 11
115006.4907722929
 21
107751.9747013619
 31
0.0
  0
LINE
  5
5F83F
330
1F
100
AcDbEntity
  8
freecads.com
100
AcDbLine
 10
115006.4937702433
 20
107751.9747013619
 30
0.0
 11
115006.5389813027
 21
107751.9747013619
 31
0.0
  0
LINE
  5
5F840
330
1F
100
AcDbEntity
  8
freecads.com
100
AcDbLine
 10
115006.5428615978
 20
107751.9747013619
 30
0.0
 11
115006.5898870575
 21
107751.9747013619
 31
0.0
  0
LINE
  5
5F841
330
1F
100
AcDbEntity
  8
freecads.com
100
AcDbLine
 10
115006.5945429083
 20
107751.9747013619
 30
0.0
 11
115006.6435050978
 21
107751.9747013619
 31
0.0
  0
LINE
  5
5F842
330
1F
100
AcDbEntity
  8
freecads.com
100
AcDbLine
 10
115006.6488053104
 20
107751.9747013619
 30
0.0
 11
115006.6998498995
 21
107751.9747013619
 31
0.0
  0
LINE
  5
5F843
330
1F
100
AcDbEntity
  8
freecads.com
100
AcDbLine
 10
115006.7056399397
 20
107751.9747013619
 30
0.0
 11
115006.7589348452
 21
107751.9747013619
 31
0.0
  0
LINE
  5
5F844
330
1F
100
AcDbEntity
  8
freecads.com
100
AcDbLine
 10
115006.7650379319
 20
107751.9747013619
 30
0.0
 11
115006.8207721953
 21
107751.9747013619
 31
0.0
  0
LINE
  5
5F845
330
1F
100
AcDbEntity
  8
freecads.com
100
AcDbLine
 10
115006.8269904226
 20
107751.9747013619
 30
0.0
 11
115006.8853730607
 21
107751.9747013619
 31
0.0
  0
LINE
  5
5F846
330
1F
100
AcDbEntity
  8
freecads.com
100
AcDbLine
 10
115006.8914885474
 20
107751.9747013619
 30
0.0
 11
115006.9527473758
 21
107751.9747013619
 31
0.0
  0
LINE
  5
5F847
330
1F
100
AcDbEntity
  8
freecads.com
100
AcDbLine
 10
115006.9585234418
 20
107751.9747013619
 30
0.0
 11
115007.0229038726
 21
107751.9747013619
 31
0.0
  0
LINE
  5
5F848
330
1F
100
AcDbEntity
  8
freecads.com
100
AcDbLine
 10
115007.0280862455
 20
107751.9747013619
 30
0.0
 11
115007.0958500561
 21
107751.9747013619
 31
0.0
  0
LINE
  5
5F849
330
1F
100
AcDbEntity
  8
freecads.com
100
AcDbLine
 10
115007.1001681028
 20
107751.9747013619
 30
0.0
 11
115007.1715921799
 21
107751.9747013619
 31
0.0
  0
LINE
  5
5F84A
330
1F
100
AcDbEntity
  8
freecads.com
100
AcDbLine
 10
115007.4169846234
 20
107751.9747013619
 30
0.0
 11
115007.5026001199
 21
107751.9747013619
 31
0.0
  0
LINE
  5
5F84B
330
1F
100
AcDbEntity
  8
freecads.com
100
AcDbLine
 10
115007.5052083486
 20
107751.9747013619
 30
0.0
 11
115007.5923704318
 21
107751.9747013619
 31
0.0
  0
LINE
  5
5F84C
330
1F
100
AcDbEntity
  8
freecads.com
100
AcDbLine
 10
115007.5960935855
 20
107751.9747013619
 30
0.0
 11
115007.6849467396
 21
107751.9747013619
 31
0.0
  0
LINE
  5
5F84D
330
1F
100
AcDbEntity
  8
freecads.com
100
AcDbLine
 10
115007.6896235372
 20
107751.9747013619
 30
0.0
 11
115007.780325969
 21
107751.9747013619
 31
0.0
  0
LINE
  5
5F84E
330
1F
100
AcDbEntity
  8
freecads.com
100
AcDbLine
 10
115007.785781407
 20
107751.9747013619
 30
0.0
 11
115007.8785036477
 21
107751.9747013619
 31
0.0
  0
LINE
  5
5F84F
330
1F
100
AcDbEntity
  8
freecads.com
100
AcDbLine
 10
115007.8845503982
 20
107751.9747013619
 30
0.0
 11
115007.979473893
 21
107751.9747013619
 31
0.0
  0
LINE
  5
5F850
330
1F
100
AcDbEntity
  8
freecads.com
100
AcDbLine
 10
115007.9859137146
 20
107751.9747013619
 30
0.0
 11
115008.0832294017
 21
107751.9747013619
 31
0.0
  0
LINE
  5
5F851
330
1F
100
AcDbEntity
  8
freecads.com
100
AcDbLine
 10
115008.0898545597
 20
107751.9747013619
 30
0.0
 11
115008.189761441
 21
107751.9747013619
 31
0.0
  0
LINE
  5
5F852
330
1F
100
AcDbEntity
  8
freecads.com
100
AcDbLine
 10
115008.1963561374
 20
107751.9747013619
 30
0.0
 11
115008.2990598415
 21
107751.9747013619
 31
0.0
  0
LINE
  5
5F853
330
1F
100
AcDbEntity
  8
freecads.com
100
AcDbLine
 10
115008.3054016513
 20
107751.9747013619
 30
0.0
 11
115008.4111129913
 21
107751.9747013619
 31
0.0
  0
LINE
  5
5F854
330
1F
100
AcDbEntity
  8
freecads.com
100
AcDbLine
 10
115008.4169743052
 20
107751.9747013619
 30
0.0
 11
115008.5259078326
 21
107751.9747013619
 31
0.0
  0
LINE
  5
5F855
330
1F
100
AcDbEntity
  8
freecads.com
100
AcDbLine
 10
115008.5310573031
 20
107751.9747013619
 30
0.0
 11
115008.6434298595
 21
107751.9747013619
 31
0.0
  0
LINE
  5
5F856
330
1F
100
AcDbEntity
  8
freecads.com
100
AcDbLine
 10
115008.6476338487
 20
107751.9747013619
 30
0.0
 11
115008.7636631174
 21
107751.9747013619
 31
0.0
  0
LINE
  5
5F857
330
1F
100
AcDbEntity
  8
freecads.com
100
AcDbLine
 10
115009.2728619134
 20
107751.9747013619
 30
0.0
 11
115009.4048384284
 21
107751.9747013619
 31
0.0
  0
LINE
  5
5F858
330
1F
100
AcDbEntity
  8
freecads.com
100
AcDbLine
 10
115009.4069493657
 20
107751.9747013619
 30
0.0
 11
115010.8772958793
 21
107751.9747013619
 31
0.0
  0
LINE
  5
5F859
330
1F
100
AcDbEntity
  8
freecads.com
100
AcDbLine
 10
115011.4478953838
 20
107751.9747013619
 30
0.0
 11
115011.5310233808
 21
107751.9747013619
 31
0.0
  0
LINE
  5
5F85A
330
1F
100
AcDbEntity
  8
freecads.com
100
AcDbLine
 10
115012.2168267228
 20
107751.9747013619
 30
0.0
 11
115012.219641317
 21
107751.9747013619
 31
0.0
  0
LINE
  5
5F85B
330
1F
100
AcDbEntity
  8
freecads.com
100
AcDbLine
 10
115012.3933212265
 20
107751.9747013619
 30
0.0
 11
115012.9384114825
 21
107751.9747013619
 31
0.0
  0
LINE
  5
5F85C
330
1F
100
AcDbEntity
  8
freecads.com
100
AcDbLine
 10
115013.11856686
 20
107751.9747013619
 30
0.0
 11
115013.1225560603
 21
107751.9747013619
 31
0.0
  0
LINE
  5
5F85D
330
1F
100
AcDbEntity
  8
freecads.com
100
AcDbLine
 10
115013.3045439971
 20
107751.9747013619
 30
0.0
 11
115013.3083822334
 21
107751.9747013619
 31
0.0
  0
LINE
  5
5F85E
330
1F
100
AcDbEntity
  8
freecads.com
100
AcDbLine
 10
115015.2373598101
 20
107751.9747013619
 30
0.0
 11
115015.2476739636
 21
107751.9747013619
 31
0.0
  0
LINE
  5
5F85F
330
1F
100
AcDbEntity
  8
freecads.com
100
AcDbLine
 10
115015.4370512468
 20
107751.9747013619
 30
0.0
 11
115015.4485274232
 21
107751.9747013619
 31
0.0
  0
LINE
  5
5F860
330
1F
100
AcDbEntity
  8
freecads.com
100
AcDbLine
 10
115015.6381342373
 20
107751.9747013619
 30
0.0
 11
115015.6504212517
 21
107751.9747013619
 31
0.0
  0
LINE
  5
5F861
330
1F
100
AcDbEntity
  8
freecads.com
100
AcDbLine
 10
115015.8405763142
 20
107751.9747013619
 30
0.0
 11
115015.8533001587
 21
107751.9747013619
 31
0.0
  0
LINE
  5
5F862
330
1F
100
AcDbEntity
  8
freecads.com
100
AcDbLine
 10
115016.0443450097
 20
107751.9747013619
 30
0.0
 11
115016.0571087861
 21
107751.9747013619
 31
0.0
  0
LINE
  5
5F863
330
1F
100
AcDbEntity
  8
freecads.com
100
AcDbLine
 10
115016.2494078563
 20
107751.9747013619
 30
0.0
 11
115016.2617917548
 21
107751.9747013619
 31
0.0
  0
LINE
  5
5F864
330
1F
100
AcDbEntity
  8
freecads.com
100
AcDbLine
 10
115016.4557323863
 20
107751.9747013619
 30
0.0
 11
115016.4672937091
 21
107751.9747013619
 31
0.0
  0
LINE
  5
5F865
330
1F
100
AcDbEntity
  8
freecads.com
100
AcDbLine
 10
115016.663286132
 20
107751.9747013619
 30
0.0
 11
115016.6735593617
 21
107751.9747013619
 31
0.0
  0
LINE
  5
5F866
330
1F
100
AcDbEntity
  8
freecads.com
100
AcDbLine
 10
115018.3293507305
 20
107751.9747013619
 30
0.0
 11
115018.3445999707
 21
107751.9747013619
 31
0.0
  0
LINE
  5
5F867
330
1F
100
AcDbEntity
  8
freecads.com
100
AcDbLine
 10
115018.5376272009
 20
107751.9747013619
 30
0.0
 11
115018.5552834313
 21
107751.9747013619
 31
0.0
  0
LINE
  5
5F868
330
1F
100
AcDbEntity
  8
freecads.com
100
AcDbLine
 10
115018.7467314184
 20
107751.9747013619
 30
0.0
 11
115018.7661907621
 21
107751.9747013619
 31
0.0
  0
LINE
  5
5F869
330
1F
100
AcDbEntity
  8
freecads.com
100
AcDbLine
 10
115018.9566323028
 20
107751.9747013619
 30
0.0
 11
115018.9772701473
 21
107751.9747013619
 31
0.0
  0
LINE
  5
5F86A
330
1F
100
AcDbEntity
  8
freecads.com
100
AcDbLine
 10
115019.1672987741
 20
107751.9747013619
 30
0.0
 11
115019.188470309
 21
107751.9747013619
 31
0.0
  0
LINE
  5
5F86B
330
1F
100
AcDbEntity
  8
freecads.com
100
AcDbLine
 10
115019.3786997521
 20
107751.9747013619
 30
0.0
 11
115019.3997405382
 21
107751.9747013619
 31
0.0
  0
LINE
  5
5F86C
330
1F
100
AcDbEntity
  8
freecads.com
100
AcDbLine
 10
115019.5908041567
 20
107751.9747013619
 30
0.0
 11
115019.6110307264
 21
107751.9747013619
 31
0.0
  0
LINE
  5
5F86D
330
1F
100
AcDbEntity
  8
freecads.com
100
AcDbLine
 10
115019.8035809084
 20
107751.9747013619
 30
0.0
 11
115019.8222913945
 21
107751.9747013619
 31
0.0
  0
LINE
  5
5F86E
330
1F
100
AcDbEntity
  8
freecads.com
100
AcDbLine
 10
115020.0169989272
 20
107751.9747013619
 30
0.0
 11
115020.0334737213
 21
107751.9747013619
 31
0.0
  0
LINE
  5
5F86F
330
1F
100
AcDbEntity
  8
freecads.com
100
AcDbLine
 10
115020.6660728668
 20
107751.9747013619
 30
0.0
 11
115020.7712675008
 21
107751.9747013619
 31
0.0
  0
LINE
  5
5F870
330
1F
100
AcDbEntity
  8
freecads.com
100
AcDbLine
 10
115021.8997164261
 20
107751.9747013619
 30
0.0
 11
115021.9228918077
 21
107751.9747013619
 31
0.0
  0
LINE
  5
5F871
330
1F
100
AcDbEntity
  8
freecads.com
100
AcDbLine
 10
115022.1053670887
 20
107751.9747013619
 30
0.0
 11
115022.1307678123
 21
107751.9747013619
 31
0.0
  0
LINE
  5
5F872
330
1F
100
AcDbEntity
  8
freecads.com
100
AcDbLine
 10
115022.311287957
 20
107751.9747013619
 30
0.0
 11
115022.3380786028
 21
107751.9747013619
 31
0.0
  0
LINE
  5
5F873
330
1F
100
AcDbEntity
  8
freecads.com
100
AcDbLine
 10
115022.5174520062
 20
107751.9747013619
 30
0.0
 11
115022.544784969
 21
107751.9747013619
 31
0.0
  0
LINE
  5
5F874
330
1F
100
AcDbEntity
  8
freecads.com
100
AcDbLine
 10
115022.7238322115
 20
107751.9747013619
 30
0.0
 11
115022.750848604
 21
107751.9747013619
 31
0.0
  0
LINE
  5
5F875
330
1F
100
AcDbEntity
  8
freecads.com
100
AcDbLine
 10
115022.9304015478
 20
107751.9747013619
 30
0.0
 11
115022.9562321144
 21
107751.9747013619
 31
0.0
  0
LINE
  5
5F876
330
1F
100
AcDbEntity
  8
freecads.com
100
AcDbLine
 10
115023.1371329899
 20
107751.9747013619
 30
0.0
 11
115023.1608990284
 21
107751.9747013619
 31
0.0
  0
LINE
  5
5F877
330
1F
100
AcDbEntity
  8
freecads.com
100
AcDbLine
 10
115023.3648138032
 20
107751.9747013619
 30
0.0
 11
115023.550974088
 21
107751.9747013619
 31
0.0
  0
LINE
  5
5F878
330
1F
100
AcDbEntity
  8
freecads.com
100
AcDbLine
 10
115024.7935751319
 20
107751.9747013619
 30
0.0
 11
115024.9797331475
 21
107751.9747013619
 31
0.0
  0
LINE
  5
5F879
330
1F
100
AcDbEntity
  8
freecads.com
100
AcDbLine
 10
115025.1836479223
 20
107751.9747013619
 30
0.0
 11
115025.2074158915
 21
107751.9747013619
 31
0.0
  0
LINE
  5
5F87A
330
1F
100
AcDbEntity
  8
freecads.com
100
AcDbLine
 10
115025.3883148363
 20
107751.9747013619
 30
0.0
 11
115025.4141471098
 21
107751.9747013619
 31
0.0
  0
LINE
  5
5F87B
330
1F
100
AcDbEntity
  8
freecads.com
100
AcDbLine
 10
115025.5936983467
 20
107751.9747013619
 30
0.0
 11
115025.6207161961
 21
107751.9747013619
 31
0.0
  0
LINE
  5
5F87C
330
1F
100
AcDbEntity
  8
freecads.com
100
AcDbLine
 10
115025.7997619818
 20
107751.9747013619
 30
0.0
 11
115025.8270961327
 21
107751.9747013619
 31
0.0
  0
LINE
  5
5F87D
330
1F
100
AcDbEntity
  8
freecads.com
100
AcDbLine
 10
115026.006468348
 20
107751.9747013619
 30
0.0
 11
115026.0332599023
 21
107751.9747013619
 31
0.0
  0
LINE
  5
5F87E
330
1F
100
AcDbEntity
  8
freecads.com
100
AcDbLine
 10
115026.2137791385
 20
107751.9747013619
 30
0.0
 11
115026.2391804876
 21
107751.9747013619
 31
0.0
  0
LINE
  5
5F87F
330
1F
100
AcDbEntity
  8
freecads.com
100
AcDbLine
 10
115026.4216551431
 20
107751.9747013619
 30
0.0
 11
115026.4448308715
 21
107751.9747013619
 31
0.0
  0
LINE
  5
5F880
330
1F
100
AcDbEntity
  8
freecads.com
100
AcDbLine
 10
115027.5732790937
 20
107751.9747013619
 30
0.0
 11
115027.678474084
 21
107751.9747013619
 31
0.0
  0
LINE
  5
5F881
330
1F
100
AcDbEntity
  8
freecads.com
100
AcDbLine
 10
115028.3110732295
 20
107751.9747013619
 30
0.0
 11
115028.327547189
 21
107751.9747013619
 31
0.0
  0
LINE
  5
5F882
330
1F
100
AcDbEntity
  8
freecads.com
100
AcDbLine
 10
115028.5222555563
 20
107751.9747013619
 30
0.0
 11
115028.5409652764
 21
107751.9747013619
 31
0.0
  0
LINE
  5
5F883
330
1F
100
AcDbEntity
  8
freecads.com
100
AcDbLine
 10
115028.7335162244
 20
107751.9747013619
 30
0.0
 11
115028.7537421247
 21
107751.9747013619
 31
0.0
  0
LINE
  5
5F884
330
1F
100
AcDbEntity
  8
freecads.com
100
AcDbLine
 10
115028.9448064125
 20
107751.9747013619
 30
0.0
 11
115028.9658466482
 21
107751.9747013619
 31
0.0
  0
LINE
  5
5F885
330
1F
100
AcDbEntity
  8
freecads.com
100
AcDbLine
 10
115029.1560766418
 20
107751.9747013619
 30
0.0
 11
115029.1772477618
 21
107751.9747013619
 31
0.0
  0
LINE
  5
5F886
330
1F
100
AcDbEntity
  8
freecads.com
100
AcDbLine
 10
115029.3672768034
 20
107751.9747013619
 30
0.0
 11
115029.3879143797
 21
107751.9747013619
 31
0.0
  0
LINE
  5
5F887
330
1F
100
AcDbEntity
  8
freecads.com
100
AcDbLine
 10
115029.5783561887
 20
107751.9747013619
 30
0.0
 11
115029.5978154162
 21
107751.9747013619
 31
0.0
  0
LINE
  5
5F888
330
1F
100
AcDbEntity
  8
freecads.com
100
AcDbLine
 10
115029.7892635194
 20
107751.9747013619
 30
0.0
 11
115029.8069197856
 21
107751.9747013619
 31
0.0
  0
LINE
  5
5F889
330
1F
100
AcDbEntity
  8
freecads.com
100
AcDbLine
 10
115031.6709875891
 20
107751.9747013619
 30
0.0
 11
115031.6812613663
 21
107751.9747013619
 31
0.0
  0
LINE
  5
5F88A
330
1F
100
AcDbEntity
  8
freecads.com
100
AcDbLine
 10
115031.8772532417
 20
107751.9747013619
 30
0.0
 11
115031.8888150344
 21
107751.9747013619
 31
0.0
  0
LINE
  5
5F88B
330
1F
100
AcDbEntity
  8
freecads.com
100
AcDbLine
 10
115032.0827551959
 20
107751.9747013619
 30
0.0
 11
115032.0951394677
 21
107751.9747013619
 31
0.0
  0
LINE
  5
5F88C
330
1F
100
AcDbEntity
  8
freecads.com
100
AcDbLine
 10
115032.2874381646
 20
107751.9747013619
 30
0.0
 11
115032.3002022017
 21
107751.9747013619
 31
0.0
  0
LINE
  5
5F88D
330
1F
100
AcDbEntity
  8
freecads.com
100
AcDbLine
 10
115032.4912467921
 20
107751.9747013619
 30
0.0
 11
115032.5039707727
 21
107751.9747013619
 31
0.0
  0
LINE
  5
5F88E
330
1F
100
AcDbEntity
  8
freecads.com
100
AcDbLine
 10
115032.694125699
 20
107751.9747013619
 30
0.0
 11
115032.7064127163
 21
107751.9747013619
 31
0.0
  0
LINE
  5
5F88F
330
1F
100
AcDbEntity
  8
freecads.com
100
AcDbLine
 10
115032.8960195276
 20
107751.9747013619
 30
0.0
 11
115032.9074955686
 21
107751.9747013619
 31
0.0
  0
LINE
  5
5F890
330
1F
100
AcDbEntity
  8
freecads.com
100
AcDbLine
 10
115033.0968729872
 20
107751.9747013619
 30
0.0
 11
115033.1071868655
 21
107751.9747013619
 31
0.0
  0
LINE
  5
5F891
330
1F
100
AcDbEntity
  8
freecads.com
100
AcDbLine
 10
115034.8487077833
 20
107751.9747013619
 30
0.0
 11
115034.8522189485
 21
107751.9747013619
 31
0.0
  0
LINE
  5
5F892
330
1F
100
AcDbEntity
  8
freecads.com
100
AcDbLine
 10
115035.0361647174
 20
107751.9747013619
 30
0.0
 11
115035.0400019209
 21
107751.9747013619
 31
0.0
  0
LINE
  5
5F893
330
1F
100
AcDbEntity
  8
freecads.com
100
AcDbLine
 10
115035.2219908904
 20
107751.9747013619
 30
0.0
 11
115035.2259790971
 21
107751.9747013619
 31
0.0
  0
LINE
  5
5F894
330
1F
100
AcDbEntity
  8
freecads.com
100
AcDbLine
 10
115035.4061354683
 20
107751.9747013619
 30
0.0
 11
115036.127719832
 21
107751.9747013619
 31
0.0
  0
LINE
  5
5F895
330
1F
100
AcDbEntity
  8
freecads.com
100
AcDbLine
 10
115036.2999048272
 20
107751.9747013619
 30
0.0
 11
115036.3022273094
 21
107751.9747013619
 31
0.0
  0
LINE
  5
5F896
330
1F
100
AcDbEntity
  8
freecads.com
100
AcDbLine
 10
115036.813524186
 20
107751.9747013619
 30
0.0
 11
115036.89665235
 21
107751.9747013619
 31
0.0
  0
LINE
  5
5F897
330
1F
100
AcDbEntity
  8
freecads.com
100
AcDbLine
 10
115037.4672510714
 20
107751.9747013619
 30
0.0
 11
115038.9376016515
 21
107751.9747013619
 31
0.0
  0
LINE
  5
5F898
330
1F
100
AcDbEntity
  8
freecads.com
100
AcDbLine
 10
115038.9397085223
 20
107751.9747013619
 30
0.0
 11
115039.0716888362
 21
107751.9747013619
 31
0.0
  0
LINE
  5
5F899
330
1F
100
AcDbEntity
  8
freecads.com
100
AcDbLine
 10
115039.5808838333
 20
107751.9747013619
 30
0.0
 11
115039.6969135863
 21
107751.9747013619
 31
0.0
  0
LINE
  5
5F89A
330
1F
100
AcDbEntity
  8
freecads.com
100
AcDbLine
 10
115039.7011170913
 20
107751.9747013619
 30
0.0
 11
115039.8134891628
 21
107751.9747013619
 31
0.0
  0
LINE
  5
5F89B
330
1F
100
AcDbEntity
  8
freecads.com
100
AcDbLine
 10
115039.8186391181
 20
107751.9747013619
 30
0.0
 11
115039.9275711453
 21
107751.9747013619
 31
0.0
  0
LINE
  5
5F89C
330
1F
100
AcDbEntity
  8
freecads.com
100
AcDbLine
 10
115039.9334339594
 20
107751.9747013619
 30
0.0
 11
115040.0391427633
 21
107751.9747013619
 31
0.0
  0
LINE
  5
5F89D
330
1F
100
AcDbEntity
  8
freecads.com
100
AcDbLine
 10
115040.0454871093
 20
107751.9747013619
 30
0.0
 11
115040.1481872462
 21
107751.9747013619
 31
0.0
  0
LINE
  5
5F89E
330
1F
100
AcDbEntity
  8
freecads.com
100
AcDbLine
 10
115040.1547855097
 20
107751.9747013619
 30
0.0
 11
115040.2546878235
 21
107751.9747013619
 31
0.0
  0
LINE
  5
5F89F
330
1F
100
AcDbEntity
  8
freecads.com
100
AcDbLine
 10
115040.2613175491
 20
107751.9747013619
 30
0.0
 11
115040.3586277248
 21
107751.9747013619
 31
0.0
  0
LINE
  5
5F8A0
330
1F
100
AcDbEntity
  8
freecads.com
100
AcDbLine
 10
115040.3650730578
 20
107751.9747013619
 30
0.0
 11
115040.4599901793
 21
107751.9747013619
 31
0.0
  0
LINE
  5
5F8A1
330
1F
100
AcDbEntity
  8
freecads.com
100
AcDbLine
 10
115040.4660433031
 20
107751.9747013619
 30
0.0
 11
115040.5587584165
 21
107751.9747013619
 31
0.0
  0
LINE
  5
5F8A2
330
1F
100
AcDbEntity
  8
freecads.com
100
AcDbLine
 10
115040.5642209817
 20
107751.9747013619
 30
0.0
 11
115040.6549156656
 21
107751.9747013619
 31
0.0
  0
LINE
  5
5F8A3
330
1F
100
AcDbEntity
  8
freecads.com
100
AcDbLine
 10
115040.6596002111
 20
107751.9747013619
 30
0.0
 11
115040.7484451558
 21
107751.9747013619
 31
0.0
  0
LINE
  5
5F8A4
330
1F
100
AcDbEntity
  8
freecads.com
100
AcDbLine
 10
115040.7521765189
 20
107751.9747013619
 30
0.0
 11
115040.8393301159
 21
107751.9747013619
 31
0.0
  0
LINE
  5
5F8A5
330
1F
100
AcDbEntity
  8
freecads.com
100
AcDbLine
 10
115040.8419468309
 20
107751.9747013619
 30
0.0
 11
115040.9275537747
 21
107751.9747013619
 31
0.0
  0
LINE
  5
5F8A6
330
1F
100
AcDbEntity
  8
freecads.com
100
AcDbLine
 10
115041.1729547708
 20
107751.9747013619
 30
0.0
 11
115041.2443722757
 21
107751.9747013619
 31
0.0
  0
LINE
  5
5F8A7
330
1F
100
AcDbEntity
  8
freecads.com
100
AcDbLine
 10
115041.2486968947
 20
107751.9747013619
 30
0.0
 11
115041.3164550856
 21
107751.9747013619
 31
0.0
  0
LINE
  5
5F8A8
330
1F
100
AcDbEntity
  8
freecads.com
100
AcDbLine
 10
115041.3216430782
 20
107751.9747013619
 30
0.0
 11
115041.3860189688
 21
107751.9747013619
 31
0.0
  0
LINE
  5
5F8A9
330
1F
100
AcDbEntity
  8
freecads.com
100
AcDbLine
 10
115041.391799575
 20
107751.9747013619
 30
0.0
 11
115041.4530550411
 21
107751.9747013619
 31
0.0
  0
LINE
  5
5F8AA
330
1F
100
AcDbEntity
  8
freecads.com
100
AcDbLine
 10
115041.4591738901
 20
107751.9747013619
 30
0.0
 11
115041.5175544134
 21
107751.9747013619
 31
0.0
  0
LINE
  5
5F8AB
330
1F
100
AcDbEntity
  8
freecads.com
100
AcDbLine
 10
115041.5237747554
 20
107751.9747013619
 30
0.0
 11
115041.5795081928
 21
107751.9747013619
 31
0.0
  0
LINE
  5
5F8AC
330
1F
100
AcDbEntity
  8
freecads.com
100
AcDbLine
 10
115041.5856121055
 20
107751.9747013619
 30
0.0
 11
115041.6389074862
 21
107751.9747013619
 31
0.0
  0
LINE
  5
5F8AD
330
1F
100
AcDbEntity
  8
freecads.com
100
AcDbLine
 10
115041.6446970512
 20
107751.9747013619
 30
0.0
 11
115041.6957434008
 21
107751.9747013619
 31
0.0
  0
LINE
  5
5F8AE
330
1F
100
AcDbEntity
  8
freecads.com
100
AcDbLine
 10
115041.701041853
 20
107751.9747013619
 30
0.0
 11
115041.7500070434
 21
107751.9747013619
 31
0.0
  0
LINE
  5
5F8AF
330
1F
100
AcDbEntity
  8
freecads.com
100
AcDbLine
 10
115041.7546598932
 20
107751.9747013619
 30
0.0
 11
115041.8016895212
 21
107751.9747013619
 31
0.0
  0
LINE
  5
5F8B0
330
1F
100
AcDbEntity
  8
freecads.com
100
AcDbLine
 10
115041.805565648
 20
107751.9747013619
 30
0.0
 11
115041.8507819412
 21
107751.9747013619
 31
0.0
  0
LINE
  5
5F8B1
330
1F
100
AcDbEntity
  8
freecads.com
100
AcDbLine
 10
115041.8537746579
 20
107751.9747013619
 30
0.0
 11
115041.8972754105
 21
107751.9747013619
 31
0.0
  0
LINE
  5
5F8B2
330
1F
100
AcDbEntity
  8
freecads.com
100
AcDbLine
 10
115041.8993034981
 20
107751.9747013619
 30
0.0
 11
115041.941161036
 21
107751.9747013619
 31
0.0
  0
LINE
  5
5F8B3
330
1F
100
AcDbEntity
  8
freecads.com
100
AcDbLine
 10
115042.0549831651
 20
107751.9747013619
 30
0.0
 11
115042.0849836479
 21
107751.9747013619
 31
0.0
  0
LINE
  5
5F8B4
330
1F
100
AcDbEntity
  8
freecads.com
100
AcDbLine
 10
115042.0873938456
 20
107751.9747013619
 30
0.0
 11
115042.114484037
 21
107751.9747013619
 31
0.0
  0
LINE
  5
5F8B5
330
1F
100
AcDbEntity
  8
freecads.com
100
AcDbLine
 10
115042.1172438024
 20
107751.9747013619
 30
0.0
 11
115042.1416382931
 21
107751.9747013619
 31
0.0
  0
LINE
  5
5F8B6
330
1F
100
AcDbEntity
  8
freecads.com
100
AcDbLine
 10
115042.1445559782
 20
107751.9747013619
 30
0.0
 11
115042.166443992
 21
107751.9747013619
 31
0.0
  0
LINE
  5
5F8B7
330
1F
100
AcDbEntity
  8
freecads.com
100
AcDbLine
 10
115042.1693540963
 20
107751.9747013619
 30
0.0
 11
115042.1888987097
 21
107751.9747013619
 31
0.0
  0
LINE
  5
5F8B8
330
1F
100
AcDbEntity
  8
freecads.com
100
AcDbLine
 10
115042.1916626276
 20
107751.9747013619
 30
0.0
 11
115042.2090000219
 21
107751.9747013619
 31
0.0
  0
LINE
  5
5F8B9
330
1F
100
AcDbEntity
  8
freecads.com
100
AcDbLine
 10
115042.2115067576
 20
107751.9747013619
 30
0.0
 11
115042.2267455044
 21
107751.9747013619
 31
0.0
  0
LINE
  5
5F8BA
330
1F
100
AcDbEntity
  8
freecads.com
100
AcDbLine
 10
115042.2289123538
 20
107751.9747013619
 30
0.0
 11
115042.242132733
 21
107751.9747013619
 31
0.0
  0
LINE
  5
5F8BB
330
1F
100
AcDbEntity
  8
freecads.com
100
AcDbLine
 10
115042.2439059323
 20
107751.9747013619
 30
0.0
 11
115042.2551592835
 21
107751.9747013619
 31
0.0
  0
LINE
  5
5F8BC
330
1F
100
AcDbEntity
  8
freecads.com
100
AcDbLine
 10
115042.2565146256
 20
107751.9747013619
 30
0.0
 11
115042.2611686771
 21
107751.9747013619
 31
0.0
  0
LINE
  5
5F8BD
330
1F
100
AcDbEntity
  8
freecads.com
100
AcDbLine
 10
115042.270404826
 20
107753.7266698658
 30
0.0
 11
115042.2667661493
 21
107753.7266698658
 31
0.0
  0
LINE
  5
5F8BE
330
1F
100
AcDbEntity
  8
freecads.com
100
AcDbLine
 10
115042.2656861664
 20
107753.7266698658
 30
0.0
 11
115042.2565146256
 21
107753.7266698658
 31
0.0
  0
LINE
  5
5F8BF
330
1F
100
AcDbEntity
  8
freecads.com
100
AcDbLine
 10
115042.2549466752
 20
107753.7266698658
 30
0.0
 11
115042.2439059323
 21
107753.7266698658
 31
0.0
  0
LINE
  5
5F8C0
330
1F
100
AcDbEntity
  8
freecads.com
100
AcDbLine
 10
115042.2418274902
 20
107753.7266698658
 30
0.0
 11
115042.2289123538
 21
107753.7266698658
 31
0.0
  0
LINE
  5
5F8C1
330
1F
100
AcDbEntity
  8
freecads.com
100
AcDbLine
 10
115042.2263310818
 20
107753.7266698658
 30
0.0
 11
115042.2115067576
 21
107753.7266698658
 31
0.0
  0
LINE
  5
5F8C2
330
1F
100
AcDbEntity
  8
freecads.com
100
AcDbLine
 10
115042.2084599204
 20
107753.7266698658
 30
0.0
 11
115042.1916626276
 21
107753.7266698658
 31
0.0
  0
LINE
  5
5F8C3
330
1F
100
AcDbEntity
  8
freecads.com
100
AcDbLine
 10
115042.1882164759
 20
107753.7266698658
 30
0.0
 11
115042.1693540963
 21
107753.7266698658
 31
0.0
  0
LINE
  5
5F8C4
330
1F
100
AcDbEntity
  8
freecads.com
100
AcDbLine
 10
115042.1656032187
 20
107753.7266698658
 30
0.0
 11
115042.1445559782
 21
107753.7266698658
 31
0.0
  0
LINE
  5
5F8C5
330
1F
100
AcDbEntity
  8
freecads.com
100
AcDbLine
 10
115042.1406226188
 20
107753.7266698658
 30
0.0
 11
115042.1172438024
 21
107753.7266698658
 31
0.0
  0
LINE
  5
5F8C6
330
1F
100
AcDbEntity
  8
freecads.com
100
AcDbLine
 10
115042.1132771465
 20
107753.7266698658
 30
0.0
 11
115042.0873938456
 21
107753.7266698658
 31
0.0
  0
LINE
  5
5F8C7
330
1F
100
AcDbEntity
  8
freecads.com
100
AcDbLine
 10
115042.0835692718
 20
107753.7266698658
 30
0.0
 11
115042.0549831651
 21
107753.7266698658
 31
0.0
  0
LINE
  5
5F8C8
330
1F
100
AcDbEntity
  8
freecads.com
100
AcDbLine
 10
115042.0515014649
 20
107753.7266698658
 30
0.0
 11
115042.0199896314
 21
107753.7266698658
 31
0.0
  0
LINE
  5
5F8C9
330
1F
100
AcDbEntity
  8
freecads.com
100
AcDbLine
 10
115042.0170761959
 20
107753.7266698658
 30
0.0
 11
115041.9823919608
 21
107753.7266698658
 31
0.0
  0
LINE
  5
5F8CA
330
1F
100
AcDbEntity
  8
freecads.com
100
AcDbLine
 10
115041.980295935
 20
107753.7266698658
 30
0.0
 11
115041.9421697481
 21
107753.7266698658
 31
0.0
  0
LINE
  5
5F8CB
330
1F
100
AcDbEntity
  8
freecads.com
100
AcDbLine
 10
115041.9388867377
 20
107753.7266698658
 30
0.0
 11
115041.8993034981
 21
107753.7266698658
 31
0.0
  0
LINE
  5
5F8CC
330
1F
100
AcDbEntity
  8
freecads.com
100
AcDbLine
 10
115041.8948610335
 20
107753.7266698658
 30
0.0
 11
115041.8537746579
 21
107753.7266698658
 31
0.0
  0
LINE
  5
5F8CD
330
1F
100
AcDbEntity
  8
freecads.com
100
AcDbLine
 10
115041.8482277211
 20
107753.7266698658
 30
0.0
 11
115041.805565648
 21
107753.7266698658
 31
0.0
  0
LINE
  5
5F8CE
330
1F
100
AcDbEntity
  8
freecads.com
100
AcDbLine
 10
115041.798995699
 20
107753.7266698658
 30
0.0
 11
115041.7546598932
 21
107753.7266698658
 31
0.0
  0
LINE
  5
5F8CF
330
1F
100
AcDbEntity
  8
freecads.com
100
AcDbLine
 10
115041.7471738657
 20
107753.7266698658
 30
0.0
 11
115041.701041853
 21
107753.7266698658
 31
0.0
  0
LINE
  5
5F8D0
330
1F
100
AcDbEntity
  8
freecads.com
100
AcDbLine
 10
115041.6927711197
 20
107753.7266698658
 30
0.0
 11
115041.6446970512
 21
107753.7266698658
 31
0.0
  0
LINE
  5
5F8D1
330
1F
100
AcDbEntity
  8
freecads.com
100
AcDbLine
 10
115041.6357963595
 20
107753.7266698658
 30
0.0
 11
115041.5856121055
 21
107753.7266698658
 31
0.0
  0
LINE
  5
5F8D2
330
1F
100
AcDbEntity
  8
freecads.com
100
AcDbLine
 10
115041.5762584837
 20
107753.7266698658
 30
0.0
 11
115041.5237747554
 21
107753.7266698658
 31
0.0
  0
LINE
  5
5F8D3
330
1F
100
AcDbEntity
  8
freecads.com
100
AcDbLine
 10
115041.5141663909
 20
107753.7266698658
 30
0.0
 11
115041.4591738901
 21
107753.7266698658
 31
0.0
  0
LINE
  5
5F8D4
330
1F
100
AcDbEntity
  8
freecads.com
100
AcDbLine
 10
115041.4495289794
 20
107753.7266698658
 30
0.0
 11
115041.391799575
 21
107753.7266698658
 31
0.0
  0
LINE
  5
5F8D5
330
1F
100
AcDbEntity
  8
freecads.com
100
AcDbLine
 10
115041.3823551479
 20
107753.7266698658
 30
0.0
 11
115041.3216430782
 21
107753.7266698658
 31
0.0
  0
LINE
  5
5F8D6
330
1F
100
AcDbEntity
  8
freecads.com
100
AcDbLine
 10
115041.3126537948
 20
107753.7266698658
 30
0.0
 11
115041.2486968947
 21
107753.7266698658
 31
0.0
  0
LINE
  5
5F8D7
330
1F
100
AcDbEntity
  8
freecads.com
100
AcDbLine
 10
115041.2404338187
 20
107753.7266698658
 30
0.0
 11
115041.1729547708
 21
107753.7266698658
 31
0.0
  0
LINE
  5
5F8D8
330
1F
100
AcDbEntity
  8
freecads.com
100
AcDbLine
 10
115041.1657041126
 20
107753.7266698658
 30
0.0
 11
115041.0944117268
 21
107753.7266698658
 31
0.0
  0
LINE
  5
5F8D9
330
1F
100
AcDbEntity
  8
freecads.com
100
AcDbLine
 10
115041.0884735691
 20
107753.7266698658
 30
0.0
 11
115041.0130640784
 21
107753.7266698658
 31
0.0
  0
LINE
  5
5F8DA
330
1F
100
AcDbEntity
  8
freecads.com
100
AcDbLine
 10
115041.0087511758
 20
107753.7266698658
 30
0.0
 11
115040.9289094574
 21
107753.7266698658
 31
0.0
  0
LINE
  5
5F8DB
330
1F
100
AcDbEntity
  8
freecads.com
100
AcDbLine
 10
115040.923222158
 20
107753.7266698658
 30
0.0
 11
115040.8419468309
 21
107753.7266698658
 31
0.0
  0
LINE
  5
5F8DC
330
1F
100
AcDbEntity
  8
freecads.com
100
AcDbLine
 10
115040.8350252176
 20
107753.7266698658
 30
0.0
 11
115040.7521765189
 21
107753.7266698658
 31
0.0
  0
LINE
  5
5F8DD
330
1F
100
AcDbEntity
  8
freecads.com
100
AcDbLine
 10
115040.7441769836
 20
107753.7266698658
 30
0.0
 11
115040.6596002111
 21
107753.7266698658
 31
0.0
  0
LINE
  5
5F8DE
330
1F
100
AcDbEntity
  8
freecads.com
100
AcDbLine
 10
115040.650694164
 20
107753.7266698658
 30
0.0
 11
115040.5642209817
 21
107753.7266698658
 31
0.0
  0
LINE
  5
5F8DF
330
1F
100
AcDbEntity
  8
freecads.com
100
AcDbLine
 10
115040.5545935594
 20
107753.7266698658
 30
0.0
 11
115040.4660433031
 21
107753.7266698658
 31
0.0
  0
LINE
  5
5F8E0
330
1F
100
AcDbEntity
  8
freecads.com
100
AcDbLine
 10
115040.455891695
 20
107753.7266698658
 30
0.0
 11
115040.3650730578
 21
107753.7266698658
 31
0.0
  0
LINE
  5
5F8E1
330
1F
100
AcDbEntity
  8
freecads.com
100
AcDbLine
 10
115040.3546053684
 20
107753.7266698658
 30
0.0
 11
115040.2613175491
 21
107753.7266698658
 31
0.0
  0
LINE
  5
5F8E2
330
1F
100
AcDbEntity
  8
freecads.com
100
AcDbLine
 10
115040.2507512872
 20
107753.7266698658
 30
0.0
 11
115040.1547855097
 21
107753.7266698658
 31
0.0
  0
LINE
  5
5F8E3
330
1F
100
AcDbEntity
  8
freecads.com
100
AcDbLine
 10
115040.1443461589
 20
107753.7266698658
 30
0.0
 11
115040.0454871093
 21
107753.7266698658
 31
0.0
  0
LINE
  5
5F8E4
330
1F
100
AcDbEntity
  8
freecads.com
100
AcDbLine
 10
115040.0354066911
 20
107753.7266698658
 30
0.0
 11
115039.9334339594
 21
107753.7266698658
 31
0.0
  0
LINE
  5
5F8E5
330
1F
100
AcDbEntity
  8
freecads.com
100
AcDbLine
 10
115039.9239495913
 20
107753.7266698658
 30
0.0
 11
115039.8186391181
 21
107753.7266698658
 31
0.0
  0
LINE
  5
5F8E6
330
1F
100
AcDbEntity
  8
freecads.com
100
AcDbLine
 10
115039.8099915669
 20
107753.7266698658
 30
0.0
 11
115039.7011170913
 21
107753.7266698658
 31
0.0
  0
LINE
  5
5F8E7
330
1F
100
AcDbEntity
  8
freecads.com
100
AcDbLine
 10
115039.6935493256
 20
107753.7266698658
 30
0.0
 11
115039.5808838333
 21
107753.7266698658
 31
0.0
  0
LINE
  5
5F8E8
330
1F
100
AcDbEntity
  8
freecads.com
100
AcDbLine
 10
115039.5746395748
 20
107753.7266698658
 30
0.0
 11
115039.4579567454
 21
107753.7266698658
 31
0.0
  0
LINE
  5
5F8E9
330
1F
100
AcDbEntity
  8
freecads.com
100
AcDbLine
 10
115039.3294843744
 20
107753.7266698658
 30
0.0
 11
115039.2040978973
 21
107753.7266698658
 31
0.0
  0
LINE
  5
5F8EA
330
1F
100
AcDbEntity
  8
freecads.com
100
AcDbLine
 10
115039.200513069
 20
107753.7266698658
 30
0.0
 11
115039.0732081349
 21
107753.7266698658
 31
0.0
  0
LINE
  5
5F8EB
330
1F
100
AcDbEntity
  8
freecads.com
100
AcDbLine
 10
115039.0690429644
 20
107753.7266698658
 30
0.0
 11
115038.9397085223
 21
107753.7266698658
 31
0.0
  0
LINE
  5
5F8EC
330
1F
100
AcDbEntity
  8
freecads.com
100
AcDbLine
 10
115038.9350985045
 20
107753.7266698658
 30
0.0
 11
115037.4672510714
 21
107753.7266698658
 31
0.0
  0
LINE
  5
5F8ED
330
1F
100
AcDbEntity
  8
freecads.com
100
AcDbLine
 10
115036.8967671895
 20
107753.7266698658
 30
0.0
 11
115036.8137581904
 21
107753.7266698658
 31
0.0
  0
LINE
  5
5F8EE
330
1F
100
AcDbEntity
  8
freecads.com
100
AcDbLine
 10
115036.3032124428
 20
107753.7266698658
 30
0.0
 11
115036.2999048272
 21
107753.7266698658
 31
0.0
  0
LINE
  5
5F8EF
330
1F
100
AcDbEntity
  8
freecads.com
100
AcDbLine
 10
115036.1289667854
 20
107753.7266698658
 30
0.0
 11
115036.1249056338
 21
107753.7266698658
 31
0.0
  0
LINE
  5
5F8F0
330
1F
100
AcDbEntity
  8
freecads.com
100
AcDbLine
 10
115035.9527393931
 20
107753.7266698658
 30
0.0
 11
115035.9479816519
 21
107753.7266698658
 31
0.0
  0
LINE
  5
5F8F1
330
1F
100
AcDbEntity
  8
freecads.com
100
AcDbLine
 10
115035.7745603474
 20
107753.7266698658
 30
0.0
 11
115035.7691799116
 21
107753.7266698658
 31
0.0
  0
LINE
  5
5F8F2
330
1F
100
AcDbEntity
  8
freecads.com
100
AcDbLine
 10
115035.59445973
 20
107753.7266698658
 30
0.0
 11
115035.5885482898
 21
107753.7266698658
 31
0.0
  0
LINE
  5
5F8F3
330
1F
100
AcDbEntity
  8
freecads.com
100
AcDbLine
 10
115035.4124676225
 20
107753.7266698658
 30
0.0
 11
115035.4061354683
 21
107753.7266698658
 31
0.0
  0
LINE
  5
5F8F4
330
1F
100
AcDbEntity
  8
freecads.com
100
AcDbLine
 10
115035.2286141065
 20
107753.7266698658
 30
0.0
 11
115035.2219908904
 21
107753.7266698658
 31
0.0
  0
LINE
  5
5F8F5
330
1F
100
AcDbEntity
  8
freecads.com
100
AcDbLine
 10
115035.0429292637
 20
107753.7266698658
 30
0.0
 11
115035.0361647174
 21
107753.7266698658
 31
0.0
  0
LINE
  5
5F8F6
330
1F
100
AcDbEntity
  8
freecads.com
100
AcDbLine
 10
115033.1135820285
 20
107753.7266698658
 30
0.0
 11
115033.0968729872
 21
107753.7266698658
 31
0.0
  0
LINE
  5
5F8F7
330
1F
100
AcDbEntity
  8
freecads.com
100
AcDbLine
 10
115032.9142914135
 20
107753.7266698658
 30
0.0
 11
115032.8960195276
 21
107753.7266698658
 31
0.0
  0
LINE
  5
5F8F8
330
1F
100
AcDbEntity
  8
freecads.com
100
AcDbLine
 10
115032.7136130304
 20
107753.7266698658
 30
0.0
 11
115032.694125699
 21
107753.7266698658
 31
0.0
  0
LINE
  5
5F8F9
330
1F
100
AcDbEntity
  8
freecads.com
100
AcDbLine
 10
115032.5115791811
 20
107753.7266698658
 30
0.0
 11
115032.4912467921
 21
107753.7266698658
 31
0.0
  0
LINE
  5
5F8FA
330
1F
100
AcDbEntity
  8
freecads.com
100
AcDbLine
 10
115032.3082221681
 20
107753.7266698658
 30
0.0
 11
115032.2874381646
 21
107753.7266698658
 31
0.0
  0
LINE
  5
5F8FB
330
1F
100
AcDbEntity
  8
freecads.com
100
AcDbLine
 10
115032.1035742936
 20
107753.7266698658
 30
0.0
 11
115032.0827551959
 21
107753.7266698658
 31
0.0
  0
LINE
  5
5F8FC
330
1F
100
AcDbEntity
  8
freecads.com
100
AcDbLine
 10
115031.8976678598
 20
107753.7266698658
 30
0.0
 11
115031.8772532417
 21
107753.7266698658
 31
0.0
  0
LINE
  5
5F8FD
330
1F
100
AcDbEntity
  8
freecads.com
100
AcDbLine
 10
115031.6905351691
 20
107753.7266698658
 30
0.0
 11
115031.6709875891
 21
107753.7266698658
 31
0.0
  0
LINE
  5
5F8FE
330
1F
100
AcDbEntity
  8
freecads.com
100
AcDbLine
 10
115030.0263431544
 20
107753.7266698658
 30
0.0
 11
115029.9999469801
 21
107753.7266698658
 31
0.0
  0
LINE
  5
5F8FF
330
1F
100
AcDbEntity
  8
freecads.com
100
AcDbLine
 10
115029.8181031242
 20
107753.7266698658
 30
0.0
 11
115029.7892635194
 21
107753.7266698658
 31
0.0
  0
LINE
  5
5F900
330
1F
100
AcDbEntity
  8
freecads.com
100
AcDbLine
 10
115029.6090337033
 20
107753.7266698658
 30
0.0
 11
115029.5783561887
 21
107753.7266698658
 31
0.0
  0
LINE
  5
5F901
330
1F
100
AcDbEntity
  8
freecads.com
100
AcDbLine
 10
115029.3991659658
 20
107753.7266698658
 30
0.0
 11
115029.3672768034
 21
107753.7266698658
 31
0.0
  0
LINE
  5
5F902
330
1F
100
AcDbEntity
  8
freecads.com
100
AcDbLine
 10
115029.1885309861
 20
107753.7266698658
 30
0.0
 11
115029.1560766418
 21
107753.7266698658
 31
0.0
  0
LINE
  5
5F903
330
1F
100
AcDbEntity
  8
freecads.com
100
AcDbLine
 10
115028.9771598383
 20
107753.7266698658
 30
0.0
 11
115028.9448064125
 21
107753.7266698658
 31
0.0
  0
LINE
  5
5F904
330
1F
100
AcDbEntity
  8
freecads.com
100
AcDbLine
 10
115028.7650835965
 20
107753.7266698658
 30
0.0
 11
115028.7335162244
 21
107753.7266698658
 31
0.0
  0
LINE
  5
5F905
330
1F
100
AcDbEntity
  8
freecads.com
100
AcDbLine
 10
115028.5523333341
 20
107753.7266698658
 30
0.0
 11
115028.5222555563
 21
107753.7266698658
 31
0.0
  0
LINE
  5
5F906
330
1F
100
AcDbEntity
  8
freecads.com
100
AcDbLine
 10
115028.3389401252
 20
107753.7266698658
 30
0.0
 11
115028.3110732295
 21
107753.7266698658
 31
0.0
  0
LINE
  5
5F907
330
1F
100
AcDbEntity
  8
freecads.com
100
AcDbLine
 10
115026.4527919172
 20
107753.7266698658
 30
0.0
 11
115026.4216551431
 21
107753.7266698658
 31
0.0
  0
LINE
  5
5F908
330
1F
100
AcDbEntity
  8
freecads.com
100
AcDbLine
 10
115026.2464280856
 20
107753.7266698658
 30
0.0
 11
115026.2137791385
 21
107753.7266698658
 31
0.0
  0
LINE
  5
5F909
330
1F
100
AcDbEntity
  8
freecads.com
100
AcDbLine
 10
115026.0397911792
 20
107753.7266698658
 30
0.0
 11
115026.006468348
 21
107753.7266698658
 31
0.0
  0
LINE
  5
5F90A
330
1F
100
AcDbEntity
  8
freecads.com
100
AcDbLine
 10
115025.8329085019
 20
107753.7266698658
 30
0.0
 11
115025.7997619818
 21
107753.7266698658
 31
0.0
  0
LINE
  5
5F90B
330
1F
100
AcDbEntity
  8
freecads.com
100
AcDbLine
 10
115025.6258073579
 20
107753.7266698658
 30
0.0
 11
115025.5936983467
 21
107753.7266698658
 31
0.0
  0
LINE
  5
5F90C
330
1F
100
AcDbEntity
  8
freecads.com
100
AcDbLine
 10
115025.4185150516
 20
107753.7266698658
 30
0.0
 11
115025.3883148363
 21
107753.7266698658
 31
0.0
  0
LINE
  5
5F90D
330
1F
100
AcDbEntity
  8
freecads.com
100
AcDbLine
 10
115025.2110590826
 20
107753.7266698658
 30
0.0
 11
115025.1836479223
 21
107753.7266698658
 31
0.0
  0
LINE
  5
5F90E
330
1F
100
AcDbEntity
  8
freecads.com
100
AcDbLine
 10
115024.9797331475
 20
107753.7266698658
 30
0.0
 11
115024.7957642079
 21
107753.7266698658
 31
0.0
  0
LINE
  5
5F90F
330
1F
100
AcDbEntity
  8
freecads.com
100
AcDbLine
 10
115023.5487851851
 20
107753.7266698658
 30
0.0
 11
115023.3648138032
 21
107753.7266698658
 31
0.0
  0
LINE
  5
5F910
330
1F
100
AcDbEntity
  8
freecads.com
100
AcDbLine
 10
115023.1608990284
 20
107753.7266698658
 30
0.0
 11
115023.1334901459
 21
107753.7266698658
 31
0.0
  0
LINE
  5
5F911
330
1F
100
AcDbEntity
  8
freecads.com
100
AcDbLine
 10
115022.9562321144
 20
107753.7266698658
 30
0.0
 11
115022.9260340506
 21
107753.7266698658
 31
0.0
  0
LINE
  5
5F912
330
1F
100
AcDbEntity
  8
freecads.com
100
AcDbLine
 10
115022.750848604
 20
107753.7266698658
 30
0.0
 11
115022.718741592
 21
107753.7266698658
 31
0.0
  0
LINE
  5
5F913
330
1F
100
AcDbEntity
  8
freecads.com
100
AcDbLine
 10
115022.544784969
 20
107753.7266698658
 30
0.0
 11
115022.5116402721
 21
107753.7266698658
 31
0.0
  0
LINE
  5
5F914
330
1F
100
AcDbEntity
  8
freecads.com
100
AcDbLine
 10
115022.3380786028
 20
107753.7266698658
 30
0.0
 11
115022.3047573978
 21
107753.7266698658
 31
0.0
  0
LINE
  5
5F915
330
1F
100
AcDbEntity
  8
freecads.com
100
AcDbLine
 10
115022.1307678123
 20
107753.7266698658
 30
0.0
 11
115022.0981202757
 21
107753.7266698658
 31
0.0
  0
LINE
  5
5F916
330
1F
100
AcDbEntity
  8
freecads.com
100
AcDbLine
 10
115021.9228918077
 20
107753.7266698658
 30
0.0
 11
115021.8917562123
 21
107753.7266698658
 31
0.0
  0
LINE
  5
5F917
330
1F
100
AcDbEntity
  8
freecads.com
100
AcDbLine
 10
115020.0334737213
 20
107753.7266698658
 30
0.0
 11
115020.0056055613
 21
107753.7266698658
 31
0.0
  0
LINE
  5
5F918
330
1F
100
AcDbEntity
  8
freecads.com
100
AcDbLine
 10
115019.8222913945
 20
107753.7266698658
 30
0.0
 11
115019.7922121073
 21
107753.7266698658
 31
0.0
  0
LINE
  5
5F919
330
1F
100
AcDbEntity
  8
freecads.com
100
AcDbLine
 10
115019.6110307264
 20
107753.7266698658
 30
0.0
 11
115019.5794616252
 21
107753.7266698658
 31
0.0
  0
LINE
  5
5F91A
330
1F
100
AcDbEntity
  8
freecads.com
100
AcDbLine
 10
115019.3997405382
 20
107753.7266698658
 30
0.0
 11
115019.3673851945
 21
107753.7266698658
 31
0.0
  0
LINE
  5
5F91B
330
1F
100
AcDbEntity
  8
freecads.com
100
AcDbLine
 10
115019.188470309
 20
107753.7266698658
 30
0.0
 11
115019.156013894
 21
107753.7266698658
 31
0.0
  0
LINE
  5
5F91C
330
1F
100
AcDbEntity
  8
freecads.com
100
AcDbLine
 10
115018.9772701473
 20
107753.7266698658
 30
0.0
 11
115018.9453788032
 21
107753.7266698658
 31
0.0
  0
LINE
  5
5F91D
330
1F
100
AcDbEntity
  8
freecads.com
100
AcDbLine
 10
115018.7661907621
 20
107753.7266698658
 30
0.0
 11
115018.7355110017
 21
107753.7266698658
 31
0.0
  0
LINE
  5
5F91E
330
1F
100
AcDbEntity
  8
freecads.com
100
AcDbLine
 10
115018.5552834313
 20
107753.7266698658
 30
0.0
 11
115018.5264415692
 21
107753.7266698658
 31
0.0
  0
LINE
  5
5F91F
330
1F
100
AcDbEntity
  8
freecads.com
100
AcDbLine
 10
115018.3445999707
 20
107753.7266698658
 30
0.0
 11
115018.3182015853
 21
107753.7266698658
 31
0.0
  0
LINE
  5
5F920
330
1F
100
AcDbEntity
  8
freecads.com
100
AcDbLine
 10
115016.6735593617
 20
107753.7266698658
 30
0.0
 11
115016.6540125739
 21
107753.7266698658
 31
0.0
  0
LINE
  5
5F921
330
1F
100
AcDbEntity
  8
freecads.com
100
AcDbLine
 10
115016.4672937091
 20
107753.7266698658
 30
0.0
 11
115016.4468805365
 21
107753.7266698658
 31
0.0
  0
LINE
  5
5F922
330
1F
100
AcDbEntity
  8
freecads.com
100
AcDbLine
 10
115016.2617917548
 20
107753.7266698658
 30
0.0
 11
115016.240974775
 21
107753.7266698658
 31
0.0
  0
LINE
  5
5F923
330
1F
100
AcDbEntity
  8
freecads.com
100
AcDbLine
 10
115016.0571087861
 20
107753.7266698658
 30
0.0
 11
115016.0363275774
 21
107753.7266698658
 31
0.0
  0
LINE
  5
5F924
330
1F
100
AcDbEntity
  8
freecads.com
100
AcDbLine
 10
115015.8533001587
 20
107753.7266698658
 30
0.0
 11
115015.8329712312
 21
107753.7266698658
 31
0.0
  0
LINE
  5
5F925
330
1F
100
AcDbEntity
  8
freecads.com
100
AcDbLine
 10
115015.6504212517
 20
107753.7266698658
 30
0.0
 11
115015.6309380243
 21
107753.7266698658
 31
0.0
  0
LINE
  5
5F926
330
1F
100
AcDbEntity
  8
freecads.com
100
AcDbLine
 10
115015.4485274232
 20
107753.7266698658
 30
0.0
 11
115015.4302602443
 21
107753.7266698658
 31
0.0
  0
LINE
  5
5F927
330
1F
100
AcDbEntity
  8
freecads.com
100
AcDbLine
 10
115015.2476739636
 20
107753.7266698658
 30
0.0
 11
115015.2309701789
 21
107753.7266698658
 31
0.0
  0
LINE
  5
5F928
330
1F
100
AcDbEntity
  8
freecads.com
100
AcDbLine
 10
115013.3083822334
 20
107753.7266698658
 30
0.0
 11
115013.3016228265
 21
107753.7266698658
 31
0.0
  0
LINE
  5
5F929
330
1F
100
AcDbEntity
  8
freecads.com
100
AcDbLine
 10
115013.1225560603
 20
107753.7266698658
 30
0.0
 11
115013.1159373966
 21
107753.7266698658
 31
0.0
  0
LINE
  5
5F92A
330
1F
100
AcDbEntity
  8
freecads.com
100
AcDbLine
 10
115012.9384114825
 20
107753.7266698658
 30
0.0
 11
115012.9320832361
 21
107753.7266698658
 31
0.0
  0
LINE
  5
5F92B
330
1F
100
AcDbEntity
  8
freecads.com
100
AcDbLine
 10
115012.755998661
 20
107753.7266698658
 30
0.0
 11
115012.7500904416
 21
107753.7266698658
 31
0.0
  0
LINE
  5
5F92C
330
1F
100
AcDbEntity
  8
freecads.com
100
AcDbLine
 10
115012.5753670392
 20
107753.7266698658
 30
0.0
 11
115012.5699891096
 21
107753.7266698658
 31
0.0
  0
LINE
  5
5F92D
330
1F
100
AcDbEntity
  8
freecads.com
100
AcDbLine
 10
115012.3965652988
 20
107753.7266698658
 30
0.0
 11
115012.3918093368
 21
107753.7266698658
 31
0.0
  0
LINE
  5
5F92E
330
1F
100
AcDbEntity
  8
freecads.com
100
AcDbLine
 10
115012.219641317
 20
107753.7266698658
 30
0.0
 11
115012.2155812197
 21
107753.7266698658
 31
0.0
  0
LINE
  5
5F92F
330
1F
100
AcDbEntity
  8
freecads.com
100
AcDbLine
 10
115012.0446421235
 20
107753.7266698658
 30
0.0
 11
115012.0413348548
 21
107753.7266698658
 31
0.0
  0
LINE
  5
5F930
330
1F
100
AcDbEntity
  8
freecads.com
100
AcDbLine
 10
115011.5307872378
 20
107753.7266698658
 30
0.0
 11
115011.4477780058
 21
107753.7266698658
 31
0.0
  0
LINE
  5
5F931
330
1F
100
AcDbEntity
  8
freecads.com
100
AcDbLine
 10
115010.8772958793
 20
107753.7266698658
 30
0.0
 11
115009.4094469118
 21
107753.7266698658
 31
0.0
  0
LINE
  5
5F932
330
1F
100
AcDbEntity
  8
freecads.com
100
AcDbLine
 10
115009.4048384284
 20
107753.7266698658
 30
0.0
 11
115009.2755028736
 21
107753.7266698658
 31
0.0
  0
LINE
  5
5F933
330
1F
100
AcDbEntity
  8
freecads.com
100
AcDbLine
 10
115009.2713388158
 20
107753.7266698658
 30
0.0
 11
115009.1440332252
 21
107753.7266698658
 31
0.0
  0
LINE
  5
5F934
330
1F
100
AcDbEntity
  8
freecads.com
100
AcDbLine
 10
115009.1404490535
 20
107753.7266698658
 30
0.0
 11
115009.0150624064
 21
107753.7266698658
 31
0.0
  0
LINE
  5
5F935
330
1F
100
AcDbEntity
  8
freecads.com
100
AcDbLine
 10
115008.8865902054
 20
107753.7266698658
 30
0.0
 11
115008.7699082232
 21
107753.7266698658
 31
0.0
  0
LINE
  5
5F936
330
1F
100
AcDbEntity
  8
freecads.com
100
AcDbLine
 10
115008.7636631174
 20
107753.7266698658
 30
0.0
 11
115008.650998995
 21
107753.7266698658
 31
0.0
  0
LINE
  5
5F937
330
1F
100
AcDbEntity
  8
freecads.com
100
AcDbLine
 10
115008.6434298595
 20
107753.7266698658
 30
0.0
 11
115008.5345572731
 21
107753.7266698658
 31
0.0
  0
LINE
  5
5F938
330
1F
100
AcDbEntity
  8
freecads.com
100
AcDbLine
 10
115008.5259078326
 20
107753.7266698658
 30
0.0
 11
115008.4205997555
 21
107753.7266698658
 31
0.0
  0
LINE
  5
5F939
330
1F
100
AcDbEntity
  8
freecads.com
100
AcDbLine
 10
115008.4111129913
 20
107753.7266698658
 30
0.0
 11
115008.3091431403
 21
107753.7266698658
 31
0.0
  0
LINE
  5
5F93A
330
1F
100
AcDbEntity
  8
freecads.com
100
AcDbLine
 10
115008.2990598415
 20
107753.7266698658
 30
0.0
 11
115008.2002041254
 21
107753.7266698658
 31
0.0
  0
LINE
  5
5F93B
330
1F
100
AcDbEntity
  8
freecads.com
100
AcDbLine
 10
115008.189761441
 20
107753.7266698658
 30
0.0
 11
115008.093799409
 21
107753.7266698658
 31
0.0
  0
LINE
  5
5F93C
330
1F
100
AcDbEntity
  8
freecads.com
100
AcDbLine
 10
115008.0832294017
 20
107753.7266698658
 30
0.0
 11
115007.9899456891
 21
107753.7266698658
 31
0.0
  0
LINE
  5
5F93D
330
1F
100
AcDbEntity
  8
freecads.com
100
AcDbLine
 10
115007.979473893
 20
107753.7266698658
 30
0.0
 11
115007.8886596638
 21
107753.7266698658
 31
0.0
  0
LINE
  5
5F93E
330
1F
100
AcDbEntity
  8
freecads.com
100
AcDbLine
 10
115007.8785036477
 20
107753.7266698658
 30
0.0
 11
115007.7899580313
 21
107753.7266698658
 31
0.0
  0
LINE
  5
5F93F
330
1F
100
AcDbEntity
  8
freecads.com
100
AcDbLine
 10
115007.780325969
 20
107753.7266698658
 30
0.0
 11
115007.6938575796
 21
107753.7266698658
 31
0.0
  0
LINE
  5
5F940
330
1F
100
AcDbEntity
  8
freecads.com
100
AcDbLine
 10
115007.6849467396
 20
107753.7266698658
 30
0.0
 11
115007.6003748247
 21
107753.7266698658
 31
0.0
  0
LINE
  5
5F941
330
1F
100
AcDbEntity
  8
freecads.com
100
AcDbLine
 10
115007.5923704318
 20
107753.7266698658
 30
0.0
 11
115007.5095265574
 21
107753.7266698658
 31
0.0
  0
LINE
  5
5F942
330
1F
100
AcDbEntity
  8
freecads.com
100
AcDbLine
 10
115007.5026001199
 20
107753.7266698658
 30
0.0
 11
115007.4213294764
 21
107753.7266698658
 31
0.0
  0
LINE
  5
5F943
330
1F
100
AcDbEntity
  8
freecads.com
100
AcDbLine
 10
115007.4156374934
 20
107753.7266698658
 30
0.0
 11
115007.3358002013
 21
107753.7266698658
 31
0.0
  0
LINE
  5
5F944
330
1F
100
AcDbEntity
  8
freecads.com
100
AcDbLine
 10
115007.3314828724
 20
107753.7266698658
 30
0.0
 11
115007.2560774454
 21
107753.7266698658
 31
0.0
  0
LINE
  5
5F945
330
1F
100
AcDbEntity
  8
freecads.com
100
AcDbLine
 10
115007.250135224
 20
107753.7266698658
 30
0.0
 11
115007.1788464371
 21
107753.7266698658
 31
0.0
  0
LINE
  5
5F946
330
1F
100
AcDbEntity
  8
freecads.com
100
AcDbLine
 10
115007.1715921799
 20
107753.7266698658
 30
0.0
 11
115007.1041161786
 21
107753.7266698658
 31
0.0
  0
LINE
  5
5F947
330
1F
100
AcDbEntity
  8
freecads.com
100
AcDbLine
 10
115007.0958500561
 20
107753.7266698658
 30
0.0
 11
115007.0318955772
 21
107753.7266698658
 31
0.0
  0
LINE
  5
5F948
330
1F
100
AcDbEntity
  8
freecads.com
100
AcDbLine
 10
115007.0229038726
 20
107753.7266698658
 30
0.0
 11
115006.9621935403
 21
107753.7266698658
 31
0.0
  0
LINE
  5
5F949
330
1F
100
AcDbEntity
  8
freecads.com
100
AcDbLine
 10
115006.9527473758
 20
107753.7266698658
 30
0.0
 11
115006.895018981
 21
107753.7266698658
 31
0.0
  0
LINE
  5
5F94A
330
1F
100
AcDbEntity
  8
freecads.com
100
AcDbLine
 10
115006.8853730607
 20
107753.7266698658
 30
0.0
 11
115006.8303808125
 21
107753.7266698658
 31
0.0
  0
LINE
  5
5F94B
330
1F
100
AcDbEntity
  8
freecads.com
100
AcDbLine
 10
115006.8207721953
 20
107753.7266698658
 30
0.0
 11
115006.7682879478
 21
107753.7266698658
 31
0.0
  0
LINE
  5
5F94C
330
1F
100
AcDbEntity
  8
freecads.com
100
AcDbLine
 10
115006.7589348452
 20
107753.7266698658
 30
0.0
 11
115006.7087493001
 21
107753.7266698658
 31
0.0
  0
LINE
  5
5F94D
330
1F
100
AcDbEntity
  8
freecads.com
100
AcDbLine
 10
115006.6998498995
 20
107753.7266698658
 30
0.0
 11
115006.6517737823
 21
107753.7266698658
 31
0.0
  0
LINE
  5
5F94E
330
1F
100
AcDbEntity
  8
freecads.com
100
AcDbLine
 10
115006.6435050978
 20
107753.7266698658
 30
0.0
 11
115006.5973703077
 21
107753.7266698658
 31
0.0
  0
LINE
  5
5F94F
330
1F
100
AcDbEntity
  8
freecads.com
100
AcDbLine
 10
115006.5898870575
 20
107753.7266698658
 30
0.0
 11
115006.5455477893
 21
107753.7266698658
 31
0.0
  0
LINE
  5
5F950
330
1F
100
AcDbEntity
  8
freecads.com
100
AcDbLine
 10
115006.5389813027
 20
107753.7266698658
 30
0.0
 11
115006.4963151402
 21
107753.7266698658
 31
0.0
  0
LINE
  5
5F951
330
1F
100
AcDbEntity
  8
freecads.com
100
AcDbLine
 10
115006.4907722929
 20
107753.7266698658
 30
0.0
 11
115006.4496812735
 21
107753.7266698658
 31
0.0
  0
LINE
  5
5F952
330
1F
100
AcDbEntity
  8
freecads.com
100
AcDbLine
 10
115006.4452434527
 20
107753.7266698658
 30
0.0
 11
115006.4056551023
 21
107753.7266698658
 31
0.0
  0
LINE
  5
5F953
330
1F
100
AcDbEntity
  8
freecads.com
100
AcDbLine
 10
115006.4023772027
 20
107753.7266698658
 30
0.0
 11
115006.3642455397
 21
107753.7266698658
 31
0.0
  0
LINE
  5
5F954
330
1F
100
AcDbEntity
  8
freecads.com
100
AcDbLine
 10
115006.3621549899
 20
107753.7266698658
 30
0.0
 11
115006.3274650372
 21
107753.7266698658
 31
0.0
  0
LINE
  5
5F955
330
1F
100
AcDbEntity
  8
freecads.com
100
AcDbLine
 10
115006.3245573194
 20
107753.7266698658
 30
0.0
 11
115006.2930396265
 21
107753.7266698658
 31
0.0
  0
LINE
  5
5F956
330
1F
100
AcDbEntity
  8
freecads.com
100
AcDbLine
 10
115006.2895637856
 20
107753.7266698658
 30
0.0
 11
115006.2609717729
 21
107753.7266698658
 31
0.0
  0
LINE
  5
5F957
330
1F
100
AcDbEntity
  8
freecads.com
100
AcDbLine
 10
115006.2571531051
 20
107753.7266698658
 30
0.0
 11
115006.2312639421
 21
107753.7266698658
 31
0.0
  0
LINE
  5
5F958
330
1F
100
AcDbEntity
  8
freecads.com
100
AcDbLine
 10
115006.2273031483
 20
107753.7266698658
 30
0.0
 11
115006.2039185998
 21
107753.7266698658
 31
0.0
  0
LINE
  5
5F959
330
1F
100
AcDbEntity
  8
freecads.com
100
AcDbLine
 10
115006.1999909725
 20
107753.7266698658
 30
0.0
 11
115006.1789382114
 21
107753.7266698658
 31
0.0
  0
LINE
  5
5F95A
330
1F
100
AcDbEntity
  8
freecads.com
100
AcDbLine
 10
115006.1751928544
 20
107753.7266698658
 30
0.0
 11
115006.1563252426
 21
107753.7266698658
 31
0.0
  0
LINE
  5
5F95B
330
1F
100
AcDbEntity
  8
freecads.com
100
AcDbLine
 10
115006.1528843232
 20
107753.7266698658
 30
0.0
 11
115006.1360821591
 21
107753.7266698658
 31
0.0
  0
LINE
  5
5F95C
330
1F
100
AcDbEntity
  8
freecads.com
100
AcDbLine
 10
115006.1330401931
 20
107753.7266698658
 30
0.0
 11
115006.1182114263
 21
107753.7266698658
 31
0.0
  0
LINE
  5
5F95D
330
1F
100
AcDbEntity
  8
freecads.com
100
AcDbLine
 10
115006.115634597
 20
107753.7266698658
 30
0.0
 11
115006.1027155098
 21
107753.7266698658
 31
0.0
  0
LINE
  5
5F95E
330
1F
100
AcDbEntity
  8
freecads.com
100
AcDbLine
 10
115006.1006410185
 20
107753.7266698658
 30
0.0
 11
115006.0895968755
 21
107753.7266698658
 31
0.0
  0
LINE
  5
5F95F
330
1F
100
AcDbEntity
  8
freecads.com
100
AcDbLine
 10
115006.0880323252
 20
107753.7266698658
 30
0.0
 11
115006.0788579891
 21
107753.7266698658
 31
0.0
  0
LINE
  5
5F960
330
1F
100
AcDbEntity
  8
freecads.com
100
AcDbLine
 10
115006.0777808014
 20
107753.7266698658
 30
0.0
 11
115006.0741410543
 21
107753.7266698658
 31
0.0
  0
LINE
  5
5F961
330
1F
100
AcDbEntity
  8
freecads.com
100
AcDbLine
 10
115024.7628172475
 20
107735.5760171236
 30
0.0
 11
115023.5818301724
 21
107735.5760171236
 31
0.0
  0
LINE
  5
5F962
330
1F
100
AcDbEntity
  8
freecads.com
100
AcDbLine
 10
115023.5818301724
 20
107751.6784827343
 30
0.0
 11
115024.7628172475
 21
107751.6784827343
 31
0.0
  0
ARC
  5
5F963
330
1F
100
AcDbEntity
  8
freecads.com
100
AcDbCircle
 10
115042.0280845872
 20
107753.7258621157
 30
0.0
 40
0.2567144831323892
100
AcDbArc
 50
0.1802810111867562
 51
90.17673159427735
  0
ARC
  5
5F964
330
1F
100
AcDbEntity
  8
freecads.com
100
AcDbCircle
 10
115006.3164531036
 20
107753.7258715085
 30
0.0
 40
0.25670511938925
100
AcDbArc
 50
89.82117859039709
 51
179.8218088551644
  0
ARC
  5
5F965
330
1F
100
AcDbEntity
  8
freecads.com
100
AcDbCircle
 10
115042.0485710868
 20
107751.9747068247
 30
0.0
 40
0.2362259353067942
100
AcDbArc
 50
270.0013548704081
 51
359.9986750166721
  0
ARC
  5
5F966
330
1F
100
AcDbEntity
  8
freecads.com
100
AcDbCircle
 10
115006.2959753682
 20
107751.9747063385
 30
0.0
 40
0.2362254490536261
100
AcDbArc
 50
180.0012070491728
 51
269.9987630695832
  0
LINE
  5
5F967
330
1F
100
AcDbEntity
  8
freecads.com
100
AcDbLine
 10
115006.0597734754
 20
107751.9747013619
 30
0.0
 11
115006.0597734754
 21
107753.7266698658
 31
0.0
  0
LINE
  5
5F968
330
1F
100
AcDbEntity
  8
freecads.com
100
AcDbLine
 10
115042.2847734754
 20
107753.7266698658
 30
0.0
 11
115042.2847734754
 21
107751.9747013619
 31
0.0
  0
ENDSEC
  0
SECTION
  2
OBJECTS
  0
DICTIONARY
  5
C
330
0
100
AcDbDictionary
281
     1
  3
ACAD_ASSOCPERSSUBENTMANAGER
350
2C1D4
  3
ACAD_CIP_PREVIOUS_PRODUCT_INFO
350
1A5
  3
ACAD_COLOR
350
73
  3
ACAD_DETAILVIEWSTYLE
350
1AB
  3
ACAD_GROUP
350
D
  3
ACAD_LAYOUT
350
1A
  3
ACAD_MATERIAL
350
72
  3
ACAD_MLEADERSTYLE
350
D7
  3
ACAD_MLINESTYLE
350
17
  3
ACAD_PLOTSETTINGS
350
19
  3
ACAD_PLOTSTYLENAME
350
E
  3
ACAD_SCALELIST
350
B6
  3
ACAD_SECTIONVIEWSTYLE
350
1A8
  3
ACAD_TABLESTYLE
350
86
  3
ACAD_VISUALSTYLE
350
99
  3
ACDB_RECOMPOSE_DATA
350
5F987
  3
ACDBVARIABLEDICTIONARY
350
4A0D5
  3
AEC_PROPERTY_SET_DEFS
350
22D1
  0
DICTIONARY
  5
18E
330
2
100
AcDbDictionary
280
     1
281
     1
  3
ACAD_LAYERSTATES
360
18F
  0
DICTIONARY
  5
E6
330
10
100
AcDbDictionary
280
     1
281
     1
  0
DICTIONARY
  5
15D
330
1F
100
AcDbDictionary
280
     1
281
     1
  3
ACAD_SORTENTS
360
28E
  0
ACDBASSOCPERSSUBENTMANAGER
  5
2C1D4
102
{ACAD_REACTORS
330
C
102
}
330
C
100
AcDbAssocPersSubentManager
 90
        2
 90
        3
 90
        0
 90
        2
 90
     1260
 90
        0
 90
     1260
 90
        1
 90
        2
 90
        3
 90
        4
 90
        5
 90
        6
 90
        7
 90
        8
 90
        9
 90
       10
 90
       11
 90
       12
 90
       13
 90
       14
 90
       15
 90
       16
 90
       17
 90
       18
 90
       19
 90
       20
 90
       21
 90
       22
 90
       23
 90
       24
 90
       25
 90
       26
 90
       27
 90
       28
 90
       29
 90
       30
 90
       31
 90
       32
 90
       33
 90
       34
 90
       35
 90
       36
 90
       37
 90
       38
 90
       39
 90
       40
 90
       41
 90
       42
 90
       43
 90
       44
 90
       45
 90
       46
 90
       47
 90
       48
 90
       49
 90
       50
 90
       51
 90
       52
 90
       53
 90
       54
 90
       55
 90
       56
 90
       57
 90
       58
 90
       59
 90
       60
 90
       61
 90
       62
 90
       63
 90
       64
 90
       65
 90
       66
 90
       67
 90
       68
 90
       69
 90
       70
 90
       71
 90
       72
 90
       73
 90
       74
 90
       75
 90
       76
 90
       77
 90
       78
 90
       79
 90
       80
 90
       81
 90
       82
 90
       83
 90
       84
 90
       85
 90
       86
 90
       87
 90
       88
 90
       89
 90
       90
 90
       91
 90
       92
 90
       93
 90
       94
 90
       95
 90
       96
 90
       97
 90
       98
 90
       99
 90
      100
 90
      101
 90
      102
 90
      103
 90
      104
 90
      105
 90
      106
 90
      107
 90
      108
 90
      109
 90
      110
 90
      111
 90
      112
 90
      113
 90
      114
 90
      115
 90
      116
 90
      117
 90
      118
 90
      119
 90
      120
 90
      121
 90
      122
 90
      123
 90
      124
 90
      125
 90
      126
 90
      127
 90
      128
 90
      129
 90
      130
 90
      131
 90
      132
 90
      133
 90
      134
 90
      135
 90
      136
 90
      137
 90
      138
 90
      139
 90
      140
 90
      141
 90
      142
 90
      143
 90
      144
 90
      145
 90
      146
 90
      147
 90
      148
 90
      149
 90
      150
 90
      151
 90
      152
 90
      153
 90
      154
 90
      155
 90
      156
 90
      157
 90
      158
 90
      159
 90
      160
 90
      161
 90
      162
 90
      163
 90
      164
 90
      165
 90
      166
 90
      167
 90
      168
 90
      169
 90
      170
 90
      171
 90
      172
 90
      173
 90
      174
 90
      175
 90
      176
 90
      177
 90
      178
 90
      179
 90
      180
 90
      181
 90
      182
 90
      183
 90
      184
 90
      185
 90
      186
 90
      187
 90
      188
 90
      189
 90
      190
 90
      191
 90
      192
 90
      193
 90
      194
 90
      195
 90
      196
 90
      197
 90
      198
 90
      199
 90
      200
 90
      201
 90
      202
 90
      203
 90
      204
 90
      205
 90
      206
 90
      207
 90
      208
 90
      209
 90
      210
 90
      211
 90
      212
 90
      213
 90
      214
 90
      215
 90
      216
 90
      217
 90
      218
 90
      219
 90
      220
 90
      221
 90
      222
 90
      223
 90
      224
 90
      225
 90
      226
 90
      227
 90
      228
 90
      229
 90
      230
 90
      231
 90
      232
 90
      233
 90
      234
 90
      235
 90
      236
 90
      237
 90
      238
 90
      239
 90
      240
 90
      241
 90
      242
 90
      243
 90
      244
 90
      245
 90
      246
 90
      247
 90
      248
 90
      249
 90
      250
 90
      251
 90
      252
 90
      253
 90
      254
 90
      255
 90
      256
 90
      257
 90
      258
 90
      259
 90
      260
 90
      261
 90
      262
 90
      263
 90
      264
 90
      265
 90
      266
 90
      267
 90
      268
 90
      269
 90
      270
 90
      271
 90
      272
 90
      273
 90
      274
 90
      275
 90
      276
 90
      277
 90
      278
 90
      279
 90
      280
 90
      281
 90
      282
 90
      283
 90
      284
 90
      285
 90
      286
 90
      287
 90
      288
 90
      289
 90
      290
 90
      291
 90
      292
 90
      293
 90
      294
 90
      295
 90
      296
 90
      297
 90
      298
 90
      299
 90
      300
 90
      301
 90
      302
 90
      303
 90
      304
 90
      305
 90
      306
 90
      307
 90
      308
 90
      309
 90
      310
 90
      311
 90
      312
 90
      313
 90
      314
 90
      315
 90
      316
 90
      317
 90
      318
 90
      319
 90
      320
 90
      321
 90
      322
 90
      323
 90
      324
 90
      325
 90
      326
 90
      327
 90
      328
 90
      329
 90
      330
 90
      331
 90
      332
 90
      333
 90
      334
 90
      335
 90
      336
 90
      337
 90
      338
 90
      339
 90
      340
 90
      341
 90
      342
 90
      343
 90
      344
 90
      345
 90
      346
 90
      347
 90
      348
 90
      349
 90
      350
 90
      351
 90
      352
 90
      353
 90
      354
 90
      355
 90
      356
 90
      357
 90
      358
 90
      359
 90
      360
 90
      361
 90
      362
 90
      363
 90
      364
 90
      365
 90
      366
 90
      367
 90
      368
 90
      369
 90
      370
 90
      371
 90
      372
 90
      373
 90
      374
 90
      375
 90
      376
 90
      377
 90
      378
 90
      379
 90
      380
 90
      381
 90
      382
 90
      383
 90
      384
 90
      385
 90
      386
 90
      387
 90
      388
 90
      389
 90
      390
 90
      391
 90
      392
 90
      393
 90
      394
 90
      395
 90
      396
 90
      397
 90
      398
 90
      399
 90
      400
 90
      401
 90
      402
 90
      403
 90
      404
 90
      405
 90
      406
 90
      407
 90
      408
 90
      409
 90
      410
 90
      411
 90
      412
 90
      413
 90
      414
 90
      415
 90
      416
 90
      417
 90
      418
 90
      419
 90
      420
 90
      421
 90
      422
 90
      423
 90
      424
 90
      425
 90
      426
 90
      427
 90
      428
 90
      429
 90
      430
 90
      431
 90
      432
 90
      433
 90
      434
 90
      435
 90
      436
 90
      437
 90
      438
 90
      439
 90
      440
 90
      441
 90
      442
 90
      443
 90
      444
 90
      445
 90
      446
 90
      447
 90
      448
 90
      449
 90
      450
 90
      451
 90
      452
 90
      453
 90
      454
 90
      455
 90
      456
 90
      457
 90
      458
 90
      459
 90
      460
 90
      461
 90
      462
 90
      463
 90
      464
 90
      465
 90
      466
 90
      467
 90
      468
 90
      469
 90
      470
 90
      471
 90
      472
 90
      473
 90
      474
 90
      475
 90
      476
 90
      477
 90
      478
 90
      479
 90
      480
 90
      481
 90
      482
 90
      483
 90
      484
 90
      485
 90
      486
 90
      487
 90
      488
 90
      489
 90
      490
 90
      491
 90
      492
 90
      493
 90
      494
 90
      495
 90
      496
 90
      497
 90
      498
 90
      499
 90
      500
 90
      501
 90
      502
 90
      503
 90
      504
 90
      505
 90
      506
 90
      507
 90
      508
 90
      509
 90
      510
 90
      511
 90
      512
 90
      513
 90
      514
 90
      515
 90
      516
 90
      517
 90
      518
 90
      519
 90
      520
 90
      521
 90
      522
 90
      523
 90
      524
 90
      525
 90
      526
 90
      527
 90
      528
 90
      529
 90
      530
 90
      531
 90
      532
 90
      533
 90
      534
 90
      535
 90
      536
 90
      537
 90
      538
 90
      539
 90
      540
 90
      541
 90
      542
 90
      543
 90
      544
 90
      545
 90
      546
 90
      547
 90
      548
 90
      549
 90
      550
 90
      551
 90
      552
 90
      553
 90
      554
 90
      555
 90
      556
 90
      557
 90
      558
 90
      559
 90
      560
 90
      561
 90
      562
 90
      563
 90
      564
 90
      565
 90
      566
 90
      567
 90
      568
 90
      569
 90
      570
 90
      571
 90
      572
 90
      573
 90
      574
 90
      575
 90
      576
 90
      577
 90
      578
 90
      579
 90
      580
 90
      581
 90
      582
 90
      583
 90
      584
 90
      585
 90
      586
 90
      587
 90
      588
 90
      589
 90
      590
 90
      591
 90
      592
 90
      593
 90
      594
 90
      595
 90
      596
 90
      597
 90
      598
 90
      599
 90
      600
 90
      601
 90
      602
 90
      603
 90
      604
 90
      605
 90
      606
 90
      607
 90
      608
 90
      609
 90
      610
 90
      611
 90
      612
 90
      613
 90
      614
 90
      615
 90
      616
 90
      617
 90
      618
 90
      619
 90
      620
 90
      621
 90
      622
 90
      623
 90
      624
 90
      625
 90
      626
 90
      627
 90
      628
 90
      629
 90
      630
 90
      631
 90
      632
 90
      633
 90
      634
 90
      635
 90
      636
 90
      637
 90
      638
 90
      639
 90
      640
 90
      641
 90
      642
 90
      643
 90
      644
 90
      645
 90
      646
 90
      647
 90
      648
 90
      649
 90
      650
 90
      651
 90
      652
 90
      653
 90
      654
 90
      655
 90
      656
 90
      657
 90
      658
 90
      659
 90
      660
 90
      661
 90
      662
 90
      663
 90
      664
 90
      665
 90
      666
 90
      667
 90
      668
 90
      669
 90
      670
 90
      671
 90
      672
 90
      673
 90
      674
 90
      675
 90
      676
 90
      677
 90
      678
 90
      679
 90
      680
 90
      681
 90
      682
 90
      683
 90
      684
 90
      685
 90
      686
 90
      687
 90
      688
 90
      689
 90
      690
 90
      691
 90
      692
 90
      693
 90
      694
 90
      695
 90
      696
 90
      697
 90
      698
 90
      699
 90
      700
 90
      701
 90
      702
 90
      703
 90
      704
 90
      705
 90
      706
 90
      707
 90
      708
 90
      709
 90
      710
 90
      711
 90
      712
 90
      713
 90
      714
 90
      715
 90
      716
 90
      717
 90
      718
 90
      719
 90
      720
 90
      721
 90
      722
 90
      723
 90
      724
 90
      725
 90
      726
 90
      727
 90
      728
 90
      729
 90
      730
 90
      731
 90
      732
 90
      733
 90
      734
 90
      735
 90
      736
 90
      737
 90
      738
 90
      739
 90
      740
 90
      741
 90
      742
 90
      743
 90
      744
 90
      745
 90
      746
 90
      747
 90
      748
 90
      749
 90
      750
 90
      751
 90
      752
 90
      753
 90
      754
 90
      755
 90
      756
 90
      757
 90
      758
 90
      759
 90
      760
 90
      761
 90
      762
 90
      763
 90
      764
 90
      765
 90
      766
 90
      767
 90
      768
 90
      769
 90
      770
 90
      771
 90
      772
 90
      773
 90
      774
 90
      775
 90
      776
 90
      777
 90
      778
 90
      779
 90
      780
 90
      781
 90
      782
 90
      783
 90
      784
 90
      785
 90
      786
 90
      787
 90
      788
 90
      789
 90
      790
 90
      791
 90
      792
 90
      793
 90
      794
 90
      795
 90
      796
 90
      797
 90
      798
 90
      799
 90
      800
 90
      801
 90
      802
 90
      803
 90
      804
 90
      805
 90
      806
 90
      807
 90
      808
 90
      809
 90
      810
 90
      811
 90
      812
 90
      813
 90
      814
 90
      815
 90
      816
 90
      817
 90
      818
 90
      819
 90
      820
 90
      821
 90
      822
 90
      823
 90
      824
 90
      825
 90
      826
 90
      827
 90
      828
 90
      829
 90
      830
 90
      831
 90
      832
 90
      833
 90
      834
 90
      835
 90
      836
 90
      837
 90
      838
 90
      839
 90
      840
 90
      841
 90
      842
 90
      843
 90
      844
 90
      845
 90
      846
 90
      847
 90
      848
 90
      849
 90
      850
 90
      851
 90
      852
 90
      853
 90
      854
 90
      855
 90
      856
 90
      857
 90
      858
 90
      859
 90
      860
 90
      861
 90
      862
 90
      863
 90
      864
 90
      865
 90
      866
 90
      867
 90
      868
 90
      869
 90
      870
 90
      871
 90
      872
 90
      873
 90
      874
 90
      875
 90
      876
 90
      877
 90
      878
 90
      879
 90
      880
 90
      881
 90
      882
 90
      883
 90
      884
 90
      885
 90
      886
 90
      887
 90
      888
 90
      889
 90
      890
 90
      891
 90
      892
 90
      893
 90
      894
 90
      895
 90
      896
 90
      897
 90
      898
 90
      899
 90
      900
 90
      901
 90
      902
 90
      903
 90
      904
 90
      905
 90
      906
 90
      907
 90
      908
 90
      909
 90
      910
 90
      911
 90
      912
 90
      913
 90
      914
 90
      915
 90
      916
 90
      917
 90
      918
 90
      919
 90
      920
 90
      921
 90
      922
 90
      923
 90
      924
 90
      925
 90
      926
 90
      927
 90
      928
 90
      929
 90
      930
 90
      931
 90
      932
 90
      933
 90
      934
 90
      935
 90
      936
 90
      937
 90
      938
 90
      939
 90
      940
 90
      941
 90
      942
 90
      943
 90
      944
 90
      945
 90
      946
 90
      947
 90
      948
 90
      949
 90
      950
 90
      951
 90
      952
 90
      953
 90
      954
 90
      955
 90
      956
 90
      957
 90
      958
 90
      959
 90
      960
 90
      961
 90
      962
 90
      963
 90
      964
 90
      965
 90
      966
 90
      967
 90
      968
 90
      969
 90
      970
 90
      971
 90
      972
 90
      973
 90
      974
 90
      975
 90
      976
 90
      977
 90
      978
 90
      979
 90
      980
 90
      981
 90
      982
 90
      983
 90
      984
 90
      985
 90
      986
 90
      987
 90
      988
 90
      989
 90
      990
 90
      991
 90
      992
 90
      993
 90
      994
 90
      995
 90
      996
 90
      997
 90
      998
 90
      999
 90
     1000
 90
     1001
 90
     1002
 90
     1003
 90
     1004
 90
     1005
 90
     1006
 90
     1007
 90
     1008
 90
     1009
 90
     1010
 90
     1011
 90
     1012
 90
     1013
 90
     1014
 90
     1015
 90
     1016
 90
     1017
 90
     1018
 90
     1019
 90
     1020
 90
     1021
 90
     1022
 90
     1023
 90
     1024
 90
     1025
 90
     1026
 90
     1027
 90
     1028
 90
     1029
 90
     1030
 90
     1031
 90
     1032
 90
     1033
 90
     1034
 90
     1035
 90
     1036
 90
     1037
 90
     1038
 90
     1039
 90
     1040
 90
     1041
 90
     1042
 90
     1043
 90
     1044
 90
     1045
 90
     1046
 90
     1047
 90
     1048
 90
     1049
 90
     1050
 90
     1051
 90
     1052
 90
     1053
 90
     1054
 90
     1055
 90
     1056
 90
     1057
 90
     1058
 90
     1059
 90
     1060
 90
     1061
 90
     1062
 90
     1063
 90
     1064
 90
     1065
 90
     1066
 90
     1067
 90
     1068
 90
     1069
 90
     1070
 90
     1071
 90
     1072
 90
     1073
 90
     1074
 90
     1075
 90
     1076
 90
     1077
 90
     1078
 90
     1079
 90
     1080
 90
     1081
 90
     1082
 90
     1083
 90
     1084
 90
     1085
 90
     1086
 90
     1087
 90
     1088
 90
     1089
 90
     1090
 90
     1091
 90
     1092
 90
     1093
 90
     1094
 90
     1095
 90
     1096
 90
     1097
 90
     1098
 90
     1099
 90
     1100
 90
     1101
 90
     1102
 90
     1103
 90
     1104
 90
     1105
 90
     1106
 90
     1107
 90
     1108
 90
     1109
 90
     1110
 90
     1111
 90
     1112
 90
     1113
 90
     1114
 90
     1115
 90
     1116
 90
     1117
 90
     1118
 90
     1119
 90
     1120
 90
     1121
 90
     1122
 90
     1123
 90
     1124
 90
     1125
 90
     1126
 90
     1127
 90
     1128
 90
     1129
 90
     1130
 90
     1131
 90
     1132
 90
     1133
 90
     1134
 90
     1135
 90
     1136
 90
     1137
 90
     1138
 90
     1139
 90
     1140
 90
     1141
 90
     1142
 90
     1143
 90
     1144
 90
     1145
 90
     1146
 90
     1147
 90
     1148
 90
     1149
 90
     1150
 90
     1151
 90
     1152
 90
     1153
 90
     1154
 90
     1155
 90
     1156
 90
     1157
 90
     1158
 90
     1159
 90
     1160
 90
     1161
 90
     1162
 90
     1163
 90
     1164
 90
     1165
 90
     1166
 90
     1167
 90
     1168
 90
     1169
 90
     1170
 90
     1171
 90
     1172
 90
     1173
 90
     1174
 90
     1175
 90
     1176
 90
     1177
 90
     1178
 90
     1179
 90
     1180
 90
     1181
 90
     1182
 90
     1183
 90
     1184
 90
     1185
 90
     1186
 90
     1187
 90
     1188
 90
     1189
 90
     1190
 90
     1191
 90
     1192
 90
     1193
 90
     1194
 90
     1195
 90
     1196
 90
     1197
 90
     1198
 90
     1199
 90
     1200
 90
     1201
 90
     1202
 90
     1203
 90
     1204
 90
     1205
 90
     1206
 90
     1207
 90
     1208
 90
     1209
 90
     1210
 90
     1211
 90
     1212
 90
     1213
 90
     1214
 90
     1215
 90
     1216
 90
     1217
 90
     1218
 90
     1219
 90
     1220
 90
     1221
 90
     1222
 90
     1223
 90
     1224
 90
     1225
 90
     1226
 90
     1227
 90
     1228
 90
     1229
 90
     1230
 90
     1231
 90
     1232
 90
     1233
 90
     1234
 90
     1235
 90
     1236
 90
     1237
 90
     1238
 90
     1239
 90
     1240
 90
     1241
 90
     1242
 90
     1243
 90
     1244
 90
     1245
 90
     1246
 90
     1247
 90
     1248
 90
     1249
 90
     1250
 90
     1251
 90
     1252
 90
     1253
 90
     1254
 90
     1255
 90
     1256
 90
     1257
 90
     1258
 90
     1259
 90
     1260
 90
        0
 90
        0
290
     0
  0
XRECORD
  5
1A5
102
{ACAD_REACTORS
330
C
102
}
330
C
100
AcDbXrecord
280
     1
300
ACD
300
2022
300

  0
DICTIONARY
  5
73
102
{ACAD_REACTORS
330
C
102
}
330
C
100
AcDbDictionary
281
     1
  0
DICTIONARY
  5
1AB
102
{ACAD_REACTORS
330
C
102
}
330
C
100
AcDbDictionary
281
     1
  3
Imperial24
350
1AC
  3
Metric50
350
224
  0
DICTIONARY
  5
D
102
{ACAD_REACTORS
330
C
102
}
330
C
100
AcDbDictionary
281
     1
  0
DICTIONARY
  5
1A
102
{ACAD_REACTORS
330
C
102
}
330
C
100
AcDbDictionary
281
     1
  3
Layout1
350
59
  3
Layout2
350
5E
  3
Model
350
22
  0
DICTIONARY
  5
72
102
{ACAD_REACTORS
330
C
102
}
330
C
100
AcDbDictionary
281
     1
  3
ByBlock
350
97
  3
ByLayer
350
96
  3
Global
350
98
  0
DICTIONARY
  5
D7
102
{ACAD_REACTORS
330
C
102
}
330
C
100
AcDbDictionary
281
     1
  3
Standard
350
D8
  0
DICTIONARY
  5
17
102
{ACAD_REACTORS
330
C
102
}
330
C
100
AcDbDictionary
281
     1
  3
Standard
350
18
  0
DICTIONARY
  5
19
102
{ACAD_REACTORS
330
C
102
}
330
C
100
AcDbDictionary
281
     1
  0
ACDBDICTIONARYWDFLT
  5
E
102
{ACAD_REACTORS
330
C
102
}
330
C
100
AcDbDictionary
281
     1
  3
Normal
350
F
100
AcDbDictionaryWithDefault
340
F
  0
DICTIONARY
  5
B6
102
{ACAD_REACTORS
330
C
102
}
330
C
100
AcDbDictionary
281
     1
  3
*A1
350
2283
  3
A0
350
B7
  3
A1
350
124
  3
A2
350
125
  3
A3
350
126
  3
A4
350
127
  3
A5
350
128
  3
A6
350
129
  3
A7
350
12A
  3
A8
350
12B
  3
A9
350
12C
  3
B0
350
12D
  3
B1
350
12E
  3
B2
350
12F
  3
B3
350
130
  3
B4
350
131
  3
B5
350
132
  3
B6
350
133
  3
B7
350
134
  3
B8
350
135
  3
B9
350
136
  3
C0
350
137
  3
C1
350
138
  3
C2
350
139
  3
C3
350
13A
  3
C4
350
13B
  3
C5
350
13C
  3
C6
350
13D
  3
C7
350
13E
  3
C8
350
13F
  3
C9
350
140
  3
D0
350
141
  3
D1
350
142
  3
D2
350
143
  0
DICTIONARY
  5
1A8
102
{ACAD_REACTORS
330
C
102
}
330
C
100
AcDbDictionary
281
     1
  3
Imperial24
350
1AA
  3
Metric50
350
223
  0
DICTIONARY
  5
86
102
{ACAD_REACTORS
330
C
102
}
330
C
100
AcDbDictionary
281
     1
  3
Standard
350
87
  0
DICTIONARY
  5
99
102
{ACAD_REACTORS
330
C
102
}
330
C
100
AcDbDictionary
281
     1
  3
2dWireframe
350
9F
  3
3dWireframe
350
22946
  3
Basic
350
9E
  3
Brighten
350
A5
  3
ColorChange
350
A9
  3
Conceptual
350
A2
  3
Dim
350
A4
  3
EdgeColorOff
350
175
  3
Facepattern
350
A8
  3
Flat
350
9A
  3
FlatWithEdges
350
9B
  3
Gouraud
350
9C
  3
GouraudWithEdges
350
9D
  3
Hidden
350
A1
  3
JitterOff
350
173
  3
Linepattern
350
A7
  3
OverhangOff
350
174
  3
Realistic
350
A3
  3
Shaded
350
182
  3
Shaded with edges
350
181
  3
Shades of Gray
350
17E
  3
Sketchy
350
17F
  3
Thicken
350
A6
  3
Wireframe
350
A0
  3
X-Ray
350
180
  0
XRECORD
  5
5F987
102
{ACAD_REACTORS
330
C
102
}
330
C
100
AcDbXrecord
280
     1
 90
        1
330
87
  0
DICTIONARY
  5
4A0D5
102
{ACAD_REACTORS
330
C
102
}
330
C
100
AcDbDictionary
281
     2
  3
#COMPAREDIFFTOTAL
350
4A0D6
  3
#REVCLOUDAPPROXARCLEN
350
4A0D7
  3
ANNOALLVISIBLE
350
4A0D8
  3
CANNOSCALE
350
4A0D9
  3
CMLEADERSTYLE
350
4A0DA
  3
CTABLESTYLE
350
4A0DB
  3
CVIEWDETAILSTYLE
350
4A0DC
  3
CVIEWSECTIONSTYLE
350
4A0DD
  3
DIMADEC
350
4A0DE
  3
DIMASSOC
350
4A0DF
  3
DWFFRAME
350
4A0E0
  3
HIDETEXT
350
4A0E1
  3
HPCOLOR
350
4A0E2
  3
HPLAYER
350
4A0E3
  3
HPTRANSPARENCY
350
4A0E4
  3
INDEXCTL
350
4A0E5
  3
LAYEREVAL
350
4A0E6
  3
LAYERNOTIFY
350
4A0E7
  3
LIGHTINGUNITS
350
4A0E8
  3
MLEADERSCALE
350
4A0E9
  3
MSLTSCALE
350
4A0EA
  3
MSOLESCALE
350
4A0EB
  3
PDFFRAME
350
4A0EC
  3
POINTCLOUDCLIPFRAME
350
4A0ED
  3
PROJECTNAME
350
4A0EE
  3
SOLIDHIST
350
4A0EF
  3
SORTENTS
350
4A0F0
  0
DICTIONARY
  5
22D1
102
{ACAD_REACTORS
330
C
102
}
330
C
100
AcDbDictionary
281
     1
  0
DICTIONARY
  5
18F
102
{ACAD_REACTORS
330
18E
102
}
330
18E
100
AcDbDictionary
281
     1
  0
SORTENTSTABLE
  5
28E
102
{ACAD_REACTORS
330
15D
102
}
330
15D
100
AcDbSortentsTable
330
1F
  0
ACDBDETAILVIEWSTYLE
  5
1AC
102
{ACAD_REACTORS
330
1AB
102
}
330
1AB
100
AcDbModelDocViewStyle
 70
     0
  3
Imperial24
290
     0
300
Imperial24
 90
        0
100
AcDbDetailViewStyle
 70
     0
 71
     0
 90
        3
 71
     1
340
11
 62
   256
 40
0.24
340
0
 62
   256
 40
0.24
300

 40
0.36
280
     3
 71
     2
340
16
 90
       25
 62
   256
 71
     3
340
11
 62
   256
 40
0.24
 90
        1
 40
0.75
 90
        1
300
%<\AcVar ViewType \f "%tc1">% %<\AcVar ViewDetailId>%\PSCALE %<\AcVar ViewScale \f "%sn">%
 71
     4
340
16
 90
       25
 62
   256
340
16
 90
       25
 62
   256
280
     0
  0
ACDBDETAILVIEWSTYLE
  5
224
102
{ACAD_REACTORS
330
1AB
102
}
330
1AB
100
AcDbModelDocViewStyle
 70
     0
  3
Metric50
290
     0
300
Metric50
 90
        0
100
AcDbDetailViewStyle
 70
     0
 71
     0
 90
        3
 71
     1
340
11
 62
   256
 40
5.0
340
0
 62
   256
 40
5.0
300

 40
0.0
280
     1
 71
     2
340
16
 90
       25
 62
   256
 71
     3
340
11
 62
   256
 40
5.0
 90
        0
 40
15.0
 90
        1
300
%<\AcVar ViewDetailId>% (%<\AcVar ViewScale \f "%sn">%)
 71
     4
340
16
 90
       25
 62
   256
340
16
 90
       25
 62
   256
280
     0
  0
LAYOUT
  5
59
102
{ACAD_REACTORS
330
1A
102
}
330
1A
100
AcDbPlotSettings
  1

  2
None
  4

  6

 40
0.0
 41
0.0
 42
0.0
 43
0.0
 44
0.0
 45
0.0
 46
0.0
 47
0.0
 48
0.0
 49
0.0
140
0.0
141
0.0
142
1.0
143
1.0
 70
   688
 72
     0
 73
     0
 74
     5
  7

 75
    16
147
1.0
 76
     0
 77
     2
 78
   300
148
0.0
149
0.0
100
AcDbLayout
  1
Layout1
 70
     1
 71
     1
 10
0.0
 20
0.0
 11
12.0
 21
9.0
 12
0.0
 22
0.0
 32
0.0
 14
0.0
 24
0.0
 34
0.0
 15
0.0
 25
0.0
 35
0.0
146
0.0
 13
0.0
 23
0.0
 33
0.0
 16
1.0
 26
0.0
 36
0.0
 17
0.0
 27
1.0
 37
0.0
 76
     0
330
58
  0
LAYOUT
  5
5E
102
{ACAD_REACTORS
330
1A
102
}
330
1A
100
AcDbPlotSettings
  1

  2
None
  4

  6

 40
0.0
 41
0.0
 42
0.0
 43
0.0
 44
0.0
 45
0.0
 46
0.0
 47
0.0
 48
0.0
 49
0.0
140
0.0
141
0.0
142
1.0
143
1.0
 70
   688
 72
     0
 73
     0
 74
     5
  7

 75
    16
147
1.0
 76
     0
 77
     2
 78
   300
148
0.0
149
0.0
100
AcDbLayout
  1
Layout2
 70
     1
 71
     2
 10
0.0
 20
0.0
 11
12.0
 21
9.0
 12
0.0
 22
0.0
 32
0.0
 14
0.0
 24
0.0
 34
0.0
 15
0.0
 25
0.0
 35
0.0
146
0.0
 13
0.0
 23
0.0
 33
0.0
 16
1.0
 26
0.0
 36
0.0
 17
0.0
 27
1.0
 37
0.0
 76
     0
330
5D
  0
LAYOUT
  5
22
102
{ACAD_XDICTIONARY
360
194
102
}
102
{ACAD_REACTORS
330
1A
102
}
330
1A
100
AcDbPlotSettings
  1

  2
none_device
  4
ANSI_A_(8.50_x_11.00_Inches)
  6

 40
6.349999904632568
 41
19.04999923706055
 42
6.350006103515625
 43
19.04998779296875
 44
215.8999938964844
 45
279.3999938964844
 46
0.0
 47
0.0
 48
0.0
 49
0.0
140
0.0
141
0.0
142
1.0
143
2.584895464708373
 70
 11952
 72
     0
 73
     1
 74
     0
  7

 75
     0
147
0.3868628397755418
 76
     0
 77
     2
 78
   300
148
0.0
149
0.0
100
AcDbLayout
  1
Model
 70
     1
 71
     0
 10
0.0
 20
0.0
 11
12.0
 21
9.0
 12
0.0
 22
0.0
 32
0.0
 14
0.0
 24
0.0
 34
0.0
 15
0.0
 25
0.0
 35
0.0
146
0.0
 13
0.0
 23
0.0
 33
0.0
 16
1.0
 26
0.0
 36
0.0
 17
0.0
 27
1.0
 37
0.0
 76
     0
330
1F
331
94
  0
MATERIAL
  5
97
102
{ACAD_XDICTIONARY
360
188
102
}
102
{ACAD_REACTORS
330
72
102
}
330
72
100
AcDbMaterial
  1
ByBlock
 94
       63
  0
MATERIAL
  5
96
102
{ACAD_XDICTIONARY
360
186
102
}
102
{ACAD_REACTORS
330
72
102
}
330
72
100
AcDbMaterial
  1
ByLayer
 94
       63
  0
MATERIAL
  5
98
102
{ACAD_XDICTIONARY
360
110
102
}
102
{ACAD_REACTORS
330
72
102
}
330
72
100
AcDbMaterial
  1
Global
 43
0.0208000000566244
 43
0.0
 43
0.0
 43
0.0
 43
0.0
 43
0.0208000000566244
 43
0.0
 43
0.0
 43
0.0
 43
0.0
 43
1.0
 43
0.0
 43
0.0
 43
0.0
 43
0.0
 43
1.0
 49
0.0208000000566244
 49
0.0
 49
0.0
 49
0.0
 49
0.0
 49
0.0208000000566244
 49
0.0
 49
0.0
 49
0.0
 49
0.0
 49
1.0
 49
0.0
 49
0.0
 49
0.0
 49
0.0
 49
1.0
142
0.0208000000566244
142
0.0
142
0.0
142
0.0
142
0.0
142
0.0208000000566244
142
0.0
142
0.0
142
0.0
142
0.0
142
1.0
142
0.0
142
0.0
142
0.0
142
0.0
142
1.0
144
0.0208000000566244
144
0.0
144
0.0
144
0.0
144
0.0
144
0.0208000000566244
144
0.0
144
0.0
144
0.0
144
0.0
144
1.0
144
0.0
144
0.0
144
0.0
144
0.0
144
1.0
 94
       63
1001
ACAD
1070
    -1
1070
     3
1070
     0
1000

1071
        0
1070
     0
  0
MLEADERSTYLE
  5
D8
102
{ACAD_REACTORS
330
D7
102
}
330
D7
100
AcDbMLeaderStyle
179
     2
170
     2
171
     1
172
     0
 90
        2
 40
0.0
 41
0.0
173
     1
 91
-1056964608
340
14
 92
       -2
290
     1
 42
0.09
291
     1
 43
0.36
  3
Standard
 44
0.18
300

342
11
174
     1
178
     1
175
     1
176
     0
 93
-1056964608
 45
0.18
292
     0
297
     0
 46
0.18
 94
-1056964608
 47
1.0
 49
1.0
140
1.0
293
     1
141
0.0
294
     1
177
     0
142
1.0
295
     0
296
     0
143
0.125
271
     0
272
     9
273
     9
298
     0
  0
MLINESTYLE
  5
18
102
{ACAD_REACTORS
330
17
102
}
330
17
100
AcDbMlineStyle
  2
STANDARD
 70
     0
  3

 62
   256
 51
90.0
 52
90.0
 71
     2
 49
0.5
 62
   256
  6
BYLAYER
 49
-0.5
 62
   256
  6
BYLAYER
  0
ACDBPLACEHOLDER
  5
F
102
{ACAD_REACTORS
330
E
102
}
330
E
  0
SCALE
  5
2283
102
{ACAD_REACTORS
330
B6
102
}
330
B6
100
AcDbScale
 70
     0
300
1:75
140
1.0
141
75.0
290
     0
  0
SCALE
  5
B7
102
{ACAD_REACTORS
330
B6
102
}
330
B6
100
AcDbScale
 70
     0
300
1:1
140
1.0
141
1.0
290
     1
  0
SCALE
  5
124
102
{ACAD_REACTORS
330
B6
102
}
330
B6
100
AcDbScale
 70
     0
300
1:2
140
1.0
141
2.0
290
     0
  0
SCALE
  5
125
102
{ACAD_REACTORS
330
B6
102
}
330
B6
100
AcDbScale
 70
     0
300
1:4
140
1.0
141
4.0
290
     0
  0
SCALE
  5
126
102
{ACAD_REACTORS
330
B6
102
}
330
B6
100
AcDbScale
 70
     0
300
1:5
140
1.0
141
5.0
290
     0
  0
SCALE
  5
127
102
{ACAD_REACTORS
330
B6
102
}
330
B6
100
AcDbScale
 70
     0
300
1:8
140
1.0
141
8.0
290
     0
  0
SCALE
  5
128
102
{ACAD_REACTORS
330
B6
102
}
330
B6
100
AcDbScale
 70
     0
300
1:10
140
1.0
141
10.0
290
     0
  0
SCALE
  5
129
102
{ACAD_REACTORS
330
B6
102
}
330
B6
100
AcDbScale
 70
     0
300
1:16
140
1.0
141
16.0
290
     0
  0
SCALE
  5
12A
102
{ACAD_REACTORS
330
B6
102
}
330
B6
100
AcDbScale
 70
     0
300
1:20
140
1.0
141
20.0
290
     0
  0
SCALE
  5
12B
102
{ACAD_REACTORS
330
B6
102
}
330
B6
100
AcDbScale
 70
     0
300
1:30
140
1.0
141
30.0
290
     0
  0
SCALE
  5
12C
102
{ACAD_REACTORS
330
B6
102
}
330
B6
100
AcDbScale
 70
     0
300
1:40
140
1.0
141
40.0
290
     0
  0
SCALE
  5
12D
102
{ACAD_REACTORS
330
B6
102
}
330
B6
100
AcDbScale
 70
     0
300
1:50
140
1.0
141
50.0
290
     0
  0
SCALE
  5
12E
102
{ACAD_REACTORS
330
B6
102
}
330
B6
100
AcDbScale
 70
     0
300
1:100
140
1.0
141
100.0
290
     0
  0
SCALE
  5
12F
102
{ACAD_REACTORS
330
B6
102
}
330
B6
100
AcDbScale
 70
     0
300
2:1
140
2.0
141
1.0
290
     0
  0
SCALE
  5
130
102
{ACAD_REACTORS
330
B6
102
}
330
B6
100
AcDbScale
 70
     0
300
4:1
140
4.0
141
1.0
290
     0
  0
SCALE
  5
131
102
{ACAD_REACTORS
330
B6
102
}
330
B6
100
AcDbScale
 70
     0
300
8:1
140
8.0
141
1.0
290
     0
  0
SCALE
  5
132
102
{ACAD_REACTORS
330
B6
102
}
330
B6
100
AcDbScale
 70
     0
300
10:1
140
10.0
141
1.0
290
     0
  0
SCALE
  5
133
102
{ACAD_REACTORS
330
B6
102
}
330
B6
100
AcDbScale
 70
     0
300
100:1
140
100.0
141
1.0
290
     0
  0
SCALE
  5
134
102
{ACAD_REACTORS
330
B6
102
}
330
B6
100
AcDbScale
 70
     0
300
1/128" = 1'-0"
140
0.0078125
141
12.0
290
     0
  0
SCALE
  5
135
102
{ACAD_REACTORS
330
B6
102
}
330
B6
100
AcDbScale
 70
     0
300
1/64" = 1'-0"
140
0.015625
141
12.0
290
     0
  0
SCALE
  5
136
102
{ACAD_REACTORS
330
B6
102
}
330
B6
100
AcDbScale
 70
     0
300
1/32" = 1'-0"
140
0.03125
141
12.0
290
     0
  0
SCALE
  5
137
102
{ACAD_REACTORS
330
B6
102
}
330
B6
100
AcDbScale
 70
     0
300
1/16" = 1'-0"
140
0.0625
141
12.0
290
     0
  0
SCALE
  5
138
102
{ACAD_REACTORS
330
B6
102
}
330
B6
100
AcDbScale
 70
     0
300
3/32" = 1'-0"
140
0.09375
141
12.0
290
     0
  0
SCALE
  5
139
102
{ACAD_REACTORS
330
B6
102
}
330
B6
100
AcDbScale
 70
     0
300
1/8" = 1'-0"
140
0.125
141
12.0
290
     0
  0
SCALE
  5
13A
102
{ACAD_REACTORS
330
B6
102
}
330
B6
100
AcDbScale
 70
     0
300
3/16" = 1'-0"
140
0.1875
141
12.0
290
     0
  0
SCALE
  5
13B
102
{ACAD_REACTORS
330
B6
102
}
330
B6
100
AcDbScale
 70
     0
300
1/4" = 1'-0"
140
0.25
141
12.0
290
     0
  0
SCALE
  5
13C
102
{ACAD_REACTORS
330
B6
102
}
330
B6
100
AcDbScale
 70
     0
300
3/8" = 1'-0"
140
0.375
141
12.0
290
     0
  0
SCALE
  5
13D
102
{ACAD_REACTORS
330
B6
102
}
330
B6
100
AcDbScale
 70
     0
300
1/2" = 1'-0"
140
0.5
141
12.0
290
     0
  0
SCALE
  5
13E
102
{ACAD_REACTORS
330
B6
102
}
330
B6
100
AcDbScale
 70
     0
300
3/4" = 1'-0"
140
0.75
141
12.0
290
     0
  0
SCALE
  5
13F
102
{ACAD_REACTORS
330
B6
102
}
330
B6
100
AcDbScale
 70
     0
300
1" = 1'-0"
140
1.0
141
12.0
290
     0
  0
SCALE
  5
140
102
{ACAD_REACTORS
330
B6
102
}
330
B6
100
AcDbScale
 70
     0
300
1-1/2" = 1'-0"
140
1.5
141
12.0
290
     0
  0
SCALE
  5
141
102
{ACAD_REACTORS
330
B6
102
}
330
B6
100
AcDbScale
 70
     0
300
3" = 1'-0"
140
3.0
141
12.0
290
     0
  0
SCALE
  5
142
102
{ACAD_REACTORS
330
B6
102
}
330
B6
100
AcDbScale
 70
     0
300
6" = 1'-0"
140
6.0
141
12.0
290
     0
  0
SCALE
  5
143
102
{ACAD_REACTORS
330
B6
102
}
330
B6
100
AcDbScale
 70
     0
300
1'-0" = 1'-0"
140
12.0
141
12.0
290
     0
  0
ACDBSECTIONVIEWSTYLE
  5
1AA
102
{ACAD_REACTORS
330
1A8
102
}
330
1A8
100
AcDbModelDocViewStyle
 70
     0
  3
Imperial24
290
     0
300
Imperial24
 90
        0
100
AcDbSectionViewStyle
 70
     0
 71
     0
 90
       78
 71
     1
340
11
 62
   256
 40
0.24
340
0
340
0
 62
   256
 40
0.24
300
I, O, Q, S, X, Z
 40
0.48
 90
        3
 40
0.18
 90
        1
 71
     2
340
16
 90
       25
 62
   256
340
16
 90
       50
 62
   256
 40
0.24
 40
0.0
 40
0.24
 71
     3
340
11
 62
   256
 40
0.24
 90
        1
 40
0.75
 90
        1
300
%<\AcVar ViewType \f "%tc1">% %<\AcVar ViewSectionStartId>%-%<\AcVar ViewSectionEndId>%\PSCALE %<\AcVar ViewScale \f "%sn">%
 71
     4
 62
   256
 62
   257
300
ANSI31
 40
1.0
 90
        0
290
     0
290
     0
 90
        6
 40
0.0
 40
1.570796326794896
 40
0.2617993877991494
 40
1.308996938995747
 40
-0.2617993877991494
 40
1.832595714594046
  0
ACDBSECTIONVIEWSTYLE
  5
223
102
{ACAD_REACTORS
330
1A8
102
}
330
1A8
100
AcDbModelDocViewStyle
 70
     0
  3
Metric50
290
     0
300
Metric50
 90
        0
100
AcDbSectionViewStyle
 70
     0
 71
     0
 90
      102
 71
     1
340
11
 62
   256
 40
5.0
340
0
340
0
 62
   256
 40
5.0
300
I, O, Q, S, X, Z
 40
10.0
 90
        0
 40
2.5
 90
        0
 71
     2
340
16
 90
       25
 62
   256
340
16
 90
       50
 62
   256
 40
5.0
 40
2.5
 40
5.0
 71
     3
340
11
 62
   256
 40
5.0
 90
        0
 40
15.0
 90
        1
300
%<\AcVar ViewSectionStartId>%-%<\AcVar ViewSectionEndId>% (%<\AcVar ViewScale \f "%sn">%)
 71
     4
 62
   256
 62
   257
300
ANSI31
 40
1.0
 90
        0
290
     0
290
     0
 90
        6
 40
0.0
 40
1.570796326794896
 40
0.2617993877991494
 40
1.308996938995747
 40
-0.2617993877991494
 40
1.832595714594046
  0
TABLESTYLE
  5
87
102
{ACAD_XDICTIONARY
360
104
102
}
102
{ACAD_REACTORS
330
86
102
}
330
86
100
AcDbTableStyle
280
     0
  3
Standard
 70
     0
 71
     0
 40
0.06
 41
0.06
280
     0
281
     0
  7
Standard
140
0.18
170
     2
 62
     0
 63
     7
283
     0
 90
      512
 91
        0
  1

274
    -2
284
     1
 64
     0
275
    -2
285
     1
 65
     0
276
    -2
286
     1
 66
     0
277
    -2
287
     1
 67
     0
278
    -2
288
     1
 68
     0
279
    -2
289
     1
 69
     0
  7
Standard
140
0.25
170
     5
 62
     0
 63
     7
283
     0
 90
      512
 91
        0
  1

274
    -2
284
     1
 64
     0
275
    -2
285
     1
 65
     0
276
    -2
286
     1
 66
     0
277
    -2
287
     1
 67
     0
278
    -2
288
     1
 68
     0
279
    -2
289
     1
 69
     0
  7
Standard
140
0.18
170
     5
 62
     0
 63
     7
283
     0
 90
      512
 91
        0
  1

274
    -2
284
     1
 64
     0
275
    -2
285
     1
 65
     0
276
    -2
286
     1
 66
     0
277
    -2
287
     1
 67
     0
278
    -2
288
     1
 68
     0
279
    -2
289
     1
 69
     0
  0
VISUALSTYLE
  5
9F
102
{ACAD_REACTORS
330
99
102
}
330
99
100
AcDbVisualStyle
  2
2dWireframe
 70
     4
177
     3
291
     0
 70
    58
 90
        0
176
     1
 90
        2
176
     1
 90
        1
176
     1
 90
        0
176
     1
 40
0.6
176
     1
 40
30.0
176
     1
 62
     7
420
 16777215
176
     1
 90
        1
176
     1
 90
        4
176
     1
 62
     7
176
     1
 62
   257
176
     1
 90
        1
176
     1
 90
        1
176
     1
 40
1.0
176
     1
 90
        0
176
     1
 62
   257
176
     1
 40
1.0
176
     1
 90
        1
176
     1
 90
        6
176
     1
 90
        2
176
     1
 62
     7
176
     1
 90
        5
176
     1
 90
        0
176
     1
 90
        0
176
     1
290
     0
176
     1
 90
        1
176
     1
 40
0.0
176
     1
 90
        0
176
     1
290
     1
176
     1
290
     1
176
     1
290
     0
176
     1
290
     0
176
     1
290
     0
176
     1
290
     0
176
     1
290
     0
176
     1
290
     0
176
     1
290
     0
176
     1
 90
       50
176
     1
 40
0.0
176
     1
 40
1.0
176
     1
 90
        0
176
     1
 62
    18
420
        0
176
     1
 90
       50
176
     1
 90
        3
176
     1
 62
     5
420
      255
176
     1
290
     0
176
     1
 90
       50
176
     1
 90
       50
176
     1
 90
       50
176
     1
290
     0
176
     1
 90
       50
176
     1
 62
   256
176
     0
 40
1.0
176
     0
 90
        2
176
     1
  1
strokes_ogs.tif
176
     1
290
     0
176
     1
 40
1.0
176
     1
 40
1.0
176
     1
  0
VISUALSTYLE
  5
22946
102
{ACAD_REACTORS
330
99
102
}
330
99
100
AcDbVisualStyle
  2
3dWireframe
 70
     5
177
     3
291
     0
 70
    58
 90
        0
176
     1
 90
        2
176
     1
 90
        0
176
     1
 90
        0
176
     1
 40
0.6
176
     1
 40
30.0
176
     1
 62
     7
176
     1
 90
        1
176
     1
 90
        4
176
     1
 62
     7
176
     1
 62
   257
176
     1
 90
        1
176
     1
 90
        1
176
     1
 40
1.0
176
     1
 90
        0
176
     1
 62
   257
176
     1
 40
1.0
176
     1
 90
        1
176
     1
 90
        6
176
     1
 90
        2
176
     1
 62
     7
176
     1
 90
        5
176
     1
 90
        0
176
     1
 90
        0
176
     1
290
     0
176
     1
 90
        1
176
     1
 40
0.0
176
     1
 90
        0
176
     1
290
     0
176
     1
290
     1
176
     1
290
     1
176
     1
290
     0
176
     1
290
     0
176
     1
290
     0
176
     1
290
     0
176
     1
290
     0
176
     1
290
     0
176
     1
 90
       50
176
     1
 40
0.0
176
     1
 40
1.0
176
     1
 90
        0
176
     1
 62
    18
420
        0
176
     1
 90
       50
176
     1
 90
        3
176
     1
 62
     5
420
      255
176
     1
290
     0
176
     1
 90
       50
176
     1
 90
       50
176
     1
 90
       50
176
     1
290
     0
176
     1
 90
       50
176
     1
 62
   256
176
     0
 40
1.0
176
     0
 90
        2
176
     1
  1
strokes_ogs.tif
176
     1
290
     0
176
     1
 40
1.0
176
     1
 40
1.0
176
     1
  0
VISUALSTYLE
  5
9E
102
{ACAD_REACTORS
330
99
102
}
330
99
100
AcDbVisualStyle
  2
Basic
 70
     7
177
     3
291
     1
 70
    58
 90
        1
176
     1
 90
        0
176
     1
 90
        1
176
     1
 90
        0
176
     1
 40
0.6
176
     1
 40
30.0
176
     1
 62
     7
420
 16777215
176
     1
 90
        0
176
     1
 90
        4
176
     1
 62
     7
176
     1
 62
   257
176
     1
 90
        1
176
     1
 90
        1
176
     1
 40
1.0
176
     1
 90
        8
176
     1
 62
     7
176
     1
 40
1.0
176
     1
 90
        1
176
     1
 90
        6
176
     1
 90
        2
176
     1
 62
     7
176
     1
 90
        5
176
     1
 90
        0
176
     1
 90
        0
176
     1
290
     0
176
     1
 90
        1
176
     1
 40
0.0
176
     1
 90
        0
176
     1
290
     0
176
     1
290
     1
176
     1
290
     1
176
     1
290
     0
176
     1
290
     0
176
     1
290
     0
176
     1
290
     0
176
     1
290
     0
176
     1
290
     0
176
     1
 90
       50
176
     1
 40
0.0
176
     1
 40
1.0
176
     1
 90
        0
176
     1
 62
    18
420
        0
176
     1
 90
       50
176
     1
 90
        3
176
     1
 62
     5
420
      255
176
     1
290
     0
176
     1
 90
       50
176
     1
 90
       50
176
     1
 90
       50
176
     1
290
     0
176
     1
 90
       50
176
     1
 62
   256
176
     0
 40
1.0
176
     0
 90
        2
176
     1
  1
strokes_ogs.tif
176
     1
290
     0
176
     1
 40
1.0
176
     1
 40
1.0
176
     1
  0
VISUALSTYLE
  5
A5
102
{ACAD_REACTORS
330
99
102
}
330
99
100
AcDbVisualStyle
  2
Brighten
 70
    12
177
     3
291
     1
 70
    58
 90
        2
176
     1
 90
        2
176
     1
 90
        1
176
     1
 90
        0
176
     1
 40
0.6
176
     1
 40
30.0
176
     1
 62
     7
420
 16777215
176
     1
 90
        1
176
     1
 90
        4
176
     1
 62
     7
176
     1
 62
   257
176
     1
 90
        1
176
     1
 90
        1
176
     1
 40
1.0
176
     1
 90
        8
176
     1
 62
     7
176
     1
 40
1.0
176
     1
 90
        1
176
     1
 90
        6
176
     1
 90
        2
176
     1
 62
     7
176
     1
 90
        5
176
     1
 90
        0
176
     1
 90
        0
176
     1
290
     0
176
     1
 90
        1
176
     1
 40
50.0
176
     1
 90
        0
176
     1
290
     0
176
     1
290
     1
176
     1
290
     1
176
     1
290
     0
176
     1
290
     0
176
     1
290
     0
176
     1
290
     0
176
     1
290
     0
176
     1
290
     0
176
     1
 90
       50
176
     1
 40
0.0
176
     1
 40
1.0
176
     1
 90
        0
176
     1
 62
    18
420
        0
176
     1
 90
       50
176
     1
 90
        3
176
     1
 62
     5
420
      255
176
     1
290
     0
176
     1
 90
       50
176
     1
 90
       50
176
     1
 90
       50
176
     1
290
     0
176
     1
 90
       50
176
     1
 62
   256
176
     0
 40
1.0
176
     0
 90
        2
176
     1
  1
strokes_ogs.tif
176
     1
290
     0
176
     1
 40
1.0
176
     1
 40
1.0
176
     1
  0
VISUALSTYLE
  5
A9
102
{ACAD_REACTORS
330
99
102
}
330
99
100
AcDbVisualStyle
  2
ColorChange
 70
    16
177
     3
291
     1
 70
    58
 90
        2
176
     1
 90
        2
176
     1
 90
        3
176
     1
 90
        0
176
     1
 40
0.6
176
     1
 40
30.0
176
     1
 62
     8
420
  8421504
176
     1
 90
        1
176
     1
 90
        4
176
     1
 62
     7
176
     1
 62
   257
176
     1
 90
        1
176
     1
 90
        1
176
     1
 40
1.0
176
     1
 90
        8
176
     1
 62
     8
420
  8421504
176
     1
 40
1.0
176
     1
 90
        1
176
     1
 90
        6
176
     1
 90
        2
176
     1
 62
     7
176
     1
 90
        5
176
     1
 90
        0
176
     1
 90
        0
176
     1
290
     0
176
     1
 90
        1
176
     1
 40
0.0
176
     1
 90
        0
176
     1
290
     0
176
     1
290
     1
176
     1
290
     1
176
     1
290
     0
176
     1
290
     0
176
     1
290
     0
176
     1
290
     0
176
     1
290
     0
176
     1
290
     0
176
     1
 90
       50
176
     1
 40
0.0
176
     1
 40
1.0
176
     1
 90
        0
176
     1
 62
    18
420
        0
176
     1
 90
       50
176
     1
 90
        3
176
     1
 62
     5
420
      255
176
     1
290
     0
176
     1
 90
       50
176
     1
 90
       50
176
     1
 90
       50
176
     1
290
     0
176
     1
 90
       50
176
     1
 62
   256
176
     0
 40
1.0
176
     0
 90
        2
176
     1
  1
strokes_ogs.tif
176
     1
290
     0
176
     1
 40
1.0
176
     1
 40
1.0
176
     1
  0
VISUALSTYLE
  5
A2
102
{ACAD_REACTORS
330
99
102
}
330
99
100
AcDbVisualStyle
  2
Conceptual
 70
     9
177
     3
291
     0
 70
    58
 90
        3
176
     1
 90
        2
176
     1
 90
        1
176
     1
 90
        0
176
     1
 40
0.6
176
     1
 40
30.0
176
     1
 62
     7
420
 16777215
176
     1
 90
        2
176
     1
 90
        2
176
     1
 62
     7
176
     1
 62
   257
176
     1
 90
        1
176
     1
 90
        1
176
     1
 40
40.0
176
     1
 90
        8
176
     1
 62
     7
176
     1
 40
1.0
176
     1
 90
        1
176
     1
 90
        6
176
     1
 90
        2
176
     1
 62
     7
176
     1
 90
        3
176
     1
 90
        0
176
     1
 90
        0
176
     1
290
     0
176
     1
 90
        1
176
     1
 40
0.0
176
     1
 90
        0
176
     1
290
     0
176
     1
290
     1
176
     1
290
     1
176
     1
290
     0
176
     1
290
     0
176
     1
290
     0
176
     1
290
     0
176
     1
290
     0
176
     1
290
     0
176
     1
 90
       50
176
     1
 40
0.0
176
     1
 40
1.0
176
     1
 90
        0
176
     1
 62
    18
420
        0
176
     1
 90
       50
176
     1
 90
        3
176
     1
 62
     5
420
      255
176
     1
290
     0
176
     1
 90
       50
176
     1
 90
       50
176
     1
 90
       50
176
     1
290
     0
176
     1
 90
       50
176
     1
 62
   256
176
     0
 40
1.0
176
     0
 90
        2
176
     1
  1
strokes_ogs.tif
176
     1
290
     0
176
     1
 40
1.0
176
     1
 40
1.0
176
     1
  0
VISUALSTYLE
  5
A4
102
{ACAD_REACTORS
330
99
102
}
330
99
100
AcDbVisualStyle
  2
Dim
 70
    11
177
     3
291
     1
 70
    58
 90
        2
176
     1
 90
        2
176
     1
 90
        1
176
     1
 90
        0
176
     1
 40
0.6
176
     1
 40
30.0
176
     1
 62
     7
420
 16777215
176
     1
 90
        1
176
     1
 90
        4
176
     1
 62
     7
176
     1
 62
   257
176
     1
 90
        1
176
     1
 90
        1
176
     1
 40
1.0
176
     1
 90
        8
176
     1
 62
     7
176
     1
 40
1.0
176
     1
 90
        1
176
     1
 90
        6
176
     1
 90
        2
176
     1
 62
     7
176
     1
 90
        5
176
     1
 90
        0
176
     1
 90
        0
176
     1
290
     0
176
     1
 90
        1
176
     1
 40
-50.0
176
     1
 90
        0
176
     1
290
     0
176
     1
290
     1
176
     1
290
     1
176
     1
290
     0
176
     1
290
     0
176
     1
290
     0
176
     1
290
     0
176
     1
290
     0
176
     1
290
     0
176
     1
 90
       50
176
     1
 40
0.0
176
     1
 40
1.0
176
     1
 90
        0
176
     1
 62
    18
420
        0
176
     1
 90
       50
176
     1
 90
        3
176
     1
 62
     5
420
      255
176
     1
290
     0
176
     1
 90
       50
176
     1
 90
       50
176
     1
 90
       50
176
     1
290
     0
176
     1
 90
       50
176
     1
 62
   256
176
     0
 40
1.0
176
     0
 90
        2
176
     1
  1
strokes_ogs.tif
176
     1
290
     0
176
     1
 40
1.0
176
     1
 40
1.0
176
     1
  0
VISUALSTYLE
  5
175
102
{ACAD_REACTORS
330
99
102
}
330
99
100
AcDbVisualStyle
  2
EdgeColorOff
 70
    22
177
     3
291
     1
 70
    58
 90
        2
176
     0
 90
        2
176
     0
 90
        0
176
     0
 90
        0
176
     0
 40
0.6
176
     0
 40
30.0
176
     0
 62
     7
420
 16777215
176
     0
 90
        1
176
     0
 90
        4
176
     0
 62
     7
176
     0
 62
   257
176
     0
 90
        1
176
     0
 90
        1
176
     0
 40
1.0
176
     0
 90
        8
176
     2
 62
     7
176
     0
 40
1.0
176
     0
 90
        1
176
     0
 90
        6
176
     0
 90
        2
176
     0
 62
     7
176
     0
 90
        5
176
     0
 90
        0
176
     0
 90
        0
176
     0
290
     0
176
     0
 90
        1
176
     0
 40
0.0
176
     0
 90
        0
176
     0
290
     0
176
     1
290
     1
176
     1
290
     1
176
     1
290
     0
176
     1
290
     0
176
     1
290
     0
176
     1
290
     0
176
     1
290
     0
176
     1
290
     0
176
     1
 90
       50
176
     1
 40
0.0
176
     1
 40
1.0
176
     1
 90
        0
176
     1
 62
    18
420
        0
176
     1
 90
       50
176
     1
 90
        3
176
     1
 62
     5
420
      255
176
     1
290
     0
176
     1
 90
       50
176
     1
 90
       50
176
     1
 90
       50
176
     1
290
     0
176
     1
 90
       50
176
     1
 62
   256
176
     0
 40
1.0
176
     0
 90
        2
176
     1
  1
strokes_ogs.tif
176
     1
290
     0
176
     1
 40
1.0
176
     1
 40
1.0
176
     1
  0
VISUALSTYLE
  5
A8
102
{ACAD_REACTORS
330
99
102
}
330
99
100
AcDbVisualStyle
  2
Facepattern
 70
    15
177
     3
291
     1
 70
    58
 90
        2
176
     1
 90
        2
176
     1
 90
        1
176
     1
 90
        0
176
     1
 40
0.6
176
     1
 40
30.0
176
     1
 62
     7
420
 16777215
176
     1
 90
        1
176
     1
 90
        4
176
     1
 62
     7
176
     1
 62
   257
176
     1
 90
        1
176
     1
 90
        1
176
     1
 40
1.0
176
     1
 90
        8
176
     1
 62
     7
176
     1
 40
1.0
176
     1
 90
        1
176
     1
 90
        6
176
     1
 90
        2
176
     1
 62
     7
176
     1
 90
        5
176
     1
 90
        0
176
     1
 90
        0
176
     1
290
     0
176
     1
 90
        1
176
     1
 40
0.0
176
     1
 90
        0
176
     1
290
     0
176
     1
290
     1
176
     1
290
     1
176
     1
290
     0
176
     1
290
     0
176
     1
290
     0
176
     1
290
     0
176
     1
290
     0
176
     1
290
     0
176
     1
 90
       50
176
     1
 40
0.0
176
     1
 40
1.0
176
     1
 90
        0
176
     1
 62
    18
420
        0
176
     1
 90
       50
176
     1
 90
        3
176
     1
 62
     5
420
      255
176
     1
290
     0
176
     1
 90
       50
176
     1
 90
       50
176
     1
 90
       50
176
     1
290
     0
176
     1
 90
       50
176
     1
 62
   256
176
     0
 40
1.0
176
     0
 90
        2
176
     1
  1
strokes_ogs.tif
176
     1
290
     0
176
     1
 40
1.0
176
     1
 40
1.0
176
     1
  0
VISUALSTYLE
  5
9A
102
{ACAD_REACTORS
330
99
102
}
330
99
100
AcDbVisualStyle
  2
Flat
 70
     0
177
     3
291
     1
 70
    58
 90
        2
176
     1
 90
        1
176
     1
 90
        1
176
     1
 90
        2
176
     1
 40
0.6
176
     1
 40
30.0
176
     1
 62
     7
420
 16777215
176
     1
 90
        0
176
     1
 90
        0
176
     1
 62
     7
176
     1
 62
   257
176
     1
 90
        1
176
     1
 90
        1
176
     1
 40
1.0
176
     1
 90
        8
176
     1
 62
     7
176
     1
 40
1.0
176
     1
 90
        1
176
     1
 90
        6
176
     1
 90
        2
176
     1
 62
     7
176
     1
 90
        5
176
     1
 90
        0
176
     1
 90
        0
176
     1
290
     0
176
     1
 90
       13
176
     1
 40
0.0
176
     1
 90
        0
176
     1
290
     0
176
     1
290
     1
176
     1
290
     1
176
     1
290
     0
176
     1
290
     0
176
     1
290
     0
176
     1
290
     0
176
     1
290
     0
176
     1
290
     0
176
     1
 90
       50
176
     1
 40
0.0
176
     1
 40
1.0
176
     1
 90
        0
176
     1
 62
    18
420
        0
176
     1
 90
       50
176
     1
 90
        3
176
     1
 62
     5
420
      255
176
     1
290
     0
176
     1
 90
       50
176
     1
 90
       50
176
     1
 90
       50
176
     1
290
     0
176
     1
 90
       50
176
     1
 62
   256
176
     0
 40
1.0
176
     0
 90
        2
176
     1
  1
strokes_ogs.tif
176
     1
290
     0
176
     1
 40
1.0
176
     1
 40
1.0
176
     1
  0
VISUALSTYLE
  5
9B
102
{ACAD_REACTORS
330
99
102
}
330
99
100
AcDbVisualStyle
  2
FlatWithEdges
 70
     1
177
     3
291
     1
 70
    58
 90
        2
176
     1
 90
        1
176
     1
 90
        1
176
     1
 90
        2
176
     1
 40
0.6
176
     1
 40
30.0
176
     1
 62
     7
420
 16777215
176
     1
 90
        1
176
     1
 90
        0
176
     1
 62
     7
176
     1
 62
   257
176
     1
 90
        1
176
     1
 90
        1
176
     1
 40
1.0
176
     1
 90
        0
176
     1
 62
   257
176
     1
 40
1.0
176
     1
 90
        1
176
     1
 90
        6
176
     1
 90
        2
176
     1
 62
     7
176
     1
 90
        5
176
     1
 90
        0
176
     1
 90
        0
176
     1
290
     0
176
     1
 90
       13
176
     1
 40
0.0
176
     1
 90
        0
176
     1
290
     0
176
     1
290
     1
176
     1
290
     1
176
     1
290
     0
176
     1
290
     0
176
     1
290
     0
176
     1
290
     0
176
     1
290
     0
176
     1
290
     0
176
     1
 90
       50
176
     1
 40
0.0
176
     1
 40
1.0
176
     1
 90
        0
176
     1
 62
    18
420
        0
176
     1
 90
       50
176
     1
 90
        3
176
     1
 62
     5
420
      255
176
     1
290
     0
176
     1
 90
       50
176
     1
 90
       50
176
     1
 90
       50
176
     1
290
     0
176
     1
 90
       50
176
     1
 62
   256
176
     0
 40
1.0
176
     0
 90
        2
176
     1
  1
strokes_ogs.tif
176
     1
290
     0
176
     1
 40
1.0
176
     1
 40
1.0
176
     1
  0
VISUALSTYLE
  5
9C
102
{ACAD_REACTORS
330
99
102
}
330
99
100
AcDbVisualStyle
  2
Gouraud
 70
     2
177
     3
291
     1
 70
    58
 90
        2
176
     1
 90
        2
176
     1
 90
        1
176
     1
 90
        2
176
     1
 40
0.6
176
     1
 40
30.0
176
     1
 62
     7
420
 16777215
176
     1
 90
        0
176
     1
 90
        0
176
     1
 62
     7
176
     1
 62
   257
176
     1
 90
        1
176
     1
 90
        1
176
     1
 40
1.0
176
     1
 90
        0
176
     1
 62
     7
176
     1
 40
1.0
176
     1
 90
        1
176
     1
 90
        6
176
     1
 90
        2
176
     1
 62
     7
176
     1
 90
        5
176
     1
 90
        0
176
     1
 90
        0
176
     1
290
     0
176
     1
 90
       13
176
     1
 40
0.0
176
     1
 90
        0
176
     1
290
     0
176
     1
290
     1
176
     1
290
     1
176
     1
290
     0
176
     1
290
     0
176
     1
290
     0
176
     1
290
     0
176
     1
290
     0
176
     1
290
     0
176
     1
 90
       50
176
     1
 40
0.0
176
     1
 40
1.0
176
     1
 90
        0
176
     1
 62
    18
420
        0
176
     1
 90
       50
176
     1
 90
        3
176
     1
 62
     5
420
      255
176
     1
290
     0
176
     1
 90
       50
176
     1
 90
       50
176
     1
 90
       50
176
     1
290
     0
176
     1
 90
       50
176
     1
 62
   256
176
     0
 40
1.0
176
     0
 90
        2
176
     1
  1
strokes_ogs.tif
176
     1
290
     0
176
     1
 40
1.0
176
     1
 40
1.0
176
     1
  0
VISUALSTYLE
  5
9D
102
{ACAD_REACTORS
330
99
102
}
330
99
100
AcDbVisualStyle
  2
GouraudWithEdges
 70
     3
177
     3
291
     1
 70
    58
 90
        2
176
     1
 90
        2
176
     1
 90
        1
176
     1
 90
        2
176
     1
 40
0.6
176
     1
 40
30.0
176
     1
 62
     7
420
 16777215
176
     1
 90
        1
176
     1
 90
        0
176
     1
 62
     7
176
     1
 62
   257
176
     1
 90
        1
176
     1
 90
        1
176
     1
 40
1.0
176
     1
 90
        0
176
     1
 62
   257
176
     1
 40
1.0
176
     1
 90
        1
176
     1
 90
        6
176
     1
 90
        2
176
     1
 62
     7
176
     1
 90
        5
176
     1
 90
        0
176
     1
 90
        0
176
     1
290
     0
176
     1
 90
       13
176
     1
 40
0.0
176
     1
 90
        0
176
     1
290
     0
176
     1
290
     1
176
     1
290
     1
176
     1
290
     0
176
     1
290
     0
176
     1
290
     0
176
     1
290
     0
176
     1
290
     0
176
     1
290
     0
176
     1
 90
       50
176
     1
 40
0.0
176
     1
 40
1.0
176
     1
 90
        0
176
     1
 62
    18
420
        0
176
     1
 90
       50
176
     1
 90
        3
176
     1
 62
     5
420
      255
176
     1
290
     0
176
     1
 90
       50
176
     1
 90
       50
176
     1
 90
       50
176
     1
290
     0
176
     1
 90
       50
176
     1
 62
   256
176
     0
 40
1.0
176
     0
 90
        2
176
     1
  1
strokes_ogs.tif
176
     1
290
     0
176
     1
 40
1.0
176
     1
 40
1.0
176
     1
  0
VISUALSTYLE
  5
A1
102
{ACAD_REACTORS
330
99
102
}
330
99
100
AcDbVisualStyle
  2
Hidden
 70
     6
177
     3
291
     0
 70
    58
 90
        1
176
     1
 90
        2
176
     1
 90
        2
176
     1
 90
        0
176
     1
 40
0.6
176
     1
 40
30.0
176
     1
 62
     7
420
 16777215
176
     1
 90
        2
176
     1
 90
        2
176
     1
 62
     7
176
     1
 62
   257
176
     1
 90
        2
176
     1
 90
        1
176
     1
 40
40.0
176
     1
 90
        0
176
     1
 62
   257
176
     1
 40
1.0
176
     1
 90
        1
176
     1
 90
        6
176
     1
 90
        2
176
     1
 62
     7
176
     1
 90
        3
176
     1
 90
        0
176
     1
 90
        0
176
     1
290
     0
176
     1
 90
        1
176
     1
 40
0.0
176
     1
 90
        0
176
     1
290
     0
176
     1
290
     1
176
     1
290
     1
176
     1
290
     0
176
     1
290
     0
176
     1
290
     0
176
     1
290
     0
176
     1
290
     0
176
     1
290
     0
176
     1
 90
       50
176
     1
 40
0.0
176
     1
 40
1.0
176
     1
 90
        0
176
     1
 62
    18
420
        0
176
     1
 90
       50
176
     1
 90
        3
176
     1
 62
     5
420
      255
176
     1
290
     0
176
     1
 90
       50
176
     1
 90
       50
176
     1
 90
       50
176
     1
290
     0
176
     1
 90
       50
176
     1
 62
   256
176
     0
 40
1.0
176
     0
 90
        2
176
     1
  1
strokes_ogs.tif
176
     1
290
     0
176
     1
 40
1.0
176
     1
 40
1.0
176
     1
  0
VISUALSTYLE
  5
173
102
{ACAD_REACTORS
330
99
102
}
330
99
100
AcDbVisualStyle
  2
JitterOff
 70
    20
177
     3
291
     1
 70
    58
 90
        2
176
     0
 90
        2
176
     0
 90
        0
176
     0
 90
        0
176
     0
 40
0.6
176
     0
 40
30.0
176
     0
 62
     7
420
 16777215
176
     0
 90
        1
176
     0
 90
        4
176
     0
 62
     7
176
     0
 62
   257
176
     0
 90
        1
176
     0
 90
        1
176
     0
 40
1.0
176
     0
 90
       10
176
     2
 62
     7
176
     0
 40
1.0
176
     0
 90
        1
176
     0
 90
        6
176
     0
 90
        2
176
     0
 62
     7
176
     0
 90
        5
176
     0
 90
        0
176
     0
 90
        0
176
     0
290
     0
176
     0
 90
        1
176
     0
 40
0.0
176
     0
 90
        0
176
     0
290
     0
176
     1
290
     1
176
     1
290
     1
176
     1
290
     0
176
     1
290
     0
176
     1
290
     0
176
     1
290
     0
176
     1
290
     0
176
     1
290
     0
176
     1
 90
       50
176
     1
 40
0.0
176
     1
 40
1.0
176
     1
 90
        0
176
     1
 62
    18
420
        0
176
     1
 90
       50
176
     1
 90
        3
176
     1
 62
     5
420
      255
176
     1
290
     0
176
     1
 90
       50
176
     1
 90
       50
176
     1
 90
       50
176
     1
290
     0
176
     1
 90
       50
176
     1
 62
   256
176
     0
 40
1.0
176
     0
 90
        2
176
     1
  1
strokes_ogs.tif
176
     1
290
     0
176
     1
 40
1.0
176
     1
 40
1.0
176
     1
  0
VISUALSTYLE
  5
A7
102
{ACAD_REACTORS
330
99
102
}
330
99
100
AcDbVisualStyle
  2
Linepattern
 70
    14
177
     3
291
     1
 70
    58
 90
        2
176
     1
 90
        2
176
     1
 90
        1
176
     1
 90
        0
176
     1
 40
0.6
176
     1
 40
30.0
176
     1
 62
     7
420
 16777215
176
     1
 90
        1
176
     1
 90
        4
176
     1
 62
     7
176
     1
 62
   257
176
     1
 90
        7
176
     1
 90
        7
176
     1
 40
1.0
176
     1
 90
        8
176
     1
 62
     7
176
     1
 40
1.0
176
     1
 90
        1
176
     1
 90
        6
176
     1
 90
        2
176
     1
 62
     7
176
     1
 90
        5
176
     1
 90
        0
176
     1
 90
        0
176
     1
290
     0
176
     1
 90
        1
176
     1
 40
0.0
176
     1
 90
        0
176
     1
290
     0
176
     1
290
     1
176
     1
290
     1
176
     1
290
     0
176
     1
290
     0
176
     1
290
     0
176
     1
290
     0
176
     1
290
     0
176
     1
290
     0
176
     1
 90
       50
176
     1
 40
0.0
176
     1
 40
1.0
176
     1
 90
        0
176
     1
 62
    18
420
        0
176
     1
 90
       50
176
     1
 90
        3
176
     1
 62
     5
420
      255
176
     1
290
     0
176
     1
 90
       50
176
     1
 90
       50
176
     1
 90
       50
176
     1
290
     0
176
     1
 90
       50
176
     1
 62
   256
176
     0
 40
1.0
176
     0
 90
        2
176
     1
  1
strokes_ogs.tif
176
     1
290
     0
176
     1
 40
1.0
176
     1
 40
1.0
176
     1
  0
VISUALSTYLE
  5
174
102
{ACAD_REACTORS
330
99
102
}
330
99
100
AcDbVisualStyle
  2
OverhangOff
 70
    21
177
     3
291
     1
 70
    58
 90
        2
176
     0
 90
        2
176
     0
 90
        0
176
     0
 90
        0
176
     0
 40
0.6
176
     0
 40
30.0
176
     0
 62
     7
420
 16777215
176
     0
 90
        1
176
     0
 90
        4
176
     0
 62
     7
176
     0
 62
   257
176
     0
 90
        1
176
     0
 90
        1
176
     0
 40
1.0
176
     0
 90
        9
176
     2
 62
     7
176
     0
 40
1.0
176
     0
 90
        1
176
     0
 90
        6
176
     0
 90
        2
176
     0
 62
     7
176
     0
 90
        5
176
     0
 90
        0
176
     0
 90
        0
176
     0
290
     0
176
     0
 90
        1
176
     0
 40
0.0
176
     0
 90
        0
176
     0
290
     0
176
     1
290
     1
176
     1
290
     1
176
     1
290
     0
176
     1
290
     0
176
     1
290
     0
176
     1
290
     0
176
     1
290
     0
176
     1
290
     0
176
     1
 90
       50
176
     1
 40
0.0
176
     1
 40
1.0
176
     1
 90
        0
176
     1
 62
    18
420
        0
176
     1
 90
       50
176
     1
 90
        3
176
     1
 62
     5
420
      255
176
     1
290
     0
176
     1
 90
       50
176
     1
 90
       50
176
     1
 90
       50
176
     1
290
     0
176
     1
 90
       50
176
     1
 62
   256
176
     0
 40
1.0
176
     0
 90
        2
176
     1
  1
strokes_ogs.tif
176
     1
290
     0
176
     1
 40
1.0
176
     1
 40
1.0
176
     1
  0
VISUALSTYLE
  5
A3
102
{ACAD_REACTORS
330
99
102
}
330
99
100
AcDbVisualStyle
  2
Realistic
 70
     8
177
     3
291
     0
 70
    58
 90
        2
176
     1
 90
        2
176
     1
 90
        0
176
     1
 90
        2
176
     1
 40
0.6
176
     1
 40
30.0
176
     1
 62
     7
420
 16777215
176
     1
 90
        0
176
     1
 90
        0
176
     1
 62
     7
176
     1
 62
   257
176
     1
 90
        1
176
     1
 90
        1
176
     1
 40
1.0
176
     1
 90
        8
176
     1
 62
   257
176
     1
 40
1.0
176
     1
 90
        1
176
     1
 90
        6
176
     1
 90
        2
176
     1
 62
     7
176
     1
 90
        3
176
     1
 90
        0
176
     1
 90
        0
176
     1
290
     0
176
     1
 90
       13
176
     1
 40
0.0
176
     1
 90
        0
176
     1
290
     0
176
     1
290
     1
176
     1
290
     1
176
     1
290
     0
176
     1
290
     0
176
     1
290
     0
176
     1
290
     0
176
     1
290
     0
176
     1
290
     0
176
     1
 90
       50
176
     1
 40
0.0
176
     1
 40
1.0
176
     1
 90
        0
176
     1
 62
    18
420
        0
176
     1
 90
       50
176
     1
 90
        3
176
     1
 62
     5
420
      255
176
     1
290
     0
176
     1
 90
       50
176
     1
 90
       50
176
     1
 90
       50
176
     1
290
     0
176
     1
 90
       50
176
     1
 62
   256
176
     0
 40
1.0
176
     0
 90
        2
176
     1
  1
strokes_ogs.tif
176
     1
290
     0
176
     1
 40
1.0
176
     1
 40
1.0
176
     1
  0
VISUALSTYLE
  5
182
102
{ACAD_REACTORS
330
99
102
}
330
99
100
AcDbVisualStyle
  2
Shaded
 70
    27
177
     3
291
     0
 70
    58
 90
        2
176
     1
 90
        2
176
     1
 90
        1
176
     1
 90
        2
176
     1
 40
0.6
176
     1
 40
30.0
176
     1
 62
     7
420
 16777215
176
     1
 90
        0
176
     1
 90
        4
176
     1
 62
     7
176
     1
 62
   257
176
     1
 90
        1
176
     1
 90
        1
176
     1
 40
1.0
176
     1
 90
        8
176
     1
 62
   257
176
     1
 40
1.0
176
     1
 90
        1
176
     1
 90
        6
176
     1
 90
        2
176
     1
 62
     8
420
  7895160
176
     1
 90
        3
176
     1
 90
        0
176
     1
 90
        0
176
     1
290
     0
176
     1
 90
        5
176
     1
 40
0.0
176
     1
 90
        0
176
     1
290
     0
176
     1
290
     1
176
     1
290
     1
176
     1
290
     0
176
     1
290
     0
176
     1
290
     0
176
     1
290
     0
176
     1
290
     0
176
     1
290
     0
176
     1
 90
       50
176
     1
 40
0.0
176
     1
 40
1.0
176
     1
 90
        0
176
     1
 62
    18
420
        0
176
     1
 90
       50
176
     1
 90
        3
176
     1
 62
     5
420
      255
176
     1
290
     0
176
     1
 90
       50
176
     1
 90
       50
176
     1
 90
       50
176
     1
290
     0
176
     1
 90
       50
176
     1
 62
   256
176
     0
 40
1.0
176
     0
 90
        2
176
     1
  1
strokes_ogs.tif
176
     1
290
     0
176
     1
 40
1.0
176
     1
 40
1.0
176
     1
  0
VISUALSTYLE
  5
181
102
{ACAD_REACTORS
330
99
102
}
330
99
100
AcDbVisualStyle
  2
Shaded with edges
 70
    26
177
     3
291
     0
 70
    58
 90
        2
176
     1
 90
        2
176
     1
 90
        1
176
     1
 90
        2
176
     1
 40
0.6
176
     1
 40
30.0
176
     1
 62
     7
420
 16777215
176
     1
 90
        1
176
     1
 90
        2
176
     1
 62
     7
176
     1
 62
   257
176
     1
 90
        2
176
     1
 90
        1
176
     1
 40
1.0
176
     1
 90
        8
176
     1
 62
   257
176
     1
 40
1.0
176
     1
 90
        1
176
     1
 90
        6
176
     1
 90
        2
176
     1
 62
     7
176
     1
 90
        3
176
     1
 90
        0
176
     1
 90
        0
176
     1
290
     0
176
     1
 90
        5
176
     1
 40
0.0
176
     1
 90
        0
176
     1
290
     0
176
     1
290
     1
176
     1
290
     1
176
     1
290
     0
176
     1
290
     0
176
     1
290
     0
176
     1
290
     0
176
     1
290
     0
176
     1
290
     0
176
     1
 90
       50
176
     1
 40
0.0
176
     1
 40
1.0
176
     1
 90
        0
176
     1
 62
    18
420
        0
176
     1
 90
       50
176
     1
 90
        3
176
     1
 62
     5
420
      255
176
     1
290
     0
176
     1
 90
       50
176
     1
 90
       50
176
     1
 90
       50
176
     1
290
     0
176
     1
 90
       50
176
     1
 62
   256
176
     0
 40
1.0
176
     0
 90
        2
176
     1
  1
strokes_ogs.tif
176
     1
290
     0
176
     1
 40
1.0
176
     1
 40
1.0
176
     1
  0
VISUALSTYLE
  5
17E
102
{ACAD_REACTORS
330
99
102
}
330
99
100
AcDbVisualStyle
  2
Shades of Gray
 70
    23
177
     3
291
     0
 70
    58
 90
        2
176
     1
 90
        2
176
     1
 90
        3
176
     1
 90
        0
176
     1
 40
0.6
176
     1
 40
30.0
176
     1
 62
     7
420
 16777215
176
     1
 90
        2
176
     1
 90
        2
176
     1
 62
     7
176
     1
 62
     7
176
     1
 90
        1
176
     1
 90
        1
176
     1
 40
40.0
176
     1
 90
        8
176
     1
 62
     7
176
     1
 40
1.0
176
     1
 90
        1
176
     1
 90
        6
176
     1
 90
        2
176
     1
 62
     7
176
     1
 90
        3
176
     1
 90
        0
176
     1
 90
        0
176
     1
290
     0
176
     1
 90
        1
176
     1
 40
0.0
176
     1
 90
        0
176
     1
290
     0
176
     1
290
     1
176
     1
290
     1
176
     1
290
     0
176
     1
290
     0
176
     1
290
     0
176
     1
290
     0
176
     1
290
     0
176
     1
290
     0
176
     1
 90
       50
176
     1
 40
0.0
176
     1
 40
1.0
176
     1
 90
        0
176
     1
 62
    18
420
        0
176
     1
 90
       50
176
     1
 90
        3
176
     1
 62
     5
420
      255
176
     1
290
     0
176
     1
 90
       50
176
     1
 90
       50
176
     1
 90
       50
176
     1
290
     0
176
     1
 90
       50
176
     1
 62
   256
176
     0
 40
1.0
176
     0
 90
        2
176
     1
  1
strokes_ogs.tif
176
     1
290
     0
176
     1
 40
1.0
176
     1
 40
1.0
176
     1
  0
VISUALSTYLE
  5
17F
102
{ACAD_REACTORS
330
99
102
}
330
99
100
AcDbVisualStyle
  2
Sketchy
 70
    24
177
     3
291
     0
 70
    58
 90
        1
176
     1
 90
        2
176
     1
 90
        2
176
     1
 90
        0
176
     1
 40
0.6
176
     1
 40
30.0
176
     1
 62
     7
420
 16777215
176
     1
 90
        2
176
     1
 90
        2
176
     1
 62
     7
176
     1
 62
     7
176
     1
 90
        1
176
     1
 90
        1
176
     1
 40
40.0
176
     1
 90
       11
176
     1
 62
     7
176
     1
 40
1.0
176
     1
 90
        1
176
     1
 90
        6
176
     1
 90
        2
176
     1
 62
     7
176
     1
 90
        6
176
     1
 90
        0
176
     1
 90
        0
176
     1
290
     0
176
     1
 90
        1
176
     1
 40
0.0
176
     1
 90
        0
176
     1
290
     0
176
     1
290
     1
176
     1
290
     1
176
     1
290
     0
176
     1
290
     0
176
     1
290
     0
176
     1
290
     0
176
     1
290
     0
176
     1
290
     0
176
     1
 90
       50
176
     1
 40
0.0
176
     1
 40
1.0
176
     1
 90
        0
176
     1
 62
    18
420
        0
176
     1
 90
       50
176
     1
 90
        3
176
     1
 62
     5
420
      255
176
     1
290
     0
176
     1
 90
       50
176
     1
 90
       50
176
     1
 90
       50
176
     1
290
     0
176
     1
 90
       50
176
     1
 62
   256
176
     0
 40
1.0
176
     0
 90
        2
176
     1
  1
strokes_ogs.tif
176
     1
290
     0
176
     1
 40
1.0
176
     1
 40
1.0
176
     1
  0
VISUALSTYLE
  5
A6
102
{ACAD_REACTORS
330
99
102
}
330
99
100
AcDbVisualStyle
  2
Thicken
 70
    13
177
     3
291
     1
 70
    58
 90
        2
176
     1
 90
        2
176
     1
 90
        1
176
     1
 90
        0
176
     1
 40
0.6
176
     1
 40
30.0
176
     1
 62
     7
420
 16777215
176
     1
 90
        1
176
     1
 90
        4
176
     1
 62
     7
176
     1
 62
   257
176
     1
 90
        1
176
     1
 90
        1
176
     1
 40
1.0
176
     1
 90
       12
176
     1
 62
     7
176
     1
 40
1.0
176
     1
 90
        1
176
     1
 90
        6
176
     1
 90
        2
176
     1
 62
     7
176
     1
 90
        5
176
     1
 90
        0
176
     1
 90
        0
176
     1
290
     0
176
     1
 90
        1
176
     1
 40
0.0
176
     1
 90
        0
176
     1
290
     0
176
     1
290
     1
176
     1
290
     1
176
     1
290
     0
176
     1
290
     0
176
     1
290
     0
176
     1
290
     0
176
     1
290
     0
176
     1
290
     0
176
     1
 90
       50
176
     1
 40
0.0
176
     1
 40
1.0
176
     1
 90
        0
176
     1
 62
    18
420
        0
176
     1
 90
       50
176
     1
 90
        3
176
     1
 62
     5
420
      255
176
     1
290
     0
176
     1
 90
       50
176
     1
 90
       50
176
     1
 90
       50
176
     1
290
     0
176
     1
 90
       50
176
     1
 62
   256
176
     0
 40
1.0
176
     0
 90
        2
176
     1
  1
strokes_ogs.tif
176
     1
290
     0
176
     1
 40
1.0
176
     1
 40
1.0
176
     1
  0
VISUALSTYLE
  5
A0
102
{ACAD_REACTORS
330
99
102
}
330
99
100
AcDbVisualStyle
  2
Wireframe
 70
     5
177
     3
291
     0
 70
    58
 90
        0
176
     1
 90
        2
176
     1
 90
        0
176
     1
 90
        0
176
     1
 40
0.6
176
     1
 40
30.0
176
     1
 62
     7
420
 16777215
176
     1
 90
        1
176
     1
 90
        4
176
     1
 62
     7
176
     1
 62
   257
176
     1
 90
        1
176
     1
 90
        1
176
     1
 40
1.0
176
     1
 90
        0
176
     1
 62
   257
176
     1
 40
1.0
176
     1
 90
        1
176
     1
 90
        6
176
     1
 90
        2
176
     1
 62
     7
176
     1
 90
        3
176
     1
 90
        0
176
     1
 90
        0
176
     1
290
     0
176
     1
 90
        1
176
     1
 40
0.0
176
     1
 90
        0
176
     1
290
     0
176
     1
290
     1
176
     1
290
     1
176
     1
290
     0
176
     1
290
     0
176
     1
290
     0
176
     1
290
     0
176
     1
290
     0
176
     1
290
     0
176
     1
 90
       50
176
     1
 40
0.0
176
     1
 40
1.0
176
     1
 90
        0
176
     1
 62
    18
420
        0
176
     1
 90
       50
176
     1
 90
        3
176
     1
 62
     5
420
      255
176
     1
290
     0
176
     1
 90
       50
176
     1
 90
       50
176
     1
 90
       50
176
     1
290
     0
176
     1
 90
       50
176
     1
 62
   256
176
     0
 40
1.0
176
     0
 90
        2
176
     1
  1
strokes_ogs.tif
176
     1
290
     0
176
     1
 40
1.0
176
     1
 40
1.0
176
     1
  0
VISUALSTYLE
  5
180
102
{ACAD_REACTORS
330
99
102
}
330
99
100
AcDbVisualStyle
  2
X-Ray
 70
    25
177
     3
291
     0
 70
    58
 90
        2
176
     1
 90
        2
176
     1
 90
        1
176
     1
 90
        1
176
     1
 40
0.5
176
     1
 40
30.0
176
     1
 62
     7
420
 16777215
176
     1
 90
        1
176
     1
 90
        0
176
     1
 62
     7
176
     1
 62
   257
176
     1
 90
        1
176
     1
 90
        1
176
     1
 40
1.0
176
     1
 90
        8
176
     1
 62
     7
176
     1
 40
1.0
176
     1
 90
        1
176
     1
 90
        6
176
     1
 90
        2
176
     1
 62
     7
176
     1
 90
        3
176
     1
 90
        0
176
     1
 90
        0
176
     1
290
     0
176
     1
 90
       13
176
     1
 40
0.0
176
     1
 90
        0
176
     1
290
     0
176
     1
290
     1
176
     1
290
     1
176
     1
290
     0
176
     1
290
     0
176
     1
290
     0
176
     1
290
     0
176
     1
290
     0
176
     1
290
     0
176
     1
 90
       50
176
     1
 40
0.0
176
     1
 40
1.0
176
     1
 90
        0
176
     1
 62
    18
420
        0
176
     1
 90
       50
176
     1
 90
        3
176
     1
 62
     5
420
      255
176
     1
290
     0
176
     1
 90
       50
176
     1
 90
       50
176
     1
 90
       50
176
     1
290
     0
176
     1
 90
       50
176
     1
 62
   256
176
     0
 40
1.0
176
     0
 90
        2
176
     1
  1
strokes_ogs.tif
176
     1
290
     0
176
     1
 40
1.0
176
     1
 40
1.0
176
     1
  0
DICTIONARYVAR
  5
4A0D6
102
{ACAD_REACTORS
330
4A0D5
102
}
330
4A0D5
100
DictionaryVariables
280
     0
  1
2
  0
DICTIONARYVAR
  5
4A0D7
102
{ACAD_REACTORS
330
4A0D5
102
}
330
4A0D5
100
DictionaryVariables
280
     0
  1
400.000000
  0
DICTIONARYVAR
  5
4A0D8
102
{ACAD_REACTORS
330
4A0D5
102
}
330
4A0D5
100
DictionaryVariables
280
     0
  1
1
  0
DICTIONARYVAR
  5
4A0D9
102
{ACAD_REACTORS
330
4A0D5
102
}
330
4A0D5
100
DictionaryVariables
280
     0
  1
1:1
  0
DICTIONARYVAR
  5
4A0DA
102
{ACAD_REACTORS
330
4A0D5
102
}
330
4A0D5
100
DictionaryVariables
280
     0
  1
STANDARD
  0
DICTIONARYVAR
  5
4A0DB
102
{ACAD_REACTORS
330
4A0D5
102
}
330
4A0D5
100
DictionaryVariables
280
     0
  1
STANDARD
  0
DICTIONARYVAR
  5
4A0DC
102
{ACAD_REACTORS
330
4A0D5
102
}
330
4A0D5
100
DictionaryVariables
280
     0
  1
Imperial24
  0
DICTIONARYVAR
  5
4A0DD
102
{ACAD_REACTORS
330
4A0D5
102
}
330
4A0D5
100
DictionaryVariables
280
     0
  1
Imperial24
  0
DICTIONARYVAR
  5
4A0DE
102
{ACAD_REACTORS
330
4A0D5
102
}
330
4A0D5
100
DictionaryVariables
280
     0
  1
-1
  0
DICTIONARYVAR
  5
4A0DF
102
{ACAD_REACTORS
330
4A0D5
102
}
330
4A0D5
100
DictionaryVariables
280
     0
  1
1
  0
DICTIONARYVAR
  5
4A0E0
102
{ACAD_REACTORS
330
4A0D5
102
}
330
4A0D5
100
DictionaryVariables
280
     0
  1
2
  0
DICTIONARYVAR
  5
4A0E1
102
{ACAD_REACTORS
330
4A0D5
102
}
330
4A0D5
100
DictionaryVariables
280
     0
  1
0
  0
DICTIONARYVAR
  5
4A0E2
102
{ACAD_REACTORS
330
4A0D5
102
}
330
4A0D5
100
DictionaryVariables
280
     0
  1
4
  0
DICTIONARYVAR
  5
4A0E3
102
{ACAD_REACTORS
330
4A0D5
102
}
330
4A0D5
100
DictionaryVariables
280
     0
  1
V-Construction
  0
DICTIONARYVAR
  5
4A0E4
102
{ACAD_REACTORS
330
4A0D5
102
}
330
4A0D5
100
DictionaryVariables
280
     0
  1
ByLayer
  0
DICTIONARYVAR
  5
4A0E5
102
{ACAD_REACTORS
330
4A0D5
102
}
330
4A0D5
100
DictionaryVariables
280
     0
  1
0
  0
DICTIONARYVAR
  5
4A0E6
102
{ACAD_REACTORS
330
4A0D5
102
}
330
4A0D5
100
DictionaryVariables
280
     0
  1
0
  0
DICTIONARYVAR
  5
4A0E7
102
{ACAD_REACTORS
330
4A0D5
102
}
330
4A0D5
100
DictionaryVariables
280
     0
  1
0
  0
DICTIONARYVAR
  5
4A0E8
102
{ACAD_REACTORS
330
4A0D5
102
}
330
4A0D5
100
DictionaryVariables
280
     0
  1
2
  0
DICTIONARYVAR
  5
4A0E9
102
{ACAD_REACTORS
330
4A0D5
102
}
330
4A0D5
100
DictionaryVariables
280
     0
  1
1.000000
  0
DICTIONARYVAR
  5
4A0EA
102
{ACAD_REACTORS
330
4A0D5
102
}
330
4A0D5
100
DictionaryVariables
280
     0
  1
1
  0
DICTIONARYVAR
  5
4A0EB
102
{ACAD_REACTORS
330
4A0D5
102
}
330
4A0D5
100
DictionaryVariables
280
     0
  1
1.000000
  0
DICTIONARYVAR
  5
4A0EC
102
{ACAD_REACTORS
330
4A0D5
102
}
330
4A0D5
100
DictionaryVariables
280
     0
  1
1
  0
DICTIONARYVAR
  5
4A0ED
102
{ACAD_REACTORS
330
4A0D5
102
}
330
4A0D5
100
DictionaryVariables
280
     0
  1
0
  0
DICTIONARYVAR
  5
4A0EE
102
{ACAD_REACTORS
330
4A0D5
102
}
330
4A0D5
100
DictionaryVariables
280
     0
  1

  0
DICTIONARYVAR
  5
4A0EF
102
{ACAD_REACTORS
330
4A0D5
102
}
330
4A0D5
100
DictionaryVariables
280
     0
  1
0
  0
DICTIONARYVAR
  5
4A0F0
102
{ACAD_REACTORS
330
4A0D5
102
}
330
4A0D5
100
DictionaryVariables
280
     0
  1
127
  0
DICTIONARY
  5
194
330
22
100
AcDbDictionary
280
     1
281
     1
  0
DICTIONARY
  5
188
330
97
100
AcDbDictionary
280
     1
281
     1
  3
FBXASSET
360
189
  0
DICTIONARY
  5
186
330
96
100
AcDbDictionary
280
     1
281
     1
  3
FBXASSET
360
187
  0
DICTIONARY
  5
110
330
98
100
AcDbDictionary
280
     1
281
     1
  3
BUMPTILE
360
112
  3
DIFFUSETILE
360
111
  3
FBXASSET
360
18A
  3
OPACITYTILE
360
113
  3
REFLECTIONTILE
360
114
  0
DICTIONARY
  5
104
330
87
100
AcDbDictionary
280
     1
281
     1
  3
ACAD_ROUNDTRIP_2008_TABLESTYLE_CELLSTYLEMAP
360
5F986
  0
XRECORD
  5
189
102
{ACAD_REACTORS
330
188
102
}
330
188
100
AcDbXrecord
280
     1
 70
     1
 90
429727718
  1
508B35C9-AEE7-456F-BE74-D52651303AC6
310
504B03040A0000080000B670623B3DEE336E79000000790000001B0000006175746F6465736B2D64657369676E2D7061636B6167652E786D6C3C3F786D6C2076657273696F6E3D22312E302220656E636F64696E673D227574662D3822203F3E3C666F726D6174733E3C666F726D61743E687474703A2F2F736368656D612E
310
6175746F6465736B2E636F6D2F64657369676E2D7061636B6167652F323030393C2F666F726D61743E3C2F666F726D6174733E504B0304140006080800B670623BD486FD9CA0000000F4000000130000005B436F6E74656E745F54797065735D2E786D6C7D8EC10E82300C865F65E91D8A1E8C310C0EEA1BF002731658846E
310
D98AC1B77784ABF1D8FE5FBFBF75BBCE937A534CCEB38643598122B6FEE978D0B0485F9C41B54DDD7D022595594E1A469170414C76A4D9A4D207E29CF43ECE46F218070CC6BECC4078ACAA135ACF422C856C0E68EA1BF5669944DDD7BCDE7B1F8E415D77AECB980613C2E4AC91FC167A2B244592486606FC29C8FD7F045B9A
310
EF7053A7E60B504B0304140006080800B670623B28ED286BEB0000007C01000008000000636F72652E786D6C8D90416EC3201045AF82665B6183218D6D61A254764FD00B204C5C94182C03558F5F9C3852BBEB6A467FFE9B197D71FA9E6FE8CBACC17AD7012D0820E3B41FAD9B3A48F1826B40272956EFE32F1B20A766D3C1
310
268314D3EAD3B24BDABB685CCCAAF3A3D94515828980F42D371D04FD696655A814B3235C8B45E9AB9A4C419F5D8653B2237A1CB163DE672FD6AC209BF3C08E0D1B30EB19C3FC9D72FCC6EB231EFA33EDE96BDD341517E5064B11EDFCBCAF57A3A2194156843498524CAA0FCA5B7268F9E185D42D21A2DCEC7FA0B48CFF8492
310
759155FBBB0F2C80A4F991FB408A72CB22977B50B96EB9C91F504B0304140006080800B670623B55019EA25F0000007C00000007000000636E782E786D6C4DCB3B0E80201045D1AD90E915ED2CF8AC45050C11660C8261F98AB1B07AC9C97D42D718D865D3E909258CFD00CCE24AC6E326A164D74DC0B4128928FF32603847
310
2BA13128B1252AC747C6BAB984FC68F0B87FE8960A5C09FE86CFB69FBA01504B0304140006080800B670623B7BC41AC871010000D40300000C0000006662782F636F72652E786D6CC553ED6E8320147D15C2DF4501B56B6D90A64BBB27D80B50A5CE54C120983EFEAE1F4DD7A56BBA5FF3879273EEE59E7310BE393735EA95
310
ED2AA333CC428A91D2B9292A5D66D8BB63B0C26823B835C67D2BC348CB46657880B1E0A535BE9DA1DC68A7B403549B42CDA0EC3AE530CA6B5864B8CB3F552343E91D5474A7B095F949962A6421D0502778E72C0840D390E18DC5F170E664C205F7BE2A66B62A605A75AC94C522DDEEE3651AEF837817C741F2CE92E02D592D
310
83FD6ECB76EC7595A651C2C9D02CB8AB9A8BBADC2AE954814544691A3016D0E883256BBA58278B17BA5A53CAC9507ED3E4DBE2C9265F691747B3DCA9ADC382819091F8E1162272A8933DE82182932144F88C09DF060D8140C84E1EEA8B8F1340BDCA9DB1093085F157AA97B557309586747CD0EF0B4EA64E983A6E0EAEEFCE
310
889E9EF17847386AA94B30211D2C0FDE0D3AF9A4610EAD5536E8DD1969631B593F67E381C33F5157F17725E5A636F6BF1491F980C8FC7B90E13E8A2F504B0304140006080800B670623B70102A487D0000009D0000000B0000006662782F636E782E786D6C4DCCD10A83201886E15B91FFDC95A5C30335ACCDFB886521330D
310
A76397BF1A1DECE883878F57749FD5A3B74D2F17830472A901D9F088930B8B849267CC01754AA418F3DF0D5018572BE160506249B16C274D761E8BCFBB7A179E27F65CB39A0F14D396184C9921B81F34C3ACA1B4B99ABB6E6F062A25AA5F69DF23ACBE504B0304140006080800B670623B3610CA3329010000120200003100
310
00006662782F42384135303843342D343331462D343546312D424341352D3532343432364645413344462F636F72652E786D6C8D515B6EC32010BC0AE22B55850D0E446E848992B43E412FE000495162B07854397EA176A4F62F3F2C9A9D991D58BEBB8F37F0AD7D30CE76905418026DA553C65E3A98E219B510EC04F7CEC5
310
3F3408EC30EA0E16180A7EF12E4D0B249D8DDAC68C5AA7F4020E21E80881BCE54B0783FCD2E3500D296646B856D320AFC34557A4CAEDCC133C449F0380794839A138B47B86DB2345744D7A44594FD0E1B867883594369BFE63BF7EEF793D0B054FC9A8456E548E63CE46FB674D8A58F068C6477CE9F510B582A2C1F80D1182
310
70F349E816B32D65AFB8DD62CCEB42FF274A937A52948C8DEB66893BCB021484D7734370E5D2E9F608A3EF93F3119479ABA0E50B14B8C298119A43CCC4FCFCECB8A18B6388CEE7EF5D5D4F994BD86CBBA182D76543B9FCAE2FD7B24DF103504B0304140006080800B670623B1B8617914E0100003303000030000000666278
310
2F42384135303843342D343331462D343546312D424341352D3532343432364645413344462F636E782E786D6CD593C16EC32010447F0571AD6CE3D489D20813A9877E410FBD62D82434182CC055F3F75D1292E692438FBD206B7698593D61BEFD1E2DF982108D773D6D6B460938E5B571FB9ECE6957AD29D90A1EBC4F7736
310
4A9C1CA1A759A682EF839FA72269D8C9D92654AD71C72206887E0E0A22CAF926B15E498B01E0AA19451807D01A34B919F16B070157417138917400F2F6FA41FCF0092A45DEE414C19BDC21783E4BD39D891265658C3D8DEA00A3ACE59CBC8678ACB54CB26EEB6BD7839D7E9348BE70AD9C8321B9BCA7F9A4A26C542347DEE0
310
50F09802D22BA6749A800A394DD62899107273365E3C82CFC6A55557BC06C10774B7ABE7AEC3B0F34CF06446280E154026D0542C187BA9DAB6628BF7B6DBB0E5A65B3EB1F58631DE64BBE083F7B65CC218087E22CABB042E51D1F2268F1FE12B3EA24D40D63E9CFE00120194D60B9D5BC67FE6D39CDF37E20AF817881F504B
310
0304140006080800B670623BBFEF2E3B690500003C100000340000006662782F42384135303843342D343331462D343546312D424341352D3532343432364645413344462F6F626A656374732E786D6CAD575D739B3814FD2B0CFB0C98D84E931D4227B6938EA793B6534F3BFB90198F0099B001899144EAECAFDF231018B0
310
D37A3FFC609090EEE7B94757C1FB7D915B2F54C88CB31BDB7727B64559CC938CA53776A576CE956DBD0F03C1B9EA2DB32D460A7A63EB693B0C52C1ABD24C257447AA5C8D66EF177F5832A68CDA569C13296F6C193FD182B8A4523CA1F2D94D88226EBADBBBBEDB2C1C8A4D05299F46424B222853B014F30C52ACC6287F389C
310
D85E1878FA7B18E87FB36AFAF62AAFF667A83F635211161F291B8999FAB3D5DDC5FCDA99CF6653677679E13B8BFBC5CAF1DF4D27CBCBE5F2FAF6EE1A8AA51290642C117467871F101B91C581D77CEA2C36869F3229E68CD1B8F61F1ED6361B89092D294B90C78C4A68EB793D190E7D1D9BDEE7A91E1B95FDE9F3BCEAEFE809
310
6A6D6F9F7D4B79F4275C90E7A04248AA51D5C4C738DAE06F72885AC4796EBE65D22A88A22223B995679120E2D50EB1542F098381188D4EA111AE3DB043FF20AF6F2B4AE3D7D83D65E5AECA730D4D3BAC91BD05FEA992B565D95F549CD6069B90AB2A63EACA38A45E4B6A87D781574F86817E4C2FCCC72690D62E2729520E37
310
9BAF234797BAF6D62B3BFC781FED37BA1E4F2B2F052FA9501A3E80569BB8F6A9A364D4FA67654E6F803383981F82F21591FF84F23D9882BC896C3FDBCF8C162508933B2E0AE4C69DD43F6BD2BE38DDDBF10BF86CB4FA784D37F3AF16075E67EC9030DECA1FC0A55373F5DFF3378C591FA9BDF485C10B0A8C8BA909E5262639
310
A8E72163488806A595734C81CB77D1DE0ED7604A303B76913CEC0272F412782FF88EFF4636D8AA56DF7B322474C4B767303F625997056C7B032C473C592B36CEBD15F3F9FF5233B7ABCDC74D257624A60F8658567497B14CE1EC3C80B76FD02011038F9EE9EB0F2E12387A9C844D3F09855125116D1D731DF8B43D2CF4E0A0
310
79A020C6BE946BCE0B7EA1E1219331CD73C228AF5A2DDD31A4B1DA918CE91350854D40A71723140BFA92E94E62B0626016CEFA5864A50E5977E8753CEDBEE1CBB7F52780D20E17AF0BA0F5F9B02A3AD07DCC732EB6D1EBB661421BE0C39E21BABF0FE16D22EA6929407C8DE596724C88B749B6DB5512BC7B228ADFD7CB7EA6
310
3A22397E690BA8D5D8D4E40CEC8CDA23C2C0B7D5898640101CEC9C6D331CE328CB93CAFBBAC70A642DF70DF95155945B52F08AA973C23469FD69ADEF84F7BB18F983A8F8C90E37F5D35980B2139A1C523540813E824EF83448CF7C72B598CE97D7CEEDDDDD3B6736BFBC771677EF66CE6A7E7139F7A793E9EDF2B2B3A8B624
310
0CDA13AA5F8388264EC4A0129909F3B7F5A16CEDF08128E97D680ACA4B9BE7B7B58BB638F0B00700EF36AE8B32A705658A68F83EE897FC2B41573190D1CCAF0B92D233A47CFEB019D9809933F67DD1A5467F8CF69AD9A5AE859342D45355448C64F968A371DC2D596ADC6E43D93D1B466F877A64E2893E54F23C4B40388995
310
525E5005DA3983ED45412510D3EFCA13737B3863F74BD30F2A12E5B4B5E489A025CE25500DB855B11ACE5BBFA185D35DD48D8DC3CE7DC69F2944DB42AA6F6CF09BCA622ADD08C7A36E7C6AE18000BAB08E040135C2D21C9D75B3A91B77BB746C403F38018DFE6EC939DD92F16B40BC05294B9CDA035AAD6D330AE27FE4786B
310
8E45145EA34A75BE1C263A676A35A8ACC6297337400BF16C54EF515F3F77CB77EB3583889C754FFA29081AA98E2222ADEF05DA3E63D2EDEA8B8756C05A7FB6CABC4A91CBF325398202CC952E70A008A830324BA200D5E5EF8F5F04C75DB4B0EE3340E071C98B823333B83577596BF3849B69F2085AA0FAFA212F26BEFF5877
310
FDE622B28D88A42E49E43326DA82D31E8CB006401E1DA726059ECEC168F97A6599036306A135688F9AD2E61A6EA178F4CD51974A9F2CCB9F36FE5EBD14601068D9C3BF01504B0304140006080000B670623B000000000000000000000000350000006662782F42384135303843342D343331462D343546312D424341352D35
310
32343432364645413344462F76657274696365732E62696E504B0304140006080800B670623BF270F1330600000004000000360000006662782F42384135303843342D343331462D343546312D424341352D3532343432364645413344462F747269616E676C65732E62696E636660600000504B0304140006080000B67062
310
3B000000000000000000000000370000006662782F42384135303843342D343331462D343546312D424341352D3532343432364645413344462F617474726962757465732E62696E504B0304140006080800B670623B08DA0BD19000000041010000360000006662782F42384135303843342D343331462D343546312D4243
310
41352D3532343432364645413344462F6469726563746F72792E786D6C858F410AC3201045AF22B36F53E9A60B35CBEEBAE80D244E44489C6234F4F835464A48035D0DF398FF9F8AF63D0E6CC63039F212F8F9020C7D47C6792B21C5FE7403D62A1188E2E60C98D7234A5830286103A55745067B9D86B8A3CF9C7F90C11DE6
310
07FB144396D7B6A82D282E9A152AD114D5EF2CB866EEE831B8EEA07A7BB5A8D7D61A2BAAEB7FD5F70921FF497D00504B0304140006080800B670623B3B4606F3FE000000A00100003B0000006662782F42384135303843342D343331462D343546312D424341352D3532343432364645413344462F7265736F75726365732F
310
636F72652E786D6C8D504B6E833010BD0A9A6D65B08134808CA354A427E8052C332156828DFCA97AFC9A40A576D7CDCCE87D344F8F9FBEE647F689CE6B6B7A6039850C8DB2A336530F315C4903D94970676DF82583CCC8197B5861107C72362E3BA4AC096842428D1D7107A5F71820538F74F4E0D50D6799CB1892C2DFF345
310
AABB9C306779A2934E701F5C0A906D4FD609C2A1B7D129F4BCD858C163D4E3AED163FAA9AF1A1D88F67CA98E6D35906AA82A52BFB39ABCD5CD915C86331BD86BD3B665CD8BD52C78D0F34F46E550061C419494B6843142CB0F5677F4D0D58717DA7494F26295FF31C565FCA7296A13AA728FBBD93C0896823C09C18BB5AFB4
310
9E65A6BD762BBE01504B010214000A0000080000B670623B3DEE336E79000000790000001B00000000000000000000000000000000006175746F6465736B2D64657369676E2D7061636B6167652E786D6C504B01021400140006080800B670623BD486FD9CA0000000F40000001300000000000000000000000000B2000000
310
5B436F6E74656E745F54797065735D2E786D6C504B01021400140006080800B670623B28ED286BEB0000007C010000080000000000000000000000000083010000636F72652E786D6C504B01021400140006080800B670623B55019EA25F0000007C000000070000000000000000000000000094020000636E782E786D6C50
310
4B01021400140006080800B670623B7BC41AC871010000D40300000C00000000000000000000000000180300006662782F636F72652E786D6C504B01021400140006080800B670623B70102A487D0000009D0000000B00000000000000000000000000B30400006662782F636E782E786D6C504B01021400140006080800B6
310
70623B3610CA3329010000120200003100000000000000000000000000590500006662782F42384135303843342D343331462D343546312D424341352D3532343432364645413344462F636F72652E786D6C504B01021400140006080800B670623B1B8617914E010000330300003000000000000000000000000000D10600
310
006662782F42384135303843342D343331462D343546312D424341352D3532343432364645413344462F636E782E786D6C504B01021400140006080800B670623BBFEF2E3B690500003C10000034000000000000000000000000006D0800006662782F42384135303843342D343331462D343546312D424341352D35323434
310
32364645413344462F6F626A656374732E786D6C504B01021400140006080000B670623B0000000000000000000000003500000000000000000000000000280E00006662782F42384135303843342D343331462D343546312D424341352D3532343432364645413344462F76657274696365732E62696E504B010214001400
310
06080800B670623BF270F133060000000400000036000000000000000000000000007B0E00006662782F42384135303843342D343331462D343546312D424341352D3532343432364645413344462F747269616E676C65732E62696E504B01021400140006080000B670623B00000000000000000000000037000000000000
310
00000000000000D50E00006662782F42384135303843342D343331462D343546312D424341352D3532343432364645413344462F617474726962757465732E62696E504B01021400140006080800B670623B08DA0BD1900000004101000036000000000000000000000000002A0F00006662782F42384135303843342D3433
310
31462D343546312D424341352D3532343432364645413344462F6469726563746F72792E786D6C504B01021400140006080800B670623B3B4606F3FE000000A00100003B000000000000000000000000000E1000006662782F42384135303843342D343331462D343546312D424341352D3532343432364645413344462F72
310
65736F75726365732F636F72652E786D6C504B0506000000000E000E0080040000651100000000
  0
XRECORD
  5
187
102
{ACAD_REACTORS
330
186
102
}
330
186
100
AcDbXrecord
280
     1
 70
     1
 90
429727718
  1
887D55A9-D0DD-414E-B741-A7DCD4DA2B4C
310
504B03040A0000080000B670623B3DEE336E79000000790000001B0000006175746F6465736B2D64657369676E2D7061636B6167652E786D6C3C3F786D6C2076657273696F6E3D22312E302220656E636F64696E673D227574662D3822203F3E3C666F726D6174733E3C666F726D61743E687474703A2F2F736368656D612E
310
6175746F6465736B2E636F6D2F64657369676E2D7061636B6167652F323030393C2F666F726D61743E3C2F666F726D6174733E504B0304140006080800B670623BD486FD9CA0000000F4000000130000005B436F6E74656E745F54797065735D2E786D6C7D8EC10E82300C865F65E91D8A1E8C310C0EEA1BF002731658846E
310
D98AC1B77784ABF1D8FE5FBFBF75BBCE937A534CCEB38643598122B6FEE978D0B0485F9C41B54DDD7D022595594E1A469170414C76A4D9A4D207E29CF43ECE46F218070CC6BECC4078ACAA135ACF422C856C0E68EA1BF5669944DDD7BCDE7B1F8E415D77AECB980613C2E4AC91FC167A2B244592486606FC29C8FD7F045B9A
310
EF7053A7E60B504B0304140006080800B670623BBC1638F5EC0000007C01000008000000636F72652E786D6C8D90416EC3201045AF82665B61836BE2D8C24471DB9CA01740401C94182C03558F5F9C3852BBEB6A467FFE9B197D7EF89E6EE8CB2CC17AD7032D0820E394D7D68D3DA478C67B4007C117EFE32F1B202727D3C3
310
2A83E0E3E2D3BC49CABB685CCCAAF3DA6CA20CC14440EA969B1E82BA98491632C5EC08D76296EA2A4753D06797E194AC468F2356E77DF66CCD02825543D50CACC62D39ED70FDC68EB8FD68F6F8787A6784342D1DDA1D2F5758F068A7E77DB518198D065111D2624A31A93E69DD11D6D5EC85EC3B4278B9DAFF4069D6FF8492
310
75F1B5DADE7D600104CD8FDC0782976B16B9DC83CA75CD4DFC00504B0304140006080800B670623B55019EA25F0000007C00000007000000636E782E786D6C4DCB3B0E80201045D1AD90E915ED2CF8AC45050C11660C8261F98AB1B07AC9C97D42D718D865D3E909258CFD00CCE24AC6E326A164D74DC0B4128928FF326038
310
472BA13128B1252AC747C6BAB984FC68F0B87FE8960A5C09FE86CFB69FBA01504B0304140006080800B670623B3586FFB671010000D40300000C0000006662782F636F72652E786D6CC553ED6E8320147D15C2DF4541A76D6D90A6DDD627D80B50A4CE54C120983EFEAE1F4DD7A55BBA5FF3879273EEE59E7310B6393735EA
310
95ED2AA3731C851423A5A5292A5DE6D8BB63B0C268C39935C67D29C3488B46E578803167A535BE9D2169B453DA01AA4DA16650749D7218C91A1639EEE4876A4428BC838AEE14B6429E44A9C228041AEA38EB9C0501681A32BC313F1ECE8C4C3867DE57C5CC56054CAB8E95B298A7F12E5EEED224C8E87E11242FE936C8DE96
310
AB60BB7F4D295D66D12E5B30323473E6AAE6A24E5A259C2A308F29CD82280A68FC1E256B9AAE93F489AED694323294DF34F9B678B0C957DA3DC7B3DCA9ADC33C022123F1CD2D44E450277AD04338234388F01913BE0D1A0281909D38D4171F27807A259DB1093085F157AA17B557309586747CD0CF0B46A64E983A6E0EAEEF
310
CE881F9EF1FB8E70D44297604238581EBC1B74B249C31C5AAB6CD0BB33D2C636A27ECCC62F0EFF445DC5DF95244D6DEC7F2922F30191F9F720C37DE49F504B0304140006080800B670623B4220A0FF7D0000009D0000000B0000006662782F636E782E786D6C4DCCD10A83201886E15B91FFDCE542CB0335D0EC3E6259C84A
310
C3E9D8E5AF46073BFAE0E1E315DD675BD1DBA5978F41C2FD4600B9F088930F8B849267CC01754AA418F3DF0D50183727E164506249B1EC174D6E1ECB9A0F5D7D785E68DB8151CD286E5A5363CA6B8A39E90D36D40E96B086F55A43A544F52B1D7B86D517504B0304140006080800B670623B2FA3FEDE290100001202000031
310
0000006662782F45374635344235342D363743322D343832342D383044432D4334454645303536354442422F636F72652E786D6C8D515B6EC32010BC0AE22B55850D2E386E848994D7097A0117488A1283C5A3CAF10BB523B57FF961D1ECCCECC0F2ED7DBC816FED8371B687A4C210682B9D32F6D2C314CFA883602BB8772E
310
FEA141608751F7B0C050F08B77695A20E96CD43666D43AA5177008414708E42D5F7A18E4971E876A483133C2B59A06791D2EBA22556E679EE021FA1C00CC43CA09C5717D6274C7286AD7FB06D1AEA1A8C3873DDAD3E3E98859CB0EBB1DAF67A1E02919B5C88DCA71CCD968FFAC49110B1ECDF8882FBD1EA256503418BF2342
310
106E3E08DD60B6A1EC15771B8C795DE8FF4469524F8A92B1F1AD59E2CEB20005E1F5DC105CB9F4797B84D1F7C9F908CABC55D0F2050A5C61CC1AD2F27A26E6E767C7962E8E213A9FBF7775FDCC5CC266DB960A5E970DE5F2BBBE5CCB36C50F504B0304140006080800B670623B1B8617914E01000033030000300000006662
310
782F45374635344235342D363743322D343832342D383044432D4334454645303536354442422F636E782E786D6CD593C16EC32010447F0571AD6CE3D489D20813A9877E410FBD62D82434182CC055F3F75D1292E692438FBD206B7698593D61BEFD1E2DF982108D773D6D6B460938E5B571FB9ECE6957AD29D90A1EBC4F77
310
364A9C1CA1A759A682EF839FA72269D8C9D92654AD71C72206887E0E0A22CAF926B15E498B01E0AA19451807D01A34B919F16B070157417138917400F2F6FA41FCF0092A45DEE414C19BDC21783E4BD39D891265658C3D8DEA00A3ACE59CBC8678ACB54CB26EEB6BD7839D7E9348BE70AD9C8321B9BCA7F9A4A26C542347DE
310
E050F09802D22BA6749A800A394DD62899107273365E3C82CFC6A55557BC06C10774B7ABE7AEC3B0F34CF06446280E154026D0542C187BA9DAB6628BF7B6DBB0E5A65B3EB1F58631DE64BBE083F7B65CC218087E22CABB042E51D1F2268F1FE12B3EA24D40D63E9CFE00120194D60B9D5BC67FE6D39CDF37E20AF817881F50
310
4B0304140006080800B670623B29652116630500003C100000340000006662782F45374635344235342D363743322D343832342D383044432D4334454645303536354442422F6F626A656374732E786D6CAD575D739B3814FD2B0CFB0C989834C90EA1639B24E3E9A6EDD4D3CE3E64C623834CD8006224913AFDF57B040203
310
B65BEF871F0C12D2FD3CF7E8CA7FBFCB33E3957291B2E2D674ED8969D02262715A24B76625B7D6B569BC0F7CCE98EC2D338D82E4F4D654D366E0279C55A59E8AE99654991CCDDECFFF3444440B6A1A514684B83545F44C7362934AB2988A173B2692D8C97667BB76B3702836E1A47C1E092D09A78584A5982F20C5688C7287
310
C389E904BEA3BE07BEFAD7ABA6A75739B53F43FD69212429A20365233153D70BEF2E2E6FAC4BCF9B5ADEBB0BD79ADFCF43CBBD9A4E16EF168B9BD9DD0D140BC921495BC2E9D60C1E101B9E46BED37CEA2CD6861F3329624541A3DA7F7858DBAC25C6B4A4458C3CA654405BCFEBC970E8AAD8F43E4FD558ABEC4F9FE7557F47
310
4F506B7BFBEC5BCA367FC105710E2AB8A00A554D7CB4A30DFE26FBA86D18CBF4B75418399194A72433B274C3097F33032C554B027F2046A1932B842B0FCCC0DDCBEBDB8AD2F835768F59B9ADB24C41D30C6A64AF817F2A456D59FA83F2E3DA60137255A585BCD60EC9B7929AC18DEFD49381AF1ED30BFDB109A4B1CD488294
310
C3CDE6EBC8D185AABD6568061FEE37BB95AAC7E3CA4BCE4ACAA5820FA0D526AE7DAA2869B5EE5999531BE0CC20E6FBA07C41E43FA27CF7A6206F3CDD793B4F6B919C1462CB788EDCD893FA674CDA17AB7B3B7C019F8D561FAEE966FED562DFE98C1D12C6A9FC015C2A35D7FF3D7FC398F591DA4B5FE0BFA2C0189FEA50AE22
310
92817A1ED3020951A03432862970F976B33383259812CC8E5D240BBA801CBCF8CE2BBEE3BF910DB6AAD5F79E05123AE2DB33981FB1ACCB02B69D00CB014FD68AB573A7627EF9BFD4CC2C5C7D58557C4B22FAA88925A4DBB44825CECE3D78FB060D1231F0E885BE7D673C86A3874958F593906B5502D1563157814FDAC3420D
310
F69A070A22EC4B98E23CFF171A1E5311D12C23056555ABA53B8614563B92D17D02AAB009E8F46284624E5F53D5490C560CCCC2591FF1B45421EB0EBD8EA7ED13BE7C5D7E0428CD60FEF60779EB13E6664FF711CB185F6FDED60D139A001FF60CD1FD6D086F1D51474901E26B2CB794A343BC8ED3EDB612E0DD2351FCB65CF4
310
33D511C9E14B5B40ADC6A6263DB0336A8F700DDF56271A024E70B0B3629DE21847591E55DED73D56206AB927E46FAABC5C939C55853C274C93D69FD6FA4E78BF8B11DF898C9ECD60553FAD39283BA6F18984AA23E8884F83F45C5F5F859797B31B2B9C84A1E5B9DE9D35BFF25C6B76152E422F9C5DCC3D847F5801ED09D5AF
310
41441327A25FF15487F9EB725FB666F048A4701E9A827292E6F97569A32DF61DEC01C0BB8DCBBCCC684E0B49147C1FD54BF685A0AB18C868E6973949E819523E3DAC463660E68C7D9F55A9D1EFA3BD7A76A16AE1A810F95CE59B82A4D968A376DC2E8B44BBDD86B27B368CDE0ED548C7137DA860591A83706223A12CA712B4
310
7306DBF39C0A20A6DF95C7FAF670C6EED7A61F946493D1D6926782963813403548A78AE470DEF80D2D9CEAA26E4D1C76F60BFE74219A06527D6B82DF641A51616F703CAAC6A7160E08A00BEB4810A0274592A1B36E3675E36E978A0DE80727A0D6DF2D39A75BD27E0D8837276589537B40ABB56D5A41F48F1C6FCD3188C4EB
310
A6929D2FFB89CE995A4D00AE813BDD032DC48B56BD437DFDDC2DD7AED70C2272D63DE9A72068A45A92F0A4BE17A8A06B9366E16707AD80B1FC649459952097E74BB23805982B55E0401150A165964402AA8BDF9F3E7386BB686EDCA780C0D382E5392BF460A6EFB2C6EA1937D3F809B440D5F5435C4C5CF7A9EEFAF54564BD
310
2182DA24162F98680B4E7930C21A0079709CEAEB99A372305ABE0C0D7D6078105A83F6A0296DAEE1068A47DD1C55A9F4C9B2FC69E3EFD44B81028E963DF81B504B0304140006080000B670623B000000000000000000000000350000006662782F45374635344235342D363743322D343832342D383044432D433445464530
310
3536354442422F76657274696365732E62696E504B0304140006080800B670623BF270F1330600000004000000360000006662782F45374635344235342D363743322D343832342D383044432D4334454645303536354442422F747269616E676C65732E62696E636660600000504B0304140006080000B670623B00000000
310
0000000000000000370000006662782F45374635344235342D363743322D343832342D383044432D4334454645303536354442422F617474726962757465732E62696E504B0304140006080800B670623B08DA0BD19000000041010000360000006662782F45374635344235342D363743322D343832342D383044432D4334
310
454645303536354442422F6469726563746F72792E786D6C858F410AC3201045AF22B36F53E9A60B35CBEEBAE80D244E44489C6234F4F835464A48035D0DF398FF9F8AF63D0E6CC63039F212F8F9020C7D47C6792B21C5FE7403D62A1188E2E60C98D7234A5830286103A55745067B9D86B8A3CF9C7F90C11DE607FB144396
310
D7B6A82D282E9A152AD114D5EF2CB866EEE831B8EEA07A7BB5A8D7D61A2BAAEB7FD5F70921FF497D00504B0304140006080800B670623B6378F24DFF000000A00100003B0000006662782F45374635344235342D363743322D343832342D383044432D4334454645303536354442422F7265736F75726365732F636F72652E
310
786D6C8D504B6E833010BD0A9A6D65B0094E42641C85B639412F6099496225D8C89FAAC7AF09546A77DDCC8CDE47F3F4C4F16B7C149FE88371B603565228D06A37187BED20C50BD9437194C23B177FC9A0B06AC40E6618A4B87A97A615D2CE46B431A3D60DB8822A048C50E8473E3A08FA86A32A558A5911EEE5A4F45D5DB1
310
6465A6B34E8A107D0E502C4FE609D26370C96B0CA25A58295232C3AA3143FE692E063D485EF7F5AEE71BD2D2F39634AFFC44DAF7DD9E9CCE6F9CD25DCBFA762BAAD92C4534E34F46ED51451C40D694B6843142EB0FD61C283F34FC85EE0F948A6A96FF31A569F8A729191B37F51A77B105902C0779125254735F793DCBCC7B
310
EE567E03504B010214000A0000080000B670623B3DEE336E79000000790000001B00000000000000000000000000000000006175746F6465736B2D64657369676E2D7061636B6167652E786D6C504B01021400140006080800B670623BD486FD9CA0000000F40000001300000000000000000000000000B20000005B436F6E
310
74656E745F54797065735D2E786D6C504B01021400140006080800B670623BBC1638F5EC0000007C010000080000000000000000000000000083010000636F72652E786D6C504B01021400140006080800B670623B55019EA25F0000007C000000070000000000000000000000000095020000636E782E786D6C504B010214
310
00140006080800B670623B3586FFB671010000D40300000C00000000000000000000000000190300006662782F636F72652E786D6C504B01021400140006080800B670623B4220A0FF7D0000009D0000000B00000000000000000000000000B40400006662782F636E782E786D6C504B01021400140006080800B670623B2F
310
A3FEDE290100001202000031000000000000000000000000005A0500006662782F45374635344235342D363743322D343832342D383044432D4334454645303536354442422F636F72652E786D6C504B01021400140006080800B670623B1B8617914E010000330300003000000000000000000000000000D2060000666278
310
2F45374635344235342D363743322D343832342D383044432D4334454645303536354442422F636E782E786D6C504B01021400140006080800B670623B29652116630500003C10000034000000000000000000000000006E0800006662782F45374635344235342D363743322D343832342D383044432D4334454645303536
310
354442422F6F626A656374732E786D6C504B01021400140006080000B670623B0000000000000000000000003500000000000000000000000000230E00006662782F45374635344235342D363743322D343832342D383044432D4334454645303536354442422F76657274696365732E62696E504B01021400140006080800
310
B670623BF270F13306000000040000003600000000000000000000000000760E00006662782F45374635344235342D363743322D343832342D383044432D4334454645303536354442422F747269616E676C65732E62696E504B01021400140006080000B670623B0000000000000000000000003700000000000000000000
310
000000D00E00006662782F45374635344235342D363743322D343832342D383044432D4334454645303536354442422F617474726962757465732E62696E504B01021400140006080800B670623B08DA0BD190000000410100003600000000000000000000000000250F00006662782F45374635344235342D363743322D34
310
3832342D383044432D4334454645303536354442422F6469726563746F72792E786D6C504B01021400140006080800B670623B6378F24DFF000000A00100003B00000000000000000000000000091000006662782F45374635344235342D363743322D343832342D383044432D4334454645303536354442422F7265736F75
310
726365732F636F72652E786D6C504B0506000000000E000E0080040000611100000000
  0
XRECORD
  5
112
102
{ACAD_REACTORS
330
110
102
}
330
110
100
AcDbXrecord
280
     1
270
     1
271
     1
  0
XRECORD
  5
111
102
{ACAD_REACTORS
330
110
102
}
330
110
100
AcDbXrecord
280
     1
270
     1
271
     1
  0
XRECORD
  5
18A
102
{ACAD_REACTORS
330
110
102
}
330
110
100
AcDbXrecord
280
     1
 70
     0
 90
1778669749
  1
9BF507EE-FAF7-4A99-A33D-4EE51894BC40
310
504B03040A0000080000B670623B3DEE336E79000000790000001B0000006175746F6465736B2D64657369676E2D7061636B6167652E786D6C3C3F786D6C2076657273696F6E3D22312E302220656E636F64696E673D227574662D3822203F3E3C666F726D6174733E3C666F726D61743E687474703A2F2F736368656D612E
310
6175746F6465736B2E636F6D2F64657369676E2D7061636B6167652F323030393C2F666F726D61743E3C2F666F726D6174733E504B0304140006080800B670623BD486FD9CA0000000F4000000130000005B436F6E74656E745F54797065735D2E786D6C7D8EC10E82300C865F65E91D8A1E8C310C0EEA1BF002731658846E
310
D98AC1B77784ABF1D8FE5FBFBF75BBCE937A534CCEB38643598122B6FEE978D0B0485F9C41B54DDD7D022595594E1A469170414C76A4D9A4D207E29CF43ECE46F218070CC6BECC4078ACAA135ACF422C856C0E68EA1BF5669944DDD7BCDE7B1F8E415D77AECB980613C2E4AC91FC167A2B244592486606FC29C8FD7F045B9A
310
EF7053A7E60B504B0304140006080800B670623BCA089DFFEC0000007C01000008000000636F72652E786D6C8D90416E83301045AF62CDB632D8402020E32882F604BD80653BC44AB011B6AB1EBF262152BBEB6A467FFE9B197D76FA9EEFE84BAFDE38DB03CD08206DA553C64E3DC470C1474027CE56E7C22F1B202B66DDC3
310
260367D3EAE2B24BD2D9A06D48AA754AEFA2F05E0740F29E9A1EBCBCEA59642286E4F0B76C11F226269DD15797E0188D42CF2346A57DE662F40ABCAEC77628C6120F654571D50C04B7F5B9C1E3997CD4F550BE3745C3F20DE62C98F9755FAE5A04AD801784B498524C8A4F5A75E4D055873772EC0861F966FF03C545FD138A
310
C686B2D8DF7D621E384D8F3C069CE55B16A93C824A75CB8DFF00504B0304140006080800B670623B55019EA25F0000007C00000007000000636E782E786D6C4DCB3B0E80201045D1AD90E915ED2CF8AC45050C11660C8261F98AB1B07AC9C97D42D718D865D3E909258CFD00CCE24AC6E326A164D74DC0B4128928FF326038
310
472BA13128B1252AC747C6BAB984FC68F0B87FE8960A5C09FE86CFB69FBA01504B0304140006080800B670623B68FC0B7272010000D40300000C0000006662782F636F72652E786D6CC5535B6E833010BC8AE5DF0A6C1E8124328E22D29EA01770C0A128602363A31CBFCB234A53A555FA553EC09AD9F5CE8C31DB5DDA060D
310
D2F4B556190E7C8A9154852E6B5565D8D993B7C668C799D1DA7E29C3488956667884316795D1AE5BA0422B2B950554E9522EA0E87B69312A1A5864B82F3E642B7CE12C54F467BF13C55954D20F7CA0A18EB3DE1A1080E621E31BF3D3F1C2C88C73E65C5D2E6C5DC2B4FA544B8379921C36797888BC3C8A032F4E73EA6D927D
310
EA1DF6F42D49F2E8350D5346C666CE6CDD5ED515460A2B4BCC434A375E1078347C0FE22D5D6DE3D50B5D6F2965642CBF6B725DF96493AB958DC245EEDCD6631E809089F8E61622B2A81703E8219C913144F84C09DF070D8140C8561C9BAB8F3340832CAC363130A576376A108D933095FA747AD0CF0B46E64E983A6D0EAE1F
310
CE089F9EF1FB8E70D44255604258581E9D1D75B259C3125A278D37D80B52DAB4A279CEC62F0EFF44DDC43F9454E8469BFF5244960322CBEF41C6FBC83F01504B0304140006080800B670623B0F71DDB67E0000009D0000000B0000006662782F636E782E786D6C4DCCD10A83201886E15B91FFDCA54DB73F502386BB8F5816
310
32D3703976F9ABD1C18E3E78F87855FB990379BBFCF2296AE02706C4C5471A7C9C349475A408A4352AA7B4FEDD80C47E761A7606A3A69CCA72D0E0C6BE8475D3E0E3F3409428EA6B27A84079A782899AA2EC1A7AE3ECCC2FD858CB2D544655BFD2B67BD87C01504B0304140006080800B670623BE134B4FB28010000120200
310
00310000006662782F38353834323741342D343835462D343034322D383541392D4331303331363839454531452F636F72652E786D6C8D515B6EC32010BC0AE22B55850D0EA424C24451959EA0172086A42831583CAA1CBF503B52FB971F16CDCECC0EACD8DFC71BF836215AEF7A481A0C817183D7D65D7A98D3197108F652
310
04EFD31F1A044E8DA6871586525C82CFD3020DDE25E352419DD76601558C264130DCCAA58771F832A36A544E8511AFCDA486ABBA988634A55D7852C4144A00300FA927949C71DABD1D28A29C7D208A6987383B6CD13BC16BB2E1DBE3911C453B0BA5C8D9EA456E758963CFD684674DAA588A64C747FC2118958C86B2C3788B
310
0841B8FB247487D98EB257CC77188BB6D2FF89F2A49F1465EBD2BA5BE2CEB2082511EDDC9042FB7CBA3DC298FBE4430275DE2A9AE1054ADC60CC08E3A29D89E5F9C5714317C7987C28DFBBBA9E0A97B0D97643A568EB864AF95D5FA9759BF207504B0304140006080800B670623B1B8617914E010000330300003000000066
310
62782F38353834323741342D343835462D343034322D383541392D4331303331363839454531452F636E782E786D6CD593C16EC32010447F0571AD6CE3D489D20813A9877E410FBD62D82434182CC055F3F75D1292E692438FBD206B7698593D61BEFD1E2DF982108D773D6D6B460938E5B571FB9ECE6957AD29D90A1EBC4F
310
77364A9C1CA1A759A682EF839FA72269D8C9D92654AD71C72206887E0E0A22CAF926B15E498B01E0AA19451807D01A34B919F16B070157417138917400F2F6FA41FCF0092A45DEE414C19BDC21783E4BD39D891265658C3D8DEA00A3ACE59CBC8678ACB54CB26EEB6BD7839D7E9348BE70AD9C8321B9BCA7F9A4A26C542347
310
DEE050F09802D22BA6749A800A394DD62899107273365E3C82CFC6A55557BC06C10774B7ABE7AEC3B0F34CF06446280E154026D0542C187BA9DAB6628BF7B6DBB0E5A65B3EB1F58631DE64BBE083F7B65CC218087E22CABB042E51D1F2268F1FE12B3EA24D40D63E9CFE00120194D60B9D5BC67FE6D39CDF37E20AF817881F
310
504B0304140006080800B670623B5933D422630500003B100000340000006662782F38353834323741342D343835462D343034322D383541392D4331303331363839454531452F6F626A656374732E786D6CAD575B6FA33814FE2B887D0642934E9B156594264D158D3A534DD4D13E548A0C38942D60649B4EBABF7E3F8321
310
40924EF6928780CDF1B97EE762EFF32E4B8D37CA45C2F21BD3B547A641F39045491EDF98A5DC5AD7A6F1D9F73863B243661A39C9E88DA9B64DDF8B392B0BBD15D12D295339D85DDEFE618890E6D434C2940871638AF08566C426A5641115AF764424B1E3EDCE76ED9AB0CF36E6A47819302D08A7B984A6D8CFC1C5A89572FB
310
CB91E9F89EA3BEFB9EFAD754E3D3544E654F5F7E920B49F2F040D880CDD89D2CEE2E2EA7D6E56432B6269F2E5CEB7679BBB0DCABF168FE693E9FCEEEA6102C240727AD09A75BD3BF876F78127A4EFDA9D5582B7E4CA590E5390D2BFB6161A5B3E618D182E611E2985001691DAB47FDA5AB7CD3F93C566B2DB2BB7D9E55DD13
310
1D468DEECDB3AB290BFE8409E21C54704115AA6AFF68436BFC8DF65E0B184BF5B74418199194272435D224E084BF9B3E481589EFF5D828747285706581E9BB7B7E5D5D911ABFC6EE312DB7659A2A689A7E85EC0DF04FA5A8344BFEA2FCB834E8845895492EAFB541F2BDA0A63FF59C6AD3F7D4637CA13FD68E34B629891172
310
98597F1D183A57B9B75A98FE9765B05BAB7C3C2EBCE0ACA05C2AF8005A4DE09AA7F29216EB9E15397500C6F47CBE77CA7778FE2BD277AF0AE2C693DD6437D1522427B9D8329E2136F6A8FA19A3E6C56ADF0E5F50CF06D48734EDCEBF22F69C56D97EC138153F804B85E6FABFC7AFEFB32E523BE1F3BD372418E363EDCA7548
310
52949E8724474014288D94610BB57C1BEC4C7F854A89CA8E5324F55B871CBC78CE1BBEE3BFE68D6A5589EF3C730474506FCFA8FCF0659516D0ED04580EEA6425581B77CAE797FF4BCECC16EB2FEB926F49481F746159D06D922712BD730FDEAE42BD40F42C7AA5EF3F198F60E86110D6DD20645A9480B795CF95E3E3A659A8
310
C55E724F408873315335CFFB8584874484344D494E59D94869DB90C26A5B64F49C802CAC1D3ABE18A098D3B7444D123D8A9E5AE8F5214F0AE5B2B6E9B575DA3E61CBD3EA2B4009FA940524DD1305FB6A1FB294F14DF0BEA90BA109ECE1481FDC3FFAE8D60E75141700BE82725371B4873751B2DD960265F788137FACE6DD40
310
B575E4F0A5C99F46629D92131467A41EE11ABD8D4CCC039CA0AFB37C93A08B232B8F0AEFCA1E0A1015DF13FC83322B362463652ECF71D3A8B1A7D1BE65DE1D62C44F22C317D35F574FEB16153BA2D13E543D10A80E74C4A65E78A6B7CBCBD1D5DD9DB59C2DAFACC96C3AB566E3F1C29ADCDD5DBAD7D3C9ED7C822ED74F80A6
310
41755310DE4443F44A9E68373FADF6596BFA0F440AE7BECE2727AE9F4F2B1B53B1E7E00CF0DD1E5C65454A339A4BA2D0FBA05ED2EF0443458F47BDBFCA484CCFE0F2ED7E3DD0013B679C7B5499467F0ECEEADDB9CA85A34CE44B99053949D2C1416DB85DE4B136BB7165FBAC0B7AB3542BED4F8CA182A549847A1319316519
310
95A83A67147B9E5101C47487F2485F1ECE38FD568F839204296D3479219888530154036E6528FBFBC66F98E0D4107563A2D7D9AFF8D389681A08F58D89F22693900A3B407754734FC51C10C010D6D640809EE4718AC1BA3ED4AEDB53CA37283F68805A7E4B72CEB0A4EDEAD5DD8C14059A76AFAA56BA6901E13F32BC51C720
310
12AF41295B5BF61BAD3195181FB506E6B40F4C10AF5AF40EF9F5B159AE5DD1F43C72D635E94310D45C2D49785C5D0B94D3B54AB3C5A38349C0587D338AB48C11CBF339599C02CCA54A70A008A8D03C0B2201D5F9EFCF8F9CE12A9A19CB0410789EB32C63B95ECCF455D658BFE0621A3DA32C5075FB101723D77DAE867E7D0F
310
D90444509B44E2151B4DC2290B065803200FBAA9BE9D392A0603F2D5C2D00D6302A615680F66D2FA166E2079D4C551A54AB758161FCEFD4E450A14704CECFEDF504B0304140006080000B670623B000000000000000000000000350000006662782F38353834323741342D343835462D343034322D383541392D4331303331
310
363839454531452F76657274696365732E62696E504B0304140006080800B670623BF270F1330600000004000000360000006662782F38353834323741342D343835462D343034322D383541392D4331303331363839454531452F747269616E676C65732E62696E636660600000504B0304140006080000B670623B000000
310
000000000000000000370000006662782F38353834323741342D343835462D343034322D383541392D4331303331363839454531452F617474726962757465732E62696E504B0304140006080800B670623B08DA0BD19000000041010000360000006662782F38353834323741342D343835462D343034322D383541392D43
310
31303331363839454531452F6469726563746F72792E786D6C858F410AC3201045AF22B36F53E9A60B35CBEEBAE80D244E44489C6234F4F835464A48035D0DF398FF9F8AF63D0E6CC63039F212F8F9020C7D47C6792B21C5FE7403D62A1188E2E60C98D7234A5830286103A55745067B9D86B8A3CF9C7F90C11DE607FB1443
310
96D7B6A82D282E9A152AD114D5EF2CB866EEE831B8EEA07A7BB5A8D7D61A2BAAEB7FD5F70921FF497D00504B0304140006080800B670623BD9A3B367FE000000A00100003B0000006662782F38353834323741342D343835462D343034322D383541392D4331303331363839454531452F7265736F75726365732F636F7265
310
2E786D6C8D504B6E833010BD0A9A6D65B01D0201194711694FD00B586642AD043BF2A7EAF16B122AB5BB6E6646EFA3797AE2F8B5DC8A4FF4C1383B002B291468B59B8C9D0748F1420E501CA5F0CEC55F3228AC5A708015062966EFD27D83B4B3116DCCA875136EA00A012314FA968F0182FEC045952AC5AC08D7F2AEF455CD
310
58B232D3592745883E07289E4FD609D26370C96B0CA27AB252A464A64D63A6FCD35C0C7A904D73EE467EE664DCD58CD4ED4849D79C5A723ED1B7A61977AF2D6F45B59AA58866F9C9A83DAA8813484E6947182394BFB3BAA7FBBEDEBFD0434FA9A856F91F53BA4FFF342563E38E6F719FB60092E5200F428A6AED2BAF479979
310
AFDDCA6F504B010214000A0000080000B670623B3DEE336E79000000790000001B00000000000000000000000000000000006175746F6465736B2D64657369676E2D7061636B6167652E786D6C504B01021400140006080800B670623BD486FD9CA0000000F40000001300000000000000000000000000B20000005B436F6E
310
74656E745F54797065735D2E786D6C504B01021400140006080800B670623BCA089DFFEC0000007C010000080000000000000000000000000083010000636F72652E786D6C504B01021400140006080800B670623B55019EA25F0000007C000000070000000000000000000000000095020000636E782E786D6C504B010214
310
00140006080800B670623B68FC0B7272010000D40300000C00000000000000000000000000190300006662782F636F72652E786D6C504B01021400140006080800B670623B0F71DDB67E0000009D0000000B00000000000000000000000000B50400006662782F636E782E786D6C504B01021400140006080800B670623BE1
310
34B4FB280100001202000031000000000000000000000000005C0500006662782F38353834323741342D343835462D343034322D383541392D4331303331363839454531452F636F72652E786D6C504B01021400140006080800B670623B1B8617914E010000330300003000000000000000000000000000D3060000666278
310
2F38353834323741342D343835462D343034322D383541392D4331303331363839454531452F636E782E786D6C504B01021400140006080800B670623B5933D422630500003B10000034000000000000000000000000006F0800006662782F38353834323741342D343835462D343034322D383541392D4331303331363839
310
454531452F6F626A656374732E786D6C504B01021400140006080000B670623B0000000000000000000000003500000000000000000000000000240E00006662782F38353834323741342D343835462D343034322D383541392D4331303331363839454531452F76657274696365732E62696E504B01021400140006080800
310
B670623BF270F13306000000040000003600000000000000000000000000770E00006662782F38353834323741342D343835462D343034322D383541392D4331303331363839454531452F747269616E676C65732E62696E504B01021400140006080000B670623B0000000000000000000000003700000000000000000000
310
000000D10E00006662782F38353834323741342D343835462D343034322D383541392D4331303331363839454531452F617474726962757465732E62696E504B01021400140006080800B670623B08DA0BD190000000410100003600000000000000000000000000260F00006662782F38353834323741342D343835462D34
310
3034322D383541392D4331303331363839454531452F6469726563746F72792E786D6C504B01021400140006080800B670623BD9A3B367FE000000A00100003B000000000000000000000000000A1000006662782F38353834323741342D343835462D343034322D383541392D4331303331363839454531452F7265736F75
310
726365732F636F72652E786D6C504B0506000000000E000E0080040000611100000000
  0
XRECORD
  5
113
102
{ACAD_REACTORS
330
110
102
}
330
110
100
AcDbXrecord
280
     1
270
     1
271
     1
  0
XRECORD
  5
114
102
{ACAD_REACTORS
330
110
102
}
330
110
100
AcDbXrecord
280
     1
270
     1
271
     1
  0
CELLSTYLEMAP
  5
5F986
102
{ACAD_REACTORS
330
104
102
}
330
104
100
AcDbCellStyleMap
 90
        3
300
CELLSTYLE
  1
TABLEFORMAT_BEGIN
 90
        5
170
     1
 91
        0
 92
    32768
 62
   257
 93
        1
300
CONTENTFORMAT
  1
CONTENTFORMAT_BEGIN
 90
        0
 91
        0
 92
      512
 93
        0
300

 40
0.0
140
1.0
 94
        5
 62
     0
340
11
144
0.25
309
CONTENTFORMAT_END
171
     1
301
MARGIN
  1
CELLMARGIN_BEGIN
 40
0.06
 40
0.06
 40
0.06
 40
0.06
 40
0.18
 40
0.18
309
CELLMARGIN_END
 94
        6
 95
        1
302
GRIDFORMAT
  1
GRIDFORMAT_BEGIN
 90
        0
 91
        1
 62
     0
 92
       -2
340
0
 93
        0
 40
0.045
309
GRIDFORMAT_END
 95
        2
302
GRIDFORMAT
  1
GRIDFORMAT_BEGIN
 90
        0
 91
        1
 62
     0
 92
       -2
340
0
 93
        0
 40
0.045
309
GRIDFORMAT_END
 95
        4
302
GRIDFORMAT
  1
GRIDFORMAT_BEGIN
 90
        0
 91
        1
 62
     0
 92
       -2
340
0
 93
        0
 40
0.045
309
GRIDFORMAT_END
 95
        8
302
GRIDFORMAT
  1
GRIDFORMAT_BEGIN
 90
        0
 91
        1
 62
     0
 92
       -2
340
0
 93
        0
 40
0.045
309
GRIDFORMAT_END
 95
       16
302
GRIDFORMAT
  1
GRIDFORMAT_BEGIN
 90
        0
 91
        1
 62
     0
 92
       -2
340
0
 93
        0
 40
0.045
309
GRIDFORMAT_END
 95
       32
302
GRIDFORMAT
  1
GRIDFORMAT_BEGIN
 90
        0
 91
        1
 62
     0
 92
       -2
340
0
 93
        0
 40
0.045
309
GRIDFORMAT_END
309
TABLEFORMAT_END
  1
CELLSTYLE_BEGIN
 90
        1
 91
        1
300
_TITLE
309
CELLSTYLE_END
300
CELLSTYLE
  1
TABLEFORMAT_BEGIN
 90
        5
170
     1
 91
        0
 92
        0
 62
   257
 93
        1
300
CONTENTFORMAT
  1
CONTENTFORMAT_BEGIN
 90
        0
 91
        0
 92
      512
 93
        0
300

 40
0.0
140
1.0
 94
        5
 62
     0
340
11
144
0.18
309
CONTENTFORMAT_END
171
     1
301
MARGIN
  1
CELLMARGIN_BEGIN
 40
0.06
 40
0.06
 40
0.06
 40
0.06
 40
0.18
 40
0.18
309
CELLMARGIN_END
 94
        6
 95
        1
302
GRIDFORMAT
  1
GRIDFORMAT_BEGIN
 90
        0
 91
        1
 62
     0
 92
       -2
340
0
 93
        0
 40
0.045
309
GRIDFORMAT_END
 95
        2
302
GRIDFORMAT
  1
GRIDFORMAT_BEGIN
 90
        0
 91
        1
 62
     0
 92
       -2
340
0
 93
        0
 40
0.045
309
GRIDFORMAT_END
 95
        4
302
GRIDFORMAT
  1
GRIDFORMAT_BEGIN
 90
        0
 91
        1
 62
     0
 92
       -2
340
0
 93
        0
 40
0.045
309
GRIDFORMAT_END
 95
        8
302
GRIDFORMAT
  1
GRIDFORMAT_BEGIN
 90
        0
 91
        1
 62
     0
 92
       -2
340
0
 93
        0
 40
0.045
309
GRIDFORMAT_END
 95
       16
302
GRIDFORMAT
  1
GRIDFORMAT_BEGIN
 90
        0
 91
        1
 62
     0
 92
       -2
340
0
 93
        0
 40
0.045
309
GRIDFORMAT_END
 95
       32
302
GRIDFORMAT
  1
GRIDFORMAT_BEGIN
 90
        0
 91
        1
 62
     0
 92
       -2
340
0
 93
        0
 40
0.045
309
GRIDFORMAT_END
309
TABLEFORMAT_END
  1
CELLSTYLE_BEGIN
 90
        2
 91
        1
300
_HEADER
309
CELLSTYLE_END
300
CELLSTYLE
  1
TABLEFORMAT_BEGIN
 90
        5
170
     1
 91
        0
 92
        0
 62
   257
 93
        1
300
CONTENTFORMAT
  1
CONTENTFORMAT_BEGIN
 90
        0
 91
        0
 92
      512
 93
        0
300

 40
0.0
140
1.0
 94
        2
 62
     0
340
11
144
0.18
309
CONTENTFORMAT_END
171
     1
301
MARGIN
  1
CELLMARGIN_BEGIN
 40
0.06
 40
0.06
 40
0.06
 40
0.06
 40
0.18
 40
0.18
309
CELLMARGIN_END
 94
        6
 95
        1
302
GRIDFORMAT
  1
GRIDFORMAT_BEGIN
 90
        0
 91
        1
 62
     0
 92
       -2
340
0
 93
        0
 40
0.045
309
GRIDFORMAT_END
 95
        2
302
GRIDFORMAT
  1
GRIDFORMAT_BEGIN
 90
        0
 91
        1
 62
     0
 92
       -2
340
0
 93
        0
 40
0.045
309
GRIDFORMAT_END
 95
        4
302
GRIDFORMAT
  1
GRIDFORMAT_BEGIN
 90
        0
 91
        1
 62
     0
 92
       -2
340
0
 93
        0
 40
0.045
309
GRIDFORMAT_END
 95
        8
302
GRIDFORMAT
  1
GRIDFORMAT_BEGIN
 90
        0
 91
        1
 62
     0
 92
       -2
340
0
 93
        0
 40
0.045
309
GRIDFORMAT_END
 95
       16
302
GRIDFORMAT
  1
GRIDFORMAT_BEGIN
 90
        0
 91
        1
 62
     0
 92
       -2
340
0
 93
        0
 40
0.045
309
GRIDFORMAT_END
 95
       32
302
GRIDFORMAT
  1
GRIDFORMAT_BEGIN
 90
        0
 91
        1
 62
     0
 92
       -2
340
0
 93
        0
 40
0.045
309
GRIDFORMAT_END
309
TABLEFORMAT_END
  1
CELLSTYLE_BEGIN
 90
        3
 91
        2
300
_DATA
309
CELLSTYLE_END
  0
ENDSEC
  0
SECTION
  2
ACDSDATA
 70
     2
 71
     8
  0
ACDSSCHEMA
 90
        0
  1
AcDb_Thumbnail_Schema
  2
AcDbDs::ID
280
    10
 91
        8
  2
Thumbnail_Data
280
    15
 91
        0
101
ACDSRECORD
 95
        0
 90
        1
  2
AcDbDs::TreatedAsObjectData
280
     1
291
     1
101
ACDSRECORD
 95
        0
 90
        2
  2
AcDbDs::Legacy
280
     1
291
     1
101
ACDSRECORD
  1
AcDbDs::ID
 90
        3
  2
AcDs:Indexable
280
     1
291
     1
101
ACDSRECORD
  1
AcDbDs::ID
 90
        4
  2
AcDbDs::HandleAttribute
280
     7
282
     1
  0
ACDSSCHEMA
 90
        1
  1
AcDbDs::TreatedAsObjectDataSchema
  2
AcDbDs::TreatedAsObjectData
280
     1
 91
        0
  0
ACDSSCHEMA
 90
        2
  1
AcDbDs::LegacySchema
  2
AcDbDs::Legacy
280
     1
 91
        0
  0
ACDSSCHEMA
 90
        3
  1
AcDbDs::IndexedPropertySchema
  2
AcDs:Indexable
280
     1
 91
        0
  0
ACDSSCHEMA
 90
        4
  1
AcDbDs::HandleAttributeSchema
  2
AcDbDs::HandleAttribute
280
     7
 91
        1
284
     1
  0
ACDSSCHEMA
 90
        5
  1
AcDb3DSolid_ASM_Data
  2
AcDbDs::ID
280
    10
 91
        8
  2
ASM_Data
280
    15
 91
        0
101
ACDSRECORD
 95
        5
 90
        1
  2
AcDbDs::TreatedAsObjectData
280
     1
291
     1
101
ACDSRECORD
 95
        5
 90
        2
  2
AcDbDs::Legacy
280
     1
291
     1
101
ACDSRECORD
  1
AcDbDs::ID
 90
        3
  2
AcDs:Indexable
280
     1
291
     1
101
ACDSRECORD
  1
AcDbDs::ID
 90
        4
  2
AcDbDs::HandleAttribute
280
     7
282
     1
  0
ACDSRECORD
 90
        0
  2
AcDbDs::ID
280
    10
320
22
  2
Thumbnail_Data
280
    15
 94
     1666
310
89504E470D0A1A0A0000000D49484452000001000000006F08030000003479EE6F00000300504C5445212830FFFFFF2128300000000000000000000000000000000000000000000000000000330000660000990000CC0000FF0033000033330033660033990033CC0033FF0066000066330066660066990066CC0066FF0099
310
000099330099660099990099CC0099FF00CC0000CC3300CC6600CC9900CCCC00CCFF00FF0000FF3300FF6600FF9900FFCC00FFFF3300003300333300663300993300CC3300FF3333003333333333663333993333CC3333FF3366003366333366663366993366CC3366FF3399003399333399663399993399CC3399FF33CC00
310
33CC3333CC6633CC9933CCCC33CCFF33FF0033FF3333FF6633FF9933FFCC33FFFF6600006600336600666600996600CC6600FF6633006633336633666633996633CC6633FF6666006666336666666666996666CC6666FF6699006699336699666699996699CC6699FF66CC0066CC3366CC6666CC9966CCCC66CCFF66FF0066
310
FF3366FF6666FF9966FFCC66FFFF9900009900339900669900999900CC9900FF9933009933339933669933999933CC9933FF9966009966339966669966999966CC9966FF9999009999339999669999999999CC9999FF99CC0099CC3399CC6699CC9999CCCC99CCFF99FF0099FF3399FF6699FF9999FFCC99FFFFCC0000CC00
310
33CC0066CC0099CC00CCCC00FFCC3300CC3333CC3366CC3399CC33CCCC33FFCC6600CC6633CC6666CC6699CC66CCCC66FFCC9900CC9933CC9966CC9999CC99CCCC99FFCCCC00CCCC33CCCC66CCCC99CCCCCCCCCCFFCCFF00CCFF33CCFF66CCFF99CCFFCCCCFFFFFF0000FF0033FF0066FF0099FF00CCFF00FFFF3300FF3333
310
FF3366FF3399FF33CCFF33FFFF6600FF6633FF6666FF6699FF66CCFF66FFFF9900FF9933FF9966FF9999FF99CCFF99FFFFCC00FFCC33FFCC66FFCC99FFCCCCFFCCFFFFFF00FFFF33FFFF66FFFF99FFFFCCFFFFFF0000000D0D0D1A1A1A2828283535354343435050505D5D5D6B6B6B787878868686939393A1A1A1AEAEAEBB
310
BBBBC9C9C9D6D6D6E4E4E4F1F1F1FFFFFF0000000000000000000000000000000000000000000000000000000000002E4550F10000005E4944415478DAEDD7A1110030080441FAEF179F0A202271BFEB90DC0C822A00000000000000000000000000001EF44280F0FD43022C53448012408029404481F4005D020820C01820
310
A08000FB090404B8F02D030000000000000000C01F072D509C00155370C40000000049454E44AE426082C4B680006E592A0001FCCB06F0C9831D7848581F803D400002F022D41E40FDC79000EACF031C89D51F8A9E0C60ADEA04C22FC7A6BC7E97A3F5D7E30624F6F681A221A1EE21A997BDDE3629B89D8EAC1D179DA99E95
310
EDEC7C0108000000000000000000000000B8C503CFE5BB95F845264F0000000049454E44AE426082896994E8E808A122050C56072102DE8420C04A40A70501084040928073539A80F369F96B2F902AA0967E60FE7F05FC6E8C9B0217AB2104244D01E9CE67CE35205A40F7BF417102E247C07125142540DD6F070B50190AD0
310
FDDDE0EEBAC428FD4136FD7B212B0100000000000000000000F0F77C015593AD5B220BCA400000000049454E44AE4260829E009C02AB882400670008AA1A09C01F803DB482842B007804B0C60D91CF2F9E2F7FB1C23DC1579225015C3F890CE05202B8F9242E001C5FF3827301006B5440D9FC87A325E680CBB4BF3A80E341
310
024800126BCED8DCCAFE0BC89323148B0004169DB1773E315BC236EF7D16429C74C0FC8810FAB822E4686C54F4D26BA9A9E2DD7790D975BD451A1FD53D220800A0797E05CB04E203000DE41FA502A8BD05F61574D1160836078CE58FF12DE253CECF072C2F70EA6F011040B1F60060AF8009C658FE140940F746886607B0F5
310
F2D84660BD1618B88A08D2027100640B8C5D0B2DBC0AC45A06BBF6C2581840B855A0358D18E98F251203406F1A612A80B202BAD38891FF580B500000D49D4988F37FAC813E72214627000A3582A5C338FE00598ED82311F33F3A0000000049454E44AE4260820F467818FD4AC64A010000000049454E44AE42608200187F52
310
539FF6AC0FF2D01229B97F7B56AE64E8787DBF9E93B283504D4929EEDB336DE133B927D0B706F146D8FDD54728002424931276690CDE5FFA471401522320E6FA719CDCC9E90D234F422DA512220CD4066298BF969A4028B717C4D481E25C1BC6C59A99842240E2F24B1F92F8AC20F021F00EFE737AFD0FDF7E00E9E9886BC5
310
1247A50000000049454E44AE426082
  0
ENDSEC
  0
EOF
