  0
SECTION
  2
HEADER
  9
$ACADVER
  1
AC1032
  9
$ACADMAINTVER
 90
      197
  9
$DWGCODEPAGE
  3
ANSI_1252
  9
$LASTSAVEDBY
  1
gregb
  9
$REQUIREDVERSIONS
160
                 0
  9
$INSBASE
 10
0.0
 20
0.0
 30
0.0
  9
$EXTMIN
 10
105020.3951137646
 20
95051.60776014234
 30
0.0
  9
$EXTMAX
 10
105023.3015178415
 20
95052.83343452646
 30
0.0
  9
$LIMMIN
 10
0.0
 20
0.0
  9
$LIMMAX
 10
12.0
 20
9.0
  9
$ORTHOMODE
 70
     1
  9
$REGENMODE
 70
     1
  9
$FILLMODE
 70
     1
  9
$QTEXTMODE
 70
     0
  9
$MIRRTEXT
 70
     0
  9
$LTSCALE
 40
1.0
  9
$ATTMODE
 70
     1
  9
$TEXTSIZE
 40
0.2
  9
$TRACEWID
 40
0.05
  9
$TEXTSTYLE
  7
Standard
  9
$CLAYER
  8
freecads.com
  9
$CELTYPE
  6
ByLayer
  9
$CECOLOR
 62
   256
  9
$CELTSCALE
 40
1.0
  9
$DISPSILH
 70
     1
  9
$DIMSCALE
 40
1.0
  9
$DIMASZ
 40
0.18
  9
$DIMEXO
 40
0.0625
  9
$DIMDLI
 40
0.38
  9
$DIMRND
 40
0.0
  9
$DIMDLE
 40
0.0
  9
$DIMEXE
 40
0.18
  9
$DIMTP
 40
0.0
  9
$DIMTM
 40
0.0
  9
$DIMTXT
 40
0.18
  9
$DIMCEN
 40
0.09
  9
$DIMTSZ
 40
0.0
  9
$DIMTOL
 70
     0
  9
$DIMLIM
 70
     0
  9
$DIMTIH
 70
     1
  9
$DIMTOH
 70
     1
  9
$DIMSE1
 70
     0
  9
$DIMSE2
 70
     0
  9
$DIMTAD
 70
     0
  9
$DIMZIN
 70
     0
  9
$DIMBLK
  1

  9
$DIMASO
 70
     1
  9
$DIMSHO
 70
     1
  9
$DIMPOST
  1

  9
$DIMAPOST
  1

  9
$DIMALT
 70
     0
  9
$DIMALTD
 70
     2
  9
$DIMALTF
 40
25.4
  9
$DIMLFAC
 40
1.0
  9
$DIMTOFL
 70
     0
  9
$DIMTVP
 40
0.0
  9
$DIMTIX
 70
     0
  9
$DIMSOXD
 70
     0
  9
$DIMSAH
 70
     0
  9
$DIMBLK1
  1

  9
$DIMBLK2
  1

  9
$DIMSTYLE
  2
Standard
  9
$DIMCLRD
 70
     0
  9
$DIMCLRE
 70
     0
  9
$DIMCLRT
 70
     0
  9
$DIMTFAC
 40
1.0
  9
$DIMGAP
 40
0.09
  9
$DIMJUST
 70
     0
  9
$DIMSD1
 70
     0
  9
$DIMSD2
 70
     0
  9
$DIMTOLJ
 70
     1
  9
$DIMTZIN
 70
     0
  9
$DIMALTZ
 70
     0
  9
$DIMALTTZ
 70
     0
  9
$DIMUPT
 70
     0
  9
$DIMDEC
 70
     4
  9
$DIMTDEC
 70
     4
  9
$DIMALTU
 70
     2
  9
$DIMALTTD
 70
     2
  9
$DIMTXSTY
  7
Standard
  9
$DIMAUNIT
 70
     0
  9
$DIMADEC
 70
     0
  9
$DIMALTRND
 40
0.0
  9
$DIMAZIN
 70
     0
  9
$DIMDSEP
 70
    46
  9
$DIMATFIT
 70
     3
  9
$DIMFRAC
 70
     0
  9
$DIMLDRBLK
  1

  9
$DIMLUNIT
 70
     2
  9
$DIMLWD
 70
    -2
  9
$DIMLWE
 70
    -2
  9
$DIMTMOVE
 70
     0
  9
$DIMFXL
 40
1.0
  9
$DIMFXLON
 70
     0
  9
$DIMJOGANG
 40
0.7853981633974483
  9
$DIMTFILL
 70
     0
  9
$DIMTFILLCLR
 70
     0
  9
$DIMARCSYM
 70
     0
  9
$DIMLTYPE
  6

  9
$DIMLTEX1
  6

  9
$DIMLTEX2
  6

  9
$DIMTXTDIRECTION
 70
     0
  9
$LUNITS
 70
     2
  9
$LUPREC
 70
     4
  9
$SKETCHINC
 40
0.1
  9
$FILLETRAD
 40
0.0
  9
$AUNITS
 70
     0
  9
$AUPREC
 70
     0
  9
$MENU
  1
.
  9
$ELEVATION
 40
0.0
  9
$PELEVATION
 40
0.0
  9
$THICKNESS
 40
0.0
  9
$LIMCHECK
 70
     0
  9
$CHAMFERA
 40
0.0
  9
$CHAMFERB
 40
0.0
  9
$CHAMFERC
 40
0.0
  9
$CHAMFERD
 40
0.0
  9
$SKPOLY
 70
     0
  9
$TDCREATE
 40
2458157.454583334
  9
$TDUCREATE
 40
2458157.287916667
  9
$TDUPDATE
 40
2460671.801111111
  9
$TDUUPDATE
 40
2460671.634444445
  9
$TDINDWG
 40
0.1769907407
  9
$TDUSRTIMER
 40
0.1769907407
  9
$USRTIMER
 70
     1
  9
$ANGBASE
 50
0.0
  9
$ANGDIR
 70
     0
  9
$PDMODE
 70
     0
  9
$PDSIZE
 40
0.0
  9
$PLINEWID
 40
0.0
  9
$SPLFRAME
 70
     0
  9
$SPLINETYPE
 70
     6
  9
$SPLINESEGS
 70
     8
  9
$HANDSEED
  5
530EE
  9
$SURFTAB1
 70
     6
  9
$SURFTAB2
 70
     6
  9
$SURFTYPE
 70
     6
  9
$SURFU
 70
     6
  9
$SURFV
 70
     6
  9
$UCSBASE
  2

  9
$UCSNAME
  2

  9
$UCSORG
 10
0.0
 20
0.0
 30
0.0
  9
$UCSXDIR
 10
1.0
 20
0.0
 30
0.0
  9
$UCSYDIR
 10
0.0
 20
1.0
 30
0.0
  9
$UCSORTHOREF
  2

  9
$UCSORTHOVIEW
 70
     0
  9
$UCSORGTOP
 10
0.0
 20
0.0
 30
0.0
  9
$UCSORGBOTTOM
 10
0.0
 20
0.0
 30
0.0
  9
$UCSORGLEFT
 10
0.0
 20
0.0
 30
0.0
  9
$UCSORGRIGHT
 10
0.0
 20
0.0
 30
0.0
  9
$UCSORGFRONT
 10
0.0
 20
0.0
 30
0.0
  9
$UCSORGBACK
 10
0.0
 20
0.0
 30
0.0
  9
$PUCSBASE
  2

  9
$PUCSNAME
  2

  9
$PUCSORG
 10
0.0
 20
0.0
 30
0.0
  9
$PUCSXDIR
 10
1.0
 20
0.0
 30
0.0
  9
$PUCSYDIR
 10
0.0
 20
1.0
 30
0.0
  9
$PUCSORTHOREF
  2

  9
$PUCSORTHOVIEW
 70
     0
  9
$PUCSORGTOP
 10
0.0
 20
0.0
 30
0.0
  9
$PUCSORGBOTTOM
 10
0.0
 20
0.0
 30
0.0
  9
$PUCSORGLEFT
 10
0.0
 20
0.0
 30
0.0
  9
$PUCSORGRIGHT
 10
0.0
 20
0.0
 30
0.0
  9
$PUCSORGFRONT
 10
0.0
 20
0.0
 30
0.0
  9
$PUCSORGBACK
 10
0.0
 20
0.0
 30
0.0
  9
$USERI1
 70
     0
  9
$USERI2
 70
     0
  9
$USERI3
 70
     0
  9
$USERI4
 70
     0
  9
$USERI5
 70
     0
  9
$USERR1
 40
0.0
  9
$USERR2
 40
0.0
  9
$USERR3
 40
0.0
  9
$USERR4
 40
0.0
  9
$USERR5
 40
0.0
  9
$WORLDVIEW
 70
     1
  9
$SHADEDGE
 70
     3
  9
$SHADEDIF
 70
    70
  9
$TILEMODE
 70
     1
  9
$MAXACTVP
 70
    64
  9
$PINSBASE
 10
0.0
 20
0.0
 30
0.0
  9
$PLIMCHECK
 70
     0
  9
$PEXTMIN
 10
0.0
 20
0.0
 30
0.0
  9
$PEXTMAX
 10
0.0
 20
0.0
 30
0.0
  9
$PLIMMIN
 10
0.0
 20
0.0
  9
$PLIMMAX
 10
12.0
 20
9.0
  9
$UNITMODE
 70
     0
  9
$VISRETAIN
 70
     1
  9
$PLINEGEN
 70
     0
  9
$PSLTSCALE
 70
     1
  9
$TREEDEPTH
 70
  3020
  9
$CMLSTYLE
  2
Standard
  9
$CMLJUST
 70
     0
  9
$CMLSCALE
 40
1.0
  9
$PROXYGRAPHICS
 70
     1
  9
$MEASUREMENT
 70
     0
  9
$CELWEIGHT
370
    -1
  9
$ENDCAPS
280
     0
  9
$JOINSTYLE
280
     0
  9
$LWDISPLAY
290
     0
  9
$INSUNITS
 70
     1
  9
$HYPERLINKBASE
  1

  9
$STYLESHEET
  1
monochrome.ctb
  9
$XEDIT
290
     1
  9
$CEPSNTYPE
380
     0
  9
$PSTYLEMODE
290
     1
  9
$FINGERPRINTGUID
  2
{358EB121-6EE0-9143-8A3E-6E8E8869FDA6}
  9
$VERSIONGUID
  2
{F7C57E8B-0971-BA49-9B75-2700DC7BB813}
  9
$EXTNAMES
290
     1
  9
$PSVPSCALE
 40
0.0
  9
$OLESTARTUP
290
     0
  9
$SORTENTS
280
   127
  9
$INDEXCTL
280
     0
  9
$HIDETEXT
280
     1
  9
$XCLIPFRAME
280
     2
  9
$HALOGAP
280
     0
  9
$OBSCOLOR
 70
   257
  9
$OBSLTYPE
280
     0
  9
$INTERSECTIONDISPLAY
280
     0
  9
$INTERSECTIONCOLOR
 70
   257
  9
$DIMASSOC
280
     2
  9
$PROJECTNAME
  1

  9
$CAMERADISPLAY
290
     0
  9
$LENSLENGTH
 40
50.0
  9
$CAMERAHEIGHT
 40
0.0
  9
$STEPSPERSEC
 40
2.0
  9
$STEPSIZE
 40
6.0
  9
$3DDWFPREC
 40
2.0
  9
$PSOLWIDTH
 40
0.25
  9
$PSOLHEIGHT
 40
4.0
  9
$LOFTANG1
 40
1.570796326794896
  9
$LOFTANG2
 40
1.570796326794896
  9
$LOFTMAG1
 40
0.0
  9
$LOFTMAG2
 40
0.0
  9
$LOFTPARAM
 70
     7
  9
$LOFTNORMALS
280
     1
  9
$LATITUDE
 40
37.795
  9
$LONGITUDE
 40
-122.394
  9
$NORTHDIRECTION
 40
0.0
  9
$TIMEZONE
 70
 -8000
  9
$LIGHTGLYPHDISPLAY
280
     1
  9
$TILEMODELIGHTSYNCH
280
     1
  9
$CMATERIAL
347
96
  9
$SOLIDHIST
280
     0
  9
$SHOWHIST
280
     1
  9
$DWFFRAME
280
     2
  9
$DGNFRAME
280
     0
  9
$REALWORLDSCALE
290
     1
  9
$INTERFERECOLOR
 62
     1
  9
$INTERFEREOBJVS
345
A3
  9
$INTERFEREVPVS
346
A0
  9
$CSHADOW
280
     0
  9
$SHADOWPLANELOCATION
 40
0.0
  0
ENDSEC
  0
SECTION
  2
CLASSES
  0
CLASS
  1
ACDBDICTIONARYWDFLT
  2
AcDbDictionaryWithDefault
  3
ObjectDBX Classes
 90
        0
 91
        1
280
     0
281
     0
  0
CLASS
  1
DICTIONARYVAR
  2
AcDbDictionaryVar
  3
ObjectDBX Classes
 90
        0
 91
       25
280
     0
281
     0
  0
CLASS
  1
TABLESTYLE
  2
AcDbTableStyle
  3
ObjectDBX Classes
 90
     4095
 91
        1
280
     0
281
     0
  0
CLASS
  1
MATERIAL
  2
AcDbMaterial
  3
ObjectDBX Classes
 90
     1153
 91
        3
280
     0
281
     0
  0
CLASS
  1
VISUALSTYLE
  2
AcDbVisualStyle
  3
ObjectDBX Classes
 90
     4095
 91
       25
280
     0
281
     0
  0
CLASS
  1
SCALE
  2
AcDbScale
  3
ObjectDBX Classes
 90
     1153
 91
       34
280
     0
281
     0
  0
CLASS
  1
MLEADERSTYLE
  2
AcDbMLeaderStyle
  3
ACDB_MLEADERSTYLE_CLASS
 90
     4095
 91
        1
280
     0
281
     0
  0
CLASS
  1
CELLSTYLEMAP
  2
AcDbCellStyleMap
  3
ObjectDBX Classes
 90
     1152
 91
        1
280
     0
281
     0
  0
CLASS
  1
EXACXREFPANELOBJECT
  2
ExAcXREFPanelObject
  3
EXAC_ESW
 90
     1025
 91
        1
280
     0
281
     0
  0
CLASS
  1
NPOCOLLECTION
  2
AcDbImpNonPersistentObjectsCollection
  3
ObjectDBX Classes
 90
     1153
 91
        1
280
     0
281
     0
  0
CLASS
  1
LAYER_INDEX
  2
AcDbLayerIndex
  3
ObjectDBX Classes
 90
        0
 91
        0
280
     0
281
     0
  0
CLASS
  1
SPATIAL_INDEX
  2
AcDbSpatialIndex
  3
ObjectDBX Classes
 90
        0
 91
        0
280
     0
281
     0
  0
CLASS
  1
IDBUFFER
  2
AcDbIdBuffer
  3
ObjectDBX Classes
 90
        0
 91
        0
280
     0
281
     0
  0
CLASS
  1
ACDBSECTIONVIEWSTYLE
  2
AcDbSectionViewStyle
  3
ObjectDBX Classes
 90
     1025
 91
        2
280
     0
281
     0
  0
CLASS
  1
ACDBDETAILVIEWSTYLE
  2
AcDbDetailViewStyle
  3
ObjectDBX Classes
 90
     1025
 91
        2
280
     0
281
     0
  0
CLASS
  1
SORTENTSTABLE
  2
AcDbSortentsTable
  3
ObjectDBX Classes
 90
        0
 91
        1
280
     0
281
     0
  0
CLASS
  1
ACAD_EVALUATION_GRAPH
  2
AcDbEvalGraph
  3
ObjectDBX Classes
 90
     1153
 91
        0
280
     0
281
     0
  0
CLASS
  1
BLOCKLINEARPARAMETER
  2
AcDbBlockLinearParameter
  3
ObjectDBX Classes
 90
     1153
 91
        0
280
     0
281
     0
  0
CLASS
  1
BLOCKLINEARGRIP
  2
AcDbBlockLinearGrip
  3
ObjectDBX Classes
 90
     1153
 91
        0
280
     0
281
     0
  0
CLASS
  1
BLOCKGRIPLOCATIONCOMPONENT
  2
AcDbBlockGripExpr
  3
ObjectDBX Classes
 90
     1153
 91
        0
280
     0
281
     0
  0
CLASS
  1
BLOCKSTRETCHACTION
  2
AcDbBlockStretchAction
  3
ObjectDBX Classes
 90
     1153
 91
        0
280
     0
281
     0
  0
CLASS
  1
ACDB_DYNAMICBLOCKPURGEPREVENTER_VERSION
  2
AcDbDynamicBlockPurgePreventer
  3
ObjectDBX Classes
 90
     1153
 91
        0
280
     0
281
     0
  0
CLASS
  1
BLOCKVISIBILITYPARAMETER
  2
AcDbBlockVisibilityParameter
  3
ObjectDBX Classes
 90
     1153
 91
        0
280
     0
281
     0
  0
CLASS
  1
BLOCKVISIBILITYGRIP
  2
AcDbBlockVisibilityGrip
  3
ObjectDBX Classes
 90
     1153
 91
        0
280
     0
281
     0
  0
CLASS
  1
ACDB_BLOCKREPRESENTATION_DATA
  2
AcDbBlockRepresentationData
  3
ObjectDBX Classes
 90
     1153
 91
        0
280
     0
281
     0
  0
CLASS
  1
SURFACE
  2
AcDbSurface
  3
ObjectDBX Classes
 90
     4095
 91
        0
280
     0
281
     1
  0
CLASS
  1
ACDBASSOCPERSSUBENTMANAGER
  2
AcDbAssocPersSubentManager
  3
ObjectDBX Classes
 90
     1024
 91
        1
280
     0
281
     0
  0
CLASS
  1
BLOCKARRAYACTION
  2
AcDbBlockArrayAction
  3
ObjectDBX Classes
 90
     1153
 91
        0
280
     0
281
     0
  0
CLASS
  1
BLOCKLOOKUPPARAMETER
  2
AcDbBlockLookupParameter
  3
ObjectDBX Classes
 90
     1153
 91
        0
280
     0
281
     0
  0
CLASS
  1
BLOCKLOOKUPGRIP
  2
AcDbBlockLookupGrip
  3
ObjectDBX Classes
 90
     1153
 91
        0
280
     0
281
     0
  0
CLASS
  1
BLOCKLOOKUPACTION
  2
AcDbBlockLookupAction
  3
ObjectDBX Classes
 90
     1153
 91
        0
280
     0
281
     0
  0
ENDSEC
  0
SECTION
  2
TABLES
  0
TABLE
  2
VPORT
  5
8
330
0
100
AcDbSymbolTable
 70
     1
  0
VPORT
  5
94
330
8
100
AcDbSymbolTableRecord
100
AcDbViewportTableRecord
  2
*Active
 70
     0
 10
0.0
 20
0.0
 11
1.0
 21
1.0
 12
105023.6189556416
 22
95051.871015347
 13
0.0
 23
0.0
 14
0.5
 24
0.5
 15
0.5
 25
0.5
 16
0.0
 26
0.0
 36
1.0
 17
0.0
 27
0.0
 37
0.0
 40
4.677982309323851
 41
2.293369663941871
 42
50.0
 43
0.0
 44
0.0
 50
0.0
 51
0.0
 71
     0
 72
  1000
 73
     1
 74
     3
 75
     0
 76
     0
 77
     0
 78
     0
281
     0
 65
     1
110
0.0
120
0.0
130
0.0
111
1.0
121
0.0
131
0.0
112
0.0
122
1.0
132
0.0
 79
     0
146
0.0
348
9F
 60
     3
 61
     5
292
     1
282
     1
141
0.0
142
0.0
 63
   250
421
  3355443
1001
ACAD_NAV_VCDISPLAY
1070
     3
  0
ENDTAB
  0
TABLE
  2
LTYPE
  5
5
330
0
100
AcDbSymbolTable
 70
     1
  0
LTYPE
  5
14
330
5
100
AcDbSymbolTableRecord
100
AcDbLinetypeTableRecord
  2
ByBlock
 70
     0
  3

 72
    65
 73
     0
 40
0.0
  0
LTYPE
  5
15
330
5
100
AcDbSymbolTableRecord
100
AcDbLinetypeTableRecord
  2
ByLayer
 70
     0
  3

 72
    65
 73
     0
 40
0.0
  0
LTYPE
  5
16
330
5
100
AcDbSymbolTableRecord
100
AcDbLinetypeTableRecord
  2
Continuous
 70
     0
  3
Solid line
 72
    65
 73
     0
 40
0.0
  0
ENDTAB
  0
TABLE
  2
LAYER
  5
2
102
{ACAD_XDICTIONARY
360
18E
102
}
330
0
100
AcDbSymbolTable
 70
     2
  0
LAYER
  5
10
102
{ACAD_XDICTIONARY
360
E6
102
}
330
2
100
AcDbSymbolTableRecord
100
AcDbLayerTableRecord
  2
0
 70
     0
 62
     7
  6
Continuous
370
    -3
390
F
347
98
348
0
  0
LAYER
  5
204
330
2
100
AcDbSymbolTableRecord
100
AcDbLayerTableRecord
  2
freecads.com
 70
     0
 62
     7
  6
Continuous
370
    -3
390
F
347
98
348
0
1001
AcAecLayerStandard
1000

1000

1001
AcCmTransparency
1071
        0
  0
ENDTAB
  0
TABLE
  2
STYLE
  5
3
330
0
100
AcDbSymbolTable
 70
     2
  0
STYLE
  5
11
330
3
100
AcDbSymbolTableRecord
100
AcDbTextStyleTableRecord
  2
Standard
 70
     0
 40
0.0
 41
1.0
 50
0.0
 71
     0
 42
0.2
  3
arial.ttf
  4

1001
ACAD
1000
Arial
1071
       34
  0
ENDTAB
  0
TABLE
  2
VIEW
  5
6
330
0
100
AcDbSymbolTable
 70
     0
  0
ENDTAB
  0
TABLE
  2
UCS
  5
7
330
0
100
AcDbSymbolTable
 70
     0
  0
ENDTAB
  0
TABLE
  2
APPID
  5
9
330
0
100
AcDbSymbolTable
 70
    32
  0
APPID
  5
12
330
9
100
AcDbSymbolTableRecord
100
AcDbRegAppTableRecord
  2
ACAD
 70
     0
  0
APPID
  5
DD
330
9
100
AcDbSymbolTableRecord
100
AcDbRegAppTableRecord
  2
AcadAnnoPO
 70
     0
  0
APPID
  5
DE
330
9
100
AcDbSymbolTableRecord
100
AcDbRegAppTableRecord
  2
AcadAnnotative
 70
     0
  0
APPID
  5
DF
330
9
100
AcDbSymbolTableRecord
100
AcDbRegAppTableRecord
  2
ACAD_DSTYLE_DIMJAG
 70
     0
  0
APPID
  5
E0
330
9
100
AcDbSymbolTableRecord
100
AcDbRegAppTableRecord
  2
ACAD_DSTYLE_DIMTALN
 70
     0
  0
APPID
  5
107
330
9
100
AcDbSymbolTableRecord
100
AcDbRegAppTableRecord
  2
ACAD_MLEADERVER
 70
     0
  0
APPID
  5
1A6
330
9
100
AcDbSymbolTableRecord
100
AcDbRegAppTableRecord
  2
ACAD_NAV_VCDISPLAY
 70
     0
  0
APPID
  5
205
330
9
100
AcDbSymbolTableRecord
100
AcDbRegAppTableRecord
  2
AcAecLayerStandard
 70
     0
  0
APPID
  5
206
330
9
100
AcDbSymbolTableRecord
100
AcDbRegAppTableRecord
  2
AcCmTransparency
 70
     0
  0
APPID
  5
222
330
9
100
AcDbSymbolTableRecord
100
AcDbRegAppTableRecord
  2
ACAD_PSEXT
 70
     0
  0
APPID
  5
2DA
330
9
100
AcDbSymbolTableRecord
100
AcDbRegAppTableRecord
  2
GradientColor1ACI
 70
     0
  0
APPID
  5
2DB
330
9
100
AcDbSymbolTableRecord
100
AcDbRegAppTableRecord
  2
GradientColor2ACI
 70
     0
  0
APPID
  5
2F3
330
9
100
AcDbSymbolTableRecord
100
AcDbRegAppTableRecord
  2
ACAD_EXEMPT_FROM_CAD_STANDARDS
 70
     0
  0
APPID
  5
A1A
330
9
100
AcDbSymbolTableRecord
100
AcDbRegAppTableRecord
  2
AcDbBlockRepETag
 70
     0
  0
APPID
  5
2282
330
9
100
AcDbSymbolTableRecord
100
AcDbRegAppTableRecord
  2
RAK
 70
     0
  0
APPID
  5
39F4
330
9
100
AcDbSymbolTableRecord
100
AcDbRegAppTableRecord
  2
ACAD_DSTYLE_DIMJOGGED_JOGANGLE_SYMBOL
 70
     0
  0
APPID
  5
39F5
330
9
100
AcDbSymbolTableRecord
100
AcDbRegAppTableRecord
  2
AcDbDynamicBlockGUID
 70
     0
  0
APPID
  5
39F6
330
9
100
AcDbSymbolTableRecord
100
AcDbRegAppTableRecord
  2
ACAD_DSTYLE_DIMBREAK
 70
     0
  0
APPID
  5
3B59
330
9
100
AcDbSymbolTableRecord
100
AcDbRegAppTableRecord
  2
AEC_XDATA_BOUND_SPACE
 70
     0
  0
APPID
  5
75C5
330
9
100
AcDbSymbolTableRecord
100
AcDbRegAppTableRecord
  2
AcDbDynamicBlockTrueName
 70
     0
  0
APPID
  5
75C6
330
9
100
AcDbSymbolTableRecord
100
AcDbRegAppTableRecord
  2
AcDbBlockRepBTag
 70
     0
  0
APPID
  5
75C7
330
9
100
AcDbSymbolTableRecord
100
AcDbRegAppTableRecord
  2
ACAUTHENVIRON
 70
     0
  0
APPID
  5
AA90
330
9
100
AcDbSymbolTableRecord
100
AcDbRegAppTableRecord
  2
Acad_TC
 70
     0
  0
APPID
  5
AA9C
330
9
100
AcDbSymbolTableRecord
100
AcDbRegAppTableRecord
  2
AcDbBlockArrayActionTag
 70
     0
  0
APPID
  5
BEE4
330
9
100
AcDbSymbolTableRecord
100
AcDbRegAppTableRecord
  2
ACAD_DSTYLE_DIMTEXT_FILL
 70
     0
  0
APPID
  5
219E5
330
9
100
AcDbSymbolTableRecord
100
AcDbRegAppTableRecord
  2
AECLAY
 70
     0
  0
APPID
  5
26B46
330
9
100
AcDbSymbolTableRecord
100
AcDbRegAppTableRecord
  2
REVIT
 70
     0
  0
APPID
  5
280A5
330
9
100
AcDbSymbolTableRecord
100
AcDbRegAppTableRecord
  2
HATCHBACKGROUNDCOLOR
 70
     0
  0
APPID
  5
29EE0
330
9
100
AcDbSymbolTableRecord
100
AcDbRegAppTableRecord
  2
ACAD_STEPID
 70
     0
  0
APPID
  5
29EE1
330
9
100
AcDbSymbolTableRecord
100
AcDbRegAppTableRecord
  2
AcLayerTools
 70
     0
  0
APPID
  5
4D86C
330
9
100
AcDbSymbolTableRecord
100
AcDbRegAppTableRecord
  2
PE_URL
 70
     0
  0
APPID
  5
4DA7A
330
9
100
AcDbSymbolTableRecord
100
AcDbRegAppTableRecord
  2
PLOTTRANSPARENCY
 70
     0
  0
ENDTAB
  0
TABLE
  2
DIMSTYLE
  5
A
330
0
100
AcDbSymbolTable
 70
     2
100
AcDbDimStyleTable
 71
     1
340
27
  0
DIMSTYLE
105
27
330
A
100
AcDbSymbolTableRecord
100
AcDbDimStyleTableRecord
  2
Standard
 70
     0
340
11
  0
ENDTAB
  0
TABLE
  2
BLOCK_RECORD
  5
1
330
0
100
AcDbSymbolTable
 70
     2
  0
BLOCK_RECORD
  5
1F
102
{ACAD_XDICTIONARY
360
15D
102
}
330
1
100
AcDbSymbolTableRecord
100
AcDbBlockTableRecord
  2
*Model_Space
340
22
 70
     0
280
     1
281
     0
  0
BLOCK_RECORD
  5
58
330
1
100
AcDbSymbolTableRecord
100
AcDbBlockTableRecord
  2
*Paper_Space
340
59
 70
     0
280
     1
281
     0
  0
BLOCK_RECORD
  5
5D
330
1
100
AcDbSymbolTableRecord
100
AcDbBlockTableRecord
  2
*Paper_Space0
340
5E
 70
     0
280
     1
281
     0
  0
ENDTAB
  0
ENDSEC
  0
SECTION
  2
BLOCKS
  0
BLOCK
  5
20
330
1F
100
AcDbEntity
  8
0
100
AcDbBlockBegin
  2
*Model_Space
 70
     0
 10
0.0
 20
0.0
 30
0.0
  3
*Model_Space
  1

  0
ENDBLK
  5
21
330
1F
100
AcDbEntity
  8
0
100
AcDbBlockEnd
  0
BLOCK
  5
5A
330
58
100
AcDbEntity
 67
     1
  8
0
100
AcDbBlockBegin
  2
*Paper_Space
 70
     0
 10
0.0
 20
0.0
 30
0.0
  3
*Paper_Space
  1

  0
ENDBLK
  5
5B
330
58
100
AcDbEntity
 67
     1
  8
0
100
AcDbBlockEnd
  0
BLOCK
  5
5F
330
5D
100
AcDbEntity
 67
     1
  8
0
100
AcDbBlockBegin
  2
*Paper_Space0
 70
     0
 10
0.0
 20
0.0
 30
0.0
  3
*Paper_Space0
  1

  0
ENDBLK
  5
60
330
5D
100
AcDbEntity
 67
     1
  8
0
100
AcDbBlockEnd
  0
ENDSEC
  0
SECTION
  2
ENTITIES
  0
LINE
  5
52C27
330
1F
100
AcDbEntity
  8
freecads.com
100
AcDbLine
 10
105023.0957765428
 20
95051.62247955894
 30
0.0
 11
105023.0915670313
 21
95051.62139879773
 31
0.0
  0
LINE
  5
52C28
330
1F
100
AcDbEntity
  8
freecads.com
100
AcDbLine
 10
105023.0987265632
 20
95051.62350268626
 30
0.0
 11
105023.1015781307
 21
95051.62458187914
 31
0.0
  0
LINE
  5
52C29
330
1F
100
AcDbEntity
  8
freecads.com
100
AcDbLine
 10
105023.1015781307
 20
95051.62458187914
 30
0.0
 11
105023.102427197
 21
95051.62516360151
 31
0.0
  0
LINE
  5
52C2A
330
1F
100
AcDbEntity
  8
freecads.com
100
AcDbLine
 10
105023.102427197
 20
95051.62516360151
 30
0.0
 11
105023.1042682583
 21
95051.62642497118
 31
0.0
  0
LINE
  5
52C2B
330
1F
100
AcDbEntity
  8
freecads.com
100
AcDbLine
 10
105023.1042682583
 20
95051.62642497118
 30
0.0
 11
105023.1058695352
 21
95051.62752205697
 31
0.0
  0
LINE
  5
52C2C
330
1F
100
AcDbEntity
  8
freecads.com
100
AcDbLine
 10
105023.1058695352
 20
95051.62752205697
 30
0.0
 11
105023.1094664602
 21
95051.63158282337
 31
0.0
  0
LINE
  5
52C2D
330
1F
100
AcDbEntity
  8
freecads.com
100
AcDbLine
 10
105022.9111266284
 20
95052.3498267707
 30
0.0
 11
105022.9056651579
 21
95052.35179405293
 31
0.0
  0
LINE
  5
52C2E
330
1F
100
AcDbEntity
  8
freecads.com
100
AcDbLine
 10
105022.9056651579
 20
95052.35179405293
 30
0.0
 11
105022.8982278133
 21
95052.35461989425
 31
0.0
  0
LINE
  5
52C2F
330
1F
100
AcDbEntity
  8
freecads.com
100
AcDbLine
 10
105022.8982278133
 20
95052.35461989425
 30
0.0
 11
105022.8891112488
 21
95052.35808376017
 31
0.0
  0
LINE
  5
52C30
330
1F
100
AcDbEntity
  8
freecads.com
100
AcDbLine
 10
105022.8891112488
 20
95052.35808376017
 30
0.0
 11
105022.877599382
 21
95052.3624577284
 31
0.0
  0
LINE
  5
52C31
330
1F
100
AcDbEntity
  8
freecads.com
100
AcDbLine
 10
105022.877599382
 20
95052.3624577284
 30
0.0
 11
105022.8731727021
 21
95052.36410146752
 31
0.0
  0
LINE
  5
52C32
330
1F
100
AcDbEntity
  8
freecads.com
100
AcDbLine
 10
105022.8731727021
 20
95052.36410146752
 30
0.0
 11
105022.8639350792
 21
95052.36753163249
 31
0.0
  0
LINE
  5
52C33
330
1F
100
AcDbEntity
  8
freecads.com
100
AcDbLine
 10
105022.8639350792
 20
95052.36753163249
 30
0.0
 11
105022.8510149858
 21
95052.37232919267
 31
0.0
  0
LINE
  5
52C34
330
1F
100
AcDbEntity
  8
freecads.com
100
AcDbLine
 10
105022.8510149858
 20
95052.37232919267
 30
0.0
 11
105022.8481788792
 21
95052.37335670505
 31
0.0
  0
LINE
  5
52C35
330
1F
100
AcDbEntity
  8
freecads.com
100
AcDbLine
 10
105022.8481788792
 20
95052.37335670505
 30
0.0
 11
105022.8388298523
 21
95052.37674382772
 31
0.0
  0
LINE
  5
52C36
330
1F
100
AcDbEntity
  8
freecads.com
100
AcDbLine
 10
105022.8388298523
 20
95052.37674382772
 30
0.0
 11
105022.8255465146
 21
95052.38155633866
 31
0.0
  0
LINE
  5
52C37
330
1F
100
AcDbEntity
  8
freecads.com
100
AcDbLine
 10
105022.8255465146
 20
95052.38155633866
 30
0.0
 11
105022.8232290734
 21
95052.3823747719
 31
0.0
  0
LINE
  5
52C38
330
1F
100
AcDbEntity
  8
freecads.com
100
AcDbLine
 10
105022.8232290734
 20
95052.3823747719
 30
0.0
 11
105022.8138098898
 21
95052.38570127382
 31
0.0
  0
LINE
  5
52C39
330
1F
100
AcDbEntity
  8
freecads.com
100
AcDbLine
 10
105022.8138098898
 20
95052.38570127382
 30
0.0
 11
105022.8008272785
 21
95052.39028624462
 31
0.0
  0
LINE
  5
52C3A
330
1F
100
AcDbEntity
  8
freecads.com
100
AcDbLine
 10
105022.8008272785
 20
95052.39028624462
 30
0.0
 11
105022.7983066054
 21
95052.39115424096
 31
0.0
  0
LINE
  5
52C3B
330
1F
100
AcDbEntity
  8
freecads.com
100
AcDbLine
 10
105022.7983066054
 20
95052.39115424096
 30
0.0
 11
105022.788864442
 21
95052.39440565945
 31
0.0
  0
LINE
  5
52C3C
330
1F
100
AcDbEntity
  8
freecads.com
100
AcDbLine
 10
105022.788864442
 20
95052.39440565945
 30
0.0
 11
105022.776491205
 21
95052.39866639611
 31
0.0
  0
LINE
  5
52C3D
330
1F
100
AcDbEntity
  8
freecads.com
100
AcDbLine
 10
105022.776491205
 20
95052.39866639611
 30
0.0
 11
105022.7733986917
 21
95052.39970609853
 31
0.0
  0
LINE
  5
52C3E
330
1F
100
AcDbEntity
  8
freecads.com
100
AcDbLine
 10
105022.7733986917
 20
95052.39970609853
 30
0.0
 11
105022.7639591028
 21
95052.40287968657
 31
0.0
  0
LINE
  5
52C3F
330
1F
100
AcDbEntity
  8
freecads.com
100
AcDbLine
 10
105022.7639591028
 20
95052.40287968657
 30
0.0
 11
105022.752170369
 21
95052.40684305668
 31
0.0
  0
LINE
  5
52C40
330
1F
100
AcDbEntity
  8
freecads.com
100
AcDbLine
 10
105022.752170369
 20
95052.40684305668
 30
0.0
 11
105022.7485075065
 21
95052.4080445678
 31
0.0
  0
LINE
  5
52C41
330
1F
100
AcDbEntity
  8
freecads.com
100
AcDbLine
 10
105022.7485075065
 20
95052.4080445678
 30
0.0
 11
105022.739070621
 21
95052.4111401039
 31
0.0
  0
LINE
  5
52C42
330
1F
100
AcDbEntity
  8
freecads.com
100
AcDbLine
 10
105022.739070621
 20
95052.4111401039
 30
0.0
 11
105022.7278631781
 21
95052.41481642737
 31
0.0
  0
LINE
  5
52C43
330
1F
100
AcDbEntity
  8
freecads.com
100
AcDbLine
 10
105022.7278631781
 20
95052.41481642737
 30
0.0
 11
105022.7236300619
 21
95052.41617011538
 31
0.0
  0
LINE
  5
52C44
330
1F
100
AcDbEntity
  8
freecads.com
100
AcDbLine
 10
105022.7236300619
 20
95052.41617011538
 30
0.0
 11
105022.7141945503
 21
95052.41918745257
 31
0.0
  0
LINE
  5
52C45
330
1F
100
AcDbEntity
  8
freecads.com
100
AcDbLine
 10
105022.7141945503
 20
95052.41918745257
 30
0.0
 11
105022.7035676008
 21
95052.42258579404
 31
0.0
  0
LINE
  5
52C46
330
1F
100
AcDbEntity
  8
freecads.com
100
AcDbLine
 10
105022.7035676008
 20
95052.42258579404
 30
0.0
 11
105022.6987639518
 21
95052.42408195508
 31
0.0
  0
LINE
  5
52C47
330
1F
100
AcDbEntity
  8
freecads.com
100
AcDbLine
 10
105022.6987639518
 20
95052.42408195508
 30
0.0
 11
105022.6893275839
 21
95052.42702103865
 31
0.0
  0
LINE
  5
52C48
330
1F
100
AcDbEntity
  8
freecads.com
100
AcDbLine
 10
105022.6893275839
 20
95052.42702103865
 30
0.0
 11
105022.6792809286
 21
95052.43015020443
 31
0.0
  0
LINE
  5
52C49
330
1F
100
AcDbEntity
  8
freecads.com
100
AcDbLine
 10
105022.6792809286
 20
95052.43015020443
 30
0.0
 11
105022.6739073019
 21
95052.43177911051
 31
0.0
  0
LINE
  5
52C4A
330
1F
100
AcDbEntity
  8
freecads.com
100
AcDbLine
 10
105022.6739073019
 20
95052.43177911051
 30
0.0
 11
105022.6644700114
 21
95052.43463983397
 31
0.0
  0
LINE
  5
52C4B
330
1F
100
AcDbEntity
  8
freecads.com
100
AcDbLine
 10
105022.6644700114
 20
95052.43463983397
 30
0.0
 11
105022.6550023654
 21
95052.43750975909
 31
0.0
  0
LINE
  5
52C4C
330
1F
100
AcDbEntity
  8
freecads.com
100
AcDbLine
 10
105022.6550023654
 20
95052.43750975909
 30
0.0
 11
105022.6490577134
 21
95052.43926168716
 31
0.0
  0
LINE
  5
52C4D
330
1F
100
AcDbEntity
  8
freecads.com
100
AcDbLine
 10
105022.6490577134
 20
95052.43926168716
 30
0.0
 11
105022.6396176492
 21
95052.44204373619
 31
0.0
  0
LINE
  5
52C4E
330
1F
100
AcDbEntity
  8
freecads.com
100
AcDbLine
 10
105022.6396176492
 20
95052.44204373619
 30
0.0
 11
105022.6307284659
 21
95052.444663437
 31
0.0
  0
LINE
  5
52C4F
330
1F
100
AcDbEntity
  8
freecads.com
100
AcDbLine
 10
105022.6307284659
 20
95052.444663437
 30
0.0
 11
105022.624213013
 21
95052.44652864119
 31
0.0
  0
LINE
  5
52C50
330
1F
100
AcDbEntity
  8
freecads.com
100
AcDbLine
 10
105022.624213013
 20
95052.44652864119
 30
0.0
 11
105022.6147685524
 21
95052.44923234382
 31
0.0
  0
LINE
  5
52C51
330
1F
100
AcDbEntity
  8
freecads.com
100
AcDbLine
 10
105022.6147685524
 20
95052.44923234382
 30
0.0
 11
105022.6064592897
 21
95052.45161106893
 31
0.0
  0
LINE
  5
52C52
330
1F
100
AcDbEntity
  8
freecads.com
100
AcDbLine
 10
105022.6064592897
 20
95052.45161106893
 30
0.0
 11
105022.599372513
 21
95052.45357942216
 31
0.0
  0
LINE
  5
52C53
330
1F
100
AcDbEntity
  8
freecads.com
100
AcDbLine
 10
105022.599372513
 20
95052.45357942216
 30
0.0
 11
105022.5899243453
 21
95052.45620365206
 31
0.0
  0
LINE
  5
52C54
330
1F
100
AcDbEntity
  8
freecads.com
100
AcDbLine
 10
105022.5899243453
 20
95052.45620365206
 30
0.0
 11
105022.582191451
 21
95052.45835146457
 31
0.0
  0
LINE
  5
52C55
330
1F
100
AcDbEntity
  8
freecads.com
100
AcDbLine
 10
105022.582191451
 20
95052.45835146457
 30
0.0
 11
105022.5745333551
 21
95052.46041318285
 31
0.0
  0
LINE
  5
52C56
330
1F
100
AcDbEntity
  8
freecads.com
100
AcDbLine
 10
105022.5745333551
 20
95052.46041318285
 30
0.0
 11
105022.5650809176
 21
95052.46295797514
 31
0.0
  0
LINE
  5
52C57
330
1F
100
AcDbEntity
  8
freecads.com
100
AcDbLine
 10
105022.5650809176
 20
95052.46295797514
 30
0.0
 11
105022.5579241537
 21
95052.46488472444
 31
0.0
  0
LINE
  5
52C58
330
1F
100
AcDbEntity
  8
freecads.com
100
AcDbLine
 10
105022.5579241537
 20
95052.46488472444
 30
0.0
 11
105022.54969437
 21
95052.46702996196
 31
0.0
  0
LINE
  5
52C59
330
1F
100
AcDbEntity
  8
freecads.com
100
AcDbLine
 10
105022.54969437
 20
95052.46702996196
 30
0.0
 11
105022.5402350839
 21
95052.46949569089
 31
0.0
  0
LINE
  5
52C5A
330
1F
100
AcDbEntity
  8
freecads.com
100
AcDbLine
 10
105022.5402350839
 20
95052.46949569089
 30
0.0
 11
105022.5336567801
 21
95052.47121044122
 31
0.0
  0
LINE
  5
52C5B
330
1F
100
AcDbEntity
  8
freecads.com
100
AcDbLine
 10
105022.5336567801
 20
95052.47121044122
 30
0.0
 11
105022.5248538532
 21
95052.4734293411
 31
0.0
  0
LINE
  5
52C5C
330
1F
100
AcDbEntity
  8
freecads.com
100
AcDbLine
 10
105022.5248538532
 20
95052.4734293411
 30
0.0
 11
105022.5153871352
 21
95052.47581555874
 31
0.0
  0
LINE
  5
52C5D
330
1F
100
AcDbEntity
  8
freecads.com
100
AcDbLine
 10
105022.5153871352
 20
95052.47581555874
 30
0.0
 11
105022.5093872989
 21
95052.47732790074
 31
0.0
  0
LINE
  5
52C5E
330
1F
100
AcDbEntity
  8
freecads.com
100
AcDbLine
 10
105022.5093872989
 20
95052.47732790074
 30
0.0
 11
105022.5000114616
 21
95052.47961018692
 31
0.0
  0
LINE
  5
52C5F
330
1F
100
AcDbEntity
  8
freecads.com
100
AcDbLine
 10
105022.5000114616
 20
95052.47961018692
 30
0.0
 11
105022.4905379045
 21
95052.4819162603
 31
0.0
  0
LINE
  5
52C60
330
1F
100
AcDbEntity
  8
freecads.com
100
AcDbLine
 10
105022.4905379045
 20
95052.4819162603
 30
0.0
 11
105022.4851144152
 21
95052.48323645759
 31
0.0
  0
LINE
  5
52C61
330
1F
100
AcDbEntity
  8
freecads.com
100
AcDbLine
 10
105022.4851144152
 20
95052.48323645759
 30
0.0
 11
105022.4751647058
 21
95052.48557237905
 31
0.0
  0
LINE
  5
52C62
330
1F
100
AcDbEntity
  8
freecads.com
100
AcDbLine
 10
105022.4751647058
 20
95052.48557237905
 30
0.0
 11
105022.4656823302
 21
95052.48779858325
 31
0.0
  0
LINE
  5
52C63
330
1F
100
AcDbEntity
  8
freecads.com
100
AcDbLine
 10
105022.4656823302
 20
95052.48779858325
 30
0.0
 11
105022.4608373924
 21
95052.48893604301
 31
0.0
  0
LINE
  5
52C64
330
1F
100
AcDbEntity
  8
freecads.com
100
AcDbLine
 10
105022.4608373924
 20
95052.48893604301
 30
0.0
 11
105022.4503135056
 21
95052.49131546802
 31
0.0
  0
LINE
  5
52C65
330
1F
100
AcDbEntity
  8
freecads.com
100
AcDbLine
 10
105022.4503135056
 20
95052.49131546802
 30
0.0
 11
105022.4408220938
 21
95052.49346145298
 31
0.0
  0
LINE
  5
52C66
330
1F
100
AcDbEntity
  8
freecads.com
100
AcDbLine
 10
105022.4408220938
 20
95052.49346145298
 30
0.0
 11
105022.4365556724
 21
95052.4944260804
 31
0.0
  0
LINE
  5
52C67
330
1F
100
AcDbEntity
  8
freecads.com
100
AcDbLine
 10
105022.4365556724
 20
95052.4944260804
 30
0.0
 11
105022.4254563822
 21
95052.49683917439
 31
0.0
  0
LINE
  5
52C68
330
1F
100
AcDbEntity
  8
freecads.com
100
AcDbLine
 10
105022.4254563822
 20
95052.49683917439
 30
0.0
 11
105022.415955397
 21
95052.49890478127
 31
0.0
  0
LINE
  5
52C69
330
1F
100
AcDbEntity
  8
freecads.com
100
AcDbLine
 10
105022.415955397
 20
95052.49890478127
 30
0.0
 11
105022.4122685781
 21
95052.49970633167
 31
0.0
  0
LINE
  5
52C6A
330
1F
100
AcDbEntity
  8
freecads.com
100
AcDbLine
 10
105022.4122685781
 20
95052.49970633167
 30
0.0
 11
105022.4005937127
 21
95052.50214273736
 31
0.0
  0
LINE
  5
52C6B
330
1F
100
AcDbEntity
  8
freecads.com
100
AcDbLine
 10
105022.4005937127
 20
95052.50214273736
 30
0.0
 11
105022.3910827426
 21
95052.50412756382
 31
0.0
  0
LINE
  5
52C6C
330
1F
100
AcDbEntity
  8
freecads.com
100
AcDbLine
 10
105022.3910827426
 20
95052.50412756382
 30
0.0
 11
105022.3879748147
 21
95052.50477615144
 31
0.0
  0
LINE
  5
52C6D
330
1F
100
AcDbEntity
  8
freecads.com
100
AcDbLine
 10
105022.3879748147
 20
95052.50477615144
 30
0.0
 11
105022.3757232846
 21
95052.50722583783
 31
0.0
  0
LINE
  5
52C6E
330
1F
100
AcDbEntity
  8
freecads.com
100
AcDbLine
 10
105022.3757232846
 20
95052.50722583783
 30
0.0
 11
105022.3662016785
 21
95052.50912967746
 31
0.0
  0
LINE
  5
52C6F
330
1F
100
AcDbEntity
  8
freecads.com
100
AcDbLine
 10
105022.3662016785
 20
95052.50912967746
 30
0.0
 11
105022.3636737646
 21
95052.5096351324
 31
0.0
  0
LINE
  5
52C70
330
1F
100
AcDbEntity
  8
freecads.com
100
AcDbLine
 10
105022.3636737646
 20
95052.5096351324
 30
0.0
 11
105022.3508453528
 21
95052.51208812955
 31
0.0
  0
LINE
  5
52C71
330
1F
100
AcDbEntity
  8
freecads.com
100
AcDbLine
 10
105022.3508453528
 20
95052.51208812955
 30
0.0
 11
105022.3413131878
 21
95052.51391083167
 31
0.0
  0
LINE
  5
52C72
330
1F
100
AcDbEntity
  8
freecads.com
100
AcDbLine
 10
105022.3413131878
 20
95052.51391083167
 30
0.0
 11
105022.3393654277
 21
95052.51428327452
 31
0.0
  0
LINE
  5
52C73
330
1F
100
AcDbEntity
  8
freecads.com
100
AcDbLine
 10
105022.3393654277
 20
95052.51428327452
 30
0.0
 11
105022.3259593209
 21
95052.51672926329
 31
0.0
  0
LINE
  5
52C74
330
1F
100
AcDbEntity
  8
freecads.com
100
AcDbLine
 10
105022.3259593209
 20
95052.51672926329
 30
0.0
 11
105022.3164154785
 21
95052.51847056905
 31
0.0
  0
LINE
  5
52C75
330
1F
100
AcDbEntity
  8
freecads.com
100
AcDbLine
 10
105022.3164154785
 20
95052.51847056905
 30
0.0
 11
105022.3150493054
 21
95052.51871983187
 31
0.0
  0
LINE
  5
52C76
330
1F
100
AcDbEntity
  8
freecads.com
100
AcDbLine
 10
105022.3150493054
 20
95052.51871983187
 30
0.0
 11
105022.3010651055
 21
95052.52114892696
 31
0.0
  0
LINE
  5
52C77
330
1F
100
AcDbEntity
  8
freecads.com
100
AcDbLine
 10
105022.3010651055
 20
95052.52114892696
 30
0.0
 11
105022.2915089162
 21
95052.52280886409
 31
0.0
  0
LINE
  5
52C78
330
1F
100
AcDbEntity
  8
freecads.com
100
AcDbLine
 10
105022.2915089162
 20
95052.52280886409
 30
0.0
 11
105022.2907253384
 21
95052.52294497378
 31
0.0
  0
LINE
  5
52C79
330
1F
100
AcDbEntity
  8
freecads.com
100
AcDbLine
 10
105022.2907253384
 20
95052.52294497378
 30
0.0
 11
105022.2761618988
 21
95052.5253466243
 31
0.0
  0
LINE
  5
52C7A
330
1F
100
AcDbEntity
  8
freecads.com
100
AcDbLine
 10
105022.2761618988
 20
95052.5253466243
 30
0.0
 11
105022.2665936657
 21
95052.52692451749
 31
0.0
  0
LINE
  5
52C7B
330
1F
100
AcDbEntity
  8
freecads.com
100
AcDbLine
 10
105022.2665936657
 20
95052.52692451749
 30
0.0
 11
105022.2663923507
 21
95052.52695771627
 31
0.0
  0
LINE
  5
52C7C
330
1F
100
AcDbEntity
  8
freecads.com
100
AcDbLine
 10
105022.2663923507
 20
95052.52695771627
 30
0.0
 11
105022.2512491909
 21
95052.52932202349
 31
0.0
  0
LINE
  5
52C7D
330
1F
100
AcDbEntity
  8
freecads.com
100
AcDbLine
 10
105022.2512491909
 20
95052.52932202349
 30
0.0
 11
105022.2420510791
 21
95052.53075812811
 31
0.0
  0
LINE
  5
52C7E
330
1F
100
AcDbEntity
  8
freecads.com
100
AcDbLine
 10
105022.2420510791
 20
95052.53075812811
 30
0.0
 11
105022.2416767533
 21
95052.53081328769
 31
0.0
  0
LINE
  5
52C7F
330
1F
100
AcDbEntity
  8
freecads.com
100
AcDbLine
 10
105022.2416767533
 20
95052.53081328769
 30
0.0
 11
105022.2263282904
 21
95052.5330749935
 31
0.0
  0
LINE
  5
52C80
330
1F
100
AcDbEntity
  8
freecads.com
100
AcDbLine
 10
105022.2263282904
 20
95052.5330749935
 30
0.0
 11
105022.2177015236
 21
95052.5343462093
 31
0.0
  0
LINE
  5
52C81
330
1F
100
AcDbEntity
  8
freecads.com
100
AcDbLine
 10
105022.2177015236
 20
95052.5343462093
 30
0.0
 11
105022.216754526
 21
95052.53447742189
 31
0.0
  0
LINE
  5
52C82
330
1F
100
AcDbEntity
  8
freecads.com
100
AcDbLine
 10
105022.216754526
 20
95052.53447742189
 30
0.0
 11
105022.201398122
 21
95052.53660515059
 31
0.0
  0
LINE
  5
52C83
330
1F
100
AcDbEntity
  8
freecads.com
100
AcDbLine
 10
105022.201398122
 20
95052.53660515059
 30
0.0
 11
105022.1933431855
 21
95052.53772121392
 31
0.0
  0
LINE
  5
52C84
330
1F
100
AcDbEntity
  8
freecads.com
100
AcDbLine
 10
105022.1933431855
 20
95052.53772121392
 30
0.0
 11
105022.1918246086
 21
95052.53791825754
 31
0.0
  0
LINE
  5
52C85
330
1F
100
AcDbEntity
  8
freecads.com
100
AcDbLine
 10
105022.1918246086
 20
95052.53791825754
 30
0.0
 11
105022.1764589761
 21
95052.53991203197
 31
0.0
  0
LINE
  5
52C86
330
1F
100
AcDbEntity
  8
freecads.com
100
AcDbLine
 10
105022.1764589761
 20
95052.53991203197
 30
0.0
 11
105022.1689761244
 21
95052.5408829727
 31
0.0
  0
LINE
  5
52C87
330
1F
100
AcDbEntity
  8
freecads.com
100
AcDbLine
 10
105022.1689761244
 20
95052.5408829727
 30
0.0
 11
105022.1668854006
 21
95052.54113588174
 31
0.0
  0
LINE
  5
52C88
330
1F
100
AcDbEntity
  8
freecads.com
100
AcDbLine
 10
105022.1668854006
 20
95052.54113588174
 30
0.0
 11
105022.1515108667
 21
95052.54299569633
 31
0.0
  0
LINE
  5
52C89
330
1F
100
AcDbEntity
  8
freecads.com
100
AcDbLine
 10
105022.1515108667
 20
95052.54299569633
 30
0.0
 11
105022.1446010769
 21
95052.5438315544
 31
0.0
  0
LINE
  5
52C8A
330
1F
100
AcDbEntity
  8
freecads.com
100
AcDbLine
 10
105022.1446010769
 20
95052.5438315544
 30
0.0
 11
105022.1419362411
 21
95052.54413049057
 31
0.0
  0
LINE
  5
52C8B
330
1F
100
AcDbEntity
  8
freecads.com
100
AcDbLine
 10
105022.1419362411
 20
95052.54413049057
 30
0.0
 11
105022.1265541229
 21
95052.54585602711
 31
0.0
  0
LINE
  5
52C8C
330
1F
100
AcDbEntity
  8
freecads.com
100
AcDbLine
 10
105022.1265541229
 20
95052.54585602711
 30
0.0
 11
105022.1202181026
 21
95052.54656678973
 31
0.0
  0
LINE
  5
52C8D
330
1F
100
AcDbEntity
  8
freecads.com
100
AcDbLine
 10
105022.1202181026
 20
95052.54656678973
 30
0.0
 11
105022.116977915
 21
95052.54690174282
 31
0.0
  0
LINE
  5
52C8E
330
1F
100
AcDbEntity
  8
freecads.com
100
AcDbLine
 10
105022.116977915
 20
95052.54690174282
 30
0.0
 11
105022.1015893914
 21
95052.54849252525
 31
0.0
  0
LINE
  5
52C8F
330
1F
100
AcDbEntity
  8
freecads.com
100
AcDbLine
 10
105022.1015893914
 20
95052.54849252525
 30
0.0
 11
105022.09582738
 21
95052.54908817086
 31
0.0
  0
LINE
  5
52C90
330
1F
100
AcDbEntity
  8
freecads.com
100
AcDbLine
 10
105022.09582738
 20
95052.54908817086
 30
0.0
 11
105022.0920128969
 21
95052.5494489065
 31
0.0
  0
LINE
  5
52C91
330
1F
100
AcDbEntity
  8
freecads.com
100
AcDbLine
 10
105022.0920128969
 20
95052.5494489065
 30
0.0
 11
105022.0766163253
 21
95052.55090496019
 31
0.0
  0
LINE
  5
52C92
330
1F
100
AcDbEntity
  8
freecads.com
100
AcDbLine
 10
105022.0766163253
 20
95052.55090496019
 30
0.0
 11
105022.0714289685
 21
95052.55139552847
 31
0.0
  0
LINE
  5
52C93
330
1F
100
AcDbEntity
  8
freecads.com
100
AcDbLine
 10
105022.0714289685
 20
95052.55139552847
 30
0.0
 11
105022.0670385931
 21
95052.55177203602
 31
0.0
  0
LINE
  5
52C94
330
1F
100
AcDbEntity
  8
freecads.com
100
AcDbLine
 10
105022.0670385931
 20
95052.55177203602
 30
0.0
 11
105022.0516358709
 21
95052.55309293472
 31
0.0
  0
LINE
  5
52C95
330
1F
100
AcDbEntity
  8
freecads.com
100
AcDbLine
 10
105022.0516358709
 20
95052.55309293472
 30
0.0
 11
105022.0470229874
 21
95052.55348852402
 31
0.0
  0
LINE
  5
52C96
330
1F
100
AcDbEntity
  8
freecads.com
100
AcDbLine
 10
105022.0470229874
 20
95052.55348852402
 30
0.0
 11
105022.0420579915
 21
95052.55387070066
 31
0.0
  0
LINE
  5
52C97
330
1F
100
AcDbEntity
  8
freecads.com
100
AcDbLine
 10
105022.0420579915
 20
95052.55387070066
 30
0.0
 11
105022.0266481381
 21
95052.55505686196
 31
0.0
  0
LINE
  5
52C98
330
1F
100
AcDbEntity
  8
freecads.com
100
AcDbLine
 10
105022.0266481381
 20
95052.55505686196
 30
0.0
 11
105022.0226107906
 21
95052.5553676336
 31
0.0
  0
LINE
  5
52C99
330
1F
100
AcDbEntity
  8
freecads.com
100
AcDbLine
 10
105022.0226107906
 20
95052.5553676336
 30
0.0
 11
105022.0170696132
 21
95052.55574540399
 31
0.0
  0
LINE
  5
52C9A
330
1F
100
AcDbEntity
  8
freecads.com
100
AcDbLine
 10
105022.0170696132
 20
95052.55574540399
 30
0.0
 11
105022.0016536278
 21
95052.55679639047
 31
0.0
  0
LINE
  5
52C9B
330
1F
100
AcDbEntity
  8
freecads.com
100
AcDbLine
 10
105022.0016536278
 20
95052.55679639047
 30
0.0
 11
105021.998192557
 21
95052.55703234936
 31
0.0
  0
LINE
  5
52C9C
330
1F
100
AcDbEntity
  8
freecads.com
100
AcDbLine
 10
105021.998192557
 20
95052.55703234936
 30
0.0
 11
105021.9920745232
 21
95052.55739555737
 31
0.0
  0
LINE
  5
52C9D
330
1F
100
AcDbEntity
  8
freecads.com
100
AcDbLine
 10
105021.9920745232
 20
95052.55739555737
 30
0.0
 11
105021.9766532931
 21
95052.55831106623
 31
0.0
  0
LINE
  5
52C9E
330
1F
100
AcDbEntity
  8
freecads.com
100
AcDbLine
 10
105021.9766532931
 20
95052.55831106623
 30
0.0
 11
105021.9737684054
 21
95052.55848233273
 31
0.0
  0
LINE
  5
52C9F
330
1F
100
AcDbEntity
  8
freecads.com
100
AcDbLine
 10
105021.9737684054
 20
95052.55848233273
 30
0.0
 11
105021.9670741665
 21
95052.55882085728
 31
0.0
  0
LINE
  5
52CA0
330
1F
100
AcDbEntity
  8
freecads.com
100
AcDbLine
 10
105021.9670741665
 20
95052.55882085728
 30
0.0
 11
105021.9516476217
 21
95052.55960097048
 31
0.0
  0
LINE
  5
52CA1
330
1F
100
AcDbEntity
  8
freecads.com
100
AcDbLine
 10
105021.9516476217
 20
95052.55960097048
 30
0.0
 11
105021.9493382764
 21
95052.559717753
 31
0.0
  0
LINE
  5
52CA2
330
1F
100
AcDbEntity
  8
freecads.com
100
AcDbLine
 10
105021.9493382764
 20
95052.559717753
 30
0.0
 11
105021.9420686885
 21
95052.5600214908
 31
0.0
  0
LINE
  5
52CA3
330
1F
100
AcDbEntity
  8
freecads.com
100
AcDbLine
 10
105021.9420686885
 20
95052.5600214908
 30
0.0
 11
105021.9266362278
 21
95052.56066628962
 31
0.0
  0
LINE
  5
52CA4
330
1F
100
AcDbEntity
  8
freecads.com
100
AcDbLine
 10
105021.9266362278
 20
95052.56066628962
 30
0.0
 11
105021.9249044394
 21
95052.56073864718
 31
0.0
  0
LINE
  5
52CA5
330
1F
100
AcDbEntity
  8
freecads.com
100
AcDbLine
 10
105021.9249044394
 20
95052.56073864718
 30
0.0
 11
105021.9176685657
 21
95052.5609790554
 31
0.0
  0
LINE
  5
52CA6
330
1F
100
AcDbEntity
  8
freecads.com
100
AcDbLine
 10
105021.9176685657
 20
95052.5609790554
 30
0.0
 11
105021.903185259
 21
95052.56146025587
 31
0.0
  0
LINE
  5
52CA7
330
1F
100
AcDbEntity
  8
freecads.com
100
AcDbLine
 10
105021.903185259
 20
95052.56146025587
 30
0.0
 11
105021.9008975575
 21
95052.56153626358
 31
0.0
  0
LINE
  5
52CA8
330
1F
100
AcDbEntity
  8
freecads.com
100
AcDbLine
 10
105021.9008975575
 20
95052.56153626358
 30
0.0
 11
105021.8954219994
 21
95052.56167004475
 31
0.0
  0
LINE
  5
52CA9
330
1F
100
AcDbEntity
  8
freecads.com
100
AcDbLine
 10
105021.8954219994
 20
95052.56167004475
 30
0.0
 11
105021.8828600503
 21
95052.56197696361
 31
0.0
  0
LINE
  5
52CAA
330
1F
100
AcDbEntity
  8
freecads.com
100
AcDbLine
 10
105021.8828600503
 20
95052.56197696361
 30
0.0
 11
105021.8777498264
 21
95052.56210181876
 31
0.0
  0
LINE
  5
52CAB
330
1F
100
AcDbEntity
  8
freecads.com
100
AcDbLine
 10
105021.8777498264
 20
95052.56210181876
 30
0.0
 11
105021.8764607104
 21
95052.56218496928
 31
0.0
  0
LINE
  5
52CAC
330
1F
100
AcDbEntity
  8
freecads.com
100
AcDbLine
 10
105021.8764607104
 20
95052.56218496928
 30
0.0
 11
105021.8678034695
 21
95052.56274337833
 31
0.0
  0
LINE
  5
52CAD
330
1F
100
AcDbEntity
  8
freecads.com
100
AcDbLine
 10
105021.8678034695
 20
95052.56274337833
 30
0.0
 11
105021.8623199286
 21
95052.56309707752
 31
0.0
  0
LINE
  5
52CAE
330
1F
100
AcDbEntity
  8
freecads.com
100
AcDbLine
 10
105021.8623199286
 20
95052.56309707752
 30
0.0
 11
105021.8602884597
 21
95052.56322811124
 31
0.0
  0
LINE
  5
52CAF
330
1F
100
AcDbEntity
  8
freecads.com
100
AcDbLine
 10
105021.8602884597
 20
95052.56322811124
 30
0.0
 11
105021.8601381095
 21
95052.56328177795
 31
0.0
  0
LINE
  5
52CB0
330
1F
100
AcDbEntity
  8
freecads.com
100
AcDbLine
 10
105021.8601381095
 20
95052.56328177795
 30
0.0
 11
105021.8590556696
 21
95052.56366814915
 31
0.0
  0
LINE
  5
52CB1
330
1F
100
AcDbEntity
  8
freecads.com
100
AcDbLine
 10
105021.8590556696
 20
95052.56366814915
 30
0.0
 11
105021.8571635649
 21
95052.56434352586
 31
0.0
  0
LINE
  5
52CB2
330
1F
100
AcDbEntity
  8
freecads.com
100
AcDbLine
 10
105021.8571635649
 20
95052.56434352586
 30
0.0
 11
105021.8542739569
 21
95052.56537495611
 31
0.0
  0
LINE
  5
52CB3
330
1F
100
AcDbEntity
  8
freecads.com
100
AcDbLine
 10
105021.8542739569
 20
95052.56537495611
 30
0.0
 11
105021.8533406113
 21
95052.56570810889
 31
0.0
  0
LINE
  5
52CB4
330
1F
100
AcDbEntity
  8
freecads.com
100
AcDbLine
 10
105021.8533406113
 20
95052.56570810889
 30
0.0
 11
105021.8531141278
 21
95052.56591844229
 31
0.0
  0
LINE
  5
52CB5
330
1F
100
AcDbEntity
  8
freecads.com
100
AcDbLine
 10
105021.8531141278
 20
95052.56591844229
 30
0.0
 11
105021.8531138744
 21
95052.56591867762
 31
0.0
  0
LINE
  5
52CB6
330
1F
100
AcDbEntity
  8
freecads.com
100
AcDbLine
 10
105023.1626843416
 20
95051.79276742461
 30
0.0
 11
105023.134017777
 21
95051.70081864502
 31
0.0
  0
LINE
  5
52CB7
330
1F
100
AcDbEntity
  8
freecads.com
100
AcDbLine
 10
105023.134017777
 20
95051.70081864502
 30
0.0
 11
105023.1338964746
 21
95051.70045741399
 31
0.0
  0
LINE
  5
52CB8
330
1F
100
AcDbEntity
  8
freecads.com
100
AcDbLine
 10
105023.1338964746
 20
95051.70045741399
 30
0.0
 11
105023.1338943516
 21
95051.70043718521
 31
0.0
  0
LINE
  5
52CB9
330
1F
100
AcDbEntity
  8
freecads.com
100
AcDbLine
 10
105023.1338943516
 20
95051.70043718521
 30
0.0
 11
105023.1337986791
 21
95051.70012595289
 31
0.0
  0
LINE
  5
52CBA
330
1F
100
AcDbEntity
  8
freecads.com
100
AcDbLine
 10
105023.1337986791
 20
95051.70012595289
 30
0.0
 11
105023.1336651081
 21
95051.69976841941
 31
0.0
  0
LINE
  5
52CBB
330
1F
100
AcDbEntity
  8
freecads.com
100
AcDbLine
 10
105023.1336651081
 20
95051.69976841941
 30
0.0
 11
105023.1335098537
 21
95051.69921710788
 31
0.0
  0
LINE
  5
52CBC
330
1F
100
AcDbEntity
  8
freecads.com
100
AcDbLine
 10
105023.1335098537
 20
95051.69921710788
 30
0.0
 11
105023.1334579733
 21
95051.69908024537
 31
0.0
  0
LINE
  5
52CBD
330
1F
100
AcDbEntity
  8
freecads.com
100
AcDbLine
 10
105023.1334579733
 20
95051.69908024537
 30
0.0
 11
105023.1332028738
 21
95051.69829744732
 31
0.0
  0
LINE
  5
52CBE
330
1F
100
AcDbEntity
  8
freecads.com
100
AcDbLine
 10
105023.1332028738
 20
95051.69829744732
 30
0.0
 11
105023.1331175486
 21
95051.69797775948
 31
0.0
  0
LINE
  5
52CBF
330
1F
100
AcDbEntity
  8
freecads.com
100
AcDbLine
 10
105023.1331175486
 20
95051.69797775948
 30
0.0
 11
105023.1330838691
 21
95051.69793099307
 31
0.0
  0
LINE
  5
52CC0
330
1F
100
AcDbEntity
  8
freecads.com
100
AcDbLine
 10
105023.1330838691
 20
95051.69793099307
 30
0.0
 11
105023.1330759584
 21
95051.69790654068
 31
0.0
  0
LINE
  5
52CC1
330
1F
100
AcDbEntity
  8
freecads.com
100
AcDbLine
 10
105023.1330759584
 20
95051.69790654068
 30
0.0
 11
105023.1330582904
 21
95051.6978522279
 31
0.0
  0
LINE
  5
52CC2
330
1F
100
AcDbEntity
  8
freecads.com
100
AcDbLine
 10
105023.1330582904
 20
95051.6978522279
 30
0.0
 11
105023.1330484005
 21
95051.69782166072
 31
0.0
  0
LINE
  5
52CC3
330
1F
100
AcDbEntity
  8
freecads.com
100
AcDbLine
 10
105023.1330484005
 20
95051.69782166072
 30
0.0
 11
105023.1330357341
 21
95051.69778276965
 31
0.0
  0
LINE
  5
52CC4
330
1F
100
AcDbEntity
  8
freecads.com
100
AcDbLine
 10
105023.1330357341
 20
95051.69778276965
 30
0.0
 11
105023.1330185098
 21
95051.69772896346
 31
0.0
  0
LINE
  5
52CC5
330
1F
100
AcDbEntity
  8
freecads.com
100
AcDbLine
 10
105023.1330185098
 20
95051.69772896346
 30
0.0
 11
105023.1329776683
 21
95051.69760326575
 31
0.0
  0
LINE
  5
52CC6
330
1F
100
AcDbEntity
  8
freecads.com
100
AcDbLine
 10
105023.1329776683
 20
95051.69760326575
 30
0.0
 11
105023.1329680488
 21
95051.69757434471
 31
0.0
  0
LINE
  5
52CC7
330
1F
100
AcDbEntity
  8
freecads.com
100
AcDbLine
 10
105023.1329680488
 20
95051.69757434471
 30
0.0
 11
105023.1329012204
 21
95051.69736780407
 31
0.0
  0
LINE
  5
52CC8
330
1F
100
AcDbEntity
  8
freecads.com
100
AcDbLine
 10
105023.1329012204
 20
95051.69736780407
 30
0.0
 11
105023.1328862226
 21
95051.69732182359
 31
0.0
  0
LINE
  5
52CC9
330
1F
100
AcDbEntity
  8
freecads.com
100
AcDbLine
 10
105023.1328862226
 20
95051.69732182359
 30
0.0
 11
105023.1328710377
 21
95051.69727486483
 31
0.0
  0
LINE
  5
52CCA
330
1F
100
AcDbEntity
  8
freecads.com
100
AcDbLine
 10
105023.1328710377
 20
95051.69727486483
 30
0.0
 11
105023.1327999969
 21
95051.69705390761
 31
0.0
  0
LINE
  5
52CCB
330
1F
100
AcDbEntity
  8
freecads.com
100
AcDbLine
 10
105023.1327999969
 20
95051.69705390761
 30
0.0
 11
105023.1327896233
 21
95051.69702309462
 31
0.0
  0
LINE
  5
52CCC
330
1F
100
AcDbEntity
  8
freecads.com
100
AcDbLine
 10
105023.1327896233
 20
95051.69702309462
 30
0.0
 11
105023.1327105292
 21
95051.69677845202
 31
0.0
  0
LINE
  5
52CCD
330
1F
100
AcDbEntity
  8
freecads.com
100
AcDbLine
 10
105023.1327105292
 20
95051.69677845202
 30
0.0
 11
105023.1327040756
 21
95051.69675748458
 31
0.0
  0
LINE
  5
52CCE
330
1F
100
AcDbEntity
  8
freecads.com
100
AcDbLine
 10
105023.1327040756
 20
95051.69675748458
 30
0.0
 11
105023.1326641849
 21
95051.69663458122
 31
0.0
  0
LINE
  5
52CCF
330
1F
100
AcDbEntity
  8
freecads.com
100
AcDbLine
 10
105023.1326641849
 20
95051.69663458122
 30
0.0
 11
105023.1326585032
 21
95051.69656108009
 31
0.0
  0
LINE
  5
52CD0
330
1F
100
AcDbEntity
  8
freecads.com
100
AcDbLine
 10
105023.1326585032
 20
95051.69656108009
 30
0.0
 11
105023.1326323134
 21
95051.69653563983
 31
0.0
  0
LINE
  5
52CD1
330
1F
100
AcDbEntity
  8
freecads.com
100
AcDbLine
 10
105023.1326323134
 20
95051.69653563983
 30
0.0
 11
105023.1325724969
 21
95051.69636168412
 31
0.0
  0
LINE
  5
52CD2
330
1F
100
AcDbEntity
  8
freecads.com
100
AcDbLine
 10
105023.1325724969
 20
95051.69636168412
 30
0.0
 11
105023.1325500745
 21
95051.69632374858
 31
0.0
  0
LINE
  5
52CD3
330
1F
100
AcDbEntity
  8
freecads.com
100
AcDbLine
 10
105023.1325500745
 20
95051.69632374858
 30
0.0
 11
105023.1324645836
 21
95051.69602347109
 31
0.0
  0
LINE
  5
52CD4
330
1F
100
AcDbEntity
  8
freecads.com
100
AcDbLine
 10
105023.1324645836
 20
95051.69602347109
 30
0.0
 11
105023.1324016809
 21
95051.69576981247
 31
0.0
  0
LINE
  5
52CD5
330
1F
100
AcDbEntity
  8
freecads.com
100
AcDbLine
 10
105023.1324016809
 20
95051.69576981247
 30
0.0
 11
105023.1323603641
 21
95051.69569850883
 31
0.0
  0
LINE
  5
52CD6
330
1F
100
AcDbEntity
  8
freecads.com
100
AcDbLine
 10
105023.1323603641
 20
95051.69569850883
 30
0.0
 11
105023.1322664057
 21
95051.69541307186
 31
0.0
  0
LINE
  5
52CD7
330
1F
100
AcDbEntity
  8
freecads.com
100
AcDbLine
 10
105023.1322664057
 20
95051.69541307186
 30
0.0
 11
105023.1322413538
 21
95051.69527369732
 31
0.0
  0
LINE
  5
52CD8
330
1F
100
AcDbEntity
  8
freecads.com
100
AcDbLine
 10
105023.1322413538
 20
95051.69527369732
 30
0.0
 11
105023.1317770798
 21
95051.69390696279
 31
0.0
  0
LINE
  5
52CD9
330
1F
100
AcDbEntity
  8
freecads.com
100
AcDbLine
 10
105023.1317770798
 20
95051.69390696279
 30
0.0
 11
105023.1317347058
 21
95051.69370592884
 31
0.0
  0
LINE
  5
52CDA
330
1F
100
AcDbEntity
  8
freecads.com
100
AcDbLine
 10
105023.1317347058
 20
95051.69370592884
 30
0.0
 11
105023.1316982586
 21
95051.69366314619
 31
0.0
  0
LINE
  5
52CDB
330
1F
100
AcDbEntity
  8
freecads.com
100
AcDbLine
 10
105023.1316982586
 20
95051.69366314619
 30
0.0
 11
105023.1314610758
 21
95051.69293388346
 31
0.0
  0
LINE
  5
52CDC
330
1F
100
AcDbEntity
  8
freecads.com
100
AcDbLine
 10
105023.1314610758
 20
95051.69293388346
 30
0.0
 11
105023.1314184768
 21
95051.69275738973
 31
0.0
  0
LINE
  5
52CDD
330
1F
100
AcDbEntity
  8
freecads.com
100
AcDbLine
 10
105023.1314184768
 20
95051.69275738973
 30
0.0
 11
105023.1313835284
 21
95051.69261924764
 31
0.0
  0
LINE
  5
52CDE
330
1F
100
AcDbEntity
  8
freecads.com
100
AcDbLine
 10
105023.1313835284
 20
95051.69261924764
 30
0.0
 11
105023.1312928019
 21
95051.69241227266
 31
0.0
  0
LINE
  5
52CDF
330
1F
100
AcDbEntity
  8
freecads.com
100
AcDbLine
 10
105023.1312928019
 20
95051.69241227266
 30
0.0
 11
105023.1312412945
 21
95051.69220262036
 31
0.0
  0
LINE
  5
52CE0
330
1F
100
AcDbEntity
  8
freecads.com
100
AcDbLine
 10
105023.1312412945
 20
95051.69220262036
 30
0.0
 11
105023.131146662
 21
95051.69196570058
 31
0.0
  0
LINE
  5
52CE1
330
1F
100
AcDbEntity
  8
freecads.com
100
AcDbLine
 10
105023.131146662
 20
95051.69196570058
 30
0.0
 11
105023.1310683956
 21
95051.69172313184
 31
0.0
  0
LINE
  5
52CE2
330
1F
100
AcDbEntity
  8
freecads.com
100
AcDbLine
 10
105023.1310683956
 20
95051.69172313184
 30
0.0
 11
105023.1310252113
 21
95051.6915901219
 31
0.0
  0
LINE
  5
52CE3
330
1F
100
AcDbEntity
  8
freecads.com
100
AcDbLine
 10
105023.1310252113
 20
95051.6915901219
 30
0.0
 11
105023.1310100337
 21
95051.69147146132
 31
0.0
  0
LINE
  5
52CE4
330
1F
100
AcDbEntity
  8
freecads.com
100
AcDbLine
 10
105023.1310100337
 20
95051.69147146132
 30
0.0
 11
105023.1309990162
 21
95051.69143748959
 31
0.0
  0
LINE
  5
52CE5
330
1F
100
AcDbEntity
  8
freecads.com
100
AcDbLine
 10
105023.1309990162
 20
95051.69143748959
 30
0.0
 11
105023.1309093214
 21
95051.69123431452
 31
0.0
  0
LINE
  5
52CE6
330
1F
100
AcDbEntity
  8
freecads.com
100
AcDbLine
 10
105023.1309093214
 20
95051.69123431452
 30
0.0
 11
105023.1308300519
 21
95051.6909902268
 31
0.0
  0
LINE
  5
52CE7
330
1F
100
AcDbEntity
  8
freecads.com
100
AcDbLine
 10
105023.1308300519
 20
95051.6909902268
 30
0.0
 11
105023.1308408694
 21
95051.69095160251
 31
0.0
  0
LINE
  5
52CE8
330
1F
100
AcDbEntity
  8
freecads.com
100
AcDbLine
 10
105023.1308408694
 20
95051.69095160251
 30
0.0
 11
105023.1308282824
 21
95051.69091275703
 31
0.0
  0
LINE
  5
52CE9
330
1F
100
AcDbEntity
  8
freecads.com
100
AcDbLine
 10
105023.1308282824
 20
95051.69091275703
 30
0.0
 11
105023.1306003826
 21
95051.69022697238
 31
0.0
  0
LINE
  5
52CEA
330
1F
100
AcDbEntity
  8
freecads.com
100
AcDbLine
 10
105023.1306003826
 20
95051.69022697238
 30
0.0
 11
105023.1305800428
 21
95051.69016983916
 31
0.0
  0
LINE
  5
52CEB
330
1F
100
AcDbEntity
  8
freecads.com
100
AcDbLine
 10
105023.1305800428
 20
95051.69016983916
 30
0.0
 11
105023.1302000145
 21
95051.68897383247
 31
0.0
  0
LINE
  5
52CEC
330
1F
100
AcDbEntity
  8
freecads.com
100
AcDbLine
 10
105023.1302000145
 20
95051.68897383247
 30
0.0
 11
105023.1301545426
 21
95051.68890841225
 31
0.0
  0
LINE
  5
52CED
330
1F
100
AcDbEntity
  8
freecads.com
100
AcDbLine
 10
105023.1301545426
 20
95051.68890841225
 30
0.0
 11
105023.1301222329
 21
95051.68881114936
 31
0.0
  0
LINE
  5
52CEE
330
1F
100
AcDbEntity
  8
freecads.com
100
AcDbLine
 10
105023.1301222329
 20
95051.68881114936
 30
0.0
 11
105023.1300283877
 21
95051.68852216943
 31
0.0
  0
LINE
  5
52CEF
330
1F
100
AcDbEntity
  8
freecads.com
100
AcDbLine
 10
105023.1300283877
 20
95051.68852216943
 30
0.0
 11
105023.1299762618
 21
95051.68830646761
 31
0.0
  0
LINE
  5
52CF0
330
1F
100
AcDbEntity
  8
freecads.com
100
AcDbLine
 10
105023.1299762618
 20
95051.68830646761
 30
0.0
 11
105023.129725096
 21
95051.68754161141
 31
0.0
  0
LINE
  5
52CF1
330
1F
100
AcDbEntity
  8
freecads.com
100
AcDbLine
 10
105023.129725096
 20
95051.68754161141
 30
0.0
 11
105023.1296502341
 21
95051.68735731169
 31
0.0
  0
LINE
  5
52CF2
330
1F
100
AcDbEntity
  8
freecads.com
100
AcDbLine
 10
105023.1296502341
 20
95051.68735731169
 30
0.0
 11
105023.1291622536
 21
95051.68585506002
 31
0.0
  0
LINE
  5
52CF3
330
1F
100
AcDbEntity
  8
freecads.com
100
AcDbLine
 10
105023.1291622536
 20
95051.68585506002
 30
0.0
 11
105023.1290871534
 21
95051.68556157929
 31
0.0
  0
LINE
  5
52CF4
330
1F
100
AcDbEntity
  8
freecads.com
100
AcDbLine
 10
105023.1290871534
 20
95051.68556157929
 30
0.0
 11
105023.1290768667
 21
95051.68553064651
 31
0.0
  0
LINE
  5
52CF5
330
1F
100
AcDbEntity
  8
freecads.com
100
AcDbLine
 10
105023.1290768667
 20
95051.68553064651
 30
0.0
 11
105023.1290397008
 21
95051.68541608027
 31
0.0
  0
LINE
  5
52CF6
330
1F
100
AcDbEntity
  8
freecads.com
100
AcDbLine
 10
105023.1290397008
 20
95051.68541608027
 30
0.0
 11
105023.1290154096
 21
95051.68534178245
 31
0.0
  0
LINE
  5
52CF7
330
1F
100
AcDbEntity
  8
freecads.com
100
AcDbLine
 10
105023.1290154096
 20
95051.68534178245
 30
0.0
 11
105023.1289813649
 21
95051.68529804494
 31
0.0
  0
LINE
  5
52CF8
330
1F
100
AcDbEntity
  8
freecads.com
100
AcDbLine
 10
105023.1289813649
 20
95051.68529804494
 30
0.0
 11
105023.1289862404
 21
95051.68525214276
 31
0.0
  0
LINE
  5
52CF9
330
1F
100
AcDbEntity
  8
freecads.com
100
AcDbLine
 10
105023.1289862404
 20
95051.68525214276
 30
0.0
 11
105023.1289384433
 21
95051.68510525756
 31
0.0
  0
LINE
  5
52CFA
330
1F
100
AcDbEntity
  8
freecads.com
100
AcDbLine
 10
105023.1289384433
 20
95051.68510525756
 30
0.0
 11
105023.1285818059
 21
95051.68406872321
 31
0.0
  0
LINE
  5
52CFB
330
1F
100
AcDbEntity
  8
freecads.com
100
AcDbLine
 10
105023.1285818059
 20
95051.68406872321
 30
0.0
 11
105023.1285825121
 21
95051.68401770994
 31
0.0
  0
LINE
  5
52CFC
330
1F
100
AcDbEntity
  8
freecads.com
100
AcDbLine
 10
105023.1285825121
 20
95051.68401770994
 30
0.0
 11
105023.1283672424
 21
95051.68340815867
 31
0.0
  0
LINE
  5
52CFD
330
1F
100
AcDbEntity
  8
freecads.com
100
AcDbLine
 10
105023.1283672424
 20
95051.68340815867
 30
0.0
 11
105023.1283459947
 21
95051.68329429114
 31
0.0
  0
LINE
  5
52CFE
330
1F
100
AcDbEntity
  8
freecads.com
100
AcDbLine
 10
105023.1283459947
 20
95051.68329429114
 30
0.0
 11
105023.1282962858
 21
95051.68318821088
 31
0.0
  0
LINE
  5
52CFF
330
1F
100
AcDbEntity
  8
freecads.com
100
AcDbLine
 10
105023.1282962858
 20
95051.68318821088
 30
0.0
 11
105023.1282769289
 21
95051.68312860684
 31
0.0
  0
LINE
  5
52D00
330
1F
100
AcDbEntity
  8
freecads.com
100
AcDbLine
 10
105023.1282769289
 20
95051.68312860684
 30
0.0
 11
105023.1282423404
 21
95051.68297095528
 31
0.0
  0
LINE
  5
52D01
330
1F
100
AcDbEntity
  8
freecads.com
100
AcDbLine
 10
105023.1282423404
 20
95051.68297095528
 30
0.0
 11
105023.1281904524
 21
95051.68286377863
 31
0.0
  0
LINE
  5
52D02
330
1F
100
AcDbEntity
  8
freecads.com
100
AcDbLine
 10
105023.1281904524
 20
95051.68286377863
 30
0.0
 11
105023.1281234049
 21
95051.68260056331
 31
0.0
  0
LINE
  5
52D03
330
1F
100
AcDbEntity
  8
freecads.com
100
AcDbLine
 10
105023.1281234049
 20
95051.68260056331
 30
0.0
 11
105023.1280594584
 21
95051.68245919421
 31
0.0
  0
LINE
  5
52D04
330
1F
100
AcDbEntity
  8
freecads.com
100
AcDbLine
 10
105023.1280594584
 20
95051.68245919421
 30
0.0
 11
105023.1280411444
 21
95051.68240279935
 31
0.0
  0
LINE
  5
52D05
330
1F
100
AcDbEntity
  8
freecads.com
100
AcDbLine
 10
105023.1280411444
 20
95051.68240279935
 30
0.0
 11
105023.1280142797
 21
95051.68227969836
 31
0.0
  0
LINE
  5
52D06
330
1F
100
AcDbEntity
  8
freecads.com
100
AcDbLine
 10
105023.1280142797
 20
95051.68227969836
 30
0.0
 11
105023.1279903181
 21
95051.68224763155
 31
0.0
  0
LINE
  5
52D07
330
1F
100
AcDbEntity
  8
freecads.com
100
AcDbLine
 10
105023.1279903181
 20
95051.68224763155
 30
0.0
 11
105023.1279325982
 21
95051.68202112338
 31
0.0
  0
LINE
  5
52D08
330
1F
100
AcDbEntity
  8
freecads.com
100
AcDbLine
 10
105023.1279325982
 20
95051.68202112338
 30
0.0
 11
105023.1279127145
 21
95051.68195665145
 31
0.0
  0
LINE
  5
52D09
330
1F
100
AcDbEntity
  8
freecads.com
100
AcDbLine
 10
105023.1279127145
 20
95051.68195665145
 30
0.0
 11
105023.1275939134
 21
95051.6809780507
 31
0.0
  0
LINE
  5
52D0A
330
1F
100
AcDbEntity
  8
freecads.com
100
AcDbLine
 10
105023.1275939134
 20
95051.6809780507
 30
0.0
 11
105023.1275762061
 21
95051.68092116921
 31
0.0
  0
LINE
  5
52D0B
330
1F
100
AcDbEntity
  8
freecads.com
100
AcDbLine
 10
105023.1275762061
 20
95051.68092116921
 30
0.0
 11
105023.1273568603
 21
95051.68024798068
 31
0.0
  0
LINE
  5
52D0C
330
1F
100
AcDbEntity
  8
freecads.com
100
AcDbLine
 10
105023.1273568603
 20
95051.68024798068
 30
0.0
 11
105023.1272358827
 21
95051.6798993094
 31
0.0
  0
LINE
  5
52D0D
330
1F
100
AcDbEntity
  8
freecads.com
100
AcDbLine
 10
105023.1272358827
 20
95051.6798993094
 30
0.0
 11
105023.127175732
 21
95051.67973953932
 31
0.0
  0
LINE
  5
52D0E
330
1F
100
AcDbEntity
  8
freecads.com
100
AcDbLine
 10
105023.127175732
 20
95051.67973953932
 30
0.0
 11
105023.1271031283
 21
95051.67951602826
 31
0.0
  0
LINE
  5
52D0F
330
1F
100
AcDbEntity
  8
freecads.com
100
AcDbLine
 10
105023.1271031283
 20
95051.67951602826
 30
0.0
 11
105023.1270305434
 21
95051.679242091
 31
0.0
  0
LINE
  5
52D10
330
1F
100
AcDbEntity
  8
freecads.com
100
AcDbLine
 10
105023.1270305434
 20
95051.679242091
 30
0.0
 11
105023.1266864804
 21
95051.67818336213
 31
0.0
  0
LINE
  5
52D11
330
1F
100
AcDbEntity
  8
freecads.com
100
AcDbLine
 10
105023.1266864804
 20
95051.67818336213
 30
0.0
 11
105023.1266654201
 21
95051.67815237252
 31
0.0
  0
LINE
  5
52D12
330
1F
100
AcDbEntity
  8
freecads.com
100
AcDbLine
 10
105023.1266654201
 20
95051.67815237252
 30
0.0
 11
105023.1265807471
 21
95051.67790763051
 31
0.0
  0
LINE
  5
52D13
330
1F
100
AcDbEntity
  8
freecads.com
100
AcDbLine
 10
105023.1265807471
 20
95051.67790763051
 30
0.0
 11
105023.1265352821
 21
95051.67776766452
 31
0.0
  0
LINE
  5
52D14
330
1F
100
AcDbEntity
  8
freecads.com
100
AcDbLine
 10
105023.1265352821
 20
95051.67776766452
 30
0.0
 11
105023.1262612953
 21
95051.67691698702
 31
0.0
  0
LINE
  5
52D15
330
1F
100
AcDbEntity
  8
freecads.com
100
AcDbLine
 10
105023.1262612953
 20
95051.67691698702
 30
0.0
 11
105023.1262375424
 21
95051.6768979849
 31
0.0
  0
LINE
  5
52D16
330
1F
100
AcDbEntity
  8
freecads.com
100
AcDbLine
 10
105023.1262375424
 20
95051.6768979849
 30
0.0
 11
105023.1261267021
 21
95051.67650966395
 31
0.0
  0
LINE
  5
52D17
330
1F
100
AcDbEntity
  8
freecads.com
100
AcDbLine
 10
105023.1261267021
 20
95051.67650966395
 30
0.0
 11
105023.1260745046
 21
95051.67634895837
 31
0.0
  0
LINE
  5
52D18
330
1F
100
AcDbEntity
  8
freecads.com
100
AcDbLine
 10
105023.1260745046
 20
95051.67634895837
 30
0.0
 11
105023.1259849767
 21
95051.67607118865
 31
0.0
  0
LINE
  5
52D19
330
1F
100
AcDbEntity
  8
freecads.com
100
AcDbLine
 10
105023.1259849767
 20
95051.67607118865
 30
0.0
 11
105023.1259592598
 21
95051.67599489055
 31
0.0
  0
LINE
  5
52D1A
330
1F
100
AcDbEntity
  8
freecads.com
100
AcDbLine
 10
105023.1259592598
 20
95051.67599489055
 30
0.0
 11
105023.1258378405
 21
95051.67562028303
 31
0.0
  0
LINE
  5
52D1B
330
1F
100
AcDbEntity
  8
freecads.com
100
AcDbLine
 10
105023.1258378405
 20
95051.67562028303
 30
0.0
 11
105023.1258182353
 21
95051.6755602023
 31
0.0
  0
LINE
  5
52D1C
330
1F
100
AcDbEntity
  8
freecads.com
100
AcDbLine
 10
105023.1258182353
 20
95051.6755602023
 30
0.0
 11
105023.1257964599
 21
95051.67549287572
 31
0.0
  0
LINE
  5
52D1D
330
1F
100
AcDbEntity
  8
freecads.com
100
AcDbLine
 10
105023.1257964599
 20
95051.67549287572
 30
0.0
 11
105023.1257833776
 21
95051.6754533792
 31
0.0
  0
LINE
  5
52D1E
330
1F
100
AcDbEntity
  8
freecads.com
100
AcDbLine
 10
105023.1257833776
 20
95051.6754533792
 30
0.0
 11
105023.1257762783
 21
95051.67543103551
 31
0.0
  0
LINE
  5
52D1F
330
1F
100
AcDbEntity
  8
freecads.com
100
AcDbLine
 10
105023.1257762783
 20
95051.67543103551
 30
0.0
 11
105023.1257641876
 21
95051.67539372013
 31
0.0
  0
LINE
  5
52D20
330
1F
100
AcDbEntity
  8
freecads.com
100
AcDbLine
 10
105023.1257641876
 20
95051.67539372013
 30
0.0
 11
105023.1257570435
 21
95051.67537209654
 31
0.0
  0
LINE
  5
52D21
330
1F
100
AcDbEntity
  8
freecads.com
100
AcDbLine
 10
105023.1257570435
 20
95051.67537209654
 30
0.0
 11
105023.1257487769
 21
95051.67534637132
 31
0.0
  0
LINE
  5
52D22
330
1F
100
AcDbEntity
  8
freecads.com
100
AcDbLine
 10
105023.1257487769
 20
95051.67534637132
 30
0.0
 11
105023.1257307763
 21
95051.67529095544
 31
0.0
  0
LINE
  5
52D23
330
1F
100
AcDbEntity
  8
freecads.com
100
AcDbLine
 10
105023.1257307763
 20
95051.67529095544
 30
0.0
 11
105023.1257194427
 21
95051.67525653451
 31
0.0
  0
LINE
  5
52D24
330
1F
100
AcDbEntity
  8
freecads.com
100
AcDbLine
 10
105023.1257194427
 20
95051.67525653451
 30
0.0
 11
105023.1257102756
 21
95051.67522812133
 31
0.0
  0
LINE
  5
52D25
330
1F
100
AcDbEntity
  8
freecads.com
100
AcDbLine
 10
105023.1257102756
 20
95051.67522812133
 30
0.0
 11
105023.1257029777
 21
95051.6752056545
 31
0.0
  0
LINE
  5
52D26
330
1F
100
AcDbEntity
  8
freecads.com
100
AcDbLine
 10
105023.1257029777
 20
95051.6752056545
 30
0.0
 11
105023.1256965962
 21
95051.67518619423
 31
0.0
  0
LINE
  5
52D27
330
1F
100
AcDbEntity
  8
freecads.com
100
AcDbLine
 10
105023.1256965962
 20
95051.67518619423
 30
0.0
 11
105023.1256735655
 21
95051.67511528659
 31
0.0
  0
LINE
  5
52D28
330
1F
100
AcDbEntity
  8
freecads.com
100
AcDbLine
 10
105023.1256735655
 20
95051.67511528659
 30
0.0
 11
105023.1256421655
 21
95051.67502930593
 31
0.0
  0
LINE
  5
52D29
330
1F
100
AcDbEntity
  8
freecads.com
100
AcDbLine
 10
105023.1256421655
 20
95051.67502930593
 30
0.0
 11
105023.1255946725
 21
95051.67487223634
 31
0.0
  0
LINE
  5
52D2A
330
1F
100
AcDbEntity
  8
freecads.com
100
AcDbLine
 10
105023.1255946725
 20
95051.67487223634
 30
0.0
 11
105023.1255304722
 21
95051.67467430815
 31
0.0
  0
LINE
  5
52D2B
330
1F
100
AcDbEntity
  8
freecads.com
100
AcDbLine
 10
105023.1255304722
 20
95051.67467430815
 30
0.0
 11
105023.1255205436
 21
95051.67464646305
 31
0.0
  0
LINE
  5
52D2C
330
1F
100
AcDbEntity
  8
freecads.com
100
AcDbLine
 10
105023.1255205436
 20
95051.67464646305
 30
0.0
 11
105023.1254810889
 21
95051.67452226704
 31
0.0
  0
LINE
  5
52D2D
330
1F
100
AcDbEntity
  8
freecads.com
100
AcDbLine
 10
105023.1254810889
 20
95051.67452226704
 30
0.0
 11
105023.1254110763
 21
95051.67431108059
 31
0.0
  0
LINE
  5
52D2E
330
1F
100
AcDbEntity
  8
freecads.com
100
AcDbLine
 10
105023.1254110763
 20
95051.67431108059
 30
0.0
 11
105023.12535385
 21
95051.67413568312
 31
0.0
  0
LINE
  5
52D2F
330
1F
100
AcDbEntity
  8
freecads.com
100
AcDbLine
 10
105023.12535385
 20
95051.67413568312
 30
0.0
 11
105023.1252731357
 21
95051.6738856969
 31
0.0
  0
LINE
  5
52D30
330
1F
100
AcDbEntity
  8
freecads.com
100
AcDbLine
 10
105023.1252731357
 20
95051.6738856969
 30
0.0
 11
105023.1246617772
 21
95051.6720142536
 31
0.0
  0
LINE
  5
52D31
330
1F
100
AcDbEntity
  8
freecads.com
100
AcDbLine
 10
105023.1246617772
 20
95051.6720142536
 30
0.0
 11
105023.124644076
 21
95051.67190823891
 31
0.0
  0
LINE
  5
52D32
330
1F
100
AcDbEntity
  8
freecads.com
100
AcDbLine
 10
105023.124644076
 20
95051.67190823891
 30
0.0
 11
105023.1246000344
 21
95051.67182525147
 31
0.0
  0
LINE
  5
52D33
330
1F
100
AcDbEntity
  8
freecads.com
100
AcDbLine
 10
105023.1246000344
 20
95051.67182525147
 30
0.0
 11
105023.1245836905
 21
95051.671772882
 31
0.0
  0
LINE
  5
52D34
330
1F
100
AcDbEntity
  8
freecads.com
100
AcDbLine
 10
105023.1245836905
 20
95051.671772882
 30
0.0
 11
105023.1244939868
 21
95051.67150021735
 31
0.0
  0
LINE
  5
52D35
330
1F
100
AcDbEntity
  8
freecads.com
100
AcDbLine
 10
105023.1244939868
 20
95051.67150021735
 30
0.0
 11
105023.1243373986
 21
95051.67102129108
 31
0.0
  0
LINE
  5
52D36
330
1F
100
AcDbEntity
  8
freecads.com
100
AcDbLine
 10
105023.1243373986
 20
95051.67102129108
 30
0.0
 11
105023.1243185437
 21
95051.67096433087
 31
0.0
  0
LINE
  5
52D37
330
1F
100
AcDbEntity
  8
freecads.com
100
AcDbLine
 10
105023.1243185437
 20
95051.67096433087
 30
0.0
 11
105023.1243040201
 21
95051.67091911534
 31
0.0
  0
LINE
  5
52D38
330
1F
100
AcDbEntity
  8
freecads.com
100
AcDbLine
 10
105023.1243040201
 20
95051.67091911534
 30
0.0
 11
105023.1242275634
 21
95051.67068507203
 31
0.0
  0
LINE
  5
52D39
330
1F
100
AcDbEntity
  8
freecads.com
100
AcDbLine
 10
105023.1242275634
 20
95051.67068507203
 30
0.0
 11
105023.1241452398
 21
95051.6704313139
 31
0.0
  0
LINE
  5
52D3A
330
1F
100
AcDbEntity
  8
freecads.com
100
AcDbLine
 10
105023.1241452398
 20
95051.6704313139
 30
0.0
 11
105023.1241337653
 21
95051.67039806929
 31
0.0
  0
LINE
  5
52D3B
330
1F
100
AcDbEntity
  8
freecads.com
100
AcDbLine
 10
105023.1241337653
 20
95051.67039806929
 30
0.0
 11
105023.1240930048
 21
95051.67027317154
 31
0.0
  0
LINE
  5
52D3C
330
1F
100
AcDbEntity
  8
freecads.com
100
AcDbLine
 10
105023.1240930048
 20
95051.67027317154
 30
0.0
 11
105023.1240729917
 21
95051.67021115218
 31
0.0
  0
LINE
  5
52D3D
330
1F
100
AcDbEntity
  8
freecads.com
100
AcDbLine
 10
105023.1240729917
 20
95051.67021115218
 30
0.0
 11
105023.123260771
 21
95051.66772218384
 31
0.0
  0
LINE
  5
52D3E
330
1F
100
AcDbEntity
  8
freecads.com
100
AcDbLine
 10
105023.123260771
 20
95051.66772218384
 30
0.0
 11
105023.1232430309
 21
95051.66766869308
 31
0.0
  0
LINE
  5
52D3F
330
1F
100
AcDbEntity
  8
freecads.com
100
AcDbLine
 10
105023.1232430309
 20
95051.66766869308
 30
0.0
 11
105023.1232074475
 21
95051.66755699674
 31
0.0
  0
LINE
  5
52D40
330
1F
100
AcDbEntity
  8
freecads.com
100
AcDbLine
 10
105023.1232074475
 20
95051.66755699674
 30
0.0
 11
105023.1230124227
 21
95051.66691457839
 31
0.0
  0
LINE
  5
52D41
330
1F
100
AcDbEntity
  8
freecads.com
100
AcDbLine
 10
105023.1230124227
 20
95051.66691457839
 30
0.0
 11
105023.1229377558
 21
95051.66673340102
 31
0.0
  0
LINE
  5
52D42
330
1F
100
AcDbEntity
  8
freecads.com
100
AcDbLine
 10
105023.1229377558
 20
95051.66673340102
 30
0.0
 11
105023.1228675255
 21
95051.66651762154
 31
0.0
  0
LINE
  5
52D43
330
1F
100
AcDbEntity
  8
freecads.com
100
AcDbLine
 10
105023.1228675255
 20
95051.66651762154
 30
0.0
 11
105023.1227694614
 21
95051.66621457693
 31
0.0
  0
LINE
  5
52D44
330
1F
100
AcDbEntity
  8
freecads.com
100
AcDbLine
 10
105023.1227694614
 20
95051.66621457693
 30
0.0
 11
105023.1226948449
 21
95051.66598843421
 31
0.0
  0
LINE
  5
52D45
330
1F
100
AcDbEntity
  8
freecads.com
100
AcDbLine
 10
105023.1226948449
 20
95051.66598843421
 30
0.0
 11
105023.1224840213
 21
95051.66534326392
 31
0.0
  0
LINE
  5
52D46
330
1F
100
AcDbEntity
  8
freecads.com
100
AcDbLine
 10
105023.1224840213
 20
95051.66534326392
 30
0.0
 11
105023.1224666595
 21
95051.66528937408
 31
0.0
  0
LINE
  5
52D47
330
1F
100
AcDbEntity
  8
freecads.com
100
AcDbLine
 10
105023.1224666595
 20
95051.66528937408
 30
0.0
 11
105023.1218705146
 21
95051.66346304712
 31
0.0
  0
LINE
  5
52D48
330
1F
100
AcDbEntity
  8
freecads.com
100
AcDbLine
 10
105023.1218705146
 20
95051.66346304712
 30
0.0
 11
105023.1217516188
 21
95051.66306700051
 31
0.0
  0
LINE
  5
52D49
330
1F
100
AcDbEntity
  8
freecads.com
100
AcDbLine
 10
105023.1217516188
 20
95051.66306700051
 30
0.0
 11
105023.1216489064
 21
95051.66278278794
 31
0.0
  0
LINE
  5
52D4A
330
1F
100
AcDbEntity
  8
freecads.com
100
AcDbLine
 10
105023.1216489064
 20
95051.66278278794
 30
0.0
 11
105023.1215676233
 21
95051.66253512078
 31
0.0
  0
LINE
  5
52D4B
330
1F
100
AcDbEntity
  8
freecads.com
100
AcDbLine
 10
105023.1215676233
 20
95051.66253512078
 30
0.0
 11
105023.1209757946
 21
95051.66072010508
 31
0.0
  0
LINE
  5
52D4C
330
1F
100
AcDbEntity
  8
freecads.com
100
AcDbLine
 10
105023.1209757946
 20
95051.66072010508
 30
0.0
 11
105023.12082244
 21
95051.66023036332
 31
0.0
  0
LINE
  5
52D4D
330
1F
100
AcDbEntity
  8
freecads.com
100
AcDbLine
 10
105023.12082244
 20
95051.66023036332
 30
0.0
 11
105023.1207005421
 21
95051.6598768052
 31
0.0
  0
LINE
  5
52D4E
330
1F
100
AcDbEntity
  8
freecads.com
100
AcDbLine
 10
105023.1207005421
 20
95051.6598768052
 30
0.0
 11
105023.1206755416
 21
95051.65985612824
 31
0.0
  0
LINE
  5
52D4F
330
1F
100
AcDbEntity
  8
freecads.com
100
AcDbLine
 10
105023.1206755416
 20
95051.65985612824
 30
0.0
 11
105023.1206178715
 21
95051.6596247151
 31
0.0
  0
LINE
  5
52D50
330
1F
100
AcDbEntity
  8
freecads.com
100
AcDbLine
 10
105023.1206178715
 20
95051.6596247151
 30
0.0
 11
105023.1201696135
 21
95051.65825125926
 31
0.0
  0
LINE
  5
52D51
330
1F
100
AcDbEntity
  8
freecads.com
100
AcDbLine
 10
105023.1201696135
 20
95051.65825125926
 30
0.0
 11
105023.120165464
 21
95051.65822742593
 31
0.0
  0
LINE
  5
52D52
330
1F
100
AcDbEntity
  8
freecads.com
100
AcDbLine
 10
105023.120165464
 20
95051.65822742593
 30
0.0
 11
105023.1200967473
 21
95051.65802789342
 31
0.0
  0
LINE
  5
52D53
330
1F
100
AcDbEntity
  8
freecads.com
100
AcDbLine
 10
105023.1200967473
 20
95051.65802789342
 30
0.0
 11
105023.1200904506
 21
95051.65800870525
 31
0.0
  0
LINE
  5
52D54
330
1F
100
AcDbEntity
  8
freecads.com
100
AcDbLine
 10
105023.1200904506
 20
95051.65800870525
 30
0.0
 11
105023.1200836496
 21
95051.65798887514
 31
0.0
  0
LINE
  5
52D55
330
1F
100
AcDbEntity
  8
freecads.com
100
AcDbLine
 10
105023.1200836496
 20
95051.65798887514
 30
0.0
 11
105023.1200189633
 21
95051.65780203178
 31
0.0
  0
LINE
  5
52D56
330
1F
100
AcDbEntity
  8
freecads.com
100
AcDbLine
 10
105023.1200189633
 20
95051.65780203178
 30
0.0
 11
105023.1200102545
 21
95051.65777674417
 31
0.0
  0
LINE
  5
52D57
330
1F
100
AcDbEntity
  8
freecads.com
100
AcDbLine
 10
105023.1200102545
 20
95051.65777674417
 30
0.0
 11
105023.1199975772
 21
95051.65773790919
 31
0.0
  0
LINE
  5
52D58
330
1F
100
AcDbEntity
  8
freecads.com
100
AcDbLine
 10
105023.1199975772
 20
95051.65773790919
 30
0.0
 11
105023.1199069229
 21
95051.65747670018
 31
0.0
  0
LINE
  5
52D59
330
1F
100
AcDbEntity
  8
freecads.com
100
AcDbLine
 10
105023.1199069229
 20
95051.65747670018
 30
0.0
 11
105023.1199055213
 21
95051.65744036087
 31
0.0
  0
LINE
  5
52D5A
330
1F
100
AcDbEntity
  8
freecads.com
100
AcDbLine
 10
105023.1199055213
 20
95051.65744036087
 30
0.0
 11
105023.119889603
 21
95051.65742308264
 31
0.0
  0
LINE
  5
52D5B
330
1F
100
AcDbEntity
  8
freecads.com
100
AcDbLine
 10
105023.119889603
 20
95051.65742308264
 30
0.0
 11
105023.1198064702
 21
95051.65713688214
 31
0.0
  0
LINE
  5
52D5C
330
1F
100
AcDbEntity
  8
freecads.com
100
AcDbLine
 10
105023.1198064702
 20
95051.65713688214
 30
0.0
 11
105023.119723895
 21
95051.6568799688
 31
0.0
  0
LINE
  5
52D5D
330
1F
100
AcDbEntity
  8
freecads.com
100
AcDbLine
 10
105023.119723895
 20
95051.6568799688
 30
0.0
 11
105023.1196900804
 21
95051.65678179
 31
0.0
  0
LINE
  5
52D5E
330
1F
100
AcDbEntity
  8
freecads.com
100
AcDbLine
 10
105023.1196900804
 20
95051.65678179
 30
0.0
 11
105023.1196770978
 21
95051.65674041487
 31
0.0
  0
LINE
  5
52D5F
330
1F
100
AcDbEntity
  8
freecads.com
100
AcDbLine
 10
105023.1196770978
 20
95051.65674041487
 30
0.0
 11
105023.1196016198
 21
95051.65652494961
 31
0.0
  0
LINE
  5
52D60
330
1F
100
AcDbEntity
  8
freecads.com
100
AcDbLine
 10
105023.1196016198
 20
95051.65652494961
 30
0.0
 11
105023.1195953911
 21
95051.6565058689
 31
0.0
  0
LINE
  5
52D61
330
1F
100
AcDbEntity
  8
freecads.com
100
AcDbLine
 10
105023.1195953911
 20
95051.6565058689
 30
0.0
 11
105023.1195672016
 21
95051.6564250184
 31
0.0
  0
LINE
  5
52D62
330
1F
100
AcDbEntity
  8
freecads.com
100
AcDbLine
 10
105023.1195672016
 20
95051.6564250184
 30
0.0
 11
105023.1195606196
 21
95051.65640464209
 31
0.0
  0
LINE
  5
52D63
330
1F
100
AcDbEntity
  8
freecads.com
100
AcDbLine
 10
105023.1195606196
 20
95051.65640464209
 30
0.0
 11
105023.1194386677
 21
95051.65600973528
 31
0.0
  0
LINE
  5
52D64
330
1F
100
AcDbEntity
  8
freecads.com
100
AcDbLine
 10
105023.1194386677
 20
95051.65600973528
 30
0.0
 11
105023.1194279068
 21
95051.65597844111
 31
0.0
  0
LINE
  5
52D65
330
1F
100
AcDbEntity
  8
freecads.com
100
AcDbLine
 10
105023.1194279068
 20
95051.65597844111
 30
0.0
 11
105023.1194158798
 21
95051.65594011389
 31
0.0
  0
LINE
  5
52D66
330
1F
100
AcDbEntity
  8
freecads.com
100
AcDbLine
 10
105023.1194158798
 20
95051.65594011389
 30
0.0
 11
105023.1194095822
 21
95051.65592087337
 31
0.0
  0
LINE
  5
52D67
330
1F
100
AcDbEntity
  8
freecads.com
100
AcDbLine
 10
105023.1194095822
 20
95051.65592087337
 30
0.0
 11
105023.1193971237
 21
95051.65589850479
 31
0.0
  0
LINE
  5
52D68
330
1F
100
AcDbEntity
  8
freecads.com
100
AcDbLine
 10
105023.1193971237
 20
95051.65589850479
 30
0.0
 11
105023.1193503578
 21
95051.65575337075
 31
0.0
  0
LINE
  5
52D69
330
1F
100
AcDbEntity
  8
freecads.com
100
AcDbLine
 10
105023.1193503578
 20
95051.65575337075
 30
0.0
 11
105023.1193131147
 21
95051.65562614658
 31
0.0
  0
LINE
  5
52D6A
330
1F
100
AcDbEntity
  8
freecads.com
100
AcDbLine
 10
105023.1193131147
 20
95051.65562614658
 30
0.0
 11
105023.1192519522
 21
95051.65543928347
 31
0.0
  0
LINE
  5
52D6B
330
1F
100
AcDbEntity
  8
freecads.com
100
AcDbLine
 10
105023.1192519522
 20
95051.65543928347
 30
0.0
 11
105023.119208683
 21
95051.65531369549
 31
0.0
  0
LINE
  5
52D6C
330
1F
100
AcDbEntity
  8
freecads.com
100
AcDbLine
 10
105023.119208683
 20
95051.65531369549
 30
0.0
 11
105023.1191390907
 21
95051.6550937526
 31
0.0
  0
LINE
  5
52D6D
330
1F
100
AcDbEntity
  8
freecads.com
100
AcDbLine
 10
105023.1191390907
 20
95051.6550937526
 30
0.0
 11
105023.1191194188
 21
95051.65503667186
 31
0.0
  0
LINE
  5
52D6E
330
1F
100
AcDbEntity
  8
freecads.com
100
AcDbLine
 10
105023.1191194188
 20
95051.65503667186
 30
0.0
 11
105023.1190747485
 21
95051.65489804383
 31
0.0
  0
LINE
  5
52D6F
330
1F
100
AcDbEntity
  8
freecads.com
100
AcDbLine
 10
105023.1190747485
 20
95051.65489804383
 30
0.0
 11
105023.1190362992
 21
95051.65477801053
 31
0.0
  0
LINE
  5
52D70
330
1F
100
AcDbEntity
  8
freecads.com
100
AcDbLine
 10
105023.1190362992
 20
95051.65477801053
 30
0.0
 11
105023.1189976118
 21
95051.65465865436
 31
0.0
  0
LINE
  5
52D71
330
1F
100
AcDbEntity
  8
freecads.com
100
AcDbLine
 10
105023.1189976118
 20
95051.65465865436
 30
0.0
 11
105023.1153154448
 21
95051.64414442569
 31
0.0
  0
LINE
  5
52D72
330
1F
100
AcDbEntity
  8
freecads.com
100
AcDbLine
 10
105023.1153154448
 20
95051.64414442569
 30
0.0
 11
105023.1142782954
 21
95051.64098946483
 31
0.0
  0
LINE
  5
52D73
330
1F
100
AcDbEntity
  8
freecads.com
100
AcDbLine
 10
105023.1142782954
 20
95051.64098946483
 30
0.0
 11
105023.1142252214
 21
95051.64082662901
 31
0.0
  0
LINE
  5
52D74
330
1F
100
AcDbEntity
  8
freecads.com
100
AcDbLine
 10
105023.1142252214
 20
95051.64082662901
 30
0.0
 11
105023.1141982042
 21
95051.64074333045
 31
0.0
  0
LINE
  5
52D75
330
1F
100
AcDbEntity
  8
freecads.com
100
AcDbLine
 10
105023.1141982042
 20
95051.64074333045
 30
0.0
 11
105023.114170748
 21
95051.64065911669
 31
0.0
  0
LINE
  5
52D76
330
1F
100
AcDbEntity
  8
freecads.com
100
AcDbLine
 10
105023.114170748
 20
95051.64065911669
 30
0.0
 11
105023.1120322751
 21
95051.63642538281
 31
0.0
  0
LINE
  5
52D77
330
1F
100
AcDbEntity
  8
freecads.com
100
AcDbLine
 10
105023.1120322751
 20
95051.63642538281
 30
0.0
 11
105023.1120393108
 21
95051.63638372813
 31
0.0
  0
LINE
  5
52D78
330
1F
100
AcDbEntity
  8
freecads.com
100
AcDbLine
 10
105023.1120393108
 20
95051.63638372813
 30
0.0
 11
105023.1120159704
 21
95051.63631161293
 31
0.0
  0
LINE
  5
52D79
330
1F
100
AcDbEntity
  8
freecads.com
100
AcDbLine
 10
105023.1120159704
 20
95051.63631161293
 30
0.0
 11
105023.1119827587
 21
95051.6362740689
 31
0.0
  0
LINE
  5
52D7A
330
1F
100
AcDbEntity
  8
freecads.com
100
AcDbLine
 10
105023.1119827587
 20
95051.6362740689
 30
0.0
 11
105023.1119905166
 21
95051.63623685266
 31
0.0
  0
LINE
  5
52D7B
330
1F
100
AcDbEntity
  8
freecads.com
100
AcDbLine
 10
105023.1119905166
 20
95051.63623685266
 30
0.0
 11
105023.1119586221
 21
95051.6362020542
 31
0.0
  0
LINE
  5
52D7C
330
1F
100
AcDbEntity
  8
freecads.com
100
AcDbLine
 10
105023.1119586221
 20
95051.6362020542
 30
0.0
 11
105023.1119345225
 21
95051.63612777003
 31
0.0
  0
LINE
  5
52D7D
330
1F
100
AcDbEntity
  8
freecads.com
100
AcDbLine
 10
105023.1119345225
 20
95051.63612777003
 30
0.0
 11
105023.1100908414
 21
95051.63273606687
 31
0.0
  0
LINE
  5
52D7E
330
1F
100
AcDbEntity
  8
freecads.com
100
AcDbLine
 10
105023.1100908414
 20
95051.63273606687
 30
0.0
 11
105023.1095478247
 21
95051.63174742602
 31
0.0
  0
LINE
  5
52D7F
330
1F
100
AcDbEntity
  8
freecads.com
100
AcDbLine
 10
105023.1095478247
 20
95051.63174742602
 30
0.0
 11
105023.1095159565
 21
95051.6316692695
 31
0.0
  0
LINE
  5
52D80
330
1F
100
AcDbEntity
  8
freecads.com
100
AcDbLine
 10
105023.1095159565
 20
95051.6316692695
 30
0.0
 11
105023.1094169639
 21
95051.63149637727
 31
0.0
  0
LINE
  5
52D81
330
1F
100
AcDbEntity
  8
freecads.com
100
AcDbLine
 10
105023.1094169639
 20
95051.63149637727
 30
0.0
 11
105023.1059939386
 21
95051.62695826946
 31
0.0
  0
LINE
  5
52D82
330
1F
100
AcDbEntity
  8
freecads.com
100
AcDbLine
 10
105023.1059939386
 20
95051.62695826946
 30
0.0
 11
105023.1044681589
 21
95051.62433187056
 31
0.0
  0
LINE
  5
52D83
330
1F
100
AcDbEntity
  8
freecads.com
100
AcDbLine
 10
105023.1044681589
 20
95051.62433187056
 30
0.0
 11
105023.0973277787
 21
95051.61805360508
 31
0.0
  0
LINE
  5
52D84
330
1F
100
AcDbEntity
  8
freecads.com
100
AcDbLine
 10
105023.0973277787
 20
95051.61805360508
 30
0.0
 11
105023.094694013
 21
95051.6156961831
 31
0.0
  0
LINE
  5
52D85
330
1F
100
AcDbEntity
  8
freecads.com
100
AcDbLine
 10
105023.094694013
 20
95051.6156961831
 30
0.0
 11
105023.0909357606
 21
95051.61411131263
 31
0.0
  0
LINE
  5
52D86
330
1F
100
AcDbEntity
  8
freecads.com
100
AcDbLine
 10
105023.0909357606
 20
95051.61411131263
 30
0.0
 11
105023.0753520661
 21
95051.60860459232
 31
0.0
  0
LINE
  5
52D87
330
1F
100
AcDbEntity
  8
freecads.com
100
AcDbLine
 10
105023.0753520661
 20
95051.60860459232
 30
0.0
 11
105023.0422264519
 21
95051.60776014234
 31
0.0
  0
LINE
  5
52D88
330
1F
100
AcDbEntity
  8
freecads.com
100
AcDbLine
 10
105023.0422264519
 20
95051.60776014234
 30
0.0
 11
105023.0407063549
 21
95051.60812569659
 31
0.0
  0
LINE
  5
52D89
330
1F
100
AcDbEntity
  8
freecads.com
100
AcDbLine
 10
105023.0407063549
 20
95051.60812569659
 30
0.0
 11
105023.0405933476
 21
95051.60812259308
 31
0.0
  0
LINE
  5
52D8A
330
1F
100
AcDbEntity
  8
freecads.com
100
AcDbLine
 10
105023.0405933476
 20
95051.60812259308
 30
0.0
 11
105023.0157780637
 21
95051.61328257475
 31
0.0
  0
LINE
  5
52D8B
330
1F
100
AcDbEntity
  8
freecads.com
100
AcDbLine
 10
105023.0157780637
 20
95051.61328257475
 30
0.0
 11
105023.004539294
 21
95051.61526826322
 31
0.0
  0
LINE
  5
52D8C
330
1F
100
AcDbEntity
  8
freecads.com
100
AcDbLine
 10
105023.004539294
 20
95051.61526826322
 30
0.0
 11
105022.9630384217
 21
95051.62814692164
 31
0.0
  0
LINE
  5
52D8D
330
1F
100
AcDbEntity
  8
freecads.com
100
AcDbLine
 10
105022.9630384217
 20
95051.62814692164
 30
0.0
 11
105022.9271847135
 21
95051.63962671433
 31
0.0
  0
LINE
  5
52D8E
330
1F
100
AcDbEntity
  8
freecads.com
100
AcDbLine
 10
105022.9271847135
 20
95051.63962671433
 30
0.0
 11
105022.8978094302
 21
95051.64871521651
 31
0.0
  0
LINE
  5
52D8F
330
1F
100
AcDbEntity
  8
freecads.com
100
AcDbLine
 10
105022.8978094302
 20
95051.64871521651
 30
0.0
 11
105022.8736220022
 21
95051.6565275493
 31
0.0
  0
LINE
  5
52D90
330
1F
100
AcDbEntity
  8
freecads.com
100
AcDbLine
 10
105022.8736220022
 20
95051.6565275493
 30
0.0
 11
105022.8520079226
 21
95051.66322037545
 31
0.0
  0
LINE
  5
52D91
330
1F
100
AcDbEntity
  8
freecads.com
100
AcDbLine
 10
105022.8520079226
 20
95051.66322037545
 30
0.0
 11
105022.8302618668
 21
95051.66985577229
 31
0.0
  0
LINE
  5
52D92
330
1F
100
AcDbEntity
  8
freecads.com
100
AcDbLine
 10
105022.8302618668
 20
95051.66985577229
 30
0.0
 11
105022.8082945141
 21
95051.6766142295
 31
0.0
  0
LINE
  5
52D93
330
1F
100
AcDbEntity
  8
freecads.com
100
AcDbLine
 10
105022.8082945141
 20
95051.6766142295
 30
0.0
 11
105022.7858971719
 21
95051.68379937071
 31
0.0
  0
LINE
  5
52D94
330
1F
100
AcDbEntity
  8
freecads.com
100
AcDbLine
 10
105022.7858971719
 20
95051.68379937071
 30
0.0
 11
105022.7633182698
 21
95051.69114170413
 31
0.0
  0
LINE
  5
52D95
330
1F
100
AcDbEntity
  8
freecads.com
100
AcDbLine
 10
105022.7633182698
 20
95051.69114170413
 30
0.0
 11
105022.7408457069
 21
95051.69831789999
 31
0.0
  0
LINE
  5
52D96
330
1F
100
AcDbEntity
  8
freecads.com
100
AcDbLine
 10
105022.7408457069
 20
95051.69831789999
 30
0.0
 11
105022.7185225583
 21
95051.70532446134
 31
0.0
  0
LINE
  5
52D97
330
1F
100
AcDbEntity
  8
freecads.com
100
AcDbLine
 10
105022.7185225583
 20
95051.70532446134
 30
0.0
 11
105022.6964045266
 21
95051.71216309138
 31
0.0
  0
LINE
  5
52D98
330
1F
100
AcDbEntity
  8
freecads.com
100
AcDbLine
 10
105022.6964045266
 20
95051.71216309138
 30
0.0
 11
105022.6744665734
 21
95051.71883792179
 31
0.0
  0
LINE
  5
52D99
330
1F
100
AcDbEntity
  8
freecads.com
100
AcDbLine
 10
105022.6744665734
 20
95051.71883792179
 30
0.0
 11
105022.6525910513
 21
95051.72535248158
 31
0.0
  0
LINE
  5
52D9A
330
1F
100
AcDbEntity
  8
freecads.com
100
AcDbLine
 10
105022.6525910513
 20
95051.72535248158
 30
0.0
 11
105022.6307654226
 21
95051.7317099714
 31
0.0
  0
LINE
  5
52D9B
330
1F
100
AcDbEntity
  8
freecads.com
100
AcDbLine
 10
105022.6307654226
 20
95051.7317099714
 30
0.0
 11
105022.6089868596
 21
95051.73790977755
 31
0.0
  0
LINE
  5
52D9C
330
1F
100
AcDbEntity
  8
freecads.com
100
AcDbLine
 10
105022.6089868596
 20
95051.73790977755
 30
0.0
 11
105022.5872546854
 21
95051.743951662
 31
0.0
  0
LINE
  5
52D9D
330
1F
100
AcDbEntity
  8
freecads.com
100
AcDbLine
 10
105022.5872546854
 20
95051.743951662
 30
0.0
 11
105022.5655667493
 21
95051.74983524916
 31
0.0
  0
LINE
  5
52D9E
330
1F
100
AcDbEntity
  8
freecads.com
100
AcDbLine
 10
105022.5655667493
 20
95051.74983524916
 30
0.0
 11
105022.5439218162
 21
95051.75555972435
 31
0.0
  0
LINE
  5
52D9F
330
1F
100
AcDbEntity
  8
freecads.com
100
AcDbLine
 10
105022.5439218162
 20
95051.75555972435
 30
0.0
 11
105022.5223176165
 21
95051.76112505054
 31
0.0
  0
LINE
  5
52DA0
330
1F
100
AcDbEntity
  8
freecads.com
100
AcDbLine
 10
105022.5223176165
 20
95051.76112505054
 30
0.0
 11
105022.5007521189
 21
95051.76653051357
 31
0.0
  0
LINE
  5
52DA1
330
1F
100
AcDbEntity
  8
freecads.com
100
AcDbLine
 10
105022.5007521189
 20
95051.76653051357
 30
0.0
 11
105022.4792246462
 21
95051.7717758754
 31
0.0
  0
LINE
  5
52DA2
330
1F
100
AcDbEntity
  8
freecads.com
100
AcDbLine
 10
105022.4792246462
 20
95051.7717758754
 30
0.0
 11
105022.4577331076
 21
95051.77686059115
 31
0.0
  0
LINE
  5
52DA3
330
1F
100
AcDbEntity
  8
freecads.com
100
AcDbLine
 10
105022.4577331076
 20
95051.77686059115
 30
0.0
 11
105022.4362753524
 21
95051.7817842852
 31
0.0
  0
LINE
  5
52DA4
330
1F
100
AcDbEntity
  8
freecads.com
100
AcDbLine
 10
105022.4362753524
 20
95051.7817842852
 30
0.0
 11
105022.4148506441
 21
95051.78654688881
 31
0.0
  0
LINE
  5
52DA5
330
1F
100
AcDbEntity
  8
freecads.com
100
AcDbLine
 10
105022.4148506441
 20
95051.78654688881
 30
0.0
 11
105022.3934569514
 21
95051.79114768781
 31
0.0
  0
LINE
  5
52DA6
330
1F
100
AcDbEntity
  8
freecads.com
100
AcDbLine
 10
105022.3934569514
 20
95051.79114768781
 30
0.0
 11
105022.3720928602
 21
95051.79558637539
 31
0.0
  0
LINE
  5
52DA7
330
1F
100
AcDbEntity
  8
freecads.com
100
AcDbLine
 10
105022.3720928602
 20
95051.79558637539
 30
0.0
 11
105022.350756957
 21
95051.79986264469
 31
0.0
  0
LINE
  5
52DA8
330
1F
100
AcDbEntity
  8
freecads.com
100
AcDbLine
 10
105022.350756957
 20
95051.79986264469
 30
0.0
 11
105022.329448505
 21
95051.803976427
 31
0.0
  0
LINE
  5
52DA9
330
1F
100
AcDbEntity
  8
freecads.com
100
AcDbLine
 10
105022.329448505
 20
95051.803976427
 30
0.0
 11
105022.3081646766
 21
95051.80792710863
 31
0.0
  0
LINE
  5
52DAA
330
1F
100
AcDbEntity
  8
freecads.com
100
AcDbLine
 10
105022.3081646766
 20
95051.80792710863
 30
0.0
 11
105022.2869054719
 21
95051.81171468958
 31
0.0
  0
LINE
  5
52DAB
330
1F
100
AcDbEntity
  8
freecads.com
100
AcDbLine
 10
105022.2869054719
 20
95051.81171468958
 30
0.0
 11
105022.2656688593
 21
95051.8153384557
 31
0.0
  0
LINE
  5
52DAC
330
1F
100
AcDbEntity
  8
freecads.com
100
AcDbLine
 10
105022.2656688593
 20
95051.8153384557
 30
0.0
 11
105022.2444532467
 21
95051.81879860804
 31
0.0
  0
LINE
  5
52DAD
330
1F
100
AcDbEntity
  8
freecads.com
100
AcDbLine
 10
105022.2444532467
 20
95051.81879860804
 30
0.0
 11
105022.2232580758
 21
95051.82209456997
 31
0.0
  0
LINE
  5
52DAE
330
1F
100
AcDbEntity
  8
freecads.com
100
AcDbLine
 10
105022.2232580758
 20
95051.82209456997
 30
0.0
 11
105022.2020810773
 21
95051.82522630443
 31
0.0
  0
LINE
  5
52DAF
330
1F
100
AcDbEntity
  8
freecads.com
100
AcDbLine
 10
105022.2020810773
 20
95051.82522630443
 30
0.0
 11
105022.1809216334
 21
95051.8281934041
 31
0.0
  0
LINE
  5
52DB0
330
1F
100
AcDbEntity
  8
freecads.com
100
AcDbLine
 10
105022.1809216334
 20
95051.8281934041
 30
0.0
 11
105022.1597783438
 21
95051.8309957218
 31
0.0
  0
LINE
  5
52DB1
330
1F
100
AcDbEntity
  8
freecads.com
100
AcDbLine
 10
105022.1597783438
 20
95051.8309957218
 30
0.0
 11
105022.1386503126
 21
95051.83363304846
 31
0.0
  0
LINE
  5
52DB2
330
1F
100
AcDbEntity
  8
freecads.com
100
AcDbLine
 10
105022.1386503126
 20
95051.83363304846
 30
0.0
 11
105022.117535489
 21
95051.83610531805
 31
0.0
  0
LINE
  5
52DB3
330
1F
100
AcDbEntity
  8
freecads.com
100
AcDbLine
 10
105022.117535489
 20
95051.83610531805
 30
0.0
 11
105022.0964339192
 21
95051.83841220169
 31
0.0
  0
LINE
  5
52DB4
330
1F
100
AcDbEntity
  8
freecads.com
100
AcDbLine
 10
105022.0964339192
 20
95051.83841220169
 30
0.0
 11
105022.0753426566
 21
95051.84055342429
 31
0.0
  0
LINE
  5
52DB5
330
1F
100
AcDbEntity
  8
freecads.com
100
AcDbLine
 10
105022.0753426566
 20
95051.84055342429
 30
0.0
 11
105022.0542623187
 21
95051.84252939317
 31
0.0
  0
LINE
  5
52DB6
330
1F
100
AcDbEntity
  8
freecads.com
100
AcDbLine
 10
105022.0542623187
 20
95051.84252939317
 30
0.0
 11
105022.0331908148
 21
95051.84433956348
 31
0.0
  0
LINE
  5
52DB7
330
1F
100
AcDbEntity
  8
freecads.com
100
AcDbLine
 10
105022.0331908148
 20
95051.84433956348
 30
0.0
 11
105022.0121274675
 21
95051.84598369716
 31
0.0
  0
LINE
  5
52DB8
330
1F
100
AcDbEntity
  8
freecads.com
100
AcDbLine
 10
105022.0121274675
 20
95051.84598369716
 30
0.0
 11
105021.9910706847
 21
95051.84746199523
 31
0.0
  0
LINE
  5
52DB9
330
1F
100
AcDbEntity
  8
freecads.com
100
AcDbLine
 10
105021.9910706847
 20
95051.84746199523
 30
0.0
 11
105021.970019789
 21
95051.84877421967
 31
0.0
  0
LINE
  5
52DBA
330
1F
100
AcDbEntity
  8
freecads.com
100
AcDbLine
 10
105021.970019789
 20
95051.84877421967
 30
0.0
 11
105021.9489733073
 21
95051.84992023291
 31
0.0
  0
LINE
  5
52DBB
330
1F
100
AcDbEntity
  8
freecads.com
100
AcDbLine
 10
105021.9489733073
 20
95051.84992023291
 30
0.0
 11
105021.9279304434
 21
95051.85090013545
 31
0.0
  0
LINE
  5
52DBC
330
1F
100
AcDbEntity
  8
freecads.com
100
AcDbLine
 10
105021.9279304434
 20
95051.85090013545
 30
0.0
 11
105021.9068904606
 21
95051.85171385857
 31
0.0
  0
LINE
  5
52DBD
330
1F
100
AcDbEntity
  8
freecads.com
100
AcDbLine
 10
105021.9068904606
 20
95051.85171385857
 30
0.0
 11
105021.8874160025
 21
95051.85233139
 31
0.0
  0
LINE
  5
52DBE
330
1F
100
AcDbEntity
  8
freecads.com
100
AcDbLine
 10
105021.8874160025
 20
95051.85233139
 30
0.0
 11
105021.8710716251
 21
95051.85272377026
 31
0.0
  0
LINE
  5
52DBF
330
1F
100
AcDbEntity
  8
freecads.com
100
AcDbLine
 10
105021.8710716251
 20
95051.85272377026
 30
0.0
 11
105021.8589845458
 21
95051.85396537088
 31
0.0
  0
LINE
  5
52DC0
330
1F
100
AcDbEntity
  8
freecads.com
100
AcDbLine
 10
105021.8589845458
 20
95051.85396537088
 30
0.0
 11
105021.8522824805
 21
95051.85713130929
 31
0.0
  0
LINE
  5
52DC1
330
1F
100
AcDbEntity
  8
freecads.com
100
AcDbLine
 10
105021.8522824805
 20
95051.85713130929
 30
0.0
 11
105021.8487562288
 21
95051.8631341559
 31
0.0
  0
LINE
  5
52DC2
330
1F
100
AcDbEntity
  8
freecads.com
100
AcDbLine
 10
105021.8487562288
 20
95051.8631341559
 30
0.0
 11
105021.846197213
 21
95051.87285873956
 31
0.0
  0
LINE
  5
52DC3
330
1F
100
AcDbEntity
  8
freecads.com
100
AcDbLine
 10
105021.846197213
 20
95051.87285873956
 30
0.0
 11
105021.8461957345
 21
95051.8728867509
 31
0.0
  0
LINE
  5
52DC4
330
1F
100
AcDbEntity
  8
freecads.com
100
AcDbLine
 10
105021.8461957345
 20
95051.8728867509
 30
0.0
 11
105021.8446412169
 21
95051.88188143273
 31
0.0
  0
LINE
  5
52DC5
330
1F
100
AcDbEntity
  8
freecads.com
100
AcDbLine
 10
105021.8446412169
 20
95051.88188143273
 30
0.0
 11
105021.8446412052
 21
95051.88192042114
 31
0.0
  0
LINE
  5
52DC6
330
1F
100
AcDbEntity
  8
freecads.com
100
AcDbLine
 10
105021.8446412052
 20
95051.88192042114
 30
0.0
 11
105021.8441317586
 21
95051.88572198209
 31
0.0
  0
LINE
  5
52DC7
330
1F
100
AcDbEntity
  8
freecads.com
100
AcDbLine
 10
105021.8441317586
 20
95051.88572198209
 30
0.0
 11
105021.8441323499
 21
95051.88576574751
 31
0.0
  0
LINE
  5
52DC8
330
1F
100
AcDbEntity
  8
freecads.com
100
AcDbLine
 10
105021.8441323499
 20
95051.88576574751
 30
0.0
 11
105021.8447523721
 21
95051.94213162026
 31
0.0
  0
LINE
  5
52DC9
330
1F
100
AcDbEntity
  8
freecads.com
100
AcDbLine
 10
105021.8447523721
 20
95051.94213162026
 30
0.0
 11
105021.8449920418
 21
95051.96390960497
 31
0.0
  0
LINE
  5
52DCA
330
1F
100
AcDbEntity
  8
freecads.com
100
AcDbLine
 10
105021.8449920418
 20
95051.96390960497
 30
0.0
 11
105021.8452706577
 21
95051.98920395116
 31
0.0
  0
LINE
  5
52DCB
330
1F
100
AcDbEntity
  8
freecads.com
100
AcDbLine
 10
105021.8452706577
 20
95051.98920395116
 30
0.0
 11
105021.8455680238
 21
95052.01624338498
 31
0.0
  0
LINE
  5
52DCC
330
1F
100
AcDbEntity
  8
freecads.com
100
AcDbLine
 10
105021.8455680238
 20
95052.01624338498
 30
0.0
 11
105021.8458652986
 21
95052.04325710868
 31
0.0
  0
LINE
  5
52DCD
330
1F
100
AcDbEntity
  8
freecads.com
100
AcDbLine
 10
105021.8458652986
 20
95052.04325710868
 30
0.0
 11
105021.8516276326
 21
95052.56729543006
 31
0.0
  0
LINE
  5
52DCE
330
1F
100
AcDbEntity
  8
freecads.com
100
AcDbLine
 10
105021.8516276326
 20
95052.56729543006
 30
0.0
 11
105021.8516540676
 21
95052.56931516129
 31
0.0
  0
LINE
  5
52DCF
330
1F
100
AcDbEntity
  8
freecads.com
100
AcDbLine
 10
105021.8516540676
 20
95052.56931516129
 30
0.0
 11
105021.8516610026
 21
95052.5699517494
 31
0.0
  0
LINE
  5
52DD0
330
1F
100
AcDbEntity
  8
freecads.com
100
AcDbLine
 10
105021.8516610026
 20
95052.5699517494
 30
0.0
 11
105021.8516974713
 21
95052.57329928825
 31
0.0
  0
LINE
  5
52DD1
330
1F
100
AcDbEntity
  8
freecads.com
100
AcDbLine
 10
105021.8516974713
 20
95052.57329928825
 30
0.0
 11
105021.851760772
 21
95052.57903822613
 31
0.0
  0
LINE
  5
52DD2
330
1F
100
AcDbEntity
  8
freecads.com
100
AcDbLine
 10
105021.851760772
 20
95052.57903822613
 30
0.0
 11
105021.8518031251
 21
95052.58287234498
 31
0.0
  0
LINE
  5
52DD3
330
1F
100
AcDbEntity
  8
freecads.com
100
AcDbLine
 10
105021.8518031251
 20
95052.58287234498
 30
0.0
 11
105021.8518411994
 21
95052.58631910995
 31
0.0
  0
LINE
  5
52DD4
330
1F
100
AcDbEntity
  8
freecads.com
100
AcDbLine
 10
105021.8518411994
 20
95052.58631910995
 30
0.0
 11
105021.8519359237
 21
95052.59492924404
 31
0.0
  0
LINE
  5
52DD5
330
1F
100
AcDbEntity
  8
freecads.com
100
AcDbLine
 10
105021.8519359237
 20
95052.59492924404
 30
0.0
 11
105021.8520443797
 21
95052.60478150489
 31
0.0
  0
LINE
  5
52DD6
330
1F
100
AcDbEntity
  8
freecads.com
100
AcDbLine
 10
105021.8520443797
 20
95052.60478150489
 30
0.0
 11
105021.8521653253
 21
95052.61578853104
 31
0.0
  0
LINE
  5
52DD7
330
1F
100
AcDbEntity
  8
freecads.com
100
AcDbLine
 10
105021.8521653253
 20
95052.61578853104
 30
0.0
 11
105021.852297829
 21
95052.6278404355
 31
0.0
  0
LINE
  5
52DD8
330
1F
100
AcDbEntity
  8
freecads.com
100
AcDbLine
 10
105021.852297829
 20
95052.6278404355
 30
0.0
 11
105021.8524407211
 21
95052.64082800847
 31
0.0
  0
LINE
  5
52DD9
330
1F
100
AcDbEntity
  8
freecads.com
100
AcDbLine
 10
105021.8524407211
 20
95052.64082800847
 30
0.0
 11
105021.8525965882
 21
95052.65499277166
 31
0.0
  0
LINE
  5
52DDA
330
1F
100
AcDbEntity
  8
freecads.com
100
AcDbLine
 10
105021.8525965882
 20
95052.65499277166
 30
0.0
 11
105021.8527678384
 21
95052.67057675466
 31
0.0
  0
LINE
  5
52DDB
330
1F
100
AcDbEntity
  8
freecads.com
100
AcDbLine
 10
105021.8527678384
 20
95052.67057675466
 30
0.0
 11
105021.852958942
 21
95052.68792865754
 31
0.0
  0
LINE
  5
52DDC
330
1F
100
AcDbEntity
  8
freecads.com
100
AcDbLine
 10
105021.852958942
 20
95052.68792865754
 30
0.0
 11
105021.853173454
 21
95052.70739761954
 31
0.0
  0
LINE
  5
52DDD
330
1F
100
AcDbEntity
  8
freecads.com
100
AcDbLine
 10
105021.853173454
 20
95052.70739761954
 30
0.0
 11
105021.8534008895
 21
95052.72805041089
 31
0.0
  0
LINE
  5
52DDE
330
1F
100
AcDbEntity
  8
freecads.com
100
AcDbLine
 10
105021.8534008895
 20
95052.72805041089
 30
0.0
 11
105021.8536308231
 21
95052.74895363257
 31
0.0
  0
LINE
  5
52DDF
330
1F
100
AcDbEntity
  8
freecads.com
100
AcDbLine
 10
105021.8536308231
 20
95052.74895363257
 30
0.0
 11
105021.853850175
 21
95052.76892606326
 31
0.0
  0
LINE
  5
52DE0
330
1F
100
AcDbEntity
  8
freecads.com
100
AcDbLine
 10
105021.853850175
 20
95052.76892606326
 30
0.0
 11
105021.8539730428
 21
95052.78005530769
 31
0.0
  0
LINE
  5
52DE1
330
1F
100
AcDbEntity
  8
freecads.com
100
AcDbLine
 10
105021.8539730428
 20
95052.78005530769
 30
0.0
 11
105021.8541207257
 21
95052.79349022089
 31
0.0
  0
LINE
  5
52DE2
330
1F
100
AcDbEntity
  8
freecads.com
100
AcDbLine
 10
105021.8541207257
 20
95052.79349022089
 30
0.0
 11
105021.8542081719
 21
95052.80144367299
 31
0.0
  0
LINE
  5
52DE3
330
1F
100
AcDbEntity
  8
freecads.com
100
AcDbLine
 10
105021.8542081719
 20
95052.80144367299
 30
0.0
 11
105021.8545189723
 21
95052.82972608004
 31
0.0
  0
LINE
  5
52DE4
330
1F
100
AcDbEntity
  8
freecads.com
100
AcDbLine
 10
105021.8545189723
 20
95052.82972608004
 30
0.0
 11
105021.8562586955
 21
95052.83091288056
 31
0.0
  0
LINE
  5
52DE5
330
1F
100
AcDbEntity
  8
freecads.com
100
AcDbLine
 10
105021.8562586955
 20
95052.83091288056
 30
0.0
 11
105021.8637838076
 21
95052.83258434035
 31
0.0
  0
LINE
  5
52DE6
330
1F
100
AcDbEntity
  8
freecads.com
100
AcDbLine
 10
105021.8637838076
 20
95052.83258434035
 30
0.0
 11
105021.8828531179
 21
95052.83281193296
 31
0.0
  0
LINE
  5
52DE7
330
1F
100
AcDbEntity
  8
freecads.com
100
AcDbLine
 10
105021.8828531179
 20
95052.83281193296
 30
0.0
 11
105021.9081232536
 21
95052.83219099167
 31
0.0
  0
LINE
  5
52DE8
330
1F
100
AcDbEntity
  8
freecads.com
100
AcDbLine
 10
105021.9081232536
 20
95052.83219099167
 30
0.0
 11
105021.9342493687
 21
95052.83131671218
 31
0.0
  0
LINE
  5
52DE9
330
1F
100
AcDbEntity
  8
freecads.com
100
AcDbLine
 10
105021.9342493687
 20
95052.83131671218
 30
0.0
 11
105021.9607985307
 21
95052.8301978092
 31
0.0
  0
LINE
  5
52DEA
330
1F
100
AcDbEntity
  8
freecads.com
100
AcDbLine
 10
105021.9607985307
 20
95052.8301978092
 30
0.0
 11
105021.9873363932
 21
95052.82884269051
 31
0.0
  0
LINE
  5
52DEB
330
1F
100
AcDbEntity
  8
freecads.com
100
AcDbLine
 10
105021.9873363932
 20
95052.82884269051
 30
0.0
 11
105022.0138613044
 21
95052.82725172651
 31
0.0
  0
LINE
  5
52DEC
330
1F
100
AcDbEntity
  8
freecads.com
100
AcDbLine
 10
105022.0138613044
 20
95052.82725172651
 30
0.0
 11
105022.0403716721
 21
95052.82542511821
 31
0.0
  0
LINE
  5
52DED
330
1F
100
AcDbEntity
  8
freecads.com
100
AcDbLine
 10
105022.0403716721
 20
95052.82542511821
 30
0.0
 11
105022.0668652266
 21
95052.82336282855
 31
0.0
  0
LINE
  5
52DEE
330
1F
100
AcDbEntity
  8
freecads.com
100
AcDbLine
 10
105022.0668652266
 20
95052.82336282855
 30
0.0
 11
105022.0933403163
 21
95052.82106522789
 31
0.0
  0
LINE
  5
52DEF
330
1F
100
AcDbEntity
  8
freecads.com
100
AcDbLine
 10
105022.0933403163
 20
95052.82106522789
 30
0.0
 11
105022.1197947905
 21
95052.81853194063
 31
0.0
  0
LINE
  5
52DF0
330
1F
100
AcDbEntity
  8
freecads.com
100
AcDbLine
 10
105022.1197947905
 20
95052.81853194063
 30
0.0
 11
105022.1462268786
 21
95052.81576367563
 31
0.0
  0
LINE
  5
52DF1
330
1F
100
AcDbEntity
  8
freecads.com
100
AcDbLine
 10
105022.1462268786
 20
95052.81576367563
 30
0.0
 11
105022.172634988
 21
95052.81276063398
 31
0.0
  0
LINE
  5
52DF2
330
1F
100
AcDbEntity
  8
freecads.com
100
AcDbLine
 10
105022.172634988
 20
95052.81276063398
 30
0.0
 11
105022.1990175861
 21
95052.80952284735
 31
0.0
  0
LINE
  5
52DF3
330
1F
100
AcDbEntity
  8
freecads.com
100
AcDbLine
 10
105022.1990175861
 20
95052.80952284735
 30
0.0
 11
105022.2253737576
 21
95052.80605075489
 31
0.0
  0
LINE
  5
52DF4
330
1F
100
AcDbEntity
  8
freecads.com
100
AcDbLine
 10
105022.2253737576
 20
95052.80605075489
 30
0.0
 11
105022.251701114
 21
95052.80234465812
 31
0.0
  0
LINE
  5
52DF5
330
1F
100
AcDbEntity
  8
freecads.com
100
AcDbLine
 10
105022.251701114
 20
95052.80234465812
 30
0.0
 11
105022.2779982415
 21
95052.79840425021
 31
0.0
  0
LINE
  5
52DF6
330
1F
100
AcDbEntity
  8
freecads.com
100
AcDbLine
 10
105022.2779982415
 20
95052.79840425021
 30
0.0
 11
105022.304264783
 21
95052.79423054691
 31
0.0
  0
LINE
  5
52DF7
330
1F
100
AcDbEntity
  8
freecads.com
100
AcDbLine
 10
105022.304264783
 20
95052.79423054691
 30
0.0
 11
105022.3304991462
 21
95052.78982374921
 31
0.0
  0
LINE
  5
52DF8
330
1F
100
AcDbEntity
  8
freecads.com
100
AcDbLine
 10
105022.3304991462
 20
95052.78982374921
 30
0.0
 11
105022.356700535
 21
95052.78518395764
 31
0.0
  0
LINE
  5
52DF9
330
1F
100
AcDbEntity
  8
freecads.com
100
AcDbLine
 10
105022.356700535
 20
95052.78518395764
 30
0.0
 11
105022.3828672974
 21
95052.78031154253
 31
0.0
  0
LINE
  5
52DFA
330
1F
100
AcDbEntity
  8
freecads.com
100
AcDbLine
 10
105022.3828672974
 20
95052.78031154253
 30
0.0
 11
105022.408999255
 21
95052.7752070117
 31
0.0
  0
LINE
  5
52DFB
330
1F
100
AcDbEntity
  8
freecads.com
100
AcDbLine
 10
105022.408999255
 20
95052.7752070117
 30
0.0
 11
105022.4350962888
 21
95052.76987070375
 31
0.0
  0
LINE
  5
52DFC
330
1F
100
AcDbEntity
  8
freecads.com
100
AcDbLine
 10
105022.4350962888
 20
95052.76987070375
 30
0.0
 11
105022.4611567467
 21
95052.764302989
 31
0.0
  0
LINE
  5
52DFD
330
1F
100
AcDbEntity
  8
freecads.com
100
AcDbLine
 10
105022.4611567467
 20
95052.764302989
 30
0.0
 11
105022.4871812466
 21
95052.75850427478
 31
0.0
  0
LINE
  5
52DFE
330
1F
100
AcDbEntity
  8
freecads.com
100
AcDbLine
 10
105022.4871812466
 20
95052.75850427478
 30
0.0
 11
105022.5131695504
 21
95052.75247523822
 31
0.0
  0
LINE
  5
52DFF
330
1F
100
AcDbEntity
  8
freecads.com
100
AcDbLine
 10
105022.5131695504
 20
95052.75247523822
 30
0.0
 11
105022.5391208618
 21
95052.74621597985
 31
0.0
  0
LINE
  5
52E00
330
1F
100
AcDbEntity
  8
freecads.com
100
AcDbLine
 10
105022.5391208618
 20
95052.74621597985
 30
0.0
 11
105022.5650356795
 21
95052.73972724557
 31
0.0
  0
LINE
  5
52E01
330
1F
100
AcDbEntity
  8
freecads.com
100
AcDbLine
 10
105022.5650356795
 20
95052.73972724557
 30
0.0
 11
105022.5909140034
 21
95052.73300903539
 31
0.0
  0
LINE
  5
52E02
330
1F
100
AcDbEntity
  8
freecads.com
100
AcDbLine
 10
105022.5909140034
 20
95052.73300903539
 30
0.0
 11
105022.6167568903
 21
95052.72606267183
 31
0.0
  0
LINE
  5
52E03
330
1F
100
AcDbEntity
  8
freecads.com
100
AcDbLine
 10
105022.6167568903
 20
95052.72606267183
 30
0.0
 11
105022.6425644593
 21
95052.71888781635
 31
0.0
  0
LINE
  5
52E04
330
1F
100
AcDbEntity
  8
freecads.com
100
AcDbLine
 10
105022.6425644593
 20
95052.71888781635
 30
0.0
 11
105022.668337767
 21
95052.71148579144
 31
0.0
  0
LINE
  5
52E05
330
1F
100
AcDbEntity
  8
freecads.com
100
AcDbLine
 10
105022.668337767
 20
95052.71148579144
 30
0.0
 11
105022.6940775501
 21
95052.70385666589
 31
0.0
  0
LINE
  5
52E06
330
1F
100
AcDbEntity
  8
freecads.com
100
AcDbLine
 10
105022.6940775501
 20
95052.70385666589
 30
0.0
 11
105022.7197851628
 21
95052.69600091581
 31
0.0
  0
LINE
  5
52E07
330
1F
100
AcDbEntity
  8
freecads.com
100
AcDbLine
 10
105022.7197851628
 20
95052.69600091581
 30
0.0
 11
105022.7454624582
 21
95052.68791976321
 31
0.0
  0
LINE
  5
52E08
330
1F
100
AcDbEntity
  8
freecads.com
100
AcDbLine
 10
105022.7454624582
 20
95052.68791976321
 30
0.0
 11
105022.771109555
 21
95052.67961286952
 31
0.0
  0
LINE
  5
52E09
330
1F
100
AcDbEntity
  8
freecads.com
100
AcDbLine
 10
105022.771109555
 20
95052.67961286952
 30
0.0
 11
105022.7967297796
 21
95052.67108159429
 31
0.0
  0
LINE
  5
52E0A
330
1F
100
AcDbEntity
  8
freecads.com
100
AcDbLine
 10
105022.7967297796
 20
95052.67108159429
 30
0.0
 11
105022.8223237496
 21
95052.66232634488
 31
0.0
  0
LINE
  5
52E0B
330
1F
100
AcDbEntity
  8
freecads.com
100
AcDbLine
 10
105022.8223237496
 20
95052.66232634488
 30
0.0
 11
105022.8478943521
 21
95052.65334756565
 31
0.0
  0
LINE
  5
52E0C
330
1F
100
AcDbEntity
  8
freecads.com
100
AcDbLine
 10
105022.8478943521
 20
95052.65334756565
 30
0.0
 11
105022.8734428223
 21
95052.64414607124
 31
0.0
  0
LINE
  5
52E0D
330
1F
100
AcDbEntity
  8
freecads.com
100
AcDbLine
 10
105022.8734428223
 20
95052.64414607124
 30
0.0
 11
105022.8998014393
 21
95052.63436280525
 31
0.0
  0
LINE
  5
52E0E
330
1F
100
AcDbEntity
  8
freecads.com
100
AcDbLine
 10
105022.8998014393
 20
95052.63436280525
 30
0.0
 11
105022.9278003316
 21
95052.62363833567
 31
0.0
  0
LINE
  5
52E0F
330
1F
100
AcDbEntity
  8
freecads.com
100
AcDbLine
 10
105022.9278003316
 20
95052.62363833567
 30
0.0
 11
105022.9582713393
 21
95052.61161269091
 31
0.0
  0
LINE
  5
52E10
330
1F
100
AcDbEntity
  8
freecads.com
100
AcDbLine
 10
105022.9582713393
 20
95052.61161269091
 30
0.0
 11
105022.9920423439
 21
95052.59792850205
 31
0.0
  0
LINE
  5
52E11
330
1F
100
AcDbEntity
  8
freecads.com
100
AcDbLine
 10
105022.9920423439
 20
95052.59792850205
 30
0.0
 11
105023.0278116853
 21
95052.5824534151
 31
0.0
  0
LINE
  5
52E12
330
1F
100
AcDbEntity
  8
freecads.com
100
AcDbLine
 10
105023.0278116853
 20
95052.5824534151
 30
0.0
 11
105023.0642768333
 21
95052.56505971534
 31
0.0
  0
LINE
  5
52E13
330
1F
100
AcDbEntity
  8
freecads.com
100
AcDbLine
 10
105023.0642768333
 20
95052.56505971534
 30
0.0
 11
105023.1000820815
 21
95052.54576228965
 31
0.0
  0
LINE
  5
52E14
330
1F
100
AcDbEntity
  8
freecads.com
100
AcDbLine
 10
105023.1000820815
 20
95052.54576228965
 30
0.0
 11
105023.1340775162
 21
95052.52401878626
 31
0.0
  0
LINE
  5
52E15
330
1F
100
AcDbEntity
  8
freecads.com
100
AcDbLine
 10
105023.1340775162
 20
95052.52401878626
 30
0.0
 11
105023.165691018
 21
95052.50042428045
 31
0.0
  0
LINE
  5
52E16
330
1F
100
AcDbEntity
  8
freecads.com
100
AcDbLine
 10
105023.165691018
 20
95052.50042428045
 30
0.0
 11
105023.1944371051
 21
95052.47533173822
 31
0.0
  0
LINE
  5
52E17
330
1F
100
AcDbEntity
  8
freecads.com
100
AcDbLine
 10
105023.1944371051
 20
95052.47533173822
 30
0.0
 11
105023.2148639274
 21
95052.45565927339
 31
0.0
  0
LINE
  5
52E18
330
1F
100
AcDbEntity
  8
freecads.com
100
AcDbLine
 10
105023.2148639274
 20
95052.45565927339
 30
0.0
 11
105023.2214918487
 21
95052.44839321633
 31
0.0
  0
LINE
  5
52E19
330
1F
100
AcDbEntity
  8
freecads.com
100
AcDbLine
 10
105023.2214918487
 20
95052.44839321633
 30
0.0
 11
105023.2215619545
 21
95052.44762678991
 31
0.0
  0
LINE
  5
52E1A
330
1F
100
AcDbEntity
  8
freecads.com
100
AcDbLine
 10
105023.2215619545
 20
95052.44762678991
 30
0.0
 11
105023.2223165061
 21
95052.44745420098
 31
0.0
  0
LINE
  5
52E1B
330
1F
100
AcDbEntity
  8
freecads.com
100
AcDbLine
 10
105023.2223165061
 20
95052.44745420098
 30
0.0
 11
105023.2283306614
 21
95052.44041041732
 31
0.0
  0
LINE
  5
52E1C
330
1F
100
AcDbEntity
  8
freecads.com
100
AcDbLine
 10
105023.2283306614
 20
95052.44041041732
 30
0.0
 11
105023.2441796968
 21
95052.41903006835
 31
0.0
  0
LINE
  5
52E1D
330
1F
100
AcDbEntity
  8
freecads.com
100
AcDbLine
 10
105023.2441796968
 20
95052.41903006835
 30
0.0
 11
105023.2631583823
 21
95052.39023210354
 31
0.0
  0
LINE
  5
52E1E
330
1F
100
AcDbEntity
  8
freecads.com
100
AcDbLine
 10
105023.2631583823
 20
95052.39023210354
 30
0.0
 11
105023.2785586598
 21
95052.36093485889
 31
0.0
  0
LINE
  5
52E1F
330
1F
100
AcDbEntity
  8
freecads.com
100
AcDbLine
 10
105023.2785586598
 20
95052.36093485889
 30
0.0
 11
105023.2900699504
 21
95052.33182916024
 31
0.0
  0
LINE
  5
52E20
330
1F
100
AcDbEntity
  8
freecads.com
100
AcDbLine
 10
105023.2900699504
 20
95052.33182916024
 30
0.0
 11
105023.2973808787
 21
95052.30360593404
 31
0.0
  0
LINE
  5
52E21
330
1F
100
AcDbEntity
  8
freecads.com
100
AcDbLine
 10
105023.2973808787
 20
95052.30360593404
 30
0.0
 11
105023.3010207217
 21
95052.27634815938
 31
0.0
  0
LINE
  5
52E22
330
1F
100
AcDbEntity
  8
freecads.com
100
AcDbLine
 10
105023.3010207217
 20
95052.27634815938
 30
0.0
 11
105023.3015178415
 21
95052.25013925439
 31
0.0
  0
LINE
  5
52E23
330
1F
100
AcDbEntity
  8
freecads.com
100
AcDbLine
 10
105023.3015178415
 20
95052.25013925439
 30
0.0
 11
105023.2994004807
 21
95052.22506297577
 31
0.0
  0
LINE
  5
52E24
330
1F
100
AcDbEntity
  8
freecads.com
100
AcDbLine
 10
105023.2994004807
 20
95052.22506297577
 30
0.0
 11
105023.295196086
 21
95052.20120318078
 31
0.0
  0
LINE
  5
52E25
330
1F
100
AcDbEntity
  8
freecads.com
100
AcDbLine
 10
105023.295196086
 20
95052.20120318078
 30
0.0
 11
105023.2948605378
 21
95052.19943079202
 31
0.0
  0
LINE
  5
52E26
330
1F
100
AcDbEntity
  8
freecads.com
100
AcDbLine
 10
105023.2948605378
 20
95052.19943079202
 30
0.0
 11
105023.2895304962
 21
95052.17782713891
 31
0.0
  0
LINE
  5
52E27
330
1F
100
AcDbEntity
  8
freecads.com
100
AcDbLine
 10
105023.2895304962
 20
95052.17782713891
 30
0.0
 11
105023.2837324598
 21
95052.15862162314
 31
0.0
  0
LINE
  5
52E28
330
1F
100
AcDbEntity
  8
freecads.com
100
AcDbLine
 10
105023.2837324598
 20
95052.15862162314
 30
0.0
 11
105023.2831382787
 21
95052.15681879594
 31
0.0
  0
LINE
  5
52E29
330
1F
100
AcDbEntity
  8
freecads.com
100
AcDbLine
 10
105023.2831382787
 20
95052.15681879594
 30
0.0
 11
105023.2805629402
 21
95052.14912282044
 31
0.0
  0
LINE
  5
52E2A
330
1F
100
AcDbEntity
  8
freecads.com
100
AcDbLine
 10
105023.2805629402
 20
95052.14912282044
 30
0.0
 11
105023.2790284278
 21
95052.14459298914
 31
0.0
  0
LINE
  5
52E2B
330
1F
100
AcDbEntity
  8
freecads.com
100
AcDbLine
 10
105023.2790284278
 20
95052.14459298914
 30
0.0
 11
105023.2779823607
 21
95052.14148720027
 31
0.0
  0
LINE
  5
52E2C
330
1F
100
AcDbEntity
  8
freecads.com
100
AcDbLine
 10
105023.2779823607
 20
95052.14148720027
 30
0.0
 11
105023.2766675783
 21
95052.13751831423
 31
0.0
  0
LINE
  5
52E2D
330
1F
100
AcDbEntity
  8
freecads.com
100
AcDbLine
 10
105023.2766675783
 20
95052.13751831423
 30
0.0
 11
105023.2759667733
 21
95052.13548855596
 31
0.0
  0
LINE
  5
52E2E
330
1F
100
AcDbEntity
  8
freecads.com
100
AcDbLine
 10
105023.2759667733
 20
95052.13548855596
 30
0.0
 11
105023.2727972475
 21
95052.12609797913
 31
0.0
  0
LINE
  5
52E2F
330
1F
100
AcDbEntity
  8
freecads.com
100
AcDbLine
 10
105023.2727972475
 20
95052.12609797913
 30
0.0
 11
105023.2727001228
 21
95052.12581983871
 31
0.0
  0
LINE
  5
52E30
330
1F
100
AcDbEntity
  8
freecads.com
100
AcDbLine
 10
105023.2727001228
 20
95052.12581983871
 30
0.0
 11
105023.2721116752
 21
95052.12399026516
 31
0.0
  0
LINE
  5
52E31
330
1F
100
AcDbEntity
  8
freecads.com
100
AcDbLine
 10
105023.2721116752
 20
95052.12399026516
 30
0.0
 11
105023.2717016641
 21
95052.12284087635
 31
0.0
  0
LINE
  5
52E32
330
1F
100
AcDbEntity
  8
freecads.com
100
AcDbLine
 10
105023.2717016641
 20
95052.12284087635
 30
0.0
 11
105023.2678075828
 21
95052.11133877152
 31
0.0
  0
LINE
  5
52E33
330
1F
100
AcDbEntity
  8
freecads.com
100
AcDbLine
 10
105023.2678075828
 20
95052.11133877152
 30
0.0
 11
105023.2672214042
 21
95052.10948721144
 31
0.0
  0
LINE
  5
52E34
330
1F
100
AcDbEntity
  8
freecads.com
100
AcDbLine
 10
105023.2672214042
 20
95052.10948721144
 30
0.0
 11
105023.2570123242
 21
95052.07915934102
 31
0.0
  0
LINE
  5
52E35
330
1F
100
AcDbEntity
  8
freecads.com
100
AcDbLine
 10
105023.2570123242
 20
95052.07915934102
 30
0.0
 11
105023.2508965375
 21
95052.06085116798
 31
0.0
  0
LINE
  5
52E36
330
1F
100
AcDbEntity
  8
freecads.com
100
AcDbLine
 10
105023.2508965375
 20
95052.06085116798
 30
0.0
 11
105023.2435746301
 21
95052.0387909146
 31
0.0
  0
LINE
  5
52E37
330
1F
100
AcDbEntity
  8
freecads.com
100
AcDbLine
 10
105023.2435746301
 20
95052.0387909146
 30
0.0
 11
105023.2346484817
 21
95052.01173693709
 31
0.0
  0
LINE
  5
52E38
330
1F
100
AcDbEntity
  8
freecads.com
100
AcDbLine
 10
105023.2346484817
 20
95052.01173693709
 30
0.0
 11
105023.1626843416
 21
95051.79276742461
 31
0.0
  0
LINE
  5
52E39
330
1F
100
AcDbEntity
  8
freecads.com
100
AcDbLine
 10
105023.0249336487
 20
95052.16757851556
 30
0.0
 11
105023.0253137119
 21
95052.15644852347
 31
0.0
  0
LINE
  5
52E3A
330
1F
100
AcDbEntity
  8
freecads.com
100
AcDbLine
 10
105023.0253137119
 20
95052.15644852347
 30
0.0
 11
105023.0254781285
 21
95052.15487765129
 31
0.0
  0
LINE
  5
52E3B
330
1F
100
AcDbEntity
  8
freecads.com
100
AcDbLine
 10
105023.0254781285
 20
95052.15487765129
 30
0.0
 11
105023.0267753168
 21
95052.14248402864
 31
0.0
  0
LINE
  5
52E3C
330
1F
100
AcDbEntity
  8
freecads.com
100
AcDbLine
 10
105023.0267753168
 20
95052.14248402864
 30
0.0
 11
105023.0269548013
 21
95052.14076919388
 31
0.0
  0
LINE
  5
52E3D
330
1F
100
AcDbEntity
  8
freecads.com
100
AcDbLine
 10
105023.0269548013
 20
95052.14076919388
 30
0.0
 11
105023.0276419795
 21
95052.13721903746
 31
0.0
  0
LINE
  5
52E3E
330
1F
100
AcDbEntity
  8
freecads.com
100
AcDbLine
 10
105023.0276419795
 20
95052.13721903746
 30
0.0
 11
105023.0293966211
 21
95052.1281540637
 31
0.0
  0
LINE
  5
52E3F
330
1F
100
AcDbEntity
  8
freecads.com
100
AcDbLine
 10
105023.0293966211
 20
95052.1281540637
 30
0.0
 11
105023.029724092
 21
95052.12646225633
 31
0.0
  0
LINE
  5
52E40
330
1F
100
AcDbEntity
  8
freecads.com
100
AcDbLine
 10
105023.029724092
 20
95052.12646225633
 30
0.0
 11
105023.0337219946
 21
95052.1131057523
 31
0.0
  0
LINE
  5
52E41
330
1F
100
AcDbEntity
  8
freecads.com
100
AcDbLine
 10
105023.0337219946
 20
95052.1131057523
 30
0.0
 11
105023.0391310339
 21
95052.10042071565
 31
0.0
  0
LINE
  5
52E42
330
1F
100
AcDbEntity
  8
freecads.com
100
AcDbLine
 10
105023.0391310339
 20
95052.10042071565
 30
0.0
 11
105023.0463452864
 21
95052.0878510496
 31
0.0
  0
LINE
  5
52E43
330
1F
100
AcDbEntity
  8
freecads.com
100
AcDbLine
 10
105023.0463452864
 20
95052.0878510496
 30
0.0
 11
105023.0557192069
 21
95052.07475425887
 31
0.0
  0
LINE
  5
52E44
330
1F
100
AcDbEntity
  8
freecads.com
100
AcDbLine
 10
105023.0557192069
 20
95052.07475425887
 30
0.0
 11
105023.0681357054
 21
95052.06090644483
 31
0.0
  0
LINE
  5
52E45
330
1F
100
AcDbEntity
  8
freecads.com
100
AcDbLine
 10
105023.0681357054
 20
95052.06090644483
 30
0.0
 11
105023.0847175832
 21
95052.04761095782
 31
0.0
  0
LINE
  5
52E46
330
1F
100
AcDbEntity
  8
freecads.com
100
AcDbLine
 10
105023.0847175832
 20
95052.04761095782
 30
0.0
 11
105023.1052484299
 21
95052.03561322298
 31
0.0
  0
LINE
  5
52E47
330
1F
100
AcDbEntity
  8
freecads.com
100
AcDbLine
 10
105023.1052484299
 20
95052.03561322298
 30
0.0
 11
105023.1281735544
 21
95052.0246436185
 31
0.0
  0
LINE
  5
52E48
330
1F
100
AcDbEntity
  8
freecads.com
100
AcDbLine
 10
105023.1281735544
 20
95052.0246436185
 30
0.0
 11
105023.2261090255
 21
95051.98829256475
 31
0.0
  0
LINE
  5
52E49
330
1F
100
AcDbEntity
  8
freecads.com
100
AcDbLine
 10
105022.9111266284
 20
95052.3498267707
 30
0.0
 11
105022.9139953632
 21
95052.34871339627
 31
0.0
  0
LINE
  5
52E4A
330
1F
100
AcDbEntity
  8
freecads.com
100
AcDbLine
 10
105022.9139953632
 20
95052.34871339627
 30
0.0
 11
105022.9234037598
 21
95052.34506193712
 31
0.0
  0
LINE
  5
52E4B
330
1F
100
AcDbEntity
  8
freecads.com
100
AcDbLine
 10
105022.9234037598
 20
95052.34506193712
 30
0.0
 11
105022.9331083383
 21
95052.34129552791
 31
0.0
  0
LINE
  5
52E4C
330
1F
100
AcDbEntity
  8
freecads.com
100
AcDbLine
 10
105022.9331083383
 20
95052.34129552791
 30
0.0
 11
105022.9393230236
 21
95052.33880750401
 31
0.0
  0
LINE
  5
52E4D
330
1F
100
AcDbEntity
  8
freecads.com
100
AcDbLine
 10
105022.9393230236
 20
95052.33880750401
 30
0.0
 11
105022.9485976528
 21
95052.335094444
 31
0.0
  0
LINE
  5
52E4E
330
1F
100
AcDbEntity
  8
freecads.com
100
AcDbLine
 10
105022.9485976528
 20
95052.335094444
 30
0.0
 11
105022.9537145879
 21
95052.33304589992
 31
0.0
  0
LINE
  5
52E4F
330
1F
100
AcDbEntity
  8
freecads.com
100
AcDbLine
 10
105022.9537145879
 20
95052.33304589992
 30
0.0
 11
105022.9665759571
 21
95052.32709113279
 31
0.0
  0
LINE
  5
52E50
330
1F
100
AcDbEntity
  8
freecads.com
100
AcDbLine
 10
105022.9665759571
 20
95052.32709113279
 30
0.0
 11
105022.9704237063
 21
95052.3253096389
 31
0.0
  0
LINE
  5
52E51
330
1F
100
AcDbEntity
  8
freecads.com
100
AcDbLine
 10
105022.9704237063
 20
95052.3253096389
 30
0.0
 11
105022.9734765532
 21
95052.32361220235
 31
0.0
  0
LINE
  5
52E52
330
1F
100
AcDbEntity
  8
freecads.com
100
AcDbLine
 10
105022.9734765532
 20
95052.32361220235
 30
0.0
 11
105022.981672349
 21
95052.31905519586
 31
0.0
  0
LINE
  5
52E53
330
1F
100
AcDbEntity
  8
freecads.com
100
AcDbLine
 10
105022.984090357
 20
95052.31784797043
 30
0.0
 11
105022.9867108397
 21
95052.31607124899
 31
0.0
  0
LINE
  5
52E54
330
1F
100
AcDbEntity
  8
freecads.com
100
AcDbLine
 10
105022.9867108397
 20
95052.31607124899
 30
0.0
 11
105022.9918740134
 21
95052.31257054987
 31
0.0
  0
LINE
  5
52E55
330
1F
100
AcDbEntity
  8
freecads.com
100
AcDbLine
 10
105022.9762819077
 20
95051.6727449016
 30
0.0
 11
105022.965746218
 21
95051.68185923016
 31
0.0
  0
LINE
  5
52E56
330
1F
100
AcDbEntity
  8
freecads.com
100
AcDbLine
 10
105022.965746218
 20
95051.68185923016
 30
0.0
 11
105022.9623864221
 21
95051.68476575873
 31
0.0
  0
LINE
  5
52E57
330
1F
100
AcDbEntity
  8
freecads.com
100
AcDbLine
 10
105022.9623864221
 20
95051.68476575873
 30
0.0
 11
105022.9593258198
 21
95051.6880541466
 31
0.0
  0
LINE
  5
52E58
330
1F
100
AcDbEntity
  8
freecads.com
100
AcDbLine
 10
105022.9593258198
 20
95051.6880541466
 30
0.0
 11
105022.952777772
 21
95051.69508953336
 31
0.0
  0
LINE
  5
52E59
330
1F
100
AcDbEntity
  8
freecads.com
100
AcDbLine
 10
105022.952777772
 20
95051.69508953336
 30
0.0
 11
105022.9443671442
 21
95051.70415208082
 31
0.0
  0
LINE
  5
52E5A
330
1F
100
AcDbEntity
  8
freecads.com
100
AcDbLine
 10
105022.9443671442
 20
95051.70415208082
 30
0.0
 11
105022.9443321548
 21
95051.70416371624
 31
0.0
  0
LINE
  5
52E5B
330
1F
100
AcDbEntity
  8
freecads.com
100
AcDbLine
 10
105022.9443321548
 20
95051.70416371624
 30
0.0
 11
105022.9434658882
 21
95051.70510536004
 31
0.0
  0
LINE
  5
52E5C
330
1F
100
AcDbEntity
  8
freecads.com
100
AcDbLine
 10
105022.9434658882
 20
95051.70510536004
 30
0.0
 11
105022.9428129633
 21
95051.70579597363
 31
0.0
  0
LINE
  5
52E5D
330
1F
100
AcDbEntity
  8
freecads.com
100
AcDbLine
 10
105022.9428129633
 20
95051.70579597363
 30
0.0
 11
105022.9414368434
 21
95051.70779185815
 31
0.0
  0
LINE
  5
52E5E
330
1F
100
AcDbEntity
  8
freecads.com
100
AcDbLine
 10
105022.9414368434
 20
95051.70779185815
 30
0.0
 11
105022.939470467
 21
95051.7105698765
 31
0.0
  0
LINE
  5
52E5F
330
1F
100
AcDbEntity
  8
freecads.com
100
AcDbLine
 10
105022.939470467
 20
95051.7105698765
 30
0.0
 11
105022.9314781436
 21
95051.72200846063
 31
0.0
  0
LINE
  5
52E60
330
1F
100
AcDbEntity
  8
freecads.com
100
AcDbLine
 10
105022.9314781436
 20
95051.72200846063
 30
0.0
 11
105022.9270398132
 21
95051.72832389305
 31
0.0
  0
LINE
  5
52E61
330
1F
100
AcDbEntity
  8
freecads.com
100
AcDbLine
 10
105022.9270398132
 20
95051.72832389305
 30
0.0
 11
105022.9235914907
 21
95051.73626940759
 31
0.0
  0
LINE
  5
52E62
330
1F
100
AcDbEntity
  8
freecads.com
100
AcDbLine
 10
105022.9235914907
 20
95051.73626940759
 30
0.0
 11
105022.9227122745
 21
95051.73829526961
 31
0.0
  0
LINE
  5
52E63
330
1F
100
AcDbEntity
  8
freecads.com
100
AcDbLine
 10
105022.9227122745
 20
95051.73829526961
 30
0.0
 11
105022.9187927256
 21
95051.74732656904
 31
0.0
  0
LINE
  5
52E64
330
1F
100
AcDbEntity
  8
freecads.com
100
AcDbLine
 10
105022.9187927256
 20
95051.74732656904
 30
0.0
 11
105022.9175257859
 21
95051.75508804097
 31
0.0
  0
LINE
  5
52E65
330
1F
100
AcDbEntity
  8
freecads.com
100
AcDbLine
 10
105022.9175257859
 20
95051.75508804097
 30
0.0
 11
105022.9156287938
 21
95051.76679555074
 31
0.0
  0
LINE
  5
52E66
330
1F
100
AcDbEntity
  8
freecads.com
100
AcDbLine
 10
105022.9156287938
 20
95051.76679555074
 30
0.0
 11
105022.9150654007
 21
95051.7701607484
 31
0.0
  0
LINE
  5
52E67
330
1F
100
AcDbEntity
  8
freecads.com
100
AcDbLine
 10
105022.9150654007
 20
95051.7701607484
 30
0.0
 11
105022.9155749234
 21
95051.77594662068
 31
0.0
  0
LINE
  5
52E68
330
1F
100
AcDbEntity
  8
freecads.com
100
AcDbLine
 10
105022.9155749234
 20
95051.77594662068
 30
0.0
 11
105022.9167240413
 21
95051.7889953997
 31
0.0
  0
LINE
  5
52E69
330
1F
100
AcDbEntity
  8
freecads.com
100
AcDbLine
 10
105022.9167240413
 20
95051.7889953997
 30
0.0
 11
105022.9177873506
 21
95051.79480044164
 31
0.0
  0
LINE
  5
52E6A
330
1F
100
AcDbEntity
  8
freecads.com
100
AcDbLine
 10
105022.9177873506
 20
95051.79480044164
 30
0.0
 11
105022.920447269
 21
95051.80932202826
 31
0.0
  0
LINE
  5
52E6B
330
1F
100
AcDbEntity
  8
freecads.com
100
AcDbLine
 10
105022.920447269
 20
95051.80932202826
 30
0.0
 11
105022.9226559682
 21
95051.81590467289
 31
0.0
  0
LINE
  5
52E6C
330
1F
100
AcDbEntity
  8
freecads.com
100
AcDbLine
 10
105022.9226559682
 20
95051.81590467289
 30
0.0
 11
105022.9242346077
 21
95051.82060953394
 31
0.0
  0
LINE
  5
52E6D
330
1F
100
AcDbEntity
  8
freecads.com
100
AcDbLine
 10
105022.9242346077
 20
95051.82060953394
 30
0.0
 11
105022.9245069031
 21
95051.82142106319
 31
0.0
  0
LINE
  5
52E6E
330
1F
100
AcDbEntity
  8
freecads.com
100
AcDbLine
 10
105022.9245069031
 20
95051.82142106319
 30
0.0
 11
105022.9275452235
 21
95051.83286348966
 31
0.0
  0
LINE
  5
52E6F
330
1F
100
AcDbEntity
  8
freecads.com
100
AcDbLine
 10
105022.9275452235
 20
95051.83286348966
 30
0.0
 11
105022.9296503127
 21
95051.84120472662
 31
0.0
  0
LINE
  5
52E70
330
1F
100
AcDbEntity
  8
freecads.com
100
AcDbLine
 10
105022.9296503127
 20
95051.84120472662
 30
0.0
 11
105022.9309057352
 21
95051.84617923186
 31
0.0
  0
LINE
  5
52E71
330
1F
100
AcDbEntity
  8
freecads.com
100
AcDbLine
 10
105022.9309057352
 20
95051.84617923186
 30
0.0
 11
105022.9309543402
 21
95051.8464035731
 31
0.0
  0
LINE
  5
52E72
330
1F
100
AcDbEntity
  8
freecads.com
100
AcDbLine
 10
105022.9309543402
 20
95051.8464035731
 30
0.0
 11
105022.934791674
 21
95051.86411518849
 31
0.0
  0
LINE
  5
52E73
330
1F
100
AcDbEntity
  8
freecads.com
100
AcDbLine
 10
105022.934791674
 20
95051.86411518849
 30
0.0
 11
105022.9361127348
 21
95051.86858170731
 31
0.0
  0
LINE
  5
52E74
330
1F
100
AcDbEntity
  8
freecads.com
100
AcDbLine
 10
105022.9361127348
 20
95051.86858170731
 30
0.0
 11
105022.9374480327
 21
95051.8730963618
 31
0.0
  0
LINE
  5
52E75
330
1F
100
AcDbEntity
  8
freecads.com
100
AcDbLine
 10
105022.9374480327
 20
95051.8730963618
 30
0.0
 11
105022.9439405732
 21
95051.89504770164
 31
0.0
  0
LINE
  5
52E76
330
1F
100
AcDbEntity
  8
freecads.com
100
AcDbLine
 10
105022.9439405732
 20
95051.89504770164
 30
0.0
 11
105022.9451875441
 21
95051.89926372176
 31
0.0
  0
LINE
  5
52E77
330
1F
100
AcDbEntity
  8
freecads.com
100
AcDbLine
 10
105022.9451875441
 20
95051.89926372176
 30
0.0
 11
105022.9456140701
 21
95051.90068453719
 31
0.0
  0
LINE
  5
52E78
330
1F
100
AcDbEntity
  8
freecads.com
100
AcDbLine
 10
105022.9456140701
 20
95051.90068453719
 30
0.0
 11
105022.9523506015
 21
95051.92312482657
 31
0.0
  0
LINE
  5
52E79
330
1F
100
AcDbEntity
  8
freecads.com
100
AcDbLine
 10
105022.9523506015
 20
95051.92312482657
 30
0.0
 11
105022.9544909041
 21
95051.93025446143
 31
0.0
  0
LINE
  5
52E7A
330
1F
100
AcDbEntity
  8
freecads.com
100
AcDbLine
 10
105022.9544909041
 20
95051.93025446143
 30
0.0
 11
105022.9566994107
 21
95051.93761129305
 31
0.0
  0
LINE
  5
52E7B
330
1F
100
AcDbEntity
  8
freecads.com
100
AcDbLine
 10
105022.9566994107
 20
95051.93761129305
 30
0.0
 11
105022.9573461559
 21
95051.9398234352
 31
0.0
  0
LINE
  5
52E7C
330
1F
100
AcDbEntity
  8
freecads.com
100
AcDbLine
 10
105022.9951828582
 20
95052.31061212267
 30
0.0
 11
105022.9964032826
 21
95052.30962556586
 31
0.0
  0
LINE
  5
52E7D
330
1F
100
AcDbEntity
  8
freecads.com
100
AcDbLine
 10
105022.9964032826
 20
95052.30962556586
 30
0.0
 11
105022.9974530573
 21
95052.30871478126
 31
0.0
  0
LINE
  5
52E7E
330
1F
100
AcDbEntity
  8
freecads.com
100
AcDbLine
 10
105022.9974530573
 20
95052.30871478126
 30
0.0
 11
105023.0003389693
 21
95052.30630285176
 31
0.0
  0
ARC
  5
52E7F
330
1F
100
AcDbEntity
  8
freecads.com
100
AcDbCircle
 10
105022.8150146902
 20
95052.20190400228
 30
0.0
 40
0.2127068597440399
100
AcDbArc
 50
350.7133074414823
 51
29.39389491779588
  0
LINE
  5
52E80
330
1F
100
AcDbEntity
  8
freecads.com
100
AcDbLine
 10
105022.9573461559
 20
95051.9398234352
 30
0.0
 11
105023.0249336487
 21
95052.16757851556
 31
0.0
  0
ARC
  5
52E81
330
1F
100
AcDbEntity
  8
freecads.com
100
AcDbCircle
 10
105023.0971906331
 20
95051.78912055331
 30
0.0
 40
0.1678160069521537
100
AcDbArc
 50
223.9055562584617
 51
268.079629052349
  0
LINE
  5
52E82
330
1F
100
AcDbEntity
  8
freecads.com
100
AcDbLine
 10
105020.5869988273
 20
95051.65007533959
 30
0.0
 11
105020.5911835471
 21
95051.64890224444
 31
0.0
  0
LINE
  5
52E83
330
1F
100
AcDbEntity
  8
freecads.com
100
AcDbLine
 10
105020.5840720261
 20
95051.65116311014
 30
0.0
 11
105020.5812448873
 21
95051.65230476704
 31
0.0
  0
LINE
  5
52E84
330
1F
100
AcDbEntity
  8
freecads.com
100
AcDbLine
 10
105020.5812448873
 20
95051.65230476704
 30
0.0
 11
105020.5804088224
 21
95051.65290502533
 31
0.0
  0
LINE
  5
52E85
330
1F
100
AcDbEntity
  8
freecads.com
100
AcDbLine
 10
105020.5804088224
 20
95051.65290502533
 30
0.0
 11
105020.5785959526
 21
95051.65420658711
 31
0.0
  0
LINE
  5
52E86
330
1F
100
AcDbEntity
  8
freecads.com
100
AcDbLine
 10
105020.5785959526
 20
95051.65420658711
 30
0.0
 11
105020.5770191954
 21
95051.6553386303
 31
0.0
  0
LINE
  5
52E87
330
1F
100
AcDbEntity
  8
freecads.com
100
AcDbLine
 10
105020.5770191954
 20
95051.6553386303
 30
0.0
 11
105020.5735124642
 21
95051.65947753473
 31
0.0
  0
LINE
  5
52E88
330
1F
100
AcDbEntity
  8
freecads.com
100
AcDbLine
 10
105020.7876033184
 20
95052.37318487179
 30
0.0
 11
105020.7931067411
 21
95052.37503154356
 31
0.0
  0
LINE
  5
52E89
330
1F
100
AcDbEntity
  8
freecads.com
100
AcDbLine
 10
105020.7931067411
 20
95052.37503154356
 30
0.0
 11
105020.8006044455
 21
95052.37769310395
 31
0.0
  0
LINE
  5
52E8A
330
1F
100
AcDbEntity
  8
freecads.com
100
AcDbLine
 10
105020.8006044455
 20
95052.37769310395
 30
0.0
 11
105020.8097949978
 21
95052.38095559725
 31
0.0
  0
LINE
  5
52E8B
330
1F
100
AcDbEntity
  8
freecads.com
100
AcDbLine
 10
105020.8097949978
 20
95052.38095559725
 30
0.0
 11
105020.8214002922
 21
95052.38507528382
 31
0.0
  0
LINE
  5
52E8C
330
1F
100
AcDbEntity
  8
freecads.com
100
AcDbLine
 10
105020.8214002922
 20
95052.38507528382
 30
0.0
 11
105020.8258620579
 21
95052.38662125279
 31
0.0
  0
LINE
  5
52E8D
330
1F
100
AcDbEntity
  8
freecads.com
100
AcDbLine
 10
105020.8258620579
 20
95052.38662125279
 30
0.0
 11
105020.8351728981
 21
95052.38984739039
 31
0.0
  0
LINE
  5
52E8E
330
1F
100
AcDbEntity
  8
freecads.com
100
AcDbLine
 10
105020.8351728981
 20
95052.38984739039
 30
0.0
 11
105020.848195396
 21
95052.39435959008
 31
0.0
  0
LINE
  5
52E8F
330
1F
100
AcDbEntity
  8
freecads.com
100
AcDbLine
 10
105020.848195396
 20
95052.39435959008
 30
0.0
 11
105020.8510534182
 21
95052.3953244688
 31
0.0
  0
LINE
  5
52E90
330
1F
100
AcDbEntity
  8
freecads.com
100
AcDbLine
 10
105020.8510534182
 20
95052.3953244688
 30
0.0
 11
105020.8604746887
 21
95052.39850512401
 31
0.0
  0
LINE
  5
52E91
330
1F
100
AcDbEntity
  8
freecads.com
100
AcDbLine
 10
105020.8604746887
 20
95052.39850512401
 30
0.0
 11
105020.8738606718
 21
95052.40302428063
 31
0.0
  0
LINE
  5
52E92
330
1F
100
AcDbEntity
  8
freecads.com
100
AcDbLine
 10
105020.8738606718
 20
95052.40302428063
 30
0.0
 11
105020.8761955552
 21
95052.40379153974
 31
0.0
  0
LINE
  5
52E93
330
1F
100
AcDbEntity
  8
freecads.com
100
AcDbLine
 10
105020.8761955552
 20
95052.40379153974
 30
0.0
 11
105020.8856856318
 21
95052.40691004562
 31
0.0
  0
LINE
  5
52E94
330
1F
100
AcDbEntity
  8
freecads.com
100
AcDbLine
 10
105020.8856856318
 20
95052.40691004562
 30
0.0
 11
105020.8987659563
 21
95052.41120833218
 31
0.0
  0
LINE
  5
52E95
330
1F
100
AcDbEntity
  8
freecads.com
100
AcDbLine
 10
105020.8987659563
 20
95052.41120833218
 30
0.0
 11
105020.9013051126
 21
95052.41202067196
 31
0.0
  0
LINE
  5
52E96
330
1F
100
AcDbEntity
  8
freecads.com
100
AcDbLine
 10
105020.9013051126
 20
95052.41202067196
 30
0.0
 11
105020.9108165118
 21
95052.41506360709
 31
0.0
  0
LINE
  5
52E97
330
1F
100
AcDbEntity
  8
freecads.com
100
AcDbLine
 10
105020.9108165118
 20
95052.41506360709
 30
0.0
 11
105020.9232804773
 21
95052.41905114221
 31
0.0
  0
LINE
  5
52E98
330
1F
100
AcDbEntity
  8
freecads.com
100
AcDbLine
 10
105020.9232804773
 20
95052.41905114221
 30
0.0
 11
105020.9263951124
 21
95052.42002256791
 31
0.0
  0
LINE
  5
52E99
330
1F
100
AcDbEntity
  8
freecads.com
100
AcDbLine
 10
105020.9263951124
 20
95052.42002256791
 30
0.0
 11
105020.9359022259
 21
95052.42298774806
 31
0.0
  0
LINE
  5
52E9A
330
1F
100
AcDbEntity
  8
freecads.com
100
AcDbLine
 10
105020.9359022259
 20
95052.42298774806
 30
0.0
 11
105020.9477752884
 21
95052.42669084571
 31
0.0
  0
LINE
  5
52E9B
330
1F
100
AcDbEntity
  8
freecads.com
100
AcDbLine
 10
105020.9477752884
 20
95052.42669084571
 30
0.0
 11
105020.9514636939
 21
95052.42781149517
 31
0.0
  0
LINE
  5
52E9C
330
1F
100
AcDbEntity
  8
freecads.com
100
AcDbLine
 10
105020.9514636939
 20
95052.42781149517
 30
0.0
 11
105020.9609663878
 21
95052.43069870173
 31
0.0
  0
LINE
  5
52E9D
330
1F
100
AcDbEntity
  8
freecads.com
100
AcDbLine
 10
105020.9609663878
 20
95052.43069870173
 30
0.0
 11
105020.9722519861
 21
95052.4341276087
 31
0.0
  0
LINE
  5
52E9E
330
1F
100
AcDbEntity
  8
freecads.com
100
AcDbLine
 10
105020.9722519861
 20
95052.4341276087
 30
0.0
 11
105020.9765138547
 21
95052.4353878545
 31
0.0
  0
LINE
  5
52E9F
330
1F
100
AcDbEntity
  8
freecads.com
100
AcDbLine
 10
105020.9765138547
 20
95052.4353878545
 30
0.0
 11
105020.9860134548
 21
95052.43819691131
 31
0.0
  0
LINE
  5
52EA0
330
1F
100
AcDbEntity
  8
freecads.com
100
AcDbLine
 10
105020.9860134548
 20
95052.43819691131
 30
0.0
 11
105020.9967125855
 21
95052.44136067245
 31
0.0
  0
LINE
  5
52EA1
330
1F
100
AcDbEntity
  8
freecads.com
100
AcDbLine
 10
105020.9967125855
 20
95052.44136067245
 30
0.0
 11
105021.0015479829
 21
95052.44275080698
 31
0.0
  0
LINE
  5
52EA2
330
1F
100
AcDbEntity
  8
freecads.com
100
AcDbLine
 10
105021.0015479829
 20
95052.44275080698
 30
0.0
 11
105021.0110467178
 21
95052.44548161025
 31
0.0
  0
LINE
  5
52EA3
330
1F
100
AcDbEntity
  8
freecads.com
100
AcDbLine
 10
105021.0110467178
 20
95052.44548161025
 30
0.0
 11
105021.0211597735
 21
95052.44838902543
 31
0.0
  0
LINE
  5
52EA4
330
1F
100
AcDbEntity
  8
freecads.com
100
AcDbLine
 10
105021.0211597735
 20
95052.44838902543
 30
0.0
 11
105021.0265679306
 21
95052.44989933522
 31
0.0
  0
LINE
  5
52EA5
330
1F
100
AcDbEntity
  8
freecads.com
100
AcDbLine
 10
105021.0265679306
 20
95052.44989933522
 30
0.0
 11
105021.0360658643
 21
95052.45255177706
 31
0.0
  0
LINE
  5
52EA6
330
1F
100
AcDbEntity
  8
freecads.com
100
AcDbLine
 10
105021.0360658643
 20
95052.45255177706
 30
0.0
 11
105021.0455943484
 21
95052.4552127506
 31
0.0
  0
LINE
  5
52EA7
330
1F
100
AcDbEntity
  8
freecads.com
100
AcDbLine
 10
105021.0455943484
 20
95052.4552127506
 30
0.0
 11
105021.0515760988
 21
95052.45683349192
 31
0.0
  0
LINE
  5
52EA8
330
1F
100
AcDbEntity
  8
freecads.com
100
AcDbLine
 10
105021.0515760988
 20
95052.45683349192
 30
0.0
 11
105021.0610750749
 21
95052.45940721739
 31
0.0
  0
LINE
  5
52EA9
330
1F
100
AcDbEntity
  8
freecads.com
100
AcDbLine
 10
105021.0610750749
 20
95052.45940721739
 30
0.0
 11
105021.0700197321
 21
95052.46183075145
 31
0.0
  0
LINE
  5
52EAA
330
1F
100
AcDbEntity
  8
freecads.com
100
AcDbLine
 10
105021.0700197321
 20
95052.46183075145
 30
0.0
 11
105021.076574637
 21
95052.46355218572
 31
0.0
  0
LINE
  5
52EAB
330
1F
100
AcDbEntity
  8
freecads.com
100
AcDbLine
 10
105021.076574637
 20
95052.46355218572
 30
0.0
 11
105021.086076285
 21
95052.466047487
 31
0.0
  0
LINE
  5
52EAC
330
1F
100
AcDbEntity
  8
freecads.com
100
AcDbLine
 10
105021.086076285
 20
95052.466047487
 30
0.0
 11
105021.0944358614
 21
95052.46824286002
 31
0.0
  0
LINE
  5
52EAD
330
1F
100
AcDbEntity
  8
freecads.com
100
AcDbLine
 10
105021.0944358614
 20
95052.46824286002
 30
0.0
 11
105021.1015642207
 21
95052.47005485115
 31
0.0
  0
LINE
  5
52EAE
330
1F
100
AcDbEntity
  8
freecads.com
100
AcDbLine
 10
105021.1015642207
 20
95052.47005485115
 30
0.0
 11
105021.1110678268
 21
95052.4724706174
 31
0.0
  0
LINE
  5
52EAF
330
1F
100
AcDbEntity
  8
freecads.com
100
AcDbLine
 10
105021.1110678268
 20
95052.4724706174
 30
0.0
 11
105021.1188460949
 21
95052.4744478119
 31
0.0
  0
LINE
  5
52EB0
330
1F
100
AcDbEntity
  8
freecads.com
100
AcDbLine
 10
105021.1188460949
 20
95052.4744478119
 30
0.0
 11
105021.1265476889
 21
95052.47634057832
 31
0.0
  0
LINE
  5
52EB1
330
1F
100
AcDbEntity
  8
freecads.com
100
AcDbLine
 10
105021.1265476889
 20
95052.47634057832
 30
0.0
 11
105021.1360538165
 21
95052.47867683225
 31
0.0
  0
LINE
  5
52EB2
330
1F
100
AcDbEntity
  8
freecads.com
100
AcDbLine
 10
105021.1360538165
 20
95052.47867683225
 30
0.0
 11
105021.1432512309
 21
95052.48044569004
 31
0.0
  0
LINE
  5
52EB3
330
1F
100
AcDbEntity
  8
freecads.com
100
AcDbLine
 10
105021.1432512309
 20
95052.48044569004
 30
0.0
 11
105021.1515262115
 21
95052.48240938023
 31
0.0
  0
LINE
  5
52EB4
330
1F
100
AcDbEntity
  8
freecads.com
100
AcDbLine
 10
105021.1515262115
 20
95052.48240938023
 30
0.0
 11
105021.1610374468
 21
95052.48466643928
 31
0.0
  0
LINE
  5
52EB5
330
1F
100
AcDbEntity
  8
freecads.com
100
AcDbLine
 10
105021.1610374468
 20
95052.48466643928
 30
0.0
 11
105021.1676518778
 21
95052.48623607359
 31
0.0
  0
LINE
  5
52EB6
330
1F
100
AcDbEntity
  8
freecads.com
100
AcDbLine
 10
105021.1676518778
 20
95052.48623607359
 30
0.0
 11
105021.1765014833
 21
95052.48826080107
 31
0.0
  0
LINE
  5
52EB7
330
1F
100
AcDbEntity
  8
freecads.com
100
AcDbLine
 10
105021.1765014833
 20
95052.48826080107
 30
0.0
 11
105021.1860183997
 21
95052.49043820457
 31
0.0
  0
LINE
  5
52EB8
330
1F
100
AcDbEntity
  8
freecads.com
100
AcDbLine
 10
105021.1860183997
 20
95052.49043820457
 30
0.0
 11
105021.192050051
 21
95052.49181820392
 31
0.0
  0
LINE
  5
52EB9
330
1F
100
AcDbEntity
  8
freecads.com
100
AcDbLine
 10
105021.192050051
 20
95052.49181820392
 30
0.0
 11
105021.2014738225
 21
95052.49389370023
 31
0.0
  0
LINE
  5
52EBA
330
1F
100
AcDbEntity
  8
freecads.com
100
AcDbLine
 10
105021.2014738225
 20
95052.49389370023
 30
0.0
 11
105021.2109958134
 21
95052.49599082844
 31
0.0
  0
LINE
  5
52EBB
330
1F
100
AcDbEntity
  8
freecads.com
100
AcDbLine
 10
105021.2109958134
 20
95052.49599082844
 30
0.0
 11
105021.2164470305
 21
95052.4971914073
 31
0.0
  0
LINE
  5
52EBC
330
1F
100
AcDbEntity
  8
freecads.com
100
AcDbLine
 10
105021.2164470305
 20
95052.4971914073
 30
0.0
 11
105021.2264457151
 21
95052.4993079026
 31
0.0
  0
LINE
  5
52EBD
330
1F
100
AcDbEntity
  8
freecads.com
100
AcDbLine
 10
105021.2264457151
 20
95052.4993079026
 30
0.0
 11
105021.2359747656
 21
95052.50132498694
 31
0.0
  0
LINE
  5
52EBE
330
1F
100
AcDbEntity
  8
freecads.com
100
AcDbLine
 10
105021.2359747656
 20
95052.50132498694
 30
0.0
 11
105021.2408435515
 21
95052.50235559877
 31
0.0
  0
LINE
  5
52EBF
330
1F
100
AcDbEntity
  8
freecads.com
100
AcDbLine
 10
105021.2408435515
 20
95052.50235559877
 30
0.0
 11
105021.2514172315
 21
95052.50450295706
 31
0.0
  0
LINE
  5
52EC0
330
1F
100
AcDbEntity
  8
freecads.com
100
AcDbLine
 10
105021.2514172315
 20
95052.50450295706
 30
0.0
 11
105021.2609535514
 21
95052.50643964284
 31
0.0
  0
LINE
  5
52EC1
330
1F
100
AcDbEntity
  8
freecads.com
100
AcDbLine
 10
105021.2609535514
 20
95052.50643964284
 30
0.0
 11
105021.2652401591
 21
95052.50731018957
 31
0.0
  0
LINE
  5
52EC2
330
1F
100
AcDbEntity
  8
freecads.com
100
AcDbLine
 10
105021.2652401591
 20
95052.50731018957
 30
0.0
 11
105021.276389844
 21
95052.50947855172
 31
0.0
  0
LINE
  5
52EC3
330
1F
100
AcDbEntity
  8
freecads.com
100
AcDbLine
 10
105021.276389844
 20
95052.50947855172
 30
0.0
 11
105021.2859339669
 21
95052.51133466828
 31
0.0
  0
LINE
  5
52EC4
330
1F
100
AcDbEntity
  8
freecads.com
100
AcDbLine
 10
105021.2859339669
 20
95052.51133466828
 30
0.0
 11
105021.2896375252
 21
95052.5120549268
 31
0.0
  0
LINE
  5
52EC5
330
1F
100
AcDbEntity
  8
freecads.com
100
AcDbLine
 10
105021.2896375252
 20
95052.5120549268
 30
0.0
 11
105021.3013631588
 21
95052.51423393422
 31
0.0
  0
LINE
  5
52EC6
330
1F
100
AcDbEntity
  8
freecads.com
100
AcDbLine
 10
105021.3013631588
 20
95052.51423393422
 30
0.0
 11
105021.3109154872
 21
95052.51600907028
 31
0.0
  0
LINE
  5
52EC7
330
1F
100
AcDbEntity
  8
freecads.com
100
AcDbLine
 10
105021.3109154872
 20
95052.51600907028
 30
0.0
 11
105021.31403693
 21
95052.51658913676
 31
0.0
  0
LINE
  5
52EC8
330
1F
100
AcDbEntity
  8
freecads.com
100
AcDbLine
 10
105021.31403693
 20
95052.51658913676
 30
0.0
 11
105021.3263393808
 21
95052.51876873693
 31
0.0
  0
LINE
  5
52EC9
330
1F
100
AcDbEntity
  8
freecads.com
100
AcDbLine
 10
105021.3263393808
 20
95052.51876873693
 30
0.0
 11
105021.3359005614
 21
95052.5204626718
 31
0.0
  0
LINE
  5
52ECA
330
1F
100
AcDbEntity
  8
freecads.com
100
AcDbLine
 10
105021.3359005614
 20
95052.5204626718
 30
0.0
 11
105021.338438982
 21
95052.52091239862
 31
0.0
  0
LINE
  5
52ECB
330
1F
100
AcDbEntity
  8
freecads.com
100
AcDbLine
 10
105021.338438982
 20
95052.52091239862
 30
0.0
 11
105021.3513182478
 21
95052.52308261926
 31
0.0
  0
LINE
  5
52ECC
330
1F
100
AcDbEntity
  8
freecads.com
100
AcDbLine
 10
105021.3513182478
 20
95052.52308261926
 30
0.0
 11
105021.3608881998
 21
95052.52469520398
 31
0.0
  0
LINE
  5
52ECD
330
1F
100
AcDbEntity
  8
freecads.com
100
AcDbLine
 10
105021.3608881998
 20
95052.52469520398
 30
0.0
 11
105021.3628436812
 21
95052.52502471236
 31
0.0
  0
LINE
  5
52ECE
330
1F
100
AcDbEntity
  8
freecads.com
100
AcDbLine
 10
105021.3628436812
 20
95052.52502471236
 30
0.0
 11
105021.3763003481
 21
95052.52717521891
 31
0.0
  0
LINE
  5
52ECF
330
1F
100
AcDbEntity
  8
freecads.com
100
AcDbLine
 10
105021.3763003481
 20
95052.52717521891
 30
0.0
 11
105021.3858801842
 21
95052.52870617013
 31
0.0
  0
LINE
  5
52ED0
330
1F
100
AcDbEntity
  8
freecads.com
100
AcDbLine
 10
105021.3858801842
 20
95052.52870617013
 30
0.0
 11
105021.3872515097
 21
95052.52892532132
 31
0.0
  0
LINE
  5
52ED1
330
1F
100
AcDbEntity
  8
freecads.com
100
AcDbLine
 10
105021.3872515097
 20
95052.52892532132
 30
0.0
 11
105021.4012857581
 21
95052.53104622211
 31
0.0
  0
LINE
  5
52ED2
330
1F
100
AcDbEntity
  8
freecads.com
100
AcDbLine
 10
105021.4012857581
 20
95052.53104622211
 30
0.0
 11
105021.4108761485
 21
95052.53249555277
 31
0.0
  0
LINE
  5
52ED3
330
1F
100
AcDbEntity
  8
freecads.com
100
AcDbLine
 10
105021.4108761485
 20
95052.53249555277
 30
0.0
 11
105021.4116625307
 21
95052.53261439339
 31
0.0
  0
LINE
  5
52ED4
330
1F
100
AcDbEntity
  8
freecads.com
100
AcDbLine
 10
105021.4116625307
 20
95052.53261439339
 30
0.0
 11
105021.4262752749
 21
95052.5346951149
 31
0.0
  0
LINE
  5
52ED5
330
1F
100
AcDbEntity
  8
freecads.com
100
AcDbLine
 10
105021.4262752749
 20
95052.5346951149
 30
0.0
 11
105021.4358759014
 21
95052.53606215655
 31
0.0
  0
LINE
  5
52ED6
330
1F
100
AcDbEntity
  8
freecads.com
100
AcDbLine
 10
105021.4358759014
 20
95052.53606215655
 30
0.0
 11
105021.436077898
 21
95052.53609091901
 31
0.0
  0
LINE
  5
52ED7
330
1F
100
AcDbEntity
  8
freecads.com
100
AcDbLine
 10
105021.436077898
 20
95052.53609091901
 30
0.0
 11
105021.4512694008
 21
95052.5381215543
 31
0.0
  0
LINE
  5
52ED8
330
1F
100
AcDbEntity
  8
freecads.com
100
AcDbLine
 10
105021.4512694008
 20
95052.5381215543
 30
0.0
 11
105021.4604968767
 21
95052.53935498314
 31
0.0
  0
LINE
  5
52ED9
330
1F
100
AcDbEntity
  8
freecads.com
100
AcDbLine
 10
105021.4604968767
 20
95052.53935498314
 30
0.0
 11
105021.4608723252
 21
95052.53940189543
 31
0.0
  0
LINE
  5
52EDA
330
1F
100
AcDbEntity
  8
freecads.com
100
AcDbLine
 10
105021.4608723252
 20
95052.53940189543
 30
0.0
 11
105021.4762668246
 21
95052.54132543814
 31
0.0
  0
LINE
  5
52EDB
330
1F
100
AcDbEntity
  8
freecads.com
100
AcDbLine
 10
105021.4762668246
 20
95052.54132543814
 30
0.0
 11
105021.4849194667
 21
95052.54240658578
 31
0.0
  0
LINE
  5
52EDC
330
1F
100
AcDbEntity
  8
freecads.com
100
AcDbLine
 10
105021.4849194667
 20
95052.54240658578
 30
0.0
 11
105021.4858691213
 21
95052.54251693578
 31
0.0
  0
LINE
  5
52EDD
330
1F
100
AcDbEntity
  8
freecads.com
100
AcDbLine
 10
105021.4858691213
 20
95052.54251693578
 30
0.0
 11
105021.5012686127
 21
95052.54430635913
 31
0.0
  0
LINE
  5
52EDE
330
1F
100
AcDbEntity
  8
freecads.com
100
AcDbLine
 10
105021.5012686127
 20
95052.54430635913
 30
0.0
 11
105021.5093461501
 21
95052.54524497022
 31
0.0
  0
LINE
  5
52EDF
330
1F
100
AcDbEntity
  8
freecads.com
100
AcDbLine
 10
105021.5093461501
 20
95052.54524497022
 30
0.0
 11
105021.5108686939
 21
95052.54540856245
 31
0.0
  0
LINE
  5
52EE0
330
1F
100
AcDbEntity
  8
freecads.com
100
AcDbLine
 10
105021.5108686939
 20
95052.54540856245
 30
0.0
 11
105021.526274465
 21
95052.54706386095
 31
0.0
  0
LINE
  5
52EE1
330
1F
100
AcDbEntity
  8
freecads.com
100
AcDbLine
 10
105021.526274465
 20
95052.54706386095
 30
0.0
 11
105021.5337768637
 21
95052.54786996854
 31
0.0
  0
LINE
  5
52EE2
330
1F
100
AcDbEntity
  8
freecads.com
100
AcDbLine
 10
105021.5337768637
 20
95052.54786996854
 30
0.0
 11
105021.5358726448
 21
95052.54807682732
 31
0.0
  0
LINE
  5
52EE3
330
1F
100
AcDbEntity
  8
freecads.com
100
AcDbLine
 10
105021.5358726448
 20
95052.54807682732
 30
0.0
 11
105021.5512843685
 21
95052.54959800259
 31
0.0
  0
LINE
  5
52EE4
330
1F
100
AcDbEntity
  8
freecads.com
100
AcDbLine
 10
105021.5512843685
 20
95052.54959800259
 30
0.0
 11
105021.5582108726
 21
95052.55028166567
 31
0.0
  0
LINE
  5
52EE5
330
1F
100
AcDbEntity
  8
freecads.com
100
AcDbLine
 10
105021.5582108726
 20
95052.55028166567
 30
0.0
 11
105021.5608816392
 21
95052.55052191186
 31
0.0
  0
LINE
  5
52EE6
330
1F
100
AcDbEntity
  8
freecads.com
100
AcDbLine
 10
105021.5608816392
 20
95052.55052191186
 30
0.0
 11
105021.5762979918
 21
95052.55190867476
 31
0.0
  0
LINE
  5
52EE7
330
1F
100
AcDbEntity
  8
freecads.com
100
AcDbLine
 10
105021.5762979918
 20
95052.55190867476
 30
0.0
 11
105021.5826481135
 21
95052.55247989373
 31
0.0
  0
LINE
  5
52EE8
330
1F
100
AcDbEntity
  8
freecads.com
100
AcDbLine
 10
105021.5826481135
 20
95052.55247989373
 30
0.0
 11
105021.5858948849
 21
95052.55274349226
 31
0.0
  0
LINE
  5
52EE9
330
1F
100
AcDbEntity
  8
freecads.com
100
AcDbLine
 10
105021.5858948849
 20
95052.55274349226
 30
0.0
 11
105021.6013146772
 21
95052.55399539272
 31
0.0
  0
LINE
  5
52EEA
330
1F
100
AcDbEntity
  8
freecads.com
100
AcDbLine
 10
105021.6013146772
 20
95052.55399539272
 30
0.0
 11
105021.6070883967
 21
95052.55446414883
 31
0.0
  0
LINE
  5
52EEB
330
1F
100
AcDbEntity
  8
freecads.com
100
AcDbLine
 10
105021.6070883967
 20
95052.55446414883
 30
0.0
 11
105021.6109098919
 21
95052.55474089107
 31
0.0
  0
LINE
  5
52EEC
330
1F
100
AcDbEntity
  8
freecads.com
100
AcDbLine
 10
105021.6109098919
 20
95052.55474089107
 30
0.0
 11
105021.6263347666
 21
95052.55585791838
 31
0.0
  0
LINE
  5
52EED
330
1F
100
AcDbEntity
  8
freecads.com
100
AcDbLine
 10
105021.6263347666
 20
95052.55585791838
 30
0.0
 11
105021.6315316591
 21
95052.55623426313
 31
0.0
  0
LINE
  5
52EEE
330
1F
100
AcDbEntity
  8
freecads.com
100
AcDbLine
 10
105021.6315316591
 20
95052.55623426313
 30
0.0
 11
105021.6359292542
 21
95052.55651410571
 31
0.0
  0
LINE
  5
52EEF
330
1F
100
AcDbEntity
  8
freecads.com
100
AcDbLine
 10
105021.6359292542
 20
95052.55651410571
 30
0.0
 11
105021.651357305
 21
95052.55749587544
 31
0.0
  0
LINE
  5
52EF0
330
1F
100
AcDbEntity
  8
freecads.com
100
AcDbLine
 10
105021.651357305
 20
95052.55749587544
 30
0.0
 11
105021.6559777741
 21
95052.55778990068
 31
0.0
  0
LINE
  5
52EF1
330
1F
100
AcDbEntity
  8
freecads.com
100
AcDbLine
 10
105021.6559777741
 20
95052.55778990068
 30
0.0
 11
105021.6609499753
 21
95052.55806277123
 31
0.0
  0
LINE
  5
52EF2
330
1F
100
AcDbEntity
  8
freecads.com
100
AcDbLine
 10
105021.6609499753
 20
95052.55806277123
 30
0.0
 11
105021.6763821919
 21
95052.55890967928
 31
0.0
  0
LINE
  5
52EF3
330
1F
100
AcDbEntity
  8
freecads.com
100
AcDbLine
 10
105021.6763821919
 20
95052.55890967928
 30
0.0
 11
105021.6804253984
 21
95052.55913156732
 31
0.0
  0
LINE
  5
52EF4
330
1F
100
AcDbEntity
  8
freecads.com
100
AcDbLine
 10
105021.6804253984
 20
95052.55913156732
 30
0.0
 11
105021.6859735447
 21
95052.55938735855
 31
0.0
  0
LINE
  5
52EF5
330
1F
100
AcDbEntity
  8
freecads.com
100
AcDbLine
 10
105021.6859735447
 20
95052.55938735855
 30
0.0
 11
105021.7014089185
 21
95052.56009898962
 31
0.0
  0
LINE
  5
52EF6
330
1F
100
AcDbEntity
  8
freecads.com
100
AcDbLine
 10
105021.7014089185
 20
95052.56009898962
 30
0.0
 11
105021.7048743421
 21
95052.56025875921
 31
0.0
  0
LINE
  5
52EF7
330
1F
100
AcDbEntity
  8
freecads.com
100
AcDbLine
 10
105021.7048743421
 20
95052.56025875921
 30
0.0
 11
105021.710998885
 21
95052.56048730265
 31
0.0
  0
LINE
  5
52EF8
330
1F
100
AcDbEntity
  8
freecads.com
100
AcDbLine
 10
105021.710998885
 20
95052.56048730265
 30
0.0
 11
105021.7264365221
 21
95052.56106337348
 31
0.0
  0
LINE
  5
52EF9
330
1F
100
AcDbEntity
  8
freecads.com
100
AcDbLine
 10
105021.7264365221
 20
95052.56106337348
 30
0.0
 11
105021.729324479
 21
95052.56117114049
 31
0.0
  0
LINE
  5
52EFA
330
1F
100
AcDbEntity
  8
freecads.com
100
AcDbLine
 10
105021.729324479
 20
95052.56117114049
 30
0.0
 11
105021.7360245447
 21
95052.56136233183
 31
0.0
  0
LINE
  5
52EFB
330
1F
100
AcDbEntity
  8
freecads.com
100
AcDbLine
 10
105021.7360245447
 20
95052.56136233183
 30
0.0
 11
105021.7514645168
 21
95052.56180292287
 31
0.0
  0
LINE
  5
52EFC
330
1F
100
AcDbEntity
  8
freecads.com
100
AcDbLine
 10
105021.7514645168
 20
95052.56180292287
 30
0.0
 11
105021.7537758721
 21
95052.5618688791
 31
0.0
  0
LINE
  5
52EFD
330
1F
100
AcDbEntity
  8
freecads.com
100
AcDbLine
 10
105021.7537758721
 20
95052.5618688791
 30
0.0
 11
105021.7610503824
 21
95052.5620126363
 31
0.0
  0
LINE
  5
52EFE
330
1F
100
AcDbEntity
  8
freecads.com
100
AcDbLine
 10
105021.7610503824
 20
95052.5620126363
 30
0.0
 11
105021.7764932925
 21
95052.56231781558
 31
0.0
  0
LINE
  5
52EFF
330
1F
100
AcDbEntity
  8
freecads.com
100
AcDbLine
 10
105021.7764932925
 20
95052.56231781558
 30
0.0
 11
105021.7782262535
 21
95052.56235206196
 31
0.0
  0
LINE
  5
52F00
330
1F
100
AcDbEntity
  8
freecads.com
100
AcDbLine
 10
105021.7782262535
 20
95052.56235206196
 30
0.0
 11
105021.7854656646
 21
95052.56243324652
 31
0.0
  0
LINE
  5
52F01
330
1F
100
AcDbEntity
  8
freecads.com
100
AcDbLine
 10
105021.7854656646
 20
95052.56243324652
 30
0.0
 11
105021.7999560519
 21
95052.56259574528
 31
0.0
  0
LINE
  5
52F02
330
1F
100
AcDbEntity
  8
freecads.com
100
AcDbLine
 10
105021.7999560519
 20
95052.56259574528
 30
0.0
 11
105021.8022448718
 21
95052.56262141267
 31
0.0
  0
LINE
  5
52F03
330
1F
100
AcDbEntity
  8
freecads.com
100
AcDbLine
 10
105021.8022448718
 20
95052.56262141267
 30
0.0
 11
105021.8077220478
 21
95052.56263471713
 31
0.0
  0
LINE
  5
52F04
330
1F
100
AcDbEntity
  8
freecads.com
100
AcDbLine
 10
105021.8077220478
 20
95052.56263471713
 30
0.0
 11
105021.8202877087
 21
95052.56266524005
 31
0.0
  0
LINE
  5
52F05
330
1F
100
AcDbEntity
  8
freecads.com
100
AcDbLine
 10
105021.8202877087
 20
95052.56266524005
 30
0.0
 11
105021.8253994424
 21
95052.56267765682
 31
0.0
  0
LINE
  5
52F06
330
1F
100
AcDbEntity
  8
freecads.com
100
AcDbLine
 10
105021.8253994424
 20
95052.56267765682
 30
0.0
 11
105021.8266900756
 21
95052.56273243091
 31
0.0
  0
LINE
  5
52F07
330
1F
100
AcDbEntity
  8
freecads.com
100
AcDbLine
 10
105021.8266900756
 20
95052.56273243091
 30
0.0
 11
105021.835357505
 21
95052.56310027393
 31
0.0
  0
LINE
  5
52F08
330
1F
100
AcDbEntity
  8
freecads.com
100
AcDbLine
 10
105021.835357505
 20
95052.56310027393
 30
0.0
 11
105021.8408474993
 21
95052.56333326761
 31
0.0
  0
LINE
  5
52F09
330
1F
100
AcDbEntity
  8
freecads.com
100
AcDbLine
 10
105021.8408474993
 20
95052.56333326761
 30
0.0
 11
105021.842881359
 21
95052.56341958398
 31
0.0
  0
LINE
  5
52F0A
330
1F
100
AcDbEntity
  8
freecads.com
100
AcDbLine
 10
105021.842881359
 20
95052.56341958398
 30
0.0
 11
105021.8430328533
 21
95052.5634699305
 31
0.0
  0
LINE
  5
52F0B
330
1F
100
AcDbEntity
  8
freecads.com
100
AcDbLine
 10
105021.8430328533
 20
95052.5634699305
 30
0.0
 11
105021.8441235302
 21
95052.56383239807
 31
0.0
  0
LINE
  5
52F0C
330
1F
100
AcDbEntity
  8
freecads.com
100
AcDbLine
 10
105021.8441235302
 20
95052.56383239807
 30
0.0
 11
105021.8460300332
 21
95052.5644659913
 31
0.0
  0
LINE
  5
52F0D
330
1F
100
AcDbEntity
  8
freecads.com
100
AcDbLine
 10
105021.8460300332
 20
95052.5644659913
 30
0.0
 11
105021.8489416301
 21
95052.56543361007
 31
0.0
  0
LINE
  5
52F0E
330
1F
100
AcDbEntity
  8
freecads.com
100
AcDbLine
 10
105021.8489416301
 20
95052.56543361007
 30
0.0
 11
105021.8498820781
 21
95052.56574615168
 31
0.0
  0
LINE
  5
52F0F
330
1F
100
AcDbEntity
  8
freecads.com
100
AcDbLine
 10
105021.8498820781
 20
95052.56574615168
 30
0.0
 11
105021.8501131335
 21
95052.56595145231
 31
0.0
  0
LINE
  5
52F10
330
1F
100
AcDbEntity
  8
freecads.com
100
AcDbLine
 10
105021.8501131335
 20
95052.56595145231
 30
0.0
 11
105021.850113392
 21
95052.565951682
 31
0.0
  0
LINE
  5
52F11
330
1F
100
AcDbEntity
  8
freecads.com
100
AcDbLine
 10
105020.5238529921
 20
95051.82179375511
 30
0.0
 11
105020.5504900489
 21
95051.72923665275
 31
0.0
  0
LINE
  5
52F12
330
1F
100
AcDbEntity
  8
freecads.com
100
AcDbLine
 10
105020.5504900489
 20
95051.72923665275
 30
0.0
 11
105020.5506033761
 21
95051.72887284086
 31
0.0
  0
LINE
  5
52F13
330
1F
100
AcDbEntity
  8
freecads.com
100
AcDbLine
 10
105020.5506033761
 20
95051.72887284086
 30
0.0
 11
105020.5506050536
 21
95051.72885257028
 31
0.0
  0
LINE
  5
52F14
330
1F
100
AcDbEntity
  8
freecads.com
100
AcDbLine
 10
105020.5506050536
 20
95051.72885257028
 30
0.0
 11
105020.5506938568
 21
95051.72853930877
 31
0.0
  0
LINE
  5
52F15
330
1F
100
AcDbEntity
  8
freecads.com
100
AcDbLine
 10
105020.5506938568
 20
95051.72853930877
 30
0.0
 11
105020.5508195309
 21
95051.72817892368
 31
0.0
  0
LINE
  5
52F16
330
1F
100
AcDbEntity
  8
freecads.com
100
AcDbLine
 10
105020.5508195309
 20
95051.72817892368
 30
0.0
 11
105020.5509626207
 21
95051.72762433046
 31
0.0
  0
LINE
  5
52F17
330
1F
100
AcDbEntity
  8
freecads.com
100
AcDbLine
 10
105020.5509626207
 20
95051.72762433046
 30
0.0
 11
105020.551011478
 21
95051.72748635986
 31
0.0
  0
LINE
  5
52F18
330
1F
100
AcDbEntity
  8
freecads.com
100
AcDbLine
 10
105020.551011478
 20
95051.72748635986
 30
0.0
 11
105020.5512492969
 21
95051.72669813987
 31
0.0
  0
LINE
  5
52F19
330
1F
100
AcDbEntity
  8
freecads.com
100
AcDbLine
 10
105020.5512492969
 20
95051.72669813987
 30
0.0
 11
105020.5513275694
 21
95051.72637665252
 31
0.0
  0
LINE
  5
52F1A
330
1F
100
AcDbEntity
  8
freecads.com
100
AcDbLine
 10
105020.5513275694
 20
95051.72637665252
 30
0.0
 11
105020.5513602119
 21
95051.72632915657
 31
0.0
  0
LINE
  5
52F1B
330
1F
100
AcDbEntity
  8
freecads.com
100
AcDbLine
 10
105020.5513602119
 20
95051.72632915657
 30
0.0
 11
105020.5513675829
 21
95051.72630453609
 31
0.0
  0
LINE
  5
52F1C
330
1F
100
AcDbEntity
  8
freecads.com
100
AcDbLine
 10
105020.5513675829
 20
95051.72630453609
 30
0.0
 11
105020.5513840519
 21
95051.72624984782
 31
0.0
  0
LINE
  5
52F1D
330
1F
100
AcDbEntity
  8
freecads.com
100
AcDbLine
 10
105020.5513840519
 20
95051.72624984782
 30
0.0
 11
105020.551393267
 21
95051.7262190705
 31
0.0
  0
LINE
  5
52F1E
330
1F
100
AcDbEntity
  8
freecads.com
100
AcDbLine
 10
105020.551393267
 20
95051.7262190705
 30
0.0
 11
105020.5514050749
 21
95051.72617991021
 31
0.0
  0
LINE
  5
52F1F
330
1F
100
AcDbEntity
  8
freecads.com
100
AcDbLine
 10
105020.5514050749
 20
95051.72617991021
 30
0.0
 11
105020.5514211115
 21
95051.72612573815
 31
0.0
  0
LINE
  5
52F20
330
1F
100
AcDbEntity
  8
freecads.com
100
AcDbLine
 10
105020.5514211115
 20
95051.72612573815
 30
0.0
 11
105020.5514591781
 21
95051.72599917248
 31
0.0
  0
LINE
  5
52F21
330
1F
100
AcDbEntity
  8
freecads.com
100
AcDbLine
 10
105020.5514591781
 20
95051.72599917248
 30
0.0
 11
105020.5514681591
 21
95051.72597004683
 31
0.0
  0
LINE
  5
52F22
330
1F
100
AcDbEntity
  8
freecads.com
100
AcDbLine
 10
105020.5514681591
 20
95051.72597004683
 30
0.0
 11
105020.5515304281
 21
95051.72576208618
 31
0.0
  0
LINE
  5
52F23
330
1F
100
AcDbEntity
  8
freecads.com
100
AcDbLine
 10
105020.5515304281
 20
95051.72576208618
 30
0.0
 11
105020.5515444109
 21
95051.72571578691
 31
0.0
  0
LINE
  5
52F24
330
1F
100
AcDbEntity
  8
freecads.com
100
AcDbLine
 10
105020.5515444109
 20
95051.72571578691
 30
0.0
 11
105020.5515585592
 21
95051.7256685055
 31
0.0
  0
LINE
  5
52F25
330
1F
100
AcDbEntity
  8
freecads.com
100
AcDbLine
 10
105020.5515585592
 20
95051.7256685055
 30
0.0
 11
105020.5516247224
 21
95051.72544603906
 31
0.0
  0
LINE
  5
52F26
330
1F
100
AcDbEntity
  8
freecads.com
100
AcDbLine
 10
105020.5516247224
 20
95051.72544603906
 30
0.0
 11
105020.5516344158
 21
95051.72541500533
 31
0.0
  0
LINE
  5
52F27
330
1F
100
AcDbEntity
  8
freecads.com
100
AcDbLine
 10
105020.5516344158
 20
95051.72541500533
 30
0.0
 11
105020.5517081094
 21
95051.72516868213
 31
0.0
  0
LINE
  5
52F28
330
1F
100
AcDbEntity
  8
freecads.com
100
AcDbLine
 10
105020.5517081094
 20
95051.72516868213
 30
0.0
 11
105020.5517141003
 21
95051.72514757781
 31
0.0
  0
LINE
  5
52F29
330
1F
100
AcDbEntity
  8
freecads.com
100
AcDbLine
 10
105020.5517141003
 20
95051.72514757781
 30
0.0
 11
105020.5517512778
 21
95051.72502382672
 31
0.0
  0
LINE
  5
52F2A
330
1F
100
AcDbEntity
  8
freecads.com
100
AcDbLine
 10
105020.5517512778
 20
95051.72502382672
 30
0.0
 11
105020.5517553413
 21
95051.72495021838
 31
0.0
  0
LINE
  5
52F2B
330
1F
100
AcDbEntity
  8
freecads.com
100
AcDbLine
 10
105020.5517553413
 20
95051.72495021838
 30
0.0
 11
105020.5517809652
 21
95051.7249242082
 31
0.0
  0
LINE
  5
52F2C
330
1F
100
AcDbEntity
  8
freecads.com
100
AcDbLine
 10
105020.5517809652
 20
95051.7249242082
 30
0.0
 11
105020.5518369407
 21
95051.72474897882
 31
0.0
  0
LINE
  5
52F2D
330
1F
100
AcDbEntity
  8
freecads.com
100
AcDbLine
 10
105020.5518369407
 20
95051.72474897882
 30
0.0
 11
105020.5518585233
 21
95051.72471055923
 31
0.0
  0
LINE
  5
52F2E
330
1F
100
AcDbEntity
  8
freecads.com
100
AcDbLine
 10
105020.5518585233
 20
95051.72471055923
 30
0.0
 11
105020.5519373884
 21
95051.72440847388
 31
0.0
  0
LINE
  5
52F2F
330
1F
100
AcDbEntity
  8
freecads.com
100
AcDbLine
 10
105020.5519373884
 20
95051.72440847388
 30
0.0
 11
105020.5519946963
 21
95051.72415349296
 31
0.0
  0
LINE
  5
52F30
330
1F
100
AcDbEntity
  8
freecads.com
100
AcDbLine
 10
105020.5519946963
 20
95051.72415349296
 30
0.0
 11
105020.5520344345
 21
95051.72408129775
 31
0.0
  0
LINE
  5
52F31
330
1F
100
AcDbEntity
  8
freecads.com
100
AcDbLine
 10
105020.5520344345
 20
95051.72408129775
 30
0.0
 11
105020.5521220915
 21
95051.72379386307
 31
0.0
  0
LINE
  5
52F32
330
1F
100
AcDbEntity
  8
freecads.com
100
AcDbLine
 10
105020.5521220915
 20
95051.72379386307
 30
0.0
 11
105020.5521440716
 21
95051.72365397118
 31
0.0
  0
LINE
  5
52F33
330
1F
100
AcDbEntity
  8
freecads.com
100
AcDbLine
 10
105020.5521440716
 20
95051.72365397118
 30
0.0
 11
105020.5525781696
 21
95051.72227735485
 31
0.0
  0
LINE
  5
52F34
330
1F
100
AcDbEntity
  8
freecads.com
100
AcDbLine
 10
105020.5525781696
 20
95051.72227735485
 30
0.0
 11
105020.5526161112
 21
95051.72207543745
 31
0.0
  0
LINE
  5
52F35
330
1F
100
AcDbEntity
  8
freecads.com
100
AcDbLine
 10
105020.5526161112
 20
95051.72207543745
 30
0.0
 11
105020.5526516085
 21
95051.72203186344
 31
0.0
  0
LINE
  5
52F36
330
1F
100
AcDbEntity
  8
freecads.com
100
AcDbLine
 10
105020.5526516085
 20
95051.72203186344
 30
0.0
 11
105020.5528726926
 21
95051.72129755992
 31
0.0
  0
LINE
  5
52F37
330
1F
100
AcDbEntity
  8
freecads.com
100
AcDbLine
 10
105020.5528726926
 20
95051.72129755992
 30
0.0
 11
105020.552911399
 21
95051.72112017184
 31
0.0
  0
LINE
  5
52F38
330
1F
100
AcDbEntity
  8
freecads.com
100
AcDbLine
 10
105020.552911399
 20
95051.72112017184
 30
0.0
 11
105020.5529433003
 21
95051.72098129445
 31
0.0
  0
LINE
  5
52F39
330
1F
100
AcDbEntity
  8
freecads.com
100
AcDbLine
 10
105020.5529433003
 20
95051.72098129445
 30
0.0
 11
105020.553029452
 21
95051.72077237386
 31
0.0
  0
LINE
  5
52F3A
330
1F
100
AcDbEntity
  8
freecads.com
100
AcDbLine
 10
105020.553029452
 20
95051.72077237386
 30
0.0
 11
105020.5530763353
 21
95051.72056163928
 31
0.0
  0
LINE
  5
52F3B
330
1F
100
AcDbEntity
  8
freecads.com
100
AcDbLine
 10
105020.5530763353
 20
95051.72056163928
 30
0.0
 11
105020.5531657335
 21
95051.72032269523
 31
0.0
  0
LINE
  5
52F3C
330
1F
100
AcDbEntity
  8
freecads.com
100
AcDbLine
 10
105020.5531657335
 20
95051.72032269523
 30
0.0
 11
105020.5532386452
 21
95051.72007846356
 31
0.0
  0
LINE
  5
52F3D
330
1F
100
AcDbEntity
  8
freecads.com
100
AcDbLine
 10
105020.5532386452
 20
95051.72007846356
 30
0.0
 11
105020.5532788933
 21
95051.7199445359
 31
0.0
  0
LINE
  5
52F3E
330
1F
100
AcDbEntity
  8
freecads.com
100
AcDbLine
 10
105020.5532788933
 20
95051.7199445359
 30
0.0
 11
105020.553291457
 21
95051.71982557016
 31
0.0
  0
LINE
  5
52F3F
330
1F
100
AcDbEntity
  8
freecads.com
100
AcDbLine
 10
105020.553291457
 20
95051.71982557016
 30
0.0
 11
105020.5533017246
 21
95051.71979136433
 31
0.0
  0
LINE
  5
52F40
330
1F
100
AcDbEntity
  8
freecads.com
100
AcDbLine
 10
105020.5533017246
 20
95051.71979136433
 30
0.0
 11
105020.5533869286
 21
95051.71958626542
 31
0.0
  0
LINE
  5
52F41
330
1F
100
AcDbEntity
  8
freecads.com
100
AcDbLine
 10
105020.5533869286
 20
95051.71958626542
 30
0.0
 11
105020.5534608097
 21
95051.71934049307
 31
0.0
  0
LINE
  5
52F42
330
1F
100
AcDbEntity
  8
freecads.com
100
AcDbLine
 10
105020.5534608097
 20
95051.71934049307
 30
0.0
 11
105020.5534491452
 21
95051.71930211608
 31
0.0
  0
LINE
  5
52F43
330
1F
100
AcDbEntity
  8
freecads.com
100
AcDbLine
 10
105020.5534491452
 20
95051.71930211608
 30
0.0
 11
105020.5534608748
 21
95051.71926300311
 31
0.0
  0
LINE
  5
52F44
330
1F
100
AcDbEntity
  8
freecads.com
100
AcDbLine
 10
105020.5534608748
 20
95051.71926300311
 30
0.0
 11
105020.5536736344
 21
95051.71857237137
 31
0.0
  0
LINE
  5
52F45
330
1F
100
AcDbEntity
  8
freecads.com
100
AcDbLine
 10
105020.5536736344
 20
95051.71857237137
 30
0.0
 11
105020.5536927125
 21
95051.71851480456
 31
0.0
  0
LINE
  5
52F46
330
1F
100
AcDbEntity
  8
freecads.com
100
AcDbLine
 10
105020.5536927125
 20
95051.71851480456
 30
0.0
 11
105020.5540463407
 21
95051.71731072788
 31
0.0
  0
LINE
  5
52F47
330
1F
100
AcDbEntity
  8
freecads.com
100
AcDbLine
 10
105020.5540463407
 20
95051.71731072788
 30
0.0
 11
105020.5540903625
 21
95051.71724432324
 31
0.0
  0
LINE
  5
52F48
330
1F
100
AcDbEntity
  8
freecads.com
100
AcDbLine
 10
105020.5540903625
 20
95051.71724432324
 30
0.0
 11
105020.554120525
 21
95051.71714637318
 31
0.0
  0
LINE
  5
52F49
330
1F
100
AcDbEntity
  8
freecads.com
100
AcDbLine
 10
105020.554120525
 20
95051.71714637318
 30
0.0
 11
105020.5542079908
 21
95051.71685539888
 31
0.0
  0
LINE
  5
52F4A
330
1F
100
AcDbEntity
  8
freecads.com
100
AcDbLine
 10
105020.5542079908
 20
95051.71685539888
 30
0.0
 11
105020.5542553594
 21
95051.71663860267
 31
0.0
  0
LINE
  5
52F4B
330
1F
100
AcDbEntity
  8
freecads.com
100
AcDbLine
 10
105020.5542553594
 20
95051.71663860267
 30
0.0
 11
105020.5544896401
 21
95051.7158684067
 31
0.0
  0
LINE
  5
52F4C
330
1F
100
AcDbEntity
  8
freecads.com
100
AcDbLine
 10
105020.5544896401
 20
95051.7158684067
 30
0.0
 11
105020.5545604298
 21
95051.71568250485
 31
0.0
  0
LINE
  5
52F4D
330
1F
100
AcDbEntity
  8
freecads.com
100
AcDbLine
 10
105020.5545604298
 20
95051.71568250485
 30
0.0
 11
105020.5550152477
 21
95051.71416988268
 31
0.0
  0
LINE
  5
52F4E
330
1F
100
AcDbEntity
  8
freecads.com
100
AcDbLine
 10
105020.5550152477
 20
95051.71416988268
 30
0.0
 11
105020.5550838741
 21
95051.71387482102
 31
0.0
  0
LINE
  5
52F4F
330
1F
100
AcDbEntity
  8
freecads.com
100
AcDbLine
 10
105020.5550838741
 20
95051.71387482102
 30
0.0
 11
105020.5550934778
 21
95051.71384366947
 31
0.0
  0
LINE
  5
52F50
330
1F
100
AcDbEntity
  8
freecads.com
100
AcDbLine
 10
105020.5550934778
 20
95051.71384366947
 30
0.0
 11
105020.5551281147
 21
95051.71372831339
 31
0.0
  0
LINE
  5
52F51
330
1F
100
AcDbEntity
  8
freecads.com
100
AcDbLine
 10
105020.5551281147
 20
95051.71372831339
 30
0.0
 11
105020.5551507658
 21
95051.71365349923
 31
0.0
  0
LINE
  5
52F52
330
1F
100
AcDbEntity
  8
freecads.com
100
AcDbLine
 10
105020.5551507658
 20
95051.71365349923
 30
0.0
 11
105020.5551838401
 21
95051.71360902343
 31
0.0
  0
LINE
  5
52F53
330
1F
100
AcDbEntity
  8
freecads.com
100
AcDbLine
 10
105020.5551838401
 20
95051.71360902343
 30
0.0
 11
105020.555177956
 21
95051.71356323961
 31
0.0
  0
LINE
  5
52F54
330
1F
100
AcDbEntity
  8
freecads.com
100
AcDbLine
 10
105020.555177956
 20
95051.71356323961
 30
0.0
 11
105020.5552225106
 21
95051.71341533857
 31
0.0
  0
LINE
  5
52F55
330
1F
100
AcDbEntity
  8
freecads.com
100
AcDbLine
 10
105020.5552225106
 20
95051.71341533857
 30
0.0
 11
105020.5555562614
 21
95051.71237121016
 31
0.0
  0
LINE
  5
52F56
330
1F
100
AcDbEntity
  8
freecads.com
100
AcDbLine
 10
105020.5555562614
 20
95051.71237121016
 30
0.0
 11
105020.5555544333
 21
95051.71232022476
 31
0.0
  0
LINE
  5
52F57
330
1F
100
AcDbEntity
  8
freecads.com
100
AcDbLine
 10
105020.5555544333
 20
95051.71232022476
 30
0.0
 11
105020.5557562427
 21
95051.71170608575
 31
0.0
  0
LINE
  5
52F58
330
1F
100
AcDbEntity
  8
freecads.com
100
AcDbLine
 10
105020.5557562427
 20
95051.71170608575
 30
0.0
 11
105020.5557749806
 21
95051.71159177839
 31
0.0
  0
LINE
  5
52F59
330
1F
100
AcDbEntity
  8
freecads.com
100
AcDbLine
 10
105020.5557749806
 20
95051.71159177839
 30
0.0
 11
105020.555822344
 21
95051.71148463036
 31
0.0
  0
LINE
  5
52F5A
330
1F
100
AcDbEntity
  8
freecads.com
100
AcDbLine
 10
105020.555822344
 20
95051.71148463036
 30
0.0
 11
105020.5558403851
 21
95051.71142461495
 31
0.0
  0
LINE
  5
52F5B
330
1F
100
AcDbEntity
  8
freecads.com
100
AcDbLine
 10
105020.5558403851
 20
95051.71142461495
 30
0.0
 11
105020.5558714975
 21
95051.71126624071
 31
0.0
  0
LINE
  5
52F5C
330
1F
100
AcDbEntity
  8
freecads.com
100
AcDbLine
 10
105020.5558714975
 20
95051.71126624071
 30
0.0
 11
105020.5559210153
 21
95051.71115794862
 31
0.0
  0
LINE
  5
52F5D
330
1F
100
AcDbEntity
  8
freecads.com
100
AcDbLine
 10
105020.5559210153
 20
95051.71115794862
 30
0.0
 11
105020.5559822567
 21
95051.71089332218
 31
0.0
  0
LINE
  5
52F5E
330
1F
100
AcDbEntity
  8
freecads.com
100
AcDbLine
 10
105020.5559822567
 20
95051.71089332218
 30
0.0
 11
105020.5560430781
 21
95051.71075058067
 31
0.0
  0
LINE
  5
52F5F
330
1F
100
AcDbEntity
  8
freecads.com
100
AcDbLine
 10
105020.5560430781
 20
95051.71075058067
 30
0.0
 11
105020.5560601472
 21
95051.7106937966
 31
0.0
  0
LINE
  5
52F60
330
1F
100
AcDbEntity
  8
freecads.com
100
AcDbLine
 10
105020.5560601472
 20
95051.7106937966
 30
0.0
 11
105020.5560842975
 21
95051.71057013447
 31
0.0
  0
LINE
  5
52F61
330
1F
100
AcDbEntity
  8
freecads.com
100
AcDbLine
 10
105020.5560842975
 20
95051.71057013447
 30
0.0
 11
105020.5561075481
 21
95051.71053754832
 31
0.0
  0
LINE
  5
52F62
330
1F
100
AcDbEntity
  8
freecads.com
100
AcDbLine
 10
105020.5561075481
 20
95051.71053754832
 30
0.0
 11
105020.5561602715
 21
95051.71030982532
 31
0.0
  0
LINE
  5
52F63
330
1F
100
AcDbEntity
  8
freecads.com
100
AcDbLine
 10
105020.5561602715
 20
95051.71030982532
 30
0.0
 11
105020.5561787323
 21
95051.7102449316
 31
0.0
  0
LINE
  5
52F64
330
1F
100
AcDbEntity
  8
freecads.com
100
AcDbLine
 10
105020.5561787323
 20
95051.7102449316
 30
0.0
 11
105020.5564759302
 21
95051.70925955505
 31
0.0
  0
LINE
  5
52F65
330
1F
100
AcDbEntity
  8
freecads.com
100
AcDbLine
 10
105020.5564759302
 20
95051.70925955505
 30
0.0
 11
105020.556492382
 21
95051.70920229783
 31
0.0
  0
LINE
  5
52F66
330
1F
100
AcDbEntity
  8
freecads.com
100
AcDbLine
 10
105020.556492382
 20
95051.70920229783
 30
0.0
 11
105020.5566968668
 21
95051.70852444729
 31
0.0
  0
LINE
  5
52F67
330
1F
100
AcDbEntity
  8
freecads.com
100
AcDbLine
 10
105020.5566968668
 20
95051.70852444729
 30
0.0
 11
105020.5568101455
 21
95051.70817319928
 31
0.0
  0
LINE
  5
52F68
330
1F
100
AcDbEntity
  8
freecads.com
100
AcDbLine
 10
105020.5568101455
 20
95051.70817319928
 30
0.0
 11
105020.5568667672
 21
95051.70801214472
 31
0.0
  0
LINE
  5
52F69
330
1F
100
AcDbEntity
  8
freecads.com
100
AcDbLine
 10
105020.5568667672
 20
95051.70801214472
 30
0.0
 11
105020.5569344368
 21
95051.70778709072
 31
0.0
  0
LINE
  5
52F6A
330
1F
100
AcDbEntity
  8
freecads.com
100
AcDbLine
 10
105020.5569344368
 20
95051.70778709072
 30
0.0
 11
105020.5570009784
 21
95051.70751162312
 31
0.0
  0
LINE
  5
52F6B
330
1F
100
AcDbEntity
  8
freecads.com
100
AcDbLine
 10
105020.5570009784
 20
95051.70751162312
 30
0.0
 11
105020.5573216697
 21
95051.70644558212
 31
0.0
  0
LINE
  5
52F6C
330
1F
100
AcDbEntity
  8
freecads.com
100
AcDbLine
 10
105020.5573216697
 20
95051.70644558212
 30
0.0
 11
105020.5573420431
 21
95051.70641413677
 31
0.0
  0
LINE
  5
52F6D
330
1F
100
AcDbEntity
  8
freecads.com
100
AcDbLine
 10
105020.5573420431
 20
95051.70641413677
 30
0.0
 11
105020.5574213121
 21
95051.70616759144
 31
0.0
  0
LINE
  5
52F6E
330
1F
100
AcDbEntity
  8
freecads.com
100
AcDbLine
 10
105020.5574213121
 20
95051.70616759144
 30
0.0
 11
105020.5574636873
 21
95051.70602665925
 31
0.0
  0
LINE
  5
52F6F
330
1F
100
AcDbEntity
  8
freecads.com
100
AcDbLine
 10
105020.5574636873
 20
95051.70602665925
 30
0.0
 11
105020.5577188958
 21
95051.70517016074
 31
0.0
  0
LINE
  5
52F70
330
1F
100
AcDbEntity
  8
freecads.com
100
AcDbLine
 10
105020.5577188958
 20
95051.70517016074
 30
0.0
 11
105020.5577422249
 21
95051.70515064074
 31
0.0
  0
LINE
  5
52F71
330
1F
100
AcDbEntity
  8
freecads.com
100
AcDbLine
 10
105020.5577422249
 20
95051.70515064074
 30
0.0
 11
105020.5578444966
 21
95051.70475997564
 31
0.0
  0
LINE
  5
52F72
330
1F
100
AcDbEntity
  8
freecads.com
100
AcDbLine
 10
105020.5578444966
 20
95051.70475997564
 30
0.0
 11
105020.5578931465
 21
95051.70459816076
 31
0.0
  0
LINE
  5
52F73
330
1F
100
AcDbEntity
  8
freecads.com
100
AcDbLine
 10
105020.5578931465
 20
95051.70459816076
 30
0.0
 11
105020.5579765427
 21
95051.70431848894
 31
0.0
  0
LINE
  5
52F74
330
1F
100
AcDbEntity
  8
freecads.com
100
AcDbLine
 10
105020.5579765427
 20
95051.70431848894
 30
0.0
 11
105020.5580005751
 21
95051.7042416436
 31
0.0
  0
LINE
  5
52F75
330
1F
100
AcDbEntity
  8
freecads.com
100
AcDbLine
 10
105020.5580005751
 20
95051.7042416436
 30
0.0
 11
105020.5581137249
 21
95051.70386445589
 31
0.0
  0
LINE
  5
52F76
330
1F
100
AcDbEntity
  8
freecads.com
100
AcDbLine
 10
105020.5581137249
 20
95051.70386445589
 30
0.0
 11
105020.5581320037
 21
95051.70380395844
 31
0.0
  0
LINE
  5
52F77
330
1F
100
AcDbEntity
  8
freecads.com
100
AcDbLine
 10
105020.5581320037
 20
95051.70380395844
 30
0.0
 11
105020.5581522929
 21
95051.70373616916
 31
0.0
  0
LINE
  5
52F78
330
1F
100
AcDbEntity
  8
freecads.com
100
AcDbLine
 10
105020.5581522929
 20
95051.70373616916
 30
0.0
 11
105020.5581645033
 21
95051.70369639444
 31
0.0
  0
LINE
  5
52F79
330
1F
100
AcDbEntity
  8
freecads.com
100
AcDbLine
 10
105020.5581645033
 20
95051.70369639444
 30
0.0
 11
105020.5581711094
 21
95051.70367389998
 31
0.0
  0
LINE
  5
52F7A
330
1F
100
AcDbEntity
  8
freecads.com
100
AcDbLine
 10
105020.5581711094
 20
95051.70367389998
 30
0.0
 11
105020.5581823763
 21
95051.70363632769
 31
0.0
  0
LINE
  5
52F7B
330
1F
100
AcDbEntity
  8
freecads.com
100
AcDbLine
 10
105020.5581823763
 20
95051.70363632769
 30
0.0
 11
105020.5581890431
 21
95051.70361455219
 31
0.0
  0
LINE
  5
52F7C
330
1F
100
AcDbEntity
  8
freecads.com
100
AcDbLine
 10
105020.5581890431
 20
95051.70361455219
 30
0.0
 11
105020.5581967417
 21
95051.70358865136
 31
0.0
  0
LINE
  5
52F7D
330
1F
100
AcDbEntity
  8
freecads.com
100
AcDbLine
 10
105020.5581967417
 20
95051.70358865136
 30
0.0
 11
105020.5582135191
 21
95051.70353285292
 31
0.0
  0
LINE
  5
52F7E
330
1F
100
AcDbEntity
  8
freecads.com
100
AcDbLine
 10
105020.5582135191
 20
95051.70353285292
 30
0.0
 11
105020.5582240928
 21
95051.70349819103
 31
0.0
  0
LINE
  5
52F7F
330
1F
100
AcDbEntity
  8
freecads.com
100
AcDbLine
 10
105020.5582240928
 20
95051.70349819103
 30
0.0
 11
105020.5582326326
 21
95051.70346958307
 31
0.0
  0
LINE
  5
52F80
330
1F
100
AcDbEntity
  8
freecads.com
100
AcDbLine
 10
105020.5582326326
 20
95051.70346958307
 30
0.0
 11
105020.5582394346
 21
95051.70344696116
 31
0.0
  0
LINE
  5
52F81
330
1F
100
AcDbEntity
  8
freecads.com
100
AcDbLine
 10
105020.5582394346
 20
95051.70344696116
 30
0.0
 11
105020.5582453864
 21
95051.70342736521
 31
0.0
  0
LINE
  5
52F82
330
1F
100
AcDbEntity
  8
freecads.com
100
AcDbLine
 10
105020.5582453864
 20
95051.70342736521
 30
0.0
 11
105020.5582668518
 21
95051.70335596814
 31
0.0
  0
LINE
  5
52F83
330
1F
100
AcDbEntity
  8
freecads.com
100
AcDbLine
 10
105020.5582668518
 20
95051.70335596814
 30
0.0
 11
105020.558296353
 21
95051.70326931757
 31
0.0
  0
LINE
  5
52F84
330
1F
100
AcDbEntity
  8
freecads.com
100
AcDbLine
 10
105020.558296353
 20
95051.70326931757
 30
0.0
 11
105020.5583403795
 21
95051.7031112413
 31
0.0
  0
LINE
  5
52F85
330
1F
100
AcDbEntity
  8
freecads.com
100
AcDbLine
 10
105020.5583403795
 20
95051.7031112413
 30
0.0
 11
105020.5584002105
 21
95051.70291194881
 31
0.0
  0
LINE
  5
52F86
330
1F
100
AcDbEntity
  8
freecads.com
100
AcDbLine
 10
105020.5584002105
 20
95051.70291194881
 30
0.0
 11
105020.5584095241
 21
95051.70288389205
 31
0.0
  0
LINE
  5
52F87
330
1F
100
AcDbEntity
  8
freecads.com
100
AcDbLine
 10
105020.5584095241
 20
95051.70288389205
 30
0.0
 11
105020.5584462374
 21
95051.70275885822
 31
0.0
  0
LINE
  5
52F88
330
1F
100
AcDbEntity
  8
freecads.com
100
AcDbLine
 10
105020.5584462374
 20
95051.70275885822
 30
0.0
 11
105020.5585115877
 21
95051.70254618279
 31
0.0
  0
LINE
  5
52F89
330
1F
100
AcDbEntity
  8
freecads.com
100
AcDbLine
 10
105020.5585115877
 20
95051.70254618279
 30
0.0
 11
105020.5585649419
 21
95051.70236956898
 31
0.0
  0
LINE
  5
52F8A
330
1F
100
AcDbEntity
  8
freecads.com
100
AcDbLine
 10
105020.5585649419
 20
95051.70236956898
 30
0.0
 11
105020.5586401378
 21
95051.70211786781
 31
0.0
  0
LINE
  5
52F8B
330
1F
100
AcDbEntity
  8
freecads.com
100
AcDbLine
 10
105020.5586401378
 20
95051.70211786781
 30
0.0
 11
105020.5592101828
 21
95051.70023342943
 31
0.0
  0
LINE
  5
52F8C
330
1F
100
AcDbEntity
  8
freecads.com
100
AcDbLine
 10
105020.5592101828
 20
95051.70023342943
 30
0.0
 11
105020.5592255477
 21
95051.70012705104
 31
0.0
  0
LINE
  5
52F8D
330
1F
100
AcDbEntity
  8
freecads.com
100
AcDbLine
 10
105020.5592255477
 20
95051.70012705104
 30
0.0
 11
105020.5592677531
 21
95051.70004311489
 31
0.0
  0
LINE
  5
52F8E
330
1F
100
AcDbEntity
  8
freecads.com
100
AcDbLine
 10
105020.5592677531
 20
95051.70004311489
 30
0.0
 11
105020.5592829412
 21
95051.69999039857
 31
0.0
  0
LINE
  5
52F8F
330
1F
100
AcDbEntity
  8
freecads.com
100
AcDbLine
 10
105020.5592829412
 20
95051.69999039857
 30
0.0
 11
105020.5593666254
 21
95051.69971582672
 31
0.0
  0
LINE
  5
52F90
330
1F
100
AcDbEntity
  8
freecads.com
100
AcDbLine
 10
105020.5593666254
 20
95051.69971582672
 30
0.0
 11
105020.5595126409
 21
95051.69923357192
 31
0.0
  0
LINE
  5
52F91
330
1F
100
AcDbEntity
  8
freecads.com
100
AcDbLine
 10
105020.5595126409
 20
95051.69923357192
 30
0.0
 11
105020.5595302384
 21
95051.69917621072
 31
0.0
  0
LINE
  5
52F92
330
1F
100
AcDbEntity
  8
freecads.com
100
AcDbLine
 10
105020.5595302384
 20
95051.69917621072
 30
0.0
 11
105020.5595437639
 21
95051.69913068668
 31
0.0
  0
LINE
  5
52F93
330
1F
100
AcDbEntity
  8
freecads.com
100
AcDbLine
 10
105020.5595437639
 20
95051.69913068668
 30
0.0
 11
105020.5596150539
 21
95051.69889501818
 31
0.0
  0
LINE
  5
52F94
330
1F
100
AcDbEntity
  8
freecads.com
100
AcDbLine
 10
105020.5596150539
 20
95051.69889501818
 30
0.0
 11
105020.5596917757
 21
95051.69863951062
 31
0.0
  0
LINE
  5
52F95
330
1F
100
AcDbEntity
  8
freecads.com
100
AcDbLine
 10
105020.5596917757
 20
95051.69863951062
 30
0.0
 11
105020.5597025162
 21
95051.69860602164
 31
0.0
  0
LINE
  5
52F96
330
1F
100
AcDbEntity
  8
freecads.com
100
AcDbLine
 10
105020.5597025162
 20
95051.69860602164
 30
0.0
 11
105020.5597405195
 21
95051.69848025751
 31
0.0
  0
LINE
  5
52F97
330
1F
100
AcDbEntity
  8
freecads.com
100
AcDbLine
 10
105020.5597405195
 20
95051.69848025751
 30
0.0
 11
105020.5597591635
 21
95051.69841781293
 31
0.0
  0
LINE
  5
52F98
330
1F
100
AcDbEntity
  8
freecads.com
100
AcDbLine
 10
105020.5597591635
 20
95051.69841781293
 30
0.0
 11
105020.5605164386
 21
95051.69591158065
 31
0.0
  0
LINE
  5
52F99
330
1F
100
AcDbEntity
  8
freecads.com
100
AcDbLine
 10
105020.5605164386
 20
95051.69591158065
 30
0.0
 11
105020.5605329977
 21
95051.69585771257
 31
0.0
  0
LINE
  5
52F9A
330
1F
100
AcDbEntity
  8
freecads.com
100
AcDbLine
 10
105020.5605329977
 20
95051.69585771257
 30
0.0
 11
105020.5605661155
 21
95051.69574526053
 31
0.0
  0
LINE
  5
52F9B
330
1F
100
AcDbEntity
  8
freecads.com
100
AcDbLine
 10
105020.5605661155
 20
95051.69574526053
 30
0.0
 11
105020.5607469621
 21
95051.69509870773
 31
0.0
  0
LINE
  5
52F9C
330
1F
100
AcDbEntity
  8
freecads.com
100
AcDbLine
 10
105020.5607469621
 20
95051.69509870773
 30
0.0
 11
105020.5608176256
 21
95051.69491593177
 31
0.0
  0
LINE
  5
52F9D
330
1F
100
AcDbEntity
  8
freecads.com
100
AcDbLine
 10
105020.5608176256
 20
95051.69491593177
 30
0.0
 11
105020.5608830925
 21
95051.69469865967
 31
0.0
  0
LINE
  5
52F9E
330
1F
100
AcDbEntity
  8
freecads.com
100
AcDbLine
 10
105020.5608830925
 20
95051.69469865967
 30
0.0
 11
105020.5609744669
 21
95051.69439353128
 31
0.0
  0
LINE
  5
52F9F
330
1F
100
AcDbEntity
  8
freecads.com
100
AcDbLine
 10
105020.5609744669
 20
95051.69439353128
 30
0.0
 11
105020.5610440909
 21
95051.69416580196
 31
0.0
  0
LINE
  5
52FA0
330
1F
100
AcDbEntity
  8
freecads.com
100
AcDbLine
 10
105020.5610440909
 20
95051.69416580196
 30
0.0
 11
105020.5612406719
 21
95051.69351615036
 31
0.0
  0
LINE
  5
52FA1
330
1F
100
AcDbEntity
  8
freecads.com
100
AcDbLine
 10
105020.5612406719
 20
95051.69351615036
 30
0.0
 11
105020.5612568441
 21
95051.69346189166
 31
0.0
  0
LINE
  5
52FA2
330
1F
100
AcDbEntity
  8
freecads.com
100
AcDbLine
 10
105020.5612568441
 20
95051.69346189166
 30
0.0
 11
105020.5618126715
 21
95051.69162289334
 31
0.0
  0
LINE
  5
52FA3
330
1F
100
AcDbEntity
  8
freecads.com
100
AcDbLine
 10
105020.5618126715
 20
95051.69162289334
 30
0.0
 11
105020.5619228268
 21
95051.69122432725
 31
0.0
  0
LINE
  5
52FA4
330
1F
100
AcDbEntity
  8
freecads.com
100
AcDbLine
 10
105020.5619228268
 20
95051.69122432725
 30
0.0
 11
105020.5620192627
 21
95051.69093792412
 31
0.0
  0
LINE
  5
52FA5
330
1F
100
AcDbEntity
  8
freecads.com
100
AcDbLine
 10
105020.5620192627
 20
95051.69093792412
 30
0.0
 11
105020.5620950782
 21
95051.69068852891
 31
0.0
  0
LINE
  5
52FA6
330
1F
100
AcDbEntity
  8
freecads.com
100
AcDbLine
 10
105020.5620950782
 20
95051.69068852891
 30
0.0
 11
105020.5626468393
 21
95051.68886093407
 31
0.0
  0
LINE
  5
52FA7
330
1F
100
AcDbEntity
  8
freecads.com
100
AcDbLine
 10
105020.5626468393
 20
95051.68886093407
 30
0.0
 11
105020.5627893841
 21
95051.68836793751
 31
0.0
  0
LINE
  5
52FA8
330
1F
100
AcDbEntity
  8
freecads.com
100
AcDbLine
 10
105020.5627893841
 20
95051.68836793751
 30
0.0
 11
105020.5629034754
 21
95051.68801178358
 31
0.0
  0
LINE
  5
52FA9
330
1F
100
AcDbEntity
  8
freecads.com
100
AcDbLine
 10
105020.5629034754
 20
95051.68801178358
 30
0.0
 11
105020.562928015
 21
95051.68799056171
 31
0.0
  0
LINE
  5
52FAA
330
1F
100
AcDbEntity
  8
freecads.com
100
AcDbLine
 10
105020.562928015
 20
95051.68799056171
 30
0.0
 11
105020.5629805808
 21
95051.68775793601
 31
0.0
  0
LINE
  5
52FAB
330
1F
100
AcDbEntity
  8
freecads.com
100
AcDbLine
 10
105020.5629805808
 20
95051.68775793601
 30
0.0
 11
105020.5633985188
 21
95051.68637495227
 31
0.0
  0
LINE
  5
52FAC
330
1F
100
AcDbEntity
  8
freecads.com
100
AcDbLine
 10
105020.5633985188
 20
95051.68637495227
 30
0.0
 11
105020.563402143
 21
95051.68635103343
 31
0.0
  0
LINE
  5
52FAD
330
1F
100
AcDbEntity
  8
freecads.com
100
AcDbLine
 10
105020.563402143
 20
95051.68635103343
 30
0.0
 11
105020.563466454
 21
95051.68615003768
 31
0.0
  0
LINE
  5
52FAE
330
1F
100
AcDbEntity
  8
freecads.com
100
AcDbLine
 10
105020.563466454
 20
95051.68615003768
 30
0.0
 11
105020.5634723272
 21
95051.68613071562
 31
0.0
  0
LINE
  5
52FAF
330
1F
100
AcDbEntity
  8
freecads.com
100
AcDbLine
 10
105020.5634723272
 20
95051.68613071562
 30
0.0
 11
105020.5634786903
 21
95051.6861107407
 31
0.0
  0
LINE
  5
52FB0
330
1F
100
AcDbEntity
  8
freecads.com
100
AcDbLine
 10
105020.5634786903
 20
95051.6861107407
 30
0.0
 11
105020.5635392511
 21
95051.68592251969
 31
0.0
  0
LINE
  5
52FB1
330
1F
100
AcDbEntity
  8
freecads.com
100
AcDbLine
 10
105020.5635392511
 20
95051.68592251969
 30
0.0
 11
105020.5635474015
 21
95051.68589704663
 31
0.0
  0
LINE
  5
52FB2
330
1F
100
AcDbEntity
  8
freecads.com
100
AcDbLine
 10
105020.5635474015
 20
95051.68589704663
 30
0.0
 11
105020.5635592214
 21
95051.68585794217
 31
0.0
  0
LINE
  5
52FB3
330
1F
100
AcDbEntity
  8
freecads.com
100
AcDbLine
 10
105020.5635592214
 20
95051.68585794217
 30
0.0
 11
105020.5636441081
 21
95051.68559480226
 31
0.0
  0
LINE
  5
52FB4
330
1F
100
AcDbEntity
  8
freecads.com
100
AcDbLine
 10
105020.5636441081
 20
95051.68559480226
 30
0.0
 11
105020.56364471
 21
95051.68555844091
 31
0.0
  0
LINE
  5
52FB5
330
1F
100
AcDbEntity
  8
freecads.com
100
AcDbLine
 10
105020.56364471
 20
95051.68555844091
 30
0.0
 11
105020.5636602444
 21
95051.68554081674
 31
0.0
  0
LINE
  5
52FB6
330
1F
100
AcDbEntity
  8
freecads.com
100
AcDbLine
 10
105020.5636602444
 20
95051.68554081674
 30
0.0
 11
105020.5637370617
 21
95051.68525285682
 31
0.0
  0
LINE
  5
52FB7
330
1F
100
AcDbEntity
  8
freecads.com
100
AcDbLine
 10
105020.5637370617
 20
95051.68525285682
 30
0.0
 11
105020.5638139656
 21
95051.68499418926
 31
0.0
  0
LINE
  5
52FB8
330
1F
100
AcDbEntity
  8
freecads.com
100
AcDbLine
 10
105020.5638139656
 20
95051.68499418926
 30
0.0
 11
105020.5638456124
 21
95051.6848952904
 31
0.0
  0
LINE
  5
52FB9
330
1F
100
AcDbEntity
  8
freecads.com
100
AcDbLine
 10
105020.5638456124
 20
95051.6848952904
 30
0.0
 11
105020.5638576817
 21
95051.68485363972
 31
0.0
  0
LINE
  5
52FBA
330
1F
100
AcDbEntity
  8
freecads.com
100
AcDbLine
 10
105020.5638576817
 20
95051.68485363972
 30
0.0
 11
105020.5639284019
 21
95051.6846365663
 31
0.0
  0
LINE
  5
52FBB
330
1F
100
AcDbEntity
  8
freecads.com
100
AcDbLine
 10
105020.5639284019
 20
95051.6846365663
 30
0.0
 11
105020.5639342094
 21
95051.68461735321
 31
0.0
  0
LINE
  5
52FBC
330
1F
100
AcDbEntity
  8
freecads.com
100
AcDbLine
 10
105020.5639342094
 20
95051.68461735321
 30
0.0
 11
105020.5639606136
 21
95051.68453590219
 31
0.0
  0
LINE
  5
52FBD
330
1F
100
AcDbEntity
  8
freecads.com
100
AcDbLine
 10
105020.5639606136
 20
95051.68453590219
 30
0.0
 11
105020.5639667459
 21
95051.68451538603
 31
0.0
  0
LINE
  5
52FBE
330
1F
100
AcDbEntity
  8
freecads.com
100
AcDbLine
 10
105020.5639667459
 20
95051.68451538603
 30
0.0
 11
105020.5640799816
 21
95051.68411789224
 31
0.0
  0
LINE
  5
52FBF
330
1F
100
AcDbEntity
  8
freecads.com
100
AcDbLine
 10
105020.5640799816
 20
95051.68411789224
 30
0.0
 11
105020.5640900516
 21
95051.68408636894
 31
0.0
  0
LINE
  5
52FC0
330
1F
100
AcDbEntity
  8
freecads.com
100
AcDbLine
 10
105020.5640900516
 20
95051.68408636894
 30
0.0
 11
105020.5641012325
 21
95051.68404778641
 31
0.0
  0
LINE
  5
52FC1
330
1F
100
AcDbEntity
  8
freecads.com
100
AcDbLine
 10
105020.5641012325
 20
95051.68404778641
 30
0.0
 11
105020.5641071054
 21
95051.68402841203
 31
0.0
  0
LINE
  5
52FC2
330
1F
100
AcDbEntity
  8
freecads.com
100
AcDbLine
 10
105020.5641071054
 20
95051.68402841203
 30
0.0
 11
105020.5641190688
 21
95051.68400577481
 31
0.0
  0
LINE
  5
52FC3
330
1F
100
AcDbEntity
  8
freecads.com
100
AcDbLine
 10
105020.5641190688
 20
95051.68400577481
 30
0.0
 11
105020.564162631
 21
95051.6838596472
 31
0.0
  0
LINE
  5
52FC4
330
1F
100
AcDbEntity
  8
freecads.com
100
AcDbLine
 10
105020.564162631
 20
95051.6838596472
 30
0.0
 11
105020.5641970666
 21
95051.6837316346
 31
0.0
  0
LINE
  5
52FC5
330
1F
100
AcDbEntity
  8
freecads.com
100
AcDbLine
 10
105020.5641970666
 20
95051.6837316346
 30
0.0
 11
105020.5642541039
 21
95051.68354347134
 31
0.0
  0
LINE
  5
52FC6
330
1F
100
AcDbEntity
  8
freecads.com
100
AcDbLine
 10
105020.5642541039
 20
95051.68354347134
 30
0.0
 11
105020.5642946
 21
95051.68341696196
 31
0.0
  0
LINE
  5
52FC7
330
1F
100
AcDbEntity
  8
freecads.com
100
AcDbLine
 10
105020.5642946
 20
95051.68341696196
 30
0.0
 11
105020.5643593375
 21
95051.68319554147
 31
0.0
  0
LINE
  5
52FC8
330
1F
100
AcDbEntity
  8
freecads.com
100
AcDbLine
 10
105020.5643593375
 20
95051.68319554147
 30
0.0
 11
105020.564377749
 21
95051.68313804182
 31
0.0
  0
LINE
  5
52FC9
330
1F
100
AcDbEntity
  8
freecads.com
100
AcDbLine
 10
105020.564377749
 20
95051.68313804182
 30
0.0
 11
105020.5644193592
 21
95051.68299846475
 31
0.0
  0
LINE
  5
52FCA
330
1F
100
AcDbEntity
  8
freecads.com
100
AcDbLine
 10
105020.5644193592
 20
95051.68299846475
 30
0.0
 11
105020.5644551589
 21
95051.68287761472
 31
0.0
  0
LINE
  5
52FCB
330
1F
100
AcDbEntity
  8
freecads.com
100
AcDbLine
 10
105020.5644551589
 20
95051.68287761472
 30
0.0
 11
105020.5644912114
 21
95051.68275743644
 31
0.0
  0
LINE
  5
52FCC
330
1F
100
AcDbEntity
  8
freecads.com
100
AcDbLine
 10
105020.5644912114
 20
95051.68275743644
 30
0.0
 11
105020.5679412089
 21
95051.67216475616
 31
0.0
  0
LINE
  5
52FCD
330
1F
100
AcDbEntity
  8
freecads.com
100
AcDbLine
 10
105020.5679412089
 20
95051.67216475616
 30
0.0
 11
105020.5689087086
 21
95051.66898774479
 31
0.0
  0
LINE
  5
52FCE
330
1F
100
AcDbEntity
  8
freecads.com
100
AcDbLine
 10
105020.5689087086
 20
95051.66898774479
 30
0.0
 11
105020.568958188
 21
95051.66882378089
 31
0.0
  0
LINE
  5
52FCF
330
1F
100
AcDbEntity
  8
freecads.com
100
AcDbLine
 10
105020.568958188
 20
95051.66882378089
 30
0.0
 11
105020.5689833663
 21
95051.6687399082
 31
0.0
  0
LINE
  5
52FD0
330
1F
100
AcDbEntity
  8
freecads.com
100
AcDbLine
 10
105020.5689833663
 20
95051.6687399082
 30
0.0
 11
105020.5690089634
 21
95051.66865511087
 31
0.0
  0
LINE
  5
52FD1
330
1F
100
AcDbEntity
  8
freecads.com
100
AcDbLine
 10
105020.5690089634
 20
95051.66865511087
 30
0.0
 11
105020.5710537906
 21
95051.66437536198
 31
0.0
  0
LINE
  5
52FD2
330
1F
100
AcDbEntity
  8
freecads.com
100
AcDbLine
 10
105020.5710537906
 20
95051.66437536198
 30
0.0
 11
105020.5710458403
 21
95051.66433387216
 31
0.0
  0
LINE
  5
52FD3
330
1F
100
AcDbEntity
  8
freecads.com
100
AcDbLine
 10
105020.5710458403
 20
95051.66433387216
 30
0.0
 11
105020.5710675888
 21
95051.664261261
 31
0.0
  0
LINE
  5
52FD4
330
1F
100
AcDbEntity
  8
freecads.com
100
AcDbLine
 10
105020.5710675888
 20
95051.664261261
 30
0.0
 11
105020.5710999666
 21
95051.66422299549
 31
0.0
  0
LINE
  5
52FD5
330
1F
100
AcDbEntity
  8
freecads.com
100
AcDbLine
 10
105020.5710999666
 20
95051.66422299549
 30
0.0
 11
105020.571091392
 21
95051.66418595891
 31
0.0
  0
LINE
  5
52FD6
330
1F
100
AcDbEntity
  8
freecads.com
100
AcDbLine
 10
105020.571091392
 20
95051.66418595891
 30
0.0
 11
105020.5711225133
 21
95051.66415046728
 31
0.0
  0
LINE
  5
52FD7
330
1F
100
AcDbEntity
  8
freecads.com
100
AcDbLine
 10
105020.5711225133
 20
95051.66415046728
 30
0.0
 11
105020.571144973
 21
95051.66407567099
 31
0.0
  0
LINE
  5
52FD8
330
1F
100
AcDbEntity
  8
freecads.com
100
AcDbLine
 10
105020.571144973
 20
95051.66407567099
 30
0.0
 11
105020.5729136017
 21
95051.66064423352
 31
0.0
  0
LINE
  5
52FD9
330
1F
100
AcDbEntity
  8
freecads.com
100
AcDbLine
 10
105020.5729136017
 20
95051.66064423352
 30
0.0
 11
105020.5734347402
 21
95051.6596438873
 31
0.0
  0
LINE
  5
52FDA
330
1F
100
AcDbEntity
  8
freecads.com
100
AcDbLine
 10
105020.5734347402
 20
95051.6596438873
 30
0.0
 11
105020.5734648814
 21
95051.65956504869
 31
0.0
  0
LINE
  5
52FDB
330
1F
100
AcDbEntity
  8
freecads.com
100
AcDbLine
 10
105020.5734648814
 20
95051.65956504869
 30
0.0
 11
105020.5735600471
 21
95051.65939002077
 31
0.0
  0
LINE
  5
52FDC
330
1F
100
AcDbEntity
  8
freecads.com
100
AcDbLine
 10
105020.5735600471
 20
95051.65939002077
 30
0.0
 11
105020.5768824207
 21
95051.65477771567
 31
0.0
  0
LINE
  5
52FDD
330
1F
100
AcDbEntity
  8
freecads.com
100
AcDbLine
 10
105020.5768824207
 20
95051.65477771567
 30
0.0
 11
105020.578350059
 21
95051.6521183901
 31
0.0
  0
LINE
  5
52FDE
330
1F
100
AcDbEntity
  8
freecads.com
100
AcDbLine
 10
105020.578350059
 20
95051.6521183901
 30
0.0
 11
105020.5853506103
 21
95051.64568457873
 31
0.0
  0
LINE
  5
52FDF
330
1F
100
AcDbEntity
  8
freecads.com
100
AcDbLine
 10
105020.5853506103
 20
95051.64568457873
 30
0.0
 11
105020.5879318832
 21
95051.64326979292
 31
0.0
  0
LINE
  5
52FE0
330
1F
100
AcDbEntity
  8
freecads.com
100
AcDbLine
 10
105020.5879318832
 20
95051.64326979292
 30
0.0
 11
105020.5916543643
 21
95051.64160263669
 31
0.0
  0
LINE
  5
52FE1
330
1F
100
AcDbEntity
  8
freecads.com
100
AcDbLine
 10
105020.5916543643
 20
95051.64160263669
 30
0.0
 11
105020.6071131584
 21
95051.63575445859
 31
0.0
  0
LINE
  5
52FE2
330
1F
100
AcDbEntity
  8
freecads.com
100
AcDbLine
 10
105020.6071131584
 20
95051.63575445859
 30
0.0
 11
105020.6402121825
 21
95051.63418155802
 31
0.0
  0
LINE
  5
52FE3
330
1F
100
AcDbEntity
  8
freecads.com
100
AcDbLine
 10
105020.6402121825
 20
95051.63418155802
 30
0.0
 11
105020.6417399527
 21
95051.63451358669
 31
0.0
  0
LINE
  5
52FE4
330
1F
100
AcDbEntity
  8
freecads.com
100
AcDbLine
 10
105020.6417399527
 20
95051.63451358669
 30
0.0
 11
105020.6418528644
 21
95051.63450799814
 31
0.0
  0
LINE
  5
52FE5
330
1F
100
AcDbEntity
  8
freecads.com
100
AcDbLine
 10
105020.6418528644
 20
95051.63450799814
 30
0.0
 11
105020.6667756468
 21
95051.63912087642
 31
0.0
  0
LINE
  5
52FE6
330
1F
100
AcDbEntity
  8
freecads.com
100
AcDbLine
 10
105020.6667756468
 20
95051.63912087642
 30
0.0
 11
105020.6780553757
 21
95051.64085886837
 31
0.0
  0
LINE
  5
52FE7
330
1F
100
AcDbEntity
  8
freecads.com
100
AcDbLine
 10
105020.6780553757
 20
95051.64085886837
 30
0.0
 11
105020.7198294949
 21
95051.65282152757
 31
0.0
  0
LINE
  5
52FE8
330
1F
100
AcDbEntity
  8
freecads.com
100
AcDbLine
 10
105020.7198294949
 20
95051.65282152757
 30
0.0
 11
105020.7559270458
 21
95051.66350987861
 31
0.0
  0
LINE
  5
52FE9
330
1F
100
AcDbEntity
  8
freecads.com
100
AcDbLine
 10
105020.7559270458
 20
95051.66350987861
 30
0.0
 11
105020.7854951388
 21
95051.67195002186
 31
0.0
  0
LINE
  5
52FEA
330
1F
100
AcDbEntity
  8
freecads.com
100
AcDbLine
 10
105020.7854951388
 20
95051.67195002186
 30
0.0
 11
105020.8098485602
 21
95051.67922842028
 31
0.0
  0
LINE
  5
52FEB
330
1F
100
AcDbEntity
  8
freecads.com
100
AcDbLine
 10
105020.8098485602
 20
95051.67922842028
 30
0.0
 11
105020.8316046303
 21
95051.68544418816
 31
0.0
  0
LINE
  5
52FEC
330
1F
100
AcDbEntity
  8
freecads.com
100
AcDbLine
 10
105020.8316046303
 20
95051.68544418816
 30
0.0
 11
105020.8534913815
 21
95051.69159963761
 31
0.0
  0
LINE
  5
52FED
330
1F
100
AcDbEntity
  8
freecads.com
100
AcDbLine
 10
105020.8534913815
 20
95051.69159963761
 30
0.0
 11
105020.875602083
 21
95051.6978732498
 31
0.0
  0
LINE
  5
52FEE
330
1F
100
AcDbEntity
  8
freecads.com
100
AcDbLine
 10
105020.875602083
 20
95051.6978732498
 30
0.0
 11
105020.8981520555
 21
95051.70456398442
 31
0.0
  0
LINE
  5
52FEF
330
1F
100
AcDbEntity
  8
freecads.com
100
AcDbLine
 10
105020.8981520555
 20
95051.70456398442
 30
0.0
 11
105020.9208870018
 21
95051.71140787949
 31
0.0
  0
LINE
  5
52FF0
330
1F
100
AcDbEntity
  8
freecads.com
100
AcDbLine
 10
105020.9208870018
 20
95051.71140787949
 30
0.0
 11
105020.94351198
 21
95051.71808801632
 31
0.0
  0
LINE
  5
52FF1
330
1F
100
AcDbEntity
  8
freecads.com
100
AcDbLine
 10
105020.94351198
 20
95051.71808801632
 30
0.0
 11
105020.9659838488
 21
95051.72460184631
 31
0.0
  0
LINE
  5
52FF2
330
1F
100
AcDbEntity
  8
freecads.com
100
AcDbLine
 10
105020.9659838488
 20
95051.72460184631
 30
0.0
 11
105020.9882469563
 21
95051.7309522975
 31
0.0
  0
LINE
  5
52FF3
330
1F
100
AcDbEntity
  8
freecads.com
100
AcDbLine
 10
105020.9882469563
 20
95051.7309522975
 30
0.0
 11
105021.0103264258
 21
95051.73714294985
 31
0.0
  0
LINE
  5
52FF4
330
1F
100
AcDbEntity
  8
freecads.com
100
AcDbLine
 10
105021.0103264258
 20
95051.73714294985
 30
0.0
 11
105021.0323399539
 21
95051.74317474365
 31
0.0
  0
LINE
  5
52FF5
330
1F
100
AcDbEntity
  8
freecads.com
100
AcDbLine
 10
105021.0323399539
 20
95051.74317474365
 30
0.0
 11
105021.0543001457
 21
95051.74905060295
 31
0.0
  0
LINE
  5
52FF6
330
1F
100
AcDbEntity
  8
freecads.com
100
AcDbLine
 10
105021.0543001457
 20
95051.74905060295
 30
0.0
 11
105021.0762098146
 21
95051.75476985202
 31
0.0
  0
LINE
  5
52FF7
330
1F
100
AcDbEntity
  8
freecads.com
100
AcDbLine
 10
105021.0762098146
 20
95051.75476985202
 30
0.0
 11
105021.0980696323
 21
95051.76033223802
 31
0.0
  0
LINE
  5
52FF8
330
1F
100
AcDbEntity
  8
freecads.com
100
AcDbLine
 10
105021.0980696323
 20
95051.76033223802
 30
0.0
 11
105021.1198817404
 21
95051.76573733812
 31
0.0
  0
LINE
  5
52FF9
330
1F
100
AcDbEntity
  8
freecads.com
100
AcDbLine
 10
105021.1198817404
 20
95051.76573733812
 30
0.0
 11
105021.1416473561
 21
95051.77098431065
 31
0.0
  0
LINE
  5
52FFA
330
1F
100
AcDbEntity
  8
freecads.com
100
AcDbLine
 10
105021.1416473561
 20
95051.77098431065
 30
0.0
 11
105021.1633687474
 21
95051.77607306872
 31
0.0
  0
LINE
  5
52FFB
330
1F
100
AcDbEntity
  8
freecads.com
100
AcDbLine
 10
105021.1633687474
 20
95051.77607306872
 30
0.0
 11
105021.1850479295
 21
95051.78100285363
 31
0.0
  0
LINE
  5
52FFC
330
1F
100
AcDbEntity
  8
freecads.com
100
AcDbLine
 10
105021.1850479295
 20
95051.78100285363
 30
0.0
 11
105021.2066855742
 21
95051.78577341247
 31
0.0
  0
LINE
  5
52FFD
330
1F
100
AcDbEntity
  8
freecads.com
100
AcDbLine
 10
105021.2066855742
 20
95051.78577341247
 30
0.0
 11
105021.22828376
 21
95051.79038415455
 31
0.0
  0
LINE
  5
52FFE
330
1F
100
AcDbEntity
  8
freecads.com
100
AcDbLine
 10
105021.22828376
 20
95051.79038415455
 30
0.0
 11
105021.2498446284
 21
95051.79483465703
 31
0.0
  0
LINE
  5
52FFF
330
1F
100
AcDbEntity
  8
freecads.com
100
AcDbLine
 10
105021.2498446284
 20
95051.79483465703
 30
0.0
 11
105021.2713689144
 21
95051.79912483496
 31
0.0
  0
LINE
  5
53000
330
1F
100
AcDbEntity
  8
freecads.com
100
AcDbLine
 10
105021.2713689144
 20
95051.79912483496
 30
0.0
 11
105021.2928586333
 21
95051.80325392965
 31
0.0
  0
LINE
  5
53001
330
1F
100
AcDbEntity
  8
freecads.com
100
AcDbLine
 10
105021.2928586333
 20
95051.80325392965
 30
0.0
 11
105021.3143151919
 21
95051.8072216033
 31
0.0
  0
LINE
  5
53002
330
1F
100
AcDbEntity
  8
freecads.com
100
AcDbLine
 10
105021.3143151919
 20
95051.8072216033
 30
0.0
 11
105021.3357399966
 21
95051.81102751802
 31
0.0
  0
LINE
  5
53003
330
1F
100
AcDbEntity
  8
freecads.com
100
AcDbLine
 10
105021.3357399966
 20
95051.81102751802
 30
0.0
 11
105021.3571337826
 21
95051.81467158889
 31
0.0
  0
LINE
  5
53004
330
1F
100
AcDbEntity
  8
freecads.com
100
AcDbLine
 10
105021.3571337826
 20
95051.81467158889
 30
0.0
 11
105021.3784993633
 21
95051.81815314017
 31
0.0
  0
LINE
  5
53005
330
1F
100
AcDbEntity
  8
freecads.com
100
AcDbLine
 10
105021.3784993633
 20
95051.81815314017
 30
0.0
 11
105021.3998367386
 21
95051.8214721719
 31
0.0
  0
LINE
  5
53006
330
1F
100
AcDbEntity
  8
freecads.com
100
AcDbLine
 10
105021.3998367386
 20
95051.8214721719
 30
0.0
 11
105021.4211479237
 21
95051.82462792538
 31
0.0
  0
LINE
  5
53007
330
1F
100
AcDbEntity
  8
freecads.com
100
AcDbLine
 10
105021.4211479237
 20
95051.82462792538
 30
0.0
 11
105021.4424345151
 21
95051.82762056659
 31
0.0
  0
LINE
  5
53008
330
1F
100
AcDbEntity
  8
freecads.com
100
AcDbLine
 10
105021.4424345151
 20
95051.82762056659
 30
0.0
 11
105021.463697058
 21
95051.83044950676
 31
0.0
  0
LINE
  5
53009
330
1F
100
AcDbEntity
  8
freecads.com
100
AcDbLine
 10
105021.463697058
 20
95051.83044950676
 30
0.0
 11
105021.4849378205
 21
95051.83311465893
 31
0.0
  0
LINE
  5
5300A
330
1F
100
AcDbEntity
  8
freecads.com
100
AcDbLine
 10
105021.4849378205
 20
95051.83311465893
 30
0.0
 11
105021.5061574112
 21
95051.83561560231
 31
0.0
  0
LINE
  5
5300B
330
1F
100
AcDbEntity
  8
freecads.com
100
AcDbLine
 10
105021.5061574112
 20
95051.83561560231
 30
0.0
 11
105021.5273572268
 21
95051.83795215891
 31
0.0
  0
LINE
  5
5300C
330
1F
100
AcDbEntity
  8
freecads.com
100
AcDbLine
 10
105021.5273572268
 20
95051.83795215891
 30
0.0
 11
105021.5485381585
 21
95051.84012410003
 31
0.0
  0
LINE
  5
5300D
330
1F
100
AcDbEntity
  8
freecads.com
100
AcDbLine
 10
105021.5485381585
 20
95051.84012410003
 30
0.0
 11
105021.569702255
 21
95051.84213131457
 31
0.0
  0
LINE
  5
5300E
330
1F
100
AcDbEntity
  8
freecads.com
100
AcDbLine
 10
105021.569702255
 20
95051.84213131457
 30
0.0
 11
105021.590849463
 21
95051.84397347468
 31
0.0
  0
LINE
  5
5300F
330
1F
100
AcDbEntity
  8
freecads.com
100
AcDbLine
 10
105021.590849463
 20
95051.84397347468
 30
0.0
 11
105021.6119827223
 21
95051.84565024055
 31
0.0
  0
LINE
  5
53010
330
1F
100
AcDbEntity
  8
freecads.com
100
AcDbLine
 10
105021.6119827223
 20
95051.84565024055
 30
0.0
 11
105021.6331014244
 21
95051.84716203304
 31
0.0
  0
LINE
  5
53011
330
1F
100
AcDbEntity
  8
freecads.com
100
AcDbLine
 10
105021.6331014244
 20
95051.84716203304
 30
0.0
 11
105021.6542076478
 21
95051.84850826136
 31
0.0
  0
LINE
  5
53012
330
1F
100
AcDbEntity
  8
freecads.com
100
AcDbLine
 10
105021.6542076478
 20
95051.84850826136
 30
0.0
 11
105021.6753020642
 21
95051.84968867265
 31
0.0
  0
LINE
  5
53013
330
1F
100
AcDbEntity
  8
freecads.com
100
AcDbLine
 10
105021.6753020642
 20
95051.84968867265
 30
0.0
 11
105021.6963862699
 21
95051.85070343287
 31
0.0
  0
LINE
  5
53014
330
1F
100
AcDbEntity
  8
freecads.com
100
AcDbLine
 10
105021.6963862699
 20
95051.85070343287
 30
0.0
 11
105021.7174609368
 21
95051.85155228909
 31
0.0
  0
LINE
  5
53015
330
1F
100
AcDbEntity
  8
freecads.com
100
AcDbLine
 10
105021.7174609368
 20
95051.85155228909
 30
0.0
 11
105021.7385275347
 21
95051.85223507146
 31
0.0
  0
LINE
  5
53016
330
1F
100
AcDbEntity
  8
freecads.com
100
AcDbLine
 10
105021.7385275347
 20
95051.85223507146
 30
0.0
 11
105021.7595868618
 21
95051.8527518629
 31
0.0
  0
LINE
  5
53017
330
1F
100
AcDbEntity
  8
freecads.com
100
AcDbLine
 10
105021.7595868618
 20
95051.8527518629
 30
0.0
 11
105021.780639653
 21
95051.8531025785
 31
0.0
  0
LINE
  5
53018
330
1F
100
AcDbEntity
  8
freecads.com
100
AcDbLine
 10
105021.780639653
 20
95051.8531025785
 30
0.0
 11
105021.8001229828
 21
95051.8532915863
 31
0.0
  0
LINE
  5
53019
330
1F
100
AcDbEntity
  8
freecads.com
100
AcDbLine
 10
105021.8001229828
 20
95051.8532915863
 30
0.0
 11
105021.8164720367
 21
95051.85332434887
 31
0.0
  0
LINE
  5
5301A
330
1F
100
AcDbEntity
  8
freecads.com
100
AcDbLine
 10
105021.8164720367
 20
95051.85332434887
 30
0.0
 11
105021.8285835026
 21
95051.85429977297
 31
0.0
  0
LINE
  5
5301B
330
1F
100
AcDbEntity
  8
freecads.com
100
AcDbLine
 10
105021.8285835026
 20
95051.85429977297
 30
0.0
 11
105021.8353535865
 21
95051.8573175219
 31
0.0
  0
LINE
  5
5301C
330
1F
100
AcDbEntity
  8
freecads.com
100
AcDbLine
 10
105021.8353535865
 20
95051.8573175219
 30
0.0
 11
105021.8390110279
 21
95051.8632413501
 31
0.0
  0
LINE
  5
5301D
330
1F
100
AcDbEntity
  8
freecads.com
100
AcDbLine
 10
105021.8390110279
 20
95051.8632413501
 30
0.0
 11
105021.8417833336
 21
95051.87290729088
 31
0.0
  0
LINE
  5
5301E
330
1F
100
AcDbEntity
  8
freecads.com
100
AcDbLine
 10
105021.8417833336
 20
95051.87290729088
 30
0.0
 11
105021.8417854279
 21
95051.87293526292
 31
0.0
  0
LINE
  5
5301F
330
1F
100
AcDbEntity
  8
freecads.com
100
AcDbLine
 10
105021.8417854279
 20
95051.87293526292
 30
0.0
 11
105021.8435374228
 21
95051.88189357413
 31
0.0
  0
LINE
  5
53020
330
1F
100
AcDbEntity
  8
freecads.com
100
AcDbLine
 10
105021.8435374228
 20
95051.88189357413
 30
0.0
 11
105021.8435382922
 21
95051.88193255284
 31
0.0
  0
LINE
  5
53021
330
1F
100
AcDbEntity
  8
freecads.com
100
AcDbLine
 10
105021.8435382922
 20
95051.88193255284
 30
0.0
 11
105021.8441312374
 21
95051.88572198782
 31
0.0
  0
LINE
  5
53022
330
1F
100
AcDbEntity
  8
freecads.com
100
AcDbLine
 10
105021.8441312374
 20
95051.88572198782
 30
0.0
 11
105021.8441316089
 21
95051.88576575566
 31
0.0
  0
LINE
  5
53023
330
1F
100
AcDbEntity
  8
freecads.com
100
AcDbLine
 10
105021.8441316089
 20
95051.88576575566
 30
0.0
 11
105021.8447516011
 21
95051.94213162873
 31
0.0
  0
LINE
  5
53024
330
1F
100
AcDbEntity
  8
freecads.com
100
AcDbLine
 10
105021.8447516011
 20
95051.94213162873
 30
0.0
 11
105021.8449910337
 21
95051.96390961605
 31
0.0
  0
LINE
  5
53025
330
1F
100
AcDbEntity
  8
freecads.com
100
AcDbLine
 10
105021.8449910337
 20
95051.96390961605
 30
0.0
 11
105021.8452688779
 21
95051.98920397074
 31
0.0
  0
LINE
  5
53026
330
1F
100
AcDbEntity
  8
freecads.com
100
AcDbLine
 10
105021.8452688779
 20
95051.98920397074
 30
0.0
 11
105021.8455663626
 21
95052.01624340326
 31
0.0
  0
LINE
  5
53027
330
1F
100
AcDbEntity
  8
freecads.com
100
AcDbLine
 10
105021.8455663626
 20
95052.01624340326
 30
0.0
 11
105021.8458633731
 21
95052.04325712988
 31
0.0
  0
LINE
  5
53028
330
1F
100
AcDbEntity
  8
freecads.com
100
AcDbLine
 10
105021.8458633731
 20
95052.04325712988
 30
0.0
 11
105021.8516295582
 21
95052.56729540887
 31
0.0
  0
LINE
  5
53029
330
1F
100
AcDbEntity
  8
freecads.com
100
AcDbLine
 10
105021.8516295582
 20
95052.56729540887
 30
0.0
 11
105021.8516475572
 21
95052.56931523289
 31
0.0
  0
LINE
  5
5302A
330
1F
100
AcDbEntity
  8
freecads.com
100
AcDbLine
 10
105021.8516475572
 20
95052.56931523289
 30
0.0
 11
105021.8516546266
 21
95052.56995181953
 31
0.0
  0
LINE
  5
5302B
330
1F
100
AcDbEntity
  8
freecads.com
100
AcDbLine
 10
105021.8516546266
 20
95052.56995181953
 30
0.0
 11
105021.8516918016
 21
95052.57329935062
 31
0.0
  0
LINE
  5
5302C
330
1F
100
AcDbEntity
  8
freecads.com
100
AcDbLine
 10
105021.8516918016
 20
95052.57329935062
 30
0.0
 11
105021.851754754
 21
95052.57903829233
 31
0.0
  0
LINE
  5
5302D
330
1F
100
AcDbEntity
  8
freecads.com
100
AcDbLine
 10
105021.851754754
 20
95052.57903829233
 30
0.0
 11
105021.8517967492
 21
95052.58287241511
 31
0.0
  0
LINE
  5
5302E
330
1F
100
AcDbEntity
  8
freecads.com
100
AcDbLine
 10
105021.8517967492
 20
95052.58287241511
 30
0.0
 11
105021.8518345017
 21
95052.58631918364
 31
0.0
  0
LINE
  5
5302F
330
1F
100
AcDbEntity
  8
freecads.com
100
AcDbLine
 10
105021.8518345017
 20
95052.58631918364
 30
0.0
 11
105021.8519291951
 21
95052.59492931804
 31
0.0
  0
LINE
  5
53030
330
1F
100
AcDbEntity
  8
freecads.com
100
AcDbLine
 10
105021.8519291951
 20
95052.59492931804
 30
0.0
 11
105021.8520374827
 21
95052.60478158076
 31
0.0
  0
LINE
  5
53031
330
1F
100
AcDbEntity
  8
freecads.com
100
AcDbLine
 10
105021.8520374827
 20
95052.60478158076
 30
0.0
 11
105021.8521586849
 21
95052.61578860407
 31
0.0
  0
LINE
  5
53032
330
1F
100
AcDbEntity
  8
freecads.com
100
AcDbLine
 10
105021.8521586849
 20
95052.61578860407
 30
0.0
 11
105021.8522913156
 21
95052.62784050716
 31
0.0
  0
LINE
  5
53033
330
1F
100
AcDbEntity
  8
freecads.com
100
AcDbLine
 10
105021.8522913156
 20
95052.62784050716
 30
0.0
 11
105021.8524341421
 21
95052.64082808084
 31
0.0
  0
LINE
  5
53034
330
1F
100
AcDbEntity
  8
freecads.com
100
AcDbLine
 10
105021.8524341421
 20
95052.64082808084
 30
0.0
 11
105021.852589891
 21
95052.65499284533
 31
0.0
  0
LINE
  5
53035
330
1F
100
AcDbEntity
  8
freecads.com
100
AcDbLine
 10
105021.852589891
 20
95052.65499284533
 30
0.0
 11
105021.8527614788
 21
95052.67057682461
 31
0.0
  0
LINE
  5
53036
330
1F
100
AcDbEntity
  8
freecads.com
100
AcDbLine
 10
105021.8527614788
 20
95052.67057682461
 30
0.0
 11
105021.8529521065
 21
95052.68792873273
 31
0.0
  0
LINE
  5
53037
330
1F
100
AcDbEntity
  8
freecads.com
100
AcDbLine
 10
105021.8529521065
 20
95052.68792873273
 30
0.0
 11
105021.8531658997
 21
95052.70739770264
 31
0.0
  0
LINE
  5
53038
330
1F
100
AcDbEntity
  8
freecads.com
100
AcDbLine
 10
105021.8531658997
 20
95052.70739770264
 30
0.0
 11
105021.8533928129
 21
95052.72805049973
 31
0.0
  0
LINE
  5
53039
330
1F
100
AcDbEntity
  8
freecads.com
100
AcDbLine
 10
105021.8533928129
 20
95052.72805049973
 30
0.0
 11
105021.8536227373
 21
95052.74895372149
 31
0.0
  0
LINE
  5
5303A
330
1F
100
AcDbEntity
  8
freecads.com
100
AcDbLine
 10
105021.8536227373
 20
95052.74895372149
 30
0.0
 11
105021.8538427664
 21
95052.76892614475
 31
0.0
  0
LINE
  5
5303B
330
1F
100
AcDbEntity
  8
freecads.com
100
AcDbLine
 10
105021.8538427664
 20
95052.76892614475
 30
0.0
 11
105021.8539647353
 21
95052.78005539908
 31
0.0
  0
LINE
  5
5303C
330
1F
100
AcDbEntity
  8
freecads.com
100
AcDbLine
 10
105021.8539647353
 20
95052.78005539908
 30
0.0
 11
105021.8541126122
 21
95052.79349031013
 31
0.0
  0
LINE
  5
5303D
330
1F
100
AcDbEntity
  8
freecads.com
100
AcDbLine
 10
105021.8541126122
 20
95052.79349031013
 30
0.0
 11
105021.854200137
 21
95052.80144376138
 31
0.0
  0
LINE
  5
5303E
330
1F
100
AcDbEntity
  8
freecads.com
100
AcDbLine
 10
105021.854200137
 20
95052.80144376138
 30
0.0
 11
105021.854511532
 21
95052.82972616187
 31
0.0
  0
LINE
  5
5303F
330
1F
100
AcDbEntity
  8
freecads.com
100
AcDbLine
 10
105021.854511532
 20
95052.82972616187
 30
0.0
 11
105021.8527983355
 21
95052.83095094345
 31
0.0
  0
LINE
  5
53040
330
1F
100
AcDbEntity
  8
freecads.com
100
AcDbLine
 10
105021.8527983355
 20
95052.83095094345
 30
0.0
 11
105021.8453118107
 21
95052.8327875266
 31
0.0
  0
LINE
  5
53041
330
1F
100
AcDbEntity
  8
freecads.com
100
AcDbLine
 10
105021.8453118107
 20
95052.8327875266
 30
0.0
 11
105021.8262521207
 21
95052.83343452646
 31
0.0
  0
LINE
  5
53042
330
1F
100
AcDbEntity
  8
freecads.com
100
AcDbLine
 10
105021.8262521207
 20
95052.83343452646
 30
0.0
 11
105021.8009744406
 21
95052.83336959555
 31
0.0
  0
LINE
  5
53043
330
1F
100
AcDbEntity
  8
freecads.com
100
AcDbLine
 10
105021.8009744406
 20
95052.83336959555
 30
0.0
 11
105021.7748354156
 21
95052.83307021647
 31
0.0
  0
LINE
  5
53044
330
1F
100
AcDbEntity
  8
freecads.com
100
AcDbLine
 10
105021.7748354156
 20
95052.83307021647
 30
0.0
 11
105021.7482680652
 21
95052.83253557871
 31
0.0
  0
LINE
  5
53045
330
1F
100
AcDbEntity
  8
freecads.com
100
AcDbLine
 10
105021.7482680652
 20
95052.83253557871
 30
0.0
 11
105021.7217068156
 21
95052.8317645339
 31
0.0
  0
LINE
  5
53046
330
1F
100
AcDbEntity
  8
freecads.com
100
AcDbLine
 10
105021.7217068156
 20
95052.8317645339
 30
0.0
 11
105021.6951533262
 21
95052.83075741592
 31
0.0
  0
LINE
  5
53047
330
1F
100
AcDbEntity
  8
freecads.com
100
AcDbLine
 10
105021.6951533262
 20
95052.83075741592
 30
0.0
 11
105021.6686091936
 21
95052.82951439074
 31
0.0
  0
LINE
  5
53048
330
1F
100
AcDbEntity
  8
freecads.com
100
AcDbLine
 10
105021.6686091936
 20
95052.82951439074
 30
0.0
 11
105021.6420766857
 21
95052.82803537141
 31
0.0
  0
LINE
  5
53049
330
1F
100
AcDbEntity
  8
freecads.com
100
AcDbLine
 10
105021.6420766857
 20
95052.82803537141
 30
0.0
 11
105021.6155574622
 21
95052.82632069183
 31
0.0
  0
LINE
  5
5304A
330
1F
100
AcDbEntity
  8
freecads.com
100
AcDbLine
 10
105021.6155574622
 20
95052.82632069183
 30
0.0
 11
105021.5890536648
 21
95052.82436992922
 31
0.0
  0
LINE
  5
5304B
330
1F
100
AcDbEntity
  8
freecads.com
100
AcDbLine
 10
105021.5890536648
 20
95052.82436992922
 30
0.0
 11
105021.5625670794
 21
95052.82218375331
 31
0.0
  0
LINE
  5
5304C
330
1F
100
AcDbEntity
  8
freecads.com
100
AcDbLine
 10
105021.5625670794
 20
95052.82218375331
 30
0.0
 11
105021.5360993025
 21
95052.81976233009
 31
0.0
  0
LINE
  5
5304D
330
1F
100
AcDbEntity
  8
freecads.com
100
AcDbLine
 10
105021.5360993025
 20
95052.81976233009
 30
0.0
 11
105021.5096518672
 21
95052.81710565752
 31
0.0
  0
LINE
  5
5304E
330
1F
100
AcDbEntity
  8
freecads.com
100
AcDbLine
 10
105021.5096518672
 20
95052.81710565752
 30
0.0
 11
105021.4832256981
 21
95052.81421415451
 31
0.0
  0
LINE
  5
5304F
330
1F
100
AcDbEntity
  8
freecads.com
100
AcDbLine
 10
105021.4832256981
 20
95052.81421415451
 30
0.0
 11
105021.4568231899
 21
95052.81108806999
 31
0.0
  0
LINE
  5
53050
330
1F
100
AcDbEntity
  8
freecads.com
100
AcDbLine
 10
105021.4568231899
 20
95052.81108806999
 30
0.0
 11
105021.4304457491
 21
95052.80772706608
 31
0.0
  0
LINE
  5
53051
330
1F
100
AcDbEntity
  8
freecads.com
100
AcDbLine
 10
105021.4304457491
 20
95052.80772706608
 30
0.0
 11
105021.4040937552
 21
95052.80413215041
 31
0.0
  0
LINE
  5
53052
330
1F
100
AcDbEntity
  8
freecads.com
100
AcDbLine
 10
105021.4040937552
 20
95052.80413215041
 30
0.0
 11
105021.3777688044
 21
95052.80030348894
 31
0.0
  0
LINE
  5
53053
330
1F
100
AcDbEntity
  8
freecads.com
100
AcDbLine
 10
105021.3777688044
 20
95052.80030348894
 30
0.0
 11
105021.3514716951
 21
95052.79624116466
 31
0.0
  0
LINE
  5
53054
330
1F
100
AcDbEntity
  8
freecads.com
100
AcDbLine
 10
105021.3514716951
 20
95052.79624116466
 30
0.0
 11
105021.3252040867
 21
95052.79194551143
 31
0.0
  0
LINE
  5
53055
330
1F
100
AcDbEntity
  8
freecads.com
100
AcDbLine
 10
105021.3252040867
 20
95052.79194551143
 30
0.0
 11
105021.298966169
 21
95052.78741703309
 31
0.0
  0
LINE
  5
53056
330
1F
100
AcDbEntity
  8
freecads.com
100
AcDbLine
 10
105021.298966169
 20
95052.78741703309
 30
0.0
 11
105021.2727580684
 21
95052.78265606548
 31
0.0
  0
LINE
  5
53057
330
1F
100
AcDbEntity
  8
freecads.com
100
AcDbLine
 10
105021.2727580684
 20
95052.78265606548
 30
0.0
 11
105021.2465814444
 21
95052.7776629425
 31
0.0
  0
LINE
  5
53058
330
1F
100
AcDbEntity
  8
freecads.com
100
AcDbLine
 10
105021.2465814444
 20
95052.7776629425
 30
0.0
 11
105021.2204356886
 21
95052.772438085
 31
0.0
  0
LINE
  5
53059
330
1F
100
AcDbEntity
  8
freecads.com
100
AcDbLine
 10
105021.2204356886
 20
95052.772438085
 30
0.0
 11
105021.1943210539
 21
95052.76698216469
 31
0.0
  0
LINE
  5
5305A
330
1F
100
AcDbEntity
  8
freecads.com
100
AcDbLine
 10
105021.1943210539
 20
95052.76698216469
 30
0.0
 11
105021.1682383385
 21
95052.76129526455
 31
0.0
  0
LINE
  5
5305B
330
1F
100
AcDbEntity
  8
freecads.com
100
AcDbLine
 10
105021.1682383385
 20
95052.76129526455
 30
0.0
 11
105021.1421870602
 21
95052.7553781413
 31
0.0
  0
LINE
  5
5305C
330
1F
100
AcDbEntity
  8
freecads.com
100
AcDbLine
 10
105021.1421870602
 20
95052.7553781413
 30
0.0
 11
105021.1161672191
 21
95052.74923079491
 31
0.0
  0
LINE
  5
5305D
330
1F
100
AcDbEntity
  8
freecads.com
100
AcDbLine
 10
105021.1161672191
 20
95052.74923079491
 30
0.0
 11
105021.0901777878
 21
95052.74285457085
 31
0.0
  0
LINE
  5
5305E
330
1F
100
AcDbEntity
  8
freecads.com
100
AcDbLine
 10
105021.0901777878
 20
95052.74285457085
 30
0.0
 11
105021.0642186398
 21
95052.73624913327
 31
0.0
  0
LINE
  5
5305F
330
1F
100
AcDbEntity
  8
freecads.com
100
AcDbLine
 10
105021.0642186398
 20
95052.73624913327
 30
0.0
 11
105021.0382887479
 21
95052.72941582761
 31
0.0
  0
LINE
  5
53060
330
1F
100
AcDbEntity
  8
freecads.com
100
AcDbLine
 10
105021.0382887479
 20
95052.72941582761
 30
0.0
 11
105021.0123873769
 21
95052.72235473881
 31
0.0
  0
LINE
  5
53061
330
1F
100
AcDbEntity
  8
freecads.com
100
AcDbLine
 10
105021.0123873769
 20
95052.72235473881
 30
0.0
 11
105020.9865131836
 21
95052.71506637269
 31
0.0
  0
LINE
  5
53062
330
1F
100
AcDbEntity
  8
freecads.com
100
AcDbLine
 10
105020.9865131836
 20
95052.71506637269
 30
0.0
 11
105020.9606643423
 21
95052.7075519917
 31
0.0
  0
LINE
  5
53063
330
1F
100
AcDbEntity
  8
freecads.com
100
AcDbLine
 10
105020.9606643423
 20
95052.7075519917
 30
0.0
 11
105020.9348407265
 21
95052.69981125996
 31
0.0
  0
LINE
  5
53064
330
1F
100
AcDbEntity
  8
freecads.com
100
AcDbLine
 10
105020.9348407265
 20
95052.69981125996
 30
0.0
 11
105020.9090390408
 21
95052.69184560988
 31
0.0
  0
LINE
  5
53065
330
1F
100
AcDbEntity
  8
freecads.com
100
AcDbLine
 10
105020.9090390408
 20
95052.69184560988
 30
0.0
 11
105020.8832586767
 21
95052.68365546228
 31
0.0
  0
LINE
  5
53066
330
1F
100
AcDbEntity
  8
freecads.com
100
AcDbLine
 10
105020.8832586767
 20
95052.68365546228
 30
0.0
 11
105020.8574967575
 21
95052.67524132493
 31
0.0
  0
LINE
  5
53067
330
1F
100
AcDbEntity
  8
freecads.com
100
AcDbLine
 10
105020.8574967575
 20
95052.67524132493
 30
0.0
 11
105020.8317520662
 21
95052.66660403949
 31
0.0
  0
LINE
  5
53068
330
1F
100
AcDbEntity
  8
freecads.com
100
AcDbLine
 10
105020.8317520662
 20
95052.66660403949
 30
0.0
 11
105020.8051846271
 21
95052.6574029438
 31
0.0
  0
LINE
  5
53069
330
1F
100
AcDbEntity
  8
freecads.com
100
AcDbLine
 10
105020.8051846271
 20
95052.6574029438
 30
0.0
 11
105020.7769566061
 21
95052.64729695289
 31
0.0
  0
LINE
  5
5306A
330
1F
100
AcDbEntity
  8
freecads.com
100
AcDbLine
 10
105020.7769566061
 20
95052.64729695289
 30
0.0
 11
105020.7462284463
 21
95052.63594448008
 31
0.0
  0
LINE
  5
5306B
330
1F
100
AcDbEntity
  8
freecads.com
100
AcDbLine
 10
105020.7462284463
 20
95052.63594448008
 30
0.0
 11
105020.7121646056
 21
95052.62300645361
 31
0.0
  0
LINE
  5
5306C
330
1F
100
AcDbEntity
  8
freecads.com
100
AcDbLine
 10
105020.7121646056
 20
95052.62300645361
 30
0.0
 11
105020.6760635177
 21
95052.60832191918
 31
0.0
  0
LINE
  5
5306D
330
1F
100
AcDbEntity
  8
freecads.com
100
AcDbLine
 10
105020.6760635177
 20
95052.60832191918
 30
0.0
 11
105020.6392245883
 21
95052.59173454165
 31
0.0
  0
LINE
  5
5306E
330
1F
100
AcDbEntity
  8
freecads.com
100
AcDbLine
 10
105020.6392245883
 20
95052.59173454165
 30
0.0
 11
105020.6030035233
 21
95052.57322938318
 31
0.0
  0
LINE
  5
5306F
330
1F
100
AcDbEntity
  8
freecads.com
100
AcDbLine
 10
105020.6030035233
 20
95052.57322938318
 30
0.0
 11
105020.5685380284
 21
95052.5522389289
 31
0.0
  0
LINE
  5
53070
330
1F
100
AcDbEntity
  8
freecads.com
100
AcDbLine
 10
105020.5685380284
 20
95052.5522389289
 30
0.0
 11
105020.5364131738
 21
95052.52934552533
 31
0.0
  0
LINE
  5
53071
330
1F
100
AcDbEntity
  8
freecads.com
100
AcDbLine
 10
105020.5364131738
 20
95052.52934552533
 30
0.0
 11
105020.5071220884
 21
95052.50489137408
 31
0.0
  0
LINE
  5
53072
330
1F
100
AcDbEntity
  8
freecads.com
100
AcDbLine
 10
105020.5071220884
 20
95052.50489137408
 30
0.0
 11
105020.4862674788
 21
95052.48567299226
 31
0.0
  0
LINE
  5
53073
330
1F
100
AcDbEntity
  8
freecads.com
100
AcDbLine
 10
105020.4862674788
 20
95052.48567299226
 30
0.0
 11
105020.4794813318
 21
95052.47855448581
 31
0.0
  0
LINE
  5
53074
330
1F
100
AcDbEntity
  8
freecads.com
100
AcDbLine
 10
105020.4794813318
 20
95052.47855448581
 30
0.0
 11
105020.4793943841
 21
95052.47778978695
 31
0.0
  0
LINE
  5
53075
330
1F
100
AcDbEntity
  8
freecads.com
100
AcDbLine
 10
105020.4793943841
 20
95052.47778978695
 30
0.0
 11
105020.4786362185
 21
95052.47763383742
 31
0.0
  0
LINE
  5
53076
330
1F
100
AcDbEntity
  8
freecads.com
100
AcDbLine
 10
105020.4786362185
 20
95052.47763383742
 30
0.0
 11
105020.4724685784
 21
95052.47072404978
 31
0.0
  0
LINE
  5
53077
330
1F
100
AcDbEntity
  8
freecads.com
100
AcDbLine
 10
105020.4724685784
 20
95052.47072404978
 30
0.0
 11
105020.4561530801
 21
95052.44969750073
 31
0.0
  0
LINE
  5
53078
330
1F
100
AcDbEntity
  8
freecads.com
100
AcDbLine
 10
105020.4561530801
 20
95052.44969750073
 30
0.0
 11
105020.4365455258
 21
95052.42132397267
 31
0.0
  0
LINE
  5
53079
330
1F
100
AcDbEntity
  8
freecads.com
100
AcDbLine
 10
105020.4365455258
 20
95052.42132397267
 30
0.0
 11
105020.4205045312
 21
95052.39237257228
 31
0.0
  0
LINE
  5
5307A
330
1F
100
AcDbEntity
  8
freecads.com
100
AcDbLine
 10
105020.4205045312
 20
95052.39237257228
 30
0.0
 11
105020.4083557959
 21
95052.36352712662
 31
0.0
  0
LINE
  5
5307B
330
1F
100
AcDbEntity
  8
freecads.com
100
AcDbLine
 10
105020.4083557959
 20
95052.36352712662
 30
0.0
 11
105020.4004258181
 21
95052.33547154571
 31
0.0
  0
LINE
  5
5307C
330
1F
100
AcDbEntity
  8
freecads.com
100
AcDbLine
 10
105020.4004258181
 20
95052.33547154571
 30
0.0
 11
105020.3961872741
 21
95052.30830043085
 31
0.0
  0
LINE
  5
5307D
330
1F
100
AcDbEntity
  8
freecads.com
100
AcDbLine
 10
105020.3961872741
 20
95052.30830043085
 30
0.0
 11
105020.3951137646
 21
95052.28210880231
 31
0.0
  0
LINE
  5
5307E
330
1F
100
AcDbEntity
  8
freecads.com
100
AcDbLine
 10
105020.3951137646
 20
95052.28210880231
 30
0.0
 11
105020.3966790172
 21
95052.25699201609
 31
0.0
  0
LINE
  5
5307F
330
1F
100
AcDbEntity
  8
freecads.com
100
AcDbLine
 10
105020.3966790172
 20
95052.25699201609
 30
0.0
 11
105020.4003575573
 21
95052.23304551124
 31
0.0
  0
LINE
  5
53080
330
1F
100
AcDbEntity
  8
freecads.com
100
AcDbLine
 10
105020.4003575573
 20
95052.23304551124
 30
0.0
 11
105020.4006540377
 21
95052.23126617035
 31
0.0
  0
LINE
  5
53081
330
1F
100
AcDbEntity
  8
freecads.com
100
AcDbLine
 10
105020.4006540377
 20
95052.23126617035
 30
0.0
 11
105020.40550758
 21
95052.20955050099
 31
0.0
  0
LINE
  5
53082
330
1F
100
AcDbEntity
  8
freecads.com
100
AcDbLine
 10
105020.40550758
 20
95052.20955050099
 30
0.0
 11
105020.4108817552
 21
95052.19022209432
 31
0.0
  0
LINE
  5
53083
330
1F
100
AcDbEntity
  8
freecads.com
100
AcDbLine
 10
105020.4108817552
 20
95052.19022209432
 30
0.0
 11
105020.4114361363
 21
95052.18840663328
 31
0.0
  0
LINE
  5
53084
330
1F
100
AcDbEntity
  8
freecads.com
100
AcDbLine
 10
105020.4114361363
 20
95052.18840663328
 30
0.0
 11
105020.4138415654
 21
95052.18065587088
 31
0.0
  0
LINE
  5
53085
330
1F
100
AcDbEntity
  8
freecads.com
100
AcDbLine
 10
105020.4138415654
 20
95052.18065587088
 30
0.0
 11
105020.4152760651
 21
95052.17609338137
 31
0.0
  0
LINE
  5
53086
330
1F
100
AcDbEntity
  8
freecads.com
100
AcDbLine
 10
105020.4152760651
 20
95052.17609338137
 30
0.0
 11
105020.4162535619
 21
95052.17296533391
 31
0.0
  0
LINE
  5
53087
330
1F
100
AcDbEntity
  8
freecads.com
100
AcDbLine
 10
105020.4162535619
 20
95052.17296533391
 30
0.0
 11
105020.4174807237
 21
95052.16896848727
 31
0.0
  0
LINE
  5
53088
330
1F
100
AcDbEntity
  8
freecads.com
100
AcDbLine
 10
105020.4174807237
 20
95052.16896848727
 30
0.0
 11
105020.4181367111
 21
95052.16692380471
 31
0.0
  0
LINE
  5
53089
330
1F
100
AcDbEntity
  8
freecads.com
100
AcDbLine
 10
105020.4181367111
 20
95052.16692380471
 30
0.0
 11
105020.4210989081
 21
95052.1574657808
 31
0.0
  0
LINE
  5
5308A
330
1F
100
AcDbEntity
  8
freecads.com
100
AcDbLine
 10
105020.4210989081
 20
95052.1574657808
 30
0.0
 11
105020.4211898911
 21
95052.15718557126
 31
0.0
  0
LINE
  5
5308B
330
1F
100
AcDbEntity
  8
freecads.com
100
AcDbLine
 10
105020.4211898911
 20
95052.15718557126
 30
0.0
 11
105020.4217379517
 21
95052.1553434965
 31
0.0
  0
LINE
  5
5308C
330
1F
100
AcDbEntity
  8
freecads.com
100
AcDbLine
 10
105020.4217379517
 20
95052.1553434965
 30
0.0
 11
105020.4221225809
 21
95052.15418536685
 31
0.0
  0
LINE
  5
5308D
330
1F
100
AcDbEntity
  8
freecads.com
100
AcDbLine
 10
105020.4221225809
 20
95052.15418536685
 30
0.0
 11
105020.4257627113
 21
95052.14260038805
 31
0.0
  0
LINE
  5
5308E
330
1F
100
AcDbEntity
  8
freecads.com
100
AcDbLine
 10
105020.4257627113
 20
95052.14260038805
 30
0.0
 11
105020.4263080199
 21
95052.14073638196
 31
0.0
  0
LINE
  5
5308F
330
1F
100
AcDbEntity
  8
freecads.com
100
AcDbLine
 10
105020.4263080199
 20
95052.14073638196
 30
0.0
 11
105020.435847516
 21
95052.11019128326
 31
0.0
  0
LINE
  5
53090
330
1F
100
AcDbEntity
  8
freecads.com
100
AcDbLine
 10
105020.435847516
 20
95052.11019128326
 30
0.0
 11
105020.4415591032
 21
95052.09175301278
 31
0.0
  0
LINE
  5
53091
330
1F
100
AcDbEntity
  8
freecads.com
100
AcDbLine
 10
105020.4415591032
 20
95052.09175301278
 30
0.0
 11
105020.4483939857
 21
95052.06953703909
 31
0.0
  0
LINE
  5
53092
330
1F
100
AcDbEntity
  8
freecads.com
100
AcDbLine
 10
105020.4483939857
 20
95052.06953703909
 30
0.0
 11
105020.4567228756
 21
95052.0422932615
 31
0.0
  0
LINE
  5
53093
330
1F
100
AcDbEntity
  8
freecads.com
100
AcDbLine
 10
105020.4567228756
 20
95052.0422932615
 30
0.0
 11
105020.5238529921
 21
95051.82179375511
 31
0.0
  0
LINE
  5
53094
330
1F
100
AcDbEntity
  8
freecads.com
100
AcDbLine
 10
105020.6698149703
 20
95052.19348409422
 30
0.0
 11
105020.6691901758
 21
95052.18236515528
 31
0.0
  0
LINE
  5
53095
330
1F
100
AcDbEntity
  8
freecads.com
100
AcDbLine
 10
105020.6691901758
 20
95052.18236515528
 30
0.0
 11
105020.6689912449
 21
95052.18079827979
 31
0.0
  0
LINE
  5
53096
330
1F
100
AcDbEntity
  8
freecads.com
100
AcDbLine
 10
105020.6689912449
 20
95052.18079827979
 30
0.0
 11
105020.6674217514
 21
95052.16843618976
 31
0.0
  0
LINE
  5
53097
330
1F
100
AcDbEntity
  8
freecads.com
100
AcDbLine
 10
105020.6674217514
 20
95052.16843618976
 30
0.0
 11
105020.6672045896
 21
95052.16672571798
 31
0.0
  0
LINE
  5
53098
330
1F
100
AcDbEntity
  8
freecads.com
100
AcDbLine
 10
105020.6672045896
 20
95052.16672571798
 30
0.0
 11
105020.6664394859
 21
95052.16319153623
 31
0.0
  0
LINE
  5
53099
330
1F
100
AcDbEntity
  8
freecads.com
100
AcDbLine
 10
105020.6664394859
 20
95052.16319153623
 30
0.0
 11
105020.6644858691
 21
95052.15416735216
 31
0.0
  0
LINE
  5
5309A
330
1F
100
AcDbEntity
  8
freecads.com
100
AcDbLine
 10
105020.6644858691
 20
95052.15416735216
 30
0.0
 11
105020.6641212632
 21
95052.15248315742
 31
0.0
  0
LINE
  5
5309B
330
1F
100
AcDbEntity
  8
freecads.com
100
AcDbLine
 10
105020.6641212632
 20
95052.15248315742
 30
0.0
 11
105020.6598305286
 21
95052.13921782583
 31
0.0
  0
LINE
  5
5309C
330
1F
100
AcDbEntity
  8
freecads.com
100
AcDbLine
 10
105020.6598305286
 20
95052.13921782583
 30
0.0
 11
105020.6541437689
 21
95052.12665483956
 31
0.0
  0
LINE
  5
5309D
330
1F
100
AcDbEntity
  8
freecads.com
100
AcDbLine
 10
105020.6541437689
 20
95052.12665483956
 30
0.0
 11
105020.6466547704
 21
95052.11424690472
 31
0.0
  0
LINE
  5
5309E
330
1F
100
AcDbEntity
  8
freecads.com
100
AcDbLine
 10
105020.6466547704
 20
95052.11424690472
 30
0.0
 11
105020.6369950316
 21
95052.10135947837
 31
0.0
  0
LINE
  5
5309F
330
1F
100
AcDbEntity
  8
freecads.com
100
AcDbLine
 10
105020.6369950316
 20
95052.10135947837
 30
0.0
 11
105020.6242769308
 21
95052.08778813715
 31
0.0
  0
LINE
  5
530A0
330
1F
100
AcDbEntity
  8
freecads.com
100
AcDbLine
 10
105020.6242769308
 20
95052.08778813715
 30
0.0
 11
105020.6074066081
 21
95052.07486061404
 31
0.0
  0
LINE
  5
530A1
330
1F
100
AcDbEntity
  8
freecads.com
100
AcDbLine
 10
105020.6074066081
 20
95052.07486061404
 30
0.0
 11
105020.5866168181
 21
95052.06331739344
 31
0.0
  0
LINE
  5
530A2
330
1F
100
AcDbEntity
  8
freecads.com
100
AcDbLine
 10
105020.5866168181
 20
95052.06331739344
 30
0.0
 11
105020.5634559452
 21
95052.05285472072
 31
0.0
  0
LINE
  5
530A3
330
1F
100
AcDbEntity
  8
freecads.com
100
AcDbLine
 10
105020.5634559452
 20
95052.05285472072
 30
0.0
 11
105020.4647445662
 21
95052.01866672162
 31
0.0
  0
LINE
  5
530A4
330
1F
100
AcDbEntity
  8
freecads.com
100
AcDbLine
 10
105020.7876033184
 20
95052.37318487179
 30
0.0
 11
105020.784710787
 21
95052.37213486951
 31
0.0
  0
LINE
  5
530A5
330
1F
100
AcDbEntity
  8
freecads.com
100
AcDbLine
 10
105020.784710787
 20
95052.37213486951
 30
0.0
 11
105020.7752243467
 21
95052.36869124773
 31
0.0
  0
LINE
  5
530A6
330
1F
100
AcDbEntity
  8
freecads.com
100
AcDbLine
 10
105020.7752243467
 20
95052.36869124773
 30
0.0
 11
105020.7654392677
 21
95052.36513921873
 31
0.0
  0
LINE
  5
530A7
330
1F
100
AcDbEntity
  8
freecads.com
100
AcDbLine
 10
105020.7654392677
 20
95052.36513921873
 30
0.0
 11
105020.7591713577
 21
95052.36278849952
 31
0.0
  0
LINE
  5
530A8
330
1F
100
AcDbEntity
  8
freecads.com
100
AcDbLine
 10
105020.7591713577
 20
95052.36278849952
 30
0.0
 11
105020.7498172974
 21
95052.35928034935
 31
0.0
  0
LINE
  5
530A9
330
1F
100
AcDbEntity
  8
freecads.com
100
AcDbLine
 10
105020.7498172974
 20
95052.35928034935
 30
0.0
 11
105020.7446565391
 21
95052.35734485673
 31
0.0
  0
LINE
  5
530AA
330
1F
100
AcDbEntity
  8
freecads.com
100
AcDbLine
 10
105020.7446565391
 20
95052.35734485673
 30
0.0
 11
105020.7316672965
 21
95052.35167443835
 31
0.0
  0
LINE
  5
530AB
330
1F
100
AcDbEntity
  8
freecads.com
100
AcDbLine
 10
105020.7316672965
 20
95052.35167443835
 30
0.0
 11
105020.7277812912
 21
95052.34997801338
 31
0.0
  0
LINE
  5
530AC
330
1F
100
AcDbEntity
  8
freecads.com
100
AcDbLine
 10
105020.7277812912
 20
95052.34997801338
 30
0.0
 11
105020.7246918449
 21
95052.34834814016
 31
0.0
  0
LINE
  5
530AD
330
1F
100
AcDbEntity
  8
freecads.com
100
AcDbLine
 10
105020.7246918449
 20
95052.34834814016
 30
0.0
 11
105020.716397793
 21
95052.3439725169
 31
0.0
  0
LINE
  5
530AE
330
1F
100
AcDbEntity
  8
freecads.com
100
AcDbLine
 10
105020.713953815
 20
95052.34281877182
 30
0.0
 11
105020.7112948843
 21
95052.3411001223
 31
0.0
  0
LINE
  5
530AF
330
1F
100
AcDbEntity
  8
freecads.com
100
AcDbLine
 10
105020.7112948843
 20
95052.3411001223
 30
0.0
 11
105020.706055956
 21
95052.33771384309
 31
0.0
  0
LINE
  5
530B0
330
1F
100
AcDbEntity
  8
freecads.com
100
AcDbLine
 10
105020.7075702226
 20
95051.69770003002
 30
0.0
 11
105020.7183038485
 21
95051.70658040267
 31
0.0
  0
LINE
  5
530B1
330
1F
100
AcDbEntity
  8
freecads.com
100
AcDbLine
 10
105020.7183038485
 20
95051.70658040267
 30
0.0
 11
105020.7217267655
 21
95051.70941232348
 31
0.0
  0
LINE
  5
530B2
330
1F
100
AcDbEntity
  8
freecads.com
100
AcDbLine
 10
105020.7217267655
 20
95051.70941232348
 30
0.0
 11
105020.724858961
 21
95051.71263259247
 31
0.0
  0
LINE
  5
530B3
330
1F
100
AcDbEntity
  8
freecads.com
100
AcDbLine
 10
105020.724858961
 20
95051.71263259247
 30
0.0
 11
105020.7315601799
 21
95051.7195222414
 31
0.0
  0
LINE
  5
530B4
330
1F
100
AcDbEntity
  8
freecads.com
100
AcDbLine
 10
105020.7315601799
 20
95051.7195222414
 30
0.0
 11
105020.740168119
 21
95051.72839758987
 31
0.0
  0
LINE
  5
530B5
330
1F
100
AcDbEntity
  8
freecads.com
100
AcDbLine
 10
105020.740168119
 20
95051.72839758987
 30
0.0
 11
105020.7402033559
 21
95051.72840845283
 31
0.0
  0
LINE
  5
530B6
330
1F
100
AcDbEntity
  8
freecads.com
100
AcDbLine
 10
105020.7402033559
 20
95051.72840845283
 30
0.0
 11
105020.741090126
 21
95051.72933081375
 31
0.0
  0
LINE
  5
530B7
330
1F
100
AcDbEntity
  8
freecads.com
100
AcDbLine
 10
105020.741090126
 20
95051.72933081375
 30
0.0
 11
105020.7417580842
 21
95051.73000689806
 31
0.0
  0
LINE
  5
530B8
330
1F
100
AcDbEntity
  8
freecads.com
100
AcDbLine
 10
105020.7417580842
 20
95051.73000689806
 30
0.0
 11
105020.743177774
 21
95051.73197202953
 31
0.0
  0
LINE
  5
530B9
330
1F
100
AcDbEntity
  8
freecads.com
100
AcDbLine
 10
105020.743177774
 20
95051.73197202953
 30
0.0
 11
105020.7452047819
 21
95051.7347061219
 31
0.0
  0
LINE
  5
530BA
330
1F
100
AcDbEntity
  8
freecads.com
100
AcDbLine
 10
105020.7452047819
 20
95051.7347061219
 30
0.0
 11
105020.7534467829
 21
95051.74596613345
 31
0.0
  0
LINE
  5
530BB
330
1F
100
AcDbEntity
  8
freecads.com
100
AcDbLine
 10
105020.7534467829
 20
95051.74596613345
 30
0.0
 11
105020.7580229582
 21
95051.75218240909
 31
0.0
  0
LINE
  5
530BC
330
1F
100
AcDbEntity
  8
freecads.com
100
AcDbLine
 10
105020.7580229582
 20
95051.75218240909
 30
0.0
 11
105020.7616452216
 21
95051.76005014938
 31
0.0
  0
LINE
  5
530BD
330
1F
100
AcDbEntity
  8
freecads.com
100
AcDbLine
 10
105020.7616452216
 20
95051.76005014938
 30
0.0
 11
105020.7625687874
 21
95051.76205618136
 31
0.0
  0
LINE
  5
530BE
330
1F
100
AcDbEntity
  8
freecads.com
100
AcDbLine
 10
105020.7625687874
 20
95051.76205618136
 30
0.0
 11
105020.7666860469
 21
95051.77099907834
 31
0.0
  0
LINE
  5
530BF
330
1F
100
AcDbEntity
  8
freecads.com
100
AcDbLine
 10
105020.7666860469
 20
95051.77099907834
 30
0.0
 11
105020.768123407
 21
95051.77873080382
 31
0.0
  0
LINE
  5
530C0
330
1F
100
AcDbEntity
  8
freecads.com
100
AcDbLine
 10
105020.768123407
 20
95051.77873080382
 30
0.0
 11
105020.7702774669
 21
95051.79039375327
 31
0.0
  0
LINE
  5
530C1
330
1F
100
AcDbEntity
  8
freecads.com
100
AcDbLine
 10
105020.7702774669
 20
95051.79039375327
 30
0.0
 11
105020.770914747
 21
95051.79374574389
 31
0.0
  0
LINE
  5
530C2
330
1F
100
AcDbEntity
  8
freecads.com
100
AcDbLine
 10
105020.770914747
 20
95051.79374574389
 30
0.0
 11
105020.7705326178
 21
95051.79954142407
 31
0.0
  0
LINE
  5
530C3
330
1F
100
AcDbEntity
  8
freecads.com
100
AcDbLine
 10
105020.7705326178
 20
95051.79954142407
 30
0.0
 11
105020.7696708084
 21
95051.81261232268
 31
0.0
  0
LINE
  5
530C4
330
1F
100
AcDbEntity
  8
freecads.com
100
AcDbLine
 10
105020.7696708084
 20
95051.81261232268
 30
0.0
 11
105020.7687354482
 21
95051.81843934936
 31
0.0
  0
LINE
  5
530C5
330
1F
100
AcDbEntity
  8
freecads.com
100
AcDbLine
 10
105020.7687354482
 20
95051.81843934936
 30
0.0
 11
105020.7663956007
 21
95051.83301593188
 31
0.0
  0
LINE
  5
530C6
330
1F
100
AcDbEntity
  8
freecads.com
100
AcDbLine
 10
105020.7663956007
 20
95051.83301593188
 30
0.0
 11
105020.7643322325
 21
95051.8396455679
 31
0.0
  0
LINE
  5
530C7
330
1F
100
AcDbEntity
  8
freecads.com
100
AcDbLine
 10
105020.7643322325
 20
95051.8396455679
 30
0.0
 11
105020.7628574665
 21
95051.84438401547
 31
0.0
  0
LINE
  5
530C8
330
1F
100
AcDbEntity
  8
freecads.com
100
AcDbLine
 10
105020.7628574665
 20
95051.84438401547
 30
0.0
 11
105020.7626030879
 21
95051.84520133797
 31
0.0
  0
LINE
  5
530C9
330
1F
100
AcDbEntity
  8
freecads.com
100
AcDbLine
 10
105020.7626030879
 20
95051.84520133797
 30
0.0
 11
105020.7598171985
 21
95051.85670782898
 31
0.0
  0
LINE
  5
530CA
330
1F
100
AcDbEntity
  8
freecads.com
100
AcDbLine
 10
105020.7598171985
 20
95051.85670782898
 30
0.0
 11
105020.7578960986
 21
95051.86509335276
 31
0.0
  0
LINE
  5
530CB
330
1F
100
AcDbEntity
  8
freecads.com
100
AcDbLine
 10
105020.7578960986
 20
95051.86509335276
 30
0.0
 11
105020.7567504026
 21
95051.87009426956
 31
0.0
  0
LINE
  5
530CC
330
1F
100
AcDbEntity
  8
freecads.com
100
AcDbLine
 10
105020.7567504026
 20
95051.87009426956
 30
0.0
 11
105020.7567067442
 21
95051.87031962568
 31
0.0
  0
LINE
  5
530CD
330
1F
100
AcDbEntity
  8
freecads.com
100
AcDbLine
 10
105020.7567067442
 20
95051.87031962568
 30
0.0
 11
105020.7532599363
 21
95051.88811136438
 31
0.0
  0
LINE
  5
530CE
330
1F
100
AcDbEntity
  8
freecads.com
100
AcDbLine
 10
105020.7532599363
 20
95051.88811136438
 30
0.0
 11
105020.7520374439
 21
95051.89260586147
 31
0.0
  0
LINE
  5
530CF
330
1F
100
AcDbEntity
  8
freecads.com
100
AcDbLine
 10
105020.7520374439
 20
95051.89260586147
 30
0.0
 11
105020.7508017767
 21
95051.89714879582
 31
0.0
  0
LINE
  5
530D0
330
1F
100
AcDbEntity
  8
freecads.com
100
AcDbLine
 10
105020.7508017767
 20
95051.89714879582
 30
0.0
 11
105020.7447936646
 21
95051.91923763899
 31
0.0
  0
LINE
  5
530D1
330
1F
100
AcDbEntity
  8
freecads.com
100
AcDbLine
 10
105020.7447936646
 20
95051.91923763899
 30
0.0
 11
105020.7436397341
 21
95051.92348006826
 31
0.0
  0
LINE
  5
530D2
330
1F
100
AcDbEntity
  8
freecads.com
100
AcDbLine
 10
105020.7436397341
 20
95051.92348006826
 30
0.0
 11
105020.7432445645
 21
95051.92490992209
 31
0.0
  0
LINE
  5
530D3
330
1F
100
AcDbEntity
  8
freecads.com
100
AcDbLine
 10
105020.7432445645
 20
95051.92490992209
 30
0.0
 11
105020.7370032758
 21
95051.9474929635
 31
0.0
  0
LINE
  5
530D4
330
1F
100
AcDbEntity
  8
freecads.com
100
AcDbLine
 10
105020.7370032758
 20
95051.9474929635
 30
0.0
 11
105020.7350203197
 21
95051.95466795292
 31
0.0
  0
LINE
  5
530D5
330
1F
100
AcDbEntity
  8
freecads.com
100
AcDbLine
 10
105020.7350203197
 20
95051.95466795292
 30
0.0
 11
105020.7329741736
 21
95051.96207158441
 31
0.0
  0
LINE
  5
530D6
330
1F
100
AcDbEntity
  8
freecads.com
100
AcDbLine
 10
105020.7329741736
 20
95051.96207158441
 30
0.0
 11
105020.7323762448
 21
95051.96429741758
 31
0.0
  0
LINE
  5
530D7
330
1F
100
AcDbEntity
  8
freecads.com
100
AcDbLine
 10
105020.7027048329
 20
95052.33582867349
 30
0.0
 11
105020.7014630027
 21
95052.3348692007
 31
0.0
  0
LINE
  5
530D8
330
1F
100
AcDbEntity
  8
freecads.com
100
AcDbLine
 10
105020.7014630027
 20
95052.3348692007
 30
0.0
 11
105020.7003934477
 21
95052.33398172808
 31
0.0
  0
LINE
  5
530D9
330
1F
100
AcDbEntity
  8
freecads.com
100
AcDbLine
 10
105020.7003934477
 20
95052.33398172808
 30
0.0
 11
105020.6974551795
 21
95052.33163386277
 31
0.0
  0
ARC
  5
530DA
330
1F
100
AcDbEntity
  8
freecads.com
100
AcDbCircle
 10
105020.8804381856
 20
95052.22318374682
 30
0.0
 40
0.2127068597440482
100
AcDbArc
 50
149.3456841288214
 51
188.0262716044798
  0
LINE
  5
530DB
330
1F
100
AcDbEntity
  8
freecads.com
100
AcDbLine
 10
105020.7323762448
 20
95051.96429741758
 30
0.0
 11
105020.6698149703
 21
95052.19348409422
 31
0.0
  0
ARC
  5
530DC
330
1F
100
AcDbEntity
  8
freecads.com
100
AcDbCircle
 10
105020.5892506347
 20
95051.81670711934
 30
0.0
 40
0.1678160069521315
100
AcDbArc
 50
270.6599499940447
 51
314.8340227883267
  0
ENDSEC
  0
SECTION
  2
OBJECTS
  0
DICTIONARY
  5
C
330
0
100
AcDbDictionary
281
     1
  3
ACAD_ASSOCPERSSUBENTMANAGER
350
2C1D4
  3
ACAD_CIP_PREVIOUS_PRODUCT_INFO
350
1A5
  3
ACAD_COLOR
350
73
  3
ACAD_DETAILVIEWSTYLE
350
1AB
  3
ACAD_GROUP
350
D
  3
ACAD_LAYOUT
350
1A
  3
ACAD_MATERIAL
350
72
  3
ACAD_MLEADERSTYLE
350
D7
  3
ACAD_MLINESTYLE
350
17
  3
ACAD_PLOTSETTINGS
350
19
  3
ACAD_PLOTSTYLENAME
350
E
  3
ACAD_SCALELIST
350
B6
  3
ACAD_SECTIONVIEWSTYLE
350
1A8
  3
ACAD_TABLESTYLE
350
86
  3
ACAD_VISUALSTYLE
350
99
  3
ACDB_RECOMPOSE_DATA
350
530ED
  3
ACDBVARIABLEDICTIONARY
350
52751
  3
AEC_PROPERTY_SET_DEFS
350
22D1
  0
DICTIONARY
  5
18E
330
2
100
AcDbDictionary
280
     1
281
     1
  3
ACAD_LAYERSTATES
360
18F
  0
DICTIONARY
  5
E6
330
10
100
AcDbDictionary
280
     1
281
     1
  0
DICTIONARY
  5
15D
330
1F
100
AcDbDictionary
280
     1
281
     1
  3
ACAD_SORTENTS
360
28E
  0
ACDBASSOCPERSSUBENTMANAGER
  5
2C1D4
102
{ACAD_REACTORS
330
C
102
}
330
C
100
AcDbAssocPersSubentManager
 90
        2
 90
        3
 90
        0
 90
        2
 90
     1260
 90
        0
 90
     1260
 90
        1
 90
        2
 90
        3
 90
        4
 90
        5
 90
        6
 90
        7
 90
        8
 90
        9
 90
       10
 90
       11
 90
       12
 90
       13
 90
       14
 90
       15
 90
       16
 90
       17
 90
       18
 90
       19
 90
       20
 90
       21
 90
       22
 90
       23
 90
       24
 90
       25
 90
       26
 90
       27
 90
       28
 90
       29
 90
       30
 90
       31
 90
       32
 90
       33
 90
       34
 90
       35
 90
       36
 90
       37
 90
       38
 90
       39
 90
       40
 90
       41
 90
       42
 90
       43
 90
       44
 90
       45
 90
       46
 90
       47
 90
       48
 90
       49
 90
       50
 90
       51
 90
       52
 90
       53
 90
       54
 90
       55
 90
       56
 90
       57
 90
       58
 90
       59
 90
       60
 90
       61
 90
       62
 90
       63
 90
       64
 90
       65
 90
       66
 90
       67
 90
       68
 90
       69
 90
       70
 90
       71
 90
       72
 90
       73
 90
       74
 90
       75
 90
       76
 90
       77
 90
       78
 90
       79
 90
       80
 90
       81
 90
       82
 90
       83
 90
       84
 90
       85
 90
       86
 90
       87
 90
       88
 90
       89
 90
       90
 90
       91
 90
       92
 90
       93
 90
       94
 90
       95
 90
       96
 90
       97
 90
       98
 90
       99
 90
      100
 90
      101
 90
      102
 90
      103
 90
      104
 90
      105
 90
      106
 90
      107
 90
      108
 90
      109
 90
      110
 90
      111
 90
      112
 90
      113
 90
      114
 90
      115
 90
      116
 90
      117
 90
      118
 90
      119
 90
      120
 90
      121
 90
      122
 90
      123
 90
      124
 90
      125
 90
      126
 90
      127
 90
      128
 90
      129
 90
      130
 90
      131
 90
      132
 90
      133
 90
      134
 90
      135
 90
      136
 90
      137
 90
      138
 90
      139
 90
      140
 90
      141
 90
      142
 90
      143
 90
      144
 90
      145
 90
      146
 90
      147
 90
      148
 90
      149
 90
      150
 90
      151
 90
      152
 90
      153
 90
      154
 90
      155
 90
      156
 90
      157
 90
      158
 90
      159
 90
      160
 90
      161
 90
      162
 90
      163
 90
      164
 90
      165
 90
      166
 90
      167
 90
      168
 90
      169
 90
      170
 90
      171
 90
      172
 90
      173
 90
      174
 90
      175
 90
      176
 90
      177
 90
      178
 90
      179
 90
      180
 90
      181
 90
      182
 90
      183
 90
      184
 90
      185
 90
      186
 90
      187
 90
      188
 90
      189
 90
      190
 90
      191
 90
      192
 90
      193
 90
      194
 90
      195
 90
      196
 90
      197
 90
      198
 90
      199
 90
      200
 90
      201
 90
      202
 90
      203
 90
      204
 90
      205
 90
      206
 90
      207
 90
      208
 90
      209
 90
      210
 90
      211
 90
      212
 90
      213
 90
      214
 90
      215
 90
      216
 90
      217
 90
      218
 90
      219
 90
      220
 90
      221
 90
      222
 90
      223
 90
      224
 90
      225
 90
      226
 90
      227
 90
      228
 90
      229
 90
      230
 90
      231
 90
      232
 90
      233
 90
      234
 90
      235
 90
      236
 90
      237
 90
      238
 90
      239
 90
      240
 90
      241
 90
      242
 90
      243
 90
      244
 90
      245
 90
      246
 90
      247
 90
      248
 90
      249
 90
      250
 90
      251
 90
      252
 90
      253
 90
      254
 90
      255
 90
      256
 90
      257
 90
      258
 90
      259
 90
      260
 90
      261
 90
      262
 90
      263
 90
      264
 90
      265
 90
      266
 90
      267
 90
      268
 90
      269
 90
      270
 90
      271
 90
      272
 90
      273
 90
      274
 90
      275
 90
      276
 90
      277
 90
      278
 90
      279
 90
      280
 90
      281
 90
      282
 90
      283
 90
      284
 90
      285
 90
      286
 90
      287
 90
      288
 90
      289
 90
      290
 90
      291
 90
      292
 90
      293
 90
      294
 90
      295
 90
      296
 90
      297
 90
      298
 90
      299
 90
      300
 90
      301
 90
      302
 90
      303
 90
      304
 90
      305
 90
      306
 90
      307
 90
      308
 90
      309
 90
      310
 90
      311
 90
      312
 90
      313
 90
      314
 90
      315
 90
      316
 90
      317
 90
      318
 90
      319
 90
      320
 90
      321
 90
      322
 90
      323
 90
      324
 90
      325
 90
      326
 90
      327
 90
      328
 90
      329
 90
      330
 90
      331
 90
      332
 90
      333
 90
      334
 90
      335
 90
      336
 90
      337
 90
      338
 90
      339
 90
      340
 90
      341
 90
      342
 90
      343
 90
      344
 90
      345
 90
      346
 90
      347
 90
      348
 90
      349
 90
      350
 90
      351
 90
      352
 90
      353
 90
      354
 90
      355
 90
      356
 90
      357
 90
      358
 90
      359
 90
      360
 90
      361
 90
      362
 90
      363
 90
      364
 90
      365
 90
      366
 90
      367
 90
      368
 90
      369
 90
      370
 90
      371
 90
      372
 90
      373
 90
      374
 90
      375
 90
      376
 90
      377
 90
      378
 90
      379
 90
      380
 90
      381
 90
      382
 90
      383
 90
      384
 90
      385
 90
      386
 90
      387
 90
      388
 90
      389
 90
      390
 90
      391
 90
      392
 90
      393
 90
      394
 90
      395
 90
      396
 90
      397
 90
      398
 90
      399
 90
      400
 90
      401
 90
      402
 90
      403
 90
      404
 90
      405
 90
      406
 90
      407
 90
      408
 90
      409
 90
      410
 90
      411
 90
      412
 90
      413
 90
      414
 90
      415
 90
      416
 90
      417
 90
      418
 90
      419
 90
      420
 90
      421
 90
      422
 90
      423
 90
      424
 90
      425
 90
      426
 90
      427
 90
      428
 90
      429
 90
      430
 90
      431
 90
      432
 90
      433
 90
      434
 90
      435
 90
      436
 90
      437
 90
      438
 90
      439
 90
      440
 90
      441
 90
      442
 90
      443
 90
      444
 90
      445
 90
      446
 90
      447
 90
      448
 90
      449
 90
      450
 90
      451
 90
      452
 90
      453
 90
      454
 90
      455
 90
      456
 90
      457
 90
      458
 90
      459
 90
      460
 90
      461
 90
      462
 90
      463
 90
      464
 90
      465
 90
      466
 90
      467
 90
      468
 90
      469
 90
      470
 90
      471
 90
      472
 90
      473
 90
      474
 90
      475
 90
      476
 90
      477
 90
      478
 90
      479
 90
      480
 90
      481
 90
      482
 90
      483
 90
      484
 90
      485
 90
      486
 90
      487
 90
      488
 90
      489
 90
      490
 90
      491
 90
      492
 90
      493
 90
      494
 90
      495
 90
      496
 90
      497
 90
      498
 90
      499
 90
      500
 90
      501
 90
      502
 90
      503
 90
      504
 90
      505
 90
      506
 90
      507
 90
      508
 90
      509
 90
      510
 90
      511
 90
      512
 90
      513
 90
      514
 90
      515
 90
      516
 90
      517
 90
      518
 90
      519
 90
      520
 90
      521
 90
      522
 90
      523
 90
      524
 90
      525
 90
      526
 90
      527
 90
      528
 90
      529
 90
      530
 90
      531
 90
      532
 90
      533
 90
      534
 90
      535
 90
      536
 90
      537
 90
      538
 90
      539
 90
      540
 90
      541
 90
      542
 90
      543
 90
      544
 90
      545
 90
      546
 90
      547
 90
      548
 90
      549
 90
      550
 90
      551
 90
      552
 90
      553
 90
      554
 90
      555
 90
      556
 90
      557
 90
      558
 90
      559
 90
      560
 90
      561
 90
      562
 90
      563
 90
      564
 90
      565
 90
      566
 90
      567
 90
      568
 90
      569
 90
      570
 90
      571
 90
      572
 90
      573
 90
      574
 90
      575
 90
      576
 90
      577
 90
      578
 90
      579
 90
      580
 90
      581
 90
      582
 90
      583
 90
      584
 90
      585
 90
      586
 90
      587
 90
      588
 90
      589
 90
      590
 90
      591
 90
      592
 90
      593
 90
      594
 90
      595
 90
      596
 90
      597
 90
      598
 90
      599
 90
      600
 90
      601
 90
      602
 90
      603
 90
      604
 90
      605
 90
      606
 90
      607
 90
      608
 90
      609
 90
      610
 90
      611
 90
      612
 90
      613
 90
      614
 90
      615
 90
      616
 90
      617
 90
      618
 90
      619
 90
      620
 90
      621
 90
      622
 90
      623
 90
      624
 90
      625
 90
      626
 90
      627
 90
      628
 90
      629
 90
      630
 90
      631
 90
      632
 90
      633
 90
      634
 90
      635
 90
      636
 90
      637
 90
      638
 90
      639
 90
      640
 90
      641
 90
      642
 90
      643
 90
      644
 90
      645
 90
      646
 90
      647
 90
      648
 90
      649
 90
      650
 90
      651
 90
      652
 90
      653
 90
      654
 90
      655
 90
      656
 90
      657
 90
      658
 90
      659
 90
      660
 90
      661
 90
      662
 90
      663
 90
      664
 90
      665
 90
      666
 90
      667
 90
      668
 90
      669
 90
      670
 90
      671
 90
      672
 90
      673
 90
      674
 90
      675
 90
      676
 90
      677
 90
      678
 90
      679
 90
      680
 90
      681
 90
      682
 90
      683
 90
      684
 90
      685
 90
      686
 90
      687
 90
      688
 90
      689
 90
      690
 90
      691
 90
      692
 90
      693
 90
      694
 90
      695
 90
      696
 90
      697
 90
      698
 90
      699
 90
      700
 90
      701
 90
      702
 90
      703
 90
      704
 90
      705
 90
      706
 90
      707
 90
      708
 90
      709
 90
      710
 90
      711
 90
      712
 90
      713
 90
      714
 90
      715
 90
      716
 90
      717
 90
      718
 90
      719
 90
      720
 90
      721
 90
      722
 90
      723
 90
      724
 90
      725
 90
      726
 90
      727
 90
      728
 90
      729
 90
      730
 90
      731
 90
      732
 90
      733
 90
      734
 90
      735
 90
      736
 90
      737
 90
      738
 90
      739
 90
      740
 90
      741
 90
      742
 90
      743
 90
      744
 90
      745
 90
      746
 90
      747
 90
      748
 90
      749
 90
      750
 90
      751
 90
      752
 90
      753
 90
      754
 90
      755
 90
      756
 90
      757
 90
      758
 90
      759
 90
      760
 90
      761
 90
      762
 90
      763
 90
      764
 90
      765
 90
      766
 90
      767
 90
      768
 90
      769
 90
      770
 90
      771
 90
      772
 90
      773
 90
      774
 90
      775
 90
      776
 90
      777
 90
      778
 90
      779
 90
      780
 90
      781
 90
      782
 90
      783
 90
      784
 90
      785
 90
      786
 90
      787
 90
      788
 90
      789
 90
      790
 90
      791
 90
      792
 90
      793
 90
      794
 90
      795
 90
      796
 90
      797
 90
      798
 90
      799
 90
      800
 90
      801
 90
      802
 90
      803
 90
      804
 90
      805
 90
      806
 90
      807
 90
      808
 90
      809
 90
      810
 90
      811
 90
      812
 90
      813
 90
      814
 90
      815
 90
      816
 90
      817
 90
      818
 90
      819
 90
      820
 90
      821
 90
      822
 90
      823
 90
      824
 90
      825
 90
      826
 90
      827
 90
      828
 90
      829
 90
      830
 90
      831
 90
      832
 90
      833
 90
      834
 90
      835
 90
      836
 90
      837
 90
      838
 90
      839
 90
      840
 90
      841
 90
      842
 90
      843
 90
      844
 90
      845
 90
      846
 90
      847
 90
      848
 90
      849
 90
      850
 90
      851
 90
      852
 90
      853
 90
      854
 90
      855
 90
      856
 90
      857
 90
      858
 90
      859
 90
      860
 90
      861
 90
      862
 90
      863
 90
      864
 90
      865
 90
      866
 90
      867
 90
      868
 90
      869
 90
      870
 90
      871
 90
      872
 90
      873
 90
      874
 90
      875
 90
      876
 90
      877
 90
      878
 90
      879
 90
      880
 90
      881
 90
      882
 90
      883
 90
      884
 90
      885
 90
      886
 90
      887
 90
      888
 90
      889
 90
      890
 90
      891
 90
      892
 90
      893
 90
      894
 90
      895
 90
      896
 90
      897
 90
      898
 90
      899
 90
      900
 90
      901
 90
      902
 90
      903
 90
      904
 90
      905
 90
      906
 90
      907
 90
      908
 90
      909
 90
      910
 90
      911
 90
      912
 90
      913
 90
      914
 90
      915
 90
      916
 90
      917
 90
      918
 90
      919
 90
      920
 90
      921
 90
      922
 90
      923
 90
      924
 90
      925
 90
      926
 90
      927
 90
      928
 90
      929
 90
      930
 90
      931
 90
      932
 90
      933
 90
      934
 90
      935
 90
      936
 90
      937
 90
      938
 90
      939
 90
      940
 90
      941
 90
      942
 90
      943
 90
      944
 90
      945
 90
      946
 90
      947
 90
      948
 90
      949
 90
      950
 90
      951
 90
      952
 90
      953
 90
      954
 90
      955
 90
      956
 90
      957
 90
      958
 90
      959
 90
      960
 90
      961
 90
      962
 90
      963
 90
      964
 90
      965
 90
      966
 90
      967
 90
      968
 90
      969
 90
      970
 90
      971
 90
      972
 90
      973
 90
      974
 90
      975
 90
      976
 90
      977
 90
      978
 90
      979
 90
      980
 90
      981
 90
      982
 90
      983
 90
      984
 90
      985
 90
      986
 90
      987
 90
      988
 90
      989
 90
      990
 90
      991
 90
      992
 90
      993
 90
      994
 90
      995
 90
      996
 90
      997
 90
      998
 90
      999
 90
     1000
 90
     1001
 90
     1002
 90
     1003
 90
     1004
 90
     1005
 90
     1006
 90
     1007
 90
     1008
 90
     1009
 90
     1010
 90
     1011
 90
     1012
 90
     1013
 90
     1014
 90
     1015
 90
     1016
 90
     1017
 90
     1018
 90
     1019
 90
     1020
 90
     1021
 90
     1022
 90
     1023
 90
     1024
 90
     1025
 90
     1026
 90
     1027
 90
     1028
 90
     1029
 90
     1030
 90
     1031
 90
     1032
 90
     1033
 90
     1034
 90
     1035
 90
     1036
 90
     1037
 90
     1038
 90
     1039
 90
     1040
 90
     1041
 90
     1042
 90
     1043
 90
     1044
 90
     1045
 90
     1046
 90
     1047
 90
     1048
 90
     1049
 90
     1050
 90
     1051
 90
     1052
 90
     1053
 90
     1054
 90
     1055
 90
     1056
 90
     1057
 90
     1058
 90
     1059
 90
     1060
 90
     1061
 90
     1062
 90
     1063
 90
     1064
 90
     1065
 90
     1066
 90
     1067
 90
     1068
 90
     1069
 90
     1070
 90
     1071
 90
     1072
 90
     1073
 90
     1074
 90
     1075
 90
     1076
 90
     1077
 90
     1078
 90
     1079
 90
     1080
 90
     1081
 90
     1082
 90
     1083
 90
     1084
 90
     1085
 90
     1086
 90
     1087
 90
     1088
 90
     1089
 90
     1090
 90
     1091
 90
     1092
 90
     1093
 90
     1094
 90
     1095
 90
     1096
 90
     1097
 90
     1098
 90
     1099
 90
     1100
 90
     1101
 90
     1102
 90
     1103
 90
     1104
 90
     1105
 90
     1106
 90
     1107
 90
     1108
 90
     1109
 90
     1110
 90
     1111
 90
     1112
 90
     1113
 90
     1114
 90
     1115
 90
     1116
 90
     1117
 90
     1118
 90
     1119
 90
     1120
 90
     1121
 90
     1122
 90
     1123
 90
     1124
 90
     1125
 90
     1126
 90
     1127
 90
     1128
 90
     1129
 90
     1130
 90
     1131
 90
     1132
 90
     1133
 90
     1134
 90
     1135
 90
     1136
 90
     1137
 90
     1138
 90
     1139
 90
     1140
 90
     1141
 90
     1142
 90
     1143
 90
     1144
 90
     1145
 90
     1146
 90
     1147
 90
     1148
 90
     1149
 90
     1150
 90
     1151
 90
     1152
 90
     1153
 90
     1154
 90
     1155
 90
     1156
 90
     1157
 90
     1158
 90
     1159
 90
     1160
 90
     1161
 90
     1162
 90
     1163
 90
     1164
 90
     1165
 90
     1166
 90
     1167
 90
     1168
 90
     1169
 90
     1170
 90
     1171
 90
     1172
 90
     1173
 90
     1174
 90
     1175
 90
     1176
 90
     1177
 90
     1178
 90
     1179
 90
     1180
 90
     1181
 90
     1182
 90
     1183
 90
     1184
 90
     1185
 90
     1186
 90
     1187
 90
     1188
 90
     1189
 90
     1190
 90
     1191
 90
     1192
 90
     1193
 90
     1194
 90
     1195
 90
     1196
 90
     1197
 90
     1198
 90
     1199
 90
     1200
 90
     1201
 90
     1202
 90
     1203
 90
     1204
 90
     1205
 90
     1206
 90
     1207
 90
     1208
 90
     1209
 90
     1210
 90
     1211
 90
     1212
 90
     1213
 90
     1214
 90
     1215
 90
     1216
 90
     1217
 90
     1218
 90
     1219
 90
     1220
 90
     1221
 90
     1222
 90
     1223
 90
     1224
 90
     1225
 90
     1226
 90
     1227
 90
     1228
 90
     1229
 90
     1230
 90
     1231
 90
     1232
 90
     1233
 90
     1234
 90
     1235
 90
     1236
 90
     1237
 90
     1238
 90
     1239
 90
     1240
 90
     1241
 90
     1242
 90
     1243
 90
     1244
 90
     1245
 90
     1246
 90
     1247
 90
     1248
 90
     1249
 90
     1250
 90
     1251
 90
     1252
 90
     1253
 90
     1254
 90
     1255
 90
     1256
 90
     1257
 90
     1258
 90
     1259
 90
     1260
 90
        0
 90
        0
290
     0
  0
XRECORD
  5
1A5
102
{ACAD_REACTORS
330
C
102
}
330
C
100
AcDbXrecord
280
     1
300
ACD
300
2022
300

  0
DICTIONARY
  5
73
102
{ACAD_REACTORS
330
C
102
}
330
C
100
AcDbDictionary
281
     1
  0
DICTIONARY
  5
1AB
102
{ACAD_REACTORS
330
C
102
}
330
C
100
AcDbDictionary
281
     1
  3
Imperial24
350
1AC
  3
Metric50
350
224
  0
DICTIONARY
  5
D
102
{ACAD_REACTORS
330
C
102
}
330
C
100
AcDbDictionary
281
     1
  0
DICTIONARY
  5
1A
102
{ACAD_REACTORS
330
C
102
}
330
C
100
AcDbDictionary
281
     1
  3
Layout1
350
59
  3
Layout2
350
5E
  3
Model
350
22
  0
DICTIONARY
  5
72
102
{ACAD_REACTORS
330
C
102
}
330
C
100
AcDbDictionary
281
     1
  3
ByBlock
350
97
  3
ByLayer
350
96
  3
Global
350
98
  0
DICTIONARY
  5
D7
102
{ACAD_REACTORS
330
C
102
}
330
C
100
AcDbDictionary
281
     1
  3
Standard
350
D8
  0
DICTIONARY
  5
17
102
{ACAD_REACTORS
330
C
102
}
330
C
100
AcDbDictionary
281
     1
  3
Standard
350
18
  0
DICTIONARY
  5
19
102
{ACAD_REACTORS
330
C
102
}
330
C
100
AcDbDictionary
281
     1
  0
ACDBDICTIONARYWDFLT
  5
E
102
{ACAD_REACTORS
330
C
102
}
330
C
100
AcDbDictionary
281
     1
  3
Normal
350
F
100
AcDbDictionaryWithDefault
340
F
  0
DICTIONARY
  5
B6
102
{ACAD_REACTORS
330
C
102
}
330
C
100
AcDbDictionary
281
     1
  3
*A1
350
2283
  3
A0
350
B7
  3
A1
350
124
  3
A2
350
125
  3
A3
350
126
  3
A4
350
127
  3
A5
350
128
  3
A6
350
129
  3
A7
350
12A
  3
A8
350
12B
  3
A9
350
12C
  3
B0
350
12D
  3
B1
350
12E
  3
B2
350
12F
  3
B3
350
130
  3
B4
350
131
  3
B5
350
132
  3
B6
350
133
  3
B7
350
134
  3
B8
350
135
  3
B9
350
136
  3
C0
350
137
  3
C1
350
138
  3
C2
350
139
  3
C3
350
13A
  3
C4
350
13B
  3
C5
350
13C
  3
C6
350
13D
  3
C7
350
13E
  3
C8
350
13F
  3
C9
350
140
  3
D0
350
141
  3
D1
350
142
  3
D2
350
143
  0
DICTIONARY
  5
1A8
102
{ACAD_REACTORS
330
C
102
}
330
C
100
AcDbDictionary
281
     1
  3
Imperial24
350
1AA
  3
Metric50
350
223
  0
DICTIONARY
  5
86
102
{ACAD_REACTORS
330
C
102
}
330
C
100
AcDbDictionary
281
     1
  3
Standard
350
87
  0
DICTIONARY
  5
99
102
{ACAD_REACTORS
330
C
102
}
330
C
100
AcDbDictionary
281
     1
  3
2dWireframe
350
9F
  3
3dWireframe
350
22946
  3
Basic
350
9E
  3
Brighten
350
A5
  3
ColorChange
350
A9
  3
Conceptual
350
A2
  3
Dim
350
A4
  3
EdgeColorOff
350
175
  3
Facepattern
350
A8
  3
Flat
350
9A
  3
FlatWithEdges
350
9B
  3
Gouraud
350
9C
  3
GouraudWithEdges
350
9D
  3
Hidden
350
A1
  3
JitterOff
350
173
  3
Linepattern
350
A7
  3
OverhangOff
350
174
  3
Realistic
350
A3
  3
Shaded
350
182
  3
Shaded with edges
350
181
  3
Shades of Gray
350
17E
  3
Sketchy
350
17F
  3
Thicken
350
A6
  3
Wireframe
350
A0
  3
X-Ray
350
180
  0
XRECORD
  5
530ED
102
{ACAD_REACTORS
330
C
102
}
330
C
100
AcDbXrecord
280
     1
 90
        1
330
87
  0
DICTIONARY
  5
52751
102
{ACAD_REACTORS
330
C
102
}
330
C
100
AcDbDictionary
281
     2
  3
#REVCLOUDAPPROXARCLEN
350
52752
  3
ANNOALLVISIBLE
350
52753
  3
CAMERADISPLAY
350
52754
  3
CANNOSCALE
350
52755
  3
CMLEADERSTYLE
350
52756
  3
CTABLESTYLE
350
52757
  3
CVIEWDETAILSTYLE
350
52758
  3
CVIEWSECTIONSTYLE
350
52759
  3
DIMADEC
350
5275A
  3
DIMASSOC
350
5275B
  3
EXPORTPAPERSPACE
350
5275C
  3
HPCOLOR
350
5275D
  3
HPINHERIT
350
5275E
  3
HPLAYER
350
5275F
  3
HPTRANSPARENCY
350
52760
  3
INDEXCTL
350
52761
  3
LAYEREVAL
350
52762
  3
LAYERNOTIFY
350
52763
  3
LIGHTINGUNITS
350
52764
  3
MLEADERSCALE
350
52765
  3
MSLTSCALE
350
52766
  3
OLEFRAME
350
52767
  3
PDFFRAME
350
52768
  3
SOLIDHIST
350
52769
  3
SORTENTS
350
5276A
  0
DICTIONARY
  5
22D1
102
{ACAD_REACTORS
330
C
102
}
330
C
100
AcDbDictionary
281
     1
  0
DICTIONARY
  5
18F
102
{ACAD_REACTORS
330
18E
102
}
330
18E
100
AcDbDictionary
281
     1
  0
SORTENTSTABLE
  5
28E
102
{ACAD_REACTORS
330
15D
102
}
330
15D
100
AcDbSortentsTable
330
1F
  0
ACDBDETAILVIEWSTYLE
  5
1AC
102
{ACAD_REACTORS
330
1AB
102
}
330
1AB
100
AcDbModelDocViewStyle
 70
     0
  3
Imperial24
290
     0
300
Imperial24
 90
        0
100
AcDbDetailViewStyle
 70
     0
 71
     0
 90
        3
 71
     1
340
11
 62
   256
 40
0.24
340
0
 62
   256
 40
0.24
300

 40
0.36
280
     3
 71
     2
340
16
 90
       25
 62
   256
 71
     3
340
11
 62
   256
 40
0.24
 90
        1
 40
0.75
 90
        1
300
%<\AcVar ViewType \f "%tc1">% %<\AcVar ViewDetailId>%\PSCALE %<\AcVar ViewScale \f "%sn">%
 71
     4
340
16
 90
       25
 62
   256
340
16
 90
       25
 62
   256
280
     0
  0
ACDBDETAILVIEWSTYLE
  5
224
102
{ACAD_REACTORS
330
1AB
102
}
330
1AB
100
AcDbModelDocViewStyle
 70
     0
  3
Metric50
290
     0
300
Metric50
 90
        0
100
AcDbDetailViewStyle
 70
     0
 71
     0
 90
        3
 71
     1
340
11
 62
   256
 40
5.0
340
0
 62
   256
 40
5.0
300

 40
0.0
280
     1
 71
     2
340
16
 90
       25
 62
   256
 71
     3
340
11
 62
   256
 40
5.0
 90
        0
 40
15.0
 90
        1
300
%<\AcVar ViewDetailId>% (%<\AcVar ViewScale \f "%sn">%)
 71
     4
340
16
 90
       25
 62
   256
340
16
 90
       25
 62
   256
280
     0
  0
LAYOUT
  5
59
102
{ACAD_REACTORS
330
1A
102
}
330
1A
100
AcDbPlotSettings
  1

  2
None
  4

  6

 40
0.0
 41
0.0
 42
0.0
 43
0.0
 44
0.0
 45
0.0
 46
0.0
 47
0.0
 48
0.0
 49
0.0
140
0.0
141
0.0
142
1.0
143
1.0
 70
   688
 72
     0
 73
     0
 74
     5
  7

 75
    16
147
1.0
 76
     0
 77
     2
 78
   300
148
0.0
149
0.0
100
AcDbLayout
  1
Layout1
 70
     1
 71
     1
 10
0.0
 20
0.0
 11
12.0
 21
9.0
 12
0.0
 22
0.0
 32
0.0
 14
0.0
 24
0.0
 34
0.0
 15
0.0
 25
0.0
 35
0.0
146
0.0
 13
0.0
 23
0.0
 33
0.0
 16
1.0
 26
0.0
 36
0.0
 17
0.0
 27
1.0
 37
0.0
 76
     0
330
58
  0
LAYOUT
  5
5E
102
{ACAD_REACTORS
330
1A
102
}
330
1A
100
AcDbPlotSettings
  1

  2
None
  4

  6

 40
0.0
 41
0.0
 42
0.0
 43
0.0
 44
0.0
 45
0.0
 46
0.0
 47
0.0
 48
0.0
 49
0.0
140
0.0
141
0.0
142
1.0
143
1.0
 70
   688
 72
     0
 73
     0
 74
     5
  7

 75
    16
147
1.0
 76
     0
 77
     2
 78
   300
148
0.0
149
0.0
100
AcDbLayout
  1
Layout2
 70
     1
 71
     2
 10
0.0
 20
0.0
 11
12.0
 21
9.0
 12
0.0
 22
0.0
 32
0.0
 14
0.0
 24
0.0
 34
0.0
 15
0.0
 25
0.0
 35
0.0
146
0.0
 13
0.0
 23
0.0
 33
0.0
 16
1.0
 26
0.0
 36
0.0
 17
0.0
 27
1.0
 37
0.0
 76
     0
330
5D
  0
LAYOUT
  5
22
102
{ACAD_XDICTIONARY
360
194
102
}
102
{ACAD_REACTORS
330
1A
102
}
330
1A
100
AcDbPlotSettings
  1

  2
none_device
  4
ANSI_A_(8.50_x_11.00_Inches)
  6

 40
6.349999904632568
 41
19.04999923706055
 42
6.350006103515625
 43
19.04998779296875
 44
215.8999938964844
 45
279.3999938964844
 46
0.0
 47
0.0
 48
0.0
 49
0.0
140
0.0
141
0.0
142
1.0
143
2.584895464708373
 70
 11952
 72
     0
 73
     1
 74
     0
  7

 75
     0
147
0.3868628397755418
 76
     0
 77
     2
 78
   300
148
0.0
149
0.0
100
AcDbLayout
  1
Model
 70
     1
 71
     0
 10
0.0
 20
0.0
 11
12.0
 21
9.0
 12
0.0
 22
0.0
 32
0.0
 14
0.0
 24
0.0
 34
0.0
 15
0.0
 25
0.0
 35
0.0
146
0.0
 13
0.0
 23
0.0
 33
0.0
 16
1.0
 26
0.0
 36
0.0
 17
0.0
 27
1.0
 37
0.0
 76
     0
330
1F
331
94
  0
MATERIAL
  5
97
102
{ACAD_XDICTIONARY
360
188
102
}
102
{ACAD_REACTORS
330
72
102
}
330
72
100
AcDbMaterial
  1
ByBlock
 94
       63
  0
MATERIAL
  5
96
102
{ACAD_XDICTIONARY
360
186
102
}
102
{ACAD_REACTORS
330
72
102
}
330
72
100
AcDbMaterial
  1
ByLayer
 94
       63
  0
MATERIAL
  5
98
102
{ACAD_XDICTIONARY
360
110
102
}
102
{ACAD_REACTORS
330
72
102
}
330
72
100
AcDbMaterial
  1
Global
 43
0.0208000000566244
 43
0.0
 43
0.0
 43
0.0
 43
0.0
 43
0.0208000000566244
 43
0.0
 43
0.0
 43
0.0
 43
0.0
 43
1.0
 43
0.0
 43
0.0
 43
0.0
 43
0.0
 43
1.0
 49
0.0208000000566244
 49
0.0
 49
0.0
 49
0.0
 49
0.0
 49
0.0208000000566244
 49
0.0
 49
0.0
 49
0.0
 49
0.0
 49
1.0
 49
0.0
 49
0.0
 49
0.0
 49
0.0
 49
1.0
142
0.0208000000566244
142
0.0
142
0.0
142
0.0
142
0.0
142
0.0208000000566244
142
0.0
142
0.0
142
0.0
142
0.0
142
1.0
142
0.0
142
0.0
142
0.0
142
0.0
142
1.0
144
0.0208000000566244
144
0.0
144
0.0
144
0.0
144
0.0
144
0.0208000000566244
144
0.0
144
0.0
144
0.0
144
0.0
144
1.0
144
0.0
144
0.0
144
0.0
144
0.0
144
1.0
 94
       63
1001
ACAD
1070
    -1
1070
     3
1070
     0
1000

1071
        0
1070
     0
  0
MLEADERSTYLE
  5
D8
102
{ACAD_REACTORS
330
D7
102
}
330
D7
100
AcDbMLeaderStyle
179
     2
170
     2
171
     1
172
     0
 90
        2
 40
0.0
 41
0.0
173
     1
 91
-1056964608
340
14
 92
       -2
290
     1
 42
0.09
291
     1
 43
0.36
  3
Standard
 44
0.18
300

342
11
174
     1
178
     1
175
     1
176
     0
 93
-1056964608
 45
0.18
292
     0
297
     0
 46
0.18
 94
-1056964608
 47
1.0
 49
1.0
140
1.0
293
     1
141
0.0
294
     1
177
     0
142
1.0
295
     0
296
     0
143
0.125
271
     0
272
     9
273
     9
298
     0
  0
MLINESTYLE
  5
18
102
{ACAD_REACTORS
330
17
102
}
330
17
100
AcDbMlineStyle
  2
STANDARD
 70
     0
  3

 62
   256
 51
90.0
 52
90.0
 71
     2
 49
0.5
 62
   256
  6
BYLAYER
 49
-0.5
 62
   256
  6
BYLAYER
  0
ACDBPLACEHOLDER
  5
F
102
{ACAD_REACTORS
330
E
102
}
330
E
  0
SCALE
  5
2283
102
{ACAD_REACTORS
330
B6
102
}
330
B6
100
AcDbScale
 70
     0
300
1:75
140
1.0
141
75.0
290
     0
  0
SCALE
  5
B7
102
{ACAD_REACTORS
330
B6
102
}
330
B6
100
AcDbScale
 70
     0
300
1:1
140
1.0
141
1.0
290
     1
  0
SCALE
  5
124
102
{ACAD_REACTORS
330
B6
102
}
330
B6
100
AcDbScale
 70
     0
300
1:2
140
1.0
141
2.0
290
     0
  0
SCALE
  5
125
102
{ACAD_REACTORS
330
B6
102
}
330
B6
100
AcDbScale
 70
     0
300
1:4
140
1.0
141
4.0
290
     0
  0
SCALE
  5
126
102
{ACAD_REACTORS
330
B6
102
}
330
B6
100
AcDbScale
 70
     0
300
1:5
140
1.0
141
5.0
290
     0
  0
SCALE
  5
127
102
{ACAD_REACTORS
330
B6
102
}
330
B6
100
AcDbScale
 70
     0
300
1:8
140
1.0
141
8.0
290
     0
  0
SCALE
  5
128
102
{ACAD_REACTORS
330
B6
102
}
330
B6
100
AcDbScale
 70
     0
300
1:10
140
1.0
141
10.0
290
     0
  0
SCALE
  5
129
102
{ACAD_REACTORS
330
B6
102
}
330
B6
100
AcDbScale
 70
     0
300
1:16
140
1.0
141
16.0
290
     0
  0
SCALE
  5
12A
102
{ACAD_REACTORS
330
B6
102
}
330
B6
100
AcDbScale
 70
     0
300
1:20
140
1.0
141
20.0
290
     0
  0
SCALE
  5
12B
102
{ACAD_REACTORS
330
B6
102
}
330
B6
100
AcDbScale
 70
     0
300
1:30
140
1.0
141
30.0
290
     0
  0
SCALE
  5
12C
102
{ACAD_REACTORS
330
B6
102
}
330
B6
100
AcDbScale
 70
     0
300
1:40
140
1.0
141
40.0
290
     0
  0
SCALE
  5
12D
102
{ACAD_REACTORS
330
B6
102
}
330
B6
100
AcDbScale
 70
     0
300
1:50
140
1.0
141
50.0
290
     0
  0
SCALE
  5
12E
102
{ACAD_REACTORS
330
B6
102
}
330
B6
100
AcDbScale
 70
     0
300
1:100
140
1.0
141
100.0
290
     0
  0
SCALE
  5
12F
102
{ACAD_REACTORS
330
B6
102
}
330
B6
100
AcDbScale
 70
     0
300
2:1
140
2.0
141
1.0
290
     0
  0
SCALE
  5
130
102
{ACAD_REACTORS
330
B6
102
}
330
B6
100
AcDbScale
 70
     0
300
4:1
140
4.0
141
1.0
290
     0
  0
SCALE
  5
131
102
{ACAD_REACTORS
330
B6
102
}
330
B6
100
AcDbScale
 70
     0
300
8:1
140
8.0
141
1.0
290
     0
  0
SCALE
  5
132
102
{ACAD_REACTORS
330
B6
102
}
330
B6
100
AcDbScale
 70
     0
300
10:1
140
10.0
141
1.0
290
     0
  0
SCALE
  5
133
102
{ACAD_REACTORS
330
B6
102
}
330
B6
100
AcDbScale
 70
     0
300
100:1
140
100.0
141
1.0
290
     0
  0
SCALE
  5
134
102
{ACAD_REACTORS
330
B6
102
}
330
B6
100
AcDbScale
 70
     0
300
1/128" = 1'-0"
140
0.0078125
141
12.0
290
     0
  0
SCALE
  5
135
102
{ACAD_REACTORS
330
B6
102
}
330
B6
100
AcDbScale
 70
     0
300
1/64" = 1'-0"
140
0.015625
141
12.0
290
     0
  0
SCALE
  5
136
102
{ACAD_REACTORS
330
B6
102
}
330
B6
100
AcDbScale
 70
     0
300
1/32" = 1'-0"
140
0.03125
141
12.0
290
     0
  0
SCALE
  5
137
102
{ACAD_REACTORS
330
B6
102
}
330
B6
100
AcDbScale
 70
     0
300
1/16" = 1'-0"
140
0.0625
141
12.0
290
     0
  0
SCALE
  5
138
102
{ACAD_REACTORS
330
B6
102
}
330
B6
100
AcDbScale
 70
     0
300
3/32" = 1'-0"
140
0.09375
141
12.0
290
     0
  0
SCALE
  5
139
102
{ACAD_REACTORS
330
B6
102
}
330
B6
100
AcDbScale
 70
     0
300
1/8" = 1'-0"
140
0.125
141
12.0
290
     0
  0
SCALE
  5
13A
102
{ACAD_REACTORS
330
B6
102
}
330
B6
100
AcDbScale
 70
     0
300
3/16" = 1'-0"
140
0.1875
141
12.0
290
     0
  0
SCALE
  5
13B
102
{ACAD_REACTORS
330
B6
102
}
330
B6
100
AcDbScale
 70
     0
300
1/4" = 1'-0"
140
0.25
141
12.0
290
     0
  0
SCALE
  5
13C
102
{ACAD_REACTORS
330
B6
102
}
330
B6
100
AcDbScale
 70
     0
300
3/8" = 1'-0"
140
0.375
141
12.0
290
     0
  0
SCALE
  5
13D
102
{ACAD_REACTORS
330
B6
102
}
330
B6
100
AcDbScale
 70
     0
300
1/2" = 1'-0"
140
0.5
141
12.0
290
     0
  0
SCALE
  5
13E
102
{ACAD_REACTORS
330
B6
102
}
330
B6
100
AcDbScale
 70
     0
300
3/4" = 1'-0"
140
0.75
141
12.0
290
     0
  0
SCALE
  5
13F
102
{ACAD_REACTORS
330
B6
102
}
330
B6
100
AcDbScale
 70
     0
300
1" = 1'-0"
140
1.0
141
12.0
290
     0
  0
SCALE
  5
140
102
{ACAD_REACTORS
330
B6
102
}
330
B6
100
AcDbScale
 70
     0
300
1-1/2" = 1'-0"
140
1.5
141
12.0
290
     0
  0
SCALE
  5
141
102
{ACAD_REACTORS
330
B6
102
}
330
B6
100
AcDbScale
 70
     0
300
3" = 1'-0"
140
3.0
141
12.0
290
     0
  0
SCALE
  5
142
102
{ACAD_REACTORS
330
B6
102
}
330
B6
100
AcDbScale
 70
     0
300
6" = 1'-0"
140
6.0
141
12.0
290
     0
  0
SCALE
  5
143
102
{ACAD_REACTORS
330
B6
102
}
330
B6
100
AcDbScale
 70
     0
300
1'-0" = 1'-0"
140
12.0
141
12.0
290
     0
  0
ACDBSECTIONVIEWSTYLE
  5
1AA
102
{ACAD_REACTORS
330
1A8
102
}
330
1A8
100
AcDbModelDocViewStyle
 70
     0
  3
Imperial24
290
     0
300
Imperial24
 90
        0
100
AcDbSectionViewStyle
 70
     0
 71
     0
 90
       78
 71
     1
340
11
 62
   256
 40
0.24
340
0
340
0
 62
   256
 40
0.24
300
I, O, Q, S, X, Z
 40
0.48
 90
        3
 40
0.18
 90
        1
 71
     2
340
16
 90
       25
 62
   256
340
16
 90
       50
 62
   256
 40
0.24
 40
0.0
 40
0.24
 71
     3
340
11
 62
   256
 40
0.24
 90
        1
 40
0.75
 90
        1
300
%<\AcVar ViewType \f "%tc1">% %<\AcVar ViewSectionStartId>%-%<\AcVar ViewSectionEndId>%\PSCALE %<\AcVar ViewScale \f "%sn">%
 71
     4
 62
   256
 62
   257
300
ANSI31
 40
1.0
 90
        0
290
     0
290
     0
 90
        6
 40
0.0
 40
1.570796326794896
 40
0.2617993877991494
 40
1.308996938995747
 40
-0.2617993877991494
 40
1.832595714594046
  0
ACDBSECTIONVIEWSTYLE
  5
223
102
{ACAD_REACTORS
330
1A8
102
}
330
1A8
100
AcDbModelDocViewStyle
 70
     0
  3
Metric50
290
     0
300
Metric50
 90
        0
100
AcDbSectionViewStyle
 70
     0
 71
     0
 90
      102
 71
     1
340
11
 62
   256
 40
5.0
340
0
340
0
 62
   256
 40
5.0
300
I, O, Q, S, X, Z
 40
10.0
 90
        0
 40
2.5
 90
        0
 71
     2
340
16
 90
       25
 62
   256
340
16
 90
       50
 62
   256
 40
5.0
 40
2.5
 40
5.0
 71
     3
340
11
 62
   256
 40
5.0
 90
        0
 40
15.0
 90
        1
300
%<\AcVar ViewSectionStartId>%-%<\AcVar ViewSectionEndId>% (%<\AcVar ViewScale \f "%sn">%)
 71
     4
 62
   256
 62
   257
300
ANSI31
 40
1.0
 90
        0
290
     0
290
     0
 90
        6
 40
0.0
 40
1.570796326794896
 40
0.2617993877991494
 40
1.308996938995747
 40
-0.2617993877991494
 40
1.832595714594046
  0
TABLESTYLE
  5
87
102
{ACAD_XDICTIONARY
360
104
102
}
102
{ACAD_REACTORS
330
86
102
}
330
86
100
AcDbTableStyle
280
     0
  3
Standard
 70
     0
 71
     0
 40
0.06
 41
0.06
280
     0
281
     0
  7
Standard
140
0.18
170
     2
 62
     0
 63
     7
283
     0
 90
      512
 91
        0
  1

274
    -2
284
     1
 64
     0
275
    -2
285
     1
 65
     0
276
    -2
286
     1
 66
     0
277
    -2
287
     1
 67
     0
278
    -2
288
     1
 68
     0
279
    -2
289
     1
 69
     0
  7
Standard
140
0.25
170
     5
 62
     0
 63
     7
283
     0
 90
      512
 91
        0
  1

274
    -2
284
     1
 64
     0
275
    -2
285
     1
 65
     0
276
    -2
286
     1
 66
     0
277
    -2
287
     1
 67
     0
278
    -2
288
     1
 68
     0
279
    -2
289
     1
 69
     0
  7
Standard
140
0.18
170
     5
 62
     0
 63
     7
283
     0
 90
      512
 91
        0
  1

274
    -2
284
     1
 64
     0
275
    -2
285
     1
 65
     0
276
    -2
286
     1
 66
     0
277
    -2
287
     1
 67
     0
278
    -2
288
     1
 68
     0
279
    -2
289
     1
 69
     0
  0
VISUALSTYLE
  5
9F
102
{ACAD_REACTORS
330
99
102
}
330
99
100
AcDbVisualStyle
  2
2dWireframe
 70
     4
177
     3
291
     0
 70
    58
 90
        0
176
     1
 90
        2
176
     1
 90
        1
176
     1
 90
        0
176
     1
 40
0.6
176
     1
 40
30.0
176
     1
 62
     7
420
 16777215
176
     1
 90
        1
176
     1
 90
        4
176
     1
 62
     7
176
     1
 62
   257
176
     1
 90
        1
176
     1
 90
        1
176
     1
 40
1.0
176
     1
 90
        0
176
     1
 62
   257
176
     1
 40
1.0
176
     1
 90
        1
176
     1
 90
        6
176
     1
 90
        2
176
     1
 62
     7
176
     1
 90
        5
176
     1
 90
        0
176
     1
 90
        0
176
     1
290
     0
176
     1
 90
        1
176
     1
 40
0.0
176
     1
 90
        0
176
     1
290
     1
176
     1
290
     1
176
     1
290
     0
176
     1
290
     0
176
     1
290
     0
176
     1
290
     0
176
     1
290
     0
176
     1
290
     0
176
     1
290
     0
176
     1
 90
       50
176
     1
 40
0.0
176
     1
 40
1.0
176
     1
 90
        0
176
     1
 62
    18
420
        0
176
     1
 90
       50
176
     1
 90
        3
176
     1
 62
     5
420
      255
176
     1
290
     0
176
     1
 90
       50
176
     1
 90
       50
176
     1
 90
       50
176
     1
290
     0
176
     1
 90
       50
176
     1
 62
   256
176
     0
 40
1.0
176
     0
 90
        2
176
     1
  1
strokes_ogs.tif
176
     1
290
     0
176
     1
 40
1.0
176
     1
 40
1.0
176
     1
  0
VISUALSTYLE
  5
22946
102
{ACAD_REACTORS
330
99
102
}
330
99
100
AcDbVisualStyle
  2
3dWireframe
 70
     5
177
     3
291
     0
 70
    58
 90
        0
176
     1
 90
        2
176
     1
 90
        0
176
     1
 90
        0
176
     1
 40
0.6
176
     1
 40
30.0
176
     1
 62
     7
176
     1
 90
        1
176
     1
 90
        4
176
     1
 62
     7
176
     1
 62
   257
176
     1
 90
        1
176
     1
 90
        1
176
     1
 40
1.0
176
     1
 90
        0
176
     1
 62
   257
176
     1
 40
1.0
176
     1
 90
        1
176
     1
 90
        6
176
     1
 90
        2
176
     1
 62
     7
176
     1
 90
        5
176
     1
 90
        0
176
     1
 90
        0
176
     1
290
     0
176
     1
 90
        1
176
     1
 40
0.0
176
     1
 90
        0
176
     1
290
     0
176
     1
290
     1
176
     1
290
     1
176
     1
290
     0
176
     1
290
     0
176
     1
290
     0
176
     1
290
     0
176
     1
290
     0
176
     1
290
     0
176
     1
 90
       50
176
     1
 40
0.0
176
     1
 40
1.0
176
     1
 90
        0
176
     1
 62
    18
420
        0
176
     1
 90
       50
176
     1
 90
        3
176
     1
 62
     5
420
      255
176
     1
290
     0
176
     1
 90
       50
176
     1
 90
       50
176
     1
 90
       50
176
     1
290
     0
176
     1
 90
       50
176
     1
 62
   256
176
     0
 40
1.0
176
     0
 90
        2
176
     1
  1
strokes_ogs.tif
176
     1
290
     0
176
     1
 40
1.0
176
     1
 40
1.0
176
     1
  0
VISUALSTYLE
  5
9E
102
{ACAD_REACTORS
330
99
102
}
330
99
100
AcDbVisualStyle
  2
Basic
 70
     7
177
     3
291
     1
 70
    58
 90
        1
176
     1
 90
        0
176
     1
 90
        1
176
     1
 90
        0
176
     1
 40
0.6
176
     1
 40
30.0
176
     1
 62
     7
420
 16777215
176
     1
 90
        0
176
     1
 90
        4
176
     1
 62
     7
176
     1
 62
   257
176
     1
 90
        1
176
     1
 90
        1
176
     1
 40
1.0
176
     1
 90
        8
176
     1
 62
     7
176
     1
 40
1.0
176
     1
 90
        1
176
     1
 90
        6
176
     1
 90
        2
176
     1
 62
     7
176
     1
 90
        5
176
     1
 90
        0
176
     1
 90
        0
176
     1
290
     0
176
     1
 90
        1
176
     1
 40
0.0
176
     1
 90
        0
176
     1
290
     0
176
     1
290
     1
176
     1
290
     1
176
     1
290
     0
176
     1
290
     0
176
     1
290
     0
176
     1
290
     0
176
     1
290
     0
176
     1
290
     0
176
     1
 90
       50
176
     1
 40
0.0
176
     1
 40
1.0
176
     1
 90
        0
176
     1
 62
    18
420
        0
176
     1
 90
       50
176
     1
 90
        3
176
     1
 62
     5
420
      255
176
     1
290
     0
176
     1
 90
       50
176
     1
 90
       50
176
     1
 90
       50
176
     1
290
     0
176
     1
 90
       50
176
     1
 62
   256
176
     0
 40
1.0
176
     0
 90
        2
176
     1
  1
strokes_ogs.tif
176
     1
290
     0
176
     1
 40
1.0
176
     1
 40
1.0
176
     1
  0
VISUALSTYLE
  5
A5
102
{ACAD_REACTORS
330
99
102
}
330
99
100
AcDbVisualStyle
  2
Brighten
 70
    12
177
     3
291
     1
 70
    58
 90
        2
176
     1
 90
        2
176
     1
 90
        1
176
     1
 90
        0
176
     1
 40
0.6
176
     1
 40
30.0
176
     1
 62
     7
420
 16777215
176
     1
 90
        1
176
     1
 90
        4
176
     1
 62
     7
176
     1
 62
   257
176
     1
 90
        1
176
     1
 90
        1
176
     1
 40
1.0
176
     1
 90
        8
176
     1
 62
     7
176
     1
 40
1.0
176
     1
 90
        1
176
     1
 90
        6
176
     1
 90
        2
176
     1
 62
     7
176
     1
 90
        5
176
     1
 90
        0
176
     1
 90
        0
176
     1
290
     0
176
     1
 90
        1
176
     1
 40
50.0
176
     1
 90
        0
176
     1
290
     0
176
     1
290
     1
176
     1
290
     1
176
     1
290
     0
176
     1
290
     0
176
     1
290
     0
176
     1
290
     0
176
     1
290
     0
176
     1
290
     0
176
     1
 90
       50
176
     1
 40
0.0
176
     1
 40
1.0
176
     1
 90
        0
176
     1
 62
    18
420
        0
176
     1
 90
       50
176
     1
 90
        3
176
     1
 62
     5
420
      255
176
     1
290
     0
176
     1
 90
       50
176
     1
 90
       50
176
     1
 90
       50
176
     1
290
     0
176
     1
 90
       50
176
     1
 62
   256
176
     0
 40
1.0
176
     0
 90
        2
176
     1
  1
strokes_ogs.tif
176
     1
290
     0
176
     1
 40
1.0
176
     1
 40
1.0
176
     1
  0
VISUALSTYLE
  5
A9
102
{ACAD_REACTORS
330
99
102
}
330
99
100
AcDbVisualStyle
  2
ColorChange
 70
    16
177
     3
291
     1
 70
    58
 90
        2
176
     1
 90
        2
176
     1
 90
        3
176
     1
 90
        0
176
     1
 40
0.6
176
     1
 40
30.0
176
     1
 62
     8
420
  8421504
176
     1
 90
        1
176
     1
 90
        4
176
     1
 62
     7
176
     1
 62
   257
176
     1
 90
        1
176
     1
 90
        1
176
     1
 40
1.0
176
     1
 90
        8
176
     1
 62
     8
420
  8421504
176
     1
 40
1.0
176
     1
 90
        1
176
     1
 90
        6
176
     1
 90
        2
176
     1
 62
     7
176
     1
 90
        5
176
     1
 90
        0
176
     1
 90
        0
176
     1
290
     0
176
     1
 90
        1
176
     1
 40
0.0
176
     1
 90
        0
176
     1
290
     0
176
     1
290
     1
176
     1
290
     1
176
     1
290
     0
176
     1
290
     0
176
     1
290
     0
176
     1
290
     0
176
     1
290
     0
176
     1
290
     0
176
     1
 90
       50
176
     1
 40
0.0
176
     1
 40
1.0
176
     1
 90
        0
176
     1
 62
    18
420
        0
176
     1
 90
       50
176
     1
 90
        3
176
     1
 62
     5
420
      255
176
     1
290
     0
176
     1
 90
       50
176
     1
 90
       50
176
     1
 90
       50
176
     1
290
     0
176
     1
 90
       50
176
     1
 62
   256
176
     0
 40
1.0
176
     0
 90
        2
176
     1
  1
strokes_ogs.tif
176
     1
290
     0
176
     1
 40
1.0
176
     1
 40
1.0
176
     1
  0
VISUALSTYLE
  5
A2
102
{ACAD_REACTORS
330
99
102
}
330
99
100
AcDbVisualStyle
  2
Conceptual
 70
     9
177
     3
291
     0
 70
    58
 90
        3
176
     1
 90
        2
176
     1
 90
        1
176
     1
 90
        0
176
     1
 40
0.6
176
     1
 40
30.0
176
     1
 62
     7
420
 16777215
176
     1
 90
        2
176
     1
 90
        2
176
     1
 62
     7
176
     1
 62
   257
176
     1
 90
        1
176
     1
 90
        1
176
     1
 40
40.0
176
     1
 90
        8
176
     1
 62
     7
176
     1
 40
1.0
176
     1
 90
        1
176
     1
 90
        6
176
     1
 90
        2
176
     1
 62
     7
176
     1
 90
        3
176
     1
 90
        0
176
     1
 90
        0
176
     1
290
     0
176
     1
 90
        1
176
     1
 40
0.0
176
     1
 90
        0
176
     1
290
     0
176
     1
290
     1
176
     1
290
     1
176
     1
290
     0
176
     1
290
     0
176
     1
290
     0
176
     1
290
     0
176
     1
290
     0
176
     1
290
     0
176
     1
 90
       50
176
     1
 40
0.0
176
     1
 40
1.0
176
     1
 90
        0
176
     1
 62
    18
420
        0
176
     1
 90
       50
176
     1
 90
        3
176
     1
 62
     5
420
      255
176
     1
290
     0
176
     1
 90
       50
176
     1
 90
       50
176
     1
 90
       50
176
     1
290
     0
176
     1
 90
       50
176
     1
 62
   256
176
     0
 40
1.0
176
     0
 90
        2
176
     1
  1
strokes_ogs.tif
176
     1
290
     0
176
     1
 40
1.0
176
     1
 40
1.0
176
     1
  0
VISUALSTYLE
  5
A4
102
{ACAD_REACTORS
330
99
102
}
330
99
100
AcDbVisualStyle
  2
Dim
 70
    11
177
     3
291
     1
 70
    58
 90
        2
176
     1
 90
        2
176
     1
 90
        1
176
     1
 90
        0
176
     1
 40
0.6
176
     1
 40
30.0
176
     1
 62
     7
420
 16777215
176
     1
 90
        1
176
     1
 90
        4
176
     1
 62
     7
176
     1
 62
   257
176
     1
 90
        1
176
     1
 90
        1
176
     1
 40
1.0
176
     1
 90
        8
176
     1
 62
     7
176
     1
 40
1.0
176
     1
 90
        1
176
     1
 90
        6
176
     1
 90
        2
176
     1
 62
     7
176
     1
 90
        5
176
     1
 90
        0
176
     1
 90
        0
176
     1
290
     0
176
     1
 90
        1
176
     1
 40
-50.0
176
     1
 90
        0
176
     1
290
     0
176
     1
290
     1
176
     1
290
     1
176
     1
290
     0
176
     1
290
     0
176
     1
290
     0
176
     1
290
     0
176
     1
290
     0
176
     1
290
     0
176
     1
 90
       50
176
     1
 40
0.0
176
     1
 40
1.0
176
     1
 90
        0
176
     1
 62
    18
420
        0
176
     1
 90
       50
176
     1
 90
        3
176
     1
 62
     5
420
      255
176
     1
290
     0
176
     1
 90
       50
176
     1
 90
       50
176
     1
 90
       50
176
     1
290
     0
176
     1
 90
       50
176
     1
 62
   256
176
     0
 40
1.0
176
     0
 90
        2
176
     1
  1
strokes_ogs.tif
176
     1
290
     0
176
     1
 40
1.0
176
     1
 40
1.0
176
     1
  0
VISUALSTYLE
  5
175
102
{ACAD_REACTORS
330
99
102
}
330
99
100
AcDbVisualStyle
  2
EdgeColorOff
 70
    22
177
     3
291
     1
 70
    58
 90
        2
176
     0
 90
        2
176
     0
 90
        0
176
     0
 90
        0
176
     0
 40
0.6
176
     0
 40
30.0
176
     0
 62
     7
420
 16777215
176
     0
 90
        1
176
     0
 90
        4
176
     0
 62
     7
176
     0
 62
   257
176
     0
 90
        1
176
     0
 90
        1
176
     0
 40
1.0
176
     0
 90
        8
176
     2
 62
     7
176
     0
 40
1.0
176
     0
 90
        1
176
     0
 90
        6
176
     0
 90
        2
176
     0
 62
     7
176
     0
 90
        5
176
     0
 90
        0
176
     0
 90
        0
176
     0
290
     0
176
     0
 90
        1
176
     0
 40
0.0
176
     0
 90
        0
176
     0
290
     0
176
     1
290
     1
176
     1
290
     1
176
     1
290
     0
176
     1
290
     0
176
     1
290
     0
176
     1
290
     0
176
     1
290
     0
176
     1
290
     0
176
     1
 90
       50
176
     1
 40
0.0
176
     1
 40
1.0
176
     1
 90
        0
176
     1
 62
    18
420
        0
176
     1
 90
       50
176
     1
 90
        3
176
     1
 62
     5
420
      255
176
     1
290
     0
176
     1
 90
       50
176
     1
 90
       50
176
     1
 90
       50
176
     1
290
     0
176
     1
 90
       50
176
     1
 62
   256
176
     0
 40
1.0
176
     0
 90
        2
176
     1
  1
strokes_ogs.tif
176
     1
290
     0
176
     1
 40
1.0
176
     1
 40
1.0
176
     1
  0
VISUALSTYLE
  5
A8
102
{ACAD_REACTORS
330
99
102
}
330
99
100
AcDbVisualStyle
  2
Facepattern
 70
    15
177
     3
291
     1
 70
    58
 90
        2
176
     1
 90
        2
176
     1
 90
        1
176
     1
 90
        0
176
     1
 40
0.6
176
     1
 40
30.0
176
     1
 62
     7
420
 16777215
176
     1
 90
        1
176
     1
 90
        4
176
     1
 62
     7
176
     1
 62
   257
176
     1
 90
        1
176
     1
 90
        1
176
     1
 40
1.0
176
     1
 90
        8
176
     1
 62
     7
176
     1
 40
1.0
176
     1
 90
        1
176
     1
 90
        6
176
     1
 90
        2
176
     1
 62
     7
176
     1
 90
        5
176
     1
 90
        0
176
     1
 90
        0
176
     1
290
     0
176
     1
 90
        1
176
     1
 40
0.0
176
     1
 90
        0
176
     1
290
     0
176
     1
290
     1
176
     1
290
     1
176
     1
290
     0
176
     1
290
     0
176
     1
290
     0
176
     1
290
     0
176
     1
290
     0
176
     1
290
     0
176
     1
 90
       50
176
     1
 40
0.0
176
     1
 40
1.0
176
     1
 90
        0
176
     1
 62
    18
420
        0
176
     1
 90
       50
176
     1
 90
        3
176
     1
 62
     5
420
      255
176
     1
290
     0
176
     1
 90
       50
176
     1
 90
       50
176
     1
 90
       50
176
     1
290
     0
176
     1
 90
       50
176
     1
 62
   256
176
     0
 40
1.0
176
     0
 90
        2
176
     1
  1
strokes_ogs.tif
176
     1
290
     0
176
     1
 40
1.0
176
     1
 40
1.0
176
     1
  0
VISUALSTYLE
  5
9A
102
{ACAD_REACTORS
330
99
102
}
330
99
100
AcDbVisualStyle
  2
Flat
 70
     0
177
     3
291
     1
 70
    58
 90
        2
176
     1
 90
        1
176
     1
 90
        1
176
     1
 90
        2
176
     1
 40
0.6
176
     1
 40
30.0
176
     1
 62
     7
420
 16777215
176
     1
 90
        0
176
     1
 90
        0
176
     1
 62
     7
176
     1
 62
   257
176
     1
 90
        1
176
     1
 90
        1
176
     1
 40
1.0
176
     1
 90
        8
176
     1
 62
     7
176
     1
 40
1.0
176
     1
 90
        1
176
     1
 90
        6
176
     1
 90
        2
176
     1
 62
     7
176
     1
 90
        5
176
     1
 90
        0
176
     1
 90
        0
176
     1
290
     0
176
     1
 90
       13
176
     1
 40
0.0
176
     1
 90
        0
176
     1
290
     0
176
     1
290
     1
176
     1
290
     1
176
     1
290
     0
176
     1
290
     0
176
     1
290
     0
176
     1
290
     0
176
     1
290
     0
176
     1
290
     0
176
     1
 90
       50
176
     1
 40
0.0
176
     1
 40
1.0
176
     1
 90
        0
176
     1
 62
    18
420
        0
176
     1
 90
       50
176
     1
 90
        3
176
     1
 62
     5
420
      255
176
     1
290
     0
176
     1
 90
       50
176
     1
 90
       50
176
     1
 90
       50
176
     1
290
     0
176
     1
 90
       50
176
     1
 62
   256
176
     0
 40
1.0
176
     0
 90
        2
176
     1
  1
strokes_ogs.tif
176
     1
290
     0
176
     1
 40
1.0
176
     1
 40
1.0
176
     1
  0
VISUALSTYLE
  5
9B
102
{ACAD_REACTORS
330
99
102
}
330
99
100
AcDbVisualStyle
  2
FlatWithEdges
 70
     1
177
     3
291
     1
 70
    58
 90
        2
176
     1
 90
        1
176
     1
 90
        1
176
     1
 90
        2
176
     1
 40
0.6
176
     1
 40
30.0
176
     1
 62
     7
420
 16777215
176
     1
 90
        1
176
     1
 90
        0
176
     1
 62
     7
176
     1
 62
   257
176
     1
 90
        1
176
     1
 90
        1
176
     1
 40
1.0
176
     1
 90
        0
176
     1
 62
   257
176
     1
 40
1.0
176
     1
 90
        1
176
     1
 90
        6
176
     1
 90
        2
176
     1
 62
     7
176
     1
 90
        5
176
     1
 90
        0
176
     1
 90
        0
176
     1
290
     0
176
     1
 90
       13
176
     1
 40
0.0
176
     1
 90
        0
176
     1
290
     0
176
     1
290
     1
176
     1
290
     1
176
     1
290
     0
176
     1
290
     0
176
     1
290
     0
176
     1
290
     0
176
     1
290
     0
176
     1
290
     0
176
     1
 90
       50
176
     1
 40
0.0
176
     1
 40
1.0
176
     1
 90
        0
176
     1
 62
    18
420
        0
176
     1
 90
       50
176
     1
 90
        3
176
     1
 62
     5
420
      255
176
     1
290
     0
176
     1
 90
       50
176
     1
 90
       50
176
     1
 90
       50
176
     1
290
     0
176
     1
 90
       50
176
     1
 62
   256
176
     0
 40
1.0
176
     0
 90
        2
176
     1
  1
strokes_ogs.tif
176
     1
290
     0
176
     1
 40
1.0
176
     1
 40
1.0
176
     1
  0
VISUALSTYLE
  5
9C
102
{ACAD_REACTORS
330
99
102
}
330
99
100
AcDbVisualStyle
  2
Gouraud
 70
     2
177
     3
291
     1
 70
    58
 90
        2
176
     1
 90
        2
176
     1
 90
        1
176
     1
 90
        2
176
     1
 40
0.6
176
     1
 40
30.0
176
     1
 62
     7
420
 16777215
176
     1
 90
        0
176
     1
 90
        0
176
     1
 62
     7
176
     1
 62
   257
176
     1
 90
        1
176
     1
 90
        1
176
     1
 40
1.0
176
     1
 90
        0
176
     1
 62
     7
176
     1
 40
1.0
176
     1
 90
        1
176
     1
 90
        6
176
     1
 90
        2
176
     1
 62
     7
176
     1
 90
        5
176
     1
 90
        0
176
     1
 90
        0
176
     1
290
     0
176
     1
 90
       13
176
     1
 40
0.0
176
     1
 90
        0
176
     1
290
     0
176
     1
290
     1
176
     1
290
     1
176
     1
290
     0
176
     1
290
     0
176
     1
290
     0
176
     1
290
     0
176
     1
290
     0
176
     1
290
     0
176
     1
 90
       50
176
     1
 40
0.0
176
     1
 40
1.0
176
     1
 90
        0
176
     1
 62
    18
420
        0
176
     1
 90
       50
176
     1
 90
        3
176
     1
 62
     5
420
      255
176
     1
290
     0
176
     1
 90
       50
176
     1
 90
       50
176
     1
 90
       50
176
     1
290
     0
176
     1
 90
       50
176
     1
 62
   256
176
     0
 40
1.0
176
     0
 90
        2
176
     1
  1
strokes_ogs.tif
176
     1
290
     0
176
     1
 40
1.0
176
     1
 40
1.0
176
     1
  0
VISUALSTYLE
  5
9D
102
{ACAD_REACTORS
330
99
102
}
330
99
100
AcDbVisualStyle
  2
GouraudWithEdges
 70
     3
177
     3
291
     1
 70
    58
 90
        2
176
     1
 90
        2
176
     1
 90
        1
176
     1
 90
        2
176
     1
 40
0.6
176
     1
 40
30.0
176
     1
 62
     7
420
 16777215
176
     1
 90
        1
176
     1
 90
        0
176
     1
 62
     7
176
     1
 62
   257
176
     1
 90
        1
176
     1
 90
        1
176
     1
 40
1.0
176
     1
 90
        0
176
     1
 62
   257
176
     1
 40
1.0
176
     1
 90
        1
176
     1
 90
        6
176
     1
 90
        2
176
     1
 62
     7
176
     1
 90
        5
176
     1
 90
        0
176
     1
 90
        0
176
     1
290
     0
176
     1
 90
       13
176
     1
 40
0.0
176
     1
 90
        0
176
     1
290
     0
176
     1
290
     1
176
     1
290
     1
176
     1
290
     0
176
     1
290
     0
176
     1
290
     0
176
     1
290
     0
176
     1
290
     0
176
     1
290
     0
176
     1
 90
       50
176
     1
 40
0.0
176
     1
 40
1.0
176
     1
 90
        0
176
     1
 62
    18
420
        0
176
     1
 90
       50
176
     1
 90
        3
176
     1
 62
     5
420
      255
176
     1
290
     0
176
     1
 90
       50
176
     1
 90
       50
176
     1
 90
       50
176
     1
290
     0
176
     1
 90
       50
176
     1
 62
   256
176
     0
 40
1.0
176
     0
 90
        2
176
     1
  1
strokes_ogs.tif
176
     1
290
     0
176
     1
 40
1.0
176
     1
 40
1.0
176
     1
  0
VISUALSTYLE
  5
A1
102
{ACAD_REACTORS
330
99
102
}
330
99
100
AcDbVisualStyle
  2
Hidden
 70
     6
177
     3
291
     0
 70
    58
 90
        1
176
     1
 90
        2
176
     1
 90
        2
176
     1
 90
        0
176
     1
 40
0.6
176
     1
 40
30.0
176
     1
 62
     7
420
 16777215
176
     1
 90
        2
176
     1
 90
        2
176
     1
 62
     7
176
     1
 62
   257
176
     1
 90
        2
176
     1
 90
        1
176
     1
 40
40.0
176
     1
 90
        0
176
     1
 62
   257
176
     1
 40
1.0
176
     1
 90
        1
176
     1
 90
        6
176
     1
 90
        2
176
     1
 62
     7
176
     1
 90
        3
176
     1
 90
        0
176
     1
 90
        0
176
     1
290
     0
176
     1
 90
        1
176
     1
 40
0.0
176
     1
 90
        0
176
     1
290
     0
176
     1
290
     1
176
     1
290
     1
176
     1
290
     0
176
     1
290
     0
176
     1
290
     0
176
     1
290
     0
176
     1
290
     0
176
     1
290
     0
176
     1
 90
       50
176
     1
 40
0.0
176
     1
 40
1.0
176
     1
 90
        0
176
     1
 62
    18
420
        0
176
     1
 90
       50
176
     1
 90
        3
176
     1
 62
     5
420
      255
176
     1
290
     0
176
     1
 90
       50
176
     1
 90
       50
176
     1
 90
       50
176
     1
290
     0
176
     1
 90
       50
176
     1
 62
   256
176
     0
 40
1.0
176
     0
 90
        2
176
     1
  1
strokes_ogs.tif
176
     1
290
     0
176
     1
 40
1.0
176
     1
 40
1.0
176
     1
  0
VISUALSTYLE
  5
173
102
{ACAD_REACTORS
330
99
102
}
330
99
100
AcDbVisualStyle
  2
JitterOff
 70
    20
177
     3
291
     1
 70
    58
 90
        2
176
     0
 90
        2
176
     0
 90
        0
176
     0
 90
        0
176
     0
 40
0.6
176
     0
 40
30.0
176
     0
 62
     7
420
 16777215
176
     0
 90
        1
176
     0
 90
        4
176
     0
 62
     7
176
     0
 62
   257
176
     0
 90
        1
176
     0
 90
        1
176
     0
 40
1.0
176
     0
 90
       10
176
     2
 62
     7
176
     0
 40
1.0
176
     0
 90
        1
176
     0
 90
        6
176
     0
 90
        2
176
     0
 62
     7
176
     0
 90
        5
176
     0
 90
        0
176
     0
 90
        0
176
     0
290
     0
176
     0
 90
        1
176
     0
 40
0.0
176
     0
 90
        0
176
     0
290
     0
176
     1
290
     1
176
     1
290
     1
176
     1
290
     0
176
     1
290
     0
176
     1
290
     0
176
     1
290
     0
176
     1
290
     0
176
     1
290
     0
176
     1
 90
       50
176
     1
 40
0.0
176
     1
 40
1.0
176
     1
 90
        0
176
     1
 62
    18
420
        0
176
     1
 90
       50
176
     1
 90
        3
176
     1
 62
     5
420
      255
176
     1
290
     0
176
     1
 90
       50
176
     1
 90
       50
176
     1
 90
       50
176
     1
290
     0
176
     1
 90
       50
176
     1
 62
   256
176
     0
 40
1.0
176
     0
 90
        2
176
     1
  1
strokes_ogs.tif
176
     1
290
     0
176
     1
 40
1.0
176
     1
 40
1.0
176
     1
  0
VISUALSTYLE
  5
A7
102
{ACAD_REACTORS
330
99
102
}
330
99
100
AcDbVisualStyle
  2
Linepattern
 70
    14
177
     3
291
     1
 70
    58
 90
        2
176
     1
 90
        2
176
     1
 90
        1
176
     1
 90
        0
176
     1
 40
0.6
176
     1
 40
30.0
176
     1
 62
     7
420
 16777215
176
     1
 90
        1
176
     1
 90
        4
176
     1
 62
     7
176
     1
 62
   257
176
     1
 90
        7
176
     1
 90
        7
176
     1
 40
1.0
176
     1
 90
        8
176
     1
 62
     7
176
     1
 40
1.0
176
     1
 90
        1
176
     1
 90
        6
176
     1
 90
        2
176
     1
 62
     7
176
     1
 90
        5
176
     1
 90
        0
176
     1
 90
        0
176
     1
290
     0
176
     1
 90
        1
176
     1
 40
0.0
176
     1
 90
        0
176
     1
290
     0
176
     1
290
     1
176
     1
290
     1
176
     1
290
     0
176
     1
290
     0
176
     1
290
     0
176
     1
290
     0
176
     1
290
     0
176
     1
290
     0
176
     1
 90
       50
176
     1
 40
0.0
176
     1
 40
1.0
176
     1
 90
        0
176
     1
 62
    18
420
        0
176
     1
 90
       50
176
     1
 90
        3
176
     1
 62
     5
420
      255
176
     1
290
     0
176
     1
 90
       50
176
     1
 90
       50
176
     1
 90
       50
176
     1
290
     0
176
     1
 90
       50
176
     1
 62
   256
176
     0
 40
1.0
176
     0
 90
        2
176
     1
  1
strokes_ogs.tif
176
     1
290
     0
176
     1
 40
1.0
176
     1
 40
1.0
176
     1
  0
VISUALSTYLE
  5
174
102
{ACAD_REACTORS
330
99
102
}
330
99
100
AcDbVisualStyle
  2
OverhangOff
 70
    21
177
     3
291
     1
 70
    58
 90
        2
176
     0
 90
        2
176
     0
 90
        0
176
     0
 90
        0
176
     0
 40
0.6
176
     0
 40
30.0
176
     0
 62
     7
420
 16777215
176
     0
 90
        1
176
     0
 90
        4
176
     0
 62
     7
176
     0
 62
   257
176
     0
 90
        1
176
     0
 90
        1
176
     0
 40
1.0
176
     0
 90
        9
176
     2
 62
     7
176
     0
 40
1.0
176
     0
 90
        1
176
     0
 90
        6
176
     0
 90
        2
176
     0
 62
     7
176
     0
 90
        5
176
     0
 90
        0
176
     0
 90
        0
176
     0
290
     0
176
     0
 90
        1
176
     0
 40
0.0
176
     0
 90
        0
176
     0
290
     0
176
     1
290
     1
176
     1
290
     1
176
     1
290
     0
176
     1
290
     0
176
     1
290
     0
176
     1
290
     0
176
     1
290
     0
176
     1
290
     0
176
     1
 90
       50
176
     1
 40
0.0
176
     1
 40
1.0
176
     1
 90
        0
176
     1
 62
    18
420
        0
176
     1
 90
       50
176
     1
 90
        3
176
     1
 62
     5
420
      255
176
     1
290
     0
176
     1
 90
       50
176
     1
 90
       50
176
     1
 90
       50
176
     1
290
     0
176
     1
 90
       50
176
     1
 62
   256
176
     0
 40
1.0
176
     0
 90
        2
176
     1
  1
strokes_ogs.tif
176
     1
290
     0
176
     1
 40
1.0
176
     1
 40
1.0
176
     1
  0
VISUALSTYLE
  5
A3
102
{ACAD_REACTORS
330
99
102
}
330
99
100
AcDbVisualStyle
  2
Realistic
 70
     8
177
     3
291
     0
 70
    58
 90
        2
176
     1
 90
        2
176
     1
 90
        0
176
     1
 90
        2
176
     1
 40
0.6
176
     1
 40
30.0
176
     1
 62
     7
420
 16777215
176
     1
 90
        0
176
     1
 90
        0
176
     1
 62
     7
176
     1
 62
   257
176
     1
 90
        1
176
     1
 90
        1
176
     1
 40
1.0
176
     1
 90
        8
176
     1
 62
   257
176
     1
 40
1.0
176
     1
 90
        1
176
     1
 90
        6
176
     1
 90
        2
176
     1
 62
     7
176
     1
 90
        3
176
     1
 90
        0
176
     1
 90
        0
176
     1
290
     0
176
     1
 90
       13
176
     1
 40
0.0
176
     1
 90
        0
176
     1
290
     0
176
     1
290
     1
176
     1
290
     1
176
     1
290
     0
176
     1
290
     0
176
     1
290
     0
176
     1
290
     0
176
     1
290
     0
176
     1
290
     0
176
     1
 90
       50
176
     1
 40
0.0
176
     1
 40
1.0
176
     1
 90
        0
176
     1
 62
    18
420
        0
176
     1
 90
       50
176
     1
 90
        3
176
     1
 62
     5
420
      255
176
     1
290
     0
176
     1
 90
       50
176
     1
 90
       50
176
     1
 90
       50
176
     1
290
     0
176
     1
 90
       50
176
     1
 62
   256
176
     0
 40
1.0
176
     0
 90
        2
176
     1
  1
strokes_ogs.tif
176
     1
290
     0
176
     1
 40
1.0
176
     1
 40
1.0
176
     1
  0
VISUALSTYLE
  5
182
102
{ACAD_REACTORS
330
99
102
}
330
99
100
AcDbVisualStyle
  2
Shaded
 70
    27
177
     3
291
     0
 70
    58
 90
        2
176
     1
 90
        2
176
     1
 90
        1
176
     1
 90
        2
176
     1
 40
0.6
176
     1
 40
30.0
176
     1
 62
     7
420
 16777215
176
     1
 90
        0
176
     1
 90
        4
176
     1
 62
     7
176
     1
 62
   257
176
     1
 90
        1
176
     1
 90
        1
176
     1
 40
1.0
176
     1
 90
        8
176
     1
 62
   257
176
     1
 40
1.0
176
     1
 90
        1
176
     1
 90
        6
176
     1
 90
        2
176
     1
 62
     8
420
  7895160
176
     1
 90
        3
176
     1
 90
        0
176
     1
 90
        0
176
     1
290
     0
176
     1
 90
        5
176
     1
 40
0.0
176
     1
 90
        0
176
     1
290
     0
176
     1
290
     1
176
     1
290
     1
176
     1
290
     0
176
     1
290
     0
176
     1
290
     0
176
     1
290
     0
176
     1
290
     0
176
     1
290
     0
176
     1
 90
       50
176
     1
 40
0.0
176
     1
 40
1.0
176
     1
 90
        0
176
     1
 62
    18
420
        0
176
     1
 90
       50
176
     1
 90
        3
176
     1
 62
     5
420
      255
176
     1
290
     0
176
     1
 90
       50
176
     1
 90
       50
176
     1
 90
       50
176
     1
290
     0
176
     1
 90
       50
176
     1
 62
   256
176
     0
 40
1.0
176
     0
 90
        2
176
     1
  1
strokes_ogs.tif
176
     1
290
     0
176
     1
 40
1.0
176
     1
 40
1.0
176
     1
  0
VISUALSTYLE
  5
181
102
{ACAD_REACTORS
330
99
102
}
330
99
100
AcDbVisualStyle
  2
Shaded with edges
 70
    26
177
     3
291
     0
 70
    58
 90
        2
176
     1
 90
        2
176
     1
 90
        1
176
     1
 90
        2
176
     1
 40
0.6
176
     1
 40
30.0
176
     1
 62
     7
420
 16777215
176
     1
 90
        1
176
     1
 90
        2
176
     1
 62
     7
176
     1
 62
   257
176
     1
 90
        2
176
     1
 90
        1
176
     1
 40
1.0
176
     1
 90
        8
176
     1
 62
   257
176
     1
 40
1.0
176
     1
 90
        1
176
     1
 90
        6
176
     1
 90
        2
176
     1
 62
     7
176
     1
 90
        3
176
     1
 90
        0
176
     1
 90
        0
176
     1
290
     0
176
     1
 90
        5
176
     1
 40
0.0
176
     1
 90
        0
176
     1
290
     0
176
     1
290
     1
176
     1
290
     1
176
     1
290
     0
176
     1
290
     0
176
     1
290
     0
176
     1
290
     0
176
     1
290
     0
176
     1
290
     0
176
     1
 90
       50
176
     1
 40
0.0
176
     1
 40
1.0
176
     1
 90
        0
176
     1
 62
    18
420
        0
176
     1
 90
       50
176
     1
 90
        3
176
     1
 62
     5
420
      255
176
     1
290
     0
176
     1
 90
       50
176
     1
 90
       50
176
     1
 90
       50
176
     1
290
     0
176
     1
 90
       50
176
     1
 62
   256
176
     0
 40
1.0
176
     0
 90
        2
176
     1
  1
strokes_ogs.tif
176
     1
290
     0
176
     1
 40
1.0
176
     1
 40
1.0
176
     1
  0
VISUALSTYLE
  5
17E
102
{ACAD_REACTORS
330
99
102
}
330
99
100
AcDbVisualStyle
  2
Shades of Gray
 70
    23
177
     3
291
     0
 70
    58
 90
        2
176
     1
 90
        2
176
     1
 90
        3
176
     1
 90
        0
176
     1
 40
0.6
176
     1
 40
30.0
176
     1
 62
     7
420
 16777215
176
     1
 90
        2
176
     1
 90
        2
176
     1
 62
     7
176
     1
 62
     7
176
     1
 90
        1
176
     1
 90
        1
176
     1
 40
40.0
176
     1
 90
        8
176
     1
 62
     7
176
     1
 40
1.0
176
     1
 90
        1
176
     1
 90
        6
176
     1
 90
        2
176
     1
 62
     7
176
     1
 90
        3
176
     1
 90
        0
176
     1
 90
        0
176
     1
290
     0
176
     1
 90
        1
176
     1
 40
0.0
176
     1
 90
        0
176
     1
290
     0
176
     1
290
     1
176
     1
290
     1
176
     1
290
     0
176
     1
290
     0
176
     1
290
     0
176
     1
290
     0
176
     1
290
     0
176
     1
290
     0
176
     1
 90
       50
176
     1
 40
0.0
176
     1
 40
1.0
176
     1
 90
        0
176
     1
 62
    18
420
        0
176
     1
 90
       50
176
     1
 90
        3
176
     1
 62
     5
420
      255
176
     1
290
     0
176
     1
 90
       50
176
     1
 90
       50
176
     1
 90
       50
176
     1
290
     0
176
     1
 90
       50
176
     1
 62
   256
176
     0
 40
1.0
176
     0
 90
        2
176
     1
  1
strokes_ogs.tif
176
     1
290
     0
176
     1
 40
1.0
176
     1
 40
1.0
176
     1
  0
VISUALSTYLE
  5
17F
102
{ACAD_REACTORS
330
99
102
}
330
99
100
AcDbVisualStyle
  2
Sketchy
 70
    24
177
     3
291
     0
 70
    58
 90
        1
176
     1
 90
        2
176
     1
 90
        2
176
     1
 90
        0
176
     1
 40
0.6
176
     1
 40
30.0
176
     1
 62
     7
420
 16777215
176
     1
 90
        2
176
     1
 90
        2
176
     1
 62
     7
176
     1
 62
     7
176
     1
 90
        1
176
     1
 90
        1
176
     1
 40
40.0
176
     1
 90
       11
176
     1
 62
     7
176
     1
 40
1.0
176
     1
 90
        1
176
     1
 90
        6
176
     1
 90
        2
176
     1
 62
     7
176
     1
 90
        6
176
     1
 90
        0
176
     1
 90
        0
176
     1
290
     0
176
     1
 90
        1
176
     1
 40
0.0
176
     1
 90
        0
176
     1
290
     0
176
     1
290
     1
176
     1
290
     1
176
     1
290
     0
176
     1
290
     0
176
     1
290
     0
176
     1
290
     0
176
     1
290
     0
176
     1
290
     0
176
     1
 90
       50
176
     1
 40
0.0
176
     1
 40
1.0
176
     1
 90
        0
176
     1
 62
    18
420
        0
176
     1
 90
       50
176
     1
 90
        3
176
     1
 62
     5
420
      255
176
     1
290
     0
176
     1
 90
       50
176
     1
 90
       50
176
     1
 90
       50
176
     1
290
     0
176
     1
 90
       50
176
     1
 62
   256
176
     0
 40
1.0
176
     0
 90
        2
176
     1
  1
strokes_ogs.tif
176
     1
290
     0
176
     1
 40
1.0
176
     1
 40
1.0
176
     1
  0
VISUALSTYLE
  5
A6
102
{ACAD_REACTORS
330
99
102
}
330
99
100
AcDbVisualStyle
  2
Thicken
 70
    13
177
     3
291
     1
 70
    58
 90
        2
176
     1
 90
        2
176
     1
 90
        1
176
     1
 90
        0
176
     1
 40
0.6
176
     1
 40
30.0
176
     1
 62
     7
420
 16777215
176
     1
 90
        1
176
     1
 90
        4
176
     1
 62
     7
176
     1
 62
   257
176
     1
 90
        1
176
     1
 90
        1
176
     1
 40
1.0
176
     1
 90
       12
176
     1
 62
     7
176
     1
 40
1.0
176
     1
 90
        1
176
     1
 90
        6
176
     1
 90
        2
176
     1
 62
     7
176
     1
 90
        5
176
     1
 90
        0
176
     1
 90
        0
176
     1
290
     0
176
     1
 90
        1
176
     1
 40
0.0
176
     1
 90
        0
176
     1
290
     0
176
     1
290
     1
176
     1
290
     1
176
     1
290
     0
176
     1
290
     0
176
     1
290
     0
176
     1
290
     0
176
     1
290
     0
176
     1
290
     0
176
     1
 90
       50
176
     1
 40
0.0
176
     1
 40
1.0
176
     1
 90
        0
176
     1
 62
    18
420
        0
176
     1
 90
       50
176
     1
 90
        3
176
     1
 62
     5
420
      255
176
     1
290
     0
176
     1
 90
       50
176
     1
 90
       50
176
     1
 90
       50
176
     1
290
     0
176
     1
 90
       50
176
     1
 62
   256
176
     0
 40
1.0
176
     0
 90
        2
176
     1
  1
strokes_ogs.tif
176
     1
290
     0
176
     1
 40
1.0
176
     1
 40
1.0
176
     1
  0
VISUALSTYLE
  5
A0
102
{ACAD_REACTORS
330
99
102
}
330
99
100
AcDbVisualStyle
  2
Wireframe
 70
     5
177
     3
291
     0
 70
    58
 90
        0
176
     1
 90
        2
176
     1
 90
        0
176
     1
 90
        0
176
     1
 40
0.6
176
     1
 40
30.0
176
     1
 62
     7
420
 16777215
176
     1
 90
        1
176
     1
 90
        4
176
     1
 62
     7
176
     1
 62
   257
176
     1
 90
        1
176
     1
 90
        1
176
     1
 40
1.0
176
     1
 90
        0
176
     1
 62
   257
176
     1
 40
1.0
176
     1
 90
        1
176
     1
 90
        6
176
     1
 90
        2
176
     1
 62
     7
176
     1
 90
        3
176
     1
 90
        0
176
     1
 90
        0
176
     1
290
     0
176
     1
 90
        1
176
     1
 40
0.0
176
     1
 90
        0
176
     1
290
     0
176
     1
290
     1
176
     1
290
     1
176
     1
290
     0
176
     1
290
     0
176
     1
290
     0
176
     1
290
     0
176
     1
290
     0
176
     1
290
     0
176
     1
 90
       50
176
     1
 40
0.0
176
     1
 40
1.0
176
     1
 90
        0
176
     1
 62
    18
420
        0
176
     1
 90
       50
176
     1
 90
        3
176
     1
 62
     5
420
      255
176
     1
290
     0
176
     1
 90
       50
176
     1
 90
       50
176
     1
 90
       50
176
     1
290
     0
176
     1
 90
       50
176
     1
 62
   256
176
     0
 40
1.0
176
     0
 90
        2
176
     1
  1
strokes_ogs.tif
176
     1
290
     0
176
     1
 40
1.0
176
     1
 40
1.0
176
     1
  0
VISUALSTYLE
  5
180
102
{ACAD_REACTORS
330
99
102
}
330
99
100
AcDbVisualStyle
  2
X-Ray
 70
    25
177
     3
291
     0
 70
    58
 90
        2
176
     1
 90
        2
176
     1
 90
        1
176
     1
 90
        1
176
     1
 40
0.5
176
     1
 40
30.0
176
     1
 62
     7
420
 16777215
176
     1
 90
        1
176
     1
 90
        0
176
     1
 62
     7
176
     1
 62
   257
176
     1
 90
        1
176
     1
 90
        1
176
     1
 40
1.0
176
     1
 90
        8
176
     1
 62
     7
176
     1
 40
1.0
176
     1
 90
        1
176
     1
 90
        6
176
     1
 90
        2
176
     1
 62
     7
176
     1
 90
        3
176
     1
 90
        0
176
     1
 90
        0
176
     1
290
     0
176
     1
 90
       13
176
     1
 40
0.0
176
     1
 90
        0
176
     1
290
     0
176
     1
290
     1
176
     1
290
     1
176
     1
290
     0
176
     1
290
     0
176
     1
290
     0
176
     1
290
     0
176
     1
290
     0
176
     1
290
     0
176
     1
 90
       50
176
     1
 40
0.0
176
     1
 40
1.0
176
     1
 90
        0
176
     1
 62
    18
420
        0
176
     1
 90
       50
176
     1
 90
        3
176
     1
 62
     5
420
      255
176
     1
290
     0
176
     1
 90
       50
176
     1
 90
       50
176
     1
 90
       50
176
     1
290
     0
176
     1
 90
       50
176
     1
 62
   256
176
     0
 40
1.0
176
     0
 90
        2
176
     1
  1
strokes_ogs.tif
176
     1
290
     0
176
     1
 40
1.0
176
     1
 40
1.0
176
     1
  0
DICTIONARYVAR
  5
52752
102
{ACAD_REACTORS
330
52751
102
}
330
52751
100
DictionaryVariables
280
     0
  1
0.500000
  0
DICTIONARYVAR
  5
52753
102
{ACAD_REACTORS
330
52751
102
}
330
52751
100
DictionaryVariables
280
     0
  1
1
  0
DICTIONARYVAR
  5
52754
102
{ACAD_REACTORS
330
52751
102
}
330
52751
100
DictionaryVariables
280
     0
  1
0
  0
DICTIONARYVAR
  5
52755
102
{ACAD_REACTORS
330
52751
102
}
330
52751
100
DictionaryVariables
280
     0
  1
1:1
  0
DICTIONARYVAR
  5
52756
102
{ACAD_REACTORS
330
52751
102
}
330
52751
100
DictionaryVariables
280
     0
  1
STANDARD
  0
DICTIONARYVAR
  5
52757
102
{ACAD_REACTORS
330
52751
102
}
330
52751
100
DictionaryVariables
280
     0
  1
STANDARD
  0
DICTIONARYVAR
  5
52758
102
{ACAD_REACTORS
330
52751
102
}
330
52751
100
DictionaryVariables
280
     0
  1
Imperial24
  0
DICTIONARYVAR
  5
52759
102
{ACAD_REACTORS
330
52751
102
}
330
52751
100
DictionaryVariables
280
     0
  1
Imperial24
  0
DICTIONARYVAR
  5
5275A
102
{ACAD_REACTORS
330
52751
102
}
330
52751
100
DictionaryVariables
280
     0
  1
0
  0
DICTIONARYVAR
  5
5275B
102
{ACAD_REACTORS
330
52751
102
}
330
52751
100
DictionaryVariables
280
     0
  1
2
  0
DICTIONARYVAR
  5
5275C
102
{ACAD_REACTORS
330
52751
102
}
330
52751
100
DictionaryVariables
280
     0
  1
1
  0
DICTIONARYVAR
  5
5275D
102
{ACAD_REACTORS
330
52751
102
}
330
52751
100
DictionaryVariables
280
     0
  1
BYLAYER
  0
DICTIONARYVAR
  5
5275E
102
{ACAD_REACTORS
330
52751
102
}
330
52751
100
DictionaryVariables
280
     0
  1
0
  0
DICTIONARYVAR
  5
5275F
102
{ACAD_REACTORS
330
52751
102
}
330
52751
100
DictionaryVariables
280
     0
  1
K-Hatch
  0
DICTIONARYVAR
  5
52760
102
{ACAD_REACTORS
330
52751
102
}
330
52751
100
DictionaryVariables
280
     0
  1
ByLayer
  0
DICTIONARYVAR
  5
52761
102
{ACAD_REACTORS
330
52751
102
}
330
52751
100
DictionaryVariables
280
     0
  1
0
  0
DICTIONARYVAR
  5
52762
102
{ACAD_REACTORS
330
52751
102
}
330
52751
100
DictionaryVariables
280
     0
  1
0
  0
DICTIONARYVAR
  5
52763
102
{ACAD_REACTORS
330
52751
102
}
330
52751
100
DictionaryVariables
280
     0
  1
0
  0
DICTIONARYVAR
  5
52764
102
{ACAD_REACTORS
330
52751
102
}
330
52751
100
DictionaryVariables
280
     0
  1
2
  0
DICTIONARYVAR
  5
52765
102
{ACAD_REACTORS
330
52751
102
}
330
52751
100
DictionaryVariables
280
     0
  1
1.000000
  0
DICTIONARYVAR
  5
52766
102
{ACAD_REACTORS
330
52751
102
}
330
52751
100
DictionaryVariables
280
     0
  1
1
  0
DICTIONARYVAR
  5
52767
102
{ACAD_REACTORS
330
52751
102
}
330
52751
100
DictionaryVariables
280
     0
  1
2
  0
DICTIONARYVAR
  5
52768
102
{ACAD_REACTORS
330
52751
102
}
330
52751
100
DictionaryVariables
280
     0
  1
1
  0
DICTIONARYVAR
  5
52769
102
{ACAD_REACTORS
330
52751
102
}
330
52751
100
DictionaryVariables
280
     0
  1
0
  0
DICTIONARYVAR
  5
5276A
102
{ACAD_REACTORS
330
52751
102
}
330
52751
100
DictionaryVariables
280
     0
  1
127
  0
DICTIONARY
  5
194
330
22
100
AcDbDictionary
280
     1
281
     1
  0
DICTIONARY
  5
188
330
97
100
AcDbDictionary
280
     1
281
     1
  3
FBXASSET
360
189
  0
DICTIONARY
  5
186
330
96
100
AcDbDictionary
280
     1
281
     1
  3
FBXASSET
360
187
  0
DICTIONARY
  5
110
330
98
100
AcDbDictionary
280
     1
281
     1
  3
BUMPTILE
360
112
  3
DIFFUSETILE
360
111
  3
FBXASSET
360
18A
  3
OPACITYTILE
360
113
  3
REFLECTIONTILE
360
114
  0
DICTIONARY
  5
104
330
87
100
AcDbDictionary
280
     1
281
     1
  3
ACAD_ROUNDTRIP_2008_TABLESTYLE_CELLSTYLEMAP
360
530EC
  0
XRECORD
  5
189
102
{ACAD_REACTORS
330
188
102
}
330
188
100
AcDbXrecord
280
     1
 70
     1
 90
429727718
  1
508B35C9-AEE7-456F-BE74-D52651303AC6
310
504B03040A0000080000B670623B3DEE336E79000000790000001B0000006175746F6465736B2D64657369676E2D7061636B6167652E786D6C3C3F786D6C2076657273696F6E3D22312E302220656E636F64696E673D227574662D3822203F3E3C666F726D6174733E3C666F726D61743E687474703A2F2F736368656D612E
310
6175746F6465736B2E636F6D2F64657369676E2D7061636B6167652F323030393C2F666F726D61743E3C2F666F726D6174733E504B0304140006080800B670623BD486FD9CA0000000F4000000130000005B436F6E74656E745F54797065735D2E786D6C7D8EC10E82300C865F65E91D8A1E8C310C0EEA1BF002731658846E
310
D98AC1B77784ABF1D8FE5FBFBF75BBCE937A534CCEB38643598122B6FEE978D0B0485F9C41B54DDD7D022595594E1A469170414C76A4D9A4D207E29CF43ECE46F218070CC6BECC4078ACAA135ACF422C856C0E68EA1BF5669944DDD7BCDE7B1F8E415D77AECB980613C2E4AC91FC167A2B244592486606FC29C8FD7F045B9A
310
EF7053A7E60B504B0304140006080800B670623B28ED286BEB0000007C01000008000000636F72652E786D6C8D90416EC3201045AF82665B6183218D6D61A254764FD00B204C5C94182C03558F5F9C3852BBEB6A467FFE9B197D71FA9E6FE8CBACC17AD7012D0820E3B41FAD9B3A48F1826B40272956EFE32F1B20A766D3C1
310
268314D3EAD3B24BDABB685CCCAAF3A3D94515828980F42D371D04FD696655A814B3235C8B45E9AB9A4C419F5D8653B2237A1CB163DE672FD6AC209BF3C08E0D1B30EB19C3FC9D72FCC6EB231EFA33EDE96BDD341517E5064B11EDFCBCAF57A3A2194156843498524CAA0FCA5B7268F9E185D42D21A2DCEC7FA0B48CFF8492
310
759155FBBB0F2C80A4F991FB408A72CB22977B50B96EB9C91F504B0304140006080800B670623B55019EA25F0000007C00000007000000636E782E786D6C4DCB3B0E80201045D1AD90E915ED2CF8AC45050C11660C8261F98AB1B07AC9C97D42D718D865D3E909258CFD00CCE24AC6E326A164D74DC0B4128928FF32603847
310
2BA13128B1252AC747C6BAB984FC68F0B87FE8960A5C09FE86CFB69FBA01504B0304140006080800B670623B7BC41AC871010000D40300000C0000006662782F636F72652E786D6CC553ED6E8320147D15C2DF4501B56B6D90A64BBB27D80B50A5CE54C120983EFEAE1F4DD7A56BBA5FF3879273EEE59E7310BE393735EA95
310
ED2AA333CC428A91D2B9292A5D66D8BB63B0C26823B835C67D2BC348CB46657880B1E0A535BE9DA1DC68A7B403549B42CDA0EC3AE530CA6B5864B8CB3F552343E91D5474A7B095F949962A6421D0502778E72C0840D390E18DC5F170E664C205F7BE2A66B62A605A75AC94C522DDEEE3651AEF837817C741F2CE92E02D592D
310
83FD6ECB76EC7595A651C2C9D02CB8AB9A8BBADC2AE954814544691A3016D0E883256BBA58278B17BA5A53CAC9507ED3E4DBE2C9265F691747B3DCA9ADC382819091F8E1162272A8933DE82182932144F88C09DF060D8140C84E1EEA8B8F1340BDCA9DB1093085F157AA97B557309586747CD0EF0B4EA64E983A6E0EAEEFCE
310
889E9EF17847386AA94B30211D2C0FDE0D3AF9A4610EAD5536E8DD1969631B593F67E381C33F5157F17725E5A636F6BF1491F980C8FC7B90E13E8A2F504B0304140006080800B670623B70102A487D0000009D0000000B0000006662782F636E782E786D6C4DCCD10A83201886E15B91FFDC95A5C30335ACCDFB886521330D
310
A76397BF1A1DECE883878F57749FD5A3B74D2F17830472A901D9F088930B8B849267CC01754AA418F3DF0D5018572BE160506249B16C274D761E8BCFBB7A179E27F65CB39A0F14D396184C9921B81F34C3ACA1B4B99ABB6E6F062A25AA5F69DF23ACBE504B0304140006080800B670623B3610CA3329010000120200003100
310
00006662782F42384135303843342D343331462D343546312D424341352D3532343432364645413344462F636F72652E786D6C8D515B6EC32010BC0AE22B55850D0E446E848992B43E412FE000495162B07854397EA176A4F62F3F2C9A9D991D58BEBB8F37F0AD7D30CE76905418026DA553C65E3A98E219B510EC04F7CEC5
310
3F3408EC30EA0E16180A7EF12E4D0B249D8DDAC68C5AA7F4020E21E80881BCE54B0783FCD2E3500D296646B856D320AFC34557A4CAEDCC133C449F0380794839A138B47B86DB2345744D7A44594FD0E1B867883594369BFE63BF7EEF793D0B054FC9A8456E548E63CE46FB674D8A58F068C6477CE9F510B582A2C1F80D1182
310
70F349E816B32D65AFB8DD62CCEB42FF274A937A52948C8DEB66893BCB021484D7734370E5D2E9F608A3EF93F3119479ABA0E50B14B8C298119A43CCC4FCFCECB8A18B6388CEE7EF5D5D4F994BD86CBBA182D76543B9FCAE2FD7B24DF103504B0304140006080800B670623B1B8617914E0100003303000030000000666278
310
2F42384135303843342D343331462D343546312D424341352D3532343432364645413344462F636E782E786D6CD593C16EC32010447F0571AD6CE3D489D20813A9877E410FBD62D82434182CC055F3F75D1292E692438FBD206B7698593D61BEFD1E2DF982108D773D6D6B460938E5B571FB9ECE6957AD29D90A1EBC4F7736
310
4A9C1CA1A759A682EF839FA72269D8C9D92654AD71C72206887E0E0A22CAF926B15E498B01E0AA19451807D01A34B919F16B070157417138917400F2F6FA41FCF0092A45DEE414C19BDC21783E4BD39D891265658C3D8DEA00A3ACE59CBC8678ACB54CB26EEB6BD7839D7E9348BE70AD9C8321B9BCA7F9A4A26C542347DEE0
310
50F09802D22BA6749A800A394DD62899107273365E3C82CFC6A55557BC06C10774B7ABE7AEC3B0F34CF06446280E154026D0542C187BA9DAB6628BF7B6DBB0E5A65B3EB1F58631DE64BBE083F7B65CC218087E22CABB042E51D1F2268F1FE12B3EA24D40D63E9CFE00120194D60B9D5BC67FE6D39CDF37E20AF817881F504B
310
0304140006080800B670623BBFEF2E3B690500003C100000340000006662782F42384135303843342D343331462D343546312D424341352D3532343432364645413344462F6F626A656374732E786D6CAD575D739B3814FD2B0CFB0C98D84E931D4227B6938EA793B6534F3BFB90198F0099B001899144EAECAFDF231018B0
310
D37A3FFC609090EEE7B94757C1FB7D915B2F54C88CB31BDB7727B64559CC938CA53776A576CE956DBD0F03C1B9EA2DB32D460A7A63EB693B0C52C1ABD24C257447AA5C8D66EF177F5832A68CDA569C13296F6C193FD182B8A4523CA1F2D94D88226EBADBBBBEDB2C1C8A4D05299F46424B222853B014F30C52ACC6287F389C
310
D85E1878FA7B18E87FB36AFAF62AAFF667A83F635211161F291B8999FAB3D5DDC5FCDA99CF6653677679E13B8BFBC5CAF1DF4D27CBCBE5F2FAF6EE1A8AA51290642C117467871F101B91C581D77CEA2C36869F3229E68CD1B8F61F1ED6361B89092D294B90C78C4A68EB793D190E7D1D9BDEE7A91E1B95FDE9F3BCEAEFE809
310
6A6D6F9F7D4B79F4275C90E7A04248AA51D5C4C738DAE06F72885AC4796EBE65D22A88A22223B995679120E2D50EB1542F098381188D4EA111AE3DB043FF20AF6F2B4AE3D7D83D65E5AECA730D4D3BAC91BD05FEA992B565D95F549CD6069B90AB2A63EACA38A45E4B6A87D781574F86817E4C2FCCC72690D62E2729520E37
310
9BAF234797BAF6D62B3BFC781FED37BA1E4F2B2F052FA9501A3E80569BB8F6A9A364D4FA67654E6F803383981F82F21591FF84F23D9882BC896C3FDBCF8C162508933B2E0AE4C69DD43F6BD2BE38DDDBF10BF86CB4FA784D37F3AF16075E67EC9030DECA1FC0A55373F5DFF3378C591FA9BDF485C10B0A8C8BA909E5262639
310
A8E72163488806A595734C81CB77D1DE0ED7604A303B76913CEC0272F412782FF88EFF4636D8AA56DF7B322474C4B767303F625997056C7B032C473C592B36CEBD15F3F9FF5233B7ABCDC74D257624A60F8658567497B14CE1EC3C80B76FD02011038F9EE9EB0F2E12387A9C844D3F09855125116D1D731DF8B43D2CF4E0A0
310
79A020C6BE946BCE0B7EA1E1219331CD73C228AF5A2DDD31A4B1DA918CE91350854D40A71723140BFA92E94E62B0626016CEFA5864A50E5977E8753CEDBEE1CBB7F52780D20E17AF0BA0F5F9B02A3AD07DCC732EB6D1EBB661421BE0C39E21BABF0FE16D22EA6929407C8DE596724C88B749B6DB5512BC7B228ADFD7CB7EA6
310
3A22397E690BA8D5D8D4E40CEC8CDA23C2C0B7D5898640101CEC9C6D331CE328CB93CAFBBAC70A642DF70DF95155945B52F08AA973C23469FD69ADEF84F7BB18F983A8F8C90E37F5D35980B2139A1C523540813E824EF83448CF7C72B598CE97D7CEEDDDDD3B6736BFBC771677EF66CE6A7E7139F7A793E9EDF2B2B3A8B624
310
0CDA13AA5F8388264EC4A0129909F3B7F5A16CEDF08128E97D680ACA4B9BE7B7B58BB638F0B00700EF36AE8B32A705658A68F83EE897FC2B41573190D1CCAF0B92D233A47CFEB019D9809933F67DD1A5467F8CF69AD9A5AE859342D45355448C64F968A371DC2D596ADC6E43D93D1B466F877A64E2893E54F23C4B40388995
310
525E5005DA3983ED45412510D3EFCA13737B3863F74BD30F2A12E5B4B5E489A025CE25500DB855B11ACE5BBFA185D35DD48D8DC3CE7DC69F2944DB42AA6F6CF09BCA622ADD08C7A36E7C6AE18000BAB08E040135C2D21C9D75B3A91B77BB746C403F38018DFE6EC939DD92F16B40BC05294B9CDA035AAD6D330AE27FE4786B
310
8E45145EA34A75BE1C263A676A35A8ACC6297337400BF16C54EF515F3F77CB77EB3583889C754FFA29081AA98E2222ADEF05DA3E63D2EDEA8B8756C05A7FB6CABC4A91CBF325398202CC952E70A008A830324BA200D5E5EF8F5F04C75DB4B0EE3340E071C98B823333B83577596BF3849B69F2085AA0FAFA212F26BEFF5877
310
FDE622B28D88A42E49E43326DA82D31E8CB006401E1DA726059ECEC168F97A6599036306A135688F9AD2E61A6EA178F4CD51974A9F2CCB9F36FE5EBD14601068D9C3BF01504B0304140006080000B670623B000000000000000000000000350000006662782F42384135303843342D343331462D343546312D424341352D35
310
32343432364645413344462F76657274696365732E62696E504B0304140006080800B670623BF270F1330600000004000000360000006662782F42384135303843342D343331462D343546312D424341352D3532343432364645413344462F747269616E676C65732E62696E636660600000504B0304140006080000B67062
310
3B000000000000000000000000370000006662782F42384135303843342D343331462D343546312D424341352D3532343432364645413344462F617474726962757465732E62696E504B0304140006080800B670623B08DA0BD19000000041010000360000006662782F42384135303843342D343331462D343546312D4243
310
41352D3532343432364645413344462F6469726563746F72792E786D6C858F410AC3201045AF22B36F53E9A60B35CBEEBAE80D244E44489C6234F4F835464A48035D0DF398FF9F8AF63D0E6CC63039F212F8F9020C7D47C6792B21C5FE7403D62A1188E2E60C98D7234A5830286103A55745067B9D86B8A3CF9C7F90C11DE6
310
07FB144396D7B6A82D282E9A152AD114D5EF2CB866EEE831B8EEA07A7BB5A8D7D61A2BAAEB7FD5F70921FF497D00504B0304140006080800B670623B3B4606F3FE000000A00100003B0000006662782F42384135303843342D343331462D343546312D424341352D3532343432364645413344462F7265736F75726365732F
310
636F72652E786D6C8D504B6E833010BD0A9A6D65B08134808CA354A427E8052C332156828DFCA97AFC9A40A576D7CDCCE87D344F8F9FBEE647F689CE6B6B7A6039850C8DB2A336530F315C4903D94970676DF82583CCC8197B5861107C72362E3BA4AC096842428D1D7107A5F71820538F74F4E0D50D6799CB1892C2DFF345
310
AABB9C306779A2934E701F5C0A906D4FD609C2A1B7D129F4BCD858C163D4E3AED163FAA9AF1A1D88F67CA98E6D35906AA82A52BFB39ABCD5CD915C86331BD86BD3B665CD8BD52C78D0F34F46E550061C419494B6843142CB0F5677F4D0D58717DA7494F26295FF31C565FCA7296A13AA728FBBD93C0896823C09C18BB5AFB4
310
9E65A6BD762BBE01504B010214000A0000080000B670623B3DEE336E79000000790000001B00000000000000000000000000000000006175746F6465736B2D64657369676E2D7061636B6167652E786D6C504B01021400140006080800B670623BD486FD9CA0000000F40000001300000000000000000000000000B2000000
310
5B436F6E74656E745F54797065735D2E786D6C504B01021400140006080800B670623B28ED286BEB0000007C010000080000000000000000000000000083010000636F72652E786D6C504B01021400140006080800B670623B55019EA25F0000007C000000070000000000000000000000000094020000636E782E786D6C50
310
4B01021400140006080800B670623B7BC41AC871010000D40300000C00000000000000000000000000180300006662782F636F72652E786D6C504B01021400140006080800B670623B70102A487D0000009D0000000B00000000000000000000000000B30400006662782F636E782E786D6C504B01021400140006080800B6
310
70623B3610CA3329010000120200003100000000000000000000000000590500006662782F42384135303843342D343331462D343546312D424341352D3532343432364645413344462F636F72652E786D6C504B01021400140006080800B670623B1B8617914E010000330300003000000000000000000000000000D10600
310
006662782F42384135303843342D343331462D343546312D424341352D3532343432364645413344462F636E782E786D6C504B01021400140006080800B670623BBFEF2E3B690500003C10000034000000000000000000000000006D0800006662782F42384135303843342D343331462D343546312D424341352D35323434
310
32364645413344462F6F626A656374732E786D6C504B01021400140006080000B670623B0000000000000000000000003500000000000000000000000000280E00006662782F42384135303843342D343331462D343546312D424341352D3532343432364645413344462F76657274696365732E62696E504B010214001400
310
06080800B670623BF270F133060000000400000036000000000000000000000000007B0E00006662782F42384135303843342D343331462D343546312D424341352D3532343432364645413344462F747269616E676C65732E62696E504B01021400140006080000B670623B00000000000000000000000037000000000000
310
00000000000000D50E00006662782F42384135303843342D343331462D343546312D424341352D3532343432364645413344462F617474726962757465732E62696E504B01021400140006080800B670623B08DA0BD1900000004101000036000000000000000000000000002A0F00006662782F42384135303843342D3433
310
31462D343546312D424341352D3532343432364645413344462F6469726563746F72792E786D6C504B01021400140006080800B670623B3B4606F3FE000000A00100003B000000000000000000000000000E1000006662782F42384135303843342D343331462D343546312D424341352D3532343432364645413344462F72
310
65736F75726365732F636F72652E786D6C504B0506000000000E000E0080040000651100000000
  0
XRECORD
  5
187
102
{ACAD_REACTORS
330
186
102
}
330
186
100
AcDbXrecord
280
     1
 70
     1
 90
429727718
  1
887D55A9-D0DD-414E-B741-A7DCD4DA2B4C
310
504B03040A0000080000B670623B3DEE336E79000000790000001B0000006175746F6465736B2D64657369676E2D7061636B6167652E786D6C3C3F786D6C2076657273696F6E3D22312E302220656E636F64696E673D227574662D3822203F3E3C666F726D6174733E3C666F726D61743E687474703A2F2F736368656D612E
310
6175746F6465736B2E636F6D2F64657369676E2D7061636B6167652F323030393C2F666F726D61743E3C2F666F726D6174733E504B0304140006080800B670623BD486FD9CA0000000F4000000130000005B436F6E74656E745F54797065735D2E786D6C7D8EC10E82300C865F65E91D8A1E8C310C0EEA1BF002731658846E
310
D98AC1B77784ABF1D8FE5FBFBF75BBCE937A534CCEB38643598122B6FEE978D0B0485F9C41B54DDD7D022595594E1A469170414C76A4D9A4D207E29CF43ECE46F218070CC6BECC4078ACAA135ACF422C856C0E68EA1BF5669944DDD7BCDE7B1F8E415D77AECB980613C2E4AC91FC167A2B244592486606FC29C8FD7F045B9A
310
EF7053A7E60B504B0304140006080800B670623BBC1638F5EC0000007C01000008000000636F72652E786D6C8D90416EC3201045AF82665B61836BE2D8C24471DB9CA01740401C94182C03558F5F9C3852BBEB6A467FFE9B197D7EF89E6EE8CB2CC17AD7032D0820E394D7D68D3DA478C67B4007C117EFE32F1B202727D3C3
310
2A83E0E3E2D3BC49CABB685CCCAAF3DA6CA20CC14440EA969B1E82BA98491632C5EC08D76296EA2A4753D06797E194AC468F2356E77DF66CCD02825543D50CACC62D39ED70FDC68EB8FD68F6F8787A6784342D1DDA1D2F5758F068A7E77DB518198D065111D2624A31A93E69DD11D6D5EC85EC3B4278B9DAFF4069D6FF8492
310
75F1B5DADE7D600104CD8FDC0782976B16B9DC83CA75CD4DFC00504B0304140006080800B670623B55019EA25F0000007C00000007000000636E782E786D6C4DCB3B0E80201045D1AD90E915ED2CF8AC45050C11660C8261F98AB1B07AC9C97D42D718D865D3E909258CFD00CCE24AC6E326A164D74DC0B4128928FF326038
310
472BA13128B1252AC747C6BAB984FC68F0B87FE8960A5C09FE86CFB69FBA01504B0304140006080800B670623B3586FFB671010000D40300000C0000006662782F636F72652E786D6CC553ED6E8320147D15C2DF4541A76D6D90A6DDD627D80B50A4CE54C120983EFEAE1F4DD7A55BBA5FF3879273EEE59E7310B6393735EA
310
95ED2AA3731C851423A5A5292A5DE6D8BB63B0C268C39935C67D29C3488B46E578803167A535BE9D2169B453DA01AA4DA16650749D7218C91A1639EEE4876A4428BC838AEE14B6429E44A9C228041AEA38EB9C0501681A32BC313F1ECE8C4C3867DE57C5CC56054CAB8E95B298A7F12E5EEED224C8E87E11242FE936C8DE96
310
AB60BB7F4D295D66D12E5B30323473E6AAE6A24E5A259C2A308F29CD82280A68FC1E256B9AAE93F489AED694323294DF34F9B678B0C957DA3DC7B3DCA9ADC33C022123F1CD2D44E450277AD04338234388F01913BE0D1A0281909D38D4171F27807A259DB1093085F157AA17B557309586747CD0CF0B46A64E983A6E0EAEEF
310
CE881F9EF1FB8E70D44297604238581EBC1B74B249C31C5AAB6CD0BB33D2C636A27ECCC62F0EFF445DC5DF95244D6DEC7F2922F30191F9F720C37DE49F504B0304140006080800B670623B4220A0FF7D0000009D0000000B0000006662782F636E782E786D6C4DCCD10A83201886E15B91FFDCE542CB0335D0EC3E6259C84A
310
C3E9D8E5AF46073BFAE0E1E315DD675BD1DBA5978F41C2FD4600B9F088930F8B849267CC01754AA418F3DF0D50183727E164506249B1EC174D6E1ECB9A0F5D7D785E68DB8151CD286E5A5363CA6B8A39E90D36D40E96B086F55A43A544F52B1D7B86D517504B0304140006080800B670623B2FA3FEDE290100001202000031
310
0000006662782F45374635344235342D363743322D343832342D383044432D4334454645303536354442422F636F72652E786D6C8D515B6EC32010BC0AE22B55850D2E386E848994D7097A0117488A1283C5A3CAF10BB523B57FF961D1ECCCECC0F2ED7DBC816FED8371B687A4C210682B9D32F6D2C314CFA883602BB8772E
310
FEA141608751F7B0C050F08B77695A20E96CD43666D43AA5177008414708E42D5F7A18E4971E876A483133C2B59A06791D2EBA22556E679EE021FA1C00CC43CA09C5717D6274C7286AD7FB06D1AEA1A8C3873DDAD3E3E98859CB0EBB1DAF67A1E02919B5C88DCA71CCD968FFAC49110B1ECDF8882FBD1EA256503418BF2342
310
106E3E08DD60B6A1EC15771B8C795DE8FF4469524F8A92B1F1AD59E2CEB20005E1F5DC105CB9F4797B84D1F7C9F908CABC55D0F2050A5C61CC1AD2F27A26E6E767C7962E8E213A9FBF7775FDCC5CC266DB960A5E970DE5F2BBBE5CCB36C50F504B0304140006080800B670623B1B8617914E01000033030000300000006662
310
782F45374635344235342D363743322D343832342D383044432D4334454645303536354442422F636E782E786D6CD593C16EC32010447F0571AD6CE3D489D20813A9877E410FBD62D82434182CC055F3F75D1292E692438FBD206B7698593D61BEFD1E2DF982108D773D6D6B460938E5B571FB9ECE6957AD29D90A1EBC4F77
310
364A9C1CA1A759A682EF839FA72269D8C9D92654AD71C72206887E0E0A22CAF926B15E498B01E0AA19451807D01A34B919F16B070157417138917400F2F6FA41FCF0092A45DEE414C19BDC21783E4BD39D891265658C3D8DEA00A3ACE59CBC8678ACB54CB26EEB6BD7839D7E9348BE70AD9C8321B9BCA7F9A4A26C542347DE
310
E050F09802D22BA6749A800A394DD62899107273365E3C82CFC6A55557BC06C10774B7ABE7AEC3B0F34CF06446280E154026D0542C187BA9DAB6628BF7B6DBB0E5A65B3EB1F58631DE64BBE083F7B65CC218087E22CABB042E51D1F2268F1FE12B3EA24D40D63E9CFE00120194D60B9D5BC67FE6D39CDF37E20AF817881F50
310
4B0304140006080800B670623B29652116630500003C100000340000006662782F45374635344235342D363743322D343832342D383044432D4334454645303536354442422F6F626A656374732E786D6CAD575D739B3814FD2B0CFB0C989834C90EA1639B24E3E9A6EDD4D3CE3E64C623834CD8006224913AFDF57B040203
310
B65BEF871F0C12D2FD3CF7E8CA7FBFCB33E3957291B2E2D674ED8969D02262715A24B76625B7D6B569BC0F7CCE98EC2D338D82E4F4D654D366E0279C55A59E8AE99654991CCDDECFFF3444440B6A1A514684B83545F44C7362934AB2988A173B2692D8C97667BB76B3702836E1A47C1E092D09A78584A5982F20C5688C7287
310
C389E904BEA3BE07BEFAD7ABA6A75739B53F43FD69212429A20365233153D70BEF2E2E6FAC4BCF9B5ADEBB0BD79ADFCF43CBBD9A4E16EF168B9BD9DD0D140BC921495BC2E9D60C1E101B9E46BED37CEA2CD6861F3329624541A3DA7F7858DBAC25C6B4A4458C3CA654405BCFEBC970E8AAD8F43E4FD558ABEC4F9FE7557F47
310
4F506B7BFBEC5BCA367FC105710E2AB8A00A554D7CB4A30DFE26FBA86D18CBF4B75418399194A72433B274C3097F33032C554B027F2046A1932B842B0FCCC0DDCBEBDB8AD2F835768F59B9ADB24C41D30C6A64AF817F2A456D59FA83F2E3DA60137255A585BCD60EC9B7929AC18DEFD49381AF1ED30BFDB109A4B1CD488294
310
C3CDE6EBC8D185AABD6568061FEE37BB95AAC7E3CA4BCE4ACAA5820FA0D526AE7DAA2869B5EE5999531BE0CC20E6FBA07C41E43FA27CF7A6206F3CDD793B4F6B919C1462CB788EDCD893FA674CDA17AB7B3B7C019F8D561FAEE966FED562DFE98C1D12C6A9FC015C2A35D7FF3D7FC398F591DA4B5FE0BFA2C0189FEA50AE22
310
92817A1ED3020951A03432862970F976B33383259812CC8E5D240BBA801CBCF8CE2BBEE3BF910DB6AAD5F79E05123AE2DB33981FB1ACCB02B69D00CB014FD68AB573A7627EF9BFD4CC2C5C7D58557C4B22FAA88925A4DBB44825CECE3D78FB060D1231F0E885BE7D673C86A3874958F593906B5502D1563157814FDAC3420D
310
F69A070A22EC4B98E23CFF171A1E5311D12C23056555ABA53B8614563B92D17D02AAB009E8F46284624E5F53D5490C560CCCC2591FF1B45421EB0EBD8EA7ED13BE7C5D7E0428CD60FEF60779EB13E6664FF711CB185F6FDED60D139A001FF60CD1FD6D086F1D51474901E26B2CB794A343BC8ED3EDB612E0DD2351FCB65CF4
310
33D511C9E14B5B40ADC6A6263DB0336A8F700DDF56271A024E70B0B3629DE21847591E55DED73D56206AB927E46FAABC5C939C55853C274C93D69FD6FA4E78BF8B11DF898C9ECD60553FAD39283BA6F18984AA23E8884F83F45C5F5F859797B31B2B9C84A1E5B9DE9D35BFF25C6B76152E422F9C5DCC3D847F5801ED09D5AF
310
41441327A25FF15487F9EB725FB666F048A4701E9A827292E6F97569A32DF61DEC01C0BB8DCBBCCC684E0B49147C1FD54BF685A0AB18C868E6973949E819523E3DAC463660E68C7D9F55A9D1EFA3BD7A76A16AE1A810F95CE59B82A4D968A376DC2E8B44BBDD86B27B368CDE0ED548C7137DA860591A83706223A12CA712B4
310
7306DBF39C0A20A6DF95C7FAF670C6EED7A61F946493D1D6926782963813403548A78AE470DEF80D2D9CEAA26E4D1C76F60BFE74219A06527D6B82DF641A51616F703CAAC6A7160E08A00BEB4810A0274592A1B36E3675E36E978A0DE80727A0D6DF2D39A75BD27E0D8837276589537B40ABB56D5A41F48F1C6FCD3188C4EB
310
A6929D2FFB89CE995A4D00AE813BDD032DC48B56BD437DFDDC2DD7AED70C2272D63DE9A72068A45A92F0A4BE17A8A06B9366E16707AD80B1FC649459952097E74BB23805982B55E0401150A165964402AA8BDF9F3E7386BB686EDCA780C0D382E5392BF460A6EFB2C6EA1937D3F809B440D5F5435C4C5CF7A9EEFAF54564BD
310
2182DA24162F98680B4E7930C21A0079709CEAEB99A372305ABE0C0D7D6078105A83F6A0296DAEE1068A47DD1C55A9F4C9B2FC69E3EFD44B81028E963DF81B504B0304140006080000B670623B000000000000000000000000350000006662782F45374635344235342D363743322D343832342D383044432D433445464530
310
3536354442422F76657274696365732E62696E504B0304140006080800B670623BF270F1330600000004000000360000006662782F45374635344235342D363743322D343832342D383044432D4334454645303536354442422F747269616E676C65732E62696E636660600000504B0304140006080000B670623B00000000
310
0000000000000000370000006662782F45374635344235342D363743322D343832342D383044432D4334454645303536354442422F617474726962757465732E62696E504B0304140006080800B670623B08DA0BD19000000041010000360000006662782F45374635344235342D363743322D343832342D383044432D4334
310
454645303536354442422F6469726563746F72792E786D6C858F410AC3201045AF22B36F53E9A60B35CBEEBAE80D244E44489C6234F4F835464A48035D0DF398FF9F8AF63D0E6CC63039F212F8F9020C7D47C6792B21C5FE7403D62A1188E2E60C98D7234A5830286103A55745067B9D86B8A3CF9C7F90C11DE607FB144396
310
D7B6A82D282E9A152AD114D5EF2CB866EEE831B8EEA07A7BB5A8D7D61A2BAAEB7FD5F70921FF497D00504B0304140006080800B670623B6378F24DFF000000A00100003B0000006662782F45374635344235342D363743322D343832342D383044432D4334454645303536354442422F7265736F75726365732F636F72652E
310
786D6C8D504B6E833010BD0A9A6D65B0094E42641C85B639412F6099496225D8C89FAAC7AF09546A77DDCC8CDE47F3F4C4F16B7C149FE88371B603565228D06A37187BED20C50BD9437194C23B177FC9A0B06AC40E6618A4B87A97A615D2CE46B431A3D60DB8822A048C50E8473E3A08FA86A32A558A5911EEE5A4F45D5DB1
310
6465A6B34E8A107D0E502C4FE609D26370C96B0CA25A58295232C3AA3143FE692E063D485EF7F5AEE71BD2D2F39634AFFC44DAF7DD9E9CCE6F9CD25DCBFA762BAAD92C4534E34F46ED51451C40D694B6843142EB0FD61C283F34FC85EE0F948A6A96FF31A569F8A729191B37F51A77B105902C0779125254735F793DCBCC7B
310
EE567E03504B010214000A0000080000B670623B3DEE336E79000000790000001B00000000000000000000000000000000006175746F6465736B2D64657369676E2D7061636B6167652E786D6C504B01021400140006080800B670623BD486FD9CA0000000F40000001300000000000000000000000000B20000005B436F6E
310
74656E745F54797065735D2E786D6C504B01021400140006080800B670623BBC1638F5EC0000007C010000080000000000000000000000000083010000636F72652E786D6C504B01021400140006080800B670623B55019EA25F0000007C000000070000000000000000000000000095020000636E782E786D6C504B010214
310
00140006080800B670623B3586FFB671010000D40300000C00000000000000000000000000190300006662782F636F72652E786D6C504B01021400140006080800B670623B4220A0FF7D0000009D0000000B00000000000000000000000000B40400006662782F636E782E786D6C504B01021400140006080800B670623B2F
310
A3FEDE290100001202000031000000000000000000000000005A0500006662782F45374635344235342D363743322D343832342D383044432D4334454645303536354442422F636F72652E786D6C504B01021400140006080800B670623B1B8617914E010000330300003000000000000000000000000000D2060000666278
310
2F45374635344235342D363743322D343832342D383044432D4334454645303536354442422F636E782E786D6C504B01021400140006080800B670623B29652116630500003C10000034000000000000000000000000006E0800006662782F45374635344235342D363743322D343832342D383044432D4334454645303536
310
354442422F6F626A656374732E786D6C504B01021400140006080000B670623B0000000000000000000000003500000000000000000000000000230E00006662782F45374635344235342D363743322D343832342D383044432D4334454645303536354442422F76657274696365732E62696E504B01021400140006080800
310
B670623BF270F13306000000040000003600000000000000000000000000760E00006662782F45374635344235342D363743322D343832342D383044432D4334454645303536354442422F747269616E676C65732E62696E504B01021400140006080000B670623B0000000000000000000000003700000000000000000000
310
000000D00E00006662782F45374635344235342D363743322D343832342D383044432D4334454645303536354442422F617474726962757465732E62696E504B01021400140006080800B670623B08DA0BD190000000410100003600000000000000000000000000250F00006662782F45374635344235342D363743322D34
310
3832342D383044432D4334454645303536354442422F6469726563746F72792E786D6C504B01021400140006080800B670623B6378F24DFF000000A00100003B00000000000000000000000000091000006662782F45374635344235342D363743322D343832342D383044432D4334454645303536354442422F7265736F75
310
726365732F636F72652E786D6C504B0506000000000E000E0080040000611100000000
  0
XRECORD
  5
112
102
{ACAD_REACTORS
330
110
102
}
330
110
100
AcDbXrecord
280
     1
270
     1
271
     1
  0
XRECORD
  5
111
102
{ACAD_REACTORS
330
110
102
}
330
110
100
AcDbXrecord
280
     1
270
     1
271
     1
  0
XRECORD
  5
18A
102
{ACAD_REACTORS
330
110
102
}
330
110
100
AcDbXrecord
280
     1
 70
     0
 90
1778669749
  1
9BF507EE-FAF7-4A99-A33D-4EE51894BC40
310
504B03040A0000080000B670623B3DEE336E79000000790000001B0000006175746F6465736B2D64657369676E2D7061636B6167652E786D6C3C3F786D6C2076657273696F6E3D22312E302220656E636F64696E673D227574662D3822203F3E3C666F726D6174733E3C666F726D61743E687474703A2F2F736368656D612E
310
6175746F6465736B2E636F6D2F64657369676E2D7061636B6167652F323030393C2F666F726D61743E3C2F666F726D6174733E504B0304140006080800B670623BD486FD9CA0000000F4000000130000005B436F6E74656E745F54797065735D2E786D6C7D8EC10E82300C865F65E91D8A1E8C310C0EEA1BF002731658846E
310
D98AC1B77784ABF1D8FE5FBFBF75BBCE937A534CCEB38643598122B6FEE978D0B0485F9C41B54DDD7D022595594E1A469170414C76A4D9A4D207E29CF43ECE46F218070CC6BECC4078ACAA135ACF422C856C0E68EA1BF5669944DDD7BCDE7B1F8E415D77AECB980613C2E4AC91FC167A2B244592486606FC29C8FD7F045B9A
310
EF7053A7E60B504B0304140006080800B670623BCA089DFFEC0000007C01000008000000636F72652E786D6C8D90416E83301045AF62CDB632D8402020E32882F604BD80653BC44AB011B6AB1EBF262152BBEB6A467FFE9B197D76FA9EEFE84BAFDE38DB03CD08206DA553C64E3DC470C1474027CE56E7C22F1B202B66DDC3
310
260367D3EAE2B24BD2D9A06D48AA754AEFA2F05E0740F29E9A1EBCBCEA59642286E4F0B76C11F226269DD15797E0188D42CF2346A57DE662F40ABCAEC77628C6120F654571D50C04B7F5B9C1E3997CD4F550BE3745C3F20DE62C98F9755FAE5A04AD801784B498524C8A4F5A75E4D055873772EC0861F966FF03C545FD138A
310
C686B2D8DF7D621E384D8F3C069CE55B16A93C824A75CB8DFF00504B0304140006080800B670623B55019EA25F0000007C00000007000000636E782E786D6C4DCB3B0E80201045D1AD90E915ED2CF8AC45050C11660C8261F98AB1B07AC9C97D42D718D865D3E909258CFD00CCE24AC6E326A164D74DC0B4128928FF326038
310
472BA13128B1252AC747C6BAB984FC68F0B87FE8960A5C09FE86CFB69FBA01504B0304140006080800B670623B68FC0B7272010000D40300000C0000006662782F636F72652E786D6CC5535B6E833010BC8AE5DF0A6C1E8124328E22D29EA01770C0A128602363A31CBFCB234A53A555FA553EC09AD9F5CE8C31DB5DDA060D
310
D2F4B556190E7C8A9154852E6B5565D8D993B7C668C799D1DA7E29C3488956667884316795D1AE5BA0422B2B950554E9522EA0E87B69312A1A5864B82F3E642B7CE12C54F467BF13C55954D20F7CA0A18EB3DE1A1080E621E31BF3D3F1C2C88C73E65C5D2E6C5DC2B4FA544B8379921C36797888BC3C8A032F4E73EA6D927D
310
EA1DF6F42D49F2E8350D5346C666CE6CDD5ED515460A2B4BCC434A375E1078347C0FE22D5D6DE3D50B5D6F2965642CBF6B725DF96493AB958DC245EEDCD6631E809089F8E61622B2A81703E8219C913144F84C09DF070D8140C8561C9BAB8F3340832CAC363130A576376A108D933095FA747AD0CF0B46E64E983A6D0EAE1F
310
CE089F9EF1FB8E70D44255604258581E9D1D75B259C3125A278D37D80B52DAB4A279CEC62F0EFF44DDC43F9454E8469BFF5244960322CBEF41C6FBC83F01504B0304140006080800B670623B0F71DDB67E0000009D0000000B0000006662782F636E782E786D6C4DCCD10A83201886E15B91FFDCA54DB73F502386BB8F5816
310
32D3703976F9ABD1C18E3E78F87855FB990379BBFCF2296AE02706C4C5471A7C9C349475A408A4352AA7B4FEDD80C47E761A7606A3A69CCA72D0E0C6BE8475D3E0E3F3409428EA6B27A84079A782899AA2EC1A7AE3ECCC2FD858CB2D544655BFD2B67BD87C01504B0304140006080800B670623BE134B4FB28010000120200
310
00310000006662782F38353834323741342D343835462D343034322D383541392D4331303331363839454531452F636F72652E786D6C8D515B6EC32010BC0AE22B55850D0EA424C24451959EA0172086A42831583CAA1CBF503B52FB971F16CDCECC0EACD8DFC71BF836215AEF7A481A0C817183D7D65D7A98D3197108F652
310
04EFD31F1A044E8DA6871586525C82CFD3020DDE25E352419DD76601558C264130DCCAA58771F832A36A544E8511AFCDA486ABBA988634A55D7852C4144A00300FA927949C71DABD1D28A29C7D208A6987383B6CD13BC16BB2E1DBE3911C453B0BA5C8D9EA456E758963CFD684674DAA588A64C747FC2118958C86B2C3788B
310
0841B8FB247487D98EB257CC77188BB6D2FF89F2A49F1465EBD2BA5BE2CEB2082511EDDC9042FB7CBA3DC298FBE4430275DE2A9AE1054ADC60CC08E3A29D89E5F9C5714317C7987C28DFBBBA9E0A97B0D97643A568EB864AF95D5FA9759BF207504B0304140006080800B670623B1B8617914E010000330300003000000066
310
62782F38353834323741342D343835462D343034322D383541392D4331303331363839454531452F636E782E786D6CD593C16EC32010447F0571AD6CE3D489D20813A9877E410FBD62D82434182CC055F3F75D1292E692438FBD206B7698593D61BEFD1E2DF982108D773D6D6B460938E5B571FB9ECE6957AD29D90A1EBC4F
310
77364A9C1CA1A759A682EF839FA72269D8C9D92654AD71C72206887E0E0A22CAF926B15E498B01E0AA19451807D01A34B919F16B070157417138917400F2F6FA41FCF0092A45DEE414C19BDC21783E4BD39D891265658C3D8DEA00A3ACE59CBC8678ACB54CB26EEB6BD7839D7E9348BE70AD9C8321B9BCA7F9A4A26C542347
310
DEE050F09802D22BA6749A800A394DD62899107273365E3C82CFC6A55557BC06C10774B7ABE7AEC3B0F34CF06446280E154026D0542C187BA9DAB6628BF7B6DBB0E5A65B3EB1F58631DE64BBE083F7B65CC218087E22CABB042E51D1F2268F1FE12B3EA24D40D63E9CFE00120194D60B9D5BC67FE6D39CDF37E20AF817881F
310
504B0304140006080800B670623B5933D422630500003B100000340000006662782F38353834323741342D343835462D343034322D383541392D4331303331363839454531452F6F626A656374732E786D6CAD575B6FA33814FE2B887D0642934E9B156594264D158D3A534DD4D13E548A0C38942D60649B4EBABF7E3F8321
310
40924EF6928780CDF1B97EE762EFF32E4B8D37CA45C2F21BD3B547A641F39045491EDF98A5DC5AD7A6F1D9F73863B243661A39C9E88DA9B64DDF8B392B0BBD15D12D295339D85DDEFE618890E6D434C2940871638AF08566C426A5641115AF764424B1E3EDCE76ED9AB0CF36E6A47819302D08A7B984A6D8CFC1C5A89572FB
310
CB91E9F89EA3BEFB9EFAD754E3D3544E654F5F7E920B49F2F040D880CDD89D2CEE2E2EA7D6E56432B6269F2E5CEB7679BBB0DCABF168FE693E9FCEEEA6102C240727AD09A75BD3BF876F78127A4EFDA9D5582B7E4CA590E5390D2BFB6161A5B3E618D182E611E2985001691DAB47FDA5AB7CD3F93C566B2DB2BB7D9E55DD13
310
1D468DEECDB3AB290BFE8409E21C54704115AA6AFF68436BFC8DF65E0B184BF5B74418199194272435D224E084BF9B3E481589EFF5D828747285706581E9BB7B7E5D5D911ABFC6EE312DB7659A2A689A7E85EC0DF04FA5A8344BFEA2FCB834E8845895492EAFB541F2BDA0A63FF59C6AD3F7D4637CA13FD68E34B629891172
310
98597F1D183A57B9B75A98FE9765B05BAB7C3C2EBCE0ACA05C2AF8005A4DE09AA7F29216EB9E15397500C6F47CBE77CA7778FE2BD277AF0AE2C693DD6437D1522427B9D8329E2136F6A8FA19A3E6C56ADF0E5F50CF06D48734EDCEBF22F69C56D97EC138153F804B85E6FABFC7AFEFB32E523BE1F3BD372418E363EDCA7548
310
52949E8724474014288D94610BB57C1BEC4C7F854A89CA8E5324F55B871CBC78CE1BBEE3BFE68D6A5589EF3C730474506FCFA8FCF0659516D0ED04580EEA6425581B77CAE797FF4BCECC16EB2FEB926F49481F746159D06D922712BD730FDEAE42BD40F42C7AA5EF3F198F60E86110D6DD20645A9480B795CF95E3E3A659A8
310
C55E724F408873315335CFFB8584874484344D494E59D94869DB90C26A5B64F49C802CAC1D3ABE18A098D3B7444D123D8A9E5AE8F5214F0AE5B2B6E9B575DA3E61CBD3EA2B4009FA940524DD1305FB6A1FB294F14DF0BEA90BA109ECE1481FDC3FFAE8D60E75141700BE82725371B4873751B2DD960265F788137FACE6DD40
310
B575E4F0A5C99F46629D92131467A41EE11ABD8D4CCC039CA0AFB37C93A08B232B8F0AEFCA1E0A1015DF13FC83322B362463652ECF71D3A8B1A7D1BE65DE1D62C44F22C317D35F574FEB16153BA2D13E543D10A80E74C4A65E78A6B7CBCBD1D5DD9DB59C2DAFACC96C3AB566E3F1C29ADCDD5DBAD7D3C9ED7C822ED74F80A6
310
41755310DE4443F44A9E68373FADF6596BFA0F440AE7BECE2727AE9F4F2B1B53B1E7E00CF0DD1E5C65454A339A4BA2D0FBA05ED2EF0443458F47BDBFCA484CCFE0F2ED7E3DD0013B679C7B5499467F0ECEEADDB9CA85A34CE44B99053949D2C1416DB85DE4B136BB7165FBAC0B7AB3542BED4F8CA182A549847A1319316519
310
95A83A67147B9E5101C47487F2485F1ECE38FD568F839204296D3479219888530154036E6528FBFBC66F98E0D4107563A2D7D9AFF8D389681A08F58D89F22693900A3B407754734FC51C10C010D6D640809EE4718AC1BA3ED4AEDB53CA37283F68805A7E4B72CEB0A4EDEAD5DD8C14059A76AFAA56BA6901E13F32BC51C720
310
12AF41295B5BF61BAD3195181FB506E6B40F4C10AF5AF40EF9F5B159AE5DD1F43C72D635E94310D45C2D49785C5D0B94D3B54AB3C5A38349C0587D338AB48C11CBF339599C02CCA54A70A008A8D03C0B2201D5F9EFCF8F9CE12A9A19CB0410789EB32C63B95ECCF455D658BFE0621A3DA32C5075FB101723D77DAE867E7D0F
310
D90444509B44E2151B4DC2290B065803200FBAA9BE9D392A0603F2D5C2D00D6302A615680F66D2FA166E2079D4C551A54AB758161FCEFD4E450A14704CECFEDF504B0304140006080000B670623B000000000000000000000000350000006662782F38353834323741342D343835462D343034322D383541392D4331303331
310
363839454531452F76657274696365732E62696E504B0304140006080800B670623BF270F1330600000004000000360000006662782F38353834323741342D343835462D343034322D383541392D4331303331363839454531452F747269616E676C65732E62696E636660600000504B0304140006080000B670623B000000
310
000000000000000000370000006662782F38353834323741342D343835462D343034322D383541392D4331303331363839454531452F617474726962757465732E62696E504B0304140006080800B670623B08DA0BD19000000041010000360000006662782F38353834323741342D343835462D343034322D383541392D43
310
31303331363839454531452F6469726563746F72792E786D6C858F410AC3201045AF22B36F53E9A60B35CBEEBAE80D244E44489C6234F4F835464A48035D0DF398FF9F8AF63D0E6CC63039F212F8F9020C7D47C6792B21C5FE7403D62A1188E2E60C98D7234A5830286103A55745067B9D86B8A3CF9C7F90C11DE607FB1443
310
96D7B6A82D282E9A152AD114D5EF2CB866EEE831B8EEA07A7BB5A8D7D61A2BAAEB7FD5F70921FF497D00504B0304140006080800B670623BD9A3B367FE000000A00100003B0000006662782F38353834323741342D343835462D343034322D383541392D4331303331363839454531452F7265736F75726365732F636F7265
310
2E786D6C8D504B6E833010BD0A9A6D65B01D0201194711694FD00B586642AD043BF2A7EAF16B122AB5BB6E6646EFA3797AE2F8B5DC8A4FF4C1383B002B291468B59B8C9D0748F1420E501CA5F0CEC55F3228AC5A708015062966EFD27D83B4B3116DCCA875136EA00A012314FA968F0182FEC045952AC5AC08D7F2AEF455CD
310
58B232D3592745883E07289E4FD609D26370C96B0CA27AB252A464A64D63A6FCD35C0C7A904D73EE467EE664DCD58CD4ED4849D79C5A723ED1B7A61977AF2D6F45B59AA58866F9C9A83DAA8813484E6947182394BFB3BAA7FBBEDEBFD0434FA9A856F91F53BA4FFF342563E38E6F719FB60092E5200F428A6AED2BAF479979
310
AFDDCA6F504B010214000A0000080000B670623B3DEE336E79000000790000001B00000000000000000000000000000000006175746F6465736B2D64657369676E2D7061636B6167652E786D6C504B01021400140006080800B670623BD486FD9CA0000000F40000001300000000000000000000000000B20000005B436F6E
310
74656E745F54797065735D2E786D6C504B01021400140006080800B670623BCA089DFFEC0000007C010000080000000000000000000000000083010000636F72652E786D6C504B01021400140006080800B670623B55019EA25F0000007C000000070000000000000000000000000095020000636E782E786D6C504B010214
310
00140006080800B670623B68FC0B7272010000D40300000C00000000000000000000000000190300006662782F636F72652E786D6C504B01021400140006080800B670623B0F71DDB67E0000009D0000000B00000000000000000000000000B50400006662782F636E782E786D6C504B01021400140006080800B670623BE1
310
34B4FB280100001202000031000000000000000000000000005C0500006662782F38353834323741342D343835462D343034322D383541392D4331303331363839454531452F636F72652E786D6C504B01021400140006080800B670623B1B8617914E010000330300003000000000000000000000000000D3060000666278
310
2F38353834323741342D343835462D343034322D383541392D4331303331363839454531452F636E782E786D6C504B01021400140006080800B670623B5933D422630500003B10000034000000000000000000000000006F0800006662782F38353834323741342D343835462D343034322D383541392D4331303331363839
310
454531452F6F626A656374732E786D6C504B01021400140006080000B670623B0000000000000000000000003500000000000000000000000000240E00006662782F38353834323741342D343835462D343034322D383541392D4331303331363839454531452F76657274696365732E62696E504B01021400140006080800
310
B670623BF270F13306000000040000003600000000000000000000000000770E00006662782F38353834323741342D343835462D343034322D383541392D4331303331363839454531452F747269616E676C65732E62696E504B01021400140006080000B670623B0000000000000000000000003700000000000000000000
310
000000D10E00006662782F38353834323741342D343835462D343034322D383541392D4331303331363839454531452F617474726962757465732E62696E504B01021400140006080800B670623B08DA0BD190000000410100003600000000000000000000000000260F00006662782F38353834323741342D343835462D34
310
3034322D383541392D4331303331363839454531452F6469726563746F72792E786D6C504B01021400140006080800B670623BD9A3B367FE000000A00100003B000000000000000000000000000A1000006662782F38353834323741342D343835462D343034322D383541392D4331303331363839454531452F7265736F75
310
726365732F636F72652E786D6C504B0506000000000E000E0080040000611100000000
  0
XRECORD
  5
113
102
{ACAD_REACTORS
330
110
102
}
330
110
100
AcDbXrecord
280
     1
270
     1
271
     1
  0
XRECORD
  5
114
102
{ACAD_REACTORS
330
110
102
}
330
110
100
AcDbXrecord
280
     1
270
     1
271
     1
  0
CELLSTYLEMAP
  5
530EC
102
{ACAD_REACTORS
330
104
102
}
330
104
100
AcDbCellStyleMap
 90
        3
300
CELLSTYLE
  1
TABLEFORMAT_BEGIN
 90
        5
170
     1
 91
        0
 92
    32768
 62
   257
 93
        1
300
CONTENTFORMAT
  1
CONTENTFORMAT_BEGIN
 90
        0
 91
        0
 92
      512
 93
        0
300

 40
0.0
140
1.0
 94
        5
 62
     0
340
11
144
0.25
309
CONTENTFORMAT_END
171
     1
301
MARGIN
  1
CELLMARGIN_BEGIN
 40
0.06
 40
0.06
 40
0.06
 40
0.06
 40
0.18
 40
0.18
309
CELLMARGIN_END
 94
        6
 95
        1
302
GRIDFORMAT
  1
GRIDFORMAT_BEGIN
 90
        0
 91
        1
 62
     0
 92
       -2
340
0
 93
        0
 40
0.045
309
GRIDFORMAT_END
 95
        2
302
GRIDFORMAT
  1
GRIDFORMAT_BEGIN
 90
        0
 91
        1
 62
     0
 92
       -2
340
0
 93
        0
 40
0.045
309
GRIDFORMAT_END
 95
        4
302
GRIDFORMAT
  1
GRIDFORMAT_BEGIN
 90
        0
 91
        1
 62
     0
 92
       -2
340
0
 93
        0
 40
0.045
309
GRIDFORMAT_END
 95
        8
302
GRIDFORMAT
  1
GRIDFORMAT_BEGIN
 90
        0
 91
        1
 62
     0
 92
       -2
340
0
 93
        0
 40
0.045
309
GRIDFORMAT_END
 95
       16
302
GRIDFORMAT
  1
GRIDFORMAT_BEGIN
 90
        0
 91
        1
 62
     0
 92
       -2
340
0
 93
        0
 40
0.045
309
GRIDFORMAT_END
 95
       32
302
GRIDFORMAT
  1
GRIDFORMAT_BEGIN
 90
        0
 91
        1
 62
     0
 92
       -2
340
0
 93
        0
 40
0.045
309
GRIDFORMAT_END
309
TABLEFORMAT_END
  1
CELLSTYLE_BEGIN
 90
        1
 91
        1
300
_TITLE
309
CELLSTYLE_END
300
CELLSTYLE
  1
TABLEFORMAT_BEGIN
 90
        5
170
     1
 91
        0
 92
        0
 62
   257
 93
        1
300
CONTENTFORMAT
  1
CONTENTFORMAT_BEGIN
 90
        0
 91
        0
 92
      512
 93
        0
300

 40
0.0
140
1.0
 94
        5
 62
     0
340
11
144
0.18
309
CONTENTFORMAT_END
171
     1
301
MARGIN
  1
CELLMARGIN_BEGIN
 40
0.06
 40
0.06
 40
0.06
 40
0.06
 40
0.18
 40
0.18
309
CELLMARGIN_END
 94
        6
 95
        1
302
GRIDFORMAT
  1
GRIDFORMAT_BEGIN
 90
        0
 91
        1
 62
     0
 92
       -2
340
0
 93
        0
 40
0.045
309
GRIDFORMAT_END
 95
        2
302
GRIDFORMAT
  1
GRIDFORMAT_BEGIN
 90
        0
 91
        1
 62
     0
 92
       -2
340
0
 93
        0
 40
0.045
309
GRIDFORMAT_END
 95
        4
302
GRIDFORMAT
  1
GRIDFORMAT_BEGIN
 90
        0
 91
        1
 62
     0
 92
       -2
340
0
 93
        0
 40
0.045
309
GRIDFORMAT_END
 95
        8
302
GRIDFORMAT
  1
GRIDFORMAT_BEGIN
 90
        0
 91
        1
 62
     0
 92
       -2
340
0
 93
        0
 40
0.045
309
GRIDFORMAT_END
 95
       16
302
GRIDFORMAT
  1
GRIDFORMAT_BEGIN
 90
        0
 91
        1
 62
     0
 92
       -2
340
0
 93
        0
 40
0.045
309
GRIDFORMAT_END
 95
       32
302
GRIDFORMAT
  1
GRIDFORMAT_BEGIN
 90
        0
 91
        1
 62
     0
 92
       -2
340
0
 93
        0
 40
0.045
309
GRIDFORMAT_END
309
TABLEFORMAT_END
  1
CELLSTYLE_BEGIN
 90
        2
 91
        1
300
_HEADER
309
CELLSTYLE_END
300
CELLSTYLE
  1
TABLEFORMAT_BEGIN
 90
        5
170
     1
 91
        0
 92
        0
 62
   257
 93
        1
300
CONTENTFORMAT
  1
CONTENTFORMAT_BEGIN
 90
        0
 91
        0
 92
      512
 93
        0
300

 40
0.0
140
1.0
 94
        2
 62
     0
340
11
144
0.18
309
CONTENTFORMAT_END
171
     1
301
MARGIN
  1
CELLMARGIN_BEGIN
 40
0.06
 40
0.06
 40
0.06
 40
0.06
 40
0.18
 40
0.18
309
CELLMARGIN_END
 94
        6
 95
        1
302
GRIDFORMAT
  1
GRIDFORMAT_BEGIN
 90
        0
 91
        1
 62
     0
 92
       -2
340
0
 93
        0
 40
0.045
309
GRIDFORMAT_END
 95
        2
302
GRIDFORMAT
  1
GRIDFORMAT_BEGIN
 90
        0
 91
        1
 62
     0
 92
       -2
340
0
 93
        0
 40
0.045
309
GRIDFORMAT_END
 95
        4
302
GRIDFORMAT
  1
GRIDFORMAT_BEGIN
 90
        0
 91
        1
 62
     0
 92
       -2
340
0
 93
        0
 40
0.045
309
GRIDFORMAT_END
 95
        8
302
GRIDFORMAT
  1
GRIDFORMAT_BEGIN
 90
        0
 91
        1
 62
     0
 92
       -2
340
0
 93
        0
 40
0.045
309
GRIDFORMAT_END
 95
       16
302
GRIDFORMAT
  1
GRIDFORMAT_BEGIN
 90
        0
 91
        1
 62
     0
 92
       -2
340
0
 93
        0
 40
0.045
309
GRIDFORMAT_END
 95
       32
302
GRIDFORMAT
  1
GRIDFORMAT_BEGIN
 90
        0
 91
        1
 62
     0
 92
       -2
340
0
 93
        0
 40
0.045
309
GRIDFORMAT_END
309
TABLEFORMAT_END
  1
CELLSTYLE_BEGIN
 90
        3
 91
        2
300
_DATA
309
CELLSTYLE_END
  0
ENDSEC
  0
SECTION
  2
ACDSDATA
 70
     2
 71
     8
  0
ACDSSCHEMA
 90
        0
  1
AcDb_Thumbnail_Schema
  2
AcDbDs::ID
280
    10
 91
        8
  2
Thumbnail_Data
280
    15
 91
        0
101
ACDSRECORD
 95
        0
 90
        1
  2
AcDbDs::TreatedAsObjectData
280
     1
291
     1
101
ACDSRECORD
 95
        0
 90
        2
  2
AcDbDs::Legacy
280
     1
291
     1
101
ACDSRECORD
  1
AcDbDs::ID
 90
        3
  2
AcDs:Indexable
280
     1
291
     1
101
ACDSRECORD
  1
AcDbDs::ID
 90
        4
  2
AcDbDs::HandleAttribute
280
     7
282
     1
  0
ACDSSCHEMA
 90
        1
  1
AcDbDs::TreatedAsObjectDataSchema
  2
AcDbDs::TreatedAsObjectData
280
     1
 91
        0
  0
ACDSSCHEMA
 90
        2
  1
AcDbDs::LegacySchema
  2
AcDbDs::Legacy
280
     1
 91
        0
  0
ACDSSCHEMA
 90
        3
  1
AcDbDs::IndexedPropertySchema
  2
AcDs:Indexable
280
     1
 91
        0
  0
ACDSSCHEMA
 90
        4
  1
AcDbDs::HandleAttributeSchema
  2
AcDbDs::HandleAttribute
280
     7
 91
        1
284
     1
  0
ACDSSCHEMA
 90
        5
  1
AcDb3DSolid_ASM_Data
  2
AcDbDs::ID
280
    10
 91
        8
  2
ASM_Data
280
    15
 91
        0
101
ACDSRECORD
 95
        5
 90
        1
  2
AcDbDs::TreatedAsObjectData
280
     1
291
     1
101
ACDSRECORD
 95
        5
 90
        2
  2
AcDbDs::Legacy
280
     1
291
     1
101
ACDSRECORD
  1
AcDbDs::ID
 90
        3
  2
AcDs:Indexable
280
     1
291
     1
101
ACDSRECORD
  1
AcDbDs::ID
 90
        4
  2
AcDbDs::HandleAttribute
280
     7
282
     1
  0
ACDSRECORD
 90
        0
  2
AcDbDs::ID
280
    10
320
22
  2
Thumbnail_Data
280
    15
 94
     1666
310
89504E470D0A1A0A0000000D49484452000001000000006F08030000003479EE6F00000300504C5445212830FFFFFF2128300000000000000000000000000000000000000000000000000000330000660000990000CC0000FF0033000033330033660033990033CC0033FF0066000066330066660066990066CC0066FF0099
310
000099330099660099990099CC0099FF00CC0000CC3300CC6600CC9900CCCC00CCFF00FF0000FF3300FF6600FF9900FFCC00FFFF3300003300333300663300993300CC3300FF3333003333333333663333993333CC3333FF3366003366333366663366993366CC3366FF3399003399333399663399993399CC3399FF33CC00
310
33CC3333CC6633CC9933CCCC33CCFF33FF0033FF3333FF6633FF9933FFCC33FFFF6600006600336600666600996600CC6600FF6633006633336633666633996633CC6633FF6666006666336666666666996666CC6666FF6699006699336699666699996699CC6699FF66CC0066CC3366CC6666CC9966CCCC66CCFF66FF0066
310
FF3366FF6666FF9966FFCC66FFFF9900009900339900669900999900CC9900FF9933009933339933669933999933CC9933FF9966009966339966669966999966CC9966FF9999009999339999669999999999CC9999FF99CC0099CC3399CC6699CC9999CCCC99CCFF99FF0099FF3399FF6699FF9999FFCC99FFFFCC0000CC00
310
33CC0066CC0099CC00CCCC00FFCC3300CC3333CC3366CC3399CC33CCCC33FFCC6600CC6633CC6666CC6699CC66CCCC66FFCC9900CC9933CC9966CC9999CC99CCCC99FFCCCC00CCCC33CCCC66CCCC99CCCCCCCCCCFFCCFF00CCFF33CCFF66CCFF99CCFFCCCCFFFFFF0000FF0033FF0066FF0099FF00CCFF00FFFF3300FF3333
310
FF3366FF3399FF33CCFF33FFFF6600FF6633FF6666FF6699FF66CCFF66FFFF9900FF9933FF9966FF9999FF99CCFF99FFFFCC00FFCC33FFCC66FFCC99FFCCCCFFCCFFFFFF00FFFF33FFFF66FFFF99FFFFCCFFFFFF0000000D0D0D1A1A1A2828283535354343435050505D5D5D6B6B6B787878868686939393A1A1A1AEAEAEBB
310
BBBBC9C9C9D6D6D6E4E4E4F1F1F1FFFFFF0000000000000000000000000000000000000000000000000000000000002E4550F10000004A4944415478DAEDD5310D0000080341FCFB6527582061EA9D83FED22A000000000000000000008067BD04480EB00D0410400001BC40EEFCF01F0400000000000000000000000000E0
310
6E003091245FD013190B0000000049454E44AE4260824F1E1040000104681CA0FB7E010410207BBF000284EF17A0C2F70B50E1FBB74646ECDF5899B15F800ADFBFBA3365FFDAD098FDF3A595B37F1A2068FE6C6C45EDFF081036FF3D40DCFCD70081F387001539FF11A0E91FA0760608DE0E000000000000003F70037F154F
310
06C6188E5E0000000049454E44AE426082BC7906C6FC5842605671075D0C0A01A03BC4DCEE7D5C4F3801D015C44C5864438B6974A576F4984356F0920613A82600D18B5A7817757455EFE14E828099EA5006923A6E2A63B9B897960044EC54055317D4F453114D5B4FD910C1975C0250074070A4660280E0452C011801F812
310
D1CB77CA0940D614C15ECA16C0434C378F952400715B044BA104E000C04D542D9D04E00300C1462601B80150C4D55149009E009C02AB882400670008AA1A09C01F803DB482842B007804B0C60D91CF2F9E2F7FB1C23DC1579225015C3F890CE05202B8F9242E001C5FF3827301006B5440D9FC87A325E680CBB4BF3A80E341
310
024800126BCED8DCCAFE0BC89323148B0004169DB1773E315BC236EF7D16429C74C0FC8810FAB822E4686C54F4D26BA9A9E2DD7790D975BD451A1FD53D220800A0797E05CB04E203000DE41FA502A8BD05F61574D1160836078CE58FF12DE253CECF072C2F70EA6F011040B1F60060AF8009C658FE140940F746886607B0F5
310
F2D84660BD1618B88A08D2027100640B8C5D0B2DBC0AC45A06BBF6C2581840B855A0358D18E98F251203406F1A612A80B202BAD38891FF580B500000D49D4988F37FAC813E72214627000A3582A5C338FE00598ED82311F33F3A0000000049454E44AE4260820F467818FD4AC64A010000000049454E44AE42608200187F52
310
539FF6AC0FF2D01229B97F7B56AE64E8787DBF9E93B283504D4929EEDB336DE133B927D0B706F146D8FDD54728002424931276690CDE5FFA471401522320E6FA719CDCC9E90D234F422DA512220CD4066298BF969A4028B717C4D481E25C1BC6C59A99842240E2F24B1F92F8AC20F021F00EFE737AFD0FDF7E00E9E9886BC5
310
1247A50000000049454E44AE426082
  0
ENDSEC
  0
EOF
