  0
SECTION
  2
HEADER
  9
$ACADVER
  1
AC1032
  9
$ACADMAINTVER
 90
      197
  9
$DWGCODEPAGE
  3
ANSI_1252
  9
$LASTSAVEDBY
  1
gregb
  9
$REQUIREDVERSIONS
160
                 0
  9
$INSBASE
 10
0.0
 20
0.0
 30
0.0
  9
$EXTMIN
 10
105017.4949000695
 20
95050.1889913677
 30
0.0
  9
$EXTMAX
 10
105020.8949000695
 20
95052.68899136771
 30
0.0
  9
$LIMMIN
 10
0.0
 20
0.0
  9
$LIMMAX
 10
12.0
 20
9.0
  9
$ORTHOMODE
 70
     1
  9
$REGENMODE
 70
     1
  9
$FILLMODE
 70
     1
  9
$QTEXTMODE
 70
     0
  9
$MIRRTEXT
 70
     0
  9
$LTSCALE
 40
1.0
  9
$ATTMODE
 70
     1
  9
$TEXTSIZE
 40
0.2
  9
$TRACEWID
 40
0.05
  9
$TEXTSTYLE
  7
Standard
  9
$CLAYER
  8
freecads.com
  9
$CELTYPE
  6
ByLayer
  9
$CECOLOR
 62
   256
  9
$CELTSCALE
 40
1.0
  9
$DISPSILH
 70
     1
  9
$DIMSCALE
 40
1.0
  9
$DIMASZ
 40
0.18
  9
$DIMEXO
 40
0.0625
  9
$DIMDLI
 40
0.38
  9
$DIMRND
 40
0.0
  9
$DIMDLE
 40
0.0
  9
$DIMEXE
 40
0.18
  9
$DIMTP
 40
0.0
  9
$DIMTM
 40
0.0
  9
$DIMTXT
 40
0.18
  9
$DIMCEN
 40
0.09
  9
$DIMTSZ
 40
0.0
  9
$DIMTOL
 70
     0
  9
$DIMLIM
 70
     0
  9
$DIMTIH
 70
     1
  9
$DIMTOH
 70
     1
  9
$DIMSE1
 70
     0
  9
$DIMSE2
 70
     0
  9
$DIMTAD
 70
     0
  9
$DIMZIN
 70
     0
  9
$DIMBLK
  1

  9
$DIMASO
 70
     1
  9
$DIMSHO
 70
     1
  9
$DIMPOST
  1

  9
$DIMAPOST
  1

  9
$DIMALT
 70
     0
  9
$DIMALTD
 70
     2
  9
$DIMALTF
 40
25.4
  9
$DIMLFAC
 40
1.0
  9
$DIMTOFL
 70
     0
  9
$DIMTVP
 40
0.0
  9
$DIMTIX
 70
     0
  9
$DIMSOXD
 70
     0
  9
$DIMSAH
 70
     0
  9
$DIMBLK1
  1

  9
$DIMBLK2
  1

  9
$DIMSTYLE
  2
Standard
  9
$DIMCLRD
 70
     0
  9
$DIMCLRE
 70
     0
  9
$DIMCLRT
 70
     0
  9
$DIMTFAC
 40
1.0
  9
$DIMGAP
 40
0.09
  9
$DIMJUST
 70
     0
  9
$DIMSD1
 70
     0
  9
$DIMSD2
 70
     0
  9
$DIMTOLJ
 70
     1
  9
$DIMTZIN
 70
     0
  9
$DIMALTZ
 70
     0
  9
$DIMALTTZ
 70
     0
  9
$DIMUPT
 70
     0
  9
$DIMDEC
 70
     4
  9
$DIMTDEC
 70
     4
  9
$DIMALTU
 70
     2
  9
$DIMALTTD
 70
     2
  9
$DIMTXSTY
  7
Standard
  9
$DIMAUNIT
 70
     0
  9
$DIMADEC
 70
     0
  9
$DIMALTRND
 40
0.0
  9
$DIMAZIN
 70
     0
  9
$DIMDSEP
 70
    46
  9
$DIMATFIT
 70
     3
  9
$DIMFRAC
 70
     0
  9
$DIMLDRBLK
  1

  9
$DIMLUNIT
 70
     2
  9
$DIMLWD
 70
    -2
  9
$DIMLWE
 70
    -2
  9
$DIMTMOVE
 70
     0
  9
$DIMFXL
 40
1.0
  9
$DIMFXLON
 70
     0
  9
$DIMJOGANG
 40
0.7853981633974483
  9
$DIMTFILL
 70
     0
  9
$DIMTFILLCLR
 70
     0
  9
$DIMARCSYM
 70
     0
  9
$DIMLTYPE
  6

  9
$DIMLTEX1
  6

  9
$DIMLTEX2
  6

  9
$DIMTXTDIRECTION
 70
     0
  9
$LUNITS
 70
     2
  9
$LUPREC
 70
     4
  9
$SKETCHINC
 40
0.1
  9
$FILLETRAD
 40
0.0
  9
$AUNITS
 70
     0
  9
$AUPREC
 70
     0
  9
$MENU
  1
.
  9
$ELEVATION
 40
0.0
  9
$PELEVATION
 40
0.0
  9
$THICKNESS
 40
0.0
  9
$LIMCHECK
 70
     0
  9
$CHAMFERA
 40
0.0
  9
$CHAMFERB
 40
0.0
  9
$CHAMFERC
 40
0.0
  9
$CHAMFERD
 40
0.0
  9
$SKPOLY
 70
     0
  9
$TDCREATE
 40
2458157.454583334
  9
$TDUCREATE
 40
2458157.287916667
  9
$TDUPDATE
 40
2460671.800625000
  9
$TDUUPDATE
 40
2460671.633958333
  9
$TDINDWG
 40
0.1724421296
  9
$TDUSRTIMER
 40
0.1724421296
  9
$USRTIMER
 70
     1
  9
$ANGBASE
 50
0.0
  9
$ANGDIR
 70
     0
  9
$PDMODE
 70
     0
  9
$PDSIZE
 40
0.0
  9
$PLINEWID
 40
0.0
  9
$SPLFRAME
 70
     0
  9
$SPLINETYPE
 70
     6
  9
$SPLINESEGS
 70
     8
  9
$HANDSEED
  5
4F3A6
  9
$SURFTAB1
 70
     6
  9
$SURFTAB2
 70
     6
  9
$SURFTYPE
 70
     6
  9
$SURFU
 70
     6
  9
$SURFV
 70
     6
  9
$UCSBASE
  2

  9
$UCSNAME
  2

  9
$UCSORG
 10
0.0
 20
0.0
 30
0.0
  9
$UCSXDIR
 10
1.0
 20
0.0
 30
0.0
  9
$UCSYDIR
 10
0.0
 20
1.0
 30
0.0
  9
$UCSORTHOREF
  2

  9
$UCSORTHOVIEW
 70
     0
  9
$UCSORGTOP
 10
0.0
 20
0.0
 30
0.0
  9
$UCSORGBOTTOM
 10
0.0
 20
0.0
 30
0.0
  9
$UCSORGLEFT
 10
0.0
 20
0.0
 30
0.0
  9
$UCSORGRIGHT
 10
0.0
 20
0.0
 30
0.0
  9
$UCSORGFRONT
 10
0.0
 20
0.0
 30
0.0
  9
$UCSORGBACK
 10
0.0
 20
0.0
 30
0.0
  9
$PUCSBASE
  2

  9
$PUCSNAME
  2

  9
$PUCSORG
 10
0.0
 20
0.0
 30
0.0
  9
$PUCSXDIR
 10
1.0
 20
0.0
 30
0.0
  9
$PUCSYDIR
 10
0.0
 20
1.0
 30
0.0
  9
$PUCSORTHOREF
  2

  9
$PUCSORTHOVIEW
 70
     0
  9
$PUCSORGTOP
 10
0.0
 20
0.0
 30
0.0
  9
$PUCSORGBOTTOM
 10
0.0
 20
0.0
 30
0.0
  9
$PUCSORGLEFT
 10
0.0
 20
0.0
 30
0.0
  9
$PUCSORGRIGHT
 10
0.0
 20
0.0
 30
0.0
  9
$PUCSORGFRONT
 10
0.0
 20
0.0
 30
0.0
  9
$PUCSORGBACK
 10
0.0
 20
0.0
 30
0.0
  9
$USERI1
 70
     0
  9
$USERI2
 70
     0
  9
$USERI3
 70
     0
  9
$USERI4
 70
     0
  9
$USERI5
 70
     0
  9
$USERR1
 40
0.0
  9
$USERR2
 40
0.0
  9
$USERR3
 40
0.0
  9
$USERR4
 40
0.0
  9
$USERR5
 40
0.0
  9
$WORLDVIEW
 70
     1
  9
$SHADEDGE
 70
     3
  9
$SHADEDIF
 70
    70
  9
$TILEMODE
 70
     1
  9
$MAXACTVP
 70
    64
  9
$PINSBASE
 10
0.0
 20
0.0
 30
0.0
  9
$PLIMCHECK
 70
     0
  9
$PEXTMIN
 10
0.0
 20
0.0
 30
0.0
  9
$PEXTMAX
 10
0.0
 20
0.0
 30
0.0
  9
$PLIMMIN
 10
0.0
 20
0.0
  9
$PLIMMAX
 10
12.0
 20
9.0
  9
$UNITMODE
 70
     0
  9
$VISRETAIN
 70
     1
  9
$PLINEGEN
 70
     0
  9
$PSLTSCALE
 70
     1
  9
$TREEDEPTH
 70
  3020
  9
$CMLSTYLE
  2
Standard
  9
$CMLJUST
 70
     0
  9
$CMLSCALE
 40
1.0
  9
$PROXYGRAPHICS
 70
     1
  9
$MEASUREMENT
 70
     0
  9
$CELWEIGHT
370
    -1
  9
$ENDCAPS
280
     0
  9
$JOINSTYLE
280
     0
  9
$LWDISPLAY
290
     0
  9
$INSUNITS
 70
     1
  9
$HYPERLINKBASE
  1

  9
$STYLESHEET
  1
monochrome.ctb
  9
$XEDIT
290
     1
  9
$CEPSNTYPE
380
     0
  9
$PSTYLEMODE
290
     1
  9
$FINGERPRINTGUID
  2
{358EB121-6EE0-9143-8A3E-6E8E8869FDA6}
  9
$VERSIONGUID
  2
{A4224781-6D45-B347-A8AB-99E26811F2FE}
  9
$EXTNAMES
290
     1
  9
$PSVPSCALE
 40
0.0
  9
$OLESTARTUP
290
     0
  9
$SORTENTS
280
   127
  9
$INDEXCTL
280
     0
  9
$HIDETEXT
280
     1
  9
$XCLIPFRAME
280
     2
  9
$HALOGAP
280
     0
  9
$OBSCOLOR
 70
   257
  9
$OBSLTYPE
280
     0
  9
$INTERSECTIONDISPLAY
280
     0
  9
$INTERSECTIONCOLOR
 70
   257
  9
$DIMASSOC
280
     2
  9
$PROJECTNAME
  1

  9
$CAMERADISPLAY
290
     0
  9
$LENSLENGTH
 40
50.0
  9
$CAMERAHEIGHT
 40
0.0
  9
$STEPSPERSEC
 40
2.0
  9
$STEPSIZE
 40
6.0
  9
$3DDWFPREC
 40
2.0
  9
$PSOLWIDTH
 40
0.25
  9
$PSOLHEIGHT
 40
4.0
  9
$LOFTANG1
 40
1.570796326794896
  9
$LOFTANG2
 40
1.570796326794896
  9
$LOFTMAG1
 40
0.0
  9
$LOFTMAG2
 40
0.0
  9
$LOFTPARAM
 70
     7
  9
$LOFTNORMALS
280
     1
  9
$LATITUDE
 40
37.795
  9
$LONGITUDE
 40
-122.394
  9
$NORTHDIRECTION
 40
0.0
  9
$TIMEZONE
 70
 -8000
  9
$LIGHTGLYPHDISPLAY
280
     1
  9
$TILEMODELIGHTSYNCH
280
     1
  9
$CMATERIAL
347
96
  9
$SOLIDHIST
280
     0
  9
$SHOWHIST
280
     1
  9
$DWFFRAME
280
     2
  9
$DGNFRAME
280
     0
  9
$REALWORLDSCALE
290
     1
  9
$INTERFERECOLOR
 62
     1
  9
$INTERFEREOBJVS
345
A3
  9
$INTERFEREVPVS
346
A0
  9
$CSHADOW
280
     0
  9
$SHADOWPLANELOCATION
 40
0.0
  0
ENDSEC
  0
SECTION
  2
CLASSES
  0
CLASS
  1
ACDBDICTIONARYWDFLT
  2
AcDbDictionaryWithDefault
  3
ObjectDBX Classes
 90
        0
 91
        1
280
     0
281
     0
  0
CLASS
  1
DICTIONARYVAR
  2
AcDbDictionaryVar
  3
ObjectDBX Classes
 90
        0
 91
      279
280
     0
281
     0
  0
CLASS
  1
TABLESTYLE
  2
AcDbTableStyle
  3
ObjectDBX Classes
 90
     4095
 91
        1
280
     0
281
     0
  0
CLASS
  1
MATERIAL
  2
AcDbMaterial
  3
ObjectDBX Classes
 90
     1153
 91
        3
280
     0
281
     0
  0
CLASS
  1
VISUALSTYLE
  2
AcDbVisualStyle
  3
ObjectDBX Classes
 90
     4095
 91
       25
280
     0
281
     0
  0
CLASS
  1
SCALE
  2
AcDbScale
  3
ObjectDBX Classes
 90
     1153
 91
       34
280
     0
281
     0
  0
CLASS
  1
MLEADERSTYLE
  2
AcDbMLeaderStyle
  3
ACDB_MLEADERSTYLE_CLASS
 90
     4095
 91
        1
280
     0
281
     0
  0
CLASS
  1
CELLSTYLEMAP
  2
AcDbCellStyleMap
  3
ObjectDBX Classes
 90
     1152
 91
        1
280
     0
281
     0
  0
CLASS
  1
EXACXREFPANELOBJECT
  2
ExAcXREFPanelObject
  3
EXAC_ESW
 90
     1025
 91
        1
280
     0
281
     0
  0
CLASS
  1
NPOCOLLECTION
  2
AcDbImpNonPersistentObjectsCollection
  3
ObjectDBX Classes
 90
     1153
 91
        1
280
     0
281
     0
  0
CLASS
  1
LAYER_INDEX
  2
AcDbLayerIndex
  3
ObjectDBX Classes
 90
        0
 91
        0
280
     0
281
     0
  0
CLASS
  1
SPATIAL_INDEX
  2
AcDbSpatialIndex
  3
ObjectDBX Classes
 90
        0
 91
        0
280
     0
281
     0
  0
CLASS
  1
IDBUFFER
  2
AcDbIdBuffer
  3
ObjectDBX Classes
 90
        0
 91
        0
280
     0
281
     0
  0
CLASS
  1
ACDBSECTIONVIEWSTYLE
  2
AcDbSectionViewStyle
  3
ObjectDBX Classes
 90
     1025
 91
        2
280
     0
281
     0
  0
CLASS
  1
ACDBDETAILVIEWSTYLE
  2
AcDbDetailViewStyle
  3
ObjectDBX Classes
 90
     1025
 91
        2
280
     0
281
     0
  0
CLASS
  1
SORTENTSTABLE
  2
AcDbSortentsTable
  3
ObjectDBX Classes
 90
        0
 91
       26
280
     0
281
     0
  0
CLASS
  1
ACAD_EVALUATION_GRAPH
  2
AcDbEvalGraph
  3
ObjectDBX Classes
 90
     1153
 91
        1
280
     0
281
     0
  0
CLASS
  1
BLOCKLINEARPARAMETER
  2
AcDbBlockLinearParameter
  3
ObjectDBX Classes
 90
     1153
 91
       12
280
     0
281
     0
  0
CLASS
  1
BLOCKLINEARGRIP
  2
AcDbBlockLinearGrip
  3
ObjectDBX Classes
 90
     1153
 91
        0
280
     0
281
     0
  0
CLASS
  1
BLOCKGRIPLOCATIONCOMPONENT
  2
AcDbBlockGripExpr
  3
ObjectDBX Classes
 90
     1153
 91
       14
280
     0
281
     0
  0
CLASS
  1
BLOCKSTRETCHACTION
  2
AcDbBlockStretchAction
  3
ObjectDBX Classes
 90
     1153
 91
        6
280
     0
281
     0
  0
CLASS
  1
ACDB_DYNAMICBLOCKPURGEPREVENTER_VERSION
  2
AcDbDynamicBlockPurgePreventer
  3
ObjectDBX Classes
 90
     1153
 91
        1
280
     0
281
     0
  0
CLASS
  1
BLOCKVISIBILITYPARAMETER
  2
AcDbBlockVisibilityParameter
  3
ObjectDBX Classes
 90
     1153
 91
        1
280
     0
281
     0
  0
CLASS
  1
BLOCKVISIBILITYGRIP
  2
AcDbBlockVisibilityGrip
  3
ObjectDBX Classes
 90
     1153
 91
        1
280
     0
281
     0
  0
CLASS
  1
ACDB_BLOCKREPRESENTATION_DATA
  2
AcDbBlockRepresentationData
  3
ObjectDBX Classes
 90
     1153
 91
       10
280
     0
281
     0
  0
CLASS
  1
SURFACE
  2
AcDbSurface
  3
ObjectDBX Classes
 90
     4095
 91
        0
280
     0
281
     1
  0
CLASS
  1
ACDBASSOCPERSSUBENTMANAGER
  2
AcDbAssocPersSubentManager
  3
ObjectDBX Classes
 90
     1024
 91
        1
280
     0
281
     0
  0
CLASS
  1
BLOCKARRAYACTION
  2
AcDbBlockArrayAction
  3
ObjectDBX Classes
 90
     1153
 91
        6
280
     0
281
     0
  0
CLASS
  1
BLOCKLOOKUPPARAMETER
  2
AcDbBlockLookupParameter
  3
ObjectDBX Classes
 90
     1153
 91
        6
280
     0
281
     0
  0
CLASS
  1
BLOCKLOOKUPGRIP
  2
AcDbBlockLookupGrip
  3
ObjectDBX Classes
 90
     1153
 91
        6
280
     0
281
     0
  0
CLASS
  1
BLOCKLOOKUPACTION
  2
AcDbBlockLookupAction
  3
ObjectDBX Classes
 90
     1153
 91
        6
280
     0
281
     0
  0
ENDSEC
  0
SECTION
  2
TABLES
  0
TABLE
  2
VPORT
  5
8
330
0
100
AcDbSymbolTable
 70
     1
  0
VPORT
  5
94
330
8
100
AcDbSymbolTableRecord
100
AcDbViewportTableRecord
  2
*Active
 70
     0
 10
0.0
 20
0.0
 11
1.0
 21
1.0
 12
105020.6740817517
 22
95051.28125298012
 13
0.0
 23
0.0
 14
0.5
 24
0.5
 15
0.5
 25
0.5
 16
0.0
 26
0.0
 36
1.0
 17
0.0
 27
0.0
 37
0.0
 40
7.480285394472734
 41
2.293369663941871
 42
50.0
 43
0.0
 44
0.0
 50
0.0
 51
0.0
 71
     0
 72
  1000
 73
     1
 74
     3
 75
     0
 76
     0
 77
     0
 78
     0
281
     0
 65
     1
110
0.0
120
0.0
130
0.0
111
1.0
121
0.0
131
0.0
112
0.0
122
1.0
132
0.0
 79
     0
146
0.0
348
9F
 60
     3
 61
     5
292
     1
282
     1
141
0.0
142
0.0
 63
   250
421
  3355443
1001
ACAD_NAV_VCDISPLAY
1070
     3
  0
ENDTAB
  0
TABLE
  2
LTYPE
  5
5
330
0
100
AcDbSymbolTable
 70
     1
  0
LTYPE
  5
14
330
5
100
AcDbSymbolTableRecord
100
AcDbLinetypeTableRecord
  2
ByBlock
 70
     0
  3

 72
    65
 73
     0
 40
0.0
  0
LTYPE
  5
15
330
5
100
AcDbSymbolTableRecord
100
AcDbLinetypeTableRecord
  2
ByLayer
 70
     0
  3

 72
    65
 73
     0
 40
0.0
  0
LTYPE
  5
16
330
5
100
AcDbSymbolTableRecord
100
AcDbLinetypeTableRecord
  2
Continuous
 70
     0
  3
Solid line
 72
    65
 73
     0
 40
0.0
  0
ENDTAB
  0
TABLE
  2
LAYER
  5
2
102
{ACAD_XDICTIONARY
360
18E
102
}
330
0
100
AcDbSymbolTable
 70
     2
  0
LAYER
  5
10
102
{ACAD_XDICTIONARY
360
E6
102
}
330
2
100
AcDbSymbolTableRecord
100
AcDbLayerTableRecord
  2
0
 70
     0
 62
     7
  6
Continuous
370
    -3
390
F
347
98
348
0
  0
LAYER
  5
204
330
2
100
AcDbSymbolTableRecord
100
AcDbLayerTableRecord
  2
freecads.com
 70
     0
 62
     7
  6
Continuous
370
    -3
390
F
347
98
348
0
1001
AcAecLayerStandard
1000

1000

1001
AcCmTransparency
1071
        0
  0
ENDTAB
  0
TABLE
  2
STYLE
  5
3
330
0
100
AcDbSymbolTable
 70
     2
  0
STYLE
  5
11
330
3
100
AcDbSymbolTableRecord
100
AcDbTextStyleTableRecord
  2
Standard
 70
     0
 40
0.0
 41
1.0
 50
0.0
 71
     0
 42
0.2
  3
arial.ttf
  4

1001
ACAD
1000
Arial
1071
       34
  0
ENDTAB
  0
TABLE
  2
VIEW
  5
6
330
0
100
AcDbSymbolTable
 70
     0
  0
ENDTAB
  0
TABLE
  2
UCS
  5
7
330
0
100
AcDbSymbolTable
 70
     0
  0
ENDTAB
  0
TABLE
  2
APPID
  5
9
330
0
100
AcDbSymbolTable
 70
    32
  0
APPID
  5
12
330
9
100
AcDbSymbolTableRecord
100
AcDbRegAppTableRecord
  2
ACAD
 70
     0
  0
APPID
  5
DD
330
9
100
AcDbSymbolTableRecord
100
AcDbRegAppTableRecord
  2
AcadAnnoPO
 70
     0
  0
APPID
  5
DE
330
9
100
AcDbSymbolTableRecord
100
AcDbRegAppTableRecord
  2
AcadAnnotative
 70
     0
  0
APPID
  5
DF
330
9
100
AcDbSymbolTableRecord
100
AcDbRegAppTableRecord
  2
ACAD_DSTYLE_DIMJAG
 70
     0
  0
APPID
  5
E0
330
9
100
AcDbSymbolTableRecord
100
AcDbRegAppTableRecord
  2
ACAD_DSTYLE_DIMTALN
 70
     0
  0
APPID
  5
107
330
9
100
AcDbSymbolTableRecord
100
AcDbRegAppTableRecord
  2
ACAD_MLEADERVER
 70
     0
  0
APPID
  5
1A6
330
9
100
AcDbSymbolTableRecord
100
AcDbRegAppTableRecord
  2
ACAD_NAV_VCDISPLAY
 70
     0
  0
APPID
  5
205
330
9
100
AcDbSymbolTableRecord
100
AcDbRegAppTableRecord
  2
AcAecLayerStandard
 70
     0
  0
APPID
  5
206
330
9
100
AcDbSymbolTableRecord
100
AcDbRegAppTableRecord
  2
AcCmTransparency
 70
     0
  0
APPID
  5
222
330
9
100
AcDbSymbolTableRecord
100
AcDbRegAppTableRecord
  2
ACAD_PSEXT
 70
     0
  0
APPID
  5
2DA
330
9
100
AcDbSymbolTableRecord
100
AcDbRegAppTableRecord
  2
GradientColor1ACI
 70
     0
  0
APPID
  5
2DB
330
9
100
AcDbSymbolTableRecord
100
AcDbRegAppTableRecord
  2
GradientColor2ACI
 70
     0
  0
APPID
  5
2F3
330
9
100
AcDbSymbolTableRecord
100
AcDbRegAppTableRecord
  2
ACAD_EXEMPT_FROM_CAD_STANDARDS
 70
     0
  0
APPID
  5
A1A
330
9
100
AcDbSymbolTableRecord
100
AcDbRegAppTableRecord
  2
AcDbBlockRepETag
 70
     0
  0
APPID
  5
2282
330
9
100
AcDbSymbolTableRecord
100
AcDbRegAppTableRecord
  2
RAK
 70
     0
  0
APPID
  5
39F4
330
9
100
AcDbSymbolTableRecord
100
AcDbRegAppTableRecord
  2
ACAD_DSTYLE_DIMJOGGED_JOGANGLE_SYMBOL
 70
     0
  0
APPID
  5
39F5
330
9
100
AcDbSymbolTableRecord
100
AcDbRegAppTableRecord
  2
AcDbDynamicBlockGUID
 70
     0
  0
APPID
  5
39F6
330
9
100
AcDbSymbolTableRecord
100
AcDbRegAppTableRecord
  2
ACAD_DSTYLE_DIMBREAK
 70
     0
  0
APPID
  5
3B59
330
9
100
AcDbSymbolTableRecord
100
AcDbRegAppTableRecord
  2
AEC_XDATA_BOUND_SPACE
 70
     0
  0
APPID
  5
75C5
330
9
100
AcDbSymbolTableRecord
100
AcDbRegAppTableRecord
  2
AcDbDynamicBlockTrueName
 70
     0
  0
APPID
  5
75C6
330
9
100
AcDbSymbolTableRecord
100
AcDbRegAppTableRecord
  2
AcDbBlockRepBTag
 70
     0
  0
APPID
  5
75C7
330
9
100
AcDbSymbolTableRecord
100
AcDbRegAppTableRecord
  2
ACAUTHENVIRON
 70
     0
  0
APPID
  5
AA90
330
9
100
AcDbSymbolTableRecord
100
AcDbRegAppTableRecord
  2
Acad_TC
 70
     0
  0
APPID
  5
AA9C
330
9
100
AcDbSymbolTableRecord
100
AcDbRegAppTableRecord
  2
AcDbBlockArrayActionTag
 70
     0
  0
APPID
  5
BEE4
330
9
100
AcDbSymbolTableRecord
100
AcDbRegAppTableRecord
  2
ACAD_DSTYLE_DIMTEXT_FILL
 70
     0
  0
APPID
  5
219E5
330
9
100
AcDbSymbolTableRecord
100
AcDbRegAppTableRecord
  2
AECLAY
 70
     0
  0
APPID
  5
26B46
330
9
100
AcDbSymbolTableRecord
100
AcDbRegAppTableRecord
  2
REVIT
 70
     0
  0
APPID
  5
280A5
330
9
100
AcDbSymbolTableRecord
100
AcDbRegAppTableRecord
  2
HATCHBACKGROUNDCOLOR
 70
     0
  0
APPID
  5
29EE0
330
9
100
AcDbSymbolTableRecord
100
AcDbRegAppTableRecord
  2
ACAD_STEPID
 70
     0
  0
APPID
  5
29EE1
330
9
100
AcDbSymbolTableRecord
100
AcDbRegAppTableRecord
  2
AcLayerTools
 70
     0
  0
APPID
  5
4D86C
330
9
100
AcDbSymbolTableRecord
100
AcDbRegAppTableRecord
  2
PE_URL
 70
     0
  0
APPID
  5
4DA7A
330
9
100
AcDbSymbolTableRecord
100
AcDbRegAppTableRecord
  2
PLOTTRANSPARENCY
 70
     0
  0
ENDTAB
  0
TABLE
  2
DIMSTYLE
  5
A
330
0
100
AcDbSymbolTable
 70
     2
100
AcDbDimStyleTable
 71
     1
340
27
  0
DIMSTYLE
105
27
330
A
100
AcDbSymbolTableRecord
100
AcDbDimStyleTableRecord
  2
Standard
 70
     0
340
11
  0
ENDTAB
  0
TABLE
  2
BLOCK_RECORD
  5
1
330
0
100
AcDbSymbolTable
 70
     2
  0
BLOCK_RECORD
  5
1F
102
{ACAD_XDICTIONARY
360
15D
102
}
330
1
100
AcDbSymbolTableRecord
100
AcDbBlockTableRecord
  2
*Model_Space
340
22
 70
     0
280
     1
281
     0
  0
BLOCK_RECORD
  5
58
330
1
100
AcDbSymbolTableRecord
100
AcDbBlockTableRecord
  2
*Paper_Space
340
59
 70
     0
280
     1
281
     0
  0
BLOCK_RECORD
  5
5D
330
1
100
AcDbSymbolTableRecord
100
AcDbBlockTableRecord
  2
*Paper_Space0
340
5E
 70
     0
280
     1
281
     0
  0
ENDTAB
  0
ENDSEC
  0
SECTION
  2
BLOCKS
  0
BLOCK
  5
20
330
1F
100
AcDbEntity
  8
0
100
AcDbBlockBegin
  2
*Model_Space
 70
     0
 10
0.0
 20
0.0
 30
0.0
  3
*Model_Space
  1

  0
ENDBLK
  5
21
330
1F
100
AcDbEntity
  8
0
100
AcDbBlockEnd
  0
BLOCK
  5
5A
330
58
100
AcDbEntity
 67
     1
  8
0
100
AcDbBlockBegin
  2
*Paper_Space
 70
     0
 10
0.0
 20
0.0
 30
0.0
  3
*Paper_Space
  1

  0
ENDBLK
  5
5B
330
58
100
AcDbEntity
 67
     1
  8
0
100
AcDbBlockEnd
  0
BLOCK
  5
5F
330
5D
100
AcDbEntity
 67
     1
  8
0
100
AcDbBlockBegin
  2
*Paper_Space0
 70
     0
 10
0.0
 20
0.0
 30
0.0
  3
*Paper_Space0
  1

  0
ENDBLK
  5
60
330
5D
100
AcDbEntity
 67
     1
  8
0
100
AcDbBlockEnd
  0
ENDSEC
  0
SECTION
  2
ENTITIES
  0
LINE
  5
4F0A9
330
1F
100
AcDbEntity
  8
freecads.com
100
AcDbLine
 10
105017.6949000695
 20
95050.4889913677
 30
0.0
 11
105017.6949000695
 21
95052.28899136771
 31
0.0
  0
ARC
  5
4F0AA
330
1F
100
AcDbEntity
  8
freecads.com
100
AcDbCircle
 10
105017.8949000695
 20
95052.28899136771
 30
0.0
 40
0.1999999999999957
100
AcDbArc
 50
90.0
 51
180.0
  0
LINE
  5
4F0AB
330
1F
100
AcDbEntity
  8
freecads.com
100
AcDbLine
 10
105017.8949000695
 20
95052.4889913677
 30
0.0
 11
105020.4949000695
 21
95052.4889913677
 31
0.0
  0
ARC
  5
4F0AC
330
1F
100
AcDbEntity
  8
freecads.com
100
AcDbCircle
 10
105020.4949000695
 20
95052.28899136771
 30
0.0
 40
0.2000000000000002
100
AcDbArc
 50
0.0
 51
90.0
  0
LINE
  5
4F0AD
330
1F
100
AcDbEntity
  8
freecads.com
100
AcDbLine
 10
105020.6949000695
 20
95052.28899136771
 30
0.0
 11
105020.6949000695
 21
95052.0889913677
 31
0.0
  0
LINE
  5
4F0AE
330
1F
100
AcDbEntity
  8
freecads.com
100
AcDbLine
 10
105020.6949000695
 20
95052.0889913677
 30
0.0
 11
105020.7949000695
 21
95052.0889913677
 31
0.0
  0
ARC
  5
4F0AF
330
1F
100
AcDbEntity
  8
freecads.com
100
AcDbCircle
 10
105020.7949000695
 20
95052.18899136769
 30
0.0
 40
0.1000000000000005
100
AcDbArc
 50
270.0
 51
0.0
  0
LINE
  5
4F0B0
330
1F
100
AcDbEntity
  8
freecads.com
100
AcDbLine
 10
105020.8949000695
 20
95052.18899136769
 30
0.0
 11
105020.8949000695
 21
95052.28899136771
 31
0.0
  0
ARC
  5
4F0B1
330
1F
100
AcDbEntity
  8
freecads.com
100
AcDbCircle
 10
105020.4949000695
 20
95052.28899136771
 30
0.0
 40
0.3999999999999986
100
AcDbArc
 50
0.0
 51
90.0
  0
LINE
  5
4F0B2
330
1F
100
AcDbEntity
  8
freecads.com
100
AcDbLine
 10
105020.4949000695
 20
95052.68899136771
 30
0.0
 11
105017.8949000695
 21
95052.68899136771
 31
0.0
  0
ARC
  5
4F0B3
330
1F
100
AcDbEntity
  8
freecads.com
100
AcDbCircle
 10
105017.8949000695
 20
95052.28899136771
 30
0.0
 40
0.3999999999999995
100
AcDbArc
 50
90.0
 51
180.0
  0
LINE
  5
4F0B4
330
1F
100
AcDbEntity
  8
freecads.com
100
AcDbLine
 10
105017.4949000695
 20
95052.28899136771
 30
0.0
 11
105017.4949000695
 21
95050.5889913677
 31
0.0
  0
ARC
  5
4F0B5
330
1F
100
AcDbEntity
  8
freecads.com
100
AcDbCircle
 10
105017.5949000695
 20
95050.5889913677
 30
0.0
 40
0.0999999999999943
100
AcDbArc
 50
180.0
 51
270.0
  0
LINE
  5
4F0B6
330
1F
100
AcDbEntity
  8
freecads.com
100
AcDbLine
 10
105017.5949000695
 20
95050.4889913677
 30
0.0
 11
105017.6949000695
 21
95050.4889913677
 31
0.0
  0
LINE
  5
4F0B7
330
1F
100
AcDbEntity
  8
freecads.com
100
AcDbLine
 10
105020.6949000695
 20
95052.28899136771
 30
0.0
 11
105020.6949000695
 21
95051.8889913677
 31
0.0
  0
ARC
  5
4F0B8
330
1F
100
AcDbEntity
  8
freecads.com
100
AcDbCircle
 10
105020.5949000695
 20
95051.8889913677
 30
0.0
 40
0.0999999999999943
100
AcDbArc
 50
270.0
 51
0.0
  0
LINE
  5
4F0B9
330
1F
100
AcDbEntity
  8
freecads.com
100
AcDbLine
 10
105020.5949000695
 20
95051.78899136771
 30
0.0
 11
105018.6949000695
 21
95051.78899136771
 31
0.0
  0
ARC
  5
4F0BA
330
1F
100
AcDbEntity
  8
freecads.com
100
AcDbCircle
 10
105018.6949000695
 20
95051.5889913677
 30
0.0
 40
0.2000000000001592
100
AcDbArc
 50
90.0
 51
180.0
  0
LINE
  5
4F0BB
330
1F
100
AcDbEntity
  8
freecads.com
100
AcDbLine
 10
105018.4949000695
 20
95051.5889913677
 30
0.0
 11
105018.4949000695
 21
95050.28899136771
 31
0.0
  0
ARC
  5
4F0BC
330
1F
100
AcDbEntity
  8
freecads.com
100
AcDbCircle
 10
105018.3949000695
 20
95050.28899136771
 30
0.0
 40
0.0999999999999943
100
AcDbArc
 50
270.0
 51
0.0
  0
LINE
  5
4F0BD
330
1F
100
AcDbEntity
  8
freecads.com
100
AcDbLine
 10
105018.3949000695
 20
95050.1889913677
 30
0.0
 11
105017.7949000695
 21
95050.1889913677
 31
0.0
  0
ARC
  5
4F0BE
330
1F
100
AcDbEntity
  8
freecads.com
100
AcDbCircle
 10
105017.7949000695
 20
95050.28899136771
 30
0.0
 40
0.1000000000000005
100
AcDbArc
 50
180.0
 51
270.0
  0
LINE
  5
4F0BF
330
1F
100
AcDbEntity
  8
freecads.com
100
AcDbLine
 10
105017.6949000695
 20
95050.28899136771
 30
0.0
 11
105017.6949000695
 21
95052.28899136771
 31
0.0
  0
ARC
  5
4F0C0
330
1F
100
AcDbEntity
  8
freecads.com
100
AcDbCircle
 10
105017.8949000695
 20
95052.28899136771
 30
0.0
 40
0.1999999999999957
100
AcDbArc
 50
90.0
 51
180.0
  0
LINE
  5
4F0C1
330
1F
100
AcDbEntity
  8
freecads.com
100
AcDbLine
 10
105017.8949000695
 20
95052.4889913677
 30
0.0
 11
105020.4949000695
 21
95052.4889913677
 31
0.0
  0
ARC
  5
4F0C2
330
1F
100
AcDbEntity
  8
freecads.com
100
AcDbCircle
 10
105020.4949000695
 20
95052.28899136771
 30
0.0
 40
0.2000000000000046
100
AcDbArc
 50
0.0
 51
90.0
  0
LINE
  5
4F0C3
330
1F
100
AcDbEntity
  8
freecads.com
100
AcDbLine
 10
105018.0761972851
 20
95052.46105313094
 30
0.0
 11
105018.0565624657
 21
95052.44069711364
 31
0.0
  0
LINE
  5
4F0C4
330
1F
100
AcDbEntity
  8
freecads.com
100
AcDbLine
 10
105018.0565624657
 20
95052.44069711364
 30
0.0
 11
105018.0400317152
 21
95052.42168865571
 31
0.0
  0
LINE
  5
4F0C5
330
1F
100
AcDbEntity
  8
freecads.com
100
AcDbLine
 10
105018.0400317152
 20
95052.42168865571
 30
0.0
 11
105018.0259776686
 21
95052.40388032261
 31
0.0
  0
LINE
  5
4F0C6
330
1F
100
AcDbEntity
  8
freecads.com
100
AcDbLine
 10
105018.0259776686
 20
95052.40388032261
 30
0.0
 11
105018.0137729612
 21
95052.38712467974
 31
0.0
  0
LINE
  5
4F0C7
330
1F
100
AcDbEntity
  8
freecads.com
100
AcDbLine
 10
105018.0137729612
 20
95052.38712467974
 30
0.0
 11
105018.0027902281
 21
95052.37127429261
 31
0.0
  0
LINE
  5
4F0C8
330
1F
100
AcDbEntity
  8
freecads.com
100
AcDbLine
 10
105018.0027902281
 20
95052.37127429261
 30
0.0
 11
105017.9924021045
 21
95052.35618172664
 31
0.0
  0
LINE
  5
4F0C9
330
1F
100
AcDbEntity
  8
freecads.com
100
AcDbLine
 10
105017.9924021045
 20
95052.35618172664
 30
0.0
 11
105017.9819812255
 21
95052.34169954729
 31
0.0
  0
LINE
  5
4F0CA
330
1F
100
AcDbEntity
  8
freecads.com
100
AcDbLine
 10
105017.9819812255
 20
95052.34169954729
 30
0.0
 11
105017.9709002264
 21
95052.32768031998
 31
0.0
  0
LINE
  5
4F0CB
330
1F
100
AcDbEntity
  8
freecads.com
100
AcDbLine
 10
105017.9709002264
 20
95052.32768031998
 30
0.0
 11
105017.9586740852
 21
95052.31398477093
 31
0.0
  0
LINE
  5
4F0CC
330
1F
100
AcDbEntity
  8
freecads.com
100
AcDbLine
 10
105017.9586740852
 20
95052.31398477093
 30
0.0
 11
105017.9453871509
 21
95052.30050626902
 31
0.0
  0
LINE
  5
4F0CD
330
1F
100
AcDbEntity
  8
freecads.com
100
AcDbLine
 10
105017.9453871509
 20
95052.30050626902
 30
0.0
 11
105017.9312661155
 21
95052.28714634395
 31
0.0
  0
LINE
  5
4F0CE
330
1F
100
AcDbEntity
  8
freecads.com
100
AcDbLine
 10
105017.9312661155
 20
95052.28714634395
 30
0.0
 11
105017.916537671
 21
95052.27380652536
 31
0.0
  0
LINE
  5
4F0CF
330
1F
100
AcDbEntity
  8
freecads.com
100
AcDbLine
 10
105017.916537671
 20
95052.27380652536
 30
0.0
 11
105017.9014285095
 21
95052.2603883429
 31
0.0
  0
LINE
  5
4F0D0
330
1F
100
AcDbEntity
  8
freecads.com
100
AcDbLine
 10
105017.9014285095
 20
95052.2603883429
 30
0.0
 11
105017.8861653227
 21
95052.24679332624
 31
0.0
  0
LINE
  5
4F0D1
330
1F
100
AcDbEntity
  8
freecads.com
100
AcDbLine
 10
105017.8861653227
 20
95052.24679332624
 30
0.0
 11
105017.8709748028
 21
95052.23292300499
 31
0.0
  0
LINE
  5
4F0D2
330
1F
100
AcDbEntity
  8
freecads.com
100
AcDbLine
 10
105017.8709748028
 20
95052.23292300499
 30
0.0
 11
105017.8560836416
 21
95052.21867890885
 31
0.0
  0
LINE
  5
4F0D3
330
1F
100
AcDbEntity
  8
freecads.com
100
AcDbLine
 10
105017.8560836416
 20
95052.21867890885
 30
0.0
 11
105017.8416927902
 21
95052.20402758839
 31
0.0
  0
LINE
  5
4F0D4
330
1F
100
AcDbEntity
  8
freecads.com
100
AcDbLine
 10
105017.8416927902
 20
95052.20402758839
 30
0.0
 11
105017.8279002363
 21
95052.18919567806
 31
0.0
  0
LINE
  5
4F0D5
330
1F
100
AcDbEntity
  8
freecads.com
100
AcDbLine
 10
105017.8279002363
 20
95052.18919567806
 30
0.0
 11
105017.8147782264
 21
95052.17447483317
 31
0.0
  0
LINE
  5
4F0D6
330
1F
100
AcDbEntity
  8
freecads.com
100
AcDbLine
 10
105017.8147782264
 20
95052.17447483317
 30
0.0
 11
105017.8023990071
 21
95052.16015670916
 31
0.0
  0
LINE
  5
4F0D7
330
1F
100
AcDbEntity
  8
freecads.com
100
AcDbLine
 10
105017.8023990071
 20
95052.16015670916
 30
0.0
 11
105017.7908348252
 21
95052.14653296134
 31
0.0
  0
LINE
  5
4F0D8
330
1F
100
AcDbEntity
  8
freecads.com
100
AcDbLine
 10
105017.7908348252
 20
95052.14653296134
 30
0.0
 11
105017.7801579274
 21
95052.13389524509
 31
0.0
  0
LINE
  5
4F0D9
330
1F
100
AcDbEntity
  8
freecads.com
100
AcDbLine
 10
105017.7801579274
 20
95052.13389524509
 30
0.0
 11
105017.7704405601
 21
95052.12253521579
 31
0.0
  0
LINE
  5
4F0DA
330
1F
100
AcDbEntity
  8
freecads.com
100
AcDbLine
 10
105017.7704405601
 20
95052.12253521579
 30
0.0
 11
105017.7617549703
 21
95052.11274452875
 31
0.0
  0
LINE
  5
4F0DB
330
1F
100
AcDbEntity
  8
freecads.com
100
AcDbLine
 10
105017.7617549703
 20
95052.11274452875
 30
0.0
 11
105017.7541513925
 21
95052.10473789025
 31
0.0
  0
LINE
  5
4F0DC
330
1F
100
AcDbEntity
  8
freecads.com
100
AcDbLine
 10
105017.7541513925
 20
95052.10473789025
 30
0.0
 11
105017.7475920146
 21
95052.09842220967
 31
0.0
  0
LINE
  5
4F0DD
330
1F
100
AcDbEntity
  8
freecads.com
100
AcDbLine
 10
105017.7475920146
 20
95052.09842220967
 30
0.0
 11
105017.7420170123
 21
95052.09362744734
 31
0.0
  0
LINE
  5
4F0DE
330
1F
100
AcDbEntity
  8
freecads.com
100
AcDbLine
 10
105017.7420170123
 20
95052.09362744734
 30
0.0
 11
105017.7373665615
 21
95052.09018356353
 31
0.0
  0
LINE
  5
4F0DF
330
1F
100
AcDbEntity
  8
freecads.com
100
AcDbLine
 10
105017.7373665615
 20
95052.09018356353
 30
0.0
 11
105017.733580838
 21
95052.08792051853
 31
0.0
  0
LINE
  5
4F0E0
330
1F
100
AcDbEntity
  8
freecads.com
100
AcDbLine
 10
105017.733580838
 20
95052.08792051853
 30
0.0
 11
105017.7306000177
 21
95052.08666827261
 31
0.0
  0
LINE
  5
4F0E1
330
1F
100
AcDbEntity
  8
freecads.com
100
AcDbLine
 10
105017.7306000177
 20
95052.08666827261
 30
0.0
 11
105017.7283642763
 21
95052.08625678607
 31
0.0
  0
LINE
  5
4F0E2
330
1F
100
AcDbEntity
  8
freecads.com
100
AcDbLine
 10
105017.7283642763
 20
95052.08625678607
 30
0.0
 11
105017.7268137898
 21
95052.0865160192
 31
0.0
  0
LINE
  5
4F0E3
330
1F
100
AcDbEntity
  8
freecads.com
100
AcDbLine
 10
105017.7268137898
 20
95052.0865160192
 30
0.0
 11
105017.725883648
 21
95052.08731810549
 31
0.0
  0
LINE
  5
4F0E4
330
1F
100
AcDbEntity
  8
freecads.com
100
AcDbLine
 10
105017.725883648
 20
95052.08731810549
 30
0.0
 11
105017.7254885976
 21
95052.08870387129
 31
0.0
  0
LINE
  5
4F0E5
330
1F
100
AcDbEntity
  8
freecads.com
100
AcDbLine
 10
105017.7254885976
 20
95052.08870387129
 30
0.0
 11
105017.7255382993
 21
95052.09075631611
 31
0.0
  0
LINE
  5
4F0E6
330
1F
100
AcDbEntity
  8
freecads.com
100
AcDbLine
 10
105017.7255382993
 20
95052.09075631611
 30
0.0
 11
105017.7259424137
 21
95052.09355843955
 31
0.0
  0
LINE
  5
4F0E7
330
1F
100
AcDbEntity
  8
freecads.com
100
AcDbLine
 10
105017.7259424137
 20
95052.09355843955
 30
0.0
 11
105017.7266106016
 21
95052.09719324117
 31
0.0
  0
LINE
  5
4F0E8
330
1F
100
AcDbEntity
  8
freecads.com
100
AcDbLine
 10
105017.7266106016
 20
95052.09719324117
 30
0.0
 11
105017.7274525237
 21
95052.1017437205
 31
0.0
  0
LINE
  5
4F0E9
330
1F
100
AcDbEntity
  8
freecads.com
100
AcDbLine
 10
105017.7274525237
 20
95052.1017437205
 30
0.0
 11
105017.7283778406
 21
95052.10729287711
 31
0.0
  0
LINE
  5
4F0EA
330
1F
100
AcDbEntity
  8
freecads.com
100
AcDbLine
 10
105017.7283778406
 20
95052.10729287711
 30
0.0
 11
105017.7292962131
 21
95052.11392371052
 31
0.0
  0
LINE
  5
4F0EB
330
1F
100
AcDbEntity
  8
freecads.com
100
AcDbLine
 10
105017.7292962131
 20
95052.11392371052
 30
0.0
 11
105017.7301562484
 21
95052.1216873355
 31
0.0
  0
LINE
  5
4F0EC
330
1F
100
AcDbEntity
  8
freecads.com
100
AcDbLine
 10
105017.7301562484
 20
95052.1216873355
 30
0.0
 11
105017.7310623393
 21
95052.13050732745
 31
0.0
  0
LINE
  5
4F0ED
330
1F
100
AcDbEntity
  8
freecads.com
100
AcDbLine
 10
105017.7310623393
 20
95052.13050732745
 30
0.0
 11
105017.7321578253
 21
95052.14027537691
 31
0.0
  0
LINE
  5
4F0EE
330
1F
100
AcDbEntity
  8
freecads.com
100
AcDbLine
 10
105017.7321578253
 20
95052.14027537691
 30
0.0
 11
105017.7335860459
 21
95052.1508831745
 31
0.0
  0
LINE
  5
4F0EF
330
1F
100
AcDbEntity
  8
freecads.com
100
AcDbLine
 10
105017.7335860459
 20
95052.1508831745
 30
0.0
 11
105017.7354903403
 21
95052.16222241079
 31
0.0
  0
LINE
  5
4F0F0
330
1F
100
AcDbEntity
  8
freecads.com
100
AcDbLine
 10
105017.7354903403
 20
95052.16222241079
 30
0.0
 11
105017.7380140481
 21
95052.17418477636
 31
0.0
  0
LINE
  5
4F0F1
330
1F
100
AcDbEntity
  8
freecads.com
100
AcDbLine
 10
105017.7380140481
 20
95052.17418477636
 30
0.0
 11
105017.7413005086
 21
95052.18666196178
 31
0.0
  0
LINE
  5
4F0F2
330
1F
100
AcDbEntity
  8
freecads.com
100
AcDbLine
 10
105017.7413005086
 20
95052.18666196178
 30
0.0
 11
105017.7454930612
 21
95052.19954565765
 31
0.0
  0
LINE
  5
4F0F3
330
1F
100
AcDbEntity
  8
freecads.com
100
AcDbLine
 10
105017.7454930612
 20
95052.19954565765
 30
0.0
 11
105017.7507256371
 21
95052.21274381238
 31
0.0
  0
LINE
  5
4F0F4
330
1F
100
AcDbEntity
  8
freecads.com
100
AcDbLine
 10
105017.7507256371
 20
95052.21274381238
 30
0.0
 11
105017.757094534
 21
95052.22622940591
 31
0.0
  0
LINE
  5
4F0F5
330
1F
100
AcDbEntity
  8
freecads.com
100
AcDbLine
 10
105017.757094534
 20
95052.22622940591
 30
0.0
 11
105017.7646866416
 21
95052.23999167592
 31
0.0
  0
LINE
  5
4F0F6
330
1F
100
AcDbEntity
  8
freecads.com
100
AcDbLine
 10
105017.7646866416
 20
95052.23999167592
 30
0.0
 11
105017.7735888492
 21
95052.25401986018
 31
0.0
  0
LINE
  5
4F0F7
330
1F
100
AcDbEntity
  8
freecads.com
100
AcDbLine
 10
105017.7735888492
 20
95052.25401986018
 30
0.0
 11
105017.7838880465
 21
95052.26830319648
 31
0.0
  0
LINE
  5
4F0F8
330
1F
100
AcDbEntity
  8
freecads.com
100
AcDbLine
 10
105017.7838880465
 20
95052.26830319648
 30
0.0
 11
105017.795671123
 21
95052.28283092252
 31
0.0
  0
LINE
  5
4F0F9
330
1F
100
AcDbEntity
  8
freecads.com
100
AcDbLine
 10
105017.795671123
 20
95052.28283092252
 30
0.0
 11
105017.8090249682
 21
95052.29759227606
 31
0.0
  0
LINE
  5
4F0FA
330
1F
100
AcDbEntity
  8
freecads.com
100
AcDbLine
 10
105017.8090249682
 20
95052.29759227606
 30
0.0
 11
105017.8240364717
 21
95052.31257649485
 31
0.0
  0
LINE
  5
4F0FB
330
1F
100
AcDbEntity
  8
freecads.com
100
AcDbLine
 10
105017.8240364717
 20
95052.31257649485
 30
0.0
 11
105017.8407032976
 21
95052.32773415245
 31
0.0
  0
LINE
  5
4F0FC
330
1F
100
AcDbEntity
  8
freecads.com
100
AcDbLine
 10
105017.8407032976
 20
95052.32773415245
 30
0.0
 11
105017.8586662094
 21
95052.34286116547
 31
0.0
  0
LINE
  5
4F0FD
330
1F
100
AcDbEntity
  8
freecads.com
100
AcDbLine
 10
105017.8586662094
 20
95052.34286116547
 30
0.0
 11
105017.8774767453
 21
95052.35771478639
 31
0.0
  0
LINE
  5
4F0FE
330
1F
100
AcDbEntity
  8
freecads.com
100
AcDbLine
 10
105017.8774767453
 20
95052.35771478639
 30
0.0
 11
105017.8966864432
 21
95052.37205226769
 31
0.0
  0
LINE
  5
4F0FF
330
1F
100
AcDbEntity
  8
freecads.com
100
AcDbLine
 10
105017.8966864432
 20
95052.37205226769
 30
0.0
 11
105017.9158468414
 21
95052.38563086177
 31
0.0
  0
LINE
  5
4F100
330
1F
100
AcDbEntity
  8
freecads.com
100
AcDbLine
 10
105017.9158468414
 20
95052.38563086177
 30
0.0
 11
105017.9345094778
 21
95052.39820782112
 31
0.0
  0
LINE
  5
4F101
330
1F
100
AcDbEntity
  8
freecads.com
100
AcDbLine
 10
105017.9345094778
 20
95052.39820782112
 30
0.0
 11
105017.9522258908
 21
95052.40954039816
 31
0.0
  0
LINE
  5
4F102
330
1F
100
AcDbEntity
  8
freecads.com
100
AcDbLine
 10
105017.9522258908
 20
95052.40954039816
 30
0.0
 11
105017.9685476184
 21
95052.41938584536
 31
0.0
  0
LINE
  5
4F103
330
1F
100
AcDbEntity
  8
freecads.com
100
AcDbLine
 10
105017.9685476184
 20
95052.41938584536
 30
0.0
 11
105017.9831222498
 21
95052.4275732366
 31
0.0
  0
LINE
  5
4F104
330
1F
100
AcDbEntity
  8
freecads.com
100
AcDbLine
 10
105017.9831222498
 20
95052.4275732366
 30
0.0
 11
105017.9959815797
 21
95052.43421893144
 31
0.0
  0
LINE
  5
4F105
330
1F
100
AcDbEntity
  8
freecads.com
100
AcDbLine
 10
105017.9959815797
 20
95052.43421893144
 30
0.0
 11
105018.0072534536
 21
95052.43951111088
 31
0.0
  0
LINE
  5
4F106
330
1F
100
AcDbEntity
  8
freecads.com
100
AcDbLine
 10
105018.0072534536
 20
95052.43951111088
 30
0.0
 11
105018.0170657173
 21
95052.44363795588
 31
0.0
  0
LINE
  5
4F107
330
1F
100
AcDbEntity
  8
freecads.com
100
AcDbLine
 10
105018.0170657173
 20
95052.44363795588
 30
0.0
 11
105018.0255462164
 21
95052.44678764743
 31
0.0
  0
LINE
  5
4F108
330
1F
100
AcDbEntity
  8
freecads.com
100
AcDbLine
 10
105018.0255462164
 20
95052.44678764743
 30
0.0
 11
105018.0328227966
 21
95052.44914836655
 31
0.0
  0
LINE
  5
4F109
330
1F
100
AcDbEntity
  8
freecads.com
100
AcDbLine
 10
105018.0328227966
 20
95052.44914836655
 30
0.0
 11
105018.0390233036
 21
95052.45090829419
 31
0.0
  0
LINE
  5
4F10A
330
1F
100
AcDbEntity
  8
freecads.com
100
AcDbLine
 10
105018.0390233036
 20
95052.45090829419
 30
0.0
 11
105018.0442755831
 21
95052.45225561136
 31
0.0
  0
LINE
  5
4F10B
330
1F
100
AcDbEntity
  8
freecads.com
100
AcDbLine
 10
105018.0442755831
 20
95052.45225561136
 30
0.0
 11
105018.0487027901
 21
95052.4533523018
 31
0.0
  0
LINE
  5
4F10C
330
1F
100
AcDbEntity
  8
freecads.com
100
AcDbLine
 10
105018.0487027901
 20
95052.4533523018
 30
0.0
 11
105018.052409317
 21
95052.45425556033
 31
0.0
  0
LINE
  5
4F10D
330
1F
100
AcDbEntity
  8
freecads.com
100
AcDbLine
 10
105018.052409317
 20
95052.45425556033
 30
0.0
 11
105018.0554948659
 21
95052.45499638451
 31
0.0
  0
LINE
  5
4F10E
330
1F
100
AcDbEntity
  8
freecads.com
100
AcDbLine
 10
105018.0554948659
 20
95052.45499638451
 30
0.0
 11
105018.0580591384
 21
95052.4556057719
 31
0.0
  0
LINE
  5
4F10F
330
1F
100
AcDbEntity
  8
freecads.com
100
AcDbLine
 10
105018.0580591384
 20
95052.4556057719
 30
0.0
 11
105018.0602018364
 21
95052.45611472012
 31
0.0
  0
LINE
  5
4F110
330
1F
100
AcDbEntity
  8
freecads.com
100
AcDbLine
 10
105018.0602018364
 20
95052.45611472012
 30
0.0
 11
105018.0620226618
 21
95052.45655422669
 31
0.0
  0
LINE
  5
4F111
330
1F
100
AcDbEntity
  8
freecads.com
100
AcDbLine
 10
105018.0620226618
 20
95052.45655422669
 30
0.0
 11
105018.0636213164
 21
95052.45695528921
 31
0.0
  0
LINE
  5
4F112
330
1F
100
AcDbEntity
  8
freecads.com
100
AcDbLine
 10
105018.0636213164
 20
95052.45695528921
 30
0.0
 11
105018.0650975021
 21
95052.45734890523
 31
0.0
  0
LINE
  5
4F113
330
1F
100
AcDbEntity
  8
freecads.com
100
AcDbLine
 10
105018.0650975021
 20
95052.45734890523
 30
0.0
 11
105018.0665315606
 21
95052.45775838153
 31
0.0
  0
LINE
  5
4F114
330
1F
100
AcDbEntity
  8
freecads.com
100
AcDbLine
 10
105018.0665315606
 20
95052.45775838153
 30
0.0
 11
105018.0679263928
 21
95052.45817626146
 31
0.0
  0
LINE
  5
4F115
330
1F
100
AcDbEntity
  8
freecads.com
100
AcDbLine
 10
105018.0679263928
 20
95052.45817626146
 30
0.0
 11
105018.06926554
 21
95052.45858739765
 31
0.0
  0
LINE
  5
4F116
330
1F
100
AcDbEntity
  8
freecads.com
100
AcDbLine
 10
105018.06926554
 20
95052.45858739765
 30
0.0
 11
105018.070532543
 21
95052.45897664263
 31
0.0
  0
LINE
  5
4F117
330
1F
100
AcDbEntity
  8
freecads.com
100
AcDbLine
 10
105018.070532543
 20
95052.45897664263
 30
0.0
 11
105018.0717109429
 21
95052.45932884896
 31
0.0
  0
LINE
  5
4F118
330
1F
100
AcDbEntity
  8
freecads.com
100
AcDbLine
 10
105018.0717109429
 20
95052.45932884896
 30
0.0
 11
105018.0727842805
 21
95052.45962886922
 31
0.0
  0
LINE
  5
4F119
330
1F
100
AcDbEntity
  8
freecads.com
100
AcDbLine
 10
105018.0727842805
 20
95052.45962886922
 30
0.0
 11
105018.073736097
 21
95052.45986155602
 31
0.0
  0
LINE
  5
4F11A
330
1F
100
AcDbEntity
  8
freecads.com
100
AcDbLine
 10
105018.073736097
 20
95052.45986155602
 30
0.0
 11
105018.0745499332
 21
95052.46001176187
 31
0.0
  0
LINE
  5
4F11B
330
1F
100
AcDbEntity
  8
freecads.com
100
AcDbLine
 10
105018.0745499332
 20
95052.46001176187
 30
0.0
 11
105018.0752138891
 21
95052.46006487288
 31
0.0
  0
LINE
  5
4F11C
330
1F
100
AcDbEntity
  8
freecads.com
100
AcDbLine
 10
105018.0752138891
 20
95052.46006487288
 30
0.0
 11
105018.0757343003
 21
95052.46000840907
 31
0.0
  0
LINE
  5
4F11D
330
1F
100
AcDbEntity
  8
freecads.com
100
AcDbLine
 10
105018.0757343003
 20
95052.46000840907
 30
0.0
 11
105018.0761220612
 21
95052.45983042401
 31
0.0
  0
LINE
  5
4F11E
330
1F
100
AcDbEntity
  8
freecads.com
100
AcDbLine
 10
105018.0761220612
 20
95052.45983042401
 30
0.0
 11
105018.0763880665
 21
95052.45951897121
 31
0.0
  0
LINE
  5
4F11F
330
1F
100
AcDbEntity
  8
freecads.com
100
AcDbLine
 10
105018.0763880665
 20
95052.45951897121
 30
0.0
 11
105018.0765432105
 21
95052.45906210422
 31
0.0
  0
LINE
  5
4F120
330
1F
100
AcDbEntity
  8
freecads.com
100
AcDbLine
 10
105018.0765432105
 20
95052.45906210422
 30
0.0
 11
105018.0765983878
 21
95052.45844787662
 31
0.0
  0
LINE
  5
4F121
330
1F
100
AcDbEntity
  8
freecads.com
100
AcDbLine
 10
105018.0765983878
 20
95052.45844787662
 30
0.0
 11
105018.076564493
 21
95052.45766434191
 31
0.0
  0
LINE
  5
4F122
330
1F
100
AcDbEntity
  8
freecads.com
100
AcDbLine
 10
105018.076564493
 20
95052.45766434191
 30
0.0
 11
105018.0764524204
 21
95052.45669955362
 31
0.0
  0
LINE
  5
4F123
330
1F
100
AcDbEntity
  8
freecads.com
100
AcDbLine
 10
105018.0764524204
 20
95052.45669955362
 30
0.0
 11
105018.0762742472
 21
95052.45554899028
 31
0.0
  0
LINE
  5
4F124
330
1F
100
AcDbEntity
  8
freecads.com
100
AcDbLine
 10
105018.0762742472
 20
95052.45554899028
 30
0.0
 11
105018.0760467805
 21
95052.4542378303
 31
0.0
  0
LINE
  5
4F125
330
1F
100
AcDbEntity
  8
freecads.com
100
AcDbLine
 10
105018.0760467805
 20
95052.4542378303
 30
0.0
 11
105018.07578801
 21
95052.452798677
 31
0.0
  0
LINE
  5
4F126
330
1F
100
AcDbEntity
  8
freecads.com
100
AcDbLine
 10
105018.07578801
 20
95052.452798677
 30
0.0
 11
105018.0755159253
 21
95052.45126413377
 31
0.0
  0
LINE
  5
4F127
330
1F
100
AcDbEntity
  8
freecads.com
100
AcDbLine
 10
105018.0755159253
 20
95052.45126413377
 30
0.0
 11
105018.0752485161
 21
95052.44966680397
 31
0.0
  0
LINE
  5
4F128
330
1F
100
AcDbEntity
  8
freecads.com
100
AcDbLine
 10
105018.0752485161
 20
95052.44966680397
 30
0.0
 11
105018.0750037721
 21
95052.44803929091
 31
0.0
  0
LINE
  5
4F129
330
1F
100
AcDbEntity
  8
freecads.com
100
AcDbLine
 10
105018.0750037721
 20
95052.44803929091
 30
0.0
 11
105018.0747996829
 21
95052.44641419798
 31
0.0
  0
LINE
  5
4F12A
330
1F
100
AcDbEntity
  8
freecads.com
100
AcDbLine
 10
105018.0747996829
 20
95052.44641419798
 30
0.0
 11
105018.0746542383
 21
95052.44482412853
 31
0.0
  0
LINE
  5
4F12B
330
1F
100
AcDbEntity
  8
freecads.com
100
AcDbLine
 10
105018.0746542383
 20
95052.44482412853
 30
0.0
 11
105018.0745755287
 21
95052.44329489331
 31
0.0
  0
LINE
  5
4F12C
330
1F
100
AcDbEntity
  8
freecads.com
100
AcDbLine
 10
105018.0745755287
 20
95052.44329489331
 30
0.0
 11
105018.0745320476
 21
95052.44182513241
 31
0.0
  0
LINE
  5
4F12D
330
1F
100
AcDbEntity
  8
freecads.com
100
AcDbLine
 10
105018.0745320476
 20
95052.44182513241
 30
0.0
 11
105018.0744823895
 21
95052.44040669337
 31
0.0
  0
LINE
  5
4F12E
330
1F
100
AcDbEntity
  8
freecads.com
100
AcDbLine
 10
105018.0744823895
 20
95052.44040669337
 30
0.0
 11
105018.0743851485
 21
95052.43903142371
 31
0.0
  0
LINE
  5
4F12F
330
1F
100
AcDbEntity
  8
freecads.com
100
AcDbLine
 10
105018.0743851485
 20
95052.43903142371
 30
0.0
 11
105018.0741989192
 21
95052.43769117091
 31
0.0
  0
LINE
  5
4F130
330
1F
100
AcDbEntity
  8
freecads.com
100
AcDbLine
 10
105018.0741989192
 20
95052.43769117091
 30
0.0
 11
105018.0738822958
 21
95052.43637778251
 31
0.0
  0
LINE
  5
4F131
330
1F
100
AcDbEntity
  8
freecads.com
100
AcDbLine
 10
105018.0738822958
 20
95052.43637778251
 30
0.0
 11
105018.0733938728
 21
95052.43508310597
 31
0.0
  0
LINE
  5
4F132
330
1F
100
AcDbEntity
  8
freecads.com
100
AcDbLine
 10
105018.0733938728
 20
95052.43508310597
 30
0.0
 11
105018.0726922443
 21
95052.43379898885
 31
0.0
  0
LINE
  5
4F133
330
1F
100
AcDbEntity
  8
freecads.com
100
AcDbLine
 10
105018.0726922443
 20
95052.43379898885
 30
0.0
 11
105018.071752133
 21
95052.432514538
 31
0.0
  0
LINE
  5
4F134
330
1F
100
AcDbEntity
  8
freecads.com
100
AcDbLine
 10
105018.071752133
 20
95052.432514538
 30
0.0
 11
105018.0706127738
 21
95052.43120789771
 31
0.0
  0
LINE
  5
4F135
330
1F
100
AcDbEntity
  8
freecads.com
100
AcDbLine
 10
105018.0706127738
 20
95052.43120789771
 30
0.0
 11
105018.0693295297
 21
95052.42985447168
 31
0.0
  0
LINE
  5
4F136
330
1F
100
AcDbEntity
  8
freecads.com
100
AcDbLine
 10
105018.0693295297
 20
95052.42985447168
 30
0.0
 11
105018.0679577639
 21
95052.42842966357
 31
0.0
  0
LINE
  5
4F137
330
1F
100
AcDbEntity
  8
freecads.com
100
AcDbLine
 10
105018.0679577639
 20
95052.42842966357
 30
0.0
 11
105018.0665528394
 21
95052.42690887703
 31
0.0
  0
LINE
  5
4F138
330
1F
100
AcDbEntity
  8
freecads.com
100
AcDbLine
 10
105018.0665528394
 20
95052.42690887703
 30
0.0
 11
105018.0651701194
 21
95052.42526751576
 31
0.0
  0
LINE
  5
4F139
330
1F
100
AcDbEntity
  8
freecads.com
100
AcDbLine
 10
105018.0651701194
 20
95052.42526751576
 30
0.0
 11
105018.0638649668
 21
95052.42348098343
 31
0.0
  0
LINE
  5
4F13A
330
1F
100
AcDbEntity
  8
freecads.com
100
AcDbLine
 10
105018.0638649668
 20
95052.42348098343
 30
0.0
 11
105018.0626927449
 21
95052.42152468369
 31
0.0
  0
LINE
  5
4F13B
330
1F
100
AcDbEntity
  8
freecads.com
100
AcDbLine
 10
105018.0626927449
 20
95052.42152468369
 30
0.0
 11
105018.0616953382
 21
95052.41938902182
 31
0.0
  0
LINE
  5
4F13C
330
1F
100
AcDbEntity
  8
freecads.com
100
AcDbLine
 10
105018.0616953382
 20
95052.41938902182
 30
0.0
 11
105018.0608607171
 21
95052.41712440941
 31
0.0
  0
LINE
  5
4F13D
330
1F
100
AcDbEntity
  8
freecads.com
100
AcDbLine
 10
105018.0608607171
 20
95052.41712440941
 30
0.0
 11
105018.0601633737
 21
95052.41479625972
 31
0.0
  0
LINE
  5
4F13E
330
1F
100
AcDbEntity
  8
freecads.com
100
AcDbLine
 10
105018.0601633737
 20
95052.41479625972
 30
0.0
 11
105018.0595777999
 21
95052.41246998593
 31
0.0
  0
LINE
  5
4F13F
330
1F
100
AcDbEntity
  8
freecads.com
100
AcDbLine
 10
105018.0595777999
 20
95052.41246998593
 30
0.0
 11
105018.0590784876
 21
95052.41021100127
 31
0.0
  0
LINE
  5
4F140
330
1F
100
AcDbEntity
  8
freecads.com
100
AcDbLine
 10
105018.0590784876
 20
95052.41021100127
 30
0.0
 11
105018.0586399289
 21
95052.40808471894
 31
0.0
  0
LINE
  5
4F141
330
1F
100
AcDbEntity
  8
freecads.com
100
AcDbLine
 10
105018.0586399289
 20
95052.40808471894
 30
0.0
 11
105018.0582366157
 21
95052.40615655218
 31
0.0
  0
LINE
  5
4F142
330
1F
100
AcDbEntity
  8
freecads.com
100
AcDbLine
 10
105018.0582366157
 20
95052.40615655218
 30
0.0
 11
105018.0578430399
 21
95052.40449191417
 31
0.0
  0
LINE
  5
4F143
330
1F
100
AcDbEntity
  8
freecads.com
100
AcDbLine
 10
105018.0578430399
 20
95052.40449191417
 30
0.0
 11
105018.0574414061
 21
95052.40313441362
 31
0.0
  0
LINE
  5
4F144
330
1F
100
AcDbEntity
  8
freecads.com
100
AcDbLine
 10
105018.0574414061
 20
95052.40313441362
 30
0.0
 11
105018.0570447687
 21
95052.40204044117
 31
0.0
  0
LINE
  5
4F145
330
1F
100
AcDbEntity
  8
freecads.com
100
AcDbLine
 10
105018.0570447687
 20
95052.40204044117
 30
0.0
 11
105018.0566738947
 21
95052.40114458294
 31
0.0
  0
LINE
  5
4F146
330
1F
100
AcDbEntity
  8
freecads.com
100
AcDbLine
 10
105018.0566738947
 20
95052.40114458294
 30
0.0
 11
105018.0563495511
 21
95052.40038142506
 31
0.0
  0
LINE
  5
4F147
330
1F
100
AcDbEntity
  8
freecads.com
100
AcDbLine
 10
105018.0563495511
 20
95052.40038142506
 30
0.0
 11
105018.0560925048
 21
95052.39968555365
 31
0.0
  0
LINE
  5
4F148
330
1F
100
AcDbEntity
  8
freecads.com
100
AcDbLine
 10
105018.0560925048
 20
95052.39968555365
 30
0.0
 11
105018.0559235229
 21
95052.39899155483
 31
0.0
  0
LINE
  5
4F149
330
1F
100
AcDbEntity
  8
freecads.com
100
AcDbLine
 10
105018.0559235229
 20
95052.39899155483
 30
0.0
 11
105018.0558633724
 21
95052.39823401472
 31
0.0
  0
LINE
  5
4F14A
330
1F
100
AcDbEntity
  8
freecads.com
100
AcDbLine
 10
105018.0558633724
 20
95052.39823401472
 30
0.0
 11
105018.0559328202
 21
95052.39734751947
 31
0.0
  0
LINE
  5
4F14B
330
1F
100
AcDbEntity
  8
freecads.com
100
AcDbLine
 10
105018.0559328202
 20
95052.39734751947
 30
0.0
 11
105018.0561353968
 21
95052.39625651753
 31
0.0
  0
LINE
  5
4F14C
330
1F
100
AcDbEntity
  8
freecads.com
100
AcDbLine
 10
105018.0561353968
 20
95052.39625651753
 30
0.0
 11
105018.0564056872
 21
95052.39484490692
 31
0.0
  0
LINE
  5
4F14D
330
1F
100
AcDbEntity
  8
freecads.com
100
AcDbLine
 10
105018.0564056872
 20
95052.39484490692
 30
0.0
 11
105018.0566610395
 21
95052.39298644799
 31
0.0
  0
LINE
  5
4F14E
330
1F
100
AcDbEntity
  8
freecads.com
100
AcDbLine
 10
105018.0566610395
 20
95052.39298644799
 30
0.0
 11
105018.0568188023
 21
95052.39055490108
 31
0.0
  0
LINE
  5
4F14F
330
1F
100
AcDbEntity
  8
freecads.com
100
AcDbLine
 10
105018.0568188023
 20
95052.39055490108
 30
0.0
 11
105018.0567963238
 21
95052.38742402656
 31
0.0
  0
LINE
  5
4F150
330
1F
100
AcDbEntity
  8
freecads.com
100
AcDbLine
 10
105018.0567963238
 20
95052.38742402656
 30
0.0
 11
105018.0565109524
 21
95052.38346758478
 31
0.0
  0
LINE
  5
4F151
330
1F
100
AcDbEntity
  8
freecads.com
100
AcDbLine
 10
105018.0565109524
 20
95052.38346758478
 30
0.0
 11
105018.0558800365
 21
95052.37855933609
 31
0.0
  0
LINE
  5
4F152
330
1F
100
AcDbEntity
  8
freecads.com
100
AcDbLine
 10
105018.0558800365
 20
95052.37855933609
 30
0.0
 11
105018.0548209244
 21
95052.37257304086
 31
0.0
  0
LINE
  5
4F153
330
1F
100
AcDbEntity
  8
freecads.com
100
AcDbLine
 10
105018.0548209244
 20
95052.37257304086
 30
0.0
 11
105018.0532266209
 21
95052.36541223025
 31
0.0
  0
LINE
  5
4F154
330
1F
100
AcDbEntity
  8
freecads.com
100
AcDbLine
 10
105018.0532266209
 20
95052.36541223025
 30
0.0
 11
105018.0508927564
 21
95052.35709951879
 31
0.0
  0
LINE
  5
4F155
330
1F
100
AcDbEntity
  8
freecads.com
100
AcDbLine
 10
105018.0508927564
 20
95052.35709951879
 30
0.0
 11
105018.0475906175
 21
95052.34768729177
 31
0.0
  0
LINE
  5
4F156
330
1F
100
AcDbEntity
  8
freecads.com
100
AcDbLine
 10
105018.0475906175
 20
95052.34768729177
 30
0.0
 11
105018.043091491
 21
95052.33722793454
 31
0.0
  0
LINE
  5
4F157
330
1F
100
AcDbEntity
  8
freecads.com
100
AcDbLine
 10
105018.043091491
 20
95052.33722793454
 30
0.0
 11
105018.0371666636
 21
95052.32577383239
 31
0.0
  0
LINE
  5
4F158
330
1F
100
AcDbEntity
  8
freecads.com
100
AcDbLine
 10
105018.0371666636
 20
95052.32577383239
 30
0.0
 11
105018.029587422
 21
95052.31337737066
 31
0.0
  0
LINE
  5
4F159
330
1F
100
AcDbEntity
  8
freecads.com
100
AcDbLine
 10
105018.029587422
 20
95052.31337737066
 30
0.0
 11
105018.020125053
 21
95052.30009093468
 31
0.0
  0
LINE
  5
4F15A
330
1F
100
AcDbEntity
  8
freecads.com
100
AcDbLine
 10
105018.020125053
 20
95052.30009093468
 30
0.0
 11
105018.0085508433
 21
95052.28596690974
 31
0.0
  0
LINE
  5
4F15B
330
1F
100
AcDbEntity
  8
freecads.com
100
AcDbLine
 10
105018.0085508433
 20
95052.28596690974
 30
0.0
 11
105017.9947480285
 21
95052.27109647572
 31
0.0
  0
LINE
  5
4F15C
330
1F
100
AcDbEntity
  8
freecads.com
100
AcDbLine
 10
105017.9947480285
 20
95052.27109647572
 30
0.0
 11
105017.97904764
 21
95052.25572599064
 31
0.0
  0
LINE
  5
4F15D
330
1F
100
AcDbEntity
  8
freecads.com
100
AcDbLine
 10
105017.97904764
 20
95052.25572599064
 30
0.0
 11
105017.961892658
 21
95052.24014060706
 31
0.0
  0
LINE
  5
4F15E
330
1F
100
AcDbEntity
  8
freecads.com
100
AcDbLine
 10
105017.961892658
 20
95052.24014060706
 30
0.0
 11
105017.9437260626
 21
95052.22462547751
 31
0.0
  0
LINE
  5
4F15F
330
1F
100
AcDbEntity
  8
freecads.com
100
AcDbLine
 10
105017.9437260626
 20
95052.22462547751
 30
0.0
 11
105017.9249908342
 21
95052.20946575457
 31
0.0
  0
LINE
  5
4F160
330
1F
100
AcDbEntity
  8
freecads.com
100
AcDbLine
 10
105017.9249908342
 20
95052.20946575457
 30
0.0
 11
105017.9061299529
 21
95052.19494659078
 31
0.0
  0
LINE
  5
4F161
330
1F
100
AcDbEntity
  8
freecads.com
100
AcDbLine
 10
105017.9061299529
 20
95052.19494659078
 30
0.0
 11
105017.887586399
 21
95052.18135313869
 31
0.0
  0
LINE
  5
4F162
330
1F
100
AcDbEntity
  8
freecads.com
100
AcDbLine
 10
105017.887586399
 20
95052.18135313869
 30
0.0
 11
105017.8698031527
 21
95052.16897055086
 31
0.0
  0
LINE
  5
4F163
330
1F
100
AcDbEntity
  8
freecads.com
100
AcDbLine
 10
105017.8698031527
 20
95052.16897055086
 30
0.0
 11
105017.8531520903
 21
95052.15802130862
 31
0.0
  0
LINE
  5
4F164
330
1F
100
AcDbEntity
  8
freecads.com
100
AcDbLine
 10
105017.8531520903
 20
95052.15802130862
 30
0.0
 11
105017.8377206719
 21
95052.14847720839
 31
0.0
  0
LINE
  5
4F165
330
1F
100
AcDbEntity
  8
freecads.com
100
AcDbLine
 10
105017.8377206719
 20
95052.14847720839
 30
0.0
 11
105017.823525254
 21
95052.14024737535
 31
0.0
  0
LINE
  5
4F166
330
1F
100
AcDbEntity
  8
freecads.com
100
AcDbLine
 10
105017.823525254
 20
95052.14024737535
 30
0.0
 11
105017.8105821928
 21
95052.13324093471
 31
0.0
  0
LINE
  5
4F167
330
1F
100
AcDbEntity
  8
freecads.com
100
AcDbLine
 10
105017.8105821928
 20
95052.13324093471
 30
0.0
 11
105017.7989078447
 21
95052.12736701164
 31
0.0
  0
LINE
  5
4F168
330
1F
100
AcDbEntity
  8
freecads.com
100
AcDbLine
 10
105017.7989078447
 20
95052.12736701164
 30
0.0
 11
105017.7885185658
 21
95052.12253473134
 31
0.0
  0
LINE
  5
4F169
330
1F
100
AcDbEntity
  8
freecads.com
100
AcDbLine
 10
105017.7885185658
 20
95052.12253473134
 30
0.0
 11
105017.7794307126
 21
95052.11865321898
 31
0.0
  0
LINE
  5
4F16A
330
1F
100
AcDbEntity
  8
freecads.com
100
AcDbLine
 10
105017.7794307126
 20
95052.11865321898
 30
0.0
 11
105017.7716606413
 21
95052.11563159981
 31
0.0
  0
LINE
  5
4F16B
330
1F
100
AcDbEntity
  8
freecads.com
100
AcDbLine
 10
105017.7716606413
 20
95052.11563159981
 30
0.0
 11
105017.7651490042
 21
95052.1133197521
 31
0.0
  0
LINE
  5
4F16C
330
1F
100
AcDbEntity
  8
freecads.com
100
AcDbLine
 10
105017.7651490042
 20
95052.1133197521
 30
0.0
 11
105017.7595336377
 21
95052.11133056681
 31
0.0
  0
LINE
  5
4F16D
330
1F
100
AcDbEntity
  8
freecads.com
100
AcDbLine
 10
105017.7595336377
 20
95052.11133056681
 30
0.0
 11
105017.754376674
 21
95052.10921768798
 31
0.0
  0
LINE
  5
4F16E
330
1F
100
AcDbEntity
  8
freecads.com
100
AcDbLine
 10
105017.754376674
 20
95052.10921768798
 30
0.0
 11
105017.7492402455
 21
95052.1065347597
 31
0.0
  0
LINE
  5
4F16F
330
1F
100
AcDbEntity
  8
freecads.com
100
AcDbLine
 10
105017.7492402455
 20
95052.1065347597
 30
0.0
 11
105017.7436864844
 21
95052.10283542599
 31
0.0
  0
LINE
  5
4F170
330
1F
100
AcDbEntity
  8
freecads.com
100
AcDbLine
 10
105017.7436864844
 20
95052.10283542599
 30
0.0
 11
105017.7372775232
 21
95052.09767333095
 31
0.0
  0
LINE
  5
4F171
330
1F
100
AcDbEntity
  8
freecads.com
100
AcDbLine
 10
105017.7372775232
 20
95052.09767333095
 30
0.0
 11
105017.7295754941
 21
95052.09060211864
 31
0.0
  0
LINE
  5
4F172
330
1F
100
AcDbEntity
  8
freecads.com
100
AcDbLine
 10
105017.7295754941
 20
95052.09060211864
 30
0.0
 11
105017.7201425295
 21
95052.08117543313
 31
0.0
  0
LINE
  5
4F173
330
1F
100
AcDbEntity
  8
freecads.com
100
AcDbLine
 10
105018.5904232243
 20
95052.38879918085
 30
0.0
 11
105018.5621409186
 21
95052.38886809907
 31
0.0
  0
LINE
  5
4F174
330
1F
100
AcDbEntity
  8
freecads.com
100
AcDbLine
 10
105018.5621409186
 20
95052.38886809907
 30
0.0
 11
105018.5369803084
 21
95052.38763081068
 31
0.0
  0
LINE
  5
4F175
330
1F
100
AcDbEntity
  8
freecads.com
100
AcDbLine
 10
105018.5369803084
 20
95052.38763081068
 30
0.0
 11
105018.5144005886
 21
95052.38543781997
 31
0.0
  0
LINE
  5
4F176
330
1F
100
AcDbEntity
  8
freecads.com
100
AcDbLine
 10
105018.5144005886
 20
95052.38543781997
 30
0.0
 11
105018.493860954
 21
95052.38263963123
 31
0.0
  0
LINE
  5
4F177
330
1F
100
AcDbEntity
  8
freecads.com
100
AcDbLine
 10
105018.493860954
 20
95052.38263963123
 30
0.0
 11
105018.4748205992
 21
95052.37958674879
 31
0.0
  0
LINE
  5
4F178
330
1F
100
AcDbEntity
  8
freecads.com
100
AcDbLine
 10
105018.4748205992
 20
95052.37958674879
 30
0.0
 11
105018.4567387192
 21
95052.3766296769
 31
0.0
  0
LINE
  5
4F179
330
1F
100
AcDbEntity
  8
freecads.com
100
AcDbLine
 10
105018.4567387192
 20
95052.3766296769
 30
0.0
 11
105018.4390745086
 21
95052.37411891991
 31
0.0
  0
LINE
  5
4F17A
330
1F
100
AcDbEntity
  8
freecads.com
100
AcDbLine
 10
105018.4390745086
 20
95052.37411891991
 30
0.0
 11
105018.4212871622
 21
95052.3724049821
 31
0.0
  0
LINE
  5
4F17B
330
1F
100
AcDbEntity
  8
freecads.com
100
AcDbLine
 10
105018.4212871622
 20
95052.3724049821
 30
0.0
 11
105018.4029403326
 21
95052.3717413284
 31
0.0
  0
LINE
  5
4F17C
330
1F
100
AcDbEntity
  8
freecads.com
100
AcDbLine
 10
105018.4029403326
 20
95052.3717413284
 30
0.0
 11
105018.3840155033
 21
95052.37199326614
 31
0.0
  0
LINE
  5
4F17D
330
1F
100
AcDbEntity
  8
freecads.com
100
AcDbLine
 10
105018.3840155033
 20
95052.37199326614
 30
0.0
 11
105018.3645986157
 21
95052.37292906334
 31
0.0
  0
LINE
  5
4F17E
330
1F
100
AcDbEntity
  8
freecads.com
100
AcDbLine
 10
105018.3645986157
 20
95052.37292906334
 30
0.0
 11
105018.3447756114
 21
95052.37431698796
 31
0.0
  0
LINE
  5
4F17F
330
1F
100
AcDbEntity
  8
freecads.com
100
AcDbLine
 10
105018.3447756114
 20
95052.37431698796
 30
0.0
 11
105018.3246324317
 21
95052.37592530798
 31
0.0
  0
LINE
  5
4F180
330
1F
100
AcDbEntity
  8
freecads.com
100
AcDbLine
 10
105018.3246324317
 20
95052.37592530798
 30
0.0
 11
105018.3042550179
 21
95052.37752229135
 31
0.0
  0
LINE
  5
4F181
330
1F
100
AcDbEntity
  8
freecads.com
100
AcDbLine
 10
105018.3042550179
 20
95052.37752229135
 30
0.0
 11
105018.2837293115
 21
95052.37887620609
 31
0.0
  0
LINE
  5
4F182
330
1F
100
AcDbEntity
  8
freecads.com
100
AcDbLine
 10
105018.2837293115
 20
95052.37887620609
 30
0.0
 11
105018.2631412539
 21
95052.37975532015
 31
0.0
  0
LINE
  5
4F183
330
1F
100
AcDbEntity
  8
freecads.com
100
AcDbLine
 10
105018.2631412539
 20
95052.37975532015
 30
0.0
 11
105018.2426058695
 21
95052.37999149789
 31
0.0
  0
LINE
  5
4F184
330
1F
100
AcDbEntity
  8
freecads.com
100
AcDbLine
 10
105018.2426058695
 20
95052.37999149789
 30
0.0
 11
105018.2223545144
 21
95052.37967098917
 31
0.0
  0
LINE
  5
4F185
330
1F
100
AcDbEntity
  8
freecads.com
100
AcDbLine
 10
105018.2223545144
 20
95052.37967098917
 30
0.0
 11
105018.2026476277
 21
95052.37894364025
 31
0.0
  0
LINE
  5
4F186
330
1F
100
AcDbEntity
  8
freecads.com
100
AcDbLine
 10
105018.2026476277
 20
95052.37894364025
 30
0.0
 11
105018.1837456487
 21
95052.37795929737
 31
0.0
  0
LINE
  5
4F187
330
1F
100
AcDbEntity
  8
freecads.com
100
AcDbLine
 10
105018.1837456487
 20
95052.37795929737
 30
0.0
 11
105018.1659090162
 21
95052.37686780674
 31
0.0
  0
LINE
  5
4F188
330
1F
100
AcDbEntity
  8
freecads.com
100
AcDbLine
 10
105018.1659090162
 20
95052.37686780674
 30
0.0
 11
105018.1493981696
 21
95052.37581901464
 31
0.0
  0
LINE
  5
4F189
330
1F
100
AcDbEntity
  8
freecads.com
100
AcDbLine
 10
105018.1493981696
 20
95052.37581901464
 30
0.0
 11
105018.134473548
 21
95052.37496276729
 31
0.0
  0
LINE
  5
4F18A
330
1F
100
AcDbEntity
  8
freecads.com
100
AcDbLine
 10
105018.134473548
 20
95052.37496276729
 30
0.0
 11
105018.1213955903
 21
95052.37444891093
 31
0.0
  0
LINE
  5
4F18B
330
1F
100
AcDbEntity
  8
freecads.com
100
AcDbLine
 10
105018.1213955903
 20
95052.37444891093
 30
0.0
 11
105018.1103539794
 21
95052.3743898856
 31
0.0
  0
LINE
  5
4F18C
330
1F
100
AcDbEntity
  8
freecads.com
100
AcDbLine
 10
105018.1103539794
 20
95052.3743898856
 30
0.0
 11
105018.1012553724
 21
95052.37474850641
 31
0.0
  0
LINE
  5
4F18D
330
1F
100
AcDbEntity
  8
freecads.com
100
AcDbLine
 10
105018.1012553724
 20
95052.37474850641
 30
0.0
 11
105018.0939356697
 21
95052.37545018228
 31
0.0
  0
LINE
  5
4F18E
330
1F
100
AcDbEntity
  8
freecads.com
100
AcDbLine
 10
105018.0939356697
 20
95052.37545018228
 30
0.0
 11
105018.0882307721
 21
95052.37642032213
 31
0.0
  0
LINE
  5
4F18F
330
1F
100
AcDbEntity
  8
freecads.com
100
AcDbLine
 10
105018.0882307721
 20
95052.37642032213
 30
0.0
 11
105018.0839765801
 21
95052.37758433489
 31
0.0
  0
LINE
  5
4F190
330
1F
100
AcDbEntity
  8
freecads.com
100
AcDbLine
 10
105018.0839765801
 20
95052.37758433489
 30
0.0
 11
105018.0810089944
 21
95052.37886762943
 31
0.0
  0
LINE
  5
4F191
330
1F
100
AcDbEntity
  8
freecads.com
100
AcDbLine
 10
105018.0810089944
 20
95052.37886762943
 30
0.0
 11
105018.0791639156
 21
95052.38019561472
 31
0.0
  0
LINE
  5
4F192
330
1F
100
AcDbEntity
  8
freecads.com
100
AcDbLine
 10
105018.0791639156
 20
95052.38019561472
 30
0.0
 11
105018.0782772444
 21
95052.38149369962
 31
0.0
  0
LINE
  5
4F193
330
1F
100
AcDbEntity
  8
freecads.com
100
AcDbLine
 10
105018.0782772444
 20
95052.38149369962
 30
0.0
 11
105018.0782117845
 21
95052.38272016654
 31
0.0
  0
LINE
  5
4F194
330
1F
100
AcDbEntity
  8
freecads.com
100
AcDbLine
 10
105018.0782117845
 20
95052.38272016654
 30
0.0
 11
105018.0789379525
 21
95052.38396479162
 31
0.0
  0
LINE
  5
4F195
330
1F
100
AcDbEntity
  8
freecads.com
100
AcDbLine
 10
105018.0789379525
 20
95052.38396479162
 30
0.0
 11
105018.0804530683
 21
95052.38535022451
 31
0.0
  0
LINE
  5
4F196
330
1F
100
AcDbEntity
  8
freecads.com
100
AcDbLine
 10
105018.0804530683
 20
95052.38535022451
 30
0.0
 11
105018.0827544515
 21
95052.38699911483
 31
0.0
  0
LINE
  5
4F197
330
1F
100
AcDbEntity
  8
freecads.com
100
AcDbLine
 10
105018.0827544515
 20
95052.38699911483
 30
0.0
 11
105018.0858394221
 21
95052.38903411219
 31
0.0
  0
LINE
  5
4F198
330
1F
100
AcDbEntity
  8
freecads.com
100
AcDbLine
 10
105018.0858394221
 20
95052.38903411219
 30
0.0
 11
105018.0897052998
 21
95052.39157786625
 31
0.0
  0
LINE
  5
4F199
330
1F
100
AcDbEntity
  8
freecads.com
100
AcDbLine
 10
105018.0897052998
 20
95052.39157786625
 30
0.0
 11
105018.0943494043
 21
95052.3947530266
 31
0.0
  0
LINE
  5
4F19A
330
1F
100
AcDbEntity
  8
freecads.com
100
AcDbLine
 10
105018.0943494043
 20
95052.3947530266
 30
0.0
 11
105018.0997690556
 21
95052.3986822429
 31
0.0
  0
LINE
  5
4F19B
330
1F
100
AcDbEntity
  8
freecads.com
100
AcDbLine
 10
105018.0997690556
 20
95052.3986822429
 30
0.0
 11
105018.1059655404
 21
95052.40343798776
 31
0.0
  0
LINE
  5
4F19C
330
1F
100
AcDbEntity
  8
freecads.com
100
AcDbLine
 10
105018.1059655404
 20
95052.40343798776
 30
0.0
 11
105018.1129560144
 21
95052.40889202591
 31
0.0
  0
LINE
  5
4F19D
330
1F
100
AcDbEntity
  8
freecads.com
100
AcDbLine
 10
105018.1129560144
 20
95052.40889202591
 30
0.0
 11
105018.1207616002
 21
95052.41486594501
 31
0.0
  0
LINE
  5
4F19E
330
1F
100
AcDbEntity
  8
freecads.com
100
AcDbLine
 10
105018.1207616002
 20
95052.41486594501
 30
0.0
 11
105018.1294034207
 21
95052.4211813328
 31
0.0
  0
LINE
  5
4F19F
330
1F
100
AcDbEntity
  8
freecads.com
100
AcDbLine
 10
105018.1294034207
 20
95052.4211813328
 30
0.0
 11
105018.1389025985
 21
95052.42765977694
 31
0.0
  0
LINE
  5
4F1A0
330
1F
100
AcDbEntity
  8
freecads.com
100
AcDbLine
 10
105018.1389025985
 20
95052.42765977694
 30
0.0
 11
105018.1492802563
 21
95052.43412286519
 31
0.0
  0
LINE
  5
4F1A1
330
1F
100
AcDbEntity
  8
freecads.com
100
AcDbLine
 10
105018.1492802563
 20
95052.43412286519
 30
0.0
 11
105018.1605575168
 21
95052.44039218522
 31
0.0
  0
LINE
  5
4F1A2
330
1F
100
AcDbEntity
  8
freecads.com
100
AcDbLine
 10
105018.1605575168
 20
95052.44039218522
 30
0.0
 11
105018.1727555028
 21
95052.44628932473
 31
0.0
  0
LINE
  5
4F1A3
330
1F
100
AcDbEntity
  8
freecads.com
100
AcDbLine
 10
105018.1727555028
 20
95052.44628932473
 30
0.0
 11
105018.1859005507
 21
95052.45165391723
 31
0.0
  0
LINE
  5
4F1A4
330
1F
100
AcDbEntity
  8
freecads.com
100
AcDbLine
 10
105018.1859005507
 20
95052.45165391723
 30
0.0
 11
105018.2000398524
 21
95052.45639777939
 31
0.0
  0
LINE
  5
4F1A5
330
1F
100
AcDbEntity
  8
freecads.com
100
AcDbLine
 10
105018.2000398524
 20
95052.45639777939
 30
0.0
 11
105018.2152258134
 21
95052.46045077367
 31
0.0
  0
LINE
  5
4F1A6
330
1F
100
AcDbEntity
  8
freecads.com
100
AcDbLine
 10
105018.2152258134
 20
95052.46045077367
 30
0.0
 11
105018.2315108392
 21
95052.46374276254
 31
0.0
  0
LINE
  5
4F1A7
330
1F
100
AcDbEntity
  8
freecads.com
100
AcDbLine
 10
105018.2315108392
 20
95052.46374276254
 30
0.0
 11
105018.2489473354
 21
95052.46620360843
 31
0.0
  0
LINE
  5
4F1A8
330
1F
100
AcDbEntity
  8
freecads.com
100
AcDbLine
 10
105018.2489473354
 20
95052.46620360843
 30
0.0
 11
105018.2675877074
 21
95052.46776317383
 31
0.0
  0
LINE
  5
4F1A9
330
1F
100
AcDbEntity
  8
freecads.com
100
AcDbLine
 10
105018.2675877074
 20
95052.46776317383
 30
0.0
 11
105018.287484361
 21
95052.46835132121
 31
0.0
  0
LINE
  5
4F1AA
330
1F
100
AcDbEntity
  8
freecads.com
100
AcDbLine
 10
105018.287484361
 20
95052.46835132121
 30
0.0
 11
105018.3086897016
 21
95052.46789791302
 31
0.0
  0
LINE
  5
4F1AB
330
1F
100
AcDbEntity
  8
freecads.com
100
AcDbLine
 10
105018.3086897016
 20
95052.46789791302
 30
0.0
 11
105018.3311664539
 21
95052.46637040718
 31
0.0
  0
LINE
  5
4F1AC
330
1F
100
AcDbEntity
  8
freecads.com
100
AcDbLine
 10
105018.3311664539
 20
95052.46637040718
 30
0.0
 11
105018.3545186196
 21
95052.46388664341
 31
0.0
  0
LINE
  5
4F1AD
330
1F
100
AcDbEntity
  8
freecads.com
100
AcDbLine
 10
105018.3545186196
 20
95052.46388664341
 30
0.0
 11
105018.3782605194
 21
95052.46060205696
 31
0.0
  0
LINE
  5
4F1AE
330
1F
100
AcDbEntity
  8
freecads.com
100
AcDbLine
 10
105018.3782605194
 20
95052.46060205696
 30
0.0
 11
105018.401906474
 21
95052.45667208296
 31
0.0
  0
LINE
  5
4F1AF
330
1F
100
AcDbEntity
  8
freecads.com
100
AcDbLine
 10
105018.401906474
 20
95052.45667208296
 30
0.0
 11
105018.4249708041
 21
95052.45225215665
 31
0.0
  0
LINE
  5
4F1B0
330
1F
100
AcDbEntity
  8
freecads.com
100
AcDbLine
 10
105018.4249708041
 20
95052.45225215665
 30
0.0
 11
105018.4469678306
 21
95052.44749771321
 31
0.0
  0
LINE
  5
4F1B1
330
1F
100
AcDbEntity
  8
freecads.com
100
AcDbLine
 10
105018.4469678306
 20
95052.44749771321
 30
0.0
 11
105018.4674118742
 21
95052.44256418786
 31
0.0
  0
LINE
  5
4F1B2
330
1F
100
AcDbEntity
  8
freecads.com
100
AcDbLine
 10
105018.4674118742
 20
95052.44256418786
 30
0.0
 11
105018.4858172557
 21
95052.43760701576
 31
0.0
  0
LINE
  5
4F1B3
330
1F
100
AcDbEntity
  8
freecads.com
100
AcDbLine
 10
105018.4858172557
 20
95052.43760701576
 30
0.0
 11
105018.501816624
 21
95052.43276207306
 31
0.0
  0
LINE
  5
4F1B4
330
1F
100
AcDbEntity
  8
freecads.com
100
AcDbLine
 10
105018.501816624
 20
95052.43276207306
 30
0.0
 11
105018.515515942
 21
95052.42808699961
 31
0.0
  0
LINE
  5
4F1B5
330
1F
100
AcDbEntity
  8
freecads.com
100
AcDbLine
 10
105018.515515942
 20
95052.42808699961
 30
0.0
 11
105018.5271395006
 21
95052.42361987626
 31
0.0
  0
LINE
  5
4F1B6
330
1F
100
AcDbEntity
  8
freecads.com
100
AcDbLine
 10
105018.5271395006
 20
95052.42361987626
 30
0.0
 11
105018.5369115907
 21
95052.41939878379
 31
0.0
  0
LINE
  5
4F1B7
330
1F
100
AcDbEntity
  8
freecads.com
100
AcDbLine
 10
105018.5369115907
 20
95052.41939878379
 30
0.0
 11
105018.5450565035
 21
95052.415461803
 31
0.0
  0
LINE
  5
4F1B8
330
1F
100
AcDbEntity
  8
freecads.com
100
AcDbLine
 10
105018.5450565035
 20
95052.415461803
 30
0.0
 11
105018.5517985299
 21
95052.41184701471
 31
0.0
  0
LINE
  5
4F1B9
330
1F
100
AcDbEntity
  8
freecads.com
100
AcDbLine
 10
105018.5517985299
 20
95052.41184701471
 30
0.0
 11
105018.5573619609
 21
95052.40859249973
 31
0.0
  0
LINE
  5
4F1BA
330
1F
100
AcDbEntity
  8
freecads.com
100
AcDbLine
 10
105018.5573619609
 20
95052.40859249973
 30
0.0
 11
105018.5619710875
 21
95052.40573633884
 31
0.0
  0
LINE
  5
4F1BB
330
1F
100
AcDbEntity
  8
freecads.com
100
AcDbLine
 10
105018.5619710875
 20
95052.40573633884
 30
0.0
 11
105018.565828053
 21
95052.40330185563
 31
0.0
  0
LINE
  5
4F1BC
330
1F
100
AcDbEntity
  8
freecads.com
100
AcDbLine
 10
105018.565828053
 20
95052.40330185563
 30
0.0
 11
105018.56904641
 21
95052.40125334468
 31
0.0
  0
LINE
  5
4F1BD
330
1F
100
AcDbEntity
  8
freecads.com
100
AcDbLine
 10
105018.56904641
 20
95052.40125334468
 30
0.0
 11
105018.571717563
 21
95052.39954034335
 31
0.0
  0
LINE
  5
4F1BE
330
1F
100
AcDbEntity
  8
freecads.com
100
AcDbLine
 10
105018.571717563
 20
95052.39954034335
 30
0.0
 11
105018.5739329169
 21
95052.39811238897
 31
0.0
  0
LINE
  5
4F1BF
330
1F
100
AcDbEntity
  8
freecads.com
100
AcDbLine
 10
105018.5739329169
 20
95052.39811238897
 30
0.0
 11
105018.5757838764
 21
95052.39691901891
 31
0.0
  0
LINE
  5
4F1C0
330
1F
100
AcDbEntity
  8
freecads.com
100
AcDbLine
 10
105018.5757838764
 20
95052.39691901891
 30
0.0
 11
105018.5773618462
 21
95052.39590977049
 31
0.0
  0
LINE
  5
4F1C1
330
1F
100
AcDbEntity
  8
freecads.com
100
AcDbLine
 10
105018.5773618462
 20
95052.39590977049
 30
0.0
 11
105018.5787582312
 21
95052.39503418108
 31
0.0
  0
LINE
  5
4F1C2
330
1F
100
AcDbEntity
  8
freecads.com
100
AcDbLine
 10
105018.5787582312
 20
95052.39503418108
 30
0.0
 11
105018.580064436
 21
95052.39424178803
 31
0.0
  0
LINE
  5
4F1C3
330
1F
100
AcDbEntity
  8
freecads.com
100
AcDbLine
 10
105018.580064436
 20
95052.39424178803
 30
0.0
 11
105018.5813529103
 21
95052.39349076989
 31
0.0
  0
LINE
  5
4F1C4
330
1F
100
AcDbEntity
  8
freecads.com
100
AcDbLine
 10
105018.5813529103
 20
95052.39349076989
 30
0.0
 11
105018.5826202838
 21
95052.39277387012
 31
0.0
  0
LINE
  5
4F1C5
330
1F
100
AcDbEntity
  8
freecads.com
100
AcDbLine
 10
105018.5826202838
 20
95052.39277387012
 30
0.0
 11
105018.5838442309
 21
95052.3920924734
 31
0.0
  0
LINE
  5
4F1C6
330
1F
100
AcDbEntity
  8
freecads.com
100
AcDbLine
 10
105018.5838442309
 20
95052.3920924734
 30
0.0
 11
105018.5850024262
 21
95052.39144796437
 31
0.0
  0
LINE
  5
4F1C7
330
1F
100
AcDbEntity
  8
freecads.com
100
AcDbLine
 10
105018.5850024262
 20
95052.39144796437
 30
0.0
 11
105018.5860725443
 21
95052.39084172771
 31
0.0
  0
LINE
  5
4F1C8
330
1F
100
AcDbEntity
  8
freecads.com
100
AcDbLine
 10
105018.5860725443
 20
95052.39084172771
 30
0.0
 11
105018.5870322596
 21
95052.39027514811
 31
0.0
  0
LINE
  5
4F1C9
330
1F
100
AcDbEntity
  8
freecads.com
100
AcDbLine
 10
105018.5870322596
 20
95052.39027514811
 30
0.0
 11
105018.5878592466
 21
95052.3897496102
 31
0.0
  0
LINE
  5
4F1CA
330
1F
100
AcDbEntity
  8
freecads.com
100
AcDbLine
 10
105018.5878592466
 20
95052.3897496102
 30
0.0
 11
105018.58853118
 21
95052.38926649868
 31
0.0
  0
LINE
  5
4F1CB
330
1F
100
AcDbEntity
  8
freecads.com
100
AcDbLine
 10
105018.58853118
 20
95052.38926649868
 30
0.0
 11
105018.5890292761
 21
95052.38882427869
 31
0.0
  0
LINE
  5
4F1CC
330
1F
100
AcDbEntity
  8
freecads.com
100
AcDbLine
 10
105018.5890292761
 20
95052.38882427869
 30
0.0
 11
105018.5893489188
 21
95052.38840973737
 31
0.0
  0
LINE
  5
4F1CD
330
1F
100
AcDbEntity
  8
freecads.com
100
AcDbLine
 10
105018.5893489188
 20
95052.38840973737
 30
0.0
 11
105018.5894890338
 21
95052.38800674231
 31
0.0
  0
LINE
  5
4F1CE
330
1F
100
AcDbEntity
  8
freecads.com
100
AcDbLine
 10
105018.5894890338
 20
95052.38800674231
 30
0.0
 11
105018.5894485468
 21
95052.38759916109
 31
0.0
  0
LINE
  5
4F1CF
330
1F
100
AcDbEntity
  8
freecads.com
100
AcDbLine
 10
105018.5894485468
 20
95052.38759916109
 30
0.0
 11
105018.5892263837
 21
95052.38717086136
 31
0.0
  0
LINE
  5
4F1D0
330
1F
100
AcDbEntity
  8
freecads.com
100
AcDbLine
 10
105018.5892263837
 20
95052.38717086136
 30
0.0
 11
105018.5888214702
 21
95052.3867057107
 31
0.0
  0
LINE
  5
4F1D1
330
1F
100
AcDbEntity
  8
freecads.com
100
AcDbLine
 10
105018.5888214702
 20
95052.3867057107
 30
0.0
 11
105018.588232732
 21
95052.38618757672
 31
0.0
  0
LINE
  5
4F1D2
330
1F
100
AcDbEntity
  8
freecads.com
100
AcDbLine
 10
105018.588232732
 20
95052.38618757672
 30
0.0
 11
105018.5874590948
 21
95052.38560032704
 31
0.0
  0
LINE
  5
4F1D3
330
1F
100
AcDbEntity
  8
freecads.com
100
AcDbLine
 10
105018.5874590948
 20
95052.38560032704
 30
0.0
 11
105018.5865056599
 21
95052.38493211782
 31
0.0
  0
LINE
  5
4F1D4
330
1F
100
AcDbEntity
  8
freecads.com
100
AcDbLine
 10
105018.5865056599
 20
95052.38493211782
 30
0.0
 11
105018.5854022305
 21
95052.38418825957
 31
0.0
  0
LINE
  5
4F1D5
330
1F
100
AcDbEntity
  8
freecads.com
100
AcDbLine
 10
105018.5854022305
 20
95052.38418825957
 30
0.0
 11
105018.5841847852
 21
95052.3833783513
 31
0.0
  0
LINE
  5
4F1D6
330
1F
100
AcDbEntity
  8
freecads.com
100
AcDbLine
 10
105018.5841847852
 20
95052.3833783513
 30
0.0
 11
105018.5828893027
 21
95052.38251199211
 31
0.0
  0
LINE
  5
4F1D7
330
1F
100
AcDbEntity
  8
freecads.com
100
AcDbLine
 10
105018.5828893027
 20
95052.38251199211
 30
0.0
 11
105018.5815517618
 21
95052.38159878102
 31
0.0
  0
LINE
  5
4F1D8
330
1F
100
AcDbEntity
  8
freecads.com
100
AcDbLine
 10
105018.5815517618
 20
95052.38159878102
 30
0.0
 11
105018.5802081411
 21
95052.38064831708
 31
0.0
  0
LINE
  5
4F1D9
330
1F
100
AcDbEntity
  8
freecads.com
100
AcDbLine
 10
105018.5802081411
 20
95052.38064831708
 30
0.0
 11
105018.5788944193
 21
95052.37967019935
 31
0.0
  0
LINE
  5
4F1DA
330
1F
100
AcDbEntity
  8
freecads.com
100
AcDbLine
 10
105018.5788944193
 20
95052.37967019935
 30
0.0
 11
105018.5776465749
 21
95052.37867402691
 31
0.0
  0
LINE
  5
4F1DB
330
1F
100
AcDbEntity
  8
freecads.com
100
AcDbLine
 10
105018.5776465749
 20
95052.37867402691
 30
0.0
 11
105018.5764888314
 21
95052.37767183658
 31
0.0
  0
LINE
  5
4F1DC
330
1F
100
AcDbEntity
  8
freecads.com
100
AcDbLine
 10
105018.5764888314
 20
95052.37767183658
 30
0.0
 11
105018.5753983898
 21
95052.3766854164
 31
0.0
  0
LINE
  5
4F1DD
330
1F
100
AcDbEntity
  8
freecads.com
100
AcDbLine
 10
105018.5753983898
 20
95052.3766854164
 30
0.0
 11
105018.5743406958
 21
95052.37573899226
 31
0.0
  0
LINE
  5
4F1DE
330
1F
100
AcDbEntity
  8
freecads.com
100
AcDbLine
 10
105018.5743406958
 20
95052.37573899226
 30
0.0
 11
105018.5732811951
 21
95052.37485678996
 31
0.0
  0
LINE
  5
4F1DF
330
1F
100
AcDbEntity
  8
freecads.com
100
AcDbLine
 10
105018.5732811951
 20
95052.37485678996
 30
0.0
 11
105018.5721853336
 21
95052.37406303541
 31
0.0
  0
LINE
  5
4F1E0
330
1F
100
AcDbEntity
  8
freecads.com
100
AcDbLine
 10
105018.5721853336
 20
95052.37406303541
 30
0.0
 11
105018.5710185567
 21
95052.3733819544
 31
0.0
  0
LINE
  5
4F1E1
330
1F
100
AcDbEntity
  8
freecads.com
100
AcDbLine
 10
105018.5710185567
 20
95052.3733819544
 30
0.0
 11
105018.5697463104
 21
95052.37283777281
 31
0.0
  0
LINE
  5
4F1E2
330
1F
100
AcDbEntity
  8
freecads.com
100
AcDbLine
 10
105018.5697463104
 20
95052.37283777281
 30
0.0
 11
105018.5683340402
 21
95052.37245471651
 31
0.0
  0
LINE
  5
4F1E3
330
1F
100
AcDbEntity
  8
freecads.com
100
AcDbLine
 10
105018.5683340402
 20
95052.37245471651
 30
0.0
 11
105018.5667563832
 21
95052.3722434781
 31
0.0
  0
LINE
  5
4F1E4
330
1F
100
AcDbEntity
  8
freecads.com
100
AcDbLine
 10
105018.5667563832
 20
95052.3722434781
 30
0.0
 11
105018.5650247416
 21
95052.37216061754
 31
0.0
  0
LINE
  5
4F1E5
330
1F
100
AcDbEntity
  8
freecads.com
100
AcDbLine
 10
105018.5650247416
 20
95052.37216061754
 30
0.0
 11
105018.5631597091
 21
95052.37214916153
 31
0.0
  0
LINE
  5
4F1E6
330
1F
100
AcDbEntity
  8
freecads.com
100
AcDbLine
 10
105018.5631597091
 20
95052.37214916153
 30
0.0
 11
105018.5611818793
 21
95052.3721521368
 31
0.0
  0
LINE
  5
4F1E7
330
1F
100
AcDbEntity
  8
freecads.com
100
AcDbLine
 10
105018.5611818793
 20
95052.3721521368
 30
0.0
 11
105018.5591118458
 21
95052.37211257005
 31
0.0
  0
LINE
  5
4F1E8
330
1F
100
AcDbEntity
  8
freecads.com
100
AcDbLine
 10
105018.5591118458
 20
95052.37211257005
 30
0.0
 11
105018.5569702021
 21
95052.37197348801
 31
0.0
  0
LINE
  5
4F1E9
330
1F
100
AcDbEntity
  8
freecads.com
100
AcDbLine
 10
105018.5569702021
 20
95052.37197348801
 30
0.0
 11
105018.5547775418
 21
95052.37167791742
 31
0.0
  0
LINE
  5
4F1EA
330
1F
100
AcDbEntity
  8
freecads.com
100
AcDbLine
 10
105018.5547775418
 20
95052.37167791742
 30
0.0
 11
105018.5525544587
 21
95052.37116888496
 31
0.0
  0
LINE
  5
4F1EB
330
1F
100
AcDbEntity
  8
freecads.com
100
AcDbLine
 10
105018.5525544587
 20
95052.37116888496
 30
0.0
 11
105018.5503230351
 21
95052.37040952959
 31
0.0
  0
LINE
  5
4F1EC
330
1F
100
AcDbEntity
  8
freecads.com
100
AcDbLine
 10
105018.5503230351
 20
95052.37040952959
 30
0.0
 11
105018.5481113093
 21
95052.36944343911
 31
0.0
  0
LINE
  5
4F1ED
330
1F
100
AcDbEntity
  8
freecads.com
100
AcDbLine
 10
105018.5481113093
 20
95052.36944343911
 30
0.0
 11
105018.5459488086
 21
95052.36833431355
 31
0.0
  0
LINE
  5
4F1EE
330
1F
100
AcDbEntity
  8
freecads.com
100
AcDbLine
 10
105018.5459488086
 20
95052.36833431355
 30
0.0
 11
105018.5438650601
 21
95052.36714585295
 31
0.0
  0
LINE
  5
4F1EF
330
1F
100
AcDbEntity
  8
freecads.com
100
AcDbLine
 10
105018.5438650601
 20
95052.36714585295
 30
0.0
 11
105018.541889591
 21
95052.36594175734
 31
0.0
  0
LINE
  5
4F1F0
330
1F
100
AcDbEntity
  8
freecads.com
100
AcDbLine
 10
105018.541889591
 20
95052.36594175734
 30
0.0
 11
105018.5400519285
 21
95052.36478572671
 31
0.0
  0
LINE
  5
4F1F1
330
1F
100
AcDbEntity
  8
freecads.com
100
AcDbLine
 10
105018.5400519285
 20
95052.36478572671
 30
0.0
 11
105018.5383815998
 21
95052.36374146109
 31
0.0
  0
LINE
  5
4F1F2
330
1F
100
AcDbEntity
  8
freecads.com
100
AcDbLine
 10
105018.5383815998
 20
95052.36374146109
 30
0.0
 11
105018.536908132
 21
95052.36287266056
 31
0.0
  0
LINE
  5
4F1F3
330
1F
100
AcDbEntity
  8
freecads.com
100
AcDbLine
 10
105018.536908132
 20
95052.36287266056
 30
0.0
 11
105018.5356506628
 21
95052.36222236172
 31
0.0
  0
LINE
  5
4F1F4
330
1F
100
AcDbEntity
  8
freecads.com
100
AcDbLine
 10
105018.5356506628
 20
95052.36222236172
 30
0.0
 11
105018.5345867709
 21
95052.36175094783
 31
0.0
  0
LINE
  5
4F1F5
330
1F
100
AcDbEntity
  8
freecads.com
100
AcDbLine
 10
105018.5345867709
 20
95052.36175094783
 30
0.0
 11
105018.5336836457
 21
95052.36139813872
 31
0.0
  0
LINE
  5
4F1F6
330
1F
100
AcDbEntity
  8
freecads.com
100
AcDbLine
 10
105018.5336836457
 20
95052.36139813872
 30
0.0
 11
105018.5329084762
 21
95052.36110365425
 31
0.0
  0
LINE
  5
4F1F7
330
1F
100
AcDbEntity
  8
freecads.com
100
AcDbLine
 10
105018.5329084762
 20
95052.36110365425
 30
0.0
 11
105018.5322284519
 21
95052.36080721427
 31
0.0
  0
LINE
  5
4F1F8
330
1F
100
AcDbEntity
  8
freecads.com
100
AcDbLine
 10
105018.5322284519
 20
95052.36080721427
 30
0.0
 11
105018.5316107618
 21
95052.36044853868
 31
0.0
  0
LINE
  5
4F1F9
330
1F
100
AcDbEntity
  8
freecads.com
100
AcDbLine
 10
105018.5316107618
 20
95052.36044853868
 30
0.0
 11
105018.5310225952
 21
95052.35996734727
 31
0.0
  0
LINE
  5
4F1FA
330
1F
100
AcDbEntity
  8
freecads.com
100
AcDbLine
 10
105018.5310225952
 20
95052.35996734727
 30
0.0
 11
105018.5304311413
 21
95052.35930335995
 31
0.0
  0
LINE
  5
4F1FB
330
1F
100
AcDbEntity
  8
freecads.com
100
AcDbLine
 10
105018.5304311413
 20
95052.35930335995
 30
0.0
 11
105018.5297843398
 21
95052.35840171129
 31
0.0
  0
LINE
  5
4F1FC
330
1F
100
AcDbEntity
  8
freecads.com
100
AcDbLine
 10
105018.5297843398
 20
95052.35840171129
 30
0.0
 11
105018.5289531319
 21
95052.35722919485
 31
0.0
  0
LINE
  5
4F1FD
330
1F
100
AcDbEntity
  8
freecads.com
100
AcDbLine
 10
105018.5289531319
 20
95052.35722919485
 30
0.0
 11
105018.5277892093
 21
95052.35575801894
 31
0.0
  0
LINE
  5
4F1FE
330
1F
100
AcDbEntity
  8
freecads.com
100
AcDbLine
 10
105018.5277892093
 20
95052.35575801894
 30
0.0
 11
105018.5261442636
 21
95052.35396039186
 31
0.0
  0
LINE
  5
4F1FF
330
1F
100
AcDbEntity
  8
freecads.com
100
AcDbLine
 10
105018.5261442636
 20
95052.35396039186
 30
0.0
 11
105018.5238699865
 21
95052.3518085219
 31
0.0
  0
LINE
  5
4F200
330
1F
100
AcDbEntity
  8
freecads.com
100
AcDbLine
 10
105018.5238699865
 20
95052.3518085219
 30
0.0
 11
105018.5208180697
 21
95052.34927461742
 31
0.0
  0
LINE
  5
4F201
330
1F
100
AcDbEntity
  8
freecads.com
100
AcDbLine
 10
105018.5208180697
 20
95052.34927461742
 30
0.0
 11
105018.5168402048
 21
95052.34633088665
 31
0.0
  0
LINE
  5
4F202
330
1F
100
AcDbEntity
  8
freecads.com
100
AcDbLine
 10
105018.5168402048
 20
95052.34633088665
 30
0.0
 11
105018.5117880835
 21
95052.34294953792
 31
0.0
  0
LINE
  5
4F203
330
1F
100
AcDbEntity
  8
freecads.com
100
AcDbLine
 10
105018.5117880835
 20
95052.34294953792
 30
0.0
 11
105018.5055180174
 21
95052.33914095768
 31
0.0
  0
LINE
  5
4F204
330
1F
100
AcDbEntity
  8
freecads.com
100
AcDbLine
 10
105018.5055180174
 20
95052.33914095768
 30
0.0
 11
105018.4979047983
 21
95052.33506824479
 31
0.0
  0
LINE
  5
4F205
330
1F
100
AcDbEntity
  8
freecads.com
100
AcDbLine
 10
105018.4979047983
 20
95052.33506824479
 30
0.0
 11
105018.4888278377
 21
95052.33093267632
 31
0.0
  0
LINE
  5
4F206
330
1F
100
AcDbEntity
  8
freecads.com
100
AcDbLine
 10
105018.4888278377
 20
95052.33093267632
 30
0.0
 11
105018.4781665476
 21
95052.32693552924
 31
0.0
  0
LINE
  5
4F207
330
1F
100
AcDbEntity
  8
freecads.com
100
AcDbLine
 10
105018.4781665476
 20
95052.32693552924
 30
0.0
 11
105018.4658003394
 21
95052.32327808064
 31
0.0
  0
LINE
  5
4F208
330
1F
100
AcDbEntity
  8
freecads.com
100
AcDbLine
 10
105018.4658003394
 20
95052.32327808064
 30
0.0
 11
105018.4516086248
 21
95052.32016160752
 31
0.0
  0
LINE
  5
4F209
330
1F
100
AcDbEntity
  8
freecads.com
100
AcDbLine
 10
105018.4516086248
 20
95052.32016160752
 30
0.0
 11
105018.4354708157
 21
95052.31778738687
 31
0.0
  0
LINE
  5
4F20A
330
1F
100
AcDbEntity
  8
freecads.com
100
AcDbLine
 10
105018.4354708157
 20
95052.31778738687
 30
0.0
 11
105018.4172663235
 21
95052.31635669577
 31
0.0
  0
LINE
  5
4F20B
330
1F
100
AcDbEntity
  8
freecads.com
100
AcDbLine
 10
105018.4172663235
 20
95052.31635669577
 30
0.0
 11
105018.3969800708
 21
95052.31601691242
 31
0.0
  0
LINE
  5
4F20C
330
1F
100
AcDbEntity
  8
freecads.com
100
AcDbLine
 10
105018.3969800708
 20
95052.31601691242
 30
0.0
 11
105018.3750190223
 21
95052.31669981995
 31
0.0
  0
LINE
  5
4F20D
330
1F
100
AcDbEntity
  8
freecads.com
100
AcDbLine
 10
105018.3750190223
 20
95052.31669981995
 30
0.0
 11
105018.3518956538
 21
95052.31828330265
 31
0.0
  0
LINE
  5
4F20E
330
1F
100
AcDbEntity
  8
freecads.com
100
AcDbLine
 10
105018.3518956538
 20
95052.31828330265
 30
0.0
 11
105018.3281224407
 21
95052.32064524484
 31
0.0
  0
LINE
  5
4F20F
330
1F
100
AcDbEntity
  8
freecads.com
100
AcDbLine
 10
105018.3281224407
 20
95052.32064524484
 30
0.0
 11
105018.3042118587
 21
95052.32366353084
 31
0.0
  0
LINE
  5
4F210
330
1F
100
AcDbEntity
  8
freecads.com
100
AcDbLine
 10
105018.3042118587
 20
95052.32366353084
 30
0.0
 11
105018.2806763833
 21
95052.32721604498
 31
0.0
  0
LINE
  5
4F211
330
1F
100
AcDbEntity
  8
freecads.com
100
AcDbLine
 10
105018.2806763833
 20
95052.32721604498
 30
0.0
 11
105018.25802849
 21
95052.33118067154
 31
0.0
  0
LINE
  5
4F212
330
1F
100
AcDbEntity
  8
freecads.com
100
AcDbLine
 10
105018.25802849
 20
95052.33118067154
 30
0.0
 11
105018.2367806546
 21
95052.33543529485
 31
0.0
  0
LINE
  5
4F213
330
1F
100
AcDbEntity
  8
freecads.com
100
AcDbLine
 10
105018.2367806546
 20
95052.33543529485
 30
0.0
 11
105018.217350901
 21
95052.33986569693
 31
0.0
  0
LINE
  5
4F214
330
1F
100
AcDbEntity
  8
freecads.com
100
AcDbLine
 10
105018.217350901
 20
95052.33986569693
 30
0.0
 11
105018.1997794474
 21
95052.34438925061
 31
0.0
  0
LINE
  5
4F215
330
1F
100
AcDbEntity
  8
freecads.com
100
AcDbLine
 10
105018.1997794474
 20
95052.34438925061
 30
0.0
 11
105018.1840120602
 21
95052.34893122638
 31
0.0
  0
LINE
  5
4F216
330
1F
100
AcDbEntity
  8
freecads.com
100
AcDbLine
 10
105018.1840120602
 20
95052.34893122638
 30
0.0
 11
105018.1699945062
 21
95052.35341689481
 31
0.0
  0
LINE
  5
4F217
330
1F
100
AcDbEntity
  8
freecads.com
100
AcDbLine
 10
105018.1699945062
 20
95052.35341689481
 30
0.0
 11
105018.1576725518
 21
95052.35777152639
 31
0.0
  0
LINE
  5
4F218
330
1F
100
AcDbEntity
  8
freecads.com
100
AcDbLine
 10
105018.1576725518
 20
95052.35777152639
 30
0.0
 11
105018.1469919635
 21
95052.36192039168
 31
0.0
  0
LINE
  5
4F219
330
1F
100
AcDbEntity
  8
freecads.com
100
AcDbLine
 10
105018.1469919635
 20
95052.36192039168
 30
0.0
 11
105018.1378985081
 21
95052.36578876116
 31
0.0
  0
LINE
  5
4F21A
330
1F
100
AcDbEntity
  8
freecads.com
100
AcDbLine
 10
105018.1378985081
 20
95052.36578876116
 30
0.0
 11
105018.130337952
 21
95052.36930190537
 31
0.0
  0
LINE
  5
4F21B
330
1F
100
AcDbEntity
  8
freecads.com
100
AcDbLine
 10
105018.130337952
 20
95052.36930190537
 30
0.0
 11
105018.1241608953
 21
95052.37239868248
 31
0.0
  0
LINE
  5
4F21C
330
1F
100
AcDbEntity
  8
freecads.com
100
AcDbLine
 10
105018.1241608953
 20
95052.37239868248
 30
0.0
 11
105018.1188372723
 21
95052.37507230111
 31
0.0
  0
LINE
  5
4F21D
330
1F
100
AcDbEntity
  8
freecads.com
100
AcDbLine
 10
105018.1188372723
 20
95052.37507230111
 30
0.0
 11
105018.1137418503
 21
95052.3773295575
 31
0.0
  0
LINE
  5
4F21E
330
1F
100
AcDbEntity
  8
freecads.com
100
AcDbLine
 10
105018.1137418503
 20
95052.3773295575
 30
0.0
 11
105018.1082493971
 21
95052.37917724793
 31
0.0
  0
LINE
  5
4F21F
330
1F
100
AcDbEntity
  8
freecads.com
100
AcDbLine
 10
105018.1082493971
 20
95052.37917724793
 30
0.0
 11
105018.1017346802
 21
95052.38062216864
 31
0.0
  0
LINE
  5
4F220
330
1F
100
AcDbEntity
  8
freecads.com
100
AcDbLine
 10
105018.1017346802
 20
95052.38062216864
 30
0.0
 11
105018.0935724673
 21
95052.38167111592
 31
0.0
  0
LINE
  5
4F221
330
1F
100
AcDbEntity
  8
freecads.com
100
AcDbLine
 10
105018.0935724673
 20
95052.38167111592
 30
0.0
 11
105018.0831375261
 21
95052.38233088599
 31
0.0
  0
LINE
  5
4F222
330
1F
100
AcDbEntity
  8
freecads.com
100
AcDbLine
 10
105018.0831375261
 20
95052.38233088599
 30
0.0
 11
105018.069804624
 21
95052.38260827512
 31
0.0
  0
LINE
  5
4F223
330
1F
100
AcDbEntity
  8
freecads.com
100
AcDbLine
 10
105020.6073242824
 20
95052.39258532412
 30
0.0
 11
105020.5790419766
 21
95052.39265424236
 31
0.0
  0
LINE
  5
4F224
330
1F
100
AcDbEntity
  8
freecads.com
100
AcDbLine
 10
105020.5790419766
 20
95052.39265424236
 30
0.0
 11
105020.5538813664
 21
95052.39141695396
 31
0.0
  0
LINE
  5
4F225
330
1F
100
AcDbEntity
  8
freecads.com
100
AcDbLine
 10
105020.5538813664
 20
95052.39141695396
 30
0.0
 11
105020.5313016466
 21
95052.38922396326
 31
0.0
  0
LINE
  5
4F226
330
1F
100
AcDbEntity
  8
freecads.com
100
AcDbLine
 10
105020.5313016466
 20
95052.38922396326
 30
0.0
 11
105020.5107620119
 21
95052.38642577452
 31
0.0
  0
LINE
  5
4F227
330
1F
100
AcDbEntity
  8
freecads.com
100
AcDbLine
 10
105020.5107620119
 20
95052.38642577452
 30
0.0
 11
105020.4917216572
 21
95052.38337289206
 31
0.0
  0
LINE
  5
4F228
330
1F
100
AcDbEntity
  8
freecads.com
100
AcDbLine
 10
105020.4917216572
 20
95052.38337289206
 30
0.0
 11
105020.4736397772
 21
95052.38041582018
 31
0.0
  0
LINE
  5
4F229
330
1F
100
AcDbEntity
  8
freecads.com
100
AcDbLine
 10
105020.4736397772
 20
95052.38041582018
 30
0.0
 11
105020.4559755666
 21
95052.37790506319
 31
0.0
  0
LINE
  5
4F22A
330
1F
100
AcDbEntity
  8
freecads.com
100
AcDbLine
 10
105020.4559755666
 20
95052.37790506319
 30
0.0
 11
105020.4381882202
 21
95052.37619112538
 31
0.0
  0
LINE
  5
4F22B
330
1F
100
AcDbEntity
  8
freecads.com
100
AcDbLine
 10
105020.4381882202
 20
95052.37619112538
 30
0.0
 11
105020.4198413905
 21
95052.37552747166
 31
0.0
  0
LINE
  5
4F22C
330
1F
100
AcDbEntity
  8
freecads.com
100
AcDbLine
 10
105020.4198413905
 20
95052.37552747166
 30
0.0
 11
105020.4009165613
 21
95052.37577940942
 31
0.0
  0
LINE
  5
4F22D
330
1F
100
AcDbEntity
  8
freecads.com
100
AcDbLine
 10
105020.4009165613
 20
95052.37577940942
 30
0.0
 11
105020.3814996737
 21
95052.37671520664
 31
0.0
  0
LINE
  5
4F22E
330
1F
100
AcDbEntity
  8
freecads.com
100
AcDbLine
 10
105020.3814996737
 20
95052.37671520664
 30
0.0
 11
105020.3616766694
 21
95052.37810313124
 31
0.0
  0
LINE
  5
4F22F
330
1F
100
AcDbEntity
  8
freecads.com
100
AcDbLine
 10
105020.3616766694
 20
95052.37810313124
 30
0.0
 11
105020.3415334896
 21
95052.37971145124
 31
0.0
  0
LINE
  5
4F230
330
1F
100
AcDbEntity
  8
freecads.com
100
AcDbLine
 10
105020.3415334896
 20
95052.37971145124
 30
0.0
 11
105020.3211560759
 21
95052.38130843464
 31
0.0
  0
LINE
  5
4F231
330
1F
100
AcDbEntity
  8
freecads.com
100
AcDbLine
 10
105020.3211560759
 20
95052.38130843464
 30
0.0
 11
105020.3006303695
 21
95052.38266234936
 31
0.0
  0
LINE
  5
4F232
330
1F
100
AcDbEntity
  8
freecads.com
100
AcDbLine
 10
105020.3006303695
 20
95052.38266234936
 30
0.0
 11
105020.2800423119
 21
95052.38354146342
 31
0.0
  0
LINE
  5
4F233
330
1F
100
AcDbEntity
  8
freecads.com
100
AcDbLine
 10
105020.2800423119
 20
95052.38354146342
 30
0.0
 11
105020.2595069275
 21
95052.38377764117
 31
0.0
  0
LINE
  5
4F234
330
1F
100
AcDbEntity
  8
freecads.com
100
AcDbLine
 10
105020.2595069275
 20
95052.38377764117
 30
0.0
 11
105020.2392555724
 21
95052.38345713246
 31
0.0
  0
LINE
  5
4F235
330
1F
100
AcDbEntity
  8
freecads.com
100
AcDbLine
 10
105020.2392555724
 20
95052.38345713246
 30
0.0
 11
105020.2195486857
 21
95052.38272978354
 31
0.0
  0
LINE
  5
4F236
330
1F
100
AcDbEntity
  8
freecads.com
100
AcDbLine
 10
105020.2195486857
 20
95052.38272978354
 30
0.0
 11
105020.2006467066
 21
95052.38174544064
 31
0.0
  0
LINE
  5
4F237
330
1F
100
AcDbEntity
  8
freecads.com
100
AcDbLine
 10
105020.2006467066
 20
95052.38174544064
 30
0.0
 11
105020.1828100743
 21
95052.38065395003
 31
0.0
  0
LINE
  5
4F238
330
1F
100
AcDbEntity
  8
freecads.com
100
AcDbLine
 10
105020.1828100743
 20
95052.38065395003
 30
0.0
 11
105020.1662992276
 21
95052.37960515792
 31
0.0
  0
LINE
  5
4F239
330
1F
100
AcDbEntity
  8
freecads.com
100
AcDbLine
 10
105020.1662992276
 20
95052.37960515792
 30
0.0
 11
105020.151374606
 21
95052.37874891056
 31
0.0
  0
LINE
  5
4F23A
330
1F
100
AcDbEntity
  8
freecads.com
100
AcDbLine
 10
105020.151374606
 20
95052.37874891056
 30
0.0
 11
105020.1382966483
 21
95052.37823505421
 31
0.0
  0
LINE
  5
4F23B
330
1F
100
AcDbEntity
  8
freecads.com
100
AcDbLine
 10
105020.1382966483
 20
95052.37823505421
 30
0.0
 11
105020.1272550375
 21
95052.37817602887
 31
0.0
  0
LINE
  5
4F23C
330
1F
100
AcDbEntity
  8
freecads.com
100
AcDbLine
 10
105020.1272550375
 20
95052.37817602887
 30
0.0
 11
105020.1181564304
 21
95052.37853464967
 31
0.0
  0
LINE
  5
4F23D
330
1F
100
AcDbEntity
  8
freecads.com
100
AcDbLine
 10
105020.1181564304
 20
95052.37853464967
 30
0.0
 11
105020.1108367277
 21
95052.37923632554
 31
0.0
  0
LINE
  5
4F23E
330
1F
100
AcDbEntity
  8
freecads.com
100
AcDbLine
 10
105020.1108367277
 20
95052.37923632554
 30
0.0
 11
105020.1051318301
 21
95052.38020646542
 31
0.0
  0
LINE
  5
4F23F
330
1F
100
AcDbEntity
  8
freecads.com
100
AcDbLine
 10
105020.1051318301
 20
95052.38020646542
 30
0.0
 11
105020.1008776381
 21
95052.38137047816
 31
0.0
  0
LINE
  5
4F240
330
1F
100
AcDbEntity
  8
freecads.com
100
AcDbLine
 10
105020.1008776381
 20
95052.38137047816
 30
0.0
 11
105020.0979100524
 21
95052.38265377272
 31
0.0
  0
LINE
  5
4F241
330
1F
100
AcDbEntity
  8
freecads.com
100
AcDbLine
 10
105020.0979100524
 20
95052.38265377272
 30
0.0
 11
105020.0960649736
 21
95052.38398175798
 31
0.0
  0
LINE
  5
4F242
330
1F
100
AcDbEntity
  8
freecads.com
100
AcDbLine
 10
105020.0960649736
 20
95052.38398175798
 30
0.0
 11
105020.0951783024
 21
95052.38527984291
 31
0.0
  0
LINE
  5
4F243
330
1F
100
AcDbEntity
  8
freecads.com
100
AcDbLine
 10
105020.0951783024
 20
95052.38527984291
 30
0.0
 11
105020.0951128425
 21
95052.38650630982
 31
0.0
  0
LINE
  5
4F244
330
1F
100
AcDbEntity
  8
freecads.com
100
AcDbLine
 10
105020.0951128425
 20
95052.38650630982
 30
0.0
 11
105020.0958390105
 21
95052.3877509349
 31
0.0
  0
LINE
  5
4F245
330
1F
100
AcDbEntity
  8
freecads.com
100
AcDbLine
 10
105020.0958390105
 20
95052.3877509349
 30
0.0
 11
105020.0973541262
 21
95052.38913636778
 31
0.0
  0
LINE
  5
4F246
330
1F
100
AcDbEntity
  8
freecads.com
100
AcDbLine
 10
105020.0973541262
 20
95052.38913636778
 30
0.0
 11
105020.0996555096
 21
95052.39078525811
 31
0.0
  0
LINE
  5
4F247
330
1F
100
AcDbEntity
  8
freecads.com
100
AcDbLine
 10
105020.0996555096
 20
95052.39078525811
 30
0.0
 11
105020.1027404801
 21
95052.39282025547
 31
0.0
  0
LINE
  5
4F248
330
1F
100
AcDbEntity
  8
freecads.com
100
AcDbLine
 10
105020.1027404801
 20
95052.39282025547
 30
0.0
 11
105020.1066063578
 21
95052.39536400953
 31
0.0
  0
LINE
  5
4F249
330
1F
100
AcDbEntity
  8
freecads.com
100
AcDbLine
 10
105020.1066063578
 20
95052.39536400953
 30
0.0
 11
105020.1112504624
 21
95052.39853916988
 31
0.0
  0
LINE
  5
4F24A
330
1F
100
AcDbEntity
  8
freecads.com
100
AcDbLine
 10
105020.1112504624
 20
95052.39853916988
 30
0.0
 11
105020.1166701136
 21
95052.40246838617
 31
0.0
  0
LINE
  5
4F24B
330
1F
100
AcDbEntity
  8
freecads.com
100
AcDbLine
 10
105020.1166701136
 20
95052.40246838617
 30
0.0
 11
105020.1228665984
 21
95052.40722413105
 31
0.0
  0
LINE
  5
4F24C
330
1F
100
AcDbEntity
  8
freecads.com
100
AcDbLine
 10
105020.1228665984
 20
95052.40722413105
 30
0.0
 11
105020.1298570724
 21
95052.41267816918
 31
0.0
  0
LINE
  5
4F24D
330
1F
100
AcDbEntity
  8
freecads.com
100
AcDbLine
 10
105020.1298570724
 20
95052.41267816918
 30
0.0
 11
105020.1376626582
 21
95052.4186520883
 31
0.0
  0
LINE
  5
4F24E
330
1F
100
AcDbEntity
  8
freecads.com
100
AcDbLine
 10
105020.1376626582
 20
95052.4186520883
 30
0.0
 11
105020.1463044787
 21
95052.42496747607
 31
0.0
  0
LINE
  5
4F24F
330
1F
100
AcDbEntity
  8
freecads.com
100
AcDbLine
 10
105020.1463044787
 20
95052.42496747607
 30
0.0
 11
105020.1558036565
 21
95052.43144592023
 31
0.0
  0
LINE
  5
4F250
330
1F
100
AcDbEntity
  8
freecads.com
100
AcDbLine
 10
105020.1558036565
 20
95052.43144592023
 30
0.0
 11
105020.1661813143
 21
95052.43790900847
 31
0.0
  0
LINE
  5
4F251
330
1F
100
AcDbEntity
  8
freecads.com
100
AcDbLine
 10
105020.1661813143
 20
95052.43790900847
 30
0.0
 11
105020.1774585748
 21
95052.4441783285
 31
0.0
  0
LINE
  5
4F252
330
1F
100
AcDbEntity
  8
freecads.com
100
AcDbLine
 10
105020.1774585748
 20
95052.4441783285
 30
0.0
 11
105020.1896565608
 21
95052.450075468
 31
0.0
  0
LINE
  5
4F253
330
1F
100
AcDbEntity
  8
freecads.com
100
AcDbLine
 10
105020.1896565608
 20
95052.450075468
 30
0.0
 11
105020.2028016087
 21
95052.45544006051
 31
0.0
  0
LINE
  5
4F254
330
1F
100
AcDbEntity
  8
freecads.com
100
AcDbLine
 10
105020.2028016087
 20
95052.45544006051
 30
0.0
 11
105020.2169409105
 21
95052.46018392266
 31
0.0
  0
LINE
  5
4F255
330
1F
100
AcDbEntity
  8
freecads.com
100
AcDbLine
 10
105020.2169409105
 20
95052.46018392266
 30
0.0
 11
105020.2321268714
 21
95052.46423691694
 31
0.0
  0
LINE
  5
4F256
330
1F
100
AcDbEntity
  8
freecads.com
100
AcDbLine
 10
105020.2321268714
 20
95052.46423691694
 30
0.0
 11
105020.2484118972
 21
95052.46752890579
 31
0.0
  0
LINE
  5
4F257
330
1F
100
AcDbEntity
  8
freecads.com
100
AcDbLine
 10
105020.2484118972
 20
95052.46752890579
 30
0.0
 11
105020.2658483934
 21
95052.4699897517
 31
0.0
  0
LINE
  5
4F258
330
1F
100
AcDbEntity
  8
freecads.com
100
AcDbLine
 10
105020.2658483934
 20
95052.4699897517
 30
0.0
 11
105020.2844887654
 21
95052.4715493171
 31
0.0
  0
LINE
  5
4F259
330
1F
100
AcDbEntity
  8
freecads.com
100
AcDbLine
 10
105020.2844887654
 20
95052.4715493171
 30
0.0
 11
105020.304385419
 21
95052.47213746446
 31
0.0
  0
LINE
  5
4F25A
330
1F
100
AcDbEntity
  8
freecads.com
100
AcDbLine
 10
105020.304385419
 20
95052.47213746446
 30
0.0
 11
105020.3255907596
 21
95052.47168405629
 31
0.0
  0
LINE
  5
4F25B
330
1F
100
AcDbEntity
  8
freecads.com
100
AcDbLine
 10
105020.3255907596
 20
95052.47168405629
 30
0.0
 11
105020.3480675119
 21
95052.47015655044
 31
0.0
  0
LINE
  5
4F25C
330
1F
100
AcDbEntity
  8
freecads.com
100
AcDbLine
 10
105020.3480675119
 20
95052.47015655044
 30
0.0
 11
105020.3714196776
 21
95052.46767278668
 31
0.0
  0
LINE
  5
4F25D
330
1F
100
AcDbEntity
  8
freecads.com
100
AcDbLine
 10
105020.3714196776
 20
95052.46767278668
 30
0.0
 11
105020.3951615774
 21
95052.46438820021
 31
0.0
  0
LINE
  5
4F25E
330
1F
100
AcDbEntity
  8
freecads.com
100
AcDbLine
 10
105020.3951615774
 20
95052.46438820021
 30
0.0
 11
105020.418807532
 21
95052.46045822625
 31
0.0
  0
LINE
  5
4F25F
330
1F
100
AcDbEntity
  8
freecads.com
100
AcDbLine
 10
105020.418807532
 20
95052.46045822625
 30
0.0
 11
105020.4418718621
 21
95052.45603829992
 31
0.0
  0
LINE
  5
4F260
330
1F
100
AcDbEntity
  8
freecads.com
100
AcDbLine
 10
105020.4418718621
 20
95052.45603829992
 30
0.0
 11
105020.4638688887
 21
95052.4512838565
 31
0.0
  0
LINE
  5
4F261
330
1F
100
AcDbEntity
  8
freecads.com
100
AcDbLine
 10
105020.4638688887
 20
95052.4512838565
 30
0.0
 11
105020.4843129322
 21
95052.44635033113
 31
0.0
  0
LINE
  5
4F262
330
1F
100
AcDbEntity
  8
freecads.com
100
AcDbLine
 10
105020.4843129322
 20
95052.44635033113
 30
0.0
 11
105020.5027183136
 21
95052.44139315902
 31
0.0
  0
LINE
  5
4F263
330
1F
100
AcDbEntity
  8
freecads.com
100
AcDbLine
 10
105020.5027183136
 20
95052.44139315902
 30
0.0
 11
105020.518717682
 21
95052.43654821633
 31
0.0
  0
LINE
  5
4F264
330
1F
100
AcDbEntity
  8
freecads.com
100
AcDbLine
 10
105020.518717682
 20
95052.43654821633
 30
0.0
 11
105020.532417
 21
95052.4318731429
 31
0.0
  0
LINE
  5
4F265
330
1F
100
AcDbEntity
  8
freecads.com
100
AcDbLine
 10
105020.532417
 20
95052.4318731429
 30
0.0
 11
105020.5440405586
 21
95052.42740601955
 31
0.0
  0
LINE
  5
4F266
330
1F
100
AcDbEntity
  8
freecads.com
100
AcDbLine
 10
105020.5440405586
 20
95052.42740601955
 30
0.0
 11
105020.5538126487
 21
95052.42318492706
 31
0.0
  0
LINE
  5
4F267
330
1F
100
AcDbEntity
  8
freecads.com
100
AcDbLine
 10
105020.5538126487
 20
95052.42318492706
 30
0.0
 11
105020.5619575615
 21
95052.41924794628
 31
0.0
  0
LINE
  5
4F268
330
1F
100
AcDbEntity
  8
freecads.com
100
AcDbLine
 10
105020.5619575615
 20
95052.41924794628
 30
0.0
 11
105020.5686995879
 21
95052.41563315799
 31
0.0
  0
LINE
  5
4F269
330
1F
100
AcDbEntity
  8
freecads.com
100
AcDbLine
 10
105020.5686995879
 20
95052.41563315799
 30
0.0
 11
105020.5742630189
 21
95052.412378643
 31
0.0
  0
LINE
  5
4F26A
330
1F
100
AcDbEntity
  8
freecads.com
100
AcDbLine
 10
105020.5742630189
 20
95052.412378643
 30
0.0
 11
105020.5788721455
 21
95052.40952248211
 31
0.0
  0
LINE
  5
4F26B
330
1F
100
AcDbEntity
  8
freecads.com
100
AcDbLine
 10
105020.5788721455
 20
95052.40952248211
 30
0.0
 11
105020.5827291111
 21
95052.4070879989
 31
0.0
  0
LINE
  5
4F26C
330
1F
100
AcDbEntity
  8
freecads.com
100
AcDbLine
 10
105020.5827291111
 20
95052.4070879989
 30
0.0
 11
105020.5859474679
 21
95052.40503948796
 31
0.0
  0
LINE
  5
4F26D
330
1F
100
AcDbEntity
  8
freecads.com
100
AcDbLine
 10
105020.5859474679
 20
95052.40503948796
 30
0.0
 11
105020.588618621
 21
95052.40332648662
 31
0.0
  0
LINE
  5
4F26E
330
1F
100
AcDbEntity
  8
freecads.com
100
AcDbLine
 10
105020.588618621
 20
95052.40332648662
 30
0.0
 11
105020.5908339749
 21
95052.40189853225
 31
0.0
  0
LINE
  5
4F26F
330
1F
100
AcDbEntity
  8
freecads.com
100
AcDbLine
 10
105020.5908339749
 20
95052.40189853225
 30
0.0
 11
105020.5926849343
 21
95052.40070516217
 31
0.0
  0
LINE
  5
4F270
330
1F
100
AcDbEntity
  8
freecads.com
100
AcDbLine
 10
105020.5926849343
 20
95052.40070516217
 30
0.0
 11
105020.5942629042
 21
95052.39969591377
 31
0.0
  0
LINE
  5
4F271
330
1F
100
AcDbEntity
  8
freecads.com
100
AcDbLine
 10
105020.5942629042
 20
95052.39969591377
 30
0.0
 11
105020.5956592892
 21
95052.39882032437
 31
0.0
  0
LINE
  5
4F272
330
1F
100
AcDbEntity
  8
freecads.com
100
AcDbLine
 10
105020.5956592892
 20
95052.39882032437
 30
0.0
 11
105020.596965494
 21
95052.39802793129
 31
0.0
  0
LINE
  5
4F273
330
1F
100
AcDbEntity
  8
freecads.com
100
AcDbLine
 10
105020.596965494
 20
95052.39802793129
 30
0.0
 11
105020.5982539683
 21
95052.39727691316
 31
0.0
  0
LINE
  5
4F274
330
1F
100
AcDbEntity
  8
freecads.com
100
AcDbLine
 10
105020.5982539683
 20
95052.39727691316
 30
0.0
 11
105020.5995213418
 21
95052.39656001339
 31
0.0
  0
LINE
  5
4F275
330
1F
100
AcDbEntity
  8
freecads.com
100
AcDbLine
 10
105020.5995213418
 20
95052.39656001339
 30
0.0
 11
105020.6007452889
 21
95052.39587861666
 31
0.0
  0
LINE
  5
4F276
330
1F
100
AcDbEntity
  8
freecads.com
100
AcDbLine
 10
105020.6007452889
 20
95052.39587861666
 30
0.0
 11
105020.6019034843
 21
95052.39523410764
 31
0.0
  0
LINE
  5
4F277
330
1F
100
AcDbEntity
  8
freecads.com
100
AcDbLine
 10
105020.6019034843
 20
95052.39523410764
 30
0.0
 11
105020.6029736023
 21
95052.39462787098
 31
0.0
  0
LINE
  5
4F278
330
1F
100
AcDbEntity
  8
freecads.com
100
AcDbLine
 10
105020.6029736023
 20
95052.39462787098
 30
0.0
 11
105020.6039333176
 21
95052.39406129136
 31
0.0
  0
LINE
  5
4F279
330
1F
100
AcDbEntity
  8
freecads.com
100
AcDbLine
 10
105020.6039333176
 20
95052.39406129136
 30
0.0
 11
105020.6047603046
 21
95052.39353575348
 31
0.0
  0
LINE
  5
4F27A
330
1F
100
AcDbEntity
  8
freecads.com
100
AcDbLine
 10
105020.6047603046
 20
95052.39353575348
 30
0.0
 11
105020.605432238
 21
95052.39305264195
 31
0.0
  0
LINE
  5
4F27B
330
1F
100
AcDbEntity
  8
freecads.com
100
AcDbLine
 10
105020.605432238
 20
95052.39305264195
 30
0.0
 11
105020.6059303341
 21
95052.39261042197
 31
0.0
  0
LINE
  5
4F27C
330
1F
100
AcDbEntity
  8
freecads.com
100
AcDbLine
 10
105020.6059303341
 20
95052.39261042197
 30
0.0
 11
105020.6062499768
 21
95052.39219588064
 31
0.0
  0
LINE
  5
4F27D
330
1F
100
AcDbEntity
  8
freecads.com
100
AcDbLine
 10
105020.6062499768
 20
95052.39219588064
 30
0.0
 11
105020.6063900918
 21
95052.39179288556
 31
0.0
  0
LINE
  5
4F27E
330
1F
100
AcDbEntity
  8
freecads.com
100
AcDbLine
 10
105020.6063900918
 20
95052.39179288556
 30
0.0
 11
105020.6063496048
 21
95052.39138530436
 31
0.0
  0
LINE
  5
4F27F
330
1F
100
AcDbEntity
  8
freecads.com
100
AcDbLine
 10
105020.6063496048
 20
95052.39138530436
 30
0.0
 11
105020.6061274417
 21
95052.39095700462
 31
0.0
  0
LINE
  5
4F280
330
1F
100
AcDbEntity
  8
freecads.com
100
AcDbLine
 10
105020.6061274417
 20
95052.39095700462
 30
0.0
 11
105020.6057225282
 21
95052.39049185398
 31
0.0
  0
LINE
  5
4F281
330
1F
100
AcDbEntity
  8
freecads.com
100
AcDbLine
 10
105020.6057225282
 20
95052.39049185398
 30
0.0
 11
105020.60513379
 21
95052.38997372
 31
0.0
  0
LINE
  5
4F282
330
1F
100
AcDbEntity
  8
freecads.com
100
AcDbLine
 10
105020.60513379
 20
95052.38997372
 30
0.0
 11
105020.6043601528
 21
95052.38938647032
 31
0.0
  0
LINE
  5
4F283
330
1F
100
AcDbEntity
  8
freecads.com
100
AcDbLine
 10
105020.6043601528
 20
95052.38938647032
 30
0.0
 11
105020.6034067179
 21
95052.3887182611
 31
0.0
  0
LINE
  5
4F284
330
1F
100
AcDbEntity
  8
freecads.com
100
AcDbLine
 10
105020.6034067179
 20
95052.3887182611
 30
0.0
 11
105020.6023032885
 21
95052.38797440286
 31
0.0
  0
LINE
  5
4F285
330
1F
100
AcDbEntity
  8
freecads.com
100
AcDbLine
 10
105020.6023032885
 20
95052.38797440286
 30
0.0
 11
105020.6010858432
 21
95052.3871644946
 31
0.0
  0
LINE
  5
4F286
330
1F
100
AcDbEntity
  8
freecads.com
100
AcDbLine
 10
105020.6010858432
 20
95052.3871644946
 30
0.0
 11
105020.5997903607
 21
95052.38629813538
 31
0.0
  0
LINE
  5
4F287
330
1F
100
AcDbEntity
  8
freecads.com
100
AcDbLine
 10
105020.5997903607
 20
95052.38629813538
 30
0.0
 11
105020.5984528198
 21
95052.38538492429
 31
0.0
  0
LINE
  5
4F288
330
1F
100
AcDbEntity
  8
freecads.com
100
AcDbLine
 10
105020.5984528198
 20
95052.38538492429
 30
0.0
 11
105020.5971091991
 21
95052.38443446035
 31
0.0
  0
LINE
  5
4F289
330
1F
100
AcDbEntity
  8
freecads.com
100
AcDbLine
 10
105020.5971091991
 20
95052.38443446035
 30
0.0
 11
105020.5957954772
 21
95052.38345634264
 31
0.0
  0
LINE
  5
4F28A
330
1F
100
AcDbEntity
  8
freecads.com
100
AcDbLine
 10
105020.5957954772
 20
95052.38345634264
 30
0.0
 11
105020.5945476329
 21
95052.38246017018
 31
0.0
  0
LINE
  5
4F28B
330
1F
100
AcDbEntity
  8
freecads.com
100
AcDbLine
 10
105020.5945476329
 20
95052.38246017018
 30
0.0
 11
105020.5933898894
 21
95052.38145797983
 31
0.0
  0
LINE
  5
4F28C
330
1F
100
AcDbEntity
  8
freecads.com
100
AcDbLine
 10
105020.5933898894
 20
95052.38145797983
 30
0.0
 11
105020.5922994478
 21
95052.38047155968
 31
0.0
  0
LINE
  5
4F28D
330
1F
100
AcDbEntity
  8
freecads.com
100
AcDbLine
 10
105020.5922994478
 20
95052.38047155968
 30
0.0
 11
105020.5912417538
 21
95052.37952513551
 31
0.0
  0
LINE
  5
4F28E
330
1F
100
AcDbEntity
  8
freecads.com
100
AcDbLine
 10
105020.5912417538
 20
95052.37952513551
 30
0.0
 11
105020.5901822532
 21
95052.37864293324
 31
0.0
  0
LINE
  5
4F28F
330
1F
100
AcDbEntity
  8
freecads.com
100
AcDbLine
 10
105020.5901822532
 20
95052.37864293324
 30
0.0
 11
105020.5890863916
 21
95052.37784917868
 31
0.0
  0
LINE
  5
4F290
330
1F
100
AcDbEntity
  8
freecads.com
100
AcDbLine
 10
105020.5890863916
 20
95052.37784917868
 30
0.0
 11
105020.5879196147
 21
95052.37716809768
 31
0.0
  0
LINE
  5
4F291
330
1F
100
AcDbEntity
  8
freecads.com
100
AcDbLine
 10
105020.5879196147
 20
95052.37716809768
 30
0.0
 11
105020.5866473684
 21
95052.37662391609
 31
0.0
  0
LINE
  5
4F292
330
1F
100
AcDbEntity
  8
freecads.com
100
AcDbLine
 10
105020.5866473684
 20
95052.37662391609
 30
0.0
 11
105020.5852350982
 21
95052.37624085976
 31
0.0
  0
LINE
  5
4F293
330
1F
100
AcDbEntity
  8
freecads.com
100
AcDbLine
 10
105020.5852350982
 20
95052.37624085976
 30
0.0
 11
105020.5836574412
 21
95052.37602962138
 31
0.0
  0
LINE
  5
4F294
330
1F
100
AcDbEntity
  8
freecads.com
100
AcDbLine
 10
105020.5836574412
 20
95052.37602962138
 30
0.0
 11
105020.5819257996
 21
95052.37594676081
 31
0.0
  0
LINE
  5
4F295
330
1F
100
AcDbEntity
  8
freecads.com
100
AcDbLine
 10
105020.5819257996
 20
95052.37594676081
 30
0.0
 11
105020.5800607671
 21
95052.3759353048
 31
0.0
  0
LINE
  5
4F296
330
1F
100
AcDbEntity
  8
freecads.com
100
AcDbLine
 10
105020.5800607671
 20
95052.3759353048
 30
0.0
 11
105020.5780829373
 21
95052.37593828006
 31
0.0
  0
LINE
  5
4F297
330
1F
100
AcDbEntity
  8
freecads.com
100
AcDbLine
 10
105020.5780829373
 20
95052.37593828006
 30
0.0
 11
105020.5760129037
 21
95052.37589871331
 31
0.0
  0
LINE
  5
4F298
330
1F
100
AcDbEntity
  8
freecads.com
100
AcDbLine
 10
105020.5760129037
 20
95052.37589871331
 30
0.0
 11
105020.5738712601
 21
95052.3757596313
 31
0.0
  0
LINE
  5
4F299
330
1F
100
AcDbEntity
  8
freecads.com
100
AcDbLine
 10
105020.5738712601
 20
95052.3757596313
 30
0.0
 11
105020.5716785998
 21
95052.37546406068
 31
0.0
  0
LINE
  5
4F29A
330
1F
100
AcDbEntity
  8
freecads.com
100
AcDbLine
 10
105020.5716785998
 20
95052.37546406068
 30
0.0
 11
105020.5694555166
 21
95052.37495502822
 31
0.0
  0
LINE
  5
4F29B
330
1F
100
AcDbEntity
  8
freecads.com
100
AcDbLine
 10
105020.5694555166
 20
95052.37495502822
 30
0.0
 11
105020.5672240931
 21
95052.37419567286
 31
0.0
  0
LINE
  5
4F29C
330
1F
100
AcDbEntity
  8
freecads.com
100
AcDbLine
 10
105020.5672240931
 20
95052.37419567286
 30
0.0
 11
105020.5650123673
 21
95052.37322958238
 31
0.0
  0
LINE
  5
4F29D
330
1F
100
AcDbEntity
  8
freecads.com
100
AcDbLine
 10
105020.5650123673
 20
95052.37322958238
 30
0.0
 11
105020.5628498666
 21
95052.37212045685
 31
0.0
  0
LINE
  5
4F29E
330
1F
100
AcDbEntity
  8
freecads.com
100
AcDbLine
 10
105020.5628498666
 20
95052.37212045685
 30
0.0
 11
105020.5607661181
 21
95052.37093199623
 31
0.0
  0
LINE
  5
4F29F
330
1F
100
AcDbEntity
  8
freecads.com
100
AcDbLine
 10
105020.5607661181
 20
95052.37093199623
 30
0.0
 11
105020.558790649
 21
95052.3697279006
 31
0.0
  0
LINE
  5
4F2A0
330
1F
100
AcDbEntity
  8
freecads.com
100
AcDbLine
 10
105020.558790649
 20
95052.3697279006
 30
0.0
 11
105020.5569529865
 21
95052.36857186998
 31
0.0
  0
LINE
  5
4F2A1
330
1F
100
AcDbEntity
  8
freecads.com
100
AcDbLine
 10
105020.5569529865
 20
95052.36857186998
 30
0.0
 11
105020.5552826578
 21
95052.36752760438
 31
0.0
  0
LINE
  5
4F2A2
330
1F
100
AcDbEntity
  8
freecads.com
100
AcDbLine
 10
105020.5552826578
 20
95052.36752760438
 30
0.0
 11
105020.55380919
 21
95052.36665880383
 31
0.0
  0
LINE
  5
4F2A3
330
1F
100
AcDbEntity
  8
freecads.com
100
AcDbLine
 10
105020.55380919
 20
95052.36665880383
 30
0.0
 11
105020.5525517208
 21
95052.366008505
 31
0.0
  0
LINE
  5
4F2A4
330
1F
100
AcDbEntity
  8
freecads.com
100
AcDbLine
 10
105020.5525517208
 20
95052.366008505
 30
0.0
 11
105020.5514878289
 21
95052.3655370911
 31
0.0
  0
LINE
  5
4F2A5
330
1F
100
AcDbEntity
  8
freecads.com
100
AcDbLine
 10
105020.5514878289
 20
95052.3655370911
 30
0.0
 11
105020.5505847037
 21
95052.36518428198
 31
0.0
  0
LINE
  5
4F2A6
330
1F
100
AcDbEntity
  8
freecads.com
100
AcDbLine
 10
105020.5505847037
 20
95052.36518428198
 30
0.0
 11
105020.5498095342
 21
95052.36488979752
 31
0.0
  0
LINE
  5
4F2A7
330
1F
100
AcDbEntity
  8
freecads.com
100
AcDbLine
 10
105020.5498095342
 20
95052.36488979752
 30
0.0
 11
105020.5491295099
 21
95052.36459335757
 31
0.0
  0
LINE
  5
4F2A8
330
1F
100
AcDbEntity
  8
freecads.com
100
AcDbLine
 10
105020.5491295099
 20
95052.36459335757
 30
0.0
 11
105020.5485118198
 21
95052.36423468195
 31
0.0
  0
LINE
  5
4F2A9
330
1F
100
AcDbEntity
  8
freecads.com
100
AcDbLine
 10
105020.5485118198
 20
95052.36423468195
 30
0.0
 11
105020.5479236532
 21
95052.36375349056
 31
0.0
  0
LINE
  5
4F2AA
330
1F
100
AcDbEntity
  8
freecads.com
100
AcDbLine
 10
105020.5479236532
 20
95052.36375349056
 30
0.0
 11
105020.5473321994
 21
95052.36308950323
 31
0.0
  0
LINE
  5
4F2AB
330
1F
100
AcDbEntity
  8
freecads.com
100
AcDbLine
 10
105020.5473321994
 20
95052.36308950323
 30
0.0
 11
105020.5466853978
 21
95052.36218785457
 31
0.0
  0
LINE
  5
4F2AC
330
1F
100
AcDbEntity
  8
freecads.com
100
AcDbLine
 10
105020.5466853978
 20
95052.36218785457
 30
0.0
 11
105020.5458541899
 21
95052.36101533814
 31
0.0
  0
LINE
  5
4F2AD
330
1F
100
AcDbEntity
  8
freecads.com
100
AcDbLine
 10
105020.5458541899
 20
95052.36101533814
 30
0.0
 11
105020.5446902673
 21
95052.35954416221
 31
0.0
  0
LINE
  5
4F2AE
330
1F
100
AcDbEntity
  8
freecads.com
100
AcDbLine
 10
105020.5446902673
 20
95052.35954416221
 30
0.0
 11
105020.5430453216
 21
95052.35774653513
 31
0.0
  0
LINE
  5
4F2AF
330
1F
100
AcDbEntity
  8
freecads.com
100
AcDbLine
 10
105020.5430453216
 20
95052.35774653513
 30
0.0
 11
105020.5407710445
 21
95052.3555946652
 31
0.0
  0
LINE
  5
4F2B0
330
1F
100
AcDbEntity
  8
freecads.com
100
AcDbLine
 10
105020.5407710445
 20
95052.3555946652
 30
0.0
 11
105020.5377191277
 21
95052.35306076068
 31
0.0
  0
LINE
  5
4F2B1
330
1F
100
AcDbEntity
  8
freecads.com
100
AcDbLine
 10
105020.5377191277
 20
95052.35306076068
 30
0.0
 11
105020.5337412628
 21
95052.35011702993
 31
0.0
  0
LINE
  5
4F2B2
330
1F
100
AcDbEntity
  8
freecads.com
100
AcDbLine
 10
105020.5337412628
 20
95052.35011702993
 30
0.0
 11
105020.5286891415
 21
95052.3467356812
 31
0.0
  0
LINE
  5
4F2B3
330
1F
100
AcDbEntity
  8
freecads.com
100
AcDbLine
 10
105020.5286891415
 20
95052.3467356812
 30
0.0
 11
105020.5224190754
 21
95052.34292710095
 31
0.0
  0
LINE
  5
4F2B4
330
1F
100
AcDbEntity
  8
freecads.com
100
AcDbLine
 10
105020.5224190754
 20
95052.34292710095
 30
0.0
 11
105020.5148058563
 21
95052.33885438807
 31
0.0
  0
LINE
  5
4F2B5
330
1F
100
AcDbEntity
  8
freecads.com
100
AcDbLine
 10
105020.5148058563
 20
95052.33885438807
 30
0.0
 11
105020.5057288958
 21
95052.33471881957
 31
0.0
  0
LINE
  5
4F2B6
330
1F
100
AcDbEntity
  8
freecads.com
100
AcDbLine
 10
105020.5057288958
 20
95052.33471881957
 30
0.0
 11
105020.4950676056
 21
95052.33072167252
 31
0.0
  0
LINE
  5
4F2B7
330
1F
100
AcDbEntity
  8
freecads.com
100
AcDbLine
 10
105020.4950676056
 20
95052.33072167252
 30
0.0
 11
105020.4827013973
 21
95052.32706422392
 31
0.0
  0
LINE
  5
4F2B8
330
1F
100
AcDbEntity
  8
freecads.com
100
AcDbLine
 10
105020.4827013973
 20
95052.32706422392
 30
0.0
 11
105020.4685096828
 21
95052.32394775077
 31
0.0
  0
LINE
  5
4F2B9
330
1F
100
AcDbEntity
  8
freecads.com
100
AcDbLine
 10
105020.4685096828
 20
95052.32394775077
 30
0.0
 11
105020.4523718736
 21
95052.32157353015
 31
0.0
  0
LINE
  5
4F2BA
330
1F
100
AcDbEntity
  8
freecads.com
100
AcDbLine
 10
105020.4523718736
 20
95052.32157353015
 30
0.0
 11
105020.4341673815
 21
95052.32014283903
 31
0.0
  0
LINE
  5
4F2BB
330
1F
100
AcDbEntity
  8
freecads.com
100
AcDbLine
 10
105020.4341673815
 20
95052.32014283903
 30
0.0
 11
105020.4138811288
 21
95052.3198030557
 31
0.0
  0
LINE
  5
4F2BC
330
1F
100
AcDbEntity
  8
freecads.com
100
AcDbLine
 10
105020.4138811288
 20
95052.3198030557
 30
0.0
 11
105020.3919200804
 21
95052.32048596322
 31
0.0
  0
LINE
  5
4F2BD
330
1F
100
AcDbEntity
  8
freecads.com
100
AcDbLine
 10
105020.3919200804
 20
95052.32048596322
 30
0.0
 11
105020.3687967118
 21
95052.32206944592
 31
0.0
  0
LINE
  5
4F2BE
330
1F
100
AcDbEntity
  8
freecads.com
100
AcDbLine
 10
105020.3687967118
 20
95052.32206944592
 30
0.0
 11
105020.3450234987
 21
95052.32443138812
 31
0.0
  0
LINE
  5
4F2BF
330
1F
100
AcDbEntity
  8
freecads.com
100
AcDbLine
 10
105020.3450234987
 20
95052.32443138812
 30
0.0
 11
105020.3211129167
 21
95052.32744967413
 31
0.0
  0
LINE
  5
4F2C0
330
1F
100
AcDbEntity
  8
freecads.com
100
AcDbLine
 10
105020.3211129167
 20
95052.32744967413
 30
0.0
 11
105020.2975774412
 21
95052.33100218825
 31
0.0
  0
LINE
  5
4F2C1
330
1F
100
AcDbEntity
  8
freecads.com
100
AcDbLine
 10
105020.2975774412
 20
95052.33100218825
 30
0.0
 11
105020.274929548
 21
95052.33496681482
 31
0.0
  0
LINE
  5
4F2C2
330
1F
100
AcDbEntity
  8
freecads.com
100
AcDbLine
 10
105020.274929548
 20
95052.33496681482
 30
0.0
 11
105020.2536817126
 21
95052.33922143814
 31
0.0
  0
LINE
  5
4F2C3
330
1F
100
AcDbEntity
  8
freecads.com
100
AcDbLine
 10
105020.2536817126
 20
95052.33922143814
 30
0.0
 11
105020.234251959
 21
95052.34365184021
 31
0.0
  0
LINE
  5
4F2C4
330
1F
100
AcDbEntity
  8
freecads.com
100
AcDbLine
 10
105020.234251959
 20
95052.34365184021
 30
0.0
 11
105020.2166805054
 21
95052.34817539388
 31
0.0
  0
LINE
  5
4F2C5
330
1F
100
AcDbEntity
  8
freecads.com
100
AcDbLine
 10
105020.2166805054
 20
95052.34817539388
 30
0.0
 11
105020.2009131182
 21
95052.35271736966
 31
0.0
  0
LINE
  5
4F2C6
330
1F
100
AcDbEntity
  8
freecads.com
100
AcDbLine
 10
105020.2009131182
 20
95052.35271736966
 30
0.0
 11
105020.1868955642
 21
95052.3572030381
 31
0.0
  0
LINE
  5
4F2C7
330
1F
100
AcDbEntity
  8
freecads.com
100
AcDbLine
 10
105020.1868955642
 20
95052.3572030381
 30
0.0
 11
105020.1745736098
 21
95052.36155766967
 31
0.0
  0
LINE
  5
4F2C8
330
1F
100
AcDbEntity
  8
freecads.com
100
AcDbLine
 10
105020.1745736098
 20
95052.36155766967
 30
0.0
 11
105020.1638930215
 21
95052.36570653496
 31
0.0
  0
LINE
  5
4F2C9
330
1F
100
AcDbEntity
  8
freecads.com
100
AcDbLine
 10
105020.1638930215
 20
95052.36570653496
 30
0.0
 11
105020.1547995661
 21
95052.36957490442
 31
0.0
  0
LINE
  5
4F2CA
330
1F
100
AcDbEntity
  8
freecads.com
100
AcDbLine
 10
105020.1547995661
 20
95052.36957490442
 30
0.0
 11
105020.14723901
 21
95052.37308804865
 31
0.0
  0
LINE
  5
4F2CB
330
1F
100
AcDbEntity
  8
freecads.com
100
AcDbLine
 10
105020.14723901
 20
95052.37308804865
 30
0.0
 11
105020.1410619534
 21
95052.37618482576
 31
0.0
  0
LINE
  5
4F2CC
330
1F
100
AcDbEntity
  8
freecads.com
100
AcDbLine
 10
105020.1410619534
 20
95052.37618482576
 30
0.0
 11
105020.1357383302
 21
95052.37885844438
 31
0.0
  0
LINE
  5
4F2CD
330
1F
100
AcDbEntity
  8
freecads.com
100
AcDbLine
 10
105020.1357383302
 20
95052.37885844438
 30
0.0
 11
105020.1306429083
 21
95052.38111570077
 31
0.0
  0
LINE
  5
4F2CE
330
1F
100
AcDbEntity
  8
freecads.com
100
AcDbLine
 10
105020.1306429083
 20
95052.38111570077
 30
0.0
 11
105020.125150455
 21
95052.3829633912
 31
0.0
  0
LINE
  5
4F2CF
330
1F
100
AcDbEntity
  8
freecads.com
100
AcDbLine
 10
105020.125150455
 20
95052.3829633912
 30
0.0
 11
105020.1186357382
 21
95052.38440831192
 31
0.0
  0
LINE
  5
4F2D0
330
1F
100
AcDbEntity
  8
freecads.com
100
AcDbLine
 10
105020.1186357382
 20
95052.38440831192
 30
0.0
 11
105020.1104735253
 21
95052.38545725918
 31
0.0
  0
LINE
  5
4F2D1
330
1F
100
AcDbEntity
  8
freecads.com
100
AcDbLine
 10
105020.1104735253
 20
95052.38545725918
 30
0.0
 11
105020.1000385841
 21
95052.38611702925
 31
0.0
  0
LINE
  5
4F2D2
330
1F
100
AcDbEntity
  8
freecads.com
100
AcDbLine
 10
105020.1000385841
 20
95052.38611702925
 30
0.0
 11
105020.086705682
 21
95052.3863944184
 31
0.0
  0
LINE
  5
4F2D3
330
1F
100
AcDbEntity
  8
freecads.com
100
AcDbLine
 10
105020.1627657394
 20
95052.33110346647
 30
0.0
 11
105020.1349410197
 21
95052.33617086631
 31
0.0
  0
LINE
  5
4F2D4
330
1F
100
AcDbEntity
  8
freecads.com
100
AcDbLine
 10
105020.1349410197
 20
95052.33617086631
 30
0.0
 11
105020.1099579306
 21
95052.33940079666
 31
0.0
  0
LINE
  5
4F2D5
330
1F
100
AcDbEntity
  8
freecads.com
100
AcDbLine
 10
105020.1099579306
 20
95052.33940079666
 30
0.0
 11
105020.0873461439
 21
95052.34123384207
 31
0.0
  0
LINE
  5
4F2D6
330
1F
100
AcDbEntity
  8
freecads.com
100
AcDbLine
 10
105020.0873461439
 20
95052.34123384207
 30
0.0
 11
105020.0666353311
 21
95052.34211058709
 31
0.0
  0
LINE
  5
4F2D7
330
1F
100
AcDbEntity
  8
freecads.com
100
AcDbLine
 10
105020.0666353311
 20
95052.34211058709
 30
0.0
 11
105020.0473551636
 21
95052.34247161622
 31
0.0
  0
LINE
  5
4F2D8
330
1F
100
AcDbEntity
  8
freecads.com
100
AcDbLine
 10
105020.0473551636
 20
95052.34247161622
 30
0.0
 11
105020.0290353132
 21
95052.34275751396
 31
0.0
  0
LINE
  5
4F2D9
330
1F
100
AcDbEntity
  8
freecads.com
100
AcDbLine
 10
105020.0290353132
 20
95052.34275751396
 30
0.0
 11
105020.0112054511
 21
95052.34340886485
 31
0.0
  0
LINE
  5
4F2DA
330
1F
100
AcDbEntity
  8
freecads.com
100
AcDbLine
 10
105020.0112054511
 20
95052.34340886485
 30
0.0
 11
105019.9933952492
 21
95052.3448662534
 31
0.0
  0
LINE
  5
4F2DB
330
1F
100
AcDbEntity
  8
freecads.com
100
AcDbLine
 10
105019.9933952492
 20
95052.3448662534
 30
0.0
 11
105019.9752200376
 21
95052.34745628762
 31
0.0
  0
LINE
  5
4F2DC
330
1F
100
AcDbEntity
  8
freecads.com
100
AcDbLine
 10
105019.9752200376
 20
95052.34745628762
 30
0.0
 11
105019.9566377814
 21
95052.35104966923
 31
0.0
  0
LINE
  5
4F2DD
330
1F
100
AcDbEntity
  8
freecads.com
100
AcDbLine
 10
105019.9566377814
 20
95052.35104966923
 30
0.0
 11
105019.9376921045
 21
95052.35540312346
 31
0.0
  0
LINE
  5
4F2DE
330
1F
100
AcDbEntity
  8
freecads.com
100
AcDbLine
 10
105019.9376921045
 20
95052.35540312346
 30
0.0
 11
105019.9184266307
 21
95052.36027337558
 31
0.0
  0
LINE
  5
4F2DF
330
1F
100
AcDbEntity
  8
freecads.com
100
AcDbLine
 10
105019.9184266307
 20
95052.36027337558
 30
0.0
 11
105019.8988849839
 21
95052.36541715076
 31
0.0
  0
LINE
  5
4F2E0
330
1F
100
AcDbEntity
  8
freecads.com
100
AcDbLine
 10
105019.8988849839
 20
95052.36541715076
 30
0.0
 11
105019.8791107878
 21
95052.37059117428
 31
0.0
  0
LINE
  5
4F2E1
330
1F
100
AcDbEntity
  8
freecads.com
100
AcDbLine
 10
105019.8791107878
 20
95052.37059117428
 30
0.0
 11
105019.8591476664
 21
95052.37555217133
 31
0.0
  0
LINE
  5
4F2E2
330
1F
100
AcDbEntity
  8
freecads.com
100
AcDbLine
 10
105019.8591476664
 20
95052.37555217133
 30
0.0
 11
105019.8390392435
 21
95052.38005686715
 31
0.0
  0
LINE
  5
4F2E3
330
1F
100
AcDbEntity
  8
freecads.com
100
AcDbLine
 10
105019.8390392435
 20
95052.38005686715
 30
0.0
 11
105019.81886901
 21
95052.38391944068
 31
0.0
  0
LINE
  5
4F2E4
330
1F
100
AcDbEntity
  8
freecads.com
100
AcDbLine
 10
105019.81886901
 20
95052.38391944068
 30
0.0
 11
105019.7988799253
 21
95052.38718388582
 31
0.0
  0
LINE
  5
4F2E5
330
1F
100
AcDbEntity
  8
freecads.com
100
AcDbLine
 10
105019.7988799253
 20
95052.38718388582
 30
0.0
 11
105019.7793548159
 21
95052.38995165015
 31
0.0
  0
LINE
  5
4F2E6
330
1F
100
AcDbEntity
  8
freecads.com
100
AcDbLine
 10
105019.7793548159
 20
95052.38995165015
 30
0.0
 11
105019.7605765082
 21
95052.39232418135
 31
0.0
  0
LINE
  5
4F2E7
330
1F
100
AcDbEntity
  8
freecads.com
100
AcDbLine
 10
105019.7605765082
 20
95052.39232418135
 30
0.0
 11
105019.7428278287
 21
95052.39440292696
 31
0.0
  0
LINE
  5
4F2E8
330
1F
100
AcDbEntity
  8
freecads.com
100
AcDbLine
 10
105019.7428278287
 20
95052.39440292696
 30
0.0
 11
105019.7263916039
 21
95052.39628933464
 31
0.0
  0
LINE
  5
4F2E9
330
1F
100
AcDbEntity
  8
freecads.com
100
AcDbLine
 10
105019.7263916039
 20
95052.39628933464
 30
0.0
 11
105019.7115506602
 21
95052.398084852
 31
0.0
  0
LINE
  5
4F2EA
330
1F
100
AcDbEntity
  8
freecads.com
100
AcDbLine
 10
105019.7115506602
 20
95052.398084852
 30
0.0
 11
105019.6985878241
 21
95052.39989092663
 31
0.0
  0
LINE
  5
4F2EB
330
1F
100
AcDbEntity
  8
freecads.com
100
AcDbLine
 10
105019.6985878241
 20
95052.39989092663
 30
0.0
 11
105019.6877096676
 21
95052.40178469691
 31
0.0
  0
LINE
  5
4F2EC
330
1F
100
AcDbEntity
  8
freecads.com
100
AcDbLine
 10
105019.6877096676
 20
95052.40178469691
 30
0.0
 11
105019.6788177444
 21
95052.40374606414
 31
0.0
  0
LINE
  5
4F2ED
330
1F
100
AcDbEntity
  8
freecads.com
100
AcDbLine
 10
105019.6788177444
 20
95052.40374606414
 30
0.0
 11
105019.6717373537
 21
95052.40573062037
 31
0.0
  0
LINE
  5
4F2EE
330
1F
100
AcDbEntity
  8
freecads.com
100
AcDbLine
 10
105019.6717373537
 20
95052.40573062037
 30
0.0
 11
105019.6662937947
 21
95052.40769395769
 31
0.0
  0
LINE
  5
4F2EF
330
1F
100
AcDbEntity
  8
freecads.com
100
AcDbLine
 10
105019.6662937947
 20
95052.40769395769
 30
0.0
 11
105019.6623123665
 21
95052.40959166814
 31
0.0
  0
LINE
  5
4F2F0
330
1F
100
AcDbEntity
  8
freecads.com
100
AcDbLine
 10
105019.6623123665
 20
95052.40959166814
 30
0.0
 11
105019.6596183685
 21
95052.41137934378
 31
0.0
  0
LINE
  5
4F2F1
330
1F
100
AcDbEntity
  8
freecads.com
100
AcDbLine
 10
105019.6596183685
 20
95052.41137934378
 30
0.0
 11
105019.6580370997
 21
95052.41301257665
 31
0.0
  0
LINE
  5
4F2F2
330
1F
100
AcDbEntity
  8
freecads.com
100
AcDbLine
 10
105019.6580370997
 20
95052.41301257665
 30
0.0
 11
105019.6573938594
 21
95052.41444695885
 31
0.0
  0
LINE
  5
4F2F3
330
1F
100
AcDbEntity
  8
freecads.com
100
AcDbLine
 10
105019.6573938594
 20
95052.41444695885
 30
0.0
 11
105019.6575462374
 21
95052.41566568237
 31
0.0
  0
LINE
  5
4F2F4
330
1F
100
AcDbEntity
  8
freecads.com
100
AcDbLine
 10
105019.6575462374
 20
95052.41566568237
 30
0.0
 11
105019.6584809863
 21
95052.41676233911
 31
0.0
  0
LINE
  5
4F2F5
330
1F
100
AcDbEntity
  8
freecads.com
100
AcDbLine
 10
105019.6584809863
 20
95052.41676233911
 30
0.0
 11
105019.6602171494
 21
95052.41785812099
 31
0.0
  0
LINE
  5
4F2F6
330
1F
100
AcDbEntity
  8
freecads.com
100
AcDbLine
 10
105019.6602171494
 20
95052.41785812099
 30
0.0
 11
105019.6627737698
 21
95052.41907421982
 31
0.0
  0
LINE
  5
4F2F7
330
1F
100
AcDbEntity
  8
freecads.com
100
AcDbLine
 10
105019.6627737698
 20
95052.41907421982
 30
0.0
 11
105019.6661698908
 21
95052.42053182753
 31
0.0
  0
LINE
  5
4F2F8
330
1F
100
AcDbEntity
  8
freecads.com
100
AcDbLine
 10
105019.6661698908
 20
95052.42053182753
 30
0.0
 11
105019.6704245555
 21
95052.42235213597
 31
0.0
  0
LINE
  5
4F2F9
330
1F
100
AcDbEntity
  8
freecads.com
100
AcDbLine
 10
105019.6704245555
 20
95052.42235213597
 30
0.0
 11
105019.6755568073
 21
95052.42465633701
 31
0.0
  0
LINE
  5
4F2FA
330
1F
100
AcDbEntity
  8
freecads.com
100
AcDbLine
 10
105019.6755568073
 20
95052.42465633701
 30
0.0
 11
105019.6815856892
 21
95052.42756562251
 31
0.0
  0
LINE
  5
4F2FB
330
1F
100
AcDbEntity
  8
freecads.com
100
AcDbLine
 10
105019.6815856892
 20
95052.42756562251
 30
0.0
 11
105019.6885252794
 21
95052.43115109633
 31
0.0
  0
LINE
  5
4F2FC
330
1F
100
AcDbEntity
  8
freecads.com
100
AcDbLine
 10
105019.6885252794
 20
95052.43115109633
 30
0.0
 11
105019.6963697944
 21
95052.43528350996
 31
0.0
  0
LINE
  5
4F2FD
330
1F
100
AcDbEntity
  8
freecads.com
100
AcDbLine
 10
105019.6963697944
 20
95052.43528350996
 30
0.0
 11
105019.7051084858
 21
95052.43978352693
 31
0.0
  0
LINE
  5
4F2FE
330
1F
100
AcDbEntity
  8
freecads.com
100
AcDbLine
 10
105019.7051084858
 20
95052.43978352693
 30
0.0
 11
105019.714730605
 21
95052.44447181071
 31
0.0
  0
LINE
  5
4F2FF
330
1F
100
AcDbEntity
  8
freecads.com
100
AcDbLine
 10
105019.714730605
 20
95052.44447181071
 30
0.0
 11
105019.7252254036
 21
95052.44916902478
 31
0.0
  0
LINE
  5
4F300
330
1F
100
AcDbEntity
  8
freecads.com
100
AcDbLine
 10
105019.7252254036
 20
95052.44916902478
 30
0.0
 11
105019.736582133
 21
95052.45369583262
 31
0.0
  0
LINE
  5
4F301
330
1F
100
AcDbEntity
  8
freecads.com
100
AcDbLine
 10
105019.736582133
 20
95052.45369583262
 30
0.0
 11
105019.7487900446
 21
95052.45787289773
 31
0.0
  0
LINE
  5
4F302
330
1F
100
AcDbEntity
  8
freecads.com
100
AcDbLine
 10
105019.7487900446
 20
95052.45787289773
 30
0.0
 11
105019.7618383899
 21
95052.46152088357
 31
0.0
  0
LINE
  5
4F303
330
1F
100
AcDbEntity
  8
freecads.com
100
AcDbLine
 10
105019.7618383899
 20
95052.46152088357
 30
0.0
 11
105019.7757247421
 21
95052.4644772936
 31
0.0
  0
LINE
  5
4F304
330
1F
100
AcDbEntity
  8
freecads.com
100
AcDbLine
 10
105019.7757247421
 20
95052.4644772936
 30
0.0
 11
105019.7904799613
 21
95052.46664699095
 31
0.0
  0
LINE
  5
4F305
330
1F
100
AcDbEntity
  8
freecads.com
100
AcDbLine
 10
105019.7904799613
 20
95052.46664699095
 30
0.0
 11
105019.8061432293
 21
95052.46795167874
 31
0.0
  0
LINE
  5
4F306
330
1F
100
AcDbEntity
  8
freecads.com
100
AcDbLine
 10
105019.8061432293
 20
95052.46795167874
 30
0.0
 11
105019.8227537277
 21
95052.46831306006
 31
0.0
  0
LINE
  5
4F307
330
1F
100
AcDbEntity
  8
freecads.com
100
AcDbLine
 10
105019.8227537277
 20
95052.46831306006
 30
0.0
 11
105019.8403506385
 21
95052.467652838
 31
0.0
  0
LINE
  5
4F308
330
1F
100
AcDbEntity
  8
freecads.com
100
AcDbLine
 10
105019.8403506385
 20
95052.467652838
 30
0.0
 11
105019.8589731433
 21
95052.46589271569
 31
0.0
  0
LINE
  5
4F309
330
1F
100
AcDbEntity
  8
freecads.com
100
AcDbLine
 10
105019.8589731433
 20
95052.46589271569
 30
0.0
 11
105019.8786604239
 21
95052.46295439622
 31
0.0
  0
LINE
  5
4F30A
330
1F
100
AcDbEntity
  8
freecads.com
100
AcDbLine
 10
105019.8786604239
 20
95052.46295439622
 30
0.0
 11
105019.8994516622
 21
95052.45875958268
 31
0.0
  0
LINE
  5
4F30B
330
1F
100
AcDbEntity
  8
freecads.com
100
AcDbLine
 10
105019.8994516622
 20
95052.45875958268
 30
0.0
 11
105019.9213044172
 21
95052.45328283475
 31
0.0
  0
LINE
  5
4F30C
330
1F
100
AcDbEntity
  8
freecads.com
100
AcDbLine
 10
105019.9213044172
 20
95052.45328283475
 30
0.0
 11
105019.9438497579
 21
95052.44671013851
 31
0.0
  0
LINE
  5
4F30D
330
1F
100
AcDbEntity
  8
freecads.com
100
AcDbLine
 10
105019.9438497579
 20
95052.44671013851
 30
0.0
 11
105019.9666371307
 21
95052.43928033655
 31
0.0
  0
LINE
  5
4F30E
330
1F
100
AcDbEntity
  8
freecads.com
100
AcDbLine
 10
105019.9666371307
 20
95052.43928033655
 30
0.0
 11
105019.9892159817
 21
95052.43123227153
 31
0.0
  0
LINE
  5
4F30F
330
1F
100
AcDbEntity
  8
freecads.com
100
AcDbLine
 10
105019.9892159817
 20
95052.43123227153
 30
0.0
 11
105020.0111357573
 21
95052.42280478606
 31
0.0
  0
LINE
  5
4F310
330
1F
100
AcDbEntity
  8
freecads.com
100
AcDbLine
 10
105020.0111357573
 20
95052.42280478606
 30
0.0
 11
105020.0319459039
 21
95052.41423672279
 31
0.0
  0
LINE
  5
4F311
330
1F
100
AcDbEntity
  8
freecads.com
100
AcDbLine
 10
105020.0319459039
 20
95052.41423672279
 30
0.0
 11
105020.0511958676
 21
95052.40576692433
 31
0.0
  0
LINE
  5
4F312
330
1F
100
AcDbEntity
  8
freecads.com
100
AcDbLine
 10
105020.0511958676
 20
95052.40576692433
 30
0.0
 11
105020.0684350949
 21
95052.39763423334
 31
0.0
  0
LINE
  5
4F313
330
1F
100
AcDbEntity
  8
freecads.com
100
AcDbLine
 10
105020.0684350949
 20
95052.39763423334
 30
0.0
 11
105020.0833260394
 21
95052.39003732405
 31
0.0
  0
LINE
  5
4F314
330
1F
100
AcDbEntity
  8
freecads.com
100
AcDbLine
 10
105020.0833260394
 20
95052.39003732405
 30
0.0
 11
105020.0959831842
 21
95052.38301419719
 31
0.0
  0
LINE
  5
4F315
330
1F
100
AcDbEntity
  8
freecads.com
100
AcDbLine
 10
105020.0959831842
 20
95052.38301419719
 30
0.0
 11
105020.1066340197
 21
95052.37656268512
 31
0.0
  0
LINE
  5
4F316
330
1F
100
AcDbEntity
  8
freecads.com
100
AcDbLine
 10
105020.1066340197
 20
95052.37656268512
 30
0.0
 11
105020.1155060363
 21
95052.37068062019
 31
0.0
  0
LINE
  5
4F317
330
1F
100
AcDbEntity
  8
freecads.com
100
AcDbLine
 10
105020.1155060363
 20
95052.37068062019
 30
0.0
 11
105020.1228267247
 21
95052.36536583472
 31
0.0
  0
LINE
  5
4F318
330
1F
100
AcDbEntity
  8
freecads.com
100
AcDbLine
 10
105020.1228267247
 20
95052.36536583472
 30
0.0
 11
105020.128823575
 21
95052.36061616109
 31
0.0
  0
LINE
  5
4F319
330
1F
100
AcDbEntity
  8
freecads.com
100
AcDbLine
 10
105020.128823575
 20
95052.36061616109
 30
0.0
 11
105020.1337240779
 21
95052.35642943164
 31
0.0
  0
LINE
  5
4F31A
330
1F
100
AcDbEntity
  8
freecads.com
100
AcDbLine
 10
105020.1337240779
 20
95052.35642943164
 30
0.0
 11
105020.1377557238
 21
95052.3528034787
 31
0.0
  0
LINE
  5
4F31B
330
1F
100
AcDbEntity
  8
freecads.com
100
AcDbLine
 10
105020.1377557238
 20
95052.3528034787
 30
0.0
 11
105020.1411215955
 21
95052.34972552495
 31
0.0
  0
LINE
  5
4F31C
330
1F
100
AcDbEntity
  8
freecads.com
100
AcDbLine
 10
105020.1411215955
 20
95052.34972552495
 30
0.0
 11
105020.1439271454
 21
95052.34714035417
 31
0.0
  0
LINE
  5
4F31D
330
1F
100
AcDbEntity
  8
freecads.com
100
AcDbLine
 10
105020.1439271454
 20
95052.34714035417
 30
0.0
 11
105020.1462534183
 21
95052.34498214045
 31
0.0
  0
LINE
  5
4F31E
330
1F
100
AcDbEntity
  8
freecads.com
100
AcDbLine
 10
105020.1462534183
 20
95052.34498214045
 30
0.0
 11
105020.1481814591
 21
95052.34318505795
 31
0.0
  0
LINE
  5
4F31F
330
1F
100
AcDbEntity
  8
freecads.com
100
AcDbLine
 10
105020.1481814591
 20
95052.34318505795
 30
0.0
 11
105020.1497923124
 21
95052.34168328074
 31
0.0
  0
LINE
  5
4F320
330
1F
100
AcDbEntity
  8
freecads.com
100
AcDbLine
 10
105020.1497923124
 20
95052.34168328074
 30
0.0
 11
105020.1511670231
 21
95052.34041098292
 31
0.0
  0
LINE
  5
4F321
330
1F
100
AcDbEntity
  8
freecads.com
100
AcDbLine
 10
105020.1511670231
 20
95052.34041098292
 30
0.0
 11
105020.1523866359
 21
95052.33930233863
 31
0.0
  0
LINE
  5
4F322
330
1F
100
AcDbEntity
  8
freecads.com
100
AcDbLine
 10
105020.1523866359
 20
95052.33930233863
 30
0.0
 11
105020.1535321958
 21
95052.33829152194
 31
0.0
  0
LINE
  5
4F323
330
1F
100
AcDbEntity
  8
freecads.com
100
AcDbLine
 10
105020.1535321958
 20
95052.33829152194
 30
0.0
 11
105020.1546676184
 21
95052.33732456284
 31
0.0
  0
LINE
  5
4F324
330
1F
100
AcDbEntity
  8
freecads.com
100
AcDbLine
 10
105020.1546676184
 20
95052.33732456284
 30
0.0
 11
105020.1557883037
 21
95052.33639491489
 31
0.0
  0
LINE
  5
4F325
330
1F
100
AcDbEntity
  8
freecads.com
100
AcDbLine
 10
105020.1557883037
 20
95052.33639491489
 30
0.0
 11
105020.1568725225
 21
95052.3355078875
 31
0.0
  0
LINE
  5
4F326
330
1F
100
AcDbEntity
  8
freecads.com
100
AcDbLine
 10
105020.1568725225
 20
95052.3355078875
 30
0.0
 11
105020.1578985458
 21
95052.33466879008
 31
0.0
  0
LINE
  5
4F327
330
1F
100
AcDbEntity
  8
freecads.com
100
AcDbLine
 10
105020.1578985458
 20
95052.33466879008
 30
0.0
 11
105020.1588446444
 21
95052.33388293202
 31
0.0
  0
LINE
  5
4F328
330
1F
100
AcDbEntity
  8
freecads.com
100
AcDbLine
 10
105020.1588446444
 20
95052.33388293202
 30
0.0
 11
105020.1596890893
 21
95052.33315562279
 31
0.0
  0
LINE
  5
4F329
330
1F
100
AcDbEntity
  8
freecads.com
100
AcDbLine
 10
105020.1596890893
 20
95052.33315562279
 30
0.0
 11
105020.1604101513
 21
95052.33249217177
 31
0.0
  0
LINE
  5
4F32A
330
1F
100
AcDbEntity
  8
freecads.com
100
AcDbLine
 10
105020.1604101513
 20
95052.33249217177
 30
0.0
 11
105020.1609861014
 21
95052.33189788839
 31
0.0
  0
LINE
  5
4F32B
330
1F
100
AcDbEntity
  8
freecads.com
100
AcDbLine
 10
105020.1609861014
 20
95052.33189788839
 30
0.0
 11
105020.1613981804
 21
95052.33137458242
 31
0.0
  0
LINE
  5
4F32C
330
1F
100
AcDbEntity
  8
freecads.com
100
AcDbLine
 10
105020.1613981804
 20
95052.33137458242
 30
0.0
 11
105020.1616395092
 21
95052.33091006507
 31
0.0
  0
LINE
  5
4F32D
330
1F
100
AcDbEntity
  8
freecads.com
100
AcDbLine
 10
105020.1616395092
 20
95052.33091006507
 30
0.0
 11
105020.1617061786
 21
95052.33048864791
 31
0.0
  0
LINE
  5
4F32E
330
1F
100
AcDbEntity
  8
freecads.com
100
AcDbLine
 10
105020.1617061786
 20
95052.33048864791
 30
0.0
 11
105020.1615942797
 21
95052.33009464252
 31
0.0
  0
LINE
  5
4F32F
330
1F
100
AcDbEntity
  8
freecads.com
100
AcDbLine
 10
105020.1615942797
 20
95052.33009464252
 30
0.0
 11
105020.1612999032
 21
95052.32971236043
 31
0.0
  0
LINE
  5
4F330
330
1F
100
AcDbEntity
  8
freecads.com
100
AcDbLine
 10
105020.1612999032
 20
95052.32971236043
 30
0.0
 11
105020.1608191401
 21
95052.32932611324
 31
0.0
  0
LINE
  5
4F331
330
1F
100
AcDbEntity
  8
freecads.com
100
AcDbLine
 10
105020.1608191401
 20
95052.32932611324
 30
0.0
 11
105020.1601480811
 21
95052.32892021252
 31
0.0
  0
LINE
  5
4F332
330
1F
100
AcDbEntity
  8
freecads.com
100
AcDbLine
 10
105020.1601480811
 20
95052.32892021252
 30
0.0
 11
105020.1592828172
 21
95052.3284789698
 31
0.0
  0
LINE
  5
4F333
330
1F
100
AcDbEntity
  8
freecads.com
100
AcDbLine
 10
105020.1592828172
 20
95052.3284789698
 30
0.0
 11
105020.1582262757
 21
95052.32798982603
 31
0.0
  0
LINE
  5
4F334
330
1F
100
AcDbEntity
  8
freecads.com
100
AcDbLine
 10
105020.1582262757
 20
95052.32798982603
 30
0.0
 11
105020.1570087291
 21
95052.32745273968
 31
0.0
  0
LINE
  5
4F335
330
1F
100
AcDbEntity
  8
freecads.com
100
AcDbLine
 10
105020.1570087291
 20
95052.32745273968
 30
0.0
 11
105020.1556672862
 21
95052.3268707985
 31
0.0
  0
LINE
  5
4F336
330
1F
100
AcDbEntity
  8
freecads.com
100
AcDbLine
 10
105020.1556672862
 20
95052.3268707985
 30
0.0
 11
105020.1542390562
 21
95052.32624709032
 31
0.0
  0
LINE
  5
4F337
330
1F
100
AcDbEntity
  8
freecads.com
100
AcDbLine
 10
105020.1542390562
 20
95052.32624709032
 30
0.0
 11
105020.1527611478
 21
95052.32558470291
 31
0.0
  0
LINE
  5
4F338
330
1F
100
AcDbEntity
  8
freecads.com
100
AcDbLine
 10
105020.1527611478
 20
95052.32558470291
 30
0.0
 11
105020.15127067
 21
95052.32488672408
 31
0.0
  0
LINE
  5
4F339
330
1F
100
AcDbEntity
  8
freecads.com
100
AcDbLine
 10
105020.15127067
 20
95052.32488672408
 30
0.0
 11
105020.1498047318
 21
95052.32415624167
 31
0.0
  0
LINE
  5
4F33A
330
1F
100
AcDbEntity
  8
freecads.com
100
AcDbLine
 10
105020.1498047318
 20
95052.32415624167
 30
0.0
 11
105020.1484004421
 21
95052.32339634341
 31
0.0
  0
LINE
  5
4F33B
330
1F
100
AcDbEntity
  8
freecads.com
100
AcDbLine
 10
105020.1484004421
 20
95052.32339634341
 30
0.0
 11
105020.1470837704
 21
95052.32261459463
 31
0.0
  0
LINE
  5
4F33C
330
1F
100
AcDbEntity
  8
freecads.com
100
AcDbLine
 10
105020.1470837704
 20
95052.32261459463
 30
0.0
 11
105020.1458361284
 21
95052.32183647043
 31
0.0
  0
LINE
  5
4F33D
330
1F
100
AcDbEntity
  8
freecads.com
100
AcDbLine
 10
105020.1458361284
 20
95052.32183647043
 30
0.0
 11
105020.1446277887
 21
95052.32109192347
 31
0.0
  0
LINE
  5
4F33E
330
1F
100
AcDbEntity
  8
freecads.com
100
AcDbLine
 10
105020.1446277887
 20
95052.32109192347
 30
0.0
 11
105020.1434290234
 21
95052.32041090634
 31
0.0
  0
LINE
  5
4F33F
330
1F
100
AcDbEntity
  8
freecads.com
100
AcDbLine
 10
105020.1434290234
 20
95052.32041090634
 30
0.0
 11
105020.1422101051
 21
95052.31982337166
 31
0.0
  0
LINE
  5
4F340
330
1F
100
AcDbEntity
  8
freecads.com
100
AcDbLine
 10
105020.1422101051
 20
95052.31982337166
 30
0.0
 11
105020.140941306
 21
95052.31935927206
 31
0.0
  0
LINE
  5
4F341
330
1F
100
AcDbEntity
  8
freecads.com
100
AcDbLine
 10
105020.140941306
 20
95052.31935927206
 30
0.0
 11
105020.1395928986
 21
95052.31904856017
 31
0.0
  0
LINE
  5
4F342
330
1F
100
AcDbEntity
  8
freecads.com
100
AcDbLine
 10
105020.1395928986
 20
95052.31904856017
 30
0.0
 11
105020.1381351552
 21
95052.31892118857
 31
0.0
  0
LINE
  5
4F343
330
1F
100
AcDbEntity
  8
freecads.com
100
AcDbLine
 10
105020.1381351552
 20
95052.31892118857
 30
0.0
 11
105020.1365450025
 21
95052.31899216509
 31
0.0
  0
LINE
  5
4F344
330
1F
100
AcDbEntity
  8
freecads.com
100
AcDbLine
 10
105020.1365450025
 20
95052.31899216509
 30
0.0
 11
105020.1348259841
 21
95052.31921671809
 31
0.0
  0
LINE
  5
4F345
330
1F
100
AcDbEntity
  8
freecads.com
100
AcDbLine
 10
105020.1348259841
 20
95052.31921671809
 30
0.0
 11
105020.1329882979
 21
95052.31953513112
 31
0.0
  0
LINE
  5
4F346
330
1F
100
AcDbEntity
  8
freecads.com
100
AcDbLine
 10
105020.1329882979
 20
95052.31953513112
 30
0.0
 11
105020.1310421419
 21
95052.31988768775
 31
0.0
  0
LINE
  5
4F347
330
1F
100
AcDbEntity
  8
freecads.com
100
AcDbLine
 10
105020.1310421419
 20
95052.31988768775
 30
0.0
 11
105020.1289977138
 21
95052.32021467154
 31
0.0
  0
LINE
  5
4F348
330
1F
100
AcDbEntity
  8
freecads.com
100
AcDbLine
 10
105020.1289977138
 20
95052.32021467154
 30
0.0
 11
105020.1268652117
 21
95052.32045636605
 31
0.0
  0
LINE
  5
4F349
330
1F
100
AcDbEntity
  8
freecads.com
100
AcDbLine
 10
105020.1268652117
 20
95052.32045636605
 30
0.0
 11
105020.1246548334
 21
95052.32055305484
 31
0.0
  0
LINE
  5
4F34A
330
1F
100
AcDbEntity
  8
freecads.com
100
AcDbLine
 10
105020.1246548334
 20
95052.32055305484
 30
0.0
 11
105020.1223767769
 21
95052.32044502143
 31
0.0
  0
LINE
  5
4F34B
330
1F
100
AcDbEntity
  8
freecads.com
100
AcDbLine
 10
105020.1223767769
 20
95052.32044502143
 30
0.0
 11
105020.1200462608
 21
95052.32009208167
 31
0.0
  0
LINE
  5
4F34C
330
1F
100
AcDbEntity
  8
freecads.com
100
AcDbLine
 10
105020.1200462608
 20
95052.32009208167
 30
0.0
 11
105020.1176985869
 21
95052.31953218052
 31
0.0
  0
LINE
  5
4F34D
330
1F
100
AcDbEntity
  8
freecads.com
100
AcDbLine
 10
105020.1176985869
 20
95052.31953218052
 30
0.0
 11
105020.1153740781
 21
95052.31882279518
 31
0.0
  0
LINE
  5
4F34E
330
1F
100
AcDbEntity
  8
freecads.com
100
AcDbLine
 10
105020.1153740781
 20
95052.31882279518
 30
0.0
 11
105020.1131130569
 21
95052.3180214029
 31
0.0
  0
LINE
  5
4F34F
330
1F
100
AcDbEntity
  8
freecads.com
100
AcDbLine
 10
105020.1131130569
 20
95052.3180214029
 30
0.0
 11
105020.110955846
 21
95052.31718548085
 31
0.0
  0
LINE
  5
4F350
330
1F
100
AcDbEntity
  8
freecads.com
100
AcDbLine
 10
105020.110955846
 20
95052.31718548085
 30
0.0
 11
105020.1089427681
 21
95052.31637250627
 31
0.0
  0
LINE
  5
4F351
330
1F
100
AcDbEntity
  8
freecads.com
100
AcDbLine
 10
105020.1089427681
 20
95052.31637250627
 30
0.0
 11
105020.1071141459
 21
95052.31563995641
 31
0.0
  0
LINE
  5
4F352
330
1F
100
AcDbEntity
  8
freecads.com
100
AcDbLine
 10
105020.1071141459
 20
95052.31563995641
 30
0.0
 11
105020.105510302
 21
95052.31504530842
 31
0.0
  0
LINE
  5
4F353
330
1F
100
AcDbEntity
  8
freecads.com
100
AcDbLine
 10
105020.105510302
 20
95052.31504530842
 30
0.0
 11
105020.1041576802
 21
95052.31462753826
 31
0.0
  0
LINE
  5
4F354
330
1F
100
AcDbEntity
  8
freecads.com
100
AcDbLine
 10
105020.1041576802
 20
95052.31462753826
 30
0.0
 11
105020.1030272095
 21
95052.31435161647
 31
0.0
  0
LINE
  5
4F355
330
1F
100
AcDbEntity
  8
freecads.com
100
AcDbLine
 10
105020.1030272095
 20
95052.31435161647
 30
0.0
 11
105020.1020759397
 21
95052.31416401233
 31
0.0
  0
LINE
  5
4F356
330
1F
100
AcDbEntity
  8
freecads.com
100
AcDbLine
 10
105020.1020759397
 20
95052.31416401233
 30
0.0
 11
105020.1012609209
 21
95052.31401119509
 31
0.0
  0
LINE
  5
4F357
330
1F
100
AcDbEntity
  8
freecads.com
100
AcDbLine
 10
105020.1012609209
 20
95052.31401119509
 30
0.0
 11
105020.1005392031
 21
95052.31383963401
 31
0.0
  0
LINE
  5
4F358
330
1F
100
AcDbEntity
  8
freecads.com
100
AcDbLine
 10
105020.1005392031
 20
95052.31383963401
 30
0.0
 11
105020.0998678363
 21
95052.31359579834
 31
0.0
  0
LINE
  5
4F359
330
1F
100
AcDbEntity
  8
freecads.com
100
AcDbLine
 10
105020.0998678363
 20
95052.31359579834
 30
0.0
 11
105020.0992038704
 21
95052.31322615733
 31
0.0
  0
LINE
  5
4F35A
330
1F
100
AcDbEntity
  8
freecads.com
100
AcDbLine
 10
105020.0992038704
 20
95052.31322615733
 30
0.0
 11
105020.0985043556
 21
95052.31267718027
 31
0.0
  0
LINE
  5
4F35B
330
1F
100
AcDbEntity
  8
freecads.com
100
AcDbLine
 10
105020.0985043556
 20
95052.31267718027
 30
0.0
 11
105020.0977083525
 21
95052.31190406865
 31
0.0
  0
LINE
  5
4F35C
330
1F
100
AcDbEntity
  8
freecads.com
100
AcDbLine
 10
105020.0977083525
 20
95052.31190406865
 30
0.0
 11
105020.0966829648
 21
95052.31089695323
 31
0.0
  0
LINE
  5
4F35D
330
1F
100
AcDbEntity
  8
freecads.com
100
AcDbLine
 10
105020.0966829648
 20
95052.31089695323
 30
0.0
 11
105020.095277307
 21
95052.30965469698
 31
0.0
  0
LINE
  5
4F35E
330
1F
100
AcDbEntity
  8
freecads.com
100
AcDbLine
 10
105020.095277307
 20
95052.30965469698
 30
0.0
 11
105020.0933404936
 21
95052.30817616286
 31
0.0
  0
LINE
  5
4F35F
330
1F
100
AcDbEntity
  8
freecads.com
100
AcDbLine
 10
105020.0933404936
 20
95052.30817616286
 30
0.0
 11
105020.090721639
 21
95052.30646021388
 31
0.0
  0
LINE
  5
4F360
330
1F
100
AcDbEntity
  8
freecads.com
100
AcDbLine
 10
105020.090721639
 20
95052.30646021388
 30
0.0
 11
105020.0872698575
 21
95052.30450571302
 31
0.0
  0
LINE
  5
4F361
330
1F
100
AcDbEntity
  8
freecads.com
100
AcDbLine
 10
105020.0872698575
 20
95052.30450571302
 30
0.0
 11
105020.0828342638
 21
95052.3023115233
 31
0.0
  0
LINE
  5
4F362
330
1F
100
AcDbEntity
  8
freecads.com
100
AcDbLine
 10
105020.0828342638
 20
95052.3023115233
 30
0.0
 11
105020.0772639723
 21
95052.29987650766
 31
0.0
  0
LINE
  5
4F363
330
1F
100
AcDbEntity
  8
freecads.com
100
AcDbLine
 10
105020.0772639723
 20
95052.29987650766
 30
0.0
 11
105020.0704193935
 21
95052.2972362893
 31
0.0
  0
LINE
  5
4F364
330
1F
100
AcDbEntity
  8
freecads.com
100
AcDbLine
 10
105020.0704193935
 20
95052.2972362893
 30
0.0
 11
105020.0622061225
 21
95052.29457353209
 31
0.0
  0
LINE
  5
4F365
330
1F
100
AcDbEntity
  8
freecads.com
100
AcDbLine
 10
105020.0622061225
 20
95052.29457353209
 30
0.0
 11
105020.0525410507
 21
95052.2921076601
 31
0.0
  0
LINE
  5
4F366
330
1F
100
AcDbEntity
  8
freecads.com
100
AcDbLine
 10
105020.0525410507
 20
95052.2921076601
 30
0.0
 11
105020.0413410692
 21
95052.29005809738
 31
0.0
  0
LINE
  5
4F367
330
1F
100
AcDbEntity
  8
freecads.com
100
AcDbLine
 10
105020.0413410692
 20
95052.29005809738
 30
0.0
 11
105020.0285230692
 21
95052.28864426797
 31
0.0
  0
LINE
  5
4F368
330
1F
100
AcDbEntity
  8
freecads.com
100
AcDbLine
 10
105020.0285230692
 20
95052.28864426797
 30
0.0
 11
105020.0140039422
 21
95052.28808559596
 31
0.0
  0
LINE
  5
4F369
330
1F
100
AcDbEntity
  8
freecads.com
100
AcDbLine
 10
105020.0140039422
 20
95052.28808559596
 30
0.0
 11
105019.9977005791
 21
95052.28860150539
 31
0.0
  0
LINE
  5
4F36A
330
1F
100
AcDbEntity
  8
freecads.com
100
AcDbLine
 10
105019.9977005791
 20
95052.28860150539
 30
0.0
 11
105019.9795298714
 21
95052.29041142033
 31
0.0
  0
LINE
  5
4F36B
330
1F
100
AcDbEntity
  8
freecads.com
100
AcDbLine
 10
105019.9795298714
 20
95052.29041142033
 30
0.0
 11
105019.9595030314
 21
95052.29366306338
 31
0.0
  0
LINE
  5
4F36C
330
1F
100
AcDbEntity
  8
freecads.com
100
AcDbLine
 10
105019.9595030314
 20
95052.29366306338
 30
0.0
 11
105019.938008556
 21
95052.29821735122
 31
0.0
  0
LINE
  5
4F36D
330
1F
100
AcDbEntity
  8
freecads.com
100
AcDbLine
 10
105019.938008556
 20
95052.29821735122
 30
0.0
 11
105019.9155292632
 21
95052.30386349916
 31
0.0
  0
LINE
  5
4F36E
330
1F
100
AcDbEntity
  8
freecads.com
100
AcDbLine
 10
105019.9155292632
 20
95052.30386349916
 30
0.0
 11
105019.8925479711
 21
95052.31039072247
 31
0.0
  0
LINE
  5
4F36F
330
1F
100
AcDbEntity
  8
freecads.com
100
AcDbLine
 10
105019.8925479711
 20
95052.31039072247
 30
0.0
 11
105019.8695474977
 21
95052.31758823637
 31
0.0
  0
LINE
  5
4F370
330
1F
100
AcDbEntity
  8
freecads.com
100
AcDbLine
 10
105019.8695474977
 20
95052.31758823637
 30
0.0
 11
105019.847010661
 21
95052.32524525615
 31
0.0
  0
LINE
  5
4F371
330
1F
100
AcDbEntity
  8
freecads.com
100
AcDbLine
 10
105019.847010661
 20
95052.32524525615
 30
0.0
 11
105019.8254202791
 21
95052.33315099706
 31
0.0
  0
LINE
  5
4F372
330
1F
100
AcDbEntity
  8
freecads.com
100
AcDbLine
 10
105019.8254202791
 20
95052.33315099706
 30
0.0
 11
105019.8052591699
 21
95052.34109467435
 31
0.0
  0
LINE
  5
4F373
330
1F
100
AcDbEntity
  8
freecads.com
100
AcDbLine
 10
105019.8052591699
 20
95052.34109467435
 30
0.0
 11
105019.7869185837
 21
95052.34888997319
 31
0.0
  0
LINE
  5
4F374
330
1F
100
AcDbEntity
  8
freecads.com
100
AcDbLine
 10
105019.7869185837
 20
95052.34888997319
 30
0.0
 11
105019.7704234988
 21
95052.35644845811
 31
0.0
  0
LINE
  5
4F375
330
1F
100
AcDbEntity
  8
freecads.com
100
AcDbLine
 10
105019.7704234988
 20
95052.35644845811
 30
0.0
 11
105019.7557073256
 21
95052.36370616357
 31
0.0
  0
LINE
  5
4F376
330
1F
100
AcDbEntity
  8
freecads.com
100
AcDbLine
 10
105019.7557073256
 20
95052.36370616357
 30
0.0
 11
105019.7427034747
 21
95052.37059912401
 31
0.0
  0
LINE
  5
4F377
330
1F
100
AcDbEntity
  8
freecads.com
100
AcDbLine
 10
105019.7427034747
 20
95052.37059912401
 30
0.0
 11
105019.7313453564
 21
95052.37706337389
 31
0.0
  0
LINE
  5
4F378
330
1F
100
AcDbEntity
  8
freecads.com
100
AcDbLine
 10
105019.7313453564
 20
95052.37706337389
 30
0.0
 11
105019.7215663813
 21
95052.38303494763
 31
0.0
  0
LINE
  5
4F379
330
1F
100
AcDbEntity
  8
freecads.com
100
AcDbLine
 10
105019.7215663813
 20
95052.38303494763
 30
0.0
 11
105019.7132999597
 21
95052.38844987969
 31
0.0
  0
LINE
  5
4F37A
330
1F
100
AcDbEntity
  8
freecads.com
100
AcDbLine
 10
105019.7132999597
 20
95052.38844987969
 30
0.0
 11
105019.7064795022
 21
95052.39324420447
 31
0.0
  0
LINE
  5
4F37B
330
1F
100
AcDbEntity
  8
freecads.com
100
AcDbLine
 10
105019.7064795022
 20
95052.39324420447
 30
0.0
 11
105019.7009471534
 21
95052.39738415303
 31
0.0
  0
LINE
  5
4F37C
330
1F
100
AcDbEntity
  8
freecads.com
100
AcDbLine
 10
105019.7009471534
 20
95052.39738415303
 30
0.0
 11
105019.6961799946
 21
95052.40095674263
 31
0.0
  0
LINE
  5
4F37D
330
1F
100
AcDbEntity
  8
freecads.com
100
AcDbLine
 10
105019.6961799946
 20
95052.40095674263
 30
0.0
 11
105019.6915638412
 21
95052.40407918712
 31
0.0
  0
LINE
  5
4F37E
330
1F
100
AcDbEntity
  8
freecads.com
100
AcDbLine
 10
105019.6915638412
 20
95052.40407918712
 30
0.0
 11
105019.6864845088
 21
95052.40686870035
 31
0.0
  0
LINE
  5
4F37F
330
1F
100
AcDbEntity
  8
freecads.com
100
AcDbLine
 10
105019.6864845088
 20
95052.40686870035
 30
0.0
 11
105019.6803278127
 21
95052.40944249617
 31
0.0
  0
LINE
  5
4F380
330
1F
100
AcDbEntity
  8
freecads.com
100
AcDbLine
 10
105019.6803278127
 20
95052.40944249617
 30
0.0
 11
105019.6724795685
 21
95052.41191778843
 31
0.0
  0
LINE
  5
4F381
330
1F
100
AcDbEntity
  8
freecads.com
100
AcDbLine
 10
105019.6724795685
 20
95052.41191778843
 30
0.0
 11
105019.6623255916
 21
95052.41441179096
 31
0.0
  0
LINE
  5
4F382
330
1F
100
AcDbEntity
  8
freecads.com
100
AcDbLine
 10
105019.6623255916
 20
95052.41441179096
 30
0.0
 11
105019.6492516975
 21
95052.41704171766
 31
0.0
  0
LINE
  5
4F383
330
1F
100
AcDbEntity
  8
freecads.com
100
AcDbLine
 10
105019.6449000695
 20
95051.83899136769
 30
0.0
 11
105019.6449000695
 21
95052.4889913677
 31
0.0
  0
ARC
  5
4F384
330
1F
100
AcDbEntity
  8
freecads.com
100
AcDbCircle
 10
105019.5949000695
 20
95051.83899136769
 30
0.0
 40
0.05
100
AcDbArc
 50
270.0
 51
0.0
  0
ARC
  5
4F385
330
1F
100
AcDbEntity
  8
freecads.com
100
AcDbCircle
 10
105019.6949000695
 20
95051.83899136769
 30
0.0
 40
0.05
100
AcDbArc
 50
180.0
 51
270.0
  0
LINE
  5
4F386
330
1F
100
AcDbEntity
  8
freecads.com
100
AcDbLine
 10
105018.7449000695
 20
95051.83899136769
 30
0.0
 11
105018.7449000695
 21
95052.4889913677
 31
0.0
  0
ARC
  5
4F387
330
1F
100
AcDbEntity
  8
freecads.com
100
AcDbCircle
 10
105018.6949000695
 20
95051.83899136769
 30
0.0
 40
0.05
100
AcDbArc
 50
270.0
 51
0.0
  0
ARC
  5
4F388
330
1F
100
AcDbEntity
  8
freecads.com
100
AcDbCircle
 10
105018.7949000695
 20
95051.83899136769
 30
0.0
 40
0.05
100
AcDbArc
 50
180.0
 51
270.0
  0
LINE
  5
4F389
330
1F
100
AcDbEntity
  8
freecads.com
100
AcDbLine
 10
105018.4449000695
 20
95051.5389913677
 30
0.0
 11
105017.6949000695
 21
95051.5389913677
 31
0.0
  0
ARC
  5
4F38A
330
1F
100
AcDbEntity
  8
freecads.com
100
AcDbCircle
 10
105018.4449000695
 20
95051.4889913677
 30
0.0
 40
0.05
100
AcDbArc
 50
0.0
 51
90.0
  0
ARC
  5
4F38B
330
1F
100
AcDbEntity
  8
freecads.com
100
AcDbCircle
 10
105018.4449000695
 20
95051.5889913677
 30
0.0
 40
0.05
100
AcDbArc
 50
270.0
 51
0.0
  0
LINE
  5
4F38C
330
1F
100
AcDbEntity
  8
freecads.com
100
AcDbLine
 10
105019.6449000695
 20
95052.53899136771
 30
0.0
 11
105019.6449000695
 21
95052.68899136771
 31
0.0
  0
ARC
  5
4F38D
330
1F
100
AcDbEntity
  8
freecads.com
100
AcDbCircle
 10
105019.5949000695
 20
95052.53899136771
 30
0.0
 40
0.05
100
AcDbArc
 50
270.0
 51
0.0
  0
ARC
  5
4F38E
330
1F
100
AcDbEntity
  8
freecads.com
100
AcDbCircle
 10
105019.6949000695
 20
95052.53899136771
 30
0.0
 40
0.05
100
AcDbArc
 50
180.0
 51
270.0
  0
LINE
  5
4F38F
330
1F
100
AcDbEntity
  8
freecads.com
100
AcDbLine
 10
105018.7449000695
 20
95052.53899136771
 30
0.0
 11
105018.7449000695
 21
95052.68899136771
 31
0.0
  0
ARC
  5
4F390
330
1F
100
AcDbEntity
  8
freecads.com
100
AcDbCircle
 10
105018.6949000695
 20
95052.53899136771
 30
0.0
 40
0.05
100
AcDbArc
 50
270.0
 51
0.0
  0
ARC
  5
4F391
330
1F
100
AcDbEntity
  8
freecads.com
100
AcDbCircle
 10
105018.7949000695
 20
95052.53899136771
 30
0.0
 40
0.05
100
AcDbArc
 50
180.0
 51
270.0
  0
LINE
  5
4F392
330
1F
100
AcDbEntity
  8
freecads.com
100
AcDbLine
 10
105017.6452983909
 20
95051.54343629833
 30
0.0
 11
105017.4952983909
 21
95051.54343629833
 31
0.0
  0
ARC
  5
4F393
330
1F
100
AcDbEntity
  8
freecads.com
100
AcDbCircle
 10
105017.6452983909
 20
95051.49343629831
 30
0.0
 40
0.05
100
AcDbArc
 50
0.0
 51
90.0
  0
ARC
  5
4F394
330
1F
100
AcDbEntity
  8
freecads.com
100
AcDbCircle
 10
105017.6452983909
 20
95051.59343629831
 30
0.0
 40
0.05
100
AcDbArc
 50
270.0
 51
0.0
  0
ENDSEC
  0
SECTION
  2
OBJECTS
  0
DICTIONARY
  5
C
330
0
100
AcDbDictionary
281
     1
  3
ACAD_ASSOCPERSSUBENTMANAGER
350
2C1D4
  3
ACAD_CIP_PREVIOUS_PRODUCT_INFO
350
1A5
  3
ACAD_COLOR
350
73
  3
ACAD_DETAILVIEWSTYLE
350
1AB
  3
ACAD_GROUP
350
D
  3
ACAD_LAYOUT
350
1A
  3
ACAD_MATERIAL
350
72
  3
ACAD_MLEADERSTYLE
350
D7
  3
ACAD_MLINESTYLE
350
17
  3
ACAD_PLOTSETTINGS
350
19
  3
ACAD_PLOTSTYLENAME
350
E
  3
ACAD_SCALELIST
350
B6
  3
ACAD_SECTIONVIEWSTYLE
350
1A8
  3
ACAD_TABLESTYLE
350
86
  3
ACAD_VISUALSTYLE
350
99
  3
ACDB_RECOMPOSE_DATA
350
4F3A5
  3
ACDBVARIABLEDICTIONARY
350
4ED9D
  3
AEC_PROPERTY_SET_DEFS
350
22D1
  0
DICTIONARY
  5
18E
330
2
100
AcDbDictionary
280
     1
281
     1
  3
ACAD_LAYERSTATES
360
18F
  0
DICTIONARY
  5
E6
330
10
100
AcDbDictionary
280
     1
281
     1
  0
DICTIONARY
  5
15D
330
1F
100
AcDbDictionary
280
     1
281
     1
  3
ACAD_SORTENTS
360
28E
  0
ACDBASSOCPERSSUBENTMANAGER
  5
2C1D4
102
{ACAD_REACTORS
330
C
102
}
330
C
100
AcDbAssocPersSubentManager
 90
        2
 90
        3
 90
        0
 90
        2
 90
     1260
 90
        0
 90
        0
 90
        0
 90
        0
290
     0
  0
XRECORD
  5
1A5
102
{ACAD_REACTORS
330
C
102
}
330
C
100
AcDbXrecord
280
     1
300
ACD
300
2022
300

  0
DICTIONARY
  5
73
102
{ACAD_REACTORS
330
C
102
}
330
C
100
AcDbDictionary
281
     1
  0
DICTIONARY
  5
1AB
102
{ACAD_REACTORS
330
C
102
}
330
C
100
AcDbDictionary
281
     1
  3
Imperial24
350
1AC
  3
Metric50
350
224
  0
DICTIONARY
  5
D
102
{ACAD_REACTORS
330
C
102
}
330
C
100
AcDbDictionary
281
     1
  0
DICTIONARY
  5
1A
102
{ACAD_REACTORS
330
C
102
}
330
C
100
AcDbDictionary
281
     1
  3
Layout1
350
59
  3
Layout2
350
5E
  3
Model
350
22
  0
DICTIONARY
  5
72
102
{ACAD_REACTORS
330
C
102
}
330
C
100
AcDbDictionary
281
     1
  3
ByBlock
350
97
  3
ByLayer
350
96
  3
Global
350
98
  0
DICTIONARY
  5
D7
102
{ACAD_REACTORS
330
C
102
}
330
C
100
AcDbDictionary
281
     1
  3
Standard
350
D8
  0
DICTIONARY
  5
17
102
{ACAD_REACTORS
330
C
102
}
330
C
100
AcDbDictionary
281
     1
  3
Standard
350
18
  0
DICTIONARY
  5
19
102
{ACAD_REACTORS
330
C
102
}
330
C
100
AcDbDictionary
281
     1
  0
ACDBDICTIONARYWDFLT
  5
E
102
{ACAD_REACTORS
330
C
102
}
330
C
100
AcDbDictionary
281
     1
  3
Normal
350
F
100
AcDbDictionaryWithDefault
340
F
  0
DICTIONARY
  5
B6
102
{ACAD_REACTORS
330
C
102
}
330
C
100
AcDbDictionary
281
     1
  3
*A1
350
2283
  3
A0
350
B7
  3
A1
350
124
  3
A2
350
125
  3
A3
350
126
  3
A4
350
127
  3
A5
350
128
  3
A6
350
129
  3
A7
350
12A
  3
A8
350
12B
  3
A9
350
12C
  3
B0
350
12D
  3
B1
350
12E
  3
B2
350
12F
  3
B3
350
130
  3
B4
350
131
  3
B5
350
132
  3
B6
350
133
  3
B7
350
134
  3
B8
350
135
  3
B9
350
136
  3
C0
350
137
  3
C1
350
138
  3
C2
350
139
  3
C3
350
13A
  3
C4
350
13B
  3
C5
350
13C
  3
C6
350
13D
  3
C7
350
13E
  3
C8
350
13F
  3
C9
350
140
  3
D0
350
141
  3
D1
350
142
  3
D2
350
143
  0
DICTIONARY
  5
1A8
102
{ACAD_REACTORS
330
C
102
}
330
C
100
AcDbDictionary
281
     1
  3
Imperial24
350
1AA
  3
Metric50
350
223
  0
DICTIONARY
  5
86
102
{ACAD_REACTORS
330
C
102
}
330
C
100
AcDbDictionary
281
     1
  3
Standard
350
87
  0
DICTIONARY
  5
99
102
{ACAD_REACTORS
330
C
102
}
330
C
100
AcDbDictionary
281
     1
  3
2dWireframe
350
9F
  3
3dWireframe
350
22946
  3
Basic
350
9E
  3
Brighten
350
A5
  3
ColorChange
350
A9
  3
Conceptual
350
A2
  3
Dim
350
A4
  3
EdgeColorOff
350
175
  3
Facepattern
350
A8
  3
Flat
350
9A
  3
FlatWithEdges
350
9B
  3
Gouraud
350
9C
  3
GouraudWithEdges
350
9D
  3
Hidden
350
A1
  3
JitterOff
350
173
  3
Linepattern
350
A7
  3
OverhangOff
350
174
  3
Realistic
350
A3
  3
Shaded
350
182
  3
Shaded with edges
350
181
  3
Shades of Gray
350
17E
  3
Sketchy
350
17F
  3
Thicken
350
A6
  3
Wireframe
350
A0
  3
X-Ray
350
180
  0
XRECORD
  5
4F3A5
102
{ACAD_REACTORS
330
C
102
}
330
C
100
AcDbXrecord
280
     1
 90
        1
330
87
  0
DICTIONARY
  5
4ED9D
102
{ACAD_REACTORS
330
C
102
}
330
C
100
AcDbDictionary
281
     2
  3
#REVCLOUDAPPROXARCLEN
350
4ED9E
  3
ANNOALLVISIBLE
350
4ED9F
  3
CAMERADISPLAY
350
4EDA0
  3
CANNOSCALE
350
4EDA1
  3
CMLEADERSTYLE
350
4EDA2
  3
CTABLESTYLE
350
4EDA3
  3
CVIEWDETAILSTYLE
350
4EDA4
  3
CVIEWSECTIONSTYLE
350
4EDA5
  3
DIMADEC
350
4EDA6
  3
DIMASSOC
350
4EDA7
  3
EXPORTPAPERSPACE
350
4EDA8
  3
HPCOLOR
350
4EDA9
  3
HPINHERIT
350
4EDAA
  3
HPLAYER
350
4EDAB
  3
HPTRANSPARENCY
350
4EDAC
  3
INDEXCTL
350
4EDAD
  3
LAYEREVAL
350
4EDAE
  3
LAYERNOTIFY
350
4EDAF
  3
LIGHTINGUNITS
350
4EDB0
  3
MLEADERSCALE
350
4EDB1
  3
MSLTSCALE
350
4EDB2
  3
OLEFRAME
350
4EDB3
  3
PDFFRAME
350
4EDB4
  3
SOLIDHIST
350
4EDB5
  3
SORTENTS
350
4EDB6
  0
DICTIONARY
  5
22D1
102
{ACAD_REACTORS
330
C
102
}
330
C
100
AcDbDictionary
281
     1
  0
DICTIONARY
  5
18F
102
{ACAD_REACTORS
330
18E
102
}
330
18E
100
AcDbDictionary
281
     1
  0
SORTENTSTABLE
  5
28E
102
{ACAD_REACTORS
330
15D
102
}
330
15D
100
AcDbSortentsTable
330
1F
  0
ACDBDETAILVIEWSTYLE
  5
1AC
102
{ACAD_REACTORS
330
1AB
102
}
330
1AB
100
AcDbModelDocViewStyle
 70
     0
  3
Imperial24
290
     0
300
Imperial24
 90
        0
100
AcDbDetailViewStyle
 70
     0
 71
     0
 90
        3
 71
     1
340
11
 62
   256
 40
0.24
340
0
 62
   256
 40
0.24
300

 40
0.36
280
     3
 71
     2
340
16
 90
       25
 62
   256
 71
     3
340
11
 62
   256
 40
0.24
 90
        1
 40
0.75
 90
        1
300
%<\AcVar ViewType \f "%tc1">% %<\AcVar ViewDetailId>%\PSCALE %<\AcVar ViewScale \f "%sn">%
 71
     4
340
16
 90
       25
 62
   256
340
16
 90
       25
 62
   256
280
     0
  0
ACDBDETAILVIEWSTYLE
  5
224
102
{ACAD_REACTORS
330
1AB
102
}
330
1AB
100
AcDbModelDocViewStyle
 70
     0
  3
Metric50
290
     0
300
Metric50
 90
        0
100
AcDbDetailViewStyle
 70
     0
 71
     0
 90
        3
 71
     1
340
11
 62
   256
 40
5.0
340
0
 62
   256
 40
5.0
300

 40
0.0
280
     1
 71
     2
340
16
 90
       25
 62
   256
 71
     3
340
11
 62
   256
 40
5.0
 90
        0
 40
15.0
 90
        1
300
%<\AcVar ViewDetailId>% (%<\AcVar ViewScale \f "%sn">%)
 71
     4
340
16
 90
       25
 62
   256
340
16
 90
       25
 62
   256
280
     0
  0
LAYOUT
  5
59
102
{ACAD_REACTORS
330
1A
102
}
330
1A
100
AcDbPlotSettings
  1

  2
None
  4

  6

 40
0.0
 41
0.0
 42
0.0
 43
0.0
 44
0.0
 45
0.0
 46
0.0
 47
0.0
 48
0.0
 49
0.0
140
0.0
141
0.0
142
1.0
143
1.0
 70
   688
 72
     0
 73
     0
 74
     5
  7

 75
    16
147
1.0
 76
     0
 77
     2
 78
   300
148
0.0
149
0.0
100
AcDbLayout
  1
Layout1
 70
     1
 71
     1
 10
0.0
 20
0.0
 11
12.0
 21
9.0
 12
0.0
 22
0.0
 32
0.0
 14
0.0
 24
0.0
 34
0.0
 15
0.0
 25
0.0
 35
0.0
146
0.0
 13
0.0
 23
0.0
 33
0.0
 16
1.0
 26
0.0
 36
0.0
 17
0.0
 27
1.0
 37
0.0
 76
     0
330
58
  0
LAYOUT
  5
5E
102
{ACAD_REACTORS
330
1A
102
}
330
1A
100
AcDbPlotSettings
  1

  2
None
  4

  6

 40
0.0
 41
0.0
 42
0.0
 43
0.0
 44
0.0
 45
0.0
 46
0.0
 47
0.0
 48
0.0
 49
0.0
140
0.0
141
0.0
142
1.0
143
1.0
 70
   688
 72
     0
 73
     0
 74
     5
  7

 75
    16
147
1.0
 76
     0
 77
     2
 78
   300
148
0.0
149
0.0
100
AcDbLayout
  1
Layout2
 70
     1
 71
     2
 10
0.0
 20
0.0
 11
12.0
 21
9.0
 12
0.0
 22
0.0
 32
0.0
 14
0.0
 24
0.0
 34
0.0
 15
0.0
 25
0.0
 35
0.0
146
0.0
 13
0.0
 23
0.0
 33
0.0
 16
1.0
 26
0.0
 36
0.0
 17
0.0
 27
1.0
 37
0.0
 76
     0
330
5D
  0
LAYOUT
  5
22
102
{ACAD_XDICTIONARY
360
194
102
}
102
{ACAD_REACTORS
330
1A
102
}
330
1A
100
AcDbPlotSettings
  1

  2
none_device
  4
ANSI_A_(8.50_x_11.00_Inches)
  6

 40
6.349999904632568
 41
19.04999923706055
 42
6.350006103515625
 43
19.04998779296875
 44
215.8999938964844
 45
279.3999938964844
 46
0.0
 47
0.0
 48
0.0
 49
0.0
140
0.0
141
0.0
142
1.0
143
2.584895464708373
 70
 11952
 72
     0
 73
     1
 74
     0
  7

 75
     0
147
0.3868628397755418
 76
     0
 77
     2
 78
   300
148
0.0
149
0.0
100
AcDbLayout
  1
Model
 70
     1
 71
     0
 10
0.0
 20
0.0
 11
12.0
 21
9.0
 12
0.0
 22
0.0
 32
0.0
 14
0.0
 24
0.0
 34
0.0
 15
0.0
 25
0.0
 35
0.0
146
0.0
 13
0.0
 23
0.0
 33
0.0
 16
1.0
 26
0.0
 36
0.0
 17
0.0
 27
1.0
 37
0.0
 76
     0
330
1F
331
94
  0
MATERIAL
  5
97
102
{ACAD_XDICTIONARY
360
188
102
}
102
{ACAD_REACTORS
330
72
102
}
330
72
100
AcDbMaterial
  1
ByBlock
 94
       63
  0
MATERIAL
  5
96
102
{ACAD_XDICTIONARY
360
186
102
}
102
{ACAD_REACTORS
330
72
102
}
330
72
100
AcDbMaterial
  1
ByLayer
 94
       63
  0
MATERIAL
  5
98
102
{ACAD_XDICTIONARY
360
110
102
}
102
{ACAD_REACTORS
330
72
102
}
330
72
100
AcDbMaterial
  1
Global
 43
0.0208000000566244
 43
0.0
 43
0.0
 43
0.0
 43
0.0
 43
0.0208000000566244
 43
0.0
 43
0.0
 43
0.0
 43
0.0
 43
1.0
 43
0.0
 43
0.0
 43
0.0
 43
0.0
 43
1.0
 49
0.0208000000566244
 49
0.0
 49
0.0
 49
0.0
 49
0.0
 49
0.0208000000566244
 49
0.0
 49
0.0
 49
0.0
 49
0.0
 49
1.0
 49
0.0
 49
0.0
 49
0.0
 49
0.0
 49
1.0
142
0.0208000000566244
142
0.0
142
0.0
142
0.0
142
0.0
142
0.0208000000566244
142
0.0
142
0.0
142
0.0
142
0.0
142
1.0
142
0.0
142
0.0
142
0.0
142
0.0
142
1.0
144
0.0208000000566244
144
0.0
144
0.0
144
0.0
144
0.0
144
0.0208000000566244
144
0.0
144
0.0
144
0.0
144
0.0
144
1.0
144
0.0
144
0.0
144
0.0
144
0.0
144
1.0
 94
       63
1001
ACAD
1070
    -1
1070
     3
1070
     0
1000

1071
        0
1070
     0
  0
MLEADERSTYLE
  5
D8
102
{ACAD_REACTORS
330
D7
102
}
330
D7
100
AcDbMLeaderStyle
179
     2
170
     2
171
     1
172
     0
 90
        2
 40
0.0
 41
0.0
173
     1
 91
-1056964608
340
14
 92
       -2
290
     1
 42
0.09
291
     1
 43
0.36
  3
Standard
 44
0.18
300

342
11
174
     1
178
     1
175
     1
176
     0
 93
-1056964608
 45
0.18
292
     0
297
     0
 46
0.18
 94
-1056964608
 47
1.0
 49
1.0
140
1.0
293
     1
141
0.0
294
     1
177
     0
142
1.0
295
     0
296
     0
143
0.125
271
     0
272
     9
273
     9
298
     0
  0
MLINESTYLE
  5
18
102
{ACAD_REACTORS
330
17
102
}
330
17
100
AcDbMlineStyle
  2
STANDARD
 70
     0
  3

 62
   256
 51
90.0
 52
90.0
 71
     2
 49
0.5
 62
   256
  6
BYLAYER
 49
-0.5
 62
   256
  6
BYLAYER
  0
ACDBPLACEHOLDER
  5
F
102
{ACAD_REACTORS
330
E
102
}
330
E
  0
SCALE
  5
2283
102
{ACAD_REACTORS
330
B6
102
}
330
B6
100
AcDbScale
 70
     0
300
1:75
140
1.0
141
75.0
290
     0
  0
SCALE
  5
B7
102
{ACAD_REACTORS
330
B6
102
}
330
B6
100
AcDbScale
 70
     0
300
1:1
140
1.0
141
1.0
290
     1
  0
SCALE
  5
124
102
{ACAD_REACTORS
330
B6
102
}
330
B6
100
AcDbScale
 70
     0
300
1:2
140
1.0
141
2.0
290
     0
  0
SCALE
  5
125
102
{ACAD_REACTORS
330
B6
102
}
330
B6
100
AcDbScale
 70
     0
300
1:4
140
1.0
141
4.0
290
     0
  0
SCALE
  5
126
102
{ACAD_REACTORS
330
B6
102
}
330
B6
100
AcDbScale
 70
     0
300
1:5
140
1.0
141
5.0
290
     0
  0
SCALE
  5
127
102
{ACAD_REACTORS
330
B6
102
}
330
B6
100
AcDbScale
 70
     0
300
1:8
140
1.0
141
8.0
290
     0
  0
SCALE
  5
128
102
{ACAD_REACTORS
330
B6
102
}
330
B6
100
AcDbScale
 70
     0
300
1:10
140
1.0
141
10.0
290
     0
  0
SCALE
  5
129
102
{ACAD_REACTORS
330
B6
102
}
330
B6
100
AcDbScale
 70
     0
300
1:16
140
1.0
141
16.0
290
     0
  0
SCALE
  5
12A
102
{ACAD_REACTORS
330
B6
102
}
330
B6
100
AcDbScale
 70
     0
300
1:20
140
1.0
141
20.0
290
     0
  0
SCALE
  5
12B
102
{ACAD_REACTORS
330
B6
102
}
330
B6
100
AcDbScale
 70
     0
300
1:30
140
1.0
141
30.0
290
     0
  0
SCALE
  5
12C
102
{ACAD_REACTORS
330
B6
102
}
330
B6
100
AcDbScale
 70
     0
300
1:40
140
1.0
141
40.0
290
     0
  0
SCALE
  5
12D
102
{ACAD_REACTORS
330
B6
102
}
330
B6
100
AcDbScale
 70
     0
300
1:50
140
1.0
141
50.0
290
     0
  0
SCALE
  5
12E
102
{ACAD_REACTORS
330
B6
102
}
330
B6
100
AcDbScale
 70
     0
300
1:100
140
1.0
141
100.0
290
     0
  0
SCALE
  5
12F
102
{ACAD_REACTORS
330
B6
102
}
330
B6
100
AcDbScale
 70
     0
300
2:1
140
2.0
141
1.0
290
     0
  0
SCALE
  5
130
102
{ACAD_REACTORS
330
B6
102
}
330
B6
100
AcDbScale
 70
     0
300
4:1
140
4.0
141
1.0
290
     0
  0
SCALE
  5
131
102
{ACAD_REACTORS
330
B6
102
}
330
B6
100
AcDbScale
 70
     0
300
8:1
140
8.0
141
1.0
290
     0
  0
SCALE
  5
132
102
{ACAD_REACTORS
330
B6
102
}
330
B6
100
AcDbScale
 70
     0
300
10:1
140
10.0
141
1.0
290
     0
  0
SCALE
  5
133
102
{ACAD_REACTORS
330
B6
102
}
330
B6
100
AcDbScale
 70
     0
300
100:1
140
100.0
141
1.0
290
     0
  0
SCALE
  5
134
102
{ACAD_REACTORS
330
B6
102
}
330
B6
100
AcDbScale
 70
     0
300
1/128" = 1'-0"
140
0.0078125
141
12.0
290
     0
  0
SCALE
  5
135
102
{ACAD_REACTORS
330
B6
102
}
330
B6
100
AcDbScale
 70
     0
300
1/64" = 1'-0"
140
0.015625
141
12.0
290
     0
  0
SCALE
  5
136
102
{ACAD_REACTORS
330
B6
102
}
330
B6
100
AcDbScale
 70
     0
300
1/32" = 1'-0"
140
0.03125
141
12.0
290
     0
  0
SCALE
  5
137
102
{ACAD_REACTORS
330
B6
102
}
330
B6
100
AcDbScale
 70
     0
300
1/16" = 1'-0"
140
0.0625
141
12.0
290
     0
  0
SCALE
  5
138
102
{ACAD_REACTORS
330
B6
102
}
330
B6
100
AcDbScale
 70
     0
300
3/32" = 1'-0"
140
0.09375
141
12.0
290
     0
  0
SCALE
  5
139
102
{ACAD_REACTORS
330
B6
102
}
330
B6
100
AcDbScale
 70
     0
300
1/8" = 1'-0"
140
0.125
141
12.0
290
     0
  0
SCALE
  5
13A
102
{ACAD_REACTORS
330
B6
102
}
330
B6
100
AcDbScale
 70
     0
300
3/16" = 1'-0"
140
0.1875
141
12.0
290
     0
  0
SCALE
  5
13B
102
{ACAD_REACTORS
330
B6
102
}
330
B6
100
AcDbScale
 70
     0
300
1/4" = 1'-0"
140
0.25
141
12.0
290
     0
  0
SCALE
  5
13C
102
{ACAD_REACTORS
330
B6
102
}
330
B6
100
AcDbScale
 70
     0
300
3/8" = 1'-0"
140
0.375
141
12.0
290
     0
  0
SCALE
  5
13D
102
{ACAD_REACTORS
330
B6
102
}
330
B6
100
AcDbScale
 70
     0
300
1/2" = 1'-0"
140
0.5
141
12.0
290
     0
  0
SCALE
  5
13E
102
{ACAD_REACTORS
330
B6
102
}
330
B6
100
AcDbScale
 70
     0
300
3/4" = 1'-0"
140
0.75
141
12.0
290
     0
  0
SCALE
  5
13F
102
{ACAD_REACTORS
330
B6
102
}
330
B6
100
AcDbScale
 70
     0
300
1" = 1'-0"
140
1.0
141
12.0
290
     0
  0
SCALE
  5
140
102
{ACAD_REACTORS
330
B6
102
}
330
B6
100
AcDbScale
 70
     0
300
1-1/2" = 1'-0"
140
1.5
141
12.0
290
     0
  0
SCALE
  5
141
102
{ACAD_REACTORS
330
B6
102
}
330
B6
100
AcDbScale
 70
     0
300
3" = 1'-0"
140
3.0
141
12.0
290
     0
  0
SCALE
  5
142
102
{ACAD_REACTORS
330
B6
102
}
330
B6
100
AcDbScale
 70
     0
300
6" = 1'-0"
140
6.0
141
12.0
290
     0
  0
SCALE
  5
143
102
{ACAD_REACTORS
330
B6
102
}
330
B6
100
AcDbScale
 70
     0
300
1'-0" = 1'-0"
140
12.0
141
12.0
290
     0
  0
ACDBSECTIONVIEWSTYLE
  5
1AA
102
{ACAD_REACTORS
330
1A8
102
}
330
1A8
100
AcDbModelDocViewStyle
 70
     0
  3
Imperial24
290
     0
300
Imperial24
 90
        0
100
AcDbSectionViewStyle
 70
     0
 71
     0
 90
       78
 71
     1
340
11
 62
   256
 40
0.24
340
0
340
0
 62
   256
 40
0.24
300
I, O, Q, S, X, Z
 40
0.48
 90
        3
 40
0.18
 90
        1
 71
     2
340
16
 90
       25
 62
   256
340
16
 90
       50
 62
   256
 40
0.24
 40
0.0
 40
0.24
 71
     3
340
11
 62
   256
 40
0.24
 90
        1
 40
0.75
 90
        1
300
%<\AcVar ViewType \f "%tc1">% %<\AcVar ViewSectionStartId>%-%<\AcVar ViewSectionEndId>%\PSCALE %<\AcVar ViewScale \f "%sn">%
 71
     4
 62
   256
 62
   257
300
ANSI31
 40
1.0
 90
        0
290
     0
290
     0
 90
        6
 40
0.0
 40
1.570796326794896
 40
0.2617993877991494
 40
1.308996938995747
 40
-0.2617993877991494
 40
1.832595714594046
  0
ACDBSECTIONVIEWSTYLE
  5
223
102
{ACAD_REACTORS
330
1A8
102
}
330
1A8
100
AcDbModelDocViewStyle
 70
     0
  3
Metric50
290
     0
300
Metric50
 90
        0
100
AcDbSectionViewStyle
 70
     0
 71
     0
 90
      102
 71
     1
340
11
 62
   256
 40
5.0
340
0
340
0
 62
   256
 40
5.0
300
I, O, Q, S, X, Z
 40
10.0
 90
        0
 40
2.5
 90
        0
 71
     2
340
16
 90
       25
 62
   256
340
16
 90
       50
 62
   256
 40
5.0
 40
2.5
 40
5.0
 71
     3
340
11
 62
   256
 40
5.0
 90
        0
 40
15.0
 90
        1
300
%<\AcVar ViewSectionStartId>%-%<\AcVar ViewSectionEndId>% (%<\AcVar ViewScale \f "%sn">%)
 71
     4
 62
   256
 62
   257
300
ANSI31
 40
1.0
 90
        0
290
     0
290
     0
 90
        6
 40
0.0
 40
1.570796326794896
 40
0.2617993877991494
 40
1.308996938995747
 40
-0.2617993877991494
 40
1.832595714594046
  0
TABLESTYLE
  5
87
102
{ACAD_XDICTIONARY
360
104
102
}
102
{ACAD_REACTORS
330
86
102
}
330
86
100
AcDbTableStyle
280
     0
  3
Standard
 70
     0
 71
     0
 40
0.06
 41
0.06
280
     0
281
     0
  7
Standard
140
0.18
170
     2
 62
     0
 63
     7
283
     0
 90
      512
 91
        0
  1

274
    -2
284
     1
 64
     0
275
    -2
285
     1
 65
     0
276
    -2
286
     1
 66
     0
277
    -2
287
     1
 67
     0
278
    -2
288
     1
 68
     0
279
    -2
289
     1
 69
     0
  7
Standard
140
0.25
170
     5
 62
     0
 63
     7
283
     0
 90
      512
 91
        0
  1

274
    -2
284
     1
 64
     0
275
    -2
285
     1
 65
     0
276
    -2
286
     1
 66
     0
277
    -2
287
     1
 67
     0
278
    -2
288
     1
 68
     0
279
    -2
289
     1
 69
     0
  7
Standard
140
0.18
170
     5
 62
     0
 63
     7
283
     0
 90
      512
 91
        0
  1

274
    -2
284
     1
 64
     0
275
    -2
285
     1
 65
     0
276
    -2
286
     1
 66
     0
277
    -2
287
     1
 67
     0
278
    -2
288
     1
 68
     0
279
    -2
289
     1
 69
     0
  0
VISUALSTYLE
  5
9F
102
{ACAD_REACTORS
330
99
102
}
330
99
100
AcDbVisualStyle
  2
2dWireframe
 70
     4
177
     3
291
     0
 70
    58
 90
        0
176
     1
 90
        2
176
     1
 90
        1
176
     1
 90
        0
176
     1
 40
0.6
176
     1
 40
30.0
176
     1
 62
     7
420
 16777215
176
     1
 90
        1
176
     1
 90
        4
176
     1
 62
     7
176
     1
 62
   257
176
     1
 90
        1
176
     1
 90
        1
176
     1
 40
1.0
176
     1
 90
        0
176
     1
 62
   257
176
     1
 40
1.0
176
     1
 90
        1
176
     1
 90
        6
176
     1
 90
        2
176
     1
 62
     7
176
     1
 90
        5
176
     1
 90
        0
176
     1
 90
        0
176
     1
290
     0
176
     1
 90
        1
176
     1
 40
0.0
176
     1
 90
        0
176
     1
290
     1
176
     1
290
     1
176
     1
290
     0
176
     1
290
     0
176
     1
290
     0
176
     1
290
     0
176
     1
290
     0
176
     1
290
     0
176
     1
290
     0
176
     1
 90
       50
176
     1
 40
0.0
176
     1
 40
1.0
176
     1
 90
        0
176
     1
 62
    18
420
        0
176
     1
 90
       50
176
     1
 90
        3
176
     1
 62
     5
420
      255
176
     1
290
     0
176
     1
 90
       50
176
     1
 90
       50
176
     1
 90
       50
176
     1
290
     0
176
     1
 90
       50
176
     1
 62
   256
176
     0
 40
1.0
176
     0
 90
        2
176
     1
  1
strokes_ogs.tif
176
     1
290
     0
176
     1
 40
1.0
176
     1
 40
1.0
176
     1
  0
VISUALSTYLE
  5
22946
102
{ACAD_REACTORS
330
99
102
}
330
99
100
AcDbVisualStyle
  2
3dWireframe
 70
     5
177
     3
291
     0
 70
    58
 90
        0
176
     1
 90
        2
176
     1
 90
        0
176
     1
 90
        0
176
     1
 40
0.6
176
     1
 40
30.0
176
     1
 62
     7
176
     1
 90
        1
176
     1
 90
        4
176
     1
 62
     7
176
     1
 62
   257
176
     1
 90
        1
176
     1
 90
        1
176
     1
 40
1.0
176
     1
 90
        0
176
     1
 62
   257
176
     1
 40
1.0
176
     1
 90
        1
176
     1
 90
        6
176
     1
 90
        2
176
     1
 62
     7
176
     1
 90
        5
176
     1
 90
        0
176
     1
 90
        0
176
     1
290
     0
176
     1
 90
        1
176
     1
 40
0.0
176
     1
 90
        0
176
     1
290
     0
176
     1
290
     1
176
     1
290
     1
176
     1
290
     0
176
     1
290
     0
176
     1
290
     0
176
     1
290
     0
176
     1
290
     0
176
     1
290
     0
176
     1
 90
       50
176
     1
 40
0.0
176
     1
 40
1.0
176
     1
 90
        0
176
     1
 62
    18
420
        0
176
     1
 90
       50
176
     1
 90
        3
176
     1
 62
     5
420
      255
176
     1
290
     0
176
     1
 90
       50
176
     1
 90
       50
176
     1
 90
       50
176
     1
290
     0
176
     1
 90
       50
176
     1
 62
   256
176
     0
 40
1.0
176
     0
 90
        2
176
     1
  1
strokes_ogs.tif
176
     1
290
     0
176
     1
 40
1.0
176
     1
 40
1.0
176
     1
  0
VISUALSTYLE
  5
9E
102
{ACAD_REACTORS
330
99
102
}
330
99
100
AcDbVisualStyle
  2
Basic
 70
     7
177
     3
291
     1
 70
    58
 90
        1
176
     1
 90
        0
176
     1
 90
        1
176
     1
 90
        0
176
     1
 40
0.6
176
     1
 40
30.0
176
     1
 62
     7
420
 16777215
176
     1
 90
        0
176
     1
 90
        4
176
     1
 62
     7
176
     1
 62
   257
176
     1
 90
        1
176
     1
 90
        1
176
     1
 40
1.0
176
     1
 90
        8
176
     1
 62
     7
176
     1
 40
1.0
176
     1
 90
        1
176
     1
 90
        6
176
     1
 90
        2
176
     1
 62
     7
176
     1
 90
        5
176
     1
 90
        0
176
     1
 90
        0
176
     1
290
     0
176
     1
 90
        1
176
     1
 40
0.0
176
     1
 90
        0
176
     1
290
     0
176
     1
290
     1
176
     1
290
     1
176
     1
290
     0
176
     1
290
     0
176
     1
290
     0
176
     1
290
     0
176
     1
290
     0
176
     1
290
     0
176
     1
 90
       50
176
     1
 40
0.0
176
     1
 40
1.0
176
     1
 90
        0
176
     1
 62
    18
420
        0
176
     1
 90
       50
176
     1
 90
        3
176
     1
 62
     5
420
      255
176
     1
290
     0
176
     1
 90
       50
176
     1
 90
       50
176
     1
 90
       50
176
     1
290
     0
176
     1
 90
       50
176
     1
 62
   256
176
     0
 40
1.0
176
     0
 90
        2
176
     1
  1
strokes_ogs.tif
176
     1
290
     0
176
     1
 40
1.0
176
     1
 40
1.0
176
     1
  0
VISUALSTYLE
  5
A5
102
{ACAD_REACTORS
330
99
102
}
330
99
100
AcDbVisualStyle
  2
Brighten
 70
    12
177
     3
291
     1
 70
    58
 90
        2
176
     1
 90
        2
176
     1
 90
        1
176
     1
 90
        0
176
     1
 40
0.6
176
     1
 40
30.0
176
     1
 62
     7
420
 16777215
176
     1
 90
        1
176
     1
 90
        4
176
     1
 62
     7
176
     1
 62
   257
176
     1
 90
        1
176
     1
 90
        1
176
     1
 40
1.0
176
     1
 90
        8
176
     1
 62
     7
176
     1
 40
1.0
176
     1
 90
        1
176
     1
 90
        6
176
     1
 90
        2
176
     1
 62
     7
176
     1
 90
        5
176
     1
 90
        0
176
     1
 90
        0
176
     1
290
     0
176
     1
 90
        1
176
     1
 40
50.0
176
     1
 90
        0
176
     1
290
     0
176
     1
290
     1
176
     1
290
     1
176
     1
290
     0
176
     1
290
     0
176
     1
290
     0
176
     1
290
     0
176
     1
290
     0
176
     1
290
     0
176
     1
 90
       50
176
     1
 40
0.0
176
     1
 40
1.0
176
     1
 90
        0
176
     1
 62
    18
420
        0
176
     1
 90
       50
176
     1
 90
        3
176
     1
 62
     5
420
      255
176
     1
290
     0
176
     1
 90
       50
176
     1
 90
       50
176
     1
 90
       50
176
     1
290
     0
176
     1
 90
       50
176
     1
 62
   256
176
     0
 40
1.0
176
     0
 90
        2
176
     1
  1
strokes_ogs.tif
176
     1
290
     0
176
     1
 40
1.0
176
     1
 40
1.0
176
     1
  0
VISUALSTYLE
  5
A9
102
{ACAD_REACTORS
330
99
102
}
330
99
100
AcDbVisualStyle
  2
ColorChange
 70
    16
177
     3
291
     1
 70
    58
 90
        2
176
     1
 90
        2
176
     1
 90
        3
176
     1
 90
        0
176
     1
 40
0.6
176
     1
 40
30.0
176
     1
 62
     8
420
  8421504
176
     1
 90
        1
176
     1
 90
        4
176
     1
 62
     7
176
     1
 62
   257
176
     1
 90
        1
176
     1
 90
        1
176
     1
 40
1.0
176
     1
 90
        8
176
     1
 62
     8
420
  8421504
176
     1
 40
1.0
176
     1
 90
        1
176
     1
 90
        6
176
     1
 90
        2
176
     1
 62
     7
176
     1
 90
        5
176
     1
 90
        0
176
     1
 90
        0
176
     1
290
     0
176
     1
 90
        1
176
     1
 40
0.0
176
     1
 90
        0
176
     1
290
     0
176
     1
290
     1
176
     1
290
     1
176
     1
290
     0
176
     1
290
     0
176
     1
290
     0
176
     1
290
     0
176
     1
290
     0
176
     1
290
     0
176
     1
 90
       50
176
     1
 40
0.0
176
     1
 40
1.0
176
     1
 90
        0
176
     1
 62
    18
420
        0
176
     1
 90
       50
176
     1
 90
        3
176
     1
 62
     5
420
      255
176
     1
290
     0
176
     1
 90
       50
176
     1
 90
       50
176
     1
 90
       50
176
     1
290
     0
176
     1
 90
       50
176
     1
 62
   256
176
     0
 40
1.0
176
     0
 90
        2
176
     1
  1
strokes_ogs.tif
176
     1
290
     0
176
     1
 40
1.0
176
     1
 40
1.0
176
     1
  0
VISUALSTYLE
  5
A2
102
{ACAD_REACTORS
330
99
102
}
330
99
100
AcDbVisualStyle
  2
Conceptual
 70
     9
177
     3
291
     0
 70
    58
 90
        3
176
     1
 90
        2
176
     1
 90
        1
176
     1
 90
        0
176
     1
 40
0.6
176
     1
 40
30.0
176
     1
 62
     7
420
 16777215
176
     1
 90
        2
176
     1
 90
        2
176
     1
 62
     7
176
     1
 62
   257
176
     1
 90
        1
176
     1
 90
        1
176
     1
 40
40.0
176
     1
 90
        8
176
     1
 62
     7
176
     1
 40
1.0
176
     1
 90
        1
176
     1
 90
        6
176
     1
 90
        2
176
     1
 62
     7
176
     1
 90
        3
176
     1
 90
        0
176
     1
 90
        0
176
     1
290
     0
176
     1
 90
        1
176
     1
 40
0.0
176
     1
 90
        0
176
     1
290
     0
176
     1
290
     1
176
     1
290
     1
176
     1
290
     0
176
     1
290
     0
176
     1
290
     0
176
     1
290
     0
176
     1
290
     0
176
     1
290
     0
176
     1
 90
       50
176
     1
 40
0.0
176
     1
 40
1.0
176
     1
 90
        0
176
     1
 62
    18
420
        0
176
     1
 90
       50
176
     1
 90
        3
176
     1
 62
     5
420
      255
176
     1
290
     0
176
     1
 90
       50
176
     1
 90
       50
176
     1
 90
       50
176
     1
290
     0
176
     1
 90
       50
176
     1
 62
   256
176
     0
 40
1.0
176
     0
 90
        2
176
     1
  1
strokes_ogs.tif
176
     1
290
     0
176
     1
 40
1.0
176
     1
 40
1.0
176
     1
  0
VISUALSTYLE
  5
A4
102
{ACAD_REACTORS
330
99
102
}
330
99
100
AcDbVisualStyle
  2
Dim
 70
    11
177
     3
291
     1
 70
    58
 90
        2
176
     1
 90
        2
176
     1
 90
        1
176
     1
 90
        0
176
     1
 40
0.6
176
     1
 40
30.0
176
     1
 62
     7
420
 16777215
176
     1
 90
        1
176
     1
 90
        4
176
     1
 62
     7
176
     1
 62
   257
176
     1
 90
        1
176
     1
 90
        1
176
     1
 40
1.0
176
     1
 90
        8
176
     1
 62
     7
176
     1
 40
1.0
176
     1
 90
        1
176
     1
 90
        6
176
     1
 90
        2
176
     1
 62
     7
176
     1
 90
        5
176
     1
 90
        0
176
     1
 90
        0
176
     1
290
     0
176
     1
 90
        1
176
     1
 40
-50.0
176
     1
 90
        0
176
     1
290
     0
176
     1
290
     1
176
     1
290
     1
176
     1
290
     0
176
     1
290
     0
176
     1
290
     0
176
     1
290
     0
176
     1
290
     0
176
     1
290
     0
176
     1
 90
       50
176
     1
 40
0.0
176
     1
 40
1.0
176
     1
 90
        0
176
     1
 62
    18
420
        0
176
     1
 90
       50
176
     1
 90
        3
176
     1
 62
     5
420
      255
176
     1
290
     0
176
     1
 90
       50
176
     1
 90
       50
176
     1
 90
       50
176
     1
290
     0
176
     1
 90
       50
176
     1
 62
   256
176
     0
 40
1.0
176
     0
 90
        2
176
     1
  1
strokes_ogs.tif
176
     1
290
     0
176
     1
 40
1.0
176
     1
 40
1.0
176
     1
  0
VISUALSTYLE
  5
175
102
{ACAD_REACTORS
330
99
102
}
330
99
100
AcDbVisualStyle
  2
EdgeColorOff
 70
    22
177
     3
291
     1
 70
    58
 90
        2
176
     0
 90
        2
176
     0
 90
        0
176
     0
 90
        0
176
     0
 40
0.6
176
     0
 40
30.0
176
     0
 62
     7
420
 16777215
176
     0
 90
        1
176
     0
 90
        4
176
     0
 62
     7
176
     0
 62
   257
176
     0
 90
        1
176
     0
 90
        1
176
     0
 40
1.0
176
     0
 90
        8
176
     2
 62
     7
176
     0
 40
1.0
176
     0
 90
        1
176
     0
 90
        6
176
     0
 90
        2
176
     0
 62
     7
176
     0
 90
        5
176
     0
 90
        0
176
     0
 90
        0
176
     0
290
     0
176
     0
 90
        1
176
     0
 40
0.0
176
     0
 90
        0
176
     0
290
     0
176
     1
290
     1
176
     1
290
     1
176
     1
290
     0
176
     1
290
     0
176
     1
290
     0
176
     1
290
     0
176
     1
290
     0
176
     1
290
     0
176
     1
 90
       50
176
     1
 40
0.0
176
     1
 40
1.0
176
     1
 90
        0
176
     1
 62
    18
420
        0
176
     1
 90
       50
176
     1
 90
        3
176
     1
 62
     5
420
      255
176
     1
290
     0
176
     1
 90
       50
176
     1
 90
       50
176
     1
 90
       50
176
     1
290
     0
176
     1
 90
       50
176
     1
 62
   256
176
     0
 40
1.0
176
     0
 90
        2
176
     1
  1
strokes_ogs.tif
176
     1
290
     0
176
     1
 40
1.0
176
     1
 40
1.0
176
     1
  0
VISUALSTYLE
  5
A8
102
{ACAD_REACTORS
330
99
102
}
330
99
100
AcDbVisualStyle
  2
Facepattern
 70
    15
177
     3
291
     1
 70
    58
 90
        2
176
     1
 90
        2
176
     1
 90
        1
176
     1
 90
        0
176
     1
 40
0.6
176
     1
 40
30.0
176
     1
 62
     7
420
 16777215
176
     1
 90
        1
176
     1
 90
        4
176
     1
 62
     7
176
     1
 62
   257
176
     1
 90
        1
176
     1
 90
        1
176
     1
 40
1.0
176
     1
 90
        8
176
     1
 62
     7
176
     1
 40
1.0
176
     1
 90
        1
176
     1
 90
        6
176
     1
 90
        2
176
     1
 62
     7
176
     1
 90
        5
176
     1
 90
        0
176
     1
 90
        0
176
     1
290
     0
176
     1
 90
        1
176
     1
 40
0.0
176
     1
 90
        0
176
     1
290
     0
176
     1
290
     1
176
     1
290
     1
176
     1
290
     0
176
     1
290
     0
176
     1
290
     0
176
     1
290
     0
176
     1
290
     0
176
     1
290
     0
176
     1
 90
       50
176
     1
 40
0.0
176
     1
 40
1.0
176
     1
 90
        0
176
     1
 62
    18
420
        0
176
     1
 90
       50
176
     1
 90
        3
176
     1
 62
     5
420
      255
176
     1
290
     0
176
     1
 90
       50
176
     1
 90
       50
176
     1
 90
       50
176
     1
290
     0
176
     1
 90
       50
176
     1
 62
   256
176
     0
 40
1.0
176
     0
 90
        2
176
     1
  1
strokes_ogs.tif
176
     1
290
     0
176
     1
 40
1.0
176
     1
 40
1.0
176
     1
  0
VISUALSTYLE
  5
9A
102
{ACAD_REACTORS
330
99
102
}
330
99
100
AcDbVisualStyle
  2
Flat
 70
     0
177
     3
291
     1
 70
    58
 90
        2
176
     1
 90
        1
176
     1
 90
        1
176
     1
 90
        2
176
     1
 40
0.6
176
     1
 40
30.0
176
     1
 62
     7
420
 16777215
176
     1
 90
        0
176
     1
 90
        0
176
     1
 62
     7
176
     1
 62
   257
176
     1
 90
        1
176
     1
 90
        1
176
     1
 40
1.0
176
     1
 90
        8
176
     1
 62
     7
176
     1
 40
1.0
176
     1
 90
        1
176
     1
 90
        6
176
     1
 90
        2
176
     1
 62
     7
176
     1
 90
        5
176
     1
 90
        0
176
     1
 90
        0
176
     1
290
     0
176
     1
 90
       13
176
     1
 40
0.0
176
     1
 90
        0
176
     1
290
     0
176
     1
290
     1
176
     1
290
     1
176
     1
290
     0
176
     1
290
     0
176
     1
290
     0
176
     1
290
     0
176
     1
290
     0
176
     1
290
     0
176
     1
 90
       50
176
     1
 40
0.0
176
     1
 40
1.0
176
     1
 90
        0
176
     1
 62
    18
420
        0
176
     1
 90
       50
176
     1
 90
        3
176
     1
 62
     5
420
      255
176
     1
290
     0
176
     1
 90
       50
176
     1
 90
       50
176
     1
 90
       50
176
     1
290
     0
176
     1
 90
       50
176
     1
 62
   256
176
     0
 40
1.0
176
     0
 90
        2
176
     1
  1
strokes_ogs.tif
176
     1
290
     0
176
     1
 40
1.0
176
     1
 40
1.0
176
     1
  0
VISUALSTYLE
  5
9B
102
{ACAD_REACTORS
330
99
102
}
330
99
100
AcDbVisualStyle
  2
FlatWithEdges
 70
     1
177
     3
291
     1
 70
    58
 90
        2
176
     1
 90
        1
176
     1
 90
        1
176
     1
 90
        2
176
     1
 40
0.6
176
     1
 40
30.0
176
     1
 62
     7
420
 16777215
176
     1
 90
        1
176
     1
 90
        0
176
     1
 62
     7
176
     1
 62
   257
176
     1
 90
        1
176
     1
 90
        1
176
     1
 40
1.0
176
     1
 90
        0
176
     1
 62
   257
176
     1
 40
1.0
176
     1
 90
        1
176
     1
 90
        6
176
     1
 90
        2
176
     1
 62
     7
176
     1
 90
        5
176
     1
 90
        0
176
     1
 90
        0
176
     1
290
     0
176
     1
 90
       13
176
     1
 40
0.0
176
     1
 90
        0
176
     1
290
     0
176
     1
290
     1
176
     1
290
     1
176
     1
290
     0
176
     1
290
     0
176
     1
290
     0
176
     1
290
     0
176
     1
290
     0
176
     1
290
     0
176
     1
 90
       50
176
     1
 40
0.0
176
     1
 40
1.0
176
     1
 90
        0
176
     1
 62
    18
420
        0
176
     1
 90
       50
176
     1
 90
        3
176
     1
 62
     5
420
      255
176
     1
290
     0
176
     1
 90
       50
176
     1
 90
       50
176
     1
 90
       50
176
     1
290
     0
176
     1
 90
       50
176
     1
 62
   256
176
     0
 40
1.0
176
     0
 90
        2
176
     1
  1
strokes_ogs.tif
176
     1
290
     0
176
     1
 40
1.0
176
     1
 40
1.0
176
     1
  0
VISUALSTYLE
  5
9C
102
{ACAD_REACTORS
330
99
102
}
330
99
100
AcDbVisualStyle
  2
Gouraud
 70
     2
177
     3
291
     1
 70
    58
 90
        2
176
     1
 90
        2
176
     1
 90
        1
176
     1
 90
        2
176
     1
 40
0.6
176
     1
 40
30.0
176
     1
 62
     7
420
 16777215
176
     1
 90
        0
176
     1
 90
        0
176
     1
 62
     7
176
     1
 62
   257
176
     1
 90
        1
176
     1
 90
        1
176
     1
 40
1.0
176
     1
 90
        0
176
     1
 62
     7
176
     1
 40
1.0
176
     1
 90
        1
176
     1
 90
        6
176
     1
 90
        2
176
     1
 62
     7
176
     1
 90
        5
176
     1
 90
        0
176
     1
 90
        0
176
     1
290
     0
176
     1
 90
       13
176
     1
 40
0.0
176
     1
 90
        0
176
     1
290
     0
176
     1
290
     1
176
     1
290
     1
176
     1
290
     0
176
     1
290
     0
176
     1
290
     0
176
     1
290
     0
176
     1
290
     0
176
     1
290
     0
176
     1
 90
       50
176
     1
 40
0.0
176
     1
 40
1.0
176
     1
 90
        0
176
     1
 62
    18
420
        0
176
     1
 90
       50
176
     1
 90
        3
176
     1
 62
     5
420
      255
176
     1
290
     0
176
     1
 90
       50
176
     1
 90
       50
176
     1
 90
       50
176
     1
290
     0
176
     1
 90
       50
176
     1
 62
   256
176
     0
 40
1.0
176
     0
 90
        2
176
     1
  1
strokes_ogs.tif
176
     1
290
     0
176
     1
 40
1.0
176
     1
 40
1.0
176
     1
  0
VISUALSTYLE
  5
9D
102
{ACAD_REACTORS
330
99
102
}
330
99
100
AcDbVisualStyle
  2
GouraudWithEdges
 70
     3
177
     3
291
     1
 70
    58
 90
        2
176
     1
 90
        2
176
     1
 90
        1
176
     1
 90
        2
176
     1
 40
0.6
176
     1
 40
30.0
176
     1
 62
     7
420
 16777215
176
     1
 90
        1
176
     1
 90
        0
176
     1
 62
     7
176
     1
 62
   257
176
     1
 90
        1
176
     1
 90
        1
176
     1
 40
1.0
176
     1
 90
        0
176
     1
 62
   257
176
     1
 40
1.0
176
     1
 90
        1
176
     1
 90
        6
176
     1
 90
        2
176
     1
 62
     7
176
     1
 90
        5
176
     1
 90
        0
176
     1
 90
        0
176
     1
290
     0
176
     1
 90
       13
176
     1
 40
0.0
176
     1
 90
        0
176
     1
290
     0
176
     1
290
     1
176
     1
290
     1
176
     1
290
     0
176
     1
290
     0
176
     1
290
     0
176
     1
290
     0
176
     1
290
     0
176
     1
290
     0
176
     1
 90
       50
176
     1
 40
0.0
176
     1
 40
1.0
176
     1
 90
        0
176
     1
 62
    18
420
        0
176
     1
 90
       50
176
     1
 90
        3
176
     1
 62
     5
420
      255
176
     1
290
     0
176
     1
 90
       50
176
     1
 90
       50
176
     1
 90
       50
176
     1
290
     0
176
     1
 90
       50
176
     1
 62
   256
176
     0
 40
1.0
176
     0
 90
        2
176
     1
  1
strokes_ogs.tif
176
     1
290
     0
176
     1
 40
1.0
176
     1
 40
1.0
176
     1
  0
VISUALSTYLE
  5
A1
102
{ACAD_REACTORS
330
99
102
}
330
99
100
AcDbVisualStyle
  2
Hidden
 70
     6
177
     3
291
     0
 70
    58
 90
        1
176
     1
 90
        2
176
     1
 90
        2
176
     1
 90
        0
176
     1
 40
0.6
176
     1
 40
30.0
176
     1
 62
     7
420
 16777215
176
     1
 90
        2
176
     1
 90
        2
176
     1
 62
     7
176
     1
 62
   257
176
     1
 90
        2
176
     1
 90
        1
176
     1
 40
40.0
176
     1
 90
        0
176
     1
 62
   257
176
     1
 40
1.0
176
     1
 90
        1
176
     1
 90
        6
176
     1
 90
        2
176
     1
 62
     7
176
     1
 90
        3
176
     1
 90
        0
176
     1
 90
        0
176
     1
290
     0
176
     1
 90
        1
176
     1
 40
0.0
176
     1
 90
        0
176
     1
290
     0
176
     1
290
     1
176
     1
290
     1
176
     1
290
     0
176
     1
290
     0
176
     1
290
     0
176
     1
290
     0
176
     1
290
     0
176
     1
290
     0
176
     1
 90
       50
176
     1
 40
0.0
176
     1
 40
1.0
176
     1
 90
        0
176
     1
 62
    18
420
        0
176
     1
 90
       50
176
     1
 90
        3
176
     1
 62
     5
420
      255
176
     1
290
     0
176
     1
 90
       50
176
     1
 90
       50
176
     1
 90
       50
176
     1
290
     0
176
     1
 90
       50
176
     1
 62
   256
176
     0
 40
1.0
176
     0
 90
        2
176
     1
  1
strokes_ogs.tif
176
     1
290
     0
176
     1
 40
1.0
176
     1
 40
1.0
176
     1
  0
VISUALSTYLE
  5
173
102
{ACAD_REACTORS
330
99
102
}
330
99
100
AcDbVisualStyle
  2
JitterOff
 70
    20
177
     3
291
     1
 70
    58
 90
        2
176
     0
 90
        2
176
     0
 90
        0
176
     0
 90
        0
176
     0
 40
0.6
176
     0
 40
30.0
176
     0
 62
     7
420
 16777215
176
     0
 90
        1
176
     0
 90
        4
176
     0
 62
     7
176
     0
 62
   257
176
     0
 90
        1
176
     0
 90
        1
176
     0
 40
1.0
176
     0
 90
       10
176
     2
 62
     7
176
     0
 40
1.0
176
     0
 90
        1
176
     0
 90
        6
176
     0
 90
        2
176
     0
 62
     7
176
     0
 90
        5
176
     0
 90
        0
176
     0
 90
        0
176
     0
290
     0
176
     0
 90
        1
176
     0
 40
0.0
176
     0
 90
        0
176
     0
290
     0
176
     1
290
     1
176
     1
290
     1
176
     1
290
     0
176
     1
290
     0
176
     1
290
     0
176
     1
290
     0
176
     1
290
     0
176
     1
290
     0
176
     1
 90
       50
176
     1
 40
0.0
176
     1
 40
1.0
176
     1
 90
        0
176
     1
 62
    18
420
        0
176
     1
 90
       50
176
     1
 90
        3
176
     1
 62
     5
420
      255
176
     1
290
     0
176
     1
 90
       50
176
     1
 90
       50
176
     1
 90
       50
176
     1
290
     0
176
     1
 90
       50
176
     1
 62
   256
176
     0
 40
1.0
176
     0
 90
        2
176
     1
  1
strokes_ogs.tif
176
     1
290
     0
176
     1
 40
1.0
176
     1
 40
1.0
176
     1
  0
VISUALSTYLE
  5
A7
102
{ACAD_REACTORS
330
99
102
}
330
99
100
AcDbVisualStyle
  2
Linepattern
 70
    14
177
     3
291
     1
 70
    58
 90
        2
176
     1
 90
        2
176
     1
 90
        1
176
     1
 90
        0
176
     1
 40
0.6
176
     1
 40
30.0
176
     1
 62
     7
420
 16777215
176
     1
 90
        1
176
     1
 90
        4
176
     1
 62
     7
176
     1
 62
   257
176
     1
 90
        7
176
     1
 90
        7
176
     1
 40
1.0
176
     1
 90
        8
176
     1
 62
     7
176
     1
 40
1.0
176
     1
 90
        1
176
     1
 90
        6
176
     1
 90
        2
176
     1
 62
     7
176
     1
 90
        5
176
     1
 90
        0
176
     1
 90
        0
176
     1
290
     0
176
     1
 90
        1
176
     1
 40
0.0
176
     1
 90
        0
176
     1
290
     0
176
     1
290
     1
176
     1
290
     1
176
     1
290
     0
176
     1
290
     0
176
     1
290
     0
176
     1
290
     0
176
     1
290
     0
176
     1
290
     0
176
     1
 90
       50
176
     1
 40
0.0
176
     1
 40
1.0
176
     1
 90
        0
176
     1
 62
    18
420
        0
176
     1
 90
       50
176
     1
 90
        3
176
     1
 62
     5
420
      255
176
     1
290
     0
176
     1
 90
       50
176
     1
 90
       50
176
     1
 90
       50
176
     1
290
     0
176
     1
 90
       50
176
     1
 62
   256
176
     0
 40
1.0
176
     0
 90
        2
176
     1
  1
strokes_ogs.tif
176
     1
290
     0
176
     1
 40
1.0
176
     1
 40
1.0
176
     1
  0
VISUALSTYLE
  5
174
102
{ACAD_REACTORS
330
99
102
}
330
99
100
AcDbVisualStyle
  2
OverhangOff
 70
    21
177
     3
291
     1
 70
    58
 90
        2
176
     0
 90
        2
176
     0
 90
        0
176
     0
 90
        0
176
     0
 40
0.6
176
     0
 40
30.0
176
     0
 62
     7
420
 16777215
176
     0
 90
        1
176
     0
 90
        4
176
     0
 62
     7
176
     0
 62
   257
176
     0
 90
        1
176
     0
 90
        1
176
     0
 40
1.0
176
     0
 90
        9
176
     2
 62
     7
176
     0
 40
1.0
176
     0
 90
        1
176
     0
 90
        6
176
     0
 90
        2
176
     0
 62
     7
176
     0
 90
        5
176
     0
 90
        0
176
     0
 90
        0
176
     0
290
     0
176
     0
 90
        1
176
     0
 40
0.0
176
     0
 90
        0
176
     0
290
     0
176
     1
290
     1
176
     1
290
     1
176
     1
290
     0
176
     1
290
     0
176
     1
290
     0
176
     1
290
     0
176
     1
290
     0
176
     1
290
     0
176
     1
 90
       50
176
     1
 40
0.0
176
     1
 40
1.0
176
     1
 90
        0
176
     1
 62
    18
420
        0
176
     1
 90
       50
176
     1
 90
        3
176
     1
 62
     5
420
      255
176
     1
290
     0
176
     1
 90
       50
176
     1
 90
       50
176
     1
 90
       50
176
     1
290
     0
176
     1
 90
       50
176
     1
 62
   256
176
     0
 40
1.0
176
     0
 90
        2
176
     1
  1
strokes_ogs.tif
176
     1
290
     0
176
     1
 40
1.0
176
     1
 40
1.0
176
     1
  0
VISUALSTYLE
  5
A3
102
{ACAD_REACTORS
330
99
102
}
330
99
100
AcDbVisualStyle
  2
Realistic
 70
     8
177
     3
291
     0
 70
    58
 90
        2
176
     1
 90
        2
176
     1
 90
        0
176
     1
 90
        2
176
     1
 40
0.6
176
     1
 40
30.0
176
     1
 62
     7
420
 16777215
176
     1
 90
        0
176
     1
 90
        0
176
     1
 62
     7
176
     1
 62
   257
176
     1
 90
        1
176
     1
 90
        1
176
     1
 40
1.0
176
     1
 90
        8
176
     1
 62
   257
176
     1
 40
1.0
176
     1
 90
        1
176
     1
 90
        6
176
     1
 90
        2
176
     1
 62
     7
176
     1
 90
        3
176
     1
 90
        0
176
     1
 90
        0
176
     1
290
     0
176
     1
 90
       13
176
     1
 40
0.0
176
     1
 90
        0
176
     1
290
     0
176
     1
290
     1
176
     1
290
     1
176
     1
290
     0
176
     1
290
     0
176
     1
290
     0
176
     1
290
     0
176
     1
290
     0
176
     1
290
     0
176
     1
 90
       50
176
     1
 40
0.0
176
     1
 40
1.0
176
     1
 90
        0
176
     1
 62
    18
420
        0
176
     1
 90
       50
176
     1
 90
        3
176
     1
 62
     5
420
      255
176
     1
290
     0
176
     1
 90
       50
176
     1
 90
       50
176
     1
 90
       50
176
     1
290
     0
176
     1
 90
       50
176
     1
 62
   256
176
     0
 40
1.0
176
     0
 90
        2
176
     1
  1
strokes_ogs.tif
176
     1
290
     0
176
     1
 40
1.0
176
     1
 40
1.0
176
     1
  0
VISUALSTYLE
  5
182
102
{ACAD_REACTORS
330
99
102
}
330
99
100
AcDbVisualStyle
  2
Shaded
 70
    27
177
     3
291
     0
 70
    58
 90
        2
176
     1
 90
        2
176
     1
 90
        1
176
     1
 90
        2
176
     1
 40
0.6
176
     1
 40
30.0
176
     1
 62
     7
420
 16777215
176
     1
 90
        0
176
     1
 90
        4
176
     1
 62
     7
176
     1
 62
   257
176
     1
 90
        1
176
     1
 90
        1
176
     1
 40
1.0
176
     1
 90
        8
176
     1
 62
   257
176
     1
 40
1.0
176
     1
 90
        1
176
     1
 90
        6
176
     1
 90
        2
176
     1
 62
     8
420
  7895160
176
     1
 90
        3
176
     1
 90
        0
176
     1
 90
        0
176
     1
290
     0
176
     1
 90
        5
176
     1
 40
0.0
176
     1
 90
        0
176
     1
290
     0
176
     1
290
     1
176
     1
290
     1
176
     1
290
     0
176
     1
290
     0
176
     1
290
     0
176
     1
290
     0
176
     1
290
     0
176
     1
290
     0
176
     1
 90
       50
176
     1
 40
0.0
176
     1
 40
1.0
176
     1
 90
        0
176
     1
 62
    18
420
        0
176
     1
 90
       50
176
     1
 90
        3
176
     1
 62
     5
420
      255
176
     1
290
     0
176
     1
 90
       50
176
     1
 90
       50
176
     1
 90
       50
176
     1
290
     0
176
     1
 90
       50
176
     1
 62
   256
176
     0
 40
1.0
176
     0
 90
        2
176
     1
  1
strokes_ogs.tif
176
     1
290
     0
176
     1
 40
1.0
176
     1
 40
1.0
176
     1
  0
VISUALSTYLE
  5
181
102
{ACAD_REACTORS
330
99
102
}
330
99
100
AcDbVisualStyle
  2
Shaded with edges
 70
    26
177
     3
291
     0
 70
    58
 90
        2
176
     1
 90
        2
176
     1
 90
        1
176
     1
 90
        2
176
     1
 40
0.6
176
     1
 40
30.0
176
     1
 62
     7
420
 16777215
176
     1
 90
        1
176
     1
 90
        2
176
     1
 62
     7
176
     1
 62
   257
176
     1
 90
        2
176
     1
 90
        1
176
     1
 40
1.0
176
     1
 90
        8
176
     1
 62
   257
176
     1
 40
1.0
176
     1
 90
        1
176
     1
 90
        6
176
     1
 90
        2
176
     1
 62
     7
176
     1
 90
        3
176
     1
 90
        0
176
     1
 90
        0
176
     1
290
     0
176
     1
 90
        5
176
     1
 40
0.0
176
     1
 90
        0
176
     1
290
     0
176
     1
290
     1
176
     1
290
     1
176
     1
290
     0
176
     1
290
     0
176
     1
290
     0
176
     1
290
     0
176
     1
290
     0
176
     1
290
     0
176
     1
 90
       50
176
     1
 40
0.0
176
     1
 40
1.0
176
     1
 90
        0
176
     1
 62
    18
420
        0
176
     1
 90
       50
176
     1
 90
        3
176
     1
 62
     5
420
      255
176
     1
290
     0
176
     1
 90
       50
176
     1
 90
       50
176
     1
 90
       50
176
     1
290
     0
176
     1
 90
       50
176
     1
 62
   256
176
     0
 40
1.0
176
     0
 90
        2
176
     1
  1
strokes_ogs.tif
176
     1
290
     0
176
     1
 40
1.0
176
     1
 40
1.0
176
     1
  0
VISUALSTYLE
  5
17E
102
{ACAD_REACTORS
330
99
102
}
330
99
100
AcDbVisualStyle
  2
Shades of Gray
 70
    23
177
     3
291
     0
 70
    58
 90
        2
176
     1
 90
        2
176
     1
 90
        3
176
     1
 90
        0
176
     1
 40
0.6
176
     1
 40
30.0
176
     1
 62
     7
420
 16777215
176
     1
 90
        2
176
     1
 90
        2
176
     1
 62
     7
176
     1
 62
     7
176
     1
 90
        1
176
     1
 90
        1
176
     1
 40
40.0
176
     1
 90
        8
176
     1
 62
     7
176
     1
 40
1.0
176
     1
 90
        1
176
     1
 90
        6
176
     1
 90
        2
176
     1
 62
     7
176
     1
 90
        3
176
     1
 90
        0
176
     1
 90
        0
176
     1
290
     0
176
     1
 90
        1
176
     1
 40
0.0
176
     1
 90
        0
176
     1
290
     0
176
     1
290
     1
176
     1
290
     1
176
     1
290
     0
176
     1
290
     0
176
     1
290
     0
176
     1
290
     0
176
     1
290
     0
176
     1
290
     0
176
     1
 90
       50
176
     1
 40
0.0
176
     1
 40
1.0
176
     1
 90
        0
176
     1
 62
    18
420
        0
176
     1
 90
       50
176
     1
 90
        3
176
     1
 62
     5
420
      255
176
     1
290
     0
176
     1
 90
       50
176
     1
 90
       50
176
     1
 90
       50
176
     1
290
     0
176
     1
 90
       50
176
     1
 62
   256
176
     0
 40
1.0
176
     0
 90
        2
176
     1
  1
strokes_ogs.tif
176
     1
290
     0
176
     1
 40
1.0
176
     1
 40
1.0
176
     1
  0
VISUALSTYLE
  5
17F
102
{ACAD_REACTORS
330
99
102
}
330
99
100
AcDbVisualStyle
  2
Sketchy
 70
    24
177
     3
291
     0
 70
    58
 90
        1
176
     1
 90
        2
176
     1
 90
        2
176
     1
 90
        0
176
     1
 40
0.6
176
     1
 40
30.0
176
     1
 62
     7
420
 16777215
176
     1
 90
        2
176
     1
 90
        2
176
     1
 62
     7
176
     1
 62
     7
176
     1
 90
        1
176
     1
 90
        1
176
     1
 40
40.0
176
     1
 90
       11
176
     1
 62
     7
176
     1
 40
1.0
176
     1
 90
        1
176
     1
 90
        6
176
     1
 90
        2
176
     1
 62
     7
176
     1
 90
        6
176
     1
 90
        0
176
     1
 90
        0
176
     1
290
     0
176
     1
 90
        1
176
     1
 40
0.0
176
     1
 90
        0
176
     1
290
     0
176
     1
290
     1
176
     1
290
     1
176
     1
290
     0
176
     1
290
     0
176
     1
290
     0
176
     1
290
     0
176
     1
290
     0
176
     1
290
     0
176
     1
 90
       50
176
     1
 40
0.0
176
     1
 40
1.0
176
     1
 90
        0
176
     1
 62
    18
420
        0
176
     1
 90
       50
176
     1
 90
        3
176
     1
 62
     5
420
      255
176
     1
290
     0
176
     1
 90
       50
176
     1
 90
       50
176
     1
 90
       50
176
     1
290
     0
176
     1
 90
       50
176
     1
 62
   256
176
     0
 40
1.0
176
     0
 90
        2
176
     1
  1
strokes_ogs.tif
176
     1
290
     0
176
     1
 40
1.0
176
     1
 40
1.0
176
     1
  0
VISUALSTYLE
  5
A6
102
{ACAD_REACTORS
330
99
102
}
330
99
100
AcDbVisualStyle
  2
Thicken
 70
    13
177
     3
291
     1
 70
    58
 90
        2
176
     1
 90
        2
176
     1
 90
        1
176
     1
 90
        0
176
     1
 40
0.6
176
     1
 40
30.0
176
     1
 62
     7
420
 16777215
176
     1
 90
        1
176
     1
 90
        4
176
     1
 62
     7
176
     1
 62
   257
176
     1
 90
        1
176
     1
 90
        1
176
     1
 40
1.0
176
     1
 90
       12
176
     1
 62
     7
176
     1
 40
1.0
176
     1
 90
        1
176
     1
 90
        6
176
     1
 90
        2
176
     1
 62
     7
176
     1
 90
        5
176
     1
 90
        0
176
     1
 90
        0
176
     1
290
     0
176
     1
 90
        1
176
     1
 40
0.0
176
     1
 90
        0
176
     1
290
     0
176
     1
290
     1
176
     1
290
     1
176
     1
290
     0
176
     1
290
     0
176
     1
290
     0
176
     1
290
     0
176
     1
290
     0
176
     1
290
     0
176
     1
 90
       50
176
     1
 40
0.0
176
     1
 40
1.0
176
     1
 90
        0
176
     1
 62
    18
420
        0
176
     1
 90
       50
176
     1
 90
        3
176
     1
 62
     5
420
      255
176
     1
290
     0
176
     1
 90
       50
176
     1
 90
       50
176
     1
 90
       50
176
     1
290
     0
176
     1
 90
       50
176
     1
 62
   256
176
     0
 40
1.0
176
     0
 90
        2
176
     1
  1
strokes_ogs.tif
176
     1
290
     0
176
     1
 40
1.0
176
     1
 40
1.0
176
     1
  0
VISUALSTYLE
  5
A0
102
{ACAD_REACTORS
330
99
102
}
330
99
100
AcDbVisualStyle
  2
Wireframe
 70
     5
177
     3
291
     0
 70
    58
 90
        0
176
     1
 90
        2
176
     1
 90
        0
176
     1
 90
        0
176
     1
 40
0.6
176
     1
 40
30.0
176
     1
 62
     7
420
 16777215
176
     1
 90
        1
176
     1
 90
        4
176
     1
 62
     7
176
     1
 62
   257
176
     1
 90
        1
176
     1
 90
        1
176
     1
 40
1.0
176
     1
 90
        0
176
     1
 62
   257
176
     1
 40
1.0
176
     1
 90
        1
176
     1
 90
        6
176
     1
 90
        2
176
     1
 62
     7
176
     1
 90
        3
176
     1
 90
        0
176
     1
 90
        0
176
     1
290
     0
176
     1
 90
        1
176
     1
 40
0.0
176
     1
 90
        0
176
     1
290
     0
176
     1
290
     1
176
     1
290
     1
176
     1
290
     0
176
     1
290
     0
176
     1
290
     0
176
     1
290
     0
176
     1
290
     0
176
     1
290
     0
176
     1
 90
       50
176
     1
 40
0.0
176
     1
 40
1.0
176
     1
 90
        0
176
     1
 62
    18
420
        0
176
     1
 90
       50
176
     1
 90
        3
176
     1
 62
     5
420
      255
176
     1
290
     0
176
     1
 90
       50
176
     1
 90
       50
176
     1
 90
       50
176
     1
290
     0
176
     1
 90
       50
176
     1
 62
   256
176
     0
 40
1.0
176
     0
 90
        2
176
     1
  1
strokes_ogs.tif
176
     1
290
     0
176
     1
 40
1.0
176
     1
 40
1.0
176
     1
  0
VISUALSTYLE
  5
180
102
{ACAD_REACTORS
330
99
102
}
330
99
100
AcDbVisualStyle
  2
X-Ray
 70
    25
177
     3
291
     0
 70
    58
 90
        2
176
     1
 90
        2
176
     1
 90
        1
176
     1
 90
        1
176
     1
 40
0.5
176
     1
 40
30.0
176
     1
 62
     7
420
 16777215
176
     1
 90
        1
176
     1
 90
        0
176
     1
 62
     7
176
     1
 62
   257
176
     1
 90
        1
176
     1
 90
        1
176
     1
 40
1.0
176
     1
 90
        8
176
     1
 62
     7
176
     1
 40
1.0
176
     1
 90
        1
176
     1
 90
        6
176
     1
 90
        2
176
     1
 62
     7
176
     1
 90
        3
176
     1
 90
        0
176
     1
 90
        0
176
     1
290
     0
176
     1
 90
       13
176
     1
 40
0.0
176
     1
 90
        0
176
     1
290
     0
176
     1
290
     1
176
     1
290
     1
176
     1
290
     0
176
     1
290
     0
176
     1
290
     0
176
     1
290
     0
176
     1
290
     0
176
     1
290
     0
176
     1
 90
       50
176
     1
 40
0.0
176
     1
 40
1.0
176
     1
 90
        0
176
     1
 62
    18
420
        0
176
     1
 90
       50
176
     1
 90
        3
176
     1
 62
     5
420
      255
176
     1
290
     0
176
     1
 90
       50
176
     1
 90
       50
176
     1
 90
       50
176
     1
290
     0
176
     1
 90
       50
176
     1
 62
   256
176
     0
 40
1.0
176
     0
 90
        2
176
     1
  1
strokes_ogs.tif
176
     1
290
     0
176
     1
 40
1.0
176
     1
 40
1.0
176
     1
  0
DICTIONARYVAR
  5
4ED9E
102
{ACAD_REACTORS
330
4ED9D
102
}
330
4ED9D
100
DictionaryVariables
280
     0
  1
0.500000
  0
DICTIONARYVAR
  5
4ED9F
102
{ACAD_REACTORS
330
4ED9D
102
}
330
4ED9D
100
DictionaryVariables
280
     0
  1
1
  0
DICTIONARYVAR
  5
4EDA0
102
{ACAD_REACTORS
330
4ED9D
102
}
330
4ED9D
100
DictionaryVariables
280
     0
  1
0
  0
DICTIONARYVAR
  5
4EDA1
102
{ACAD_REACTORS
330
4ED9D
102
}
330
4ED9D
100
DictionaryVariables
280
     0
  1
1:1
  0
DICTIONARYVAR
  5
4EDA2
102
{ACAD_REACTORS
330
4ED9D
102
}
330
4ED9D
100
DictionaryVariables
280
     0
  1
STANDARD
  0
DICTIONARYVAR
  5
4EDA3
102
{ACAD_REACTORS
330
4ED9D
102
}
330
4ED9D
100
DictionaryVariables
280
     0
  1
STANDARD
  0
DICTIONARYVAR
  5
4EDA4
102
{ACAD_REACTORS
330
4ED9D
102
}
330
4ED9D
100
DictionaryVariables
280
     0
  1
Imperial24
  0
DICTIONARYVAR
  5
4EDA5
102
{ACAD_REACTORS
330
4ED9D
102
}
330
4ED9D
100
DictionaryVariables
280
     0
  1
Imperial24
  0
DICTIONARYVAR
  5
4EDA6
102
{ACAD_REACTORS
330
4ED9D
102
}
330
4ED9D
100
DictionaryVariables
280
     0
  1
0
  0
DICTIONARYVAR
  5
4EDA7
102
{ACAD_REACTORS
330
4ED9D
102
}
330
4ED9D
100
DictionaryVariables
280
     0
  1
2
  0
DICTIONARYVAR
  5
4EDA8
102
{ACAD_REACTORS
330
4ED9D
102
}
330
4ED9D
100
DictionaryVariables
280
     0
  1
1
  0
DICTIONARYVAR
  5
4EDA9
102
{ACAD_REACTORS
330
4ED9D
102
}
330
4ED9D
100
DictionaryVariables
280
     0
  1
BYLAYER
  0
DICTIONARYVAR
  5
4EDAA
102
{ACAD_REACTORS
330
4ED9D
102
}
330
4ED9D
100
DictionaryVariables
280
     0
  1
0
  0
DICTIONARYVAR
  5
4EDAB
102
{ACAD_REACTORS
330
4ED9D
102
}
330
4ED9D
100
DictionaryVariables
280
     0
  1
K-Hatch
  0
DICTIONARYVAR
  5
4EDAC
102
{ACAD_REACTORS
330
4ED9D
102
}
330
4ED9D
100
DictionaryVariables
280
     0
  1
ByLayer
  0
DICTIONARYVAR
  5
4EDAD
102
{ACAD_REACTORS
330
4ED9D
102
}
330
4ED9D
100
DictionaryVariables
280
     0
  1
0
  0
DICTIONARYVAR
  5
4EDAE
102
{ACAD_REACTORS
330
4ED9D
102
}
330
4ED9D
100
DictionaryVariables
280
     0
  1
0
  0
DICTIONARYVAR
  5
4EDAF
102
{ACAD_REACTORS
330
4ED9D
102
}
330
4ED9D
100
DictionaryVariables
280
     0
  1
0
  0
DICTIONARYVAR
  5
4EDB0
102
{ACAD_REACTORS
330
4ED9D
102
}
330
4ED9D
100
DictionaryVariables
280
     0
  1
2
  0
DICTIONARYVAR
  5
4EDB1
102
{ACAD_REACTORS
330
4ED9D
102
}
330
4ED9D
100
DictionaryVariables
280
     0
  1
1.000000
  0
DICTIONARYVAR
  5
4EDB2
102
{ACAD_REACTORS
330
4ED9D
102
}
330
4ED9D
100
DictionaryVariables
280
     0
  1
1
  0
DICTIONARYVAR
  5
4EDB3
102
{ACAD_REACTORS
330
4ED9D
102
}
330
4ED9D
100
DictionaryVariables
280
     0
  1
2
  0
DICTIONARYVAR
  5
4EDB4
102
{ACAD_REACTORS
330
4ED9D
102
}
330
4ED9D
100
DictionaryVariables
280
     0
  1
1
  0
DICTIONARYVAR
  5
4EDB5
102
{ACAD_REACTORS
330
4ED9D
102
}
330
4ED9D
100
DictionaryVariables
280
     0
  1
0
  0
DICTIONARYVAR
  5
4EDB6
102
{ACAD_REACTORS
330
4ED9D
102
}
330
4ED9D
100
DictionaryVariables
280
     0
  1
127
  0
DICTIONARY
  5
194
330
22
100
AcDbDictionary
280
     1
281
     1
  0
DICTIONARY
  5
188
330
97
100
AcDbDictionary
280
     1
281
     1
  3
FBXASSET
360
189
  0
DICTIONARY
  5
186
330
96
100
AcDbDictionary
280
     1
281
     1
  3
FBXASSET
360
187
  0
DICTIONARY
  5
110
330
98
100
AcDbDictionary
280
     1
281
     1
  3
BUMPTILE
360
112
  3
DIFFUSETILE
360
111
  3
FBXASSET
360
18A
  3
OPACITYTILE
360
113
  3
REFLECTIONTILE
360
114
  0
DICTIONARY
  5
104
330
87
100
AcDbDictionary
280
     1
281
     1
  3
ACAD_ROUNDTRIP_2008_TABLESTYLE_CELLSTYLEMAP
360
4F3A4
  0
XRECORD
  5
189
102
{ACAD_REACTORS
330
188
102
}
330
188
100
AcDbXrecord
280
     1
 70
     1
 90
429727718
  1
508B35C9-AEE7-456F-BE74-D52651303AC6
310
504B03040A0000080000B670623B3DEE336E79000000790000001B0000006175746F6465736B2D64657369676E2D7061636B6167652E786D6C3C3F786D6C2076657273696F6E3D22312E302220656E636F64696E673D227574662D3822203F3E3C666F726D6174733E3C666F726D61743E687474703A2F2F736368656D612E
310
6175746F6465736B2E636F6D2F64657369676E2D7061636B6167652F323030393C2F666F726D61743E3C2F666F726D6174733E504B0304140006080800B670623BD486FD9CA0000000F4000000130000005B436F6E74656E745F54797065735D2E786D6C7D8EC10E82300C865F65E91D8A1E8C310C0EEA1BF002731658846E
310
D98AC1B77784ABF1D8FE5FBFBF75BBCE937A534CCEB38643598122B6FEE978D0B0485F9C41B54DDD7D022595594E1A469170414C76A4D9A4D207E29CF43ECE46F218070CC6BECC4078ACAA135ACF422C856C0E68EA1BF5669944DDD7BCDE7B1F8E415D77AECB980613C2E4AC91FC167A2B244592486606FC29C8FD7F045B9A
310
EF7053A7E60B504B0304140006080800B670623B28ED286BEB0000007C01000008000000636F72652E786D6C8D90416EC3201045AF82665B6183218D6D61A254764FD00B204C5C94182C03558F5F9C3852BBEB6A467FFE9B197D71FA9E6FE8CBACC17AD7012D0820E3B41FAD9B3A48F1826B40272956EFE32F1B20A766D3C1
310
268314D3EAD3B24BDABB685CCCAAF3A3D94515828980F42D371D04FD696655A814B3235C8B45E9AB9A4C419F5D8653B2237A1CB163DE672FD6AC209BF3C08E0D1B30EB19C3FC9D72FCC6EB231EFA33EDE96BDD341517E5064B11EDFCBCAF57A3A2194156843498524CAA0FCA5B7268F9E185D42D21A2DCEC7FA0B48CFF8492
310
759155FBBB0F2C80A4F991FB408A72CB22977B50B96EB9C91F504B0304140006080800B670623B55019EA25F0000007C00000007000000636E782E786D6C4DCB3B0E80201045D1AD90E915ED2CF8AC45050C11660C8261F98AB1B07AC9C97D42D718D865D3E909258CFD00CCE24AC6E326A164D74DC0B4128928FF32603847
310
2BA13128B1252AC747C6BAB984FC68F0B87FE8960A5C09FE86CFB69FBA01504B0304140006080800B670623B7BC41AC871010000D40300000C0000006662782F636F72652E786D6CC553ED6E8320147D15C2DF4501B56B6D90A64BBB27D80B50A5CE54C120983EFEAE1F4DD7A56BBA5FF3879273EEE59E7310BE393735EA95
310
ED2AA333CC428A91D2B9292A5D66D8BB63B0C26823B835C67D2BC348CB46657880B1E0A535BE9DA1DC68A7B403549B42CDA0EC3AE530CA6B5864B8CB3F552343E91D5474A7B095F949962A6421D0502778E72C0840D390E18DC5F170E664C205F7BE2A66B62A605A75AC94C522DDEEE3651AEF837817C741F2CE92E02D592D
310
83FD6ECB76EC7595A651C2C9D02CB8AB9A8BBADC2AE954814544691A3016D0E883256BBA58278B17BA5A53CAC9507ED3E4DBE2C9265F691747B3DCA9ADC382819091F8E1162272A8933DE82182932144F88C09DF060D8140C84E1EEA8B8F1340BDCA9DB1093085F157AA97B557309586747CD0EF0B4EA64E983A6E0EAEEFCE
310
889E9EF17847386AA94B30211D2C0FDE0D3AF9A4610EAD5536E8DD1969631B593F67E381C33F5157F17725E5A636F6BF1491F980C8FC7B90E13E8A2F504B0304140006080800B670623B70102A487D0000009D0000000B0000006662782F636E782E786D6C4DCCD10A83201886E15B91FFDC95A5C30335ACCDFB886521330D
310
A76397BF1A1DECE883878F57749FD5A3B74D2F17830472A901D9F088930B8B849267CC01754AA418F3DF0D5018572BE160506249B16C274D761E8BCFBB7A179E27F65CB39A0F14D396184C9921B81F34C3ACA1B4B99ABB6E6F062A25AA5F69DF23ACBE504B0304140006080800B670623B3610CA3329010000120200003100
310
00006662782F42384135303843342D343331462D343546312D424341352D3532343432364645413344462F636F72652E786D6C8D515B6EC32010BC0AE22B55850D0E446E848992B43E412FE000495162B07854397EA176A4F62F3F2C9A9D991D58BEBB8F37F0AD7D30CE76905418026DA553C65E3A98E219B510EC04F7CEC5
310
3F3408EC30EA0E16180A7EF12E4D0B249D8DDAC68C5AA7F4020E21E80881BCE54B0783FCD2E3500D296646B856D320AFC34557A4CAEDCC133C449F0380794839A138B47B86DB2345744D7A44594FD0E1B867883594369BFE63BF7EEF793D0B054FC9A8456E548E63CE46FB674D8A58F068C6477CE9F510B582A2C1F80D1182
310
70F349E816B32D65AFB8DD62CCEB42FF274A937A52948C8DEB66893BCB021484D7734370E5D2E9F608A3EF93F3119479ABA0E50B14B8C298119A43CCC4FCFCECB8A18B6388CEE7EF5D5D4F994BD86CBBA182D76543B9FCAE2FD7B24DF103504B0304140006080800B670623B1B8617914E0100003303000030000000666278
310
2F42384135303843342D343331462D343546312D424341352D3532343432364645413344462F636E782E786D6CD593C16EC32010447F0571AD6CE3D489D20813A9877E410FBD62D82434182CC055F3F75D1292E692438FBD206B7698593D61BEFD1E2DF982108D773D6D6B460938E5B571FB9ECE6957AD29D90A1EBC4F7736
310
4A9C1CA1A759A682EF839FA72269D8C9D92654AD71C72206887E0E0A22CAF926B15E498B01E0AA19451807D01A34B919F16B070157417138917400F2F6FA41FCF0092A45DEE414C19BDC21783E4BD39D891265658C3D8DEA00A3ACE59CBC8678ACB54CB26EEB6BD7839D7E9348BE70AD9C8321B9BCA7F9A4A26C542347DEE0
310
50F09802D22BA6749A800A394DD62899107273365E3C82CFC6A55557BC06C10774B7ABE7AEC3B0F34CF06446280E154026D0542C187BA9DAB6628BF7B6DBB0E5A65B3EB1F58631DE64BBE083F7B65CC218087E22CABB042E51D1F2268F1FE12B3EA24D40D63E9CFE00120194D60B9D5BC67FE6D39CDF37E20AF817881F504B
310
0304140006080800B670623BBFEF2E3B690500003C100000340000006662782F42384135303843342D343331462D343546312D424341352D3532343432364645413344462F6F626A656374732E786D6CAD575D739B3814FD2B0CFB0C98D84E931D4227B6938EA793B6534F3BFB90198F0099B001899144EAECAFDF231018B0
310
D37A3FFC609090EEE7B94757C1FB7D915B2F54C88CB31BDB7727B64559CC938CA53776A576CE956DBD0F03C1B9EA2DB32D460A7A63EB693B0C52C1ABD24C257447AA5C8D66EF177F5832A68CDA569C13296F6C193FD182B8A4523CA1F2D94D88226EBADBBBBEDB2C1C8A4D05299F46424B222853B014F30C52ACC6287F389C
310
D85E1878FA7B18E87FB36AFAF62AAFF667A83F635211161F291B8999FAB3D5DDC5FCDA99CF6653677679E13B8BFBC5CAF1DF4D27CBCBE5F2FAF6EE1A8AA51290642C117467871F101B91C581D77CEA2C36869F3229E68CD1B8F61F1ED6361B89092D294B90C78C4A68EB793D190E7D1D9BDEE7A91E1B95FDE9F3BCEAEFE809
310
6A6D6F9F7D4B79F4275C90E7A04248AA51D5C4C738DAE06F72885AC4796EBE65D22A88A22223B995679120E2D50EB1542F098381188D4EA111AE3DB043FF20AF6F2B4AE3D7D83D65E5AECA730D4D3BAC91BD05FEA992B565D95F549CD6069B90AB2A63EACA38A45E4B6A87D781574F86817E4C2FCCC72690D62E2729520E37
310
9BAF234797BAF6D62B3BFC781FED37BA1E4F2B2F052FA9501A3E80569BB8F6A9A364D4FA67654E6F803383981F82F21591FF84F23D9882BC896C3FDBCF8C162508933B2E0AE4C69DD43F6BD2BE38DDDBF10BF86CB4FA784D37F3AF16075E67EC9030DECA1FC0A55373F5DFF3378C591FA9BDF485C10B0A8C8BA909E5262639
310
A8E72163488806A595734C81CB77D1DE0ED7604A303B76913CEC0272F412782FF88EFF4636D8AA56DF7B322474C4B767303F625997056C7B032C473C592B36CEBD15F3F9FF5233B7ABCDC74D257624A60F8658567497B14CE1EC3C80B76FD02011038F9EE9EB0F2E12387A9C844D3F09855125116D1D731DF8B43D2CF4E0A0
310
79A020C6BE946BCE0B7EA1E1219331CD73C228AF5A2DDD31A4B1DA918CE91350854D40A71723140BFA92E94E62B0626016CEFA5864A50E5977E8753CEDBEE1CBB7F52780D20E17AF0BA0F5F9B02A3AD07DCC732EB6D1EBB661421BE0C39E21BABF0FE16D22EA6929407C8DE596724C88B749B6DB5512BC7B228ADFD7CB7EA6
310
3A22397E690BA8D5D8D4E40CEC8CDA23C2C0B7D5898640101CEC9C6D331CE328CB93CAFBBAC70A642DF70DF95155945B52F08AA973C23469FD69ADEF84F7BB18F983A8F8C90E37F5D35980B2139A1C523540813E824EF83448CF7C72B598CE97D7CEEDDDDD3B6736BFBC771677EF66CE6A7E7139F7A793E9EDF2B2B3A8B624
310
0CDA13AA5F8388264EC4A0129909F3B7F5A16CEDF08128E97D680ACA4B9BE7B7B58BB638F0B00700EF36AE8B32A705658A68F83EE897FC2B41573190D1CCAF0B92D233A47CFEB019D9809933F67DD1A5467F8CF69AD9A5AE859342D45355448C64F968A371DC2D596ADC6E43D93D1B466F877A64E2893E54F23C4B40388995
310
525E5005DA3983ED45412510D3EFCA13737B3863F74BD30F2A12E5B4B5E489A025CE25500DB855B11ACE5BBFA185D35DD48D8DC3CE7DC69F2944DB42AA6F6CF09BCA622ADD08C7A36E7C6AE18000BAB08E040135C2D21C9D75B3A91B77BB746C403F38018DFE6EC939DD92F16B40BC05294B9CDA035AAD6D330AE27FE4786B
310
8E45145EA34A75BE1C263A676A35A8ACC6297337400BF16C54EF515F3F77CB77EB3583889C754FFA29081AA98E2222ADEF05DA3E63D2EDEA8B8756C05A7FB6CABC4A91CBF325398202CC952E70A008A830324BA200D5E5EF8F5F04C75DB4B0EE3340E071C98B823333B83577596BF3849B69F2085AA0FAFA212F26BEFF5877
310
FDE622B28D88A42E49E43326DA82D31E8CB006401E1DA726059ECEC168F97A6599036306A135688F9AD2E61A6EA178F4CD51974A9F2CCB9F36FE5EBD14601068D9C3BF01504B0304140006080000B670623B000000000000000000000000350000006662782F42384135303843342D343331462D343546312D424341352D35
310
32343432364645413344462F76657274696365732E62696E504B0304140006080800B670623BF270F1330600000004000000360000006662782F42384135303843342D343331462D343546312D424341352D3532343432364645413344462F747269616E676C65732E62696E636660600000504B0304140006080000B67062
310
3B000000000000000000000000370000006662782F42384135303843342D343331462D343546312D424341352D3532343432364645413344462F617474726962757465732E62696E504B0304140006080800B670623B08DA0BD19000000041010000360000006662782F42384135303843342D343331462D343546312D4243
310
41352D3532343432364645413344462F6469726563746F72792E786D6C858F410AC3201045AF22B36F53E9A60B35CBEEBAE80D244E44489C6234F4F835464A48035D0DF398FF9F8AF63D0E6CC63039F212F8F9020C7D47C6792B21C5FE7403D62A1188E2E60C98D7234A5830286103A55745067B9D86B8A3CF9C7F90C11DE6
310
07FB144396D7B6A82D282E9A152AD114D5EF2CB866EEE831B8EEA07A7BB5A8D7D61A2BAAEB7FD5F70921FF497D00504B0304140006080800B670623B3B4606F3FE000000A00100003B0000006662782F42384135303843342D343331462D343546312D424341352D3532343432364645413344462F7265736F75726365732F
310
636F72652E786D6C8D504B6E833010BD0A9A6D65B08134808CA354A427E8052C332156828DFCA97AFC9A40A576D7CDCCE87D344F8F9FBEE647F689CE6B6B7A6039850C8DB2A336530F315C4903D94970676DF82583CCC8197B5861107C72362E3BA4AC096842428D1D7107A5F71820538F74F4E0D50D6799CB1892C2DFF345
310
AABB9C306779A2934E701F5C0A906D4FD609C2A1B7D129F4BCD858C163D4E3AED163FAA9AF1A1D88F67CA98E6D35906AA82A52BFB39ABCD5CD915C86331BD86BD3B665CD8BD52C78D0F34F46E550061C419494B6843142CB0F5677F4D0D58717DA7494F26295FF31C565FCA7296A13AA728FBBD93C0896823C09C18BB5AFB4
310
9E65A6BD762BBE01504B010214000A0000080000B670623B3DEE336E79000000790000001B00000000000000000000000000000000006175746F6465736B2D64657369676E2D7061636B6167652E786D6C504B01021400140006080800B670623BD486FD9CA0000000F40000001300000000000000000000000000B2000000
310
5B436F6E74656E745F54797065735D2E786D6C504B01021400140006080800B670623B28ED286BEB0000007C010000080000000000000000000000000083010000636F72652E786D6C504B01021400140006080800B670623B55019EA25F0000007C000000070000000000000000000000000094020000636E782E786D6C50
310
4B01021400140006080800B670623B7BC41AC871010000D40300000C00000000000000000000000000180300006662782F636F72652E786D6C504B01021400140006080800B670623B70102A487D0000009D0000000B00000000000000000000000000B30400006662782F636E782E786D6C504B01021400140006080800B6
310
70623B3610CA3329010000120200003100000000000000000000000000590500006662782F42384135303843342D343331462D343546312D424341352D3532343432364645413344462F636F72652E786D6C504B01021400140006080800B670623B1B8617914E010000330300003000000000000000000000000000D10600
310
006662782F42384135303843342D343331462D343546312D424341352D3532343432364645413344462F636E782E786D6C504B01021400140006080800B670623BBFEF2E3B690500003C10000034000000000000000000000000006D0800006662782F42384135303843342D343331462D343546312D424341352D35323434
310
32364645413344462F6F626A656374732E786D6C504B01021400140006080000B670623B0000000000000000000000003500000000000000000000000000280E00006662782F42384135303843342D343331462D343546312D424341352D3532343432364645413344462F76657274696365732E62696E504B010214001400
310
06080800B670623BF270F133060000000400000036000000000000000000000000007B0E00006662782F42384135303843342D343331462D343546312D424341352D3532343432364645413344462F747269616E676C65732E62696E504B01021400140006080000B670623B00000000000000000000000037000000000000
310
00000000000000D50E00006662782F42384135303843342D343331462D343546312D424341352D3532343432364645413344462F617474726962757465732E62696E504B01021400140006080800B670623B08DA0BD1900000004101000036000000000000000000000000002A0F00006662782F42384135303843342D3433
310
31462D343546312D424341352D3532343432364645413344462F6469726563746F72792E786D6C504B01021400140006080800B670623B3B4606F3FE000000A00100003B000000000000000000000000000E1000006662782F42384135303843342D343331462D343546312D424341352D3532343432364645413344462F72
310
65736F75726365732F636F72652E786D6C504B0506000000000E000E0080040000651100000000
  0
XRECORD
  5
187
102
{ACAD_REACTORS
330
186
102
}
330
186
100
AcDbXrecord
280
     1
 70
     1
 90
429727718
  1
887D55A9-D0DD-414E-B741-A7DCD4DA2B4C
310
504B03040A0000080000B670623B3DEE336E79000000790000001B0000006175746F6465736B2D64657369676E2D7061636B6167652E786D6C3C3F786D6C2076657273696F6E3D22312E302220656E636F64696E673D227574662D3822203F3E3C666F726D6174733E3C666F726D61743E687474703A2F2F736368656D612E
310
6175746F6465736B2E636F6D2F64657369676E2D7061636B6167652F323030393C2F666F726D61743E3C2F666F726D6174733E504B0304140006080800B670623BD486FD9CA0000000F4000000130000005B436F6E74656E745F54797065735D2E786D6C7D8EC10E82300C865F65E91D8A1E8C310C0EEA1BF002731658846E
310
D98AC1B77784ABF1D8FE5FBFBF75BBCE937A534CCEB38643598122B6FEE978D0B0485F9C41B54DDD7D022595594E1A469170414C76A4D9A4D207E29CF43ECE46F218070CC6BECC4078ACAA135ACF422C856C0E68EA1BF5669944DDD7BCDE7B1F8E415D77AECB980613C2E4AC91FC167A2B244592486606FC29C8FD7F045B9A
310
EF7053A7E60B504B0304140006080800B670623BBC1638F5EC0000007C01000008000000636F72652E786D6C8D90416EC3201045AF82665B61836BE2D8C24471DB9CA01740401C94182C03558F5F9C3852BBEB6A467FFE9B197D7EF89E6EE8CB2CC17AD7032D0820E394D7D68D3DA478C67B4007C117EFE32F1B202727D3C3
310
2A83E0E3E2D3BC49CABB685CCCAAF3DA6CA20CC14440EA969B1E82BA98491632C5EC08D76296EA2A4753D06797E194AC468F2356E77DF66CCD02825543D50CACC62D39ED70FDC68EB8FD68F6F8787A6784342D1DDA1D2F5758F068A7E77DB518198D065111D2624A31A93E69DD11D6D5EC85EC3B4278B9DAFF4069D6FF8492
310
75F1B5DADE7D600104CD8FDC0782976B16B9DC83CA75CD4DFC00504B0304140006080800B670623B55019EA25F0000007C00000007000000636E782E786D6C4DCB3B0E80201045D1AD90E915ED2CF8AC45050C11660C8261F98AB1B07AC9C97D42D718D865D3E909258CFD00CCE24AC6E326A164D74DC0B4128928FF326038
310
472BA13128B1252AC747C6BAB984FC68F0B87FE8960A5C09FE86CFB69FBA01504B0304140006080800B670623B3586FFB671010000D40300000C0000006662782F636F72652E786D6CC553ED6E8320147D15C2DF4541A76D6D90A6DDD627D80B50A4CE54C120983EFEAE1F4DD7A55BBA5FF3879273EEE59E7310B6393735EA
310
95ED2AA3731C851423A5A5292A5DE6D8BB63B0C268C39935C67D29C3488B46E578803167A535BE9D2169B453DA01AA4DA16650749D7218C91A1639EEE4876A4428BC838AEE14B6429E44A9C228041AEA38EB9C0501681A32BC313F1ECE8C4C3867DE57C5CC56054CAB8E95B298A7F12E5EEED224C8E87E11242FE936C8DE96
310
AB60BB7F4D295D66D12E5B30323473E6AAE6A24E5A259C2A308F29CD82280A68FC1E256B9AAE93F489AED694323294DF34F9B678B0C957DA3DC7B3DCA9ADC33C022123F1CD2D44E450277AD04338234388F01913BE0D1A0281909D38D4171F27807A259DB1093085F157AA17B557309586747CD0CF0B46A64E983A6E0EAEEF
310
CE881F9EF1FB8E70D44297604238581EBC1B74B249C31C5AAB6CD0BB33D2C636A27ECCC62F0EFF445DC5DF95244D6DEC7F2922F30191F9F720C37DE49F504B0304140006080800B670623B4220A0FF7D0000009D0000000B0000006662782F636E782E786D6C4DCCD10A83201886E15B91FFDCE542CB0335D0EC3E6259C84A
310
C3E9D8E5AF46073BFAE0E1E315DD675BD1DBA5978F41C2FD4600B9F088930F8B849267CC01754AA418F3DF0D50183727E164506249B1EC174D6E1ECB9A0F5D7D785E68DB8151CD286E5A5363CA6B8A39E90D36D40E96B086F55A43A544F52B1D7B86D517504B0304140006080800B670623B2FA3FEDE290100001202000031
310
0000006662782F45374635344235342D363743322D343832342D383044432D4334454645303536354442422F636F72652E786D6C8D515B6EC32010BC0AE22B55850D2E386E848994D7097A0117488A1283C5A3CAF10BB523B57FF961D1ECCCECC0F2ED7DBC816FED8371B687A4C210682B9D32F6D2C314CFA883602BB8772E
310
FEA141608751F7B0C050F08B77695A20E96CD43666D43AA5177008414708E42D5F7A18E4971E876A483133C2B59A06791D2EBA22556E679EE021FA1C00CC43CA09C5717D6274C7286AD7FB06D1AEA1A8C3873DDAD3E3E98859CB0EBB1DAF67A1E02919B5C88DCA71CCD968FFAC49110B1ECDF8882FBD1EA256503418BF2342
310
106E3E08DD60B6A1EC15771B8C795DE8FF4469524F8A92B1F1AD59E2CEB20005E1F5DC105CB9F4797B84D1F7C9F908CABC55D0F2050A5C61CC1AD2F27A26E6E767C7962E8E213A9FBF7775FDCC5CC266DB960A5E970DE5F2BBBE5CCB36C50F504B0304140006080800B670623B1B8617914E01000033030000300000006662
310
782F45374635344235342D363743322D343832342D383044432D4334454645303536354442422F636E782E786D6CD593C16EC32010447F0571AD6CE3D489D20813A9877E410FBD62D82434182CC055F3F75D1292E692438FBD206B7698593D61BEFD1E2DF982108D773D6D6B460938E5B571FB9ECE6957AD29D90A1EBC4F77
310
364A9C1CA1A759A682EF839FA72269D8C9D92654AD71C72206887E0E0A22CAF926B15E498B01E0AA19451807D01A34B919F16B070157417138917400F2F6FA41FCF0092A45DEE414C19BDC21783E4BD39D891265658C3D8DEA00A3ACE59CBC8678ACB54CB26EEB6BD7839D7E9348BE70AD9C8321B9BCA7F9A4A26C542347DE
310
E050F09802D22BA6749A800A394DD62899107273365E3C82CFC6A55557BC06C10774B7ABE7AEC3B0F34CF06446280E154026D0542C187BA9DAB6628BF7B6DBB0E5A65B3EB1F58631DE64BBE083F7B65CC218087E22CABB042E51D1F2268F1FE12B3EA24D40D63E9CFE00120194D60B9D5BC67FE6D39CDF37E20AF817881F50
310
4B0304140006080800B670623B29652116630500003C100000340000006662782F45374635344235342D363743322D343832342D383044432D4334454645303536354442422F6F626A656374732E786D6CAD575D739B3814FD2B0CFB0C989834C90EA1639B24E3E9A6EDD4D3CE3E64C623834CD8006224913AFDF57B040203
310
B65BEF871F0C12D2FD3CF7E8CA7FBFCB33E3957291B2E2D674ED8969D02262715A24B76625B7D6B569BC0F7CCE98EC2D338D82E4F4D654D366E0279C55A59E8AE99654991CCDDECFFF3444440B6A1A514684B83545F44C7362934AB2988A173B2692D8C97667BB76B3702836E1A47C1E092D09A78584A5982F20C5688C7287
310
C389E904BEA3BE07BEFAD7ABA6A75739B53F43FD69212429A20365233153D70BEF2E2E6FAC4BCF9B5ADEBB0BD79ADFCF43CBBD9A4E16EF168B9BD9DD0D140BC921495BC2E9D60C1E101B9E46BED37CEA2CD6861F3329624541A3DA7F7858DBAC25C6B4A4458C3CA654405BCFEBC970E8AAD8F43E4FD558ABEC4F9FE7557F47
310
4F506B7BFBEC5BCA367FC105710E2AB8A00A554D7CB4A30DFE26FBA86D18CBF4B75418399194A72433B274C3097F33032C554B027F2046A1932B842B0FCCC0DDCBEBDB8AD2F835768F59B9ADB24C41D30C6A64AF817F2A456D59FA83F2E3DA60137255A585BCD60EC9B7929AC18DEFD49381AF1ED30BFDB109A4B1CD488294
310
C3CDE6EBC8D185AABD6568061FEE37BB95AAC7E3CA4BCE4ACAA5820FA0D526AE7DAA2869B5EE5999531BE0CC20E6FBA07C41E43FA27CF7A6206F3CDD793B4F6B919C1462CB788EDCD893FA674CDA17AB7B3B7C019F8D561FAEE966FED562DFE98C1D12C6A9FC015C2A35D7FF3D7FC398F591DA4B5FE0BFA2C0189FEA50AE22
310
92817A1ED3020951A03432862970F976B33383259812CC8E5D240BBA801CBCF8CE2BBEE3BF910DB6AAD5F79E05123AE2DB33981FB1ACCB02B69D00CB014FD68AB573A7627EF9BFD4CC2C5C7D58557C4B22FAA88925A4DBB44825CECE3D78FB060D1231F0E885BE7D673C86A3874958F593906B5502D1563157814FDAC3420D
310
F69A070A22EC4B98E23CFF171A1E5311D12C23056555ABA53B8614563B92D17D02AAB009E8F46284624E5F53D5490C560CCCC2591FF1B45421EB0EBD8EA7ED13BE7C5D7E0428CD60FEF60779EB13E6664FF711CB185F6FDED60D139A001FF60CD1FD6D086F1D51474901E26B2CB794A343BC8ED3EDB612E0DD2351FCB65CF4
310
33D511C9E14B5B40ADC6A6263DB0336A8F700DDF56271A024E70B0B3629DE21847591E55DED73D56206AB927E46FAABC5C939C55853C274C93D69FD6FA4E78BF8B11DF898C9ECD60553FAD39283BA6F18984AA23E8884F83F45C5F5F859797B31B2B9C84A1E5B9DE9D35BFF25C6B76152E422F9C5DCC3D847F5801ED09D5AF
310
41441327A25FF15487F9EB725FB666F048A4701E9A827292E6F97569A32DF61DEC01C0BB8DCBBCCC684E0B49147C1FD54BF685A0AB18C868E6973949E819523E3DAC463660E68C7D9F55A9D1EFA3BD7A76A16AE1A810F95CE59B82A4D968A376DC2E8B44BBDD86B27B368CDE0ED548C7137DA860591A83706223A12CA712B4
310
7306DBF39C0A20A6DF95C7FAF670C6EED7A61F946493D1D6926782963813403548A78AE470DEF80D2D9CEAA26E4D1C76F60BFE74219A06527D6B82DF641A51616F703CAAC6A7160E08A00BEB4810A0274592A1B36E3675E36E978A0DE80727A0D6DF2D39A75BD27E0D8837276589537B40ABB56D5A41F48F1C6FCD3188C4EB
310
A6929D2FFB89CE995A4D00AE813BDD032DC48B56BD437DFDDC2DD7AED70C2272D63DE9A72068A45A92F0A4BE17A8A06B9366E16707AD80B1FC649459952097E74BB23805982B55E0401150A165964402AA8BDF9F3E7386BB686EDCA780C0D382E5392BF460A6EFB2C6EA1937D3F809B440D5F5435C4C5CF7A9EEFAF54564BD
310
2182DA24162F98680B4E7930C21A0079709CEAEB99A372305ABE0C0D7D6078105A83F6A0296DAEE1068A47DD1C55A9F4C9B2FC69E3EFD44B81028E963DF81B504B0304140006080000B670623B000000000000000000000000350000006662782F45374635344235342D363743322D343832342D383044432D433445464530
310
3536354442422F76657274696365732E62696E504B0304140006080800B670623BF270F1330600000004000000360000006662782F45374635344235342D363743322D343832342D383044432D4334454645303536354442422F747269616E676C65732E62696E636660600000504B0304140006080000B670623B00000000
310
0000000000000000370000006662782F45374635344235342D363743322D343832342D383044432D4334454645303536354442422F617474726962757465732E62696E504B0304140006080800B670623B08DA0BD19000000041010000360000006662782F45374635344235342D363743322D343832342D383044432D4334
310
454645303536354442422F6469726563746F72792E786D6C858F410AC3201045AF22B36F53E9A60B35CBEEBAE80D244E44489C6234F4F835464A48035D0DF398FF9F8AF63D0E6CC63039F212F8F9020C7D47C6792B21C5FE7403D62A1188E2E60C98D7234A5830286103A55745067B9D86B8A3CF9C7F90C11DE607FB144396
310
D7B6A82D282E9A152AD114D5EF2CB866EEE831B8EEA07A7BB5A8D7D61A2BAAEB7FD5F70921FF497D00504B0304140006080800B670623B6378F24DFF000000A00100003B0000006662782F45374635344235342D363743322D343832342D383044432D4334454645303536354442422F7265736F75726365732F636F72652E
310
786D6C8D504B6E833010BD0A9A6D65B0094E42641C85B639412F6099496225D8C89FAAC7AF09546A77DDCC8CDE47F3F4C4F16B7C149FE88371B603565228D06A37187BED20C50BD9437194C23B177FC9A0B06AC40E6618A4B87A97A615D2CE46B431A3D60DB8822A048C50E8473E3A08FA86A32A558A5911EEE5A4F45D5DB1
310
6465A6B34E8A107D0E502C4FE609D26370C96B0CA25A58295232C3AA3143FE692E063D485EF7F5AEE71BD2D2F39634AFFC44DAF7DD9E9CCE6F9CD25DCBFA762BAAD92C4534E34F46ED51451C40D694B6843142EB0FD61C283F34FC85EE0F948A6A96FF31A569F8A729191B37F51A77B105902C0779125254735F793DCBCC7B
310
EE567E03504B010214000A0000080000B670623B3DEE336E79000000790000001B00000000000000000000000000000000006175746F6465736B2D64657369676E2D7061636B6167652E786D6C504B01021400140006080800B670623BD486FD9CA0000000F40000001300000000000000000000000000B20000005B436F6E
310
74656E745F54797065735D2E786D6C504B01021400140006080800B670623BBC1638F5EC0000007C010000080000000000000000000000000083010000636F72652E786D6C504B01021400140006080800B670623B55019EA25F0000007C000000070000000000000000000000000095020000636E782E786D6C504B010214
310
00140006080800B670623B3586FFB671010000D40300000C00000000000000000000000000190300006662782F636F72652E786D6C504B01021400140006080800B670623B4220A0FF7D0000009D0000000B00000000000000000000000000B40400006662782F636E782E786D6C504B01021400140006080800B670623B2F
310
A3FEDE290100001202000031000000000000000000000000005A0500006662782F45374635344235342D363743322D343832342D383044432D4334454645303536354442422F636F72652E786D6C504B01021400140006080800B670623B1B8617914E010000330300003000000000000000000000000000D2060000666278
310
2F45374635344235342D363743322D343832342D383044432D4334454645303536354442422F636E782E786D6C504B01021400140006080800B670623B29652116630500003C10000034000000000000000000000000006E0800006662782F45374635344235342D363743322D343832342D383044432D4334454645303536
310
354442422F6F626A656374732E786D6C504B01021400140006080000B670623B0000000000000000000000003500000000000000000000000000230E00006662782F45374635344235342D363743322D343832342D383044432D4334454645303536354442422F76657274696365732E62696E504B01021400140006080800
310
B670623BF270F13306000000040000003600000000000000000000000000760E00006662782F45374635344235342D363743322D343832342D383044432D4334454645303536354442422F747269616E676C65732E62696E504B01021400140006080000B670623B0000000000000000000000003700000000000000000000
310
000000D00E00006662782F45374635344235342D363743322D343832342D383044432D4334454645303536354442422F617474726962757465732E62696E504B01021400140006080800B670623B08DA0BD190000000410100003600000000000000000000000000250F00006662782F45374635344235342D363743322D34
310
3832342D383044432D4334454645303536354442422F6469726563746F72792E786D6C504B01021400140006080800B670623B6378F24DFF000000A00100003B00000000000000000000000000091000006662782F45374635344235342D363743322D343832342D383044432D4334454645303536354442422F7265736F75
310
726365732F636F72652E786D6C504B0506000000000E000E0080040000611100000000
  0
XRECORD
  5
112
102
{ACAD_REACTORS
330
110
102
}
330
110
100
AcDbXrecord
280
     1
270
     1
271
     1
  0
XRECORD
  5
111
102
{ACAD_REACTORS
330
110
102
}
330
110
100
AcDbXrecord
280
     1
270
     1
271
     1
  0
XRECORD
  5
18A
102
{ACAD_REACTORS
330
110
102
}
330
110
100
AcDbXrecord
280
     1
 70
     0
 90
1778669749
  1
9BF507EE-FAF7-4A99-A33D-4EE51894BC40
310
504B03040A0000080000B670623B3DEE336E79000000790000001B0000006175746F6465736B2D64657369676E2D7061636B6167652E786D6C3C3F786D6C2076657273696F6E3D22312E302220656E636F64696E673D227574662D3822203F3E3C666F726D6174733E3C666F726D61743E687474703A2F2F736368656D612E
310
6175746F6465736B2E636F6D2F64657369676E2D7061636B6167652F323030393C2F666F726D61743E3C2F666F726D6174733E504B0304140006080800B670623BD486FD9CA0000000F4000000130000005B436F6E74656E745F54797065735D2E786D6C7D8EC10E82300C865F65E91D8A1E8C310C0EEA1BF002731658846E
310
D98AC1B77784ABF1D8FE5FBFBF75BBCE937A534CCEB38643598122B6FEE978D0B0485F9C41B54DDD7D022595594E1A469170414C76A4D9A4D207E29CF43ECE46F218070CC6BECC4078ACAA135ACF422C856C0E68EA1BF5669944DDD7BCDE7B1F8E415D77AECB980613C2E4AC91FC167A2B244592486606FC29C8FD7F045B9A
310
EF7053A7E60B504B0304140006080800B670623BCA089DFFEC0000007C01000008000000636F72652E786D6C8D90416E83301045AF62CDB632D8402020E32882F604BD80653BC44AB011B6AB1EBF262152BBEB6A467FFE9B197D76FA9EEFE84BAFDE38DB03CD08206DA553C64E3DC470C1474027CE56E7C22F1B202B66DDC3
310
260367D3EAE2B24BD2D9A06D48AA754AEFA2F05E0740F29E9A1EBCBCEA59642286E4F0B76C11F226269DD15797E0188D42CF2346A57DE662F40ABCAEC77628C6120F654571D50C04B7F5B9C1E3997CD4F550BE3745C3F20DE62C98F9755FAE5A04AD801784B498524C8A4F5A75E4D055873772EC0861F966FF03C545FD138A
310
C686B2D8DF7D621E384D8F3C069CE55B16A93C824A75CB8DFF00504B0304140006080800B670623B55019EA25F0000007C00000007000000636E782E786D6C4DCB3B0E80201045D1AD90E915ED2CF8AC45050C11660C8261F98AB1B07AC9C97D42D718D865D3E909258CFD00CCE24AC6E326A164D74DC0B4128928FF326038
310
472BA13128B1252AC747C6BAB984FC68F0B87FE8960A5C09FE86CFB69FBA01504B0304140006080800B670623B68FC0B7272010000D40300000C0000006662782F636F72652E786D6CC5535B6E833010BC8AE5DF0A6C1E8124328E22D29EA01770C0A128602363A31CBFCB234A53A555FA553EC09AD9F5CE8C31DB5DDA060D
310
D2F4B556190E7C8A9154852E6B5565D8D993B7C668C799D1DA7E29C3488956667884316795D1AE5BA0422B2B950554E9522EA0E87B69312A1A5864B82F3E642B7CE12C54F467BF13C55954D20F7CA0A18EB3DE1A1080E621E31BF3D3F1C2C88C73E65C5D2E6C5DC2B4FA544B8379921C36797888BC3C8A032F4E73EA6D927D
310
EA1DF6F42D49F2E8350D5346C666CE6CDD5ED515460A2B4BCC434A375E1078347C0FE22D5D6DE3D50B5D6F2965642CBF6B725DF96493AB958DC245EEDCD6631E809089F8E61622B2A81703E8219C913144F84C09DF070D8140C8561C9BAB8F3340832CAC363130A576376A108D933095FA747AD0CF0B46E64E983A6D0EAE1F
310
CE089F9EF1FB8E70D44255604258581E9D1D75B259C3125A278D37D80B52DAB4A279CEC62F0EFF44DDC43F9454E8469BFF5244960322CBEF41C6FBC83F01504B0304140006080800B670623B0F71DDB67E0000009D0000000B0000006662782F636E782E786D6C4DCCD10A83201886E15B91FFDCA54DB73F502386BB8F5816
310
32D3703976F9ABD1C18E3E78F87855FB990379BBFCF2296AE02706C4C5471A7C9C349475A408A4352AA7B4FEDD80C47E761A7606A3A69CCA72D0E0C6BE8475D3E0E3F3409428EA6B27A84079A782899AA2EC1A7AE3ECCC2FD858CB2D544655BFD2B67BD87C01504B0304140006080800B670623BE134B4FB28010000120200
310
00310000006662782F38353834323741342D343835462D343034322D383541392D4331303331363839454531452F636F72652E786D6C8D515B6EC32010BC0AE22B55850D0EA424C24451959EA0172086A42831583CAA1CBF503B52FB971F16CDCECC0EACD8DFC71BF836215AEF7A481A0C817183D7D65D7A98D3197108F652
310
04EFD31F1A044E8DA6871586525C82CFD3020DDE25E352419DD76601558C264130DCCAA58771F832A36A544E8511AFCDA486ABBA988634A55D7852C4144A00300FA927949C71DABD1D28A29C7D208A6987383B6CD13BC16BB2E1DBE3911C453B0BA5C8D9EA456E758963CFD684674DAA588A64C747FC2118958C86B2C3788B
310
0841B8FB247487D98EB257CC77188BB6D2FF89F2A49F1465EBD2BA5BE2CEB2082511EDDC9042FB7CBA3DC298FBE4430275DE2A9AE1054ADC60CC08E3A29D89E5F9C5714317C7987C28DFBBBA9E0A97B0D97643A568EB864AF95D5FA9759BF207504B0304140006080800B670623B1B8617914E010000330300003000000066
310
62782F38353834323741342D343835462D343034322D383541392D4331303331363839454531452F636E782E786D6CD593C16EC32010447F0571AD6CE3D489D20813A9877E410FBD62D82434182CC055F3F75D1292E692438FBD206B7698593D61BEFD1E2DF982108D773D6D6B460938E5B571FB9ECE6957AD29D90A1EBC4F
310
77364A9C1CA1A759A682EF839FA72269D8C9D92654AD71C72206887E0E0A22CAF926B15E498B01E0AA19451807D01A34B919F16B070157417138917400F2F6FA41FCF0092A45DEE414C19BDC21783E4BD39D891265658C3D8DEA00A3ACE59CBC8678ACB54CB26EEB6BD7839D7E9348BE70AD9C8321B9BCA7F9A4A26C542347
310
DEE050F09802D22BA6749A800A394DD62899107273365E3C82CFC6A55557BC06C10774B7ABE7AEC3B0F34CF06446280E154026D0542C187BA9DAB6628BF7B6DBB0E5A65B3EB1F58631DE64BBE083F7B65CC218087E22CABB042E51D1F2268F1FE12B3EA24D40D63E9CFE00120194D60B9D5BC67FE6D39CDF37E20AF817881F
310
504B0304140006080800B670623B5933D422630500003B100000340000006662782F38353834323741342D343835462D343034322D383541392D4331303331363839454531452F6F626A656374732E786D6CAD575B6FA33814FE2B887D0642934E9B156594264D158D3A534DD4D13E548A0C38942D60649B4EBABF7E3F8321
310
40924EF6928780CDF1B97EE762EFF32E4B8D37CA45C2F21BD3B547A641F39045491EDF98A5DC5AD7A6F1D9F73863B243661A39C9E88DA9B64DDF8B392B0BBD15D12D295339D85DDEFE618890E6D434C2940871638AF08566C426A5641115AF764424B1E3EDCE76ED9AB0CF36E6A47819302D08A7B984A6D8CFC1C5A89572FB
310
CB91E9F89EA3BEFB9EFAD754E3D3544E654F5F7E920B49F2F040D880CDD89D2CEE2E2EA7D6E56432B6269F2E5CEB7679BBB0DCABF168FE693E9FCEEEA6102C240727AD09A75BD3BF876F78127A4EFDA9D5582B7E4CA590E5390D2BFB6161A5B3E618D182E611E2985001691DAB47FDA5AB7CD3F93C566B2DB2BB7D9E55DD13
310
1D468DEECDB3AB290BFE8409E21C54704115AA6AFF68436BFC8DF65E0B184BF5B74418199194272435D224E084BF9B3E481589EFF5D828747285706581E9BB7B7E5D5D911ABFC6EE312DB7659A2A689A7E85EC0DF04FA5A8344BFEA2FCB834E8845895492EAFB541F2BDA0A63FF59C6AD3F7D4637CA13FD68E34B629891172
310
98597F1D183A57B9B75A98FE9765B05BAB7C3C2EBCE0ACA05C2AF8005A4DE09AA7F29216EB9E15397500C6F47CBE77CA7778FE2BD277AF0AE2C693DD6437D1522427B9D8329E2136F6A8FA19A3E6C56ADF0E5F50CF06D48734EDCEBF22F69C56D97EC138153F804B85E6FABFC7AFEFB32E523BE1F3BD372418E363EDCA7548
310
52949E8724474014288D94610BB57C1BEC4C7F854A89CA8E5324F55B871CBC78CE1BBEE3BFE68D6A5589EF3C730474506FCFA8FCF0659516D0ED04580EEA6425581B77CAE797FF4BCECC16EB2FEB926F49481F746159D06D922712BD730FDEAE42BD40F42C7AA5EF3F198F60E86110D6DD20645A9480B795CF95E3E3A659A8
310
C55E724F408873315335CFFB8584874484344D494E59D94869DB90C26A5B64F49C802CAC1D3ABE18A098D3B7444D123D8A9E5AE8F5214F0AE5B2B6E9B575DA3E61CBD3EA2B4009FA940524DD1305FB6A1FB294F14DF0BEA90BA109ECE1481FDC3FFAE8D60E75141700BE82725371B4873751B2DD960265F788137FACE6DD40
310
B575E4F0A5C99F46629D92131467A41EE11ABD8D4CCC039CA0AFB37C93A08B232B8F0AEFCA1E0A1015DF13FC83322B362463652ECF71D3A8B1A7D1BE65DE1D62C44F22C317D35F574FEB16153BA2D13E543D10A80E74C4A65E78A6B7CBCBD1D5DD9DB59C2DAFACC96C3AB566E3F1C29ADCDD5DBAD7D3C9ED7C822ED74F80A6
310
41755310DE4443F44A9E68373FADF6596BFA0F440AE7BECE2727AE9F4F2B1B53B1E7E00CF0DD1E5C65454A339A4BA2D0FBA05ED2EF0443458F47BDBFCA484CCFE0F2ED7E3DD0013B679C7B5499467F0ECEEADDB9CA85A34CE44B99053949D2C1416DB85DE4B136BB7165FBAC0B7AB3542BED4F8CA182A549847A1319316519
310
95A83A67147B9E5101C47487F2485F1ECE38FD568F839204296D3479219888530154036E6528FBFBC66F98E0D4107563A2D7D9AFF8D389681A08F58D89F22693900A3B407754734FC51C10C010D6D640809EE4718AC1BA3ED4AEDB53CA37283F68805A7E4B72CEB0A4EDEAD5DD8C14059A76AFAA56BA6901E13F32BC51C720
310
12AF41295B5BF61BAD3195181FB506E6B40F4C10AF5AF40EF9F5B159AE5DD1F43C72D635E94310D45C2D49785C5D0B94D3B54AB3C5A38349C0587D338AB48C11CBF339599C02CCA54A70A008A8D03C0B2201D5F9EFCF8F9CE12A9A19CB0410789EB32C63B95ECCF455D658BFE0621A3DA32C5075FB101723D77DAE867E7D0F
310
D90444509B44E2151B4DC2290B065803200FBAA9BE9D392A0603F2D5C2D00D6302A615680F66D2FA166E2079D4C551A54AB758161FCEFD4E450A14704CECFEDF504B0304140006080000B670623B000000000000000000000000350000006662782F38353834323741342D343835462D343034322D383541392D4331303331
310
363839454531452F76657274696365732E62696E504B0304140006080800B670623BF270F1330600000004000000360000006662782F38353834323741342D343835462D343034322D383541392D4331303331363839454531452F747269616E676C65732E62696E636660600000504B0304140006080000B670623B000000
310
000000000000000000370000006662782F38353834323741342D343835462D343034322D383541392D4331303331363839454531452F617474726962757465732E62696E504B0304140006080800B670623B08DA0BD19000000041010000360000006662782F38353834323741342D343835462D343034322D383541392D43
310
31303331363839454531452F6469726563746F72792E786D6C858F410AC3201045AF22B36F53E9A60B35CBEEBAE80D244E44489C6234F4F835464A48035D0DF398FF9F8AF63D0E6CC63039F212F8F9020C7D47C6792B21C5FE7403D62A1188E2E60C98D7234A5830286103A55745067B9D86B8A3CF9C7F90C11DE607FB1443
310
96D7B6A82D282E9A152AD114D5EF2CB866EEE831B8EEA07A7BB5A8D7D61A2BAAEB7FD5F70921FF497D00504B0304140006080800B670623BD9A3B367FE000000A00100003B0000006662782F38353834323741342D343835462D343034322D383541392D4331303331363839454531452F7265736F75726365732F636F7265
310
2E786D6C8D504B6E833010BD0A9A6D65B01D0201194711694FD00B586642AD043BF2A7EAF16B122AB5BB6E6646EFA3797AE2F8B5DC8A4FF4C1383B002B291468B59B8C9D0748F1420E501CA5F0CEC55F3228AC5A708015062966EFD27D83B4B3116DCCA875136EA00A012314FA968F0182FEC045952AC5AC08D7F2AEF455CD
310
58B232D3592745883E07289E4FD609D26370C96B0CA27AB252A464A64D63A6FCD35C0C7A904D73EE467EE664DCD58CD4ED4849D79C5A723ED1B7A61977AF2D6F45B59AA58866F9C9A83DAA8813484E6947182394BFB3BAA7FBBEDEBFD0434FA9A856F91F53BA4FFF342563E38E6F719FB60092E5200F428A6AED2BAF479979
310
AFDDCA6F504B010214000A0000080000B670623B3DEE336E79000000790000001B00000000000000000000000000000000006175746F6465736B2D64657369676E2D7061636B6167652E786D6C504B01021400140006080800B670623BD486FD9CA0000000F40000001300000000000000000000000000B20000005B436F6E
310
74656E745F54797065735D2E786D6C504B01021400140006080800B670623BCA089DFFEC0000007C010000080000000000000000000000000083010000636F72652E786D6C504B01021400140006080800B670623B55019EA25F0000007C000000070000000000000000000000000095020000636E782E786D6C504B010214
310
00140006080800B670623B68FC0B7272010000D40300000C00000000000000000000000000190300006662782F636F72652E786D6C504B01021400140006080800B670623B0F71DDB67E0000009D0000000B00000000000000000000000000B50400006662782F636E782E786D6C504B01021400140006080800B670623BE1
310
34B4FB280100001202000031000000000000000000000000005C0500006662782F38353834323741342D343835462D343034322D383541392D4331303331363839454531452F636F72652E786D6C504B01021400140006080800B670623B1B8617914E010000330300003000000000000000000000000000D3060000666278
310
2F38353834323741342D343835462D343034322D383541392D4331303331363839454531452F636E782E786D6C504B01021400140006080800B670623B5933D422630500003B10000034000000000000000000000000006F0800006662782F38353834323741342D343835462D343034322D383541392D4331303331363839
310
454531452F6F626A656374732E786D6C504B01021400140006080000B670623B0000000000000000000000003500000000000000000000000000240E00006662782F38353834323741342D343835462D343034322D383541392D4331303331363839454531452F76657274696365732E62696E504B01021400140006080800
310
B670623BF270F13306000000040000003600000000000000000000000000770E00006662782F38353834323741342D343835462D343034322D383541392D4331303331363839454531452F747269616E676C65732E62696E504B01021400140006080000B670623B0000000000000000000000003700000000000000000000
310
000000D10E00006662782F38353834323741342D343835462D343034322D383541392D4331303331363839454531452F617474726962757465732E62696E504B01021400140006080800B670623B08DA0BD190000000410100003600000000000000000000000000260F00006662782F38353834323741342D343835462D34
310
3034322D383541392D4331303331363839454531452F6469726563746F72792E786D6C504B01021400140006080800B670623BD9A3B367FE000000A00100003B000000000000000000000000000A1000006662782F38353834323741342D343835462D343034322D383541392D4331303331363839454531452F7265736F75
310
726365732F636F72652E786D6C504B0506000000000E000E0080040000611100000000
  0
XRECORD
  5
113
102
{ACAD_REACTORS
330
110
102
}
330
110
100
AcDbXrecord
280
     1
270
     1
271
     1
  0
XRECORD
  5
114
102
{ACAD_REACTORS
330
110
102
}
330
110
100
AcDbXrecord
280
     1
270
     1
271
     1
  0
CELLSTYLEMAP
  5
4F3A4
102
{ACAD_REACTORS
330
104
102
}
330
104
100
AcDbCellStyleMap
 90
        3
300
CELLSTYLE
  1
TABLEFORMAT_BEGIN
 90
        5
170
     1
 91
        0
 92
    32768
 62
   257
 93
        1
300
CONTENTFORMAT
  1
CONTENTFORMAT_BEGIN
 90
        0
 91
        0
 92
      512
 93
        0
300

 40
0.0
140
1.0
 94
        5
 62
     0
340
11
144
0.25
309
CONTENTFORMAT_END
171
     1
301
MARGIN
  1
CELLMARGIN_BEGIN
 40
0.06
 40
0.06
 40
0.06
 40
0.06
 40
0.18
 40
0.18
309
CELLMARGIN_END
 94
        6
 95
        1
302
GRIDFORMAT
  1
GRIDFORMAT_BEGIN
 90
        0
 91
        1
 62
     0
 92
       -2
340
0
 93
        0
 40
0.045
309
GRIDFORMAT_END
 95
        2
302
GRIDFORMAT
  1
GRIDFORMAT_BEGIN
 90
        0
 91
        1
 62
     0
 92
       -2
340
0
 93
        0
 40
0.045
309
GRIDFORMAT_END
 95
        4
302
GRIDFORMAT
  1
GRIDFORMAT_BEGIN
 90
        0
 91
        1
 62
     0
 92
       -2
340
0
 93
        0
 40
0.045
309
GRIDFORMAT_END
 95
        8
302
GRIDFORMAT
  1
GRIDFORMAT_BEGIN
 90
        0
 91
        1
 62
     0
 92
       -2
340
0
 93
        0
 40
0.045
309
GRIDFORMAT_END
 95
       16
302
GRIDFORMAT
  1
GRIDFORMAT_BEGIN
 90
        0
 91
        1
 62
     0
 92
       -2
340
0
 93
        0
 40
0.045
309
GRIDFORMAT_END
 95
       32
302
GRIDFORMAT
  1
GRIDFORMAT_BEGIN
 90
        0
 91
        1
 62
     0
 92
       -2
340
0
 93
        0
 40
0.045
309
GRIDFORMAT_END
309
TABLEFORMAT_END
  1
CELLSTYLE_BEGIN
 90
        1
 91
        1
300
_TITLE
309
CELLSTYLE_END
300
CELLSTYLE
  1
TABLEFORMAT_BEGIN
 90
        5
170
     1
 91
        0
 92
        0
 62
   257
 93
        1
300
CONTENTFORMAT
  1
CONTENTFORMAT_BEGIN
 90
        0
 91
        0
 92
      512
 93
        0
300

 40
0.0
140
1.0
 94
        5
 62
     0
340
11
144
0.18
309
CONTENTFORMAT_END
171
     1
301
MARGIN
  1
CELLMARGIN_BEGIN
 40
0.06
 40
0.06
 40
0.06
 40
0.06
 40
0.18
 40
0.18
309
CELLMARGIN_END
 94
        6
 95
        1
302
GRIDFORMAT
  1
GRIDFORMAT_BEGIN
 90
        0
 91
        1
 62
     0
 92
       -2
340
0
 93
        0
 40
0.045
309
GRIDFORMAT_END
 95
        2
302
GRIDFORMAT
  1
GRIDFORMAT_BEGIN
 90
        0
 91
        1
 62
     0
 92
       -2
340
0
 93
        0
 40
0.045
309
GRIDFORMAT_END
 95
        4
302
GRIDFORMAT
  1
GRIDFORMAT_BEGIN
 90
        0
 91
        1
 62
     0
 92
       -2
340
0
 93
        0
 40
0.045
309
GRIDFORMAT_END
 95
        8
302
GRIDFORMAT
  1
GRIDFORMAT_BEGIN
 90
        0
 91
        1
 62
     0
 92
       -2
340
0
 93
        0
 40
0.045
309
GRIDFORMAT_END
 95
       16
302
GRIDFORMAT
  1
GRIDFORMAT_BEGIN
 90
        0
 91
        1
 62
     0
 92
       -2
340
0
 93
        0
 40
0.045
309
GRIDFORMAT_END
 95
       32
302
GRIDFORMAT
  1
GRIDFORMAT_BEGIN
 90
        0
 91
        1
 62
     0
 92
       -2
340
0
 93
        0
 40
0.045
309
GRIDFORMAT_END
309
TABLEFORMAT_END
  1
CELLSTYLE_BEGIN
 90
        2
 91
        1
300
_HEADER
309
CELLSTYLE_END
300
CELLSTYLE
  1
TABLEFORMAT_BEGIN
 90
        5
170
     1
 91
        0
 92
        0
 62
   257
 93
        1
300
CONTENTFORMAT
  1
CONTENTFORMAT_BEGIN
 90
        0
 91
        0
 92
      512
 93
        0
300

 40
0.0
140
1.0
 94
        2
 62
     0
340
11
144
0.18
309
CONTENTFORMAT_END
171
     1
301
MARGIN
  1
CELLMARGIN_BEGIN
 40
0.06
 40
0.06
 40
0.06
 40
0.06
 40
0.18
 40
0.18
309
CELLMARGIN_END
 94
        6
 95
        1
302
GRIDFORMAT
  1
GRIDFORMAT_BEGIN
 90
        0
 91
        1
 62
     0
 92
       -2
340
0
 93
        0
 40
0.045
309
GRIDFORMAT_END
 95
        2
302
GRIDFORMAT
  1
GRIDFORMAT_BEGIN
 90
        0
 91
        1
 62
     0
 92
       -2
340
0
 93
        0
 40
0.045
309
GRIDFORMAT_END
 95
        4
302
GRIDFORMAT
  1
GRIDFORMAT_BEGIN
 90
        0
 91
        1
 62
     0
 92
       -2
340
0
 93
        0
 40
0.045
309
GRIDFORMAT_END
 95
        8
302
GRIDFORMAT
  1
GRIDFORMAT_BEGIN
 90
        0
 91
        1
 62
     0
 92
       -2
340
0
 93
        0
 40
0.045
309
GRIDFORMAT_END
 95
       16
302
GRIDFORMAT
  1
GRIDFORMAT_BEGIN
 90
        0
 91
        1
 62
     0
 92
       -2
340
0
 93
        0
 40
0.045
309
GRIDFORMAT_END
 95
       32
302
GRIDFORMAT
  1
GRIDFORMAT_BEGIN
 90
        0
 91
        1
 62
     0
 92
       -2
340
0
 93
        0
 40
0.045
309
GRIDFORMAT_END
309
TABLEFORMAT_END
  1
CELLSTYLE_BEGIN
 90
        3
 91
        2
300
_DATA
309
CELLSTYLE_END
  0
ENDSEC
  0
SECTION
  2
ACDSDATA
 70
     2
 71
     8
  0
ACDSSCHEMA
 90
        0
  1
AcDb_Thumbnail_Schema
  2
AcDbDs::ID
280
    10
 91
        8
  2
Thumbnail_Data
280
    15
 91
        0
101
ACDSRECORD
 95
        0
 90
        1
  2
AcDbDs::TreatedAsObjectData
280
     1
291
     1
101
ACDSRECORD
 95
        0
 90
        2
  2
AcDbDs::Legacy
280
     1
291
     1
101
ACDSRECORD
  1
AcDbDs::ID
 90
        3
  2
AcDs:Indexable
280
     1
291
     1
101
ACDSRECORD
  1
AcDbDs::ID
 90
        4
  2
AcDbDs::HandleAttribute
280
     7
282
     1
  0
ACDSSCHEMA
 90
        1
  1
AcDbDs::TreatedAsObjectDataSchema
  2
AcDbDs::TreatedAsObjectData
280
     1
 91
        0
  0
ACDSSCHEMA
 90
        2
  1
AcDbDs::LegacySchema
  2
AcDbDs::Legacy
280
     1
 91
        0
  0
ACDSSCHEMA
 90
        3
  1
AcDbDs::IndexedPropertySchema
  2
AcDs:Indexable
280
     1
 91
        0
  0
ACDSSCHEMA
 90
        4
  1
AcDbDs::HandleAttributeSchema
  2
AcDbDs::HandleAttribute
280
     7
 91
        1
284
     1
  0
ACDSSCHEMA
 90
        5
  1
AcDb3DSolid_ASM_Data
  2
AcDbDs::ID
280
    10
 91
        8
  2
ASM_Data
280
    15
 91
        0
101
ACDSRECORD
 95
        5
 90
        1
  2
AcDbDs::TreatedAsObjectData
280
     1
291
     1
101
ACDSRECORD
 95
        5
 90
        2
  2
AcDbDs::Legacy
280
     1
291
     1
101
ACDSRECORD
  1
AcDbDs::ID
 90
        3
  2
AcDs:Indexable
280
     1
291
     1
101
ACDSRECORD
  1
AcDbDs::ID
 90
        4
  2
AcDbDs::HandleAttribute
280
     7
282
     1
  0
ACDSRECORD
 90
        0
  2
AcDbDs::ID
280
    10
320
22
  2
Thumbnail_Data
280
    15
 94
     1666
310
89504E470D0A1A0A0000000D49484452000001000000006F08030000003479EE6F00000300504C5445212830FFFFFF2128300000000000000000000000000000000000000000000000000000330000660000990000CC0000FF0033000033330033660033990033CC0033FF0066000066330066660066990066CC0066FF0099
310
000099330099660099990099CC0099FF00CC0000CC3300CC6600CC9900CCCC00CCFF00FF0000FF3300FF6600FF9900FFCC00FFFF3300003300333300663300993300CC3300FF3333003333333333663333993333CC3333FF3366003366333366663366993366CC3366FF3399003399333399663399993399CC3399FF33CC00
310
33CC3333CC6633CC9933CCCC33CCFF33FF0033FF3333FF6633FF9933FFCC33FFFF6600006600336600666600996600CC6600FF6633006633336633666633996633CC6633FF6666006666336666666666996666CC6666FF6699006699336699666699996699CC6699FF66CC0066CC3366CC6666CC9966CCCC66CCFF66FF0066
310
FF3366FF6666FF9966FFCC66FFFF9900009900339900669900999900CC9900FF9933009933339933669933999933CC9933FF9966009966339966669966999966CC9966FF9999009999339999669999999999CC9999FF99CC0099CC3399CC6699CC9999CCCC99CCFF99FF0099FF3399FF6699FF9999FFCC99FFFFCC0000CC00
310
33CC0066CC0099CC00CCCC00FFCC3300CC3333CC3366CC3399CC33CCCC33FFCC6600CC6633CC6666CC6699CC66CCCC66FFCC9900CC9933CC9966CC9999CC99CCCC99FFCCCC00CCCC33CCCC66CCCC99CCCCCCCCCCFFCCFF00CCFF33CCFF66CCFF99CCFFCCCCFFFFFF0000FF0033FF0066FF0099FF00CCFF00FFFF3300FF3333
310
FF3366FF3399FF33CCFF33FFFF6600FF6633FF6666FF6699FF66CCFF66FFFF9900FF9933FF9966FF9999FF99CCFF99FFFFCC00FFCC33FFCC66FFCC99FFCCCCFFCCFFFFFF00FFFF33FFFF66FFFF99FFFFCCFFFFFF0000000D0D0D1A1A1A2828283535354343435050505D5D5D6B6B6B787878868686939393A1A1A1AEAEAEBB
310
BBBBC9C9C9D6D6D6E4E4E4F1F1F1FFFFFF0000000000000000000000000000000000000000000000000000000000002E4550F10000004A4944415478DAEDD5310D0000080341FCFB6527582061EA9D83FED22A000000000000000000008067BD04480EB00D0410400001BC40EEFCF01F0400000000000000000000000000E0
310
6E003091245FD013190B0000000049454E44AE4260824F1E1040000104681CA0FB7E010410207BBF000284EF17A0C2F70B50E1FBB74646ECDF5899B15F800ADFBFBA3365FFDAD098FDF3A595B37F1A2068FE6C6C45EDFF081036FF3D40DCFCD70081F387001539FF11A0E91FA0760608DE0E000000000000003F70037F154F
310
06C6188E5E0000000049454E44AE426082BC7906C6FC5842605671075D0C0A01A03BC4DCEE7D5C4F3801D015C44C5864438B6974A576F4984356F0920613A82600D18B5A7817757455EFE14E828099EA5006923A6E2A63B9B897960044EC54055317D4F453114D5B4FD910C1975C0250074070A4660280E0452C011801F812
310
D1CB77CA0940D614C15ECA16C0434C378F952400715B044BA104E000C04D542D9D04E00300C1462601B80150C4D55149009E009C02AB882400670008AA1A09C01F803DB482842B007804B0C60D91CF2F9E2F7FB1C23DC1579225015C3F890CE05202B8F9242E001C5FF3827301006B5440D9FC87A325E680CBB4BF3A80E341
310
024800126BCED8DCCAFE0BC89323148B0004169DB1773E315BC236EF7D16429C74C0FC8810FAB822E4686C54F4D26BA9A9E2DD7790D975BD451A1FD53D220800A0797E05CB04E203000DE41FA502A8BD05F61574D1160836078CE58FF12DE253CECF072C2F70EA6F011040B1F60060AF8009C658FE140940F746886607B0F5
310
F2D84660BD1618B88A08D2027100640B8C5D0B2DBC0AC45A06BBF6C2581840B855A0358D18E98F251203406F1A612A80B202BAD38891FF580B500000D49D4988F37FAC813E72214627000A3582A5C338FE00598ED82311F33F3A0000000049454E44AE4260820F467818FD4AC64A010000000049454E44AE42608200187F52
310
539FF6AC0FF2D01229B97F7B56AE64E8787DBF9E93B283504D4929EEDB336DE133B927D0B706F146D8FDD54728002424931276690CDE5FFA471401522320E6FA719CDCC9E90D234F422DA512220CD4066298BF969A4028B717C4D481E25C1BC6C59A99842240E2F24B1F92F8AC20F021F00EFE737AFD0FDF7E00E9E9886BC5
310
1247A50000000049454E44AE426082
  0
ENDSEC
  0
EOF
