  0
SECTION
  2
HEADER
  9
$ACADVER
  1
AC1032
  9
$ACADMAINTVER
 90
      197
  9
$DWGCODEPAGE
  3
ANSI_1252
  9
$LASTSAVEDBY
  1
gregb
  9
$REQUIREDVERSIONS
160
                 0
  9
$INSBASE
 10
0.0
 20
0.0
 30
0.0
  9
$EXTMIN
 10
105016.6069990844
 20
95049.63169168224
 30
0.0
  9
$EXTMAX
 10
105020.6472743547
 20
95051.76117730419
 30
0.0
  9
$LIMMIN
 10
0.0
 20
0.0
  9
$LIMMAX
 10
12.0
 20
9.0
  9
$ORTHOMODE
 70
     1
  9
$REGENMODE
 70
     1
  9
$FILLMODE
 70
     1
  9
$QTEXTMODE
 70
     0
  9
$MIRRTEXT
 70
     0
  9
$LTSCALE
 40
1.0
  9
$ATTMODE
 70
     1
  9
$TEXTSIZE
 40
0.2
  9
$TRACEWID
 40
0.05
  9
$TEXTSTYLE
  7
Standard
  9
$CLAYER
  8
freecads.com
  9
$CELTYPE
  6
ByLayer
  9
$CECOLOR
 62
   256
  9
$CELTSCALE
 40
1.0
  9
$DISPSILH
 70
     1
  9
$DIMSCALE
 40
1.0
  9
$DIMASZ
 40
0.18
  9
$DIMEXO
 40
0.0625
  9
$DIMDLI
 40
0.38
  9
$DIMRND
 40
0.0
  9
$DIMDLE
 40
0.0
  9
$DIMEXE
 40
0.18
  9
$DIMTP
 40
0.0
  9
$DIMTM
 40
0.0
  9
$DIMTXT
 40
0.18
  9
$DIMCEN
 40
0.09
  9
$DIMTSZ
 40
0.0
  9
$DIMTOL
 70
     0
  9
$DIMLIM
 70
     0
  9
$DIMTIH
 70
     1
  9
$DIMTOH
 70
     1
  9
$DIMSE1
 70
     0
  9
$DIMSE2
 70
     0
  9
$DIMTAD
 70
     0
  9
$DIMZIN
 70
     0
  9
$DIMBLK
  1

  9
$DIMASO
 70
     1
  9
$DIMSHO
 70
     1
  9
$DIMPOST
  1

  9
$DIMAPOST
  1

  9
$DIMALT
 70
     0
  9
$DIMALTD
 70
     2
  9
$DIMALTF
 40
25.4
  9
$DIMLFAC
 40
1.0
  9
$DIMTOFL
 70
     0
  9
$DIMTVP
 40
0.0
  9
$DIMTIX
 70
     0
  9
$DIMSOXD
 70
     0
  9
$DIMSAH
 70
     0
  9
$DIMBLK1
  1

  9
$DIMBLK2
  1

  9
$DIMSTYLE
  2
Standard
  9
$DIMCLRD
 70
     0
  9
$DIMCLRE
 70
     0
  9
$DIMCLRT
 70
     0
  9
$DIMTFAC
 40
1.0
  9
$DIMGAP
 40
0.09
  9
$DIMJUST
 70
     0
  9
$DIMSD1
 70
     0
  9
$DIMSD2
 70
     0
  9
$DIMTOLJ
 70
     1
  9
$DIMTZIN
 70
     0
  9
$DIMALTZ
 70
     0
  9
$DIMALTTZ
 70
     0
  9
$DIMUPT
 70
     0
  9
$DIMDEC
 70
     4
  9
$DIMTDEC
 70
     4
  9
$DIMALTU
 70
     2
  9
$DIMALTTD
 70
     2
  9
$DIMTXSTY
  7
Standard
  9
$DIMAUNIT
 70
     0
  9
$DIMADEC
 70
     0
  9
$DIMALTRND
 40
0.0
  9
$DIMAZIN
 70
     0
  9
$DIMDSEP
 70
    46
  9
$DIMATFIT
 70
     3
  9
$DIMFRAC
 70
     0
  9
$DIMLDRBLK
  1

  9
$DIMLUNIT
 70
     2
  9
$DIMLWD
 70
    -2
  9
$DIMLWE
 70
    -2
  9
$DIMTMOVE
 70
     0
  9
$DIMFXL
 40
1.0
  9
$DIMFXLON
 70
     0
  9
$DIMJOGANG
 40
0.7853981633974483
  9
$DIMTFILL
 70
     0
  9
$DIMTFILLCLR
 70
     0
  9
$DIMARCSYM
 70
     0
  9
$DIMLTYPE
  6

  9
$DIMLTEX1
  6

  9
$DIMLTEX2
  6

  9
$DIMTXTDIRECTION
 70
     0
  9
$LUNITS
 70
     2
  9
$LUPREC
 70
     4
  9
$SKETCHINC
 40
0.1
  9
$FILLETRAD
 40
0.0
  9
$AUNITS
 70
     0
  9
$AUPREC
 70
     0
  9
$MENU
  1
.
  9
$ELEVATION
 40
0.0
  9
$PELEVATION
 40
0.0
  9
$THICKNESS
 40
0.0
  9
$LIMCHECK
 70
     0
  9
$CHAMFERA
 40
0.0
  9
$CHAMFERB
 40
0.0
  9
$CHAMFERC
 40
0.0
  9
$CHAMFERD
 40
0.0
  9
$SKPOLY
 70
     0
  9
$TDCREATE
 40
2458157.454583334
  9
$TDUCREATE
 40
2458157.287916667
  9
$TDUPDATE
 40
2460671.800405093
  9
$TDUUPDATE
 40
2460671.633738426
  9
$TDINDWG
 40
0.1720601852
  9
$TDUSRTIMER
 40
0.1720601852
  9
$USRTIMER
 70
     1
  9
$ANGBASE
 50
0.0
  9
$ANGDIR
 70
     0
  9
$PDMODE
 70
     0
  9
$PDSIZE
 40
0.0
  9
$PLINEWID
 40
0.0
  9
$SPLFRAME
 70
     0
  9
$SPLINETYPE
 70
     6
  9
$SPLINESEGS
 70
     8
  9
$HANDSEED
  5
4EDA9
  9
$SURFTAB1
 70
     6
  9
$SURFTAB2
 70
     6
  9
$SURFTYPE
 70
     6
  9
$SURFU
 70
     6
  9
$SURFV
 70
     6
  9
$UCSBASE
  2

  9
$UCSNAME
  2

  9
$UCSORG
 10
0.0
 20
0.0
 30
0.0
  9
$UCSXDIR
 10
1.0
 20
0.0
 30
0.0
  9
$UCSYDIR
 10
0.0
 20
1.0
 30
0.0
  9
$UCSORTHOREF
  2

  9
$UCSORTHOVIEW
 70
     0
  9
$UCSORGTOP
 10
0.0
 20
0.0
 30
0.0
  9
$UCSORGBOTTOM
 10
0.0
 20
0.0
 30
0.0
  9
$UCSORGLEFT
 10
0.0
 20
0.0
 30
0.0
  9
$UCSORGRIGHT
 10
0.0
 20
0.0
 30
0.0
  9
$UCSORGFRONT
 10
0.0
 20
0.0
 30
0.0
  9
$UCSORGBACK
 10
0.0
 20
0.0
 30
0.0
  9
$PUCSBASE
  2

  9
$PUCSNAME
  2

  9
$PUCSORG
 10
0.0
 20
0.0
 30
0.0
  9
$PUCSXDIR
 10
1.0
 20
0.0
 30
0.0
  9
$PUCSYDIR
 10
0.0
 20
1.0
 30
0.0
  9
$PUCSORTHOREF
  2

  9
$PUCSORTHOVIEW
 70
     0
  9
$PUCSORGTOP
 10
0.0
 20
0.0
 30
0.0
  9
$PUCSORGBOTTOM
 10
0.0
 20
0.0
 30
0.0
  9
$PUCSORGLEFT
 10
0.0
 20
0.0
 30
0.0
  9
$PUCSORGRIGHT
 10
0.0
 20
0.0
 30
0.0
  9
$PUCSORGFRONT
 10
0.0
 20
0.0
 30
0.0
  9
$PUCSORGBACK
 10
0.0
 20
0.0
 30
0.0
  9
$USERI1
 70
     0
  9
$USERI2
 70
     0
  9
$USERI3
 70
     0
  9
$USERI4
 70
     0
  9
$USERI5
 70
     0
  9
$USERR1
 40
0.0
  9
$USERR2
 40
0.0
  9
$USERR3
 40
0.0
  9
$USERR4
 40
0.0
  9
$USERR5
 40
0.0
  9
$WORLDVIEW
 70
     1
  9
$SHADEDGE
 70
     3
  9
$SHADEDIF
 70
    70
  9
$TILEMODE
 70
     1
  9
$MAXACTVP
 70
    64
  9
$PINSBASE
 10
0.0
 20
0.0
 30
0.0
  9
$PLIMCHECK
 70
     0
  9
$PEXTMIN
 10
0.0
 20
0.0
 30
0.0
  9
$PEXTMAX
 10
0.0
 20
0.0
 30
0.0
  9
$PLIMMIN
 10
0.0
 20
0.0
  9
$PLIMMAX
 10
12.0
 20
9.0
  9
$UNITMODE
 70
     0
  9
$VISRETAIN
 70
     1
  9
$PLINEGEN
 70
     0
  9
$PSLTSCALE
 70
     1
  9
$TREEDEPTH
 70
  3020
  9
$CMLSTYLE
  2
Standard
  9
$CMLJUST
 70
     0
  9
$CMLSCALE
 40
1.0
  9
$PROXYGRAPHICS
 70
     1
  9
$MEASUREMENT
 70
     0
  9
$CELWEIGHT
370
    -1
  9
$ENDCAPS
280
     0
  9
$JOINSTYLE
280
     0
  9
$LWDISPLAY
290
     0
  9
$INSUNITS
 70
     1
  9
$HYPERLINKBASE
  1

  9
$STYLESHEET
  1
monochrome.ctb
  9
$XEDIT
290
     1
  9
$CEPSNTYPE
380
     0
  9
$PSTYLEMODE
290
     1
  9
$FINGERPRINTGUID
  2
{358EB121-6EE0-9143-8A3E-6E8E8869FDA6}
  9
$VERSIONGUID
  2
{F1D22390-75FF-D14C-A543-A86269EB0748}
  9
$EXTNAMES
290
     1
  9
$PSVPSCALE
 40
0.0
  9
$OLESTARTUP
290
     0
  9
$SORTENTS
280
   127
  9
$INDEXCTL
280
     0
  9
$HIDETEXT
280
     1
  9
$XCLIPFRAME
280
     2
  9
$HALOGAP
280
     0
  9
$OBSCOLOR
 70
   257
  9
$OBSLTYPE
280
     0
  9
$INTERSECTIONDISPLAY
280
     0
  9
$INTERSECTIONCOLOR
 70
   257
  9
$DIMASSOC
280
     2
  9
$PROJECTNAME
  1

  9
$CAMERADISPLAY
290
     0
  9
$LENSLENGTH
 40
50.0
  9
$CAMERAHEIGHT
 40
0.0
  9
$STEPSPERSEC
 40
2.0
  9
$STEPSIZE
 40
6.0
  9
$3DDWFPREC
 40
2.0
  9
$PSOLWIDTH
 40
0.25
  9
$PSOLHEIGHT
 40
4.0
  9
$LOFTANG1
 40
1.570796326794896
  9
$LOFTANG2
 40
1.570796326794896
  9
$LOFTMAG1
 40
0.0
  9
$LOFTMAG2
 40
0.0
  9
$LOFTPARAM
 70
     7
  9
$LOFTNORMALS
280
     1
  9
$LATITUDE
 40
37.795
  9
$LONGITUDE
 40
-122.394
  9
$NORTHDIRECTION
 40
0.0
  9
$TIMEZONE
 70
 -8000
  9
$LIGHTGLYPHDISPLAY
280
     1
  9
$TILEMODELIGHTSYNCH
280
     1
  9
$CMATERIAL
347
96
  9
$SOLIDHIST
280
     0
  9
$SHOWHIST
280
     1
  9
$DWFFRAME
280
     2
  9
$DGNFRAME
280
     0
  9
$REALWORLDSCALE
290
     1
  9
$INTERFERECOLOR
 62
     1
  9
$INTERFEREOBJVS
345
A3
  9
$INTERFEREVPVS
346
A0
  9
$CSHADOW
280
     0
  9
$SHADOWPLANELOCATION
 40
0.0
  0
ENDSEC
  0
SECTION
  2
CLASSES
  0
CLASS
  1
ACDBDICTIONARYWDFLT
  2
AcDbDictionaryWithDefault
  3
ObjectDBX Classes
 90
        0
 91
        1
280
     0
281
     0
  0
CLASS
  1
DICTIONARYVAR
  2
AcDbDictionaryVar
  3
ObjectDBX Classes
 90
        0
 91
      254
280
     0
281
     0
  0
CLASS
  1
TABLESTYLE
  2
AcDbTableStyle
  3
ObjectDBX Classes
 90
     4095
 91
        1
280
     0
281
     0
  0
CLASS
  1
MATERIAL
  2
AcDbMaterial
  3
ObjectDBX Classes
 90
     1153
 91
        3
280
     0
281
     0
  0
CLASS
  1
VISUALSTYLE
  2
AcDbVisualStyle
  3
ObjectDBX Classes
 90
     4095
 91
       25
280
     0
281
     0
  0
CLASS
  1
SCALE
  2
AcDbScale
  3
ObjectDBX Classes
 90
     1153
 91
       34
280
     0
281
     0
  0
CLASS
  1
MLEADERSTYLE
  2
AcDbMLeaderStyle
  3
ACDB_MLEADERSTYLE_CLASS
 90
     4095
 91
        1
280
     0
281
     0
  0
CLASS
  1
CELLSTYLEMAP
  2
AcDbCellStyleMap
  3
ObjectDBX Classes
 90
     1152
 91
        1
280
     0
281
     0
  0
CLASS
  1
EXACXREFPANELOBJECT
  2
ExAcXREFPanelObject
  3
EXAC_ESW
 90
     1025
 91
        1
280
     0
281
     0
  0
CLASS
  1
NPOCOLLECTION
  2
AcDbImpNonPersistentObjectsCollection
  3
ObjectDBX Classes
 90
     1153
 91
        1
280
     0
281
     0
  0
CLASS
  1
LAYER_INDEX
  2
AcDbLayerIndex
  3
ObjectDBX Classes
 90
        0
 91
        0
280
     0
281
     0
  0
CLASS
  1
SPATIAL_INDEX
  2
AcDbSpatialIndex
  3
ObjectDBX Classes
 90
        0
 91
        0
280
     0
281
     0
  0
CLASS
  1
IDBUFFER
  2
AcDbIdBuffer
  3
ObjectDBX Classes
 90
        0
 91
        0
280
     0
281
     0
  0
CLASS
  1
ACDBSECTIONVIEWSTYLE
  2
AcDbSectionViewStyle
  3
ObjectDBX Classes
 90
     1025
 91
        2
280
     0
281
     0
  0
CLASS
  1
ACDBDETAILVIEWSTYLE
  2
AcDbDetailViewStyle
  3
ObjectDBX Classes
 90
     1025
 91
        2
280
     0
281
     0
  0
CLASS
  1
SORTENTSTABLE
  2
AcDbSortentsTable
  3
ObjectDBX Classes
 90
        0
 91
       25
280
     0
281
     0
  0
CLASS
  1
ACAD_EVALUATION_GRAPH
  2
AcDbEvalGraph
  3
ObjectDBX Classes
 90
     1153
 91
        1
280
     0
281
     0
  0
CLASS
  1
BLOCKLINEARPARAMETER
  2
AcDbBlockLinearParameter
  3
ObjectDBX Classes
 90
     1153
 91
       12
280
     0
281
     0
  0
CLASS
  1
BLOCKLINEARGRIP
  2
AcDbBlockLinearGrip
  3
ObjectDBX Classes
 90
     1153
 91
        0
280
     0
281
     0
  0
CLASS
  1
BLOCKGRIPLOCATIONCOMPONENT
  2
AcDbBlockGripExpr
  3
ObjectDBX Classes
 90
     1153
 91
       14
280
     0
281
     0
  0
CLASS
  1
BLOCKSTRETCHACTION
  2
AcDbBlockStretchAction
  3
ObjectDBX Classes
 90
     1153
 91
        6
280
     0
281
     0
  0
CLASS
  1
ACDB_DYNAMICBLOCKPURGEPREVENTER_VERSION
  2
AcDbDynamicBlockPurgePreventer
  3
ObjectDBX Classes
 90
     1153
 91
        1
280
     0
281
     0
  0
CLASS
  1
BLOCKVISIBILITYPARAMETER
  2
AcDbBlockVisibilityParameter
  3
ObjectDBX Classes
 90
     1153
 91
        1
280
     0
281
     0
  0
CLASS
  1
BLOCKVISIBILITYGRIP
  2
AcDbBlockVisibilityGrip
  3
ObjectDBX Classes
 90
     1153
 91
        1
280
     0
281
     0
  0
CLASS
  1
ACDB_BLOCKREPRESENTATION_DATA
  2
AcDbBlockRepresentationData
  3
ObjectDBX Classes
 90
     1153
 91
       10
280
     0
281
     0
  0
CLASS
  1
SURFACE
  2
AcDbSurface
  3
ObjectDBX Classes
 90
     4095
 91
        0
280
     0
281
     1
  0
CLASS
  1
ACDBASSOCPERSSUBENTMANAGER
  2
AcDbAssocPersSubentManager
  3
ObjectDBX Classes
 90
     1024
 91
        1
280
     0
281
     0
  0
CLASS
  1
BLOCKARRAYACTION
  2
AcDbBlockArrayAction
  3
ObjectDBX Classes
 90
     1153
 91
        6
280
     0
281
     0
  0
CLASS
  1
BLOCKLOOKUPPARAMETER
  2
AcDbBlockLookupParameter
  3
ObjectDBX Classes
 90
     1153
 91
        6
280
     0
281
     0
  0
CLASS
  1
BLOCKLOOKUPGRIP
  2
AcDbBlockLookupGrip
  3
ObjectDBX Classes
 90
     1153
 91
        6
280
     0
281
     0
  0
CLASS
  1
BLOCKLOOKUPACTION
  2
AcDbBlockLookupAction
  3
ObjectDBX Classes
 90
     1153
 91
        6
280
     0
281
     0
  0
ENDSEC
  0
SECTION
  2
TABLES
  0
TABLE
  2
VPORT
  5
8
330
0
100
AcDbSymbolTable
 70
     1
  0
VPORT
  5
94
330
8
100
AcDbSymbolTableRecord
100
AcDbViewportTableRecord
  2
*Active
 70
     0
 10
0.0
 20
0.0
 11
1.0
 21
1.0
 12
105019.4563572049
 22
95050.783424313
 13
0.0
 23
0.0
 14
0.5
 24
0.5
 15
0.5
 25
0.5
 16
0.0
 26
0.0
 36
1.0
 17
0.0
 27
0.0
 37
0.0
 40
7.456395065685962
 41
2.293369663941871
 42
50.0
 43
0.0
 44
0.0
 50
0.0
 51
0.0
 71
     0
 72
  1000
 73
     1
 74
     3
 75
     0
 76
     0
 77
     0
 78
     0
281
     0
 65
     1
110
0.0
120
0.0
130
0.0
111
1.0
121
0.0
131
0.0
112
0.0
122
1.0
132
0.0
 79
     0
146
0.0
348
9F
 60
     3
 61
     5
292
     1
282
     1
141
0.0
142
0.0
 63
   250
421
  3355443
1001
ACAD_NAV_VCDISPLAY
1070
     3
  0
ENDTAB
  0
TABLE
  2
LTYPE
  5
5
330
0
100
AcDbSymbolTable
 70
     1
  0
LTYPE
  5
14
330
5
100
AcDbSymbolTableRecord
100
AcDbLinetypeTableRecord
  2
ByBlock
 70
     0
  3

 72
    65
 73
     0
 40
0.0
  0
LTYPE
  5
15
330
5
100
AcDbSymbolTableRecord
100
AcDbLinetypeTableRecord
  2
ByLayer
 70
     0
  3

 72
    65
 73
     0
 40
0.0
  0
LTYPE
  5
16
330
5
100
AcDbSymbolTableRecord
100
AcDbLinetypeTableRecord
  2
Continuous
 70
     0
  3
Solid line
 72
    65
 73
     0
 40
0.0
  0
ENDTAB
  0
TABLE
  2
LAYER
  5
2
102
{ACAD_XDICTIONARY
360
18E
102
}
330
0
100
AcDbSymbolTable
 70
     2
  0
LAYER
  5
10
102
{ACAD_XDICTIONARY
360
E6
102
}
330
2
100
AcDbSymbolTableRecord
100
AcDbLayerTableRecord
  2
0
 70
     0
 62
     7
  6
Continuous
370
    -3
390
F
347
98
348
0
  0
LAYER
  5
204
330
2
100
AcDbSymbolTableRecord
100
AcDbLayerTableRecord
  2
freecads.com
 70
     0
 62
     7
  6
Continuous
370
    -3
390
F
347
98
348
0
1001
AcAecLayerStandard
1000

1000

1001
AcCmTransparency
1071
        0
  0
ENDTAB
  0
TABLE
  2
STYLE
  5
3
330
0
100
AcDbSymbolTable
 70
     2
  0
STYLE
  5
11
330
3
100
AcDbSymbolTableRecord
100
AcDbTextStyleTableRecord
  2
Standard
 70
     0
 40
0.0
 41
1.0
 50
0.0
 71
     0
 42
0.2
  3
arial.ttf
  4

1001
ACAD
1000
Arial
1071
       34
  0
ENDTAB
  0
TABLE
  2
VIEW
  5
6
330
0
100
AcDbSymbolTable
 70
     0
  0
ENDTAB
  0
TABLE
  2
UCS
  5
7
330
0
100
AcDbSymbolTable
 70
     0
  0
ENDTAB
  0
TABLE
  2
APPID
  5
9
330
0
100
AcDbSymbolTable
 70
    32
  0
APPID
  5
12
330
9
100
AcDbSymbolTableRecord
100
AcDbRegAppTableRecord
  2
ACAD
 70
     0
  0
APPID
  5
DD
330
9
100
AcDbSymbolTableRecord
100
AcDbRegAppTableRecord
  2
AcadAnnoPO
 70
     0
  0
APPID
  5
DE
330
9
100
AcDbSymbolTableRecord
100
AcDbRegAppTableRecord
  2
AcadAnnotative
 70
     0
  0
APPID
  5
DF
330
9
100
AcDbSymbolTableRecord
100
AcDbRegAppTableRecord
  2
ACAD_DSTYLE_DIMJAG
 70
     0
  0
APPID
  5
E0
330
9
100
AcDbSymbolTableRecord
100
AcDbRegAppTableRecord
  2
ACAD_DSTYLE_DIMTALN
 70
     0
  0
APPID
  5
107
330
9
100
AcDbSymbolTableRecord
100
AcDbRegAppTableRecord
  2
ACAD_MLEADERVER
 70
     0
  0
APPID
  5
1A6
330
9
100
AcDbSymbolTableRecord
100
AcDbRegAppTableRecord
  2
ACAD_NAV_VCDISPLAY
 70
     0
  0
APPID
  5
205
330
9
100
AcDbSymbolTableRecord
100
AcDbRegAppTableRecord
  2
AcAecLayerStandard
 70
     0
  0
APPID
  5
206
330
9
100
AcDbSymbolTableRecord
100
AcDbRegAppTableRecord
  2
AcCmTransparency
 70
     0
  0
APPID
  5
222
330
9
100
AcDbSymbolTableRecord
100
AcDbRegAppTableRecord
  2
ACAD_PSEXT
 70
     0
  0
APPID
  5
2DA
330
9
100
AcDbSymbolTableRecord
100
AcDbRegAppTableRecord
  2
GradientColor1ACI
 70
     0
  0
APPID
  5
2DB
330
9
100
AcDbSymbolTableRecord
100
AcDbRegAppTableRecord
  2
GradientColor2ACI
 70
     0
  0
APPID
  5
2F3
330
9
100
AcDbSymbolTableRecord
100
AcDbRegAppTableRecord
  2
ACAD_EXEMPT_FROM_CAD_STANDARDS
 70
     0
  0
APPID
  5
A1A
330
9
100
AcDbSymbolTableRecord
100
AcDbRegAppTableRecord
  2
AcDbBlockRepETag
 70
     0
  0
APPID
  5
2282
330
9
100
AcDbSymbolTableRecord
100
AcDbRegAppTableRecord
  2
RAK
 70
     0
  0
APPID
  5
39F4
330
9
100
AcDbSymbolTableRecord
100
AcDbRegAppTableRecord
  2
ACAD_DSTYLE_DIMJOGGED_JOGANGLE_SYMBOL
 70
     0
  0
APPID
  5
39F5
330
9
100
AcDbSymbolTableRecord
100
AcDbRegAppTableRecord
  2
AcDbDynamicBlockGUID
 70
     0
  0
APPID
  5
39F6
330
9
100
AcDbSymbolTableRecord
100
AcDbRegAppTableRecord
  2
ACAD_DSTYLE_DIMBREAK
 70
     0
  0
APPID
  5
3B59
330
9
100
AcDbSymbolTableRecord
100
AcDbRegAppTableRecord
  2
AEC_XDATA_BOUND_SPACE
 70
     0
  0
APPID
  5
75C5
330
9
100
AcDbSymbolTableRecord
100
AcDbRegAppTableRecord
  2
AcDbDynamicBlockTrueName
 70
     0
  0
APPID
  5
75C6
330
9
100
AcDbSymbolTableRecord
100
AcDbRegAppTableRecord
  2
AcDbBlockRepBTag
 70
     0
  0
APPID
  5
75C7
330
9
100
AcDbSymbolTableRecord
100
AcDbRegAppTableRecord
  2
ACAUTHENVIRON
 70
     0
  0
APPID
  5
AA90
330
9
100
AcDbSymbolTableRecord
100
AcDbRegAppTableRecord
  2
Acad_TC
 70
     0
  0
APPID
  5
AA9C
330
9
100
AcDbSymbolTableRecord
100
AcDbRegAppTableRecord
  2
AcDbBlockArrayActionTag
 70
     0
  0
APPID
  5
BEE4
330
9
100
AcDbSymbolTableRecord
100
AcDbRegAppTableRecord
  2
ACAD_DSTYLE_DIMTEXT_FILL
 70
     0
  0
APPID
  5
219E5
330
9
100
AcDbSymbolTableRecord
100
AcDbRegAppTableRecord
  2
AECLAY
 70
     0
  0
APPID
  5
26B46
330
9
100
AcDbSymbolTableRecord
100
AcDbRegAppTableRecord
  2
REVIT
 70
     0
  0
APPID
  5
280A5
330
9
100
AcDbSymbolTableRecord
100
AcDbRegAppTableRecord
  2
HATCHBACKGROUNDCOLOR
 70
     0
  0
APPID
  5
29EE0
330
9
100
AcDbSymbolTableRecord
100
AcDbRegAppTableRecord
  2
ACAD_STEPID
 70
     0
  0
APPID
  5
29EE1
330
9
100
AcDbSymbolTableRecord
100
AcDbRegAppTableRecord
  2
AcLayerTools
 70
     0
  0
APPID
  5
4D86C
330
9
100
AcDbSymbolTableRecord
100
AcDbRegAppTableRecord
  2
PE_URL
 70
     0
  0
APPID
  5
4DA7A
330
9
100
AcDbSymbolTableRecord
100
AcDbRegAppTableRecord
  2
PLOTTRANSPARENCY
 70
     0
  0
ENDTAB
  0
TABLE
  2
DIMSTYLE
  5
A
330
0
100
AcDbSymbolTable
 70
     3
100
AcDbDimStyleTable
 71
     1
340
27
  0
DIMSTYLE
105
27
330
A
100
AcDbSymbolTableRecord
100
AcDbDimStyleTableRecord
  2
Standard
 70
     0
340
11
  0
DIMSTYLE
105
4E683
330
A
100
AcDbSymbolTableRecord
100
AcDbDimStyleTableRecord
  2
Cotation 1.2
 70
     0
 41
0.05
 42
0.32
 43
0.5
 44
0.1
 45
0.001
 49
0.125
 50
90.0
 73
     0
 77
     1
 78
     9
140
0.2
141
1.0
143
0.03937007874016
144
1000.0
147
0.05
171
     3
172
     1
176
   256
177
   256
178
   256
271
     0
272
     0
274
     3
278
    44
279
     2
283
     0
284
     8
289
     0
290
     1
340
11
342
4E67F
345
15
346
15
347
15
371
    -1
372
    -1
1001
ACAD_DSTYLE_DIMBREAK
1070
   391
1040
0.1
1001
ACAD_DSTYLE_DIMJAG
1070
   388
1040
1.5
1001
ACAD_DSTYLE_DIMTALN
1070
   392
1070
     0
  0
ENDTAB
  0
TABLE
  2
BLOCK_RECORD
  5
1
330
0
100
AcDbSymbolTable
 70
     3
  0
BLOCK_RECORD
  5
1F
102
{ACAD_XDICTIONARY
360
15D
102
}
330
1
100
AcDbSymbolTableRecord
100
AcDbBlockTableRecord
  2
*Model_Space
340
22
 70
     0
280
     1
281
     0
  0
BLOCK_RECORD
  5
58
330
1
100
AcDbSymbolTableRecord
100
AcDbBlockTableRecord
  2
*Paper_Space
340
59
 70
     0
280
     1
281
     0
  0
BLOCK_RECORD
  5
5D
330
1
100
AcDbSymbolTableRecord
100
AcDbBlockTableRecord
  2
*Paper_Space0
340
5E
 70
     0
280
     1
281
     0
  0
BLOCK_RECORD
  5
4E67F
330
1
100
AcDbSymbolTableRecord
100
AcDbBlockTableRecord
  2
_ArchTick
340
0
 70
     0
280
     1
281
     0
  0
ENDTAB
  0
ENDSEC
  0
SECTION
  2
BLOCKS
  0
BLOCK
  5
20
330
1F
100
AcDbEntity
  8
0
100
AcDbBlockBegin
  2
*Model_Space
 70
     0
 10
0.0
 20
0.0
 30
0.0
  3
*Model_Space
  1

  0
ENDBLK
  5
21
330
1F
100
AcDbEntity
  8
0
100
AcDbBlockEnd
  0
BLOCK
  5
5A
330
58
100
AcDbEntity
 67
     1
  8
0
100
AcDbBlockBegin
  2
*Paper_Space
 70
     0
 10
0.0
 20
0.0
 30
0.0
  3
*Paper_Space
  1

  0
ENDBLK
  5
5B
330
58
100
AcDbEntity
 67
     1
  8
0
100
AcDbBlockEnd
  0
BLOCK
  5
5F
330
5D
100
AcDbEntity
 67
     1
  8
0
100
AcDbBlockBegin
  2
*Paper_Space0
 70
     0
 10
0.0
 20
0.0
 30
0.0
  3
*Paper_Space0
  1

  0
ENDBLK
  5
60
330
5D
100
AcDbEntity
 67
     1
  8
0
100
AcDbBlockEnd
  0
BLOCK
  5
4E680
330
4E67F
100
AcDbEntity
  8
0
100
AcDbBlockBegin
  2
_ArchTick
 70
     0
 10
0.0
 20
0.0
 30
0.0
  3
_ArchTick
  1

  0
LWPOLYLINE
  5
4E681
330
4E67F
100
AcDbEntity
  8
0
  6
ByBlock
 62
     0
100
AcDbPolyline
 90
        2
 70
     0
 43
0.15
 10
-0.5
 20
-0.5
 10
0.5
 20
0.5
  0
ENDBLK
  5
4E682
330
4E67F
100
AcDbEntity
  8
0
100
AcDbBlockEnd
  0
ENDSEC
  0
SECTION
  2
ENTITIES
  0
ARC
  5
4EA1E
330
1F
100
AcDbEntity
  8
0
100
AcDbCircle
 10
105018.2937838296
 20
95049.26105897585
 30
0.0
 40
2.300000000001221
100
AcDbArc
 50
21.528744328882
 51
127.788949036989
  0
ARC
  5
4EA1F
330
1F
100
AcDbEntity
  8
0
100
AcDbCircle
 10
105020.5263444298
 20
95050.14178206886
 30
0.0
 40
0.1000000000000534
100
AcDbArc
 50
201.528744328882
 51
21.528744328882
  0
ARC
  5
4EA20
330
1F
100
AcDbEntity
  8
0
100
AcDbCircle
 10
105016.8231726922
 20
95051.15771468597
 30
0.0
 40
0.1000000000000534
100
AcDbArc
 50
127.788949036989
 51
307.788949036989
  0
ARC
  5
4EA21
330
1F
100
AcDbEntity
  8
0
100
AcDbCircle
 10
105017.0069990844
 20
95050.92063272218
 30
0.0
 40
0.4000000000002152
100
AcDbArc
 50
127.788949036989
 51
307.788949036989
  0
ARC
  5
4EA22
330
1F
100
AcDbEntity
  8
0
100
AcDbCircle
 10
105018.2937838296
 20
95049.26105897585
 30
0.0
 40
1.700000000000903
100
AcDbArc
 50
21.528744328882
 51
127.788949036989
  0
ARC
  5
4EA23
330
1F
100
AcDbEntity
  8
0
100
AcDbCircle
 10
105020.2472743547
 20
95050.03169168224
 30
0.0
 40
0.4000000000002083
100
AcDbArc
 50
201.528744328882
 51
21.528744328882
  0
ARC
  5
4EA24
330
1F
100
AcDbEntity
  8
0
100
AcDbCircle
 10
105018.2937838296
 20
95049.26105897585
 30
0.0
 40
2.500000000001331
100
AcDbArc
 50
21.528744328882
 51
127.788949036989
  0
LINE
  5
4EA25
330
1F
100
AcDbEntity
  8
0
100
AcDbLine
 10
105017.6022047854
 20
95051.34533013697
 30
0.0
 11
105017.5760588627
 21
95051.33454661736
 31
0.0
  0
LINE
  5
4EA26
330
1F
100
AcDbEntity
  8
0
100
AcDbLine
 10
105017.5760588627
 20
95051.33454661736
 30
0.0
 11
105017.553296884
 21
95051.32375404985
 31
0.0
  0
LINE
  5
4EA27
330
1F
100
AcDbEntity
  8
0
100
AcDbLine
 10
105017.553296884
 20
95051.32375404985
 30
0.0
 11
105017.5332849713
 21
95051.31306871872
 31
0.0
  0
LINE
  5
4EA28
330
1F
100
AcDbEntity
  8
0
100
AcDbLine
 10
105017.5332849713
 20
95051.31306871872
 30
0.0
 11
105017.5153892463
 21
95051.30260690831
 31
0.0
  0
LINE
  5
4EA29
330
1F
100
AcDbEntity
  8
0
100
AcDbLine
 10
105017.5153892463
 20
95051.30260690831
 30
0.0
 11
105017.4989758308
 21
95051.29248490295
 31
0.0
  0
LINE
  5
4EA2A
330
1F
100
AcDbEntity
  8
0
100
AcDbLine
 10
105017.4989758308
 20
95051.29248490295
 30
0.0
 11
105017.4834108468
 21
95051.28281898697
 31
0.0
  0
LINE
  5
4EA2B
330
1F
100
AcDbEntity
  8
0
100
AcDbLine
 10
105017.4834108468
 20
95051.28281898697
 30
0.0
 11
105017.468060416
 21
95051.27372544466
 31
0.0
  0
LINE
  5
4EA2C
330
1F
100
AcDbEntity
  8
0
100
AcDbLine
 10
105017.468060416
 20
95051.27372544466
 30
0.0
 11
105017.4522906603
 21
95051.26532056035
 31
0.0
  0
LINE
  5
4EA2D
330
1F
100
AcDbEntity
  8
0
100
AcDbLine
 10
105017.4522906603
 20
95051.26532056035
 30
0.0
 11
105017.4356013889
 21
95051.25767106273
 31
0.0
  0
LINE
  5
4EA2E
330
1F
100
AcDbEntity
  8
0
100
AcDbLine
 10
105017.4356013889
 20
95051.25767106273
 30
0.0
 11
105017.4180271603
 21
95051.25064545778
 31
0.0
  0
LINE
  5
4EA2F
330
1F
100
AcDbEntity
  8
0
100
AcDbLine
 10
105017.4180271603
 20
95051.25064545778
 30
0.0
 11
105017.3997362203
 21
95051.24406269587
 31
0.0
  0
LINE
  5
4EA30
330
1F
100
AcDbEntity
  8
0
100
AcDbLine
 10
105017.3997362203
 20
95051.24406269587
 30
0.0
 11
105017.380896815
 21
95051.23774172735
 31
0.0
  0
LINE
  5
4EA31
330
1F
100
AcDbEntity
  8
0
100
AcDbLine
 10
105017.380896815
 20
95051.23774172735
 30
0.0
 11
105017.3616771902
 21
95051.23150150255
 31
0.0
  0
LINE
  5
4EA32
330
1F
100
AcDbEntity
  8
0
100
AcDbLine
 10
105017.3616771902
 20
95051.23150150255
 30
0.0
 11
105017.3422455918
 21
95051.22516097186
 31
0.0
  0
LINE
  5
4EA33
330
1F
100
AcDbEntity
  8
0
100
AcDbLine
 10
105017.3422455918
 20
95051.22516097186
 30
0.0
 11
105017.3227702656
 21
95051.21853908558
 31
0.0
  0
LINE
  5
4EA34
330
1F
100
AcDbEntity
  8
0
100
AcDbLine
 10
105017.3227702656
 20
95051.21853908558
 30
0.0
 11
105017.3034194576
 21
95051.21145479412
 31
0.0
  0
LINE
  5
4EA35
330
1F
100
AcDbEntity
  8
0
100
AcDbLine
 10
105017.3034194576
 20
95051.21145479412
 30
0.0
 11
105017.2843638813
 21
95051.20379693503
 31
0.0
  0
LINE
  5
4EA36
330
1F
100
AcDbEntity
  8
0
100
AcDbLine
 10
105017.2843638813
 20
95051.20379693503
 30
0.0
 11
105017.2657841209
 21
95051.19573389496
 31
0.0
  0
LINE
  5
4EA37
330
1F
100
AcDbEntity
  8
0
100
AcDbLine
 10
105017.2657841209
 20
95051.19573389496
 30
0.0
 11
105017.2478632285
 21
95051.18750394776
 31
0.0
  0
LINE
  5
4EA38
330
1F
100
AcDbEntity
  8
0
100
AcDbLine
 10
105017.2478632285
 20
95051.18750394776
 30
0.0
 11
105017.2307842557
 21
95051.17934536727
 31
0.0
  0
LINE
  5
4EA39
330
1F
100
AcDbEntity
  8
0
100
AcDbLine
 10
105017.2307842557
 20
95051.17934536727
 30
0.0
 11
105017.2147302547
 21
95051.17149642739
 31
0.0
  0
LINE
  5
4EA3A
330
1F
100
AcDbEntity
  8
0
100
AcDbLine
 10
105017.2147302547
 20
95051.17149642739
 30
0.0
 11
105017.1998842772
 21
95051.16419540195
 31
0.0
  0
LINE
  5
4EA3B
330
1F
100
AcDbEntity
  8
0
100
AcDbLine
 10
105017.1998842772
 20
95051.16419540195
 30
0.0
 11
105017.1864293751
 21
95051.15768056484
 31
0.0
  0
LINE
  5
4EA3C
330
1F
100
AcDbEntity
  8
0
100
AcDbLine
 10
105017.1864293751
 20
95051.15768056484
 30
0.0
 11
105017.1745486005
 21
95051.15219018987
 31
0.0
  0
LINE
  5
4EA3D
330
1F
100
AcDbEntity
  8
0
100
AcDbLine
 10
105017.1745486005
 20
95051.15219018987
 30
0.0
 11
105017.164374006
 21
95051.14790086796
 31
0.0
  0
LINE
  5
4EA3E
330
1F
100
AcDbEntity
  8
0
100
AcDbLine
 10
105017.164374006
 20
95051.14790086796
 30
0.0
 11
105017.1558336486
 21
95051.14474245779
 31
0.0
  0
LINE
  5
4EA3F
330
1F
100
AcDbEntity
  8
0
100
AcDbLine
 10
105017.1558336486
 20
95051.14474245779
 30
0.0
 11
105017.1488045859
 21
95051.14258313509
 31
0.0
  0
LINE
  5
4EA40
330
1F
100
AcDbEntity
  8
0
100
AcDbLine
 10
105017.1488045859
 20
95051.14258313509
 30
0.0
 11
105017.1431638758
 21
95051.1412910756
 31
0.0
  0
LINE
  5
4EA41
330
1F
100
AcDbEntity
  8
0
100
AcDbLine
 10
105017.1431638758
 20
95051.1412910756
 30
0.0
 11
105017.138788576
 21
95051.14073445504
 31
0.0
  0
LINE
  5
4EA42
330
1F
100
AcDbEntity
  8
0
100
AcDbLine
 10
105017.138788576
 20
95051.14073445504
 30
0.0
 11
105017.1355557442
 21
95051.14078144911
 31
0.0
  0
LINE
  5
4EA43
330
1F
100
AcDbEntity
  8
0
100
AcDbLine
 10
105017.1355557442
 20
95051.14078144911
 30
0.0
 11
105017.1333424382
 21
95051.14130023354
 31
0.0
  0
LINE
  5
4EA44
330
1F
100
AcDbEntity
  8
0
100
AcDbLine
 10
105017.1333424382
 20
95051.14130023354
 30
0.0
 11
105017.1320257158
 21
95051.14215898407
 31
0.0
  0
LINE
  5
4EA45
330
1F
100
AcDbEntity
  8
0
100
AcDbLine
 10
105017.1320257158
 20
95051.14215898407
 30
0.0
 11
105017.1314948726
 21
95051.14326655416
 31
0.0
  0
LINE
  5
4EA46
330
1F
100
AcDbEntity
  8
0
100
AcDbLine
 10
105017.1314948726
 20
95051.14326655416
 30
0.0
 11
105017.1316881553
 21
95051.14469450843
 31
0.0
  0
LINE
  5
4EA47
330
1F
100
AcDbEntity
  8
0
100
AcDbLine
 10
105017.1316881553
 20
95051.14469450843
 30
0.0
 11
105017.1325560488
 21
95051.14655508924
 31
0.0
  0
LINE
  5
4EA48
330
1F
100
AcDbEntity
  8
0
100
AcDbLine
 10
105017.1325560488
 20
95051.14655508924
 30
0.0
 11
105017.1340490378
 21
95051.14896053898
 31
0.0
  0
LINE
  5
4EA49
330
1F
100
AcDbEntity
  8
0
100
AcDbLine
 10
105017.1340490378
 20
95051.14896053898
 30
0.0
 11
105017.1361176068
 21
95051.15202309998
 31
0.0
  0
LINE
  5
4EA4A
330
1F
100
AcDbEntity
  8
0
100
AcDbLine
 10
105017.1361176068
 20
95051.15202309998
 30
0.0
 11
105017.1387122407
 21
95051.15585501464
 31
0.0
  0
LINE
  5
4EA4B
330
1F
100
AcDbEntity
  8
0
100
AcDbLine
 10
105017.1387122407
 20
95051.15585501464
 30
0.0
 11
105017.1417834241
 21
95051.16056852532
 31
0.0
  0
LINE
  5
4EA4C
330
1F
100
AcDbEntity
  8
0
100
AcDbLine
 10
105017.1417834241
 20
95051.16056852532
 30
0.0
 11
105017.1452816417
 21
95051.16627587439
 31
0.0
  0
LINE
  5
4EA4D
330
1F
100
AcDbEntity
  8
0
100
AcDbLine
 10
105017.1452816417
 20
95051.16627587439
 30
0.0
 11
105017.1491802865
 21
95051.17304448592
 31
0.0
  0
LINE
  5
4EA4E
330
1F
100
AcDbEntity
  8
0
100
AcDbLine
 10
105017.1491802865
 20
95051.17304448592
 30
0.0
 11
105017.1535443845
 21
95051.18076251077
 31
0.0
  0
LINE
  5
4EA4F
330
1F
100
AcDbEntity
  8
0
100
AcDbLine
 10
105017.1535443845
 20
95051.18076251077
 30
0.0
 11
105017.1584618698
 21
95051.18927328149
 31
0.0
  0
LINE
  5
4EA50
330
1F
100
AcDbEntity
  8
0
100
AcDbLine
 10
105017.1584618698
 20
95051.18927328149
 30
0.0
 11
105017.1640206767
 21
95051.19842013064
 31
0.0
  0
LINE
  5
4EA51
330
1F
100
AcDbEntity
  8
0
100
AcDbLine
 10
105017.1640206767
 20
95051.19842013064
 30
0.0
 11
105017.1703087394
 21
95051.20804639075
 31
0.0
  0
LINE
  5
4EA52
330
1F
100
AcDbEntity
  8
0
100
AcDbLine
 10
105017.1703087394
 20
95051.20804639075
 30
0.0
 11
105017.1774139923
 21
95051.21799539439
 31
0.0
  0
LINE
  5
4EA53
330
1F
100
AcDbEntity
  8
0
100
AcDbLine
 10
105017.1774139923
 20
95051.21799539439
 30
0.0
 11
105017.1854243693
 21
95051.22811047412
 31
0.0
  0
LINE
  5
4EA54
330
1F
100
AcDbEntity
  8
0
100
AcDbLine
 10
105017.1854243693
 20
95051.22811047412
 30
0.0
 11
105017.1944278049
 21
95051.2382349625
 31
0.0
  0
LINE
  5
4EA55
330
1F
100
AcDbEntity
  8
0
100
AcDbLine
 10
105017.1944278049
 20
95051.2382349625
 30
0.0
 11
105017.2045101271
 21
95051.24823085751
 31
0.0
  0
LINE
  5
4EA56
330
1F
100
AcDbEntity
  8
0
100
AcDbLine
 10
105017.2045101271
 20
95051.24823085751
 30
0.0
 11
105017.21574874
 21
95051.25803481897
 31
0.0
  0
LINE
  5
4EA57
330
1F
100
AcDbEntity
  8
0
100
AcDbLine
 10
105017.21574874
 20
95051.25803481897
 30
0.0
 11
105017.2282189416
 21
95051.2676021721
 31
0.0
  0
LINE
  5
4EA58
330
1F
100
AcDbEntity
  8
0
100
AcDbLine
 10
105017.2282189416
 20
95051.2676021721
 30
0.0
 11
105017.2419960297
 21
95051.2768882422
 31
0.0
  0
LINE
  5
4EA59
330
1F
100
AcDbEntity
  8
0
100
AcDbLine
 10
105017.2419960297
 20
95051.2768882422
 30
0.0
 11
105017.2571553025
 21
95051.28584835446
 31
0.0
  0
LINE
  5
4EA5A
330
1F
100
AcDbEntity
  8
0
100
AcDbLine
 10
105017.2571553025
 20
95051.28584835446
 30
0.0
 11
105017.2737720577
 21
95051.29443783419
 31
0.0
  0
LINE
  5
4EA5B
330
1F
100
AcDbEntity
  8
0
100
AcDbLine
 10
105017.2737720577
 20
95051.29443783419
 30
0.0
 11
105017.2919215933
 21
95051.30261200658
 31
0.0
  0
LINE
  5
4EA5C
330
1F
100
AcDbEntity
  8
0
100
AcDbLine
 10
105017.2919215933
 20
95051.30261200658
 30
0.0
 11
105017.3116792075
 21
95051.31032619692
 31
0.0
  0
LINE
  5
4EA5D
330
1F
100
AcDbEntity
  8
0
100
AcDbLine
 10
105017.3116792075
 20
95051.31032619692
 30
0.0
 11
105017.3330229562
 21
95051.31753605544
 31
0.0
  0
LINE
  5
4EA5E
330
1F
100
AcDbEntity
  8
0
100
AcDbLine
 10
105017.3330229562
 20
95051.31753605544
 30
0.0
 11
105017.3555419288
 21
95051.32419853234
 31
0.0
  0
LINE
  5
4EA5F
330
1F
100
AcDbEntity
  8
0
100
AcDbLine
 10
105017.3555419288
 20
95051.32419853234
 30
0.0
 11
105017.3787279726
 21
95051.33027090282
 31
0.0
  0
LINE
  5
4EA60
330
1F
100
AcDbEntity
  8
0
100
AcDbLine
 10
105017.3787279726
 20
95051.33027090282
 30
0.0
 11
105017.4020729352
 21
95051.33571044208
 31
0.0
  0
LINE
  5
4EA61
330
1F
100
AcDbEntity
  8
0
100
AcDbLine
 10
105017.4020729352
 20
95051.33571044208
 30
0.0
 11
105017.4250686639
 21
95051.34047442528
 31
0.0
  0
LINE
  5
4EA62
330
1F
100
AcDbEntity
  8
0
100
AcDbLine
 10
105017.4250686639
 20
95051.34047442528
 30
0.0
 11
105017.4472070062
 21
95051.34452012763
 31
0.0
  0
LINE
  5
4EA63
330
1F
100
AcDbEntity
  8
0
100
AcDbLine
 10
105017.4472070062
 20
95051.34452012763
 30
0.0
 11
105017.4679798095
 21
95051.34780482434
 31
0.0
  0
LINE
  5
4EA64
330
1F
100
AcDbEntity
  8
0
100
AcDbLine
 10
105017.4679798095
 20
95051.34780482434
 30
0.0
 11
105017.4868789213
 21
95051.3502857906
 31
0.0
  0
LINE
  5
4EA65
330
1F
100
AcDbEntity
  8
0
100
AcDbLine
 10
105017.4868789213
 20
95051.3502857906
 30
0.0
 11
105017.5035129701
 21
95051.35194762097
 31
0.0
  0
LINE
  5
4EA66
330
1F
100
AcDbEntity
  8
0
100
AcDbLine
 10
105017.5035129701
 20
95051.35194762097
 30
0.0
 11
105017.5179577085
 21
95051.35288418749
 31
0.0
  0
LINE
  5
4EA67
330
1F
100
AcDbEntity
  8
0
100
AcDbLine
 10
105017.5179577085
 20
95051.35288418749
 30
0.0
 11
105017.5304056703
 21
95051.35321668163
 31
0.0
  0
LINE
  5
4EA68
330
1F
100
AcDbEntity
  8
0
100
AcDbLine
 10
105017.5304056703
 20
95051.35321668163
 30
0.0
 11
105017.5410493892
 21
95051.35306629483
 31
0.0
  0
LINE
  5
4EA69
330
1F
100
AcDbEntity
  8
0
100
AcDbLine
 10
105017.5410493892
 20
95051.35306629483
 30
0.0
 11
105017.5500813989
 21
95051.35255421853
 31
0.0
  0
LINE
  5
4EA6A
330
1F
100
AcDbEntity
  8
0
100
AcDbLine
 10
105017.5500813989
 20
95051.35255421853
 30
0.0
 11
105017.5576942332
 21
95051.35180164415
 31
0.0
  0
LINE
  5
4EA6B
330
1F
100
AcDbEntity
  8
0
100
AcDbLine
 10
105017.5576942332
 20
95051.35180164415
 30
0.0
 11
105017.5640804258
 21
95051.35092976315
 31
0.0
  0
LINE
  5
4EA6C
330
1F
100
AcDbEntity
  8
0
100
AcDbLine
 10
105017.5640804258
 20
95051.35092976315
 30
0.0
 11
105017.5694325104
 21
95051.35005976697
 31
0.0
  0
LINE
  5
4EA6D
330
1F
100
AcDbEntity
  8
0
100
AcDbLine
 10
105017.5694325104
 20
95051.35005976697
 30
0.0
 11
105017.5739282266
 21
95051.34929072395
 31
0.0
  0
LINE
  5
4EA6E
330
1F
100
AcDbEntity
  8
0
100
AcDbLine
 10
105017.5739282266
 20
95051.34929072395
 30
0.0
 11
105017.5776861375
 21
95051.34863321018
 31
0.0
  0
LINE
  5
4EA6F
330
1F
100
AcDbEntity
  8
0
100
AcDbLine
 10
105017.5776861375
 20
95051.34863321018
 30
0.0
 11
105017.5808100118
 21
95051.34807567863
 31
0.0
  0
LINE
  5
4EA70
330
1F
100
AcDbEntity
  8
0
100
AcDbLine
 10
105017.5808100118
 20
95051.34807567863
 30
0.0
 11
105017.5834036184
 21
95051.34760658231
 31
0.0
  0
LINE
  5
4EA71
330
1F
100
AcDbEntity
  8
0
100
AcDbLine
 10
105017.5834036184
 20
95051.34760658231
 30
0.0
 11
105017.5855707261
 21
95051.34721437416
 31
0.0
  0
LINE
  5
4EA72
330
1F
100
AcDbEntity
  8
0
100
AcDbLine
 10
105017.5855707261
 20
95051.34721437416
 30
0.0
 11
105017.5874151038
 21
95051.34688750723
 31
0.0
  0
LINE
  5
4EA73
330
1F
100
AcDbEntity
  8
0
100
AcDbLine
 10
105017.5874151038
 20
95051.34688750723
 30
0.0
 11
105017.5890405204
 21
95051.34661443445
 31
0.0
  0
LINE
  5
4EA74
330
1F
100
AcDbEntity
  8
0
100
AcDbLine
 10
105017.5890405204
 20
95051.34661443445
 30
0.0
 11
105017.5905507447
 21
95051.34638360884
 31
0.0
  0
LINE
  5
4EA75
330
1F
100
AcDbEntity
  8
0
100
AcDbLine
 10
105017.5905507447
 20
95051.34638360884
 30
0.0
 11
105017.5920287257
 21
95051.34618419392
 31
0.0
  0
LINE
  5
4EA76
330
1F
100
AcDbEntity
  8
0
100
AcDbLine
 10
105017.5920287257
 20
95051.34618419392
 30
0.0
 11
105017.5934741341
 21
95051.34600819538
 31
0.0
  0
LINE
  5
4EA77
330
1F
100
AcDbEntity
  8
0
100
AcDbLine
 10
105017.5934741341
 20
95051.34600819538
 30
0.0
 11
105017.5948658205
 21
95051.3458483295
 31
0.0
  0
LINE
  5
4EA78
330
1F
100
AcDbEntity
  8
0
100
AcDbLine
 10
105017.5948658205
 20
95051.3458483295
 30
0.0
 11
105017.5961826356
 21
95051.34569731252
 31
0.0
  0
LINE
  5
4EA79
330
1F
100
AcDbEntity
  8
0
100
AcDbLine
 10
105017.5961826356
 20
95051.34569731252
 30
0.0
 11
105017.5974034303
 21
95051.34554786065
 31
0.0
  0
LINE
  5
4EA7A
330
1F
100
AcDbEntity
  8
0
100
AcDbLine
 10
105017.5974034303
 20
95051.34554786065
 30
0.0
 11
105017.5985070552
 21
95051.3453926902
 31
0.0
  0
LINE
  5
4EA7B
330
1F
100
AcDbEntity
  8
0
100
AcDbLine
 10
105017.5985070552
 20
95051.3453926902
 30
0.0
 11
105017.5994723612
 21
95051.3452245174
 31
0.0
  0
LINE
  5
4EA7C
330
1F
100
AcDbEntity
  8
0
100
AcDbLine
 10
105017.5994723612
 20
95051.3452245174
 30
0.0
 11
105017.6002781989
 21
95051.34503605846
 31
0.0
  0
LINE
  5
4EA7D
330
1F
100
AcDbEntity
  8
0
100
AcDbLine
 10
105017.6002781989
 20
95051.34503605846
 30
0.0
 11
105017.6009078099
 21
95051.34481869186
 31
0.0
  0
LINE
  5
4EA7E
330
1F
100
AcDbEntity
  8
0
100
AcDbLine
 10
105017.6009078099
 20
95051.34481869186
 30
0.0
 11
105017.6013619986
 21
95051.34455844467
 31
0.0
  0
LINE
  5
4EA7F
330
1F
100
AcDbEntity
  8
0
100
AcDbLine
 10
105017.6013619986
 20
95051.34455844467
 30
0.0
 11
105017.6016459601
 21
95051.34424000617
 31
0.0
  0
LINE
  5
4EA80
330
1F
100
AcDbEntity
  8
0
100
AcDbLine
 10
105017.6016459601
 20
95051.34424000617
 30
0.0
 11
105017.6017648897
 21
95051.34384806565
 31
0.0
  0
LINE
  5
4EA81
330
1F
100
AcDbEntity
  8
0
100
AcDbLine
 10
105017.6017648897
 20
95051.34384806565
 30
0.0
 11
105017.6017239826
 21
95051.34336731236
 31
0.0
  0
LINE
  5
4EA82
330
1F
100
AcDbEntity
  8
0
100
AcDbLine
 10
105017.6017239826
 20
95051.34336731236
 30
0.0
 11
105017.6015284339
 21
95051.34278243561
 31
0.0
  0
LINE
  5
4EA83
330
1F
100
AcDbEntity
  8
0
100
AcDbLine
 10
105017.6015284339
 20
95051.34278243561
 30
0.0
 11
105017.6011834388
 21
95051.34207812467
 31
0.0
  0
LINE
  5
4EA84
330
1F
100
AcDbEntity
  8
0
100
AcDbLine
 10
105017.6011834388
 20
95051.34207812467
 30
0.0
 11
105017.6006941925
 21
95051.34123906881
 31
0.0
  0
LINE
  5
4EA85
330
1F
100
AcDbEntity
  8
0
100
AcDbLine
 10
105017.6006941925
 20
95051.34123906881
 30
0.0
 11
105017.6000699486
 21
95051.34025628642
 31
0.0
  0
LINE
  5
4EA86
330
1F
100
AcDbEntity
  8
0
100
AcDbLine
 10
105017.6000699486
 20
95051.34025628642
 30
0.0
 11
105017.5993361945
 21
95051.33914611235
 31
0.0
  0
LINE
  5
4EA87
330
1F
100
AcDbEntity
  8
0
100
AcDbLine
 10
105017.5993361945
 20
95051.33914611235
 30
0.0
 11
105017.5985224758
 21
95051.33793121057
 31
0.0
  0
LINE
  5
4EA88
330
1F
100
AcDbEntity
  8
0
100
AcDbLine
 10
105017.5985224758
 20
95051.33793121057
 30
0.0
 11
105017.5976583385
 21
95051.33663424503
 31
0.0
  0
LINE
  5
4EA89
330
1F
100
AcDbEntity
  8
0
100
AcDbLine
 10
105017.5976583385
 20
95051.33663424503
 30
0.0
 11
105017.5967733281
 21
95051.3352778797
 31
0.0
  0
LINE
  5
4EA8A
330
1F
100
AcDbEntity
  8
0
100
AcDbLine
 10
105017.5967733281
 20
95051.3352778797
 30
0.0
 11
105017.5958969906
 21
95051.33388477855
 31
0.0
  0
LINE
  5
4EA8B
330
1F
100
AcDbEntity
  8
0
100
AcDbLine
 10
105017.5958969906
 20
95051.33388477855
 30
0.0
 11
105017.5950588715
 21
95051.33247760554
 31
0.0
  0
LINE
  5
4EA8C
330
1F
100
AcDbEntity
  8
0
100
AcDbLine
 10
105017.5950588715
 20
95051.33247760554
 30
0.0
 11
105017.5942885168
 21
95051.33107902464
 31
0.0
  0
LINE
  5
4EA8D
330
1F
100
AcDbEntity
  8
0
100
AcDbLine
 10
105017.5942885168
 20
95051.33107902464
 30
0.0
 11
105017.5936036807
 21
95051.32970944256
 31
0.0
  0
LINE
  5
4EA8E
330
1F
100
AcDbEntity
  8
0
100
AcDbLine
 10
105017.5936036807
 20
95051.32970944256
 30
0.0
 11
105017.5929749513
 21
95051.3283802371
 31
0.0
  0
LINE
  5
4EA8F
330
1F
100
AcDbEntity
  8
0
100
AcDbLine
 10
105017.5929749513
 20
95051.3283802371
 30
0.0
 11
105017.5923611256
 21
95051.32710052883
 31
0.0
  0
LINE
  5
4EA90
330
1F
100
AcDbEntity
  8
0
100
AcDbLine
 10
105017.5923611256
 20
95051.32710052883
 30
0.0
 11
105017.5917210003
 21
95051.32587943835
 31
0.0
  0
LINE
  5
4EA91
330
1F
100
AcDbEntity
  8
0
100
AcDbLine
 10
105017.5917210003
 20
95051.32587943835
 30
0.0
 11
105017.5910133721
 21
95051.32472608616
 31
0.0
  0
LINE
  5
4EA92
330
1F
100
AcDbEntity
  8
0
100
AcDbLine
 10
105017.5910133721
 20
95051.32472608616
 30
0.0
 11
105017.5901970378
 21
95051.32364959289
 31
0.0
  0
LINE
  5
4EA93
330
1F
100
AcDbEntity
  8
0
100
AcDbLine
 10
105017.5901970378
 20
95051.32364959289
 30
0.0
 11
105017.5892307941
 21
95051.32265907906
 31
0.0
  0
LINE
  5
4EA94
330
1F
100
AcDbEntity
  8
0
100
AcDbLine
 10
105017.5892307941
 20
95051.32265907906
 30
0.0
 11
105017.5880734379
 21
95051.32176366524
 31
0.0
  0
LINE
  5
4EA95
330
1F
100
AcDbEntity
  8
0
100
AcDbLine
 10
105017.5880734379
 20
95051.32176366524
 30
0.0
 11
105017.5866974448
 21
95051.32096349891
 31
0.0
  0
LINE
  5
4EA96
330
1F
100
AcDbEntity
  8
0
100
AcDbLine
 10
105017.5866974448
 20
95051.32096349891
 30
0.0
 11
105017.5851300057
 21
95051.32022283506
 31
0.0
  0
LINE
  5
4EA97
330
1F
100
AcDbEntity
  8
0
100
AcDbLine
 10
105017.5851300057
 20
95051.32022283506
 30
0.0
 11
105017.5834119904
 21
95051.31949695559
 31
0.0
  0
LINE
  5
4EA98
330
1F
100
AcDbEntity
  8
0
100
AcDbLine
 10
105017.5834119904
 20
95051.31949695559
 30
0.0
 11
105017.5815842689
 21
95051.31874114242
 31
0.0
  0
LINE
  5
4EA99
330
1F
100
AcDbEntity
  8
0
100
AcDbLine
 10
105017.5815842689
 20
95051.31874114242
 30
0.0
 11
105017.5796877108
 21
95051.31791067748
 31
0.0
  0
LINE
  5
4EA9A
330
1F
100
AcDbEntity
  8
0
100
AcDbLine
 10
105017.5796877108
 20
95051.31791067748
 30
0.0
 11
105017.5777631862
 21
95051.31696084262
 31
0.0
  0
LINE
  5
4EA9B
330
1F
100
AcDbEntity
  8
0
100
AcDbLine
 10
105017.5777631862
 20
95051.31696084262
 30
0.0
 11
105017.5758515647
 21
95051.31584691978
 31
0.0
  0
LINE
  5
4EA9C
330
1F
100
AcDbEntity
  8
0
100
AcDbLine
 10
105017.5758515647
 20
95051.31584691978
 30
0.0
 11
105017.5739937161
 21
95051.31452419085
 31
0.0
  0
LINE
  5
4EA9D
330
1F
100
AcDbEntity
  8
0
100
AcDbLine
 10
105017.5739937161
 20
95051.31452419085
 30
0.0
 11
105017.5722241719
 21
95051.31296708299
 31
0.0
  0
LINE
  5
4EA9E
330
1F
100
AcDbEntity
  8
0
100
AcDbLine
 10
105017.5722241719
 20
95051.31296708299
 30
0.0
 11
105017.5705521086
 21
95051.31122660431
 31
0.0
  0
LINE
  5
4EA9F
330
1F
100
AcDbEntity
  8
0
100
AcDbLine
 10
105017.5705521086
 20
95051.31122660431
 30
0.0
 11
105017.5689803645
 21
95051.30937290815
 31
0.0
  0
LINE
  5
4EAA0
330
1F
100
AcDbEntity
  8
0
100
AcDbLine
 10
105017.5689803645
 20
95051.30937290815
 30
0.0
 11
105017.5675117779
 21
95051.30747614787
 31
0.0
  0
LINE
  5
4EAA1
330
1F
100
AcDbEntity
  8
0
100
AcDbLine
 10
105017.5675117779
 20
95051.30747614787
 30
0.0
 11
105017.5661491867
 21
95051.3056064768
 31
0.0
  0
LINE
  5
4EAA2
330
1F
100
AcDbEntity
  8
0
100
AcDbLine
 10
105017.5661491867
 20
95051.3056064768
 30
0.0
 11
105017.5648954293
 21
95051.30383404834
 31
0.0
  0
LINE
  5
4EAA3
330
1F
100
AcDbEntity
  8
0
100
AcDbLine
 10
105017.5648954293
 20
95051.30383404834
 30
0.0
 11
105017.5637533438
 21
95051.30222901581
 31
0.0
  0
LINE
  5
4EAA4
330
1F
100
AcDbEntity
  8
0
100
AcDbLine
 10
105017.5637533438
 20
95051.30222901581
 30
0.0
 11
105017.5627257684
 21
95051.30086153258
 31
0.0
  0
LINE
  5
4EAA5
330
1F
100
AcDbEntity
  8
0
100
AcDbLine
 10
105017.5627257684
 20
95051.30086153258
 30
0.0
 11
105017.5618138712
 21
95051.29977868405
 31
0.0
  0
LINE
  5
4EAA6
330
1F
100
AcDbEntity
  8
0
100
AcDbLine
 10
105017.5618138712
 20
95051.29977868405
 30
0.0
 11
105017.56101214
 21
95051.29893528378
 31
0.0
  0
LINE
  5
4EAA7
330
1F
100
AcDbEntity
  8
0
100
AcDbLine
 10
105017.56101214
 20
95051.29893528378
 30
0.0
 11
105017.5603133925
 21
95051.29826307745
 31
0.0
  0
LINE
  5
4EAA8
330
1F
100
AcDbEntity
  8
0
100
AcDbLine
 10
105017.5603133925
 20
95051.29826307745
 30
0.0
 11
105017.5597104463
 21
95051.29769381069
 31
0.0
  0
LINE
  5
4EAA9
330
1F
100
AcDbEntity
  8
0
100
AcDbLine
 10
105017.5597104463
 20
95051.29769381069
 30
0.0
 11
105017.5591961192
 21
95051.29715922914
 31
0.0
  0
LINE
  5
4EAAA
330
1F
100
AcDbEntity
  8
0
100
AcDbLine
 10
105017.5591961192
 20
95051.29715922914
 30
0.0
 11
105017.5587632289
 21
95051.29659107842
 31
0.0
  0
LINE
  5
4EAAB
330
1F
100
AcDbEntity
  8
0
100
AcDbLine
 10
105017.5587632289
 20
95051.29659107842
 30
0.0
 11
105017.5584045931
 21
95051.29592110423
 31
0.0
  0
LINE
  5
4EAAC
330
1F
100
AcDbEntity
  8
0
100
AcDbLine
 10
105017.5584045931
 20
95051.29592110423
 30
0.0
 11
105017.5581130295
 21
95051.29508105214
 31
0.0
  0
LINE
  5
4EAAD
330
1F
100
AcDbEntity
  8
0
100
AcDbLine
 10
105017.5581130295
 20
95051.29508105214
 30
0.0
 11
105017.5578615014
 21
95051.29400028566
 31
0.0
  0
LINE
  5
4EAAE
330
1F
100
AcDbEntity
  8
0
100
AcDbLine
 10
105017.5578615014
 20
95051.29400028566
 30
0.0
 11
105017.5575435555
 21
95051.29259863958
 31
0.0
  0
LINE
  5
4EAAF
330
1F
100
AcDbEntity
  8
0
100
AcDbLine
 10
105017.5575435555
 20
95051.29259863958
 30
0.0
 11
105017.5570328838
 21
95051.29079356651
 31
0.0
  0
LINE
  5
4EAB0
330
1F
100
AcDbEntity
  8
0
100
AcDbLine
 10
105017.5570328838
 20
95051.29079356651
 30
0.0
 11
105017.5562031784
 21
95051.28850251905
 31
0.0
  0
LINE
  5
4EAB1
330
1F
100
AcDbEntity
  8
0
100
AcDbLine
 10
105017.5562031784
 20
95051.28850251905
 30
0.0
 11
105017.5549281315
 21
95051.28564294983
 31
0.0
  0
LINE
  5
4EAB2
330
1F
100
AcDbEntity
  8
0
100
AcDbLine
 10
105017.5549281315
 20
95051.28564294983
 30
0.0
 11
105017.5530814354
 21
95051.28213231147
 31
0.0
  0
LINE
  5
4EAB3
330
1F
100
AcDbEntity
  8
0
100
AcDbLine
 10
105017.5530814354
 20
95051.28213231147
 30
0.0
 11
105017.550536782
 21
95051.2778880566
 31
0.0
  0
LINE
  5
4EAB4
330
1F
100
AcDbEntity
  8
0
100
AcDbLine
 10
105017.550536782
 20
95051.2778880566
 30
0.0
 11
105017.5471678637
 21
95051.27282763782
 31
0.0
  0
LINE
  5
4EAB5
330
1F
100
AcDbEntity
  8
0
100
AcDbLine
 10
105017.5471678637
 20
95051.27282763782
 30
0.0
 11
105017.5428379967
 21
95051.2669055382
 31
0.0
  0
LINE
  5
4EAB6
330
1F
100
AcDbEntity
  8
0
100
AcDbLine
 10
105017.5428379967
 20
95051.2669055382
 30
0.0
 11
105017.5373689941
 21
95051.26022436272
 31
0.0
  0
LINE
  5
4EAB7
330
1F
100
AcDbEntity
  8
0
100
AcDbLine
 10
105017.5373689941
 20
95051.26022436272
 30
0.0
 11
105017.530572293
 21
95051.2529237468
 31
0.0
  0
LINE
  5
4EAB8
330
1F
100
AcDbEntity
  8
0
100
AcDbLine
 10
105017.530572293
 20
95051.2529237468
 30
0.0
 11
105017.5222593306
 21
95051.24514332583
 31
0.0
  0
LINE
  5
4EAB9
330
1F
100
AcDbEntity
  8
0
100
AcDbLine
 10
105017.5222593306
 20
95051.24514332583
 30
0.0
 11
105017.5122415442
 21
95051.23702273527
 31
0.0
  0
LINE
  5
4EABA
330
1F
100
AcDbEntity
  8
0
100
AcDbLine
 10
105017.5122415442
 20
95051.23702273527
 30
0.0
 11
105017.5003303709
 21
95051.22870161052
 31
0.0
  0
LINE
  5
4EABB
330
1F
100
AcDbEntity
  8
0
100
AcDbLine
 10
105017.5003303709
 20
95051.22870161052
 30
0.0
 11
105017.486337248
 21
95051.220319587
 31
0.0
  0
LINE
  5
4EABC
330
1F
100
AcDbEntity
  8
0
100
AcDbLine
 10
105017.486337248
 20
95051.220319587
 30
0.0
 11
105017.4700736125
 21
95051.21201630016
 31
0.0
  0
LINE
  5
4EABD
330
1F
100
AcDbEntity
  8
0
100
AcDbLine
 10
105017.4700736125
 20
95051.21201630016
 30
0.0
 11
105017.4514690157
 21
95051.20392207507
 31
0.0
  0
LINE
  5
4EABE
330
1F
100
AcDbEntity
  8
0
100
AcDbLine
 10
105017.4514690157
 20
95051.20392207507
 30
0.0
 11
105017.4309254642
 21
95051.19612999559
 31
0.0
  0
LINE
  5
4EABF
330
1F
100
AcDbEntity
  8
0
100
AcDbLine
 10
105017.4309254642
 20
95051.19612999559
 30
0.0
 11
105017.4089630786
 21
95051.18872383528
 31
0.0
  0
LINE
  5
4EAC0
330
1F
100
AcDbEntity
  8
0
100
AcDbLine
 10
105017.4089630786
 20
95051.18872383528
 30
0.0
 11
105017.3861019796
 21
95051.18178736768
 31
0.0
  0
LINE
  5
4EAC1
330
1F
100
AcDbEntity
  8
0
100
AcDbLine
 10
105017.3861019796
 20
95051.18178736768
 30
0.0
 11
105017.3628622877
 21
95051.17540436632
 31
0.0
  0
LINE
  5
4EAC2
330
1F
100
AcDbEntity
  8
0
100
AcDbLine
 10
105017.3628622877
 20
95051.17540436632
 30
0.0
 11
105017.3397641236
 21
95051.16965860478
 31
0.0
  0
LINE
  5
4EAC3
330
1F
100
AcDbEntity
  8
0
100
AcDbLine
 10
105017.3397641236
 20
95051.16965860478
 30
0.0
 11
105017.3173276079
 21
95051.16463385654
 31
0.0
  0
LINE
  5
4EAC4
330
1F
100
AcDbEntity
  8
0
100
AcDbLine
 10
105017.3173276079
 20
95051.16463385654
 30
0.0
 11
105017.2960728613
 21
95051.16041389522
 31
0.0
  0
LINE
  5
4EAC5
330
1F
100
AcDbEntity
  8
0
100
AcDbLine
 10
105017.2960728613
 20
95051.16041389522
 30
0.0
 11
105017.2764297466
 21
95051.15705356287
 31
0.0
  0
LINE
  5
4EAC6
330
1F
100
AcDbEntity
  8
0
100
AcDbLine
 10
105017.2764297466
 20
95051.15705356287
 30
0.0
 11
105017.2584670967
 21
95051.15449197596
 31
0.0
  0
LINE
  5
4EAC7
330
1F
100
AcDbEntity
  8
0
100
AcDbLine
 10
105017.2584670967
 20
95051.15449197596
 30
0.0
 11
105017.2421634865
 21
95051.1526393195
 31
0.0
  0
LINE
  5
4EAC8
330
1F
100
AcDbEntity
  8
0
100
AcDbLine
 10
105017.2421634865
 20
95051.1526393195
 30
0.0
 11
105017.2274974911
 21
95051.15140577851
 31
0.0
  0
LINE
  5
4EAC9
330
1F
100
AcDbEntity
  8
0
100
AcDbLine
 10
105017.2274974911
 20
95051.15140577851
 30
0.0
 11
105017.2144476857
 21
95051.15070153799
 31
0.0
  0
LINE
  5
4EACA
330
1F
100
AcDbEntity
  8
0
100
AcDbLine
 10
105017.2144476857
 20
95051.15070153799
 30
0.0
 11
105017.2029926452
 21
95051.15043678294
 31
0.0
  0
LINE
  5
4EACB
330
1F
100
AcDbEntity
  8
0
100
AcDbLine
 10
105017.2029926452
 20
95051.15043678294
 30
0.0
 11
105017.1931109447
 21
95051.15052169843
 31
0.0
  0
LINE
  5
4EACC
330
1F
100
AcDbEntity
  8
0
100
AcDbLine
 10
105017.1931109447
 20
95051.15052169843
 30
0.0
 11
105017.1847811594
 21
95051.15086646942
 31
0.0
  0
LINE
  5
4EACD
330
1F
100
AcDbEntity
  8
0
100
AcDbLine
 10
105017.1847811594
 20
95051.15086646942
 30
0.0
 11
105017.1778887641
 21
95051.15135733008
 31
0.0
  0
LINE
  5
4EACE
330
1F
100
AcDbEntity
  8
0
100
AcDbLine
 10
105017.1778887641
 20
95051.15135733008
 30
0.0
 11
105017.171946833
 21
95051.15178471122
 31
0.0
  0
LINE
  5
4EACF
330
1F
100
AcDbEntity
  8
0
100
AcDbLine
 10
105017.171946833
 20
95051.15178471122
 30
0.0
 11
105017.1663753402
 21
95051.15191509279
 31
0.0
  0
LINE
  5
4EAD0
330
1F
100
AcDbEntity
  8
0
100
AcDbLine
 10
105017.1663753402
 20
95051.15191509279
 30
0.0
 11
105017.1605942597
 21
95051.1515149547
 31
0.0
  0
LINE
  5
4EAD1
330
1F
100
AcDbEntity
  8
0
100
AcDbLine
 10
105017.1605942597
 20
95051.1515149547
 30
0.0
 11
105017.1540235655
 21
95051.15035077693
 31
0.0
  0
LINE
  5
4EAD2
330
1F
100
AcDbEntity
  8
0
100
AcDbLine
 10
105017.1540235655
 20
95051.15035077693
 30
0.0
 11
105017.1460832318
 21
95051.14818903939
 31
0.0
  0
LINE
  5
4EAD3
330
1F
100
AcDbEntity
  8
0
100
AcDbLine
 10
105017.1460832318
 20
95051.14818903939
 30
0.0
 11
105017.1361932325
 21
95051.14479622205
 31
0.0
  0
LINE
  5
4EAD4
330
1F
100
AcDbEntity
  8
0
100
AcDbLine
 10
105017.1361932325
 20
95051.14479622205
 30
0.0
 11
105017.1237735417
 21
95051.13993880483
 31
0.0
  0
LINE
  5
4EAD5
330
1F
100
AcDbEntity
  8
0
100
AcDbLine
 10
105018.0619371541
 20
95051.48944928588
 30
0.0
 11
105018.0357912314
 21
95051.47866576628
 31
0.0
  0
LINE
  5
4EAD6
330
1F
100
AcDbEntity
  8
0
100
AcDbLine
 10
105018.0357912314
 20
95051.47866576628
 30
0.0
 11
105018.0130292527
 21
95051.46787319874
 31
0.0
  0
LINE
  5
4EAD7
330
1F
100
AcDbEntity
  8
0
100
AcDbLine
 10
105018.0130292527
 20
95051.46787319874
 30
0.0
 11
105017.99301734
 21
95051.45718786762
 31
0.0
  0
LINE
  5
4EAD8
330
1F
100
AcDbEntity
  8
0
100
AcDbLine
 10
105017.99301734
 20
95051.45718786762
 30
0.0
 11
105017.9751216149
 21
95051.44672605723
 31
0.0
  0
LINE
  5
4EAD9
330
1F
100
AcDbEntity
  8
0
100
AcDbLine
 10
105017.9751216149
 20
95051.44672605723
 30
0.0
 11
105017.9587081995
 21
95051.43660405186
 31
0.0
  0
LINE
  5
4EADA
330
1F
100
AcDbEntity
  8
0
100
AcDbLine
 10
105017.9587081995
 20
95051.43660405186
 30
0.0
 11
105017.9431432155
 21
95051.42693813587
 31
0.0
  0
LINE
  5
4EADB
330
1F
100
AcDbEntity
  8
0
100
AcDbLine
 10
105017.9431432155
 20
95051.42693813587
 30
0.0
 11
105017.9277927847
 21
95051.41784459357
 31
0.0
  0
LINE
  5
4EADC
330
1F
100
AcDbEntity
  8
0
100
AcDbLine
 10
105017.9277927847
 20
95051.41784459357
 30
0.0
 11
105017.912023029
 21
95051.40943970927
 31
0.0
  0
LINE
  5
4EADD
330
1F
100
AcDbEntity
  8
0
100
AcDbLine
 10
105017.912023029
 20
95051.40943970927
 30
0.0
 11
105017.8953337576
 21
95051.40179021164
 31
0.0
  0
LINE
  5
4EADE
330
1F
100
AcDbEntity
  8
0
100
AcDbLine
 10
105017.8953337576
 20
95051.40179021164
 30
0.0
 11
105017.877759529
 21
95051.39476460669
 31
0.0
  0
LINE
  5
4EADF
330
1F
100
AcDbEntity
  8
0
100
AcDbLine
 10
105017.877759529
 20
95051.39476460669
 30
0.0
 11
105017.859468589
 21
95051.38818184478
 31
0.0
  0
LINE
  5
4EAE0
330
1F
100
AcDbEntity
  8
0
100
AcDbLine
 10
105017.859468589
 20
95051.38818184478
 30
0.0
 11
105017.8406291837
 21
95051.38186087625
 31
0.0
  0
LINE
  5
4EAE1
330
1F
100
AcDbEntity
  8
0
100
AcDbLine
 10
105017.8406291837
 20
95051.38186087625
 30
0.0
 11
105017.8214095589
 21
95051.37562065147
 31
0.0
  0
LINE
  5
4EAE2
330
1F
100
AcDbEntity
  8
0
100
AcDbLine
 10
105017.8214095589
 20
95051.37562065147
 30
0.0
 11
105017.8019779604
 21
95051.36928012076
 31
0.0
  0
LINE
  5
4EAE3
330
1F
100
AcDbEntity
  8
0
100
AcDbLine
 10
105017.8019779604
 20
95051.36928012076
 30
0.0
 11
105017.7825026342
 21
95051.3626582345
 31
0.0
  0
LINE
  5
4EAE4
330
1F
100
AcDbEntity
  8
0
100
AcDbLine
 10
105017.7825026342
 20
95051.3626582345
 30
0.0
 11
105017.7631518262
 21
95051.35557394304
 31
0.0
  0
LINE
  5
4EAE5
330
1F
100
AcDbEntity
  8
0
100
AcDbLine
 10
105017.7631518262
 20
95051.35557394304
 30
0.0
 11
105017.7440962499
 21
95051.34791608394
 31
0.0
  0
LINE
  5
4EAE6
330
1F
100
AcDbEntity
  8
0
100
AcDbLine
 10
105017.7440962499
 20
95051.34791608394
 30
0.0
 11
105017.7255164896
 21
95051.33985304388
 31
0.0
  0
LINE
  5
4EAE7
330
1F
100
AcDbEntity
  8
0
100
AcDbLine
 10
105017.7255164896
 20
95051.33985304388
 30
0.0
 11
105017.7075955971
 21
95051.33162309668
 31
0.0
  0
LINE
  5
4EAE8
330
1F
100
AcDbEntity
  8
0
100
AcDbLine
 10
105017.7075955971
 20
95051.33162309668
 30
0.0
 11
105017.6905166244
 21
95051.32346451619
 31
0.0
  0
LINE
  5
4EAE9
330
1F
100
AcDbEntity
  8
0
100
AcDbLine
 10
105017.6905166244
 20
95051.32346451619
 30
0.0
 11
105017.6744626234
 21
95051.31561557631
 31
0.0
  0
LINE
  5
4EAEA
330
1F
100
AcDbEntity
  8
0
100
AcDbLine
 10
105017.6744626234
 20
95051.31561557631
 30
0.0
 11
105017.6596166459
 21
95051.30831455085
 31
0.0
  0
LINE
  5
4EAEB
330
1F
100
AcDbEntity
  8
0
100
AcDbLine
 10
105017.6596166459
 20
95051.30831455085
 30
0.0
 11
105017.6461617438
 21
95051.30179971374
 31
0.0
  0
LINE
  5
4EAEC
330
1F
100
AcDbEntity
  8
0
100
AcDbLine
 10
105017.6461617438
 20
95051.30179971374
 30
0.0
 11
105017.6342809692
 21
95051.29630933879
 31
0.0
  0
LINE
  5
4EAED
330
1F
100
AcDbEntity
  8
0
100
AcDbLine
 10
105017.6342809692
 20
95051.29630933879
 30
0.0
 11
105017.6241063747
 21
95051.29202001688
 31
0.0
  0
LINE
  5
4EAEE
330
1F
100
AcDbEntity
  8
0
100
AcDbLine
 10
105017.6241063747
 20
95051.29202001688
 30
0.0
 11
105017.6155660173
 21
95051.28886160669
 31
0.0
  0
LINE
  5
4EAEF
330
1F
100
AcDbEntity
  8
0
100
AcDbLine
 10
105017.6155660173
 20
95051.28886160669
 30
0.0
 11
105017.6085369546
 21
95051.28670228401
 31
0.0
  0
LINE
  5
4EAF0
330
1F
100
AcDbEntity
  8
0
100
AcDbLine
 10
105017.6085369546
 20
95051.28670228401
 30
0.0
 11
105017.6028962445
 21
95051.28541022452
 31
0.0
  0
LINE
  5
4EAF1
330
1F
100
AcDbEntity
  8
0
100
AcDbLine
 10
105017.6028962445
 20
95051.28541022452
 30
0.0
 11
105017.5985209447
 21
95051.28485360396
 31
0.0
  0
LINE
  5
4EAF2
330
1F
100
AcDbEntity
  8
0
100
AcDbLine
 10
105017.5985209447
 20
95051.28485360396
 30
0.0
 11
105017.5952881129
 21
95051.28490059803
 31
0.0
  0
LINE
  5
4EAF3
330
1F
100
AcDbEntity
  8
0
100
AcDbLine
 10
105017.5952881129
 20
95051.28490059803
 30
0.0
 11
105017.5930748069
 21
95051.28541938246
 31
0.0
  0
LINE
  5
4EAF4
330
1F
100
AcDbEntity
  8
0
100
AcDbLine
 10
105017.5930748069
 20
95051.28541938246
 30
0.0
 11
105017.5917580845
 21
95051.28627813297
 31
0.0
  0
LINE
  5
4EAF5
330
1F
100
AcDbEntity
  8
0
100
AcDbLine
 10
105017.5917580845
 20
95051.28627813297
 30
0.0
 11
105017.5912272413
 21
95051.28738570308
 31
0.0
  0
LINE
  5
4EAF6
330
1F
100
AcDbEntity
  8
0
100
AcDbLine
 10
105017.5912272413
 20
95051.28738570308
 30
0.0
 11
105017.591420524
 21
95051.28881365735
 31
0.0
  0
LINE
  5
4EAF7
330
1F
100
AcDbEntity
  8
0
100
AcDbLine
 10
105017.591420524
 20
95051.28881365735
 30
0.0
 11
105017.5922884175
 21
95051.29067423816
 31
0.0
  0
LINE
  5
4EAF8
330
1F
100
AcDbEntity
  8
0
100
AcDbLine
 10
105017.5922884175
 20
95051.29067423816
 30
0.0
 11
105017.5937814064
 21
95051.29307968788
 31
0.0
  0
LINE
  5
4EAF9
330
1F
100
AcDbEntity
  8
0
100
AcDbLine
 10
105017.5937814064
 20
95051.29307968788
 30
0.0
 11
105017.5958499755
 21
95051.29614224889
 31
0.0
  0
LINE
  5
4EAFA
330
1F
100
AcDbEntity
  8
0
100
AcDbLine
 10
105017.5958499755
 20
95051.29614224889
 30
0.0
 11
105017.5984446094
 21
95051.29997416355
 31
0.0
  0
LINE
  5
4EAFB
330
1F
100
AcDbEntity
  8
0
100
AcDbLine
 10
105017.5984446094
 20
95051.29997416355
 30
0.0
 11
105017.6015157928
 21
95051.30468767424
 31
0.0
  0
LINE
  5
4EAFC
330
1F
100
AcDbEntity
  8
0
100
AcDbLine
 10
105017.6015157928
 20
95051.30468767424
 30
0.0
 11
105017.6050140104
 21
95051.3103950233
 31
0.0
  0
LINE
  5
4EAFD
330
1F
100
AcDbEntity
  8
0
100
AcDbLine
 10
105017.6050140104
 20
95051.3103950233
 30
0.0
 11
105017.6089126552
 21
95051.31716363484
 31
0.0
  0
LINE
  5
4EAFE
330
1F
100
AcDbEntity
  8
0
100
AcDbLine
 10
105017.6089126552
 20
95051.31716363484
 30
0.0
 11
105017.6132767531
 21
95051.32488165969
 31
0.0
  0
LINE
  5
4EAFF
330
1F
100
AcDbEntity
  8
0
100
AcDbLine
 10
105017.6132767531
 20
95051.32488165969
 30
0.0
 11
105017.6181942385
 21
95051.33339243041
 31
0.0
  0
LINE
  5
4EB00
330
1F
100
AcDbEntity
  8
0
100
AcDbLine
 10
105017.6181942385
 20
95051.33339243041
 30
0.0
 11
105017.6237530454
 21
95051.34253927955
 31
0.0
  0
LINE
  5
4EB01
330
1F
100
AcDbEntity
  8
0
100
AcDbLine
 10
105017.6237530454
 20
95051.34253927955
 30
0.0
 11
105017.6300411081
 21
95051.35216553966
 31
0.0
  0
LINE
  5
4EB02
330
1F
100
AcDbEntity
  8
0
100
AcDbLine
 10
105017.6300411081
 20
95051.35216553966
 30
0.0
 11
105017.6371463609
 21
95051.36211454331
 31
0.0
  0
LINE
  5
4EB03
330
1F
100
AcDbEntity
  8
0
100
AcDbLine
 10
105017.6371463609
 20
95051.36211454331
 30
0.0
 11
105017.645156738
 21
95051.37222962304
 31
0.0
  0
LINE
  5
4EB04
330
1F
100
AcDbEntity
  8
0
100
AcDbLine
 10
105017.645156738
 20
95051.37222962304
 30
0.0
 11
105017.6541601736
 21
95051.38235411141
 31
0.0
  0
LINE
  5
4EB05
330
1F
100
AcDbEntity
  8
0
100
AcDbLine
 10
105017.6541601736
 20
95051.38235411141
 30
0.0
 11
105017.6642424958
 21
95051.39235000642
 31
0.0
  0
LINE
  5
4EB06
330
1F
100
AcDbEntity
  8
0
100
AcDbLine
 10
105017.6642424958
 20
95051.39235000642
 30
0.0
 11
105017.6754811087
 21
95051.40215396787
 31
0.0
  0
LINE
  5
4EB07
330
1F
100
AcDbEntity
  8
0
100
AcDbLine
 10
105017.6754811087
 20
95051.40215396787
 30
0.0
 11
105017.6879513103
 21
95051.41172132102
 31
0.0
  0
LINE
  5
4EB08
330
1F
100
AcDbEntity
  8
0
100
AcDbLine
 10
105017.6879513103
 20
95051.41172132102
 30
0.0
 11
105017.7017283984
 21
95051.4210073911
 31
0.0
  0
LINE
  5
4EB09
330
1F
100
AcDbEntity
  8
0
100
AcDbLine
 10
105017.7017283984
 20
95051.4210073911
 30
0.0
 11
105017.7168876711
 21
95051.42996750336
 31
0.0
  0
LINE
  5
4EB0A
330
1F
100
AcDbEntity
  8
0
100
AcDbLine
 10
105017.7168876711
 20
95051.42996750336
 30
0.0
 11
105017.7335044264
 21
95051.43855698308
 31
0.0
  0
LINE
  5
4EB0B
330
1F
100
AcDbEntity
  8
0
100
AcDbLine
 10
105017.7335044264
 20
95051.43855698308
 30
0.0
 11
105017.751653962
 21
95051.44673115548
 31
0.0
  0
LINE
  5
4EB0C
330
1F
100
AcDbEntity
  8
0
100
AcDbLine
 10
105017.751653962
 20
95051.44673115548
 30
0.0
 11
105017.7714115761
 21
95051.45444534583
 31
0.0
  0
LINE
  5
4EB0D
330
1F
100
AcDbEntity
  8
0
100
AcDbLine
 10
105017.7714115761
 20
95051.45444534583
 30
0.0
 11
105017.7927553249
 21
95051.46165520436
 31
0.0
  0
LINE
  5
4EB0E
330
1F
100
AcDbEntity
  8
0
100
AcDbLine
 10
105017.7927553249
 20
95051.46165520436
 30
0.0
 11
105017.8152742975
 21
95051.46831768126
 31
0.0
  0
LINE
  5
4EB0F
330
1F
100
AcDbEntity
  8
0
100
AcDbLine
 10
105017.8152742975
 20
95051.46831768126
 30
0.0
 11
105017.8384603413
 21
95051.47439005174
 31
0.0
  0
LINE
  5
4EB10
330
1F
100
AcDbEntity
  8
0
100
AcDbLine
 10
105017.8384603413
 20
95051.47439005174
 30
0.0
 11
105017.8618053039
 21
95051.47982959099
 31
0.0
  0
LINE
  5
4EB11
330
1F
100
AcDbEntity
  8
0
100
AcDbLine
 10
105017.8618053039
 20
95051.47982959099
 30
0.0
 11
105017.8848010326
 21
95051.48459357419
 31
0.0
  0
LINE
  5
4EB12
330
1F
100
AcDbEntity
  8
0
100
AcDbLine
 10
105017.8848010326
 20
95051.48459357419
 30
0.0
 11
105017.9069393749
 21
95051.48863927654
 31
0.0
  0
LINE
  5
4EB13
330
1F
100
AcDbEntity
  8
0
100
AcDbLine
 10
105017.9069393749
 20
95051.48863927654
 30
0.0
 11
105017.9277121782
 21
95051.49192397325
 31
0.0
  0
LINE
  5
4EB14
330
1F
100
AcDbEntity
  8
0
100
AcDbLine
 10
105017.9277121782
 20
95051.49192397325
 30
0.0
 11
105017.94661129
 21
95051.49440493951
 31
0.0
  0
LINE
  5
4EB15
330
1F
100
AcDbEntity
  8
0
100
AcDbLine
 10
105017.94661129
 20
95051.49440493951
 30
0.0
 11
105017.9632453388
 21
95051.49606676987
 31
0.0
  0
LINE
  5
4EB16
330
1F
100
AcDbEntity
  8
0
100
AcDbLine
 10
105017.9632453388
 20
95051.49606676987
 30
0.0
 11
105017.9776900772
 21
95051.49700333639
 31
0.0
  0
LINE
  5
4EB17
330
1F
100
AcDbEntity
  8
0
100
AcDbLine
 10
105017.9776900772
 20
95051.49700333639
 30
0.0
 11
105017.990138039
 21
95051.49733583055
 31
0.0
  0
LINE
  5
4EB18
330
1F
100
AcDbEntity
  8
0
100
AcDbLine
 10
105017.990138039
 20
95051.49733583055
 30
0.0
 11
105018.0007817578
 21
95051.49718544375
 31
0.0
  0
LINE
  5
4EB19
330
1F
100
AcDbEntity
  8
0
100
AcDbLine
 10
105018.0007817578
 20
95051.49718544375
 30
0.0
 11
105018.0098137676
 21
95051.49667336743
 31
0.0
  0
LINE
  5
4EB1A
330
1F
100
AcDbEntity
  8
0
100
AcDbLine
 10
105018.0098137676
 20
95051.49667336743
 30
0.0
 11
105018.0174266019
 21
95051.49592079307
 31
0.0
  0
LINE
  5
4EB1B
330
1F
100
AcDbEntity
  8
0
100
AcDbLine
 10
105018.0174266019
 20
95051.49592079307
 30
0.0
 11
105018.0238127945
 21
95051.49504891207
 31
0.0
  0
LINE
  5
4EB1C
330
1F
100
AcDbEntity
  8
0
100
AcDbLine
 10
105018.0238127945
 20
95051.49504891207
 30
0.0
 11
105018.0291648791
 21
95051.49417891587
 31
0.0
  0
LINE
  5
4EB1D
330
1F
100
AcDbEntity
  8
0
100
AcDbLine
 10
105018.0291648791
 20
95051.49417891587
 30
0.0
 11
105018.0336605953
 21
95051.49340987285
 31
0.0
  0
LINE
  5
4EB1E
330
1F
100
AcDbEntity
  8
0
100
AcDbLine
 10
105018.0336605953
 20
95051.49340987285
 30
0.0
 11
105018.0374185062
 21
95051.49275235909
 31
0.0
  0
LINE
  5
4EB1F
330
1F
100
AcDbEntity
  8
0
100
AcDbLine
 10
105018.0374185062
 20
95051.49275235909
 30
0.0
 11
105018.0405423805
 21
95051.49219482754
 31
0.0
  0
LINE
  5
4EB20
330
1F
100
AcDbEntity
  8
0
100
AcDbLine
 10
105018.0405423805
 20
95051.49219482754
 30
0.0
 11
105018.0431359871
 21
95051.49172573123
 31
0.0
  0
LINE
  5
4EB21
330
1F
100
AcDbEntity
  8
0
100
AcDbLine
 10
105018.0431359871
 20
95051.49172573123
 30
0.0
 11
105018.0453030948
 21
95051.49133352308
 31
0.0
  0
LINE
  5
4EB22
330
1F
100
AcDbEntity
  8
0
100
AcDbLine
 10
105018.0453030948
 20
95051.49133352308
 30
0.0
 11
105018.0471474725
 21
95051.49100665613
 31
0.0
  0
LINE
  5
4EB23
330
1F
100
AcDbEntity
  8
0
100
AcDbLine
 10
105018.0471474725
 20
95051.49100665613
 30
0.0
 11
105018.0487728891
 21
95051.49073358335
 31
0.0
  0
LINE
  5
4EB24
330
1F
100
AcDbEntity
  8
0
100
AcDbLine
 10
105018.0487728891
 20
95051.49073358335
 30
0.0
 11
105018.0502831133
 21
95051.49050275775
 31
0.0
  0
LINE
  5
4EB25
330
1F
100
AcDbEntity
  8
0
100
AcDbLine
 10
105018.0502831133
 20
95051.49050275775
 30
0.0
 11
105018.0517610944
 21
95051.49030334283
 31
0.0
  0
LINE
  5
4EB26
330
1F
100
AcDbEntity
  8
0
100
AcDbLine
 10
105018.0517610944
 20
95051.49030334283
 30
0.0
 11
105018.0532065028
 21
95051.49012734429
 31
0.0
  0
LINE
  5
4EB27
330
1F
100
AcDbEntity
  8
0
100
AcDbLine
 10
105018.0532065028
 20
95051.49012734429
 30
0.0
 11
105018.0545981892
 21
95051.48996747841
 31
0.0
  0
LINE
  5
4EB28
330
1F
100
AcDbEntity
  8
0
100
AcDbLine
 10
105018.0545981892
 20
95051.48996747841
 30
0.0
 11
105018.0559150043
 21
95051.48981646142
 31
0.0
  0
LINE
  5
4EB29
330
1F
100
AcDbEntity
  8
0
100
AcDbLine
 10
105018.0559150043
 20
95051.48981646142
 30
0.0
 11
105018.057135799
 21
95051.48966700957
 31
0.0
  0
LINE
  5
4EB2A
330
1F
100
AcDbEntity
  8
0
100
AcDbLine
 10
105018.057135799
 20
95051.48966700957
 30
0.0
 11
105018.0582394239
 21
95051.48951183912
 31
0.0
  0
LINE
  5
4EB2B
330
1F
100
AcDbEntity
  8
0
100
AcDbLine
 10
105018.0582394239
 20
95051.48951183912
 30
0.0
 11
105018.0592047299
 21
95051.4893436663
 31
0.0
  0
LINE
  5
4EB2C
330
1F
100
AcDbEntity
  8
0
100
AcDbLine
 10
105018.0592047299
 20
95051.4893436663
 30
0.0
 11
105018.0600105676
 21
95051.48915520738
 31
0.0
  0
LINE
  5
4EB2D
330
1F
100
AcDbEntity
  8
0
100
AcDbLine
 10
105018.0600105676
 20
95051.48915520738
 30
0.0
 11
105018.0606401786
 21
95051.48893784078
 31
0.0
  0
LINE
  5
4EB2E
330
1F
100
AcDbEntity
  8
0
100
AcDbLine
 10
105018.0606401786
 20
95051.48893784078
 30
0.0
 11
105018.0610943673
 21
95051.48867759357
 31
0.0
  0
LINE
  5
4EB2F
330
1F
100
AcDbEntity
  8
0
100
AcDbLine
 10
105018.0610943673
 20
95051.48867759357
 30
0.0
 11
105018.0613783288
 21
95051.48835915507
 31
0.0
  0
LINE
  5
4EB30
330
1F
100
AcDbEntity
  8
0
100
AcDbLine
 10
105018.0613783288
 20
95051.48835915507
 30
0.0
 11
105018.0614972584
 21
95051.48796721456
 31
0.0
  0
LINE
  5
4EB31
330
1F
100
AcDbEntity
  8
0
100
AcDbLine
 10
105018.0614972584
 20
95051.48796721456
 30
0.0
 11
105018.0614563513
 21
95051.48748646128
 31
0.0
  0
LINE
  5
4EB32
330
1F
100
AcDbEntity
  8
0
100
AcDbLine
 10
105018.0614563513
 20
95051.48748646128
 30
0.0
 11
105018.0612608026
 21
95051.48690158453
 31
0.0
  0
LINE
  5
4EB33
330
1F
100
AcDbEntity
  8
0
100
AcDbLine
 10
105018.0612608026
 20
95051.48690158453
 30
0.0
 11
105018.0609158075
 21
95051.48619727359
 31
0.0
  0
LINE
  5
4EB34
330
1F
100
AcDbEntity
  8
0
100
AcDbLine
 10
105018.0609158075
 20
95051.48619727359
 30
0.0
 11
105018.0604265612
 21
95051.48535821772
 31
0.0
  0
LINE
  5
4EB35
330
1F
100
AcDbEntity
  8
0
100
AcDbLine
 10
105018.0604265612
 20
95051.48535821772
 30
0.0
 11
105018.0598023173
 21
95051.48437543534
 31
0.0
  0
LINE
  5
4EB36
330
1F
100
AcDbEntity
  8
0
100
AcDbLine
 10
105018.0598023173
 20
95051.48437543534
 30
0.0
 11
105018.0590685632
 21
95051.48326526125
 31
0.0
  0
LINE
  5
4EB37
330
1F
100
AcDbEntity
  8
0
100
AcDbLine
 10
105018.0590685632
 20
95051.48326526125
 30
0.0
 11
105018.0582548446
 21
95051.48205035947
 31
0.0
  0
LINE
  5
4EB38
330
1F
100
AcDbEntity
  8
0
100
AcDbLine
 10
105018.0582548446
 20
95051.48205035947
 30
0.0
 11
105018.0573907072
 21
95051.48075339393
 31
0.0
  0
LINE
  5
4EB39
330
1F
100
AcDbEntity
  8
0
100
AcDbLine
 10
105018.0573907072
 20
95051.48075339393
 30
0.0
 11
105018.0565056968
 21
95051.47939702862
 31
0.0
  0
LINE
  5
4EB3A
330
1F
100
AcDbEntity
  8
0
100
AcDbLine
 10
105018.0565056968
 20
95051.47939702862
 30
0.0
 11
105018.0556293592
 21
95051.47800392746
 31
0.0
  0
LINE
  5
4EB3B
330
1F
100
AcDbEntity
  8
0
100
AcDbLine
 10
105018.0556293592
 20
95051.47800392746
 30
0.0
 11
105018.0547912402
 21
95051.47659675445
 31
0.0
  0
LINE
  5
4EB3C
330
1F
100
AcDbEntity
  8
0
100
AcDbLine
 10
105018.0547912402
 20
95051.47659675445
 30
0.0
 11
105018.0540208855
 21
95051.47519817354
 31
0.0
  0
LINE
  5
4EB3D
330
1F
100
AcDbEntity
  8
0
100
AcDbLine
 10
105018.0540208855
 20
95051.47519817354
 30
0.0
 11
105018.0533360493
 21
95051.47382859146
 31
0.0
  0
LINE
  5
4EB3E
330
1F
100
AcDbEntity
  8
0
100
AcDbLine
 10
105018.0533360493
 20
95051.47382859146
 30
0.0
 11
105018.05270732
 21
95051.47249938602
 31
0.0
  0
LINE
  5
4EB3F
330
1F
100
AcDbEntity
  8
0
100
AcDbLine
 10
105018.05270732
 20
95051.47249938602
 30
0.0
 11
105018.0520934943
 21
95051.47121967775
 31
0.0
  0
LINE
  5
4EB40
330
1F
100
AcDbEntity
  8
0
100
AcDbLine
 10
105018.0520934943
 20
95051.47121967775
 30
0.0
 11
105018.051453369
 21
95051.46999858725
 31
0.0
  0
LINE
  5
4EB41
330
1F
100
AcDbEntity
  8
0
100
AcDbLine
 10
105018.051453369
 20
95051.46999858725
 30
0.0
 11
105018.0507457408
 21
95051.46884523508
 31
0.0
  0
LINE
  5
4EB42
330
1F
100
AcDbEntity
  8
0
100
AcDbLine
 10
105018.0507457408
 20
95051.46884523508
 30
0.0
 11
105018.0499294065
 21
95051.4677687418
 31
0.0
  0
LINE
  5
4EB43
330
1F
100
AcDbEntity
  8
0
100
AcDbLine
 10
105018.0499294065
 20
95051.4677687418
 30
0.0
 11
105018.0489631628
 21
95051.46677822796
 31
0.0
  0
LINE
  5
4EB44
330
1F
100
AcDbEntity
  8
0
100
AcDbLine
 10
105018.0489631628
 20
95051.46677822796
 30
0.0
 11
105018.0478058066
 21
95051.46588281416
 31
0.0
  0
LINE
  5
4EB45
330
1F
100
AcDbEntity
  8
0
100
AcDbLine
 10
105018.0478058066
 20
95051.46588281416
 30
0.0
 11
105018.0464298135
 21
95051.46508264783
 31
0.0
  0
LINE
  5
4EB46
330
1F
100
AcDbEntity
  8
0
100
AcDbLine
 10
105018.0464298135
 20
95051.46508264783
 30
0.0
 11
105018.0448623744
 21
95051.46434198396
 31
0.0
  0
LINE
  5
4EB47
330
1F
100
AcDbEntity
  8
0
100
AcDbLine
 10
105018.0448623744
 20
95051.46434198396
 30
0.0
 11
105018.0431443591
 21
95051.46361610451
 31
0.0
  0
LINE
  5
4EB48
330
1F
100
AcDbEntity
  8
0
100
AcDbLine
 10
105018.0431443591
 20
95051.46361610451
 30
0.0
 11
105018.0413166376
 21
95051.46286029134
 31
0.0
  0
LINE
  5
4EB49
330
1F
100
AcDbEntity
  8
0
100
AcDbLine
 10
105018.0413166376
 20
95051.46286029134
 30
0.0
 11
105018.0394200795
 21
95051.46202982638
 31
0.0
  0
LINE
  5
4EB4A
330
1F
100
AcDbEntity
  8
0
100
AcDbLine
 10
105018.0394200795
 20
95051.46202982638
 30
0.0
 11
105018.0374955548
 21
95051.46107999152
 31
0.0
  0
LINE
  5
4EB4B
330
1F
100
AcDbEntity
  8
0
100
AcDbLine
 10
105018.0374955548
 20
95051.46107999152
 30
0.0
 11
105018.0355839333
 21
95051.4599660687
 31
0.0
  0
LINE
  5
4EB4C
330
1F
100
AcDbEntity
  8
0
100
AcDbLine
 10
105018.0355839333
 20
95051.4599660687
 30
0.0
 11
105018.0337260848
 21
95051.45864333977
 31
0.0
  0
LINE
  5
4EB4D
330
1F
100
AcDbEntity
  8
0
100
AcDbLine
 10
105018.0337260848
 20
95051.45864333977
 30
0.0
 11
105018.0319565406
 21
95051.4570862319
 31
0.0
  0
LINE
  5
4EB4E
330
1F
100
AcDbEntity
  8
0
100
AcDbLine
 10
105018.0319565406
 20
95051.4570862319
 30
0.0
 11
105018.0302844773
 21
95051.45534575321
 31
0.0
  0
LINE
  5
4EB4F
330
1F
100
AcDbEntity
  8
0
100
AcDbLine
 10
105018.0302844773
 20
95051.45534575321
 30
0.0
 11
105018.0287127332
 21
95051.45349205706
 31
0.0
  0
LINE
  5
4EB50
330
1F
100
AcDbEntity
  8
0
100
AcDbLine
 10
105018.0287127332
 20
95051.45349205706
 30
0.0
 11
105018.0272441465
 21
95051.45159529677
 31
0.0
  0
LINE
  5
4EB51
330
1F
100
AcDbEntity
  8
0
100
AcDbLine
 10
105018.0272441465
 20
95051.45159529677
 30
0.0
 11
105018.0258815554
 21
95051.44972562572
 31
0.0
  0
LINE
  5
4EB52
330
1F
100
AcDbEntity
  8
0
100
AcDbLine
 10
105018.0258815554
 20
95051.44972562572
 30
0.0
 11
105018.024627798
 21
95051.44795319726
 31
0.0
  0
LINE
  5
4EB53
330
1F
100
AcDbEntity
  8
0
100
AcDbLine
 10
105018.024627798
 20
95051.44795319726
 30
0.0
 11
105018.0234857125
 21
95051.44634816472
 31
0.0
  0
LINE
  5
4EB54
330
1F
100
AcDbEntity
  8
0
100
AcDbLine
 10
105018.0234857125
 20
95051.44634816472
 30
0.0
 11
105018.0224581371
 21
95051.44498068149
 31
0.0
  0
LINE
  5
4EB55
330
1F
100
AcDbEntity
  8
0
100
AcDbLine
 10
105018.0224581371
 20
95051.44498068149
 30
0.0
 11
105018.0215462399
 21
95051.44389783296
 31
0.0
  0
LINE
  5
4EB56
330
1F
100
AcDbEntity
  8
0
100
AcDbLine
 10
105018.0215462399
 20
95051.44389783296
 30
0.0
 11
105018.0207445087
 21
95051.4430544327
 31
0.0
  0
LINE
  5
4EB57
330
1F
100
AcDbEntity
  8
0
100
AcDbLine
 10
105018.0207445087
 20
95051.4430544327
 30
0.0
 11
105018.0200457612
 21
95051.44238222637
 31
0.0
  0
LINE
  5
4EB58
330
1F
100
AcDbEntity
  8
0
100
AcDbLine
 10
105018.0200457612
 20
95051.44238222637
 30
0.0
 11
105018.019442815
 21
95051.4418129596
 31
0.0
  0
LINE
  5
4EB59
330
1F
100
AcDbEntity
  8
0
100
AcDbLine
 10
105018.019442815
 20
95051.4418129596
 30
0.0
 11
105018.0189284879
 21
95051.44127837803
 31
0.0
  0
LINE
  5
4EB5A
330
1F
100
AcDbEntity
  8
0
100
AcDbLine
 10
105018.0189284879
 20
95051.44127837803
 30
0.0
 11
105018.0184955976
 21
95051.44071022733
 31
0.0
  0
LINE
  5
4EB5B
330
1F
100
AcDbEntity
  8
0
100
AcDbLine
 10
105018.0184955976
 20
95051.44071022733
 30
0.0
 11
105018.0181369618
 21
95051.44004025313
 31
0.0
  0
LINE
  5
4EB5C
330
1F
100
AcDbEntity
  8
0
100
AcDbLine
 10
105018.0181369618
 20
95051.44004025313
 30
0.0
 11
105018.0178453981
 21
95051.43920020104
 31
0.0
  0
LINE
  5
4EB5D
330
1F
100
AcDbEntity
  8
0
100
AcDbLine
 10
105018.0178453981
 20
95051.43920020104
 30
0.0
 11
105018.0175938701
 21
95051.43811943458
 31
0.0
  0
LINE
  5
4EB5E
330
1F
100
AcDbEntity
  8
0
100
AcDbLine
 10
105018.0175938701
 20
95051.43811943458
 30
0.0
 11
105018.0172759242
 21
95051.43671778849
 31
0.0
  0
LINE
  5
4EB5F
330
1F
100
AcDbEntity
  8
0
100
AcDbLine
 10
105018.0172759242
 20
95051.43671778849
 30
0.0
 11
105018.0167652524
 21
95051.43491271541
 31
0.0
  0
LINE
  5
4EB60
330
1F
100
AcDbEntity
  8
0
100
AcDbLine
 10
105018.0167652524
 20
95051.43491271541
 30
0.0
 11
105018.0159355471
 21
95051.43262166797
 31
0.0
  0
LINE
  5
4EB61
330
1F
100
AcDbEntity
  8
0
100
AcDbLine
 10
105018.0159355471
 20
95051.43262166797
 30
0.0
 11
105018.0146605002
 21
95051.42976209874
 31
0.0
  0
LINE
  5
4EB62
330
1F
100
AcDbEntity
  8
0
100
AcDbLine
 10
105018.0146605002
 20
95051.42976209874
 30
0.0
 11
105018.012813804
 21
95051.42625146039
 31
0.0
  0
LINE
  5
4EB63
330
1F
100
AcDbEntity
  8
0
100
AcDbLine
 10
105018.012813804
 20
95051.42625146039
 30
0.0
 11
105018.0102691507
 21
95051.42200720552
 31
0.0
  0
LINE
  5
4EB64
330
1F
100
AcDbEntity
  8
0
100
AcDbLine
 10
105018.0102691507
 20
95051.42200720552
 30
0.0
 11
105018.0069002324
 21
95051.41694678671
 31
0.0
  0
LINE
  5
4EB65
330
1F
100
AcDbEntity
  8
0
100
AcDbLine
 10
105018.0069002324
 20
95051.41694678671
 30
0.0
 11
105018.0025703654
 21
95051.4110246871
 31
0.0
  0
LINE
  5
4EB66
330
1F
100
AcDbEntity
  8
0
100
AcDbLine
 10
105018.0025703654
 20
95051.4110246871
 30
0.0
 11
105017.9971013628
 21
95051.40434351163
 31
0.0
  0
LINE
  5
4EB67
330
1F
100
AcDbEntity
  8
0
100
AcDbLine
 10
105017.9971013628
 20
95051.40434351163
 30
0.0
 11
105017.9903046617
 21
95051.3970428957
 31
0.0
  0
LINE
  5
4EB68
330
1F
100
AcDbEntity
  8
0
100
AcDbLine
 10
105017.9903046617
 20
95051.3970428957
 30
0.0
 11
105017.9819916993
 21
95051.38926247473
 31
0.0
  0
LINE
  5
4EB69
330
1F
100
AcDbEntity
  8
0
100
AcDbLine
 10
105017.9819916993
 20
95051.38926247473
 30
0.0
 11
105017.9719739129
 21
95051.38114188419
 31
0.0
  0
LINE
  5
4EB6A
330
1F
100
AcDbEntity
  8
0
100
AcDbLine
 10
105017.9719739129
 20
95051.38114188419
 30
0.0
 11
105017.9600627396
 21
95051.37282075942
 31
0.0
  0
LINE
  5
4EB6B
330
1F
100
AcDbEntity
  8
0
100
AcDbLine
 10
105017.9600627396
 20
95051.37282075942
 30
0.0
 11
105017.9460696167
 21
95051.36443873592
 31
0.0
  0
LINE
  5
4EB6C
330
1F
100
AcDbEntity
  8
0
100
AcDbLine
 10
105017.9460696167
 20
95051.36443873592
 30
0.0
 11
105017.9298059812
 21
95051.35613544906
 31
0.0
  0
LINE
  5
4EB6D
330
1F
100
AcDbEntity
  8
0
100
AcDbLine
 10
105017.9298059812
 20
95051.35613544906
 30
0.0
 11
105017.9112013844
 21
95051.34804122397
 31
0.0
  0
LINE
  5
4EB6E
330
1F
100
AcDbEntity
  8
0
100
AcDbLine
 10
105017.9112013844
 20
95051.34804122397
 30
0.0
 11
105017.8906578329
 21
95051.3402491445
 31
0.0
  0
LINE
  5
4EB6F
330
1F
100
AcDbEntity
  8
0
100
AcDbLine
 10
105017.8906578329
 20
95051.3402491445
 30
0.0
 11
105017.8686954473
 21
95051.3328429842
 31
0.0
  0
LINE
  5
4EB70
330
1F
100
AcDbEntity
  8
0
100
AcDbLine
 10
105017.8686954473
 20
95051.3328429842
 30
0.0
 11
105017.8458343483
 21
95051.32590651658
 31
0.0
  0
LINE
  5
4EB71
330
1F
100
AcDbEntity
  8
0
100
AcDbLine
 10
105017.8458343483
 20
95051.32590651658
 30
0.0
 11
105017.8225946564
 21
95051.31952351524
 31
0.0
  0
LINE
  5
4EB72
330
1F
100
AcDbEntity
  8
0
100
AcDbLine
 10
105017.8225946564
 20
95051.31952351524
 30
0.0
 11
105017.7994964923
 21
95051.31377775368
 31
0.0
  0
LINE
  5
4EB73
330
1F
100
AcDbEntity
  8
0
100
AcDbLine
 10
105017.7994964923
 20
95051.31377775368
 30
0.0
 11
105017.7770599767
 21
95051.30875300546
 31
0.0
  0
LINE
  5
4EB74
330
1F
100
AcDbEntity
  8
0
100
AcDbLine
 10
105017.7770599767
 20
95051.30875300546
 30
0.0
 11
105017.75580523
 21
95051.30453304412
 31
0.0
  0
LINE
  5
4EB75
330
1F
100
AcDbEntity
  8
0
100
AcDbLine
 10
105017.75580523
 20
95051.30453304412
 30
0.0
 11
105017.7361621153
 21
95051.30117271177
 31
0.0
  0
LINE
  5
4EB76
330
1F
100
AcDbEntity
  8
0
100
AcDbLine
 10
105017.7361621153
 20
95051.30117271177
 30
0.0
 11
105017.7181994654
 21
95051.29861112488
 31
0.0
  0
LINE
  5
4EB77
330
1F
100
AcDbEntity
  8
0
100
AcDbLine
 10
105017.7181994654
 20
95051.29861112488
 30
0.0
 11
105017.7018958552
 21
95051.29675846841
 31
0.0
  0
LINE
  5
4EB78
330
1F
100
AcDbEntity
  8
0
100
AcDbLine
 10
105017.7018958552
 20
95051.29675846841
 30
0.0
 11
105017.6872298598
 21
95051.29552492741
 31
0.0
  0
LINE
  5
4EB79
330
1F
100
AcDbEntity
  8
0
100
AcDbLine
 10
105017.6872298598
 20
95051.29552492741
 30
0.0
 11
105017.6741800544
 21
95051.29482068689
 31
0.0
  0
LINE
  5
4EB7A
330
1F
100
AcDbEntity
  8
0
100
AcDbLine
 10
105017.6741800544
 20
95051.29482068689
 30
0.0
 11
105017.6627250139
 21
95051.29455593186
 31
0.0
  0
LINE
  5
4EB7B
330
1F
100
AcDbEntity
  8
0
100
AcDbLine
 10
105017.6627250139
 20
95051.29455593186
 30
0.0
 11
105017.6528433134
 21
95051.29464084733
 31
0.0
  0
LINE
  5
4EB7C
330
1F
100
AcDbEntity
  8
0
100
AcDbLine
 10
105017.6528433134
 20
95051.29464084733
 30
0.0
 11
105017.6445135281
 21
95051.29498561833
 31
0.0
  0
LINE
  5
4EB7D
330
1F
100
AcDbEntity
  8
0
100
AcDbLine
 10
105017.6445135281
 20
95051.29498561833
 30
0.0
 11
105017.6376211328
 21
95051.29547647898
 31
0.0
  0
LINE
  5
4EB7E
330
1F
100
AcDbEntity
  8
0
100
AcDbLine
 10
105017.6376211328
 20
95051.29547647898
 30
0.0
 11
105017.6316792017
 21
95051.29590386014
 31
0.0
  0
LINE
  5
4EB7F
330
1F
100
AcDbEntity
  8
0
100
AcDbLine
 10
105017.6316792017
 20
95051.29590386014
 30
0.0
 11
105017.6261077089
 21
95051.29603424169
 31
0.0
  0
LINE
  5
4EB80
330
1F
100
AcDbEntity
  8
0
100
AcDbLine
 10
105017.6261077089
 20
95051.29603424169
 30
0.0
 11
105017.6203266284
 21
95051.29563410362
 31
0.0
  0
LINE
  5
4EB81
330
1F
100
AcDbEntity
  8
0
100
AcDbLine
 10
105017.6203266284
 20
95051.29563410362
 30
0.0
 11
105017.6137559343
 21
95051.29446992583
 31
0.0
  0
LINE
  5
4EB82
330
1F
100
AcDbEntity
  8
0
100
AcDbLine
 10
105017.6137559343
 20
95051.29446992583
 30
0.0
 11
105017.6058156005
 21
95051.2923081883
 31
0.0
  0
LINE
  5
4EB83
330
1F
100
AcDbEntity
  8
0
100
AcDbLine
 10
105017.6058156005
 20
95051.2923081883
 30
0.0
 11
105017.5959256012
 21
95051.28891537095
 31
0.0
  0
LINE
  5
4EB84
330
1F
100
AcDbEntity
  8
0
100
AcDbLine
 10
105017.5959256012
 20
95051.28891537095
 30
0.0
 11
105017.5835059104
 21
95051.28405795375
 31
0.0
  0
LINE
  5
4EB85
330
1F
100
AcDbEntity
  8
0
100
AcDbLine
 10
105019.9427080576
 20
95050.71140953269
 30
0.0
 11
105019.9225734696
 21
95050.7312713538
 31
0.0
  0
LINE
  5
4EB86
330
1F
100
AcDbEntity
  8
0
100
AcDbLine
 10
105019.9225734696
 20
95050.7312713538
 30
0.0
 11
105019.9037515528
 21
95050.7480141921
 31
0.0
  0
LINE
  5
4EB87
330
1F
100
AcDbEntity
  8
0
100
AcDbLine
 10
105019.9037515528
 20
95050.7480141921
 30
0.0
 11
105019.886101916
 21
95050.76226702605
 31
0.0
  0
LINE
  5
4EB88
330
1F
100
AcDbEntity
  8
0
100
AcDbLine
 10
105019.886101916
 20
95050.76226702605
 30
0.0
 11
105019.8694841682
 21
95050.77465883413
 31
0.0
  0
LINE
  5
4EB89
330
1F
100
AcDbEntity
  8
0
100
AcDbLine
 10
105019.8694841682
 20
95050.77465883413
 30
0.0
 11
105019.8537579181
 21
95050.78581859477
 31
0.0
  0
LINE
  5
4EB8A
330
1F
100
AcDbEntity
  8
0
100
AcDbLine
 10
105019.8537579181
 20
95050.78581859477
 30
0.0
 11
105019.8387827747
 21
95050.79637528645
 31
0.0
  0
LINE
  5
4EB8B
330
1F
100
AcDbEntity
  8
0
100
AcDbLine
 10
105019.8387827747
 20
95050.79637528645
 30
0.0
 11
105019.8244183468
 21
95050.80695788761
 31
0.0
  0
LINE
  5
4EB8C
330
1F
100
AcDbEntity
  8
0
100
AcDbLine
 10
105019.8244183468
 20
95050.80695788761
 30
0.0
 11
105019.8105242432
 21
95050.8181953767
 31
0.0
  0
LINE
  5
4EB8D
330
1F
100
AcDbEntity
  8
0
100
AcDbLine
 10
105019.8105242432
 20
95050.8181953767
 30
0.0
 11
105019.7969666371
 21
95050.83057430686
 31
0.0
  0
LINE
  5
4EB8E
330
1F
100
AcDbEntity
  8
0
100
AcDbLine
 10
105019.7969666371
 20
95050.83057430686
 30
0.0
 11
105019.7836379584
 21
95050.84401152977
 31
0.0
  0
LINE
  5
4EB8F
330
1F
100
AcDbEntity
  8
0
100
AcDbLine
 10
105019.7836379584
 20
95050.84401152977
 30
0.0
 11
105019.7704372011
 21
95050.85828147182
 31
0.0
  0
LINE
  5
4EB90
330
1F
100
AcDbEntity
  8
0
100
AcDbLine
 10
105019.7704372011
 20
95050.85828147182
 30
0.0
 11
105019.7572633595
 21
95050.87315855933
 31
0.0
  0
LINE
  5
4EB91
330
1F
100
AcDbEntity
  8
0
100
AcDbLine
 10
105019.7572633595
 20
95050.87315855933
 30
0.0
 11
105019.7440154276
 21
95050.88841721866
 31
0.0
  0
LINE
  5
4EB92
330
1F
100
AcDbEntity
  8
0
100
AcDbLine
 10
105019.7440154276
 20
95050.88841721866
 30
0.0
 11
105019.7305923996
 21
95050.90383187617
 31
0.0
  0
LINE
  5
4EB93
330
1F
100
AcDbEntity
  8
0
100
AcDbLine
 10
105019.7305923996
 20
95050.90383187617
 30
0.0
 11
105019.7168932696
 21
95050.91917695823
 31
0.0
  0
LINE
  5
4EB94
330
1F
100
AcDbEntity
  8
0
100
AcDbLine
 10
105019.7168932696
 20
95050.91917695823
 30
0.0
 11
105019.7028170316
 21
95050.93422689119
 31
0.0
  0
LINE
  5
4EB95
330
1F
100
AcDbEntity
  8
0
100
AcDbLine
 10
105019.7028170316
 20
95050.93422689119
 30
0.0
 11
105019.6883279854
 21
95050.94878111165
 31
0.0
  0
LINE
  5
4EB96
330
1F
100
AcDbEntity
  8
0
100
AcDbLine
 10
105019.6883279854
 20
95050.94878111165
 30
0.0
 11
105019.6736516524
 21
95050.96273909714
 31
0.0
  0
LINE
  5
4EB97
330
1F
100
AcDbEntity
  8
0
100
AcDbLine
 10
105019.6736516524
 20
95050.96273909714
 30
0.0
 11
105019.6590788597
 21
95050.97602533547
 31
0.0
  0
LINE
  5
4EB98
330
1F
100
AcDbEntity
  8
0
100
AcDbLine
 10
105019.6590788597
 20
95050.97602533547
 30
0.0
 11
105019.6449004341
 21
95050.98856431439
 31
0.0
  0
LINE
  5
4EB99
330
1F
100
AcDbEntity
  8
0
100
AcDbLine
 10
105019.6449004341
 20
95050.98856431439
 30
0.0
 11
105019.6314072027
 21
95051.00028052172
 31
0.0
  0
LINE
  5
4EB9A
330
1F
100
AcDbEntity
  8
0
100
AcDbLine
 10
105019.6314072027
 20
95051.00028052172
 30
0.0
 11
105019.6188899924
 21
95051.01109844522
 31
0.0
  0
LINE
  5
4EB9B
330
1F
100
AcDbEntity
  8
0
100
AcDbLine
 10
105019.6188899924
 20
95051.01109844522
 30
0.0
 11
105019.6076396304
 21
95051.02094257267
 31
0.0
  0
LINE
  5
4EB9C
330
1F
100
AcDbEntity
  8
0
100
AcDbLine
 10
105019.6076396304
 20
95051.02094257267
 30
0.0
 11
105019.5979469435
 21
95051.02973739186
 31
0.0
  0
LINE
  5
4EB9D
330
1F
100
AcDbEntity
  8
0
100
AcDbLine
 10
105019.5979469435
 20
95051.02973739186
 30
0.0
 11
105019.5900260612
 21
95051.03743026376
 31
0.0
  0
LINE
  5
4EB9E
330
1F
100
AcDbEntity
  8
0
100
AcDbLine
 10
105019.5900260612
 20
95051.03743026376
 30
0.0
 11
105019.5837843227
 21
95051.0440600421
 31
0.0
  0
LINE
  5
4EB9F
330
1F
100
AcDbEntity
  8
0
100
AcDbLine
 10
105019.5837843227
 20
95051.0440600421
 30
0.0
 11
105019.5790523699
 21
95051.04968845385
 31
0.0
  0
LINE
  5
4EBA0
330
1F
100
AcDbEntity
  8
0
100
AcDbLine
 10
105019.5790523699
 20
95051.04968845385
 30
0.0
 11
105019.5756608444
 21
95051.0543772259
 31
0.0
  0
LINE
  5
4EBA1
330
1F
100
AcDbEntity
  8
0
100
AcDbLine
 10
105019.5756608444
 20
95051.0543772259
 30
0.0
 11
105019.573440388
 21
95051.05818808516
 31
0.0
  0
LINE
  5
4EBA2
330
1F
100
AcDbEntity
  8
0
100
AcDbLine
 10
105019.573440388
 20
95051.05818808516
 30
0.0
 11
105019.5722216424
 21
95051.06118275858
 31
0.0
  0
LINE
  5
4EBA3
330
1F
100
AcDbEntity
  8
0
100
AcDbLine
 10
105019.5722216424
 20
95051.06118275858
 30
0.0
 11
105019.5718352493
 21
95051.06342297308
 31
0.0
  0
LINE
  5
4EBA4
330
1F
100
AcDbEntity
  8
0
100
AcDbLine
 10
105019.5718352493
 20
95051.06342297308
 30
0.0
 11
105019.5721118505
 21
95051.06497045558
 31
0.0
  0
LINE
  5
4EBA5
330
1F
100
AcDbEntity
  8
0
100
AcDbLine
 10
105019.5721118505
 20
95051.06497045558
 30
0.0
 11
105019.5729243154
 21
95051.0658915457
 31
0.0
  0
LINE
  5
4EBA6
330
1F
100
AcDbEntity
  8
0
100
AcDbLine
 10
105019.5729243154
 20
95051.0658915457
 30
0.0
 11
105019.5743144234
 21
95051.06627103376
 31
0.0
  0
LINE
  5
4EBA7
330
1F
100
AcDbEntity
  8
0
100
AcDbLine
 10
105019.5743144234
 20
95051.06627103376
 30
0.0
 11
105019.576366182
 21
95051.06619832277
 31
0.0
  0
LINE
  5
4EBA8
330
1F
100
AcDbEntity
  8
0
100
AcDbLine
 10
105019.576366182
 20
95051.06619832277
 30
0.0
 11
105019.5791635983
 21
95051.06576281574
 31
0.0
  0
LINE
  5
4EBA9
330
1F
100
AcDbEntity
  8
0
100
AcDbLine
 10
105019.5791635983
 20
95051.06576281574
 30
0.0
 11
105019.5827906795
 21
95051.06505391569
 31
0.0
  0
LINE
  5
4EBAA
330
1F
100
AcDbEntity
  8
0
100
AcDbLine
 10
105019.5827906795
 20
95051.06505391569
 30
0.0
 11
105019.587331433
 21
95051.06416102561
 31
0.0
  0
LINE
  5
4EBAB
330
1F
100
AcDbEntity
  8
0
100
AcDbLine
 10
105019.587331433
 20
95051.06416102561
 30
0.0
 11
105019.5928698659
 21
95051.06317354853
 31
0.0
  0
LINE
  5
4EBAC
330
1F
100
AcDbEntity
  8
0
100
AcDbLine
 10
105019.5928698659
 20
95051.06317354853
 30
0.0
 11
105019.5994899856
 21
95051.06218088743
 31
0.0
  0
LINE
  5
4EBAD
330
1F
100
AcDbEntity
  8
0
100
AcDbLine
 10
105019.5994899856
 20
95051.06218088743
 30
0.0
 11
105019.6072434796
 21
95051.06123385884
 31
0.0
  0
LINE
  5
4EBAE
330
1F
100
AcDbEntity
  8
0
100
AcDbLine
 10
105019.6072434796
 20
95051.06123385884
 30
0.0
 11
105019.6160527579
 21
95051.06022893324
 31
0.0
  0
LINE
  5
4EBAF
330
1F
100
AcDbEntity
  8
0
100
AcDbLine
 10
105019.6160527579
 20
95051.06022893324
 30
0.0
 11
105019.6258079105
 21
95051.05902399465
 31
0.0
  0
LINE
  5
4EBB0
330
1F
100
AcDbEntity
  8
0
100
AcDbLine
 10
105019.6258079105
 20
95051.05902399465
 30
0.0
 11
105019.6363990278
 21
95051.05747692702
 31
0.0
  0
LINE
  5
4EBB1
330
1F
100
AcDbEntity
  8
0
100
AcDbLine
 10
105019.6363990278
 20
95051.05747692702
 30
0.0
 11
105019.6477162
 21
95051.05544561434
 31
0.0
  0
LINE
  5
4EBB2
330
1F
100
AcDbEntity
  8
0
100
AcDbLine
 10
105019.6477162
 20
95051.05544561434
 30
0.0
 11
105019.6596495173
 21
95051.05278794065
 31
0.0
  0
LINE
  5
4EBB3
330
1F
100
AcDbEntity
  8
0
100
AcDbLine
 10
105019.6596495173
 20
95051.05278794065
 30
0.0
 11
105019.6720890699
 21
95051.04936178987
 31
0.0
  0
LINE
  5
4EBB4
330
1F
100
AcDbEntity
  8
0
100
AcDbLine
 10
105019.6720890699
 20
95051.04936178987
 30
0.0
 11
105019.6849249481
 21
95051.04502504606
 31
0.0
  0
LINE
  5
4EBB5
330
1F
100
AcDbEntity
  8
0
100
AcDbLine
 10
105019.6849249481
 20
95051.04502504606
 30
0.0
 11
105019.6980636045
 21
95051.03964481859
 31
0.0
  0
LINE
  5
4EBB6
330
1F
100
AcDbEntity
  8
0
100
AcDbLine
 10
105019.6980636045
 20
95051.03964481859
 30
0.0
 11
105019.7114769409
 21
95051.03312511867
 31
0.0
  0
LINE
  5
4EBB7
330
1F
100
AcDbEntity
  8
0
100
AcDbLine
 10
105019.7114769409
 20
95051.03312511867
 30
0.0
 11
105019.7251532215
 21
95051.02537918288
 31
0.0
  0
LINE
  5
4EBB8
330
1F
100
AcDbEntity
  8
0
100
AcDbLine
 10
105019.7251532215
 20
95051.02537918288
 30
0.0
 11
105019.7390807106
 21
95051.01632024782
 31
0.0
  0
LINE
  5
4EBB9
330
1F
100
AcDbEntity
  8
0
100
AcDbLine
 10
105019.7390807106
 20
95051.01632024782
 30
0.0
 11
105019.7532476722
 21
95051.00586155011
 31
0.0
  0
LINE
  5
4EBBA
330
1F
100
AcDbEntity
  8
0
100
AcDbLine
 10
105019.7532476722
 20
95051.00586155011
 30
0.0
 11
105019.7676423707
 21
95050.99391632633
 31
0.0
  0
LINE
  5
4EBBB
330
1F
100
AcDbEntity
  8
0
100
AcDbLine
 10
105019.7676423707
 20
95050.99391632633
 30
0.0
 11
105019.7822530702
 21
95050.98039781312
 31
0.0
  0
LINE
  5
4EBBC
330
1F
100
AcDbEntity
  8
0
100
AcDbLine
 10
105019.7822530702
 20
95050.98039781312
 30
0.0
 11
105019.797068035
 21
95050.96521924706
 31
0.0
  0
LINE
  5
4EBBD
330
1F
100
AcDbEntity
  8
0
100
AcDbLine
 10
105019.797068035
 20
95050.96521924706
 30
0.0
 11
105019.8120378678
 21
95050.94838351789
 31
0.0
  0
LINE
  5
4EBBE
330
1F
100
AcDbEntity
  8
0
100
AcDbLine
 10
105019.8120378678
 20
95050.94838351789
 30
0.0
 11
105019.826962526
 21
95050.93025212792
 31
0.0
  0
LINE
  5
4EBBF
330
1F
100
AcDbEntity
  8
0
100
AcDbLine
 10
105019.826962526
 20
95050.93025212792
 30
0.0
 11
105019.8416043055
 21
95050.91127623257
 31
0.0
  0
LINE
  5
4EBC0
330
1F
100
AcDbEntity
  8
0
100
AcDbLine
 10
105019.8416043055
 20
95050.91127623257
 30
0.0
 11
105019.8557255024
 21
95050.89190698726
 31
0.0
  0
LINE
  5
4EBC1
330
1F
100
AcDbEntity
  8
0
100
AcDbLine
 10
105019.8557255024
 20
95050.89190698726
 30
0.0
 11
105019.8690884125
 21
95050.87259554743
 31
0.0
  0
LINE
  5
4EBC2
330
1F
100
AcDbEntity
  8
0
100
AcDbLine
 10
105019.8690884125
 20
95050.87259554743
 30
0.0
 11
105019.8814553318
 21
95050.85379306853
 31
0.0
  0
LINE
  5
4EBC3
330
1F
100
AcDbEntity
  8
0
100
AcDbLine
 10
105019.8814553318
 20
95050.85379306853
 30
0.0
 11
105019.8925885563
 21
95050.83595070596
 31
0.0
  0
LINE
  5
4EBC4
330
1F
100
AcDbEntity
  8
0
100
AcDbLine
 10
105019.8925885563
 20
95050.83595070596
 30
0.0
 11
105019.902250382
 21
95050.81951961514
 31
0.0
  0
LINE
  5
4EBC5
330
1F
100
AcDbEntity
  8
0
100
AcDbLine
 10
105019.902250382
 20
95050.81951961514
 30
0.0
 11
105019.9102738448
 21
95050.80485410102
 31
0.0
  0
LINE
  5
4EBC6
330
1F
100
AcDbEntity
  8
0
100
AcDbLine
 10
105019.9102738448
 20
95050.80485410102
 30
0.0
 11
105019.9167749403
 21
95050.79192106654
 31
0.0
  0
LINE
  5
4EBC7
330
1F
100
AcDbEntity
  8
0
100
AcDbLine
 10
105019.9167749403
 20
95050.79192106654
 30
0.0
 11
105019.9219404045
 21
95050.78059056414
 31
0.0
  0
LINE
  5
4EBC8
330
1F
100
AcDbEntity
  8
0
100
AcDbLine
 10
105019.9219404045
 20
95050.78059056414
 30
0.0
 11
105019.9259569729
 21
95050.77073264619
 31
0.0
  0
LINE
  5
4EBC9
330
1F
100
AcDbEntity
  8
0
100
AcDbLine
 10
105019.9259569729
 20
95050.77073264619
 30
0.0
 11
105019.9290113813
 21
95050.76221736514
 31
0.0
  0
LINE
  5
4EBCA
330
1F
100
AcDbEntity
  8
0
100
AcDbLine
 10
105019.9290113813
 20
95050.76221736514
 30
0.0
 11
105019.9312903655
 21
95050.75491477347
 31
0.0
  0
LINE
  5
4EBCB
330
1F
100
AcDbEntity
  8
0
100
AcDbLine
 10
105019.9312903655
 20
95050.75491477347
 30
0.0
 11
105019.9329806611
 21
95050.74869492355
 31
0.0
  0
LINE
  5
4EBCC
330
1F
100
AcDbEntity
  8
0
100
AcDbLine
 10
105019.9329806611
 20
95050.74869492355
 30
0.0
 11
105019.9342690039
 21
95050.74342786782
 31
0.0
  0
LINE
  5
4EBCD
330
1F
100
AcDbEntity
  8
0
100
AcDbLine
 10
105019.9342690039
 20
95050.74342786782
 30
0.0
 11
105019.9353159866
 21
95050.7389886428
 31
0.0
  0
LINE
  5
4EBCE
330
1F
100
AcDbEntity
  8
0
100
AcDbLine
 10
105019.9353159866
 20
95050.7389886428
 30
0.0
 11
105019.93617763
 21
95050.73527222126
 31
0.0
  0
LINE
  5
4EBCF
330
1F
100
AcDbEntity
  8
0
100
AcDbLine
 10
105019.93617763
 20
95050.73527222126
 30
0.0
 11
105019.9368838118
 21
95050.73217856013
 31
0.0
  0
LINE
  5
4EBD0
330
1F
100
AcDbEntity
  8
0
100
AcDbLine
 10
105019.9368838118
 20
95050.73217856013
 30
0.0
 11
105019.9374644097
 21
95050.72960761619
 31
0.0
  0
LINE
  5
4EBD1
330
1F
100
AcDbEntity
  8
0
100
AcDbLine
 10
105019.9374644097
 20
95050.72960761619
 30
0.0
 11
105019.9379493015
 21
95050.72745934642
 31
0.0
  0
LINE
  5
4EBD2
330
1F
100
AcDbEntity
  8
0
100
AcDbLine
 10
105019.9379493015
 20
95050.72745934642
 30
0.0
 11
105019.938368365
 21
95050.72563370763
 31
0.0
  0
LINE
  5
4EBD3
330
1F
100
AcDbEntity
  8
0
100
AcDbLine
 10
105019.938368365
 20
95050.72563370763
 30
0.0
 11
105019.9387514779
 21
95050.72403065669
 31
0.0
  0
LINE
  5
4EBD4
330
1F
100
AcDbEntity
  8
0
100
AcDbLine
 10
105019.9387514779
 20
95050.72403065669
 30
0.0
 11
105019.9391285178
 21
95050.72255015051
 31
0.0
  0
LINE
  5
4EBD5
330
1F
100
AcDbEntity
  8
0
100
AcDbLine
 10
105019.9391285178
 20
95050.72255015051
 30
0.0
 11
105019.9395218894
 21
95050.72111159108
 31
0.0
  0
LINE
  5
4EBD6
330
1F
100
AcDbEntity
  8
0
100
AcDbLine
 10
105019.9395218894
 20
95050.72111159108
 30
0.0
 11
105019.9399241039
 21
95050.71971216109
 31
0.0
  0
LINE
  5
4EBD7
330
1F
100
AcDbEntity
  8
0
100
AcDbLine
 10
105019.9399241039
 20
95050.71971216109
 30
0.0
 11
105019.9403201995
 21
95050.71836848836
 31
0.0
  0
LINE
  5
4EBD8
330
1F
100
AcDbEntity
  8
0
100
AcDbLine
 10
105019.9403201995
 20
95050.71836848836
 30
0.0
 11
105019.9406952141
 21
95050.7170972007
 31
0.0
  0
LINE
  5
4EBD9
330
1F
100
AcDbEntity
  8
0
100
AcDbLine
 10
105019.9406952141
 20
95050.7170972007
 30
0.0
 11
105019.9410341858
 21
95050.71591492592
 31
0.0
  0
LINE
  5
4EBDA
330
1F
100
AcDbEntity
  8
0
100
AcDbLine
 10
105019.9410341858
 20
95050.71591492592
 30
0.0
 11
105019.9413221527
 21
95050.71483829183
 31
0.0
  0
LINE
  5
4EBDB
330
1F
100
AcDbEntity
  8
0
100
AcDbLine
 10
105019.9413221527
 20
95050.71483829183
 30
0.0
 11
105019.9415441529
 21
95050.71388392629
 31
0.0
  0
LINE
  5
4EBDC
330
1F
100
AcDbEntity
  8
0
100
AcDbLine
 10
105019.9415441529
 20
95050.71388392629
 30
0.0
 11
105019.9416852244
 21
95050.71306845708
 31
0.0
  0
LINE
  5
4EBDD
330
1F
100
AcDbEntity
  8
0
100
AcDbLine
 10
105019.9416852244
 20
95050.71306845708
 30
0.0
 11
105019.9417308877
 21
95050.71240394741
 31
0.0
  0
LINE
  5
4EBDE
330
1F
100
AcDbEntity
  8
0
100
AcDbLine
 10
105019.9417308877
 20
95050.71240394741
 30
0.0
 11
105019.9416685925
 21
95050.71188420204
 31
0.0
  0
LINE
  5
4EBDF
330
1F
100
AcDbEntity
  8
0
100
AcDbLine
 10
105019.9416685925
 20
95050.71188420204
 30
0.0
 11
105019.9414862709
 21
95050.71149846108
 31
0.0
  0
LINE
  5
4EBE0
330
1F
100
AcDbEntity
  8
0
100
AcDbLine
 10
105019.9414862709
 20
95050.71149846108
 30
0.0
 11
105019.9411718552
 21
95050.71123596463
 31
0.0
  0
LINE
  5
4EBE1
330
1F
100
AcDbEntity
  8
0
100
AcDbLine
 10
105019.9411718552
 20
95050.71123596463
 30
0.0
 11
105019.9407132774
 21
95050.71108595283
 31
0.0
  0
LINE
  5
4EBE2
330
1F
100
AcDbEntity
  8
0
100
AcDbLine
 10
105019.9407132774
 20
95050.71108595283
 30
0.0
 11
105019.9400984698
 21
95050.71103766582
 31
0.0
  0
LINE
  5
4EBE3
330
1F
100
AcDbEntity
  8
0
100
AcDbLine
 10
105019.9400984698
 20
95050.71103766582
 30
0.0
 11
105019.9393153643
 21
95050.71108034373
 31
0.0
  0
LINE
  5
4EBE4
330
1F
100
AcDbEntity
  8
0
100
AcDbLine
 10
105019.9393153643
 20
95050.71108034373
 30
0.0
 11
105019.9383518933
 21
95050.71120322662
 31
0.0
  0
LINE
  5
4EBE5
330
1F
100
AcDbEntity
  8
0
100
AcDbLine
 10
105019.9383518933
 20
95050.71120322662
 30
0.0
 11
105019.9372034
 21
95050.71139428899
 31
0.0
  0
LINE
  5
4EBE6
330
1F
100
AcDbEntity
  8
0
100
AcDbLine
 10
105019.9372034
 20
95050.71139428899
 30
0.0
 11
105019.9358948728
 21
95050.71163644242
 31
0.0
  0
LINE
  5
4EBE7
330
1F
100
AcDbEntity
  8
0
100
AcDbLine
 10
105019.9358948728
 20
95050.71163644242
 30
0.0
 11
105019.9344587114
 21
95050.71191133279
 31
0.0
  0
LINE
  5
4EBE8
330
1F
100
AcDbEntity
  8
0
100
AcDbLine
 10
105019.9344587114
 20
95050.71191133279
 30
0.0
 11
105019.9329273153
 21
95050.712200606
 31
0.0
  0
LINE
  5
4EBE9
330
1F
100
AcDbEntity
  8
0
100
AcDbLine
 10
105019.9329273153
 20
95050.712200606
 30
0.0
 11
105019.9313330841
 21
95050.71248590796
 31
0.0
  0
LINE
  5
4EBEA
330
1F
100
AcDbEntity
  8
0
100
AcDbLine
 10
105019.9313330841
 20
95050.71248590796
 30
0.0
 11
105019.9297084175
 21
95050.71274888461
 31
0.0
  0
LINE
  5
4EBEB
330
1F
100
AcDbEntity
  8
0
100
AcDbLine
 10
105019.9297084175
 20
95050.71274888461
 30
0.0
 11
105019.928085715
 21
95050.71297118179
 31
0.0
  0
LINE
  5
4EBEC
330
1F
100
AcDbEntity
  8
0
100
AcDbLine
 10
105019.928085715
 20
95050.71297118179
 30
0.0
 11
105019.9264973763
 21
95050.71313444547
 31
0.0
  0
LINE
  5
4EBED
330
1F
100
AcDbEntity
  8
0
100
AcDbLine
 10
105019.9264973763
 20
95050.71313444547
 30
0.0
 11
105019.9249691197
 21
95050.71323029625
 31
0.0
  0
LINE
  5
4EBEE
330
1F
100
AcDbEntity
  8
0
100
AcDbLine
 10
105019.9249691197
 20
95050.71323029625
 30
0.0
 11
105019.9234999387
 21
95050.71329025385
 31
0.0
  0
LINE
  5
4EBEF
330
1F
100
AcDbEntity
  8
0
100
AcDbLine
 10
105019.9234999387
 20
95050.71329025385
 30
0.0
 11
105019.9220821456
 21
95050.71335581275
 31
0.0
  0
LINE
  5
4EBF0
330
1F
100
AcDbEntity
  8
0
100
AcDbLine
 10
105019.9220821456
 20
95050.71335581275
 30
0.0
 11
105019.9207080527
 21
95050.71346846737
 31
0.0
  0
LINE
  5
4EBF1
330
1F
100
AcDbEntity
  8
0
100
AcDbLine
 10
105019.9207080527
 20
95050.71346846737
 30
0.0
 11
105019.9193699722
 21
95050.71366971218
 31
0.0
  0
LINE
  5
4EBF2
330
1F
100
AcDbEntity
  8
0
100
AcDbLine
 10
105019.9193699722
 20
95050.71366971218
 30
0.0
 11
105019.9180602163
 21
95050.71400104165
 31
0.0
  0
LINE
  5
4EBF3
330
1F
100
AcDbEntity
  8
0
100
AcDbLine
 10
105019.9180602163
 20
95050.71400104165
 30
0.0
 11
105019.9167710975
 21
95050.71450395021
 31
0.0
  0
LINE
  5
4EBF4
330
1F
100
AcDbEntity
  8
0
100
AcDbLine
 10
105019.9167710975
 20
95050.71450395021
 30
0.0
 11
105019.9154949279
 21
95050.71521993235
 31
0.0
  0
LINE
  5
4EBF5
330
1F
100
AcDbEntity
  8
0
100
AcDbLine
 10
105019.9154949279
 20
95050.71521993235
 30
0.0
 11
105019.9142210985
 21
95050.71617438611
 31
0.0
  0
LINE
  5
4EBF6
330
1F
100
AcDbEntity
  8
0
100
AcDbLine
 10
105019.9142210985
 20
95050.71617438611
 30
0.0
 11
105019.9129273151
 21
95050.71732832405
 31
0.0
  0
LINE
  5
4EBF7
330
1F
100
AcDbEntity
  8
0
100
AcDbLine
 10
105019.9129273151
 20
95050.71732832405
 30
0.0
 11
105019.9115883621
 21
95050.71862666238
 31
0.0
  0
LINE
  5
4EBF8
330
1F
100
AcDbEntity
  8
0
100
AcDbLine
 10
105019.9115883621
 20
95050.71862666238
 30
0.0
 11
105019.9101790241
 21
95050.7200143172
 31
0.0
  0
LINE
  5
4EBF9
330
1F
100
AcDbEntity
  8
0
100
AcDbLine
 10
105019.9101790241
 20
95050.7200143172
 30
0.0
 11
105019.9086740855
 21
95050.72143620475
 31
0.0
  0
LINE
  5
4EBFA
330
1F
100
AcDbEntity
  8
0
100
AcDbLine
 10
105019.9086740855
 20
95050.72143620475
 30
0.0
 11
105019.9070483308
 21
95050.72283724116
 31
0.0
  0
LINE
  5
4EBFB
330
1F
100
AcDbEntity
  8
0
100
AcDbLine
 10
105019.9070483308
 20
95050.72283724116
 30
0.0
 11
105019.9052765444
 21
95050.72416234263
 31
0.0
  0
LINE
  5
4EBFC
330
1F
100
AcDbEntity
  8
0
100
AcDbLine
 10
105019.9052765444
 20
95050.72416234263
 30
0.0
 11
105019.9033335108
 21
95050.72535642529
 31
0.0
  0
LINE
  5
4EBFD
330
1F
100
AcDbEntity
  8
0
100
AcDbLine
 10
105019.9033335108
 20
95050.72535642529
 30
0.0
 11
105019.9012091663
 21
95050.72637771482
 31
0.0
  0
LINE
  5
4EBFE
330
1F
100
AcDbEntity
  8
0
100
AcDbLine
 10
105019.9012091663
 20
95050.72637771482
 30
0.0
 11
105019.8989540542
 21
95050.72723767472
 31
0.0
  0
LINE
  5
4EBFF
330
1F
100
AcDbEntity
  8
0
100
AcDbLine
 10
105019.8989540542
 20
95050.72723767472
 30
0.0
 11
105019.8966338696
 21
95050.72796107803
 31
0.0
  0
LINE
  5
4EC00
330
1F
100
AcDbEntity
  8
0
100
AcDbLine
 10
105019.8966338696
 20
95050.72796107803
 30
0.0
 11
105019.8943143076
 21
95050.72857269773
 31
0.0
  0
LINE
  5
4EC01
330
1F
100
AcDbEntity
  8
0
100
AcDbLine
 10
105019.8943143076
 20
95050.72857269773
 30
0.0
 11
105019.8920610634
 21
95050.72909730682
 31
0.0
  0
LINE
  5
4EC02
330
1F
100
AcDbEntity
  8
0
100
AcDbLine
 10
105019.8920610634
 20
95050.72909730682
 30
0.0
 11
105019.8899398319
 21
95050.72955967831
 31
0.0
  0
LINE
  5
4EC03
330
1F
100
AcDbEntity
  8
0
100
AcDbLine
 10
105019.8899398319
 20
95050.72955967831
 30
0.0
 11
105019.8880163084
 21
95050.72998458521
 31
0.0
  0
LINE
  5
4EC04
330
1F
100
AcDbEntity
  8
0
100
AcDbLine
 10
105019.8880163084
 20
95050.72998458521
 30
0.0
 11
105019.8863561879
 21
95050.7303968005
 31
0.0
  0
LINE
  5
4EC05
330
1F
100
AcDbEntity
  8
0
100
AcDbLine
 10
105019.8863561879
 20
95050.7303968005
 30
0.0
 11
105019.8850032758
 21
95050.73081362967
 31
0.0
  0
LINE
  5
4EC06
330
1F
100
AcDbEntity
  8
0
100
AcDbLine
 10
105019.8850032758
 20
95050.73081362967
 30
0.0
 11
105019.8839138194
 21
95050.73122250799
 31
0.0
  0
LINE
  5
4EC07
330
1F
100
AcDbEntity
  8
0
100
AcDbLine
 10
105019.8839138194
 20
95050.73122250799
 30
0.0
 11
105019.8830221757
 21
95050.73160340323
 31
0.0
  0
LINE
  5
4EC08
330
1F
100
AcDbEntity
  8
0
100
AcDbLine
 10
105019.8830221757
 20
95050.73160340323
 30
0.0
 11
105019.8822627025
 21
95050.73193628314
 31
0.0
  0
LINE
  5
4EC09
330
1F
100
AcDbEntity
  8
0
100
AcDbLine
 10
105019.8822627025
 20
95050.73193628314
 30
0.0
 11
105019.8815697568
 21
95050.73220111547
 31
0.0
  0
LINE
  5
4EC0A
330
1F
100
AcDbEntity
  8
0
100
AcDbLine
 10
105019.8815697568
 20
95050.73220111547
 30
0.0
 11
105019.8808776963
 21
95050.73237786801
 31
0.0
  0
LINE
  5
4EC0B
330
1F
100
AcDbEntity
  8
0
100
AcDbLine
 10
105019.8808776963
 20
95050.73237786801
 30
0.0
 11
105019.8801208782
 21
95050.73244650846
 31
0.0
  0
LINE
  5
4EC0C
330
1F
100
AcDbEntity
  8
0
100
AcDbLine
 10
105019.8801208782
 20
95050.73244650846
 30
0.0
 11
105019.87923366
 21
95050.73238700461
 31
0.0
  0
LINE
  5
4EC0D
330
1F
100
AcDbEntity
  8
0
100
AcDbLine
 10
105019.87923366
 20
95050.73238700461
 30
0.0
 11
105019.8781404554
 21
95050.73219667323
 31
0.0
  0
LINE
  5
4EC0E
330
1F
100
AcDbEntity
  8
0
100
AcDbLine
 10
105019.8781404554
 20
95050.73219667323
 30
0.0
 11
105019.8767259029
 21
95050.73194222719
 31
0.0
  0
LINE
  5
4EC0F
330
1F
100
AcDbEntity
  8
0
100
AcDbLine
 10
105019.8767259029
 20
95050.73194222719
 30
0.0
 11
105019.8748646977
 21
95050.73170772831
 31
0.0
  0
LINE
  5
4EC10
330
1F
100
AcDbEntity
  8
0
100
AcDbLine
 10
105019.8748646977
 20
95050.73170772831
 30
0.0
 11
105019.8724315348
 21
95050.73157723849
 31
0.0
  0
LINE
  5
4EC11
330
1F
100
AcDbEntity
  8
0
100
AcDbLine
 10
105019.8724315348
 20
95050.73157723849
 30
0.0
 11
105019.8693011091
 21
95050.73163481961
 31
0.0
  0
LINE
  5
4EC12
330
1F
100
AcDbEntity
  8
0
100
AcDbLine
 10
105019.8693011091
 20
95050.73163481961
 30
0.0
 11
105019.8653481157
 21
95050.7319645335
 31
0.0
  0
LINE
  5
4EC13
330
1F
100
AcDbEntity
  8
0
100
AcDbLine
 10
105019.8653481157
 20
95050.7319645335
 30
0.0
 11
105019.8604472495
 21
95050.73265044208
 31
0.0
  0
LINE
  5
4EC14
330
1F
100
AcDbEntity
  8
0
100
AcDbLine
 10
105019.8604472495
 20
95050.73265044208
 30
0.0
 11
105019.8544732055
 21
95050.73377660719
 31
0.0
  0
LINE
  5
4EC15
330
1F
100
AcDbEntity
  8
0
100
AcDbLine
 10
105019.8544732055
 20
95050.73377660719
 30
0.0
 11
105019.8473307207
 21
95050.73545109897
 31
0.0
  0
LINE
  5
4EC16
330
1F
100
AcDbEntity
  8
0
100
AcDbLine
 10
105019.8473307207
 20
95050.73545109897
 30
0.0
 11
105019.8390446996
 21
95050.7378780207
 31
0.0
  0
LINE
  5
4EC17
330
1F
100
AcDbEntity
  8
0
100
AcDbLine
 10
105019.8390446996
 20
95050.7378780207
 30
0.0
 11
105019.8296700885
 21
95050.7412854839
 31
0.0
  0
LINE
  5
4EC18
330
1F
100
AcDbEntity
  8
0
100
AcDbLine
 10
105019.8296700885
 20
95050.7412854839
 30
0.0
 11
105019.8192618339
 21
95050.74590160013
 31
0.0
  0
LINE
  5
4EC19
330
1F
100
AcDbEntity
  8
0
100
AcDbLine
 10
105019.8192618339
 20
95050.74590160013
 30
0.0
 11
105019.8078748821
 21
95050.75195448092
 31
0.0
  0
LINE
  5
4EC1A
330
1F
100
AcDbEntity
  8
0
100
AcDbLine
 10
105019.8078748821
 20
95050.75195448092
 30
0.0
 11
105019.7955641797
 21
95050.75967223783
 31
0.0
  0
LINE
  5
4EC1B
330
1F
100
AcDbEntity
  8
0
100
AcDbLine
 10
105019.7955641797
 20
95050.75967223783
 30
0.0
 11
105019.7823846729
 21
95050.76928298237
 31
0.0
  0
LINE
  5
4EC1C
330
1F
100
AcDbEntity
  8
0
100
AcDbLine
 10
105019.7823846729
 20
95050.76928298237
 30
0.0
 11
105019.7683913083
 21
95050.7810148261
 31
0.0
  0
LINE
  5
4EC1D
330
1F
100
AcDbEntity
  8
0
100
AcDbLine
 10
105019.7683913083
 20
95050.7810148261
 30
0.0
 11
105019.7536765691
 21
95050.79498350369
 31
0.0
  0
LINE
  5
4EC1E
330
1F
100
AcDbEntity
  8
0
100
AcDbLine
 10
105019.7536765691
 20
95050.79498350369
 30
0.0
 11
105019.7384830863
 21
95050.81085524244
 31
0.0
  0
LINE
  5
4EC1F
330
1F
100
AcDbEntity
  8
0
100
AcDbLine
 10
105019.7384830863
 20
95050.81085524244
 30
0.0
 11
105019.7230910277
 21
95050.82818389276
 31
0.0
  0
LINE
  5
4EC20
330
1F
100
AcDbEntity
  8
0
100
AcDbLine
 10
105019.7230910277
 20
95050.82818389276
 30
0.0
 11
105019.7077805611
 21
95050.84652330509
 31
0.0
  0
LINE
  5
4EC21
330
1F
100
AcDbEntity
  8
0
100
AcDbLine
 10
105019.7077805611
 20
95050.84652330509
 30
0.0
 11
105019.6928318545
 21
95050.86542732987
 31
0.0
  0
LINE
  5
4EC22
330
1F
100
AcDbEntity
  8
0
100
AcDbLine
 10
105019.6928318545
 20
95050.86542732987
 30
0.0
 11
105019.6785250755
 21
95050.88444981751
 31
0.0
  0
LINE
  5
4EC23
330
1F
100
AcDbEntity
  8
0
100
AcDbLine
 10
105019.6785250755
 20
95050.88444981751
 30
0.0
 11
105019.6651403921
 21
95050.90314461845
 31
0.0
  0
LINE
  5
4EC24
330
1F
100
AcDbEntity
  8
0
100
AcDbLine
 10
105019.6651403921
 20
95050.90314461845
 30
0.0
 11
105019.6529579722
 21
95050.92106558311
 31
0.0
  0
LINE
  5
4EC25
330
1F
100
AcDbEntity
  8
0
100
AcDbLine
 10
105019.6529579722
 20
95050.92106558311
 30
0.0
 11
105019.6421961135
 21
95050.93783836411
 31
0.0
  0
LINE
  5
4EC26
330
1F
100
AcDbEntity
  8
0
100
AcDbLine
 10
105019.6421961135
 20
95050.93783836411
 30
0.0
 11
105019.6328256335
 21
95050.95337582293
 31
0.0
  0
LINE
  5
4EC27
330
1F
100
AcDbEntity
  8
0
100
AcDbLine
 10
105019.6328256335
 20
95050.95337582293
 30
0.0
 11
105019.6247554798
 21
95050.96766262315
 31
0.0
  0
LINE
  5
4EC28
330
1F
100
AcDbEntity
  8
0
100
AcDbLine
 10
105019.6247554798
 20
95050.96766262315
 30
0.0
 11
105019.6178945999
 21
95050.98068342844
 31
0.0
  0
LINE
  5
4EC29
330
1F
100
AcDbEntity
  8
0
100
AcDbLine
 10
105019.6178945999
 20
95050.98068342844
 30
0.0
 11
105019.6121519413
 21
95050.99242290244
 31
0.0
  0
LINE
  5
4EC2A
330
1F
100
AcDbEntity
  8
0
100
AcDbLine
 10
105019.6121519413
 20
95050.99242290244
 30
0.0
 11
105019.6074364516
 21
95051.00286570877
 31
0.0
  0
LINE
  5
4EC2B
330
1F
100
AcDbEntity
  8
0
100
AcDbLine
 10
105019.6074364516
 20
95051.00286570877
 30
0.0
 11
105019.6036570781
 21
95051.01199651107
 31
0.0
  0
LINE
  5
4EC2C
330
1F
100
AcDbEntity
  8
0
100
AcDbLine
 10
105019.6036570781
 20
95051.01199651107
 30
0.0
 11
105019.6007227686
 21
95051.019799973
 31
0.0
  0
LINE
  5
4EC2D
330
1F
100
AcDbEntity
  8
0
100
AcDbLine
 10
105019.6007227686
 20
95051.019799973
 30
0.0
 11
105019.598484076
 21
95051.02633712169
 31
0.0
  0
LINE
  5
4EC2E
330
1F
100
AcDbEntity
  8
0
100
AcDbLine
 10
105019.598484076
 20
95051.02633712169
 30
0.0
 11
105019.5965579765
 21
95051.03197443844
 31
0.0
  0
LINE
  5
4EC2F
330
1F
100
AcDbEntity
  8
0
100
AcDbLine
 10
105019.5965579765
 20
95051.03197443844
 30
0.0
 11
105019.5945030514
 21
95051.03715476801
 31
0.0
  0
LINE
  5
4EC30
330
1F
100
AcDbEntity
  8
0
100
AcDbLine
 10
105019.5945030514
 20
95051.03715476801
 30
0.0
 11
105019.5918778825
 21
95051.04232095522
 31
0.0
  0
LINE
  5
4EC31
330
1F
100
AcDbEntity
  8
0
100
AcDbLine
 10
105019.5918778825
 20
95051.04232095522
 30
0.0
 11
105019.5882410513
 21
95051.04791584487
 31
0.0
  0
LINE
  5
4EC32
330
1F
100
AcDbEntity
  8
0
100
AcDbLine
 10
105019.5882410513
 20
95051.04791584487
 30
0.0
 11
105019.5831511393
 21
95051.05438228174
 31
0.0
  0
LINE
  5
4EC33
330
1F
100
AcDbEntity
  8
0
100
AcDbLine
 10
105019.5831511393
 20
95051.05438228174
 30
0.0
 11
105019.5761667283
 21
95051.06216311062
 31
0.0
  0
LINE
  5
4EC34
330
1F
100
AcDbEntity
  8
0
100
AcDbLine
 10
105019.5761667283
 20
95051.06216311062
 30
0.0
 11
105019.5668463997
 21
95051.0717011763
 31
0.0
  0
LINE
  5
4EC35
330
1F
100
AcDbEntity
  8
0
100
AcDbLine
 10
105020.2548595299
 20
95050.34441411275
 30
0.0
 11
105020.2347249419
 21
95050.36427593385
 31
0.0
  0
LINE
  5
4EC36
330
1F
100
AcDbEntity
  8
0
100
AcDbLine
 10
105020.2347249419
 20
95050.36427593385
 30
0.0
 11
105020.2159030251
 21
95050.38101877214
 31
0.0
  0
LINE
  5
4EC37
330
1F
100
AcDbEntity
  8
0
100
AcDbLine
 10
105020.2159030251
 20
95050.38101877214
 30
0.0
 11
105020.1982533883
 21
95050.3952716061
 31
0.0
  0
LINE
  5
4EC38
330
1F
100
AcDbEntity
  8
0
100
AcDbLine
 10
105020.1982533883
 20
95050.3952716061
 30
0.0
 11
105020.1816356405
 21
95050.40766341418
 31
0.0
  0
LINE
  5
4EC39
330
1F
100
AcDbEntity
  8
0
100
AcDbLine
 10
105020.1816356405
 20
95050.40766341418
 30
0.0
 11
105020.1659093904
 21
95050.41882317481
 31
0.0
  0
LINE
  5
4EC3A
330
1F
100
AcDbEntity
  8
0
100
AcDbLine
 10
105020.1659093904
 20
95050.41882317481
 30
0.0
 11
105020.1509342469
 21
95050.42937986649
 31
0.0
  0
LINE
  5
4EC3B
330
1F
100
AcDbEntity
  8
0
100
AcDbLine
 10
105020.1509342469
 20
95050.42937986649
 30
0.0
 11
105020.136569819
 21
95050.43996246765
 31
0.0
  0
LINE
  5
4EC3C
330
1F
100
AcDbEntity
  8
0
100
AcDbLine
 10
105020.136569819
 20
95050.43996246765
 30
0.0
 11
105020.1226757155
 21
95050.45119995674
 31
0.0
  0
LINE
  5
4EC3D
330
1F
100
AcDbEntity
  8
0
100
AcDbLine
 10
105020.1226757155
 20
95050.45119995674
 30
0.0
 11
105020.1091181094
 21
95050.46357888691
 31
0.0
  0
LINE
  5
4EC3E
330
1F
100
AcDbEntity
  8
0
100
AcDbLine
 10
105020.1091181094
 20
95050.46357888691
 30
0.0
 11
105020.0957894307
 21
95050.47701610983
 31
0.0
  0
LINE
  5
4EC3F
330
1F
100
AcDbEntity
  8
0
100
AcDbLine
 10
105020.0957894307
 20
95050.47701610983
 30
0.0
 11
105020.0825886734
 21
95050.49128605186
 31
0.0
  0
LINE
  5
4EC40
330
1F
100
AcDbEntity
  8
0
100
AcDbLine
 10
105020.0825886734
 20
95050.49128605186
 30
0.0
 11
105020.0694148318
 21
95050.50616313937
 31
0.0
  0
LINE
  5
4EC41
330
1F
100
AcDbEntity
  8
0
100
AcDbLine
 10
105020.0694148318
 20
95050.50616313937
 30
0.0
 11
105020.0561668999
 21
95050.5214217987
 31
0.0
  0
LINE
  5
4EC42
330
1F
100
AcDbEntity
  8
0
100
AcDbLine
 10
105020.0561668999
 20
95050.5214217987
 30
0.0
 11
105020.0427438719
 21
95050.53683645622
 31
0.0
  0
LINE
  5
4EC43
330
1F
100
AcDbEntity
  8
0
100
AcDbLine
 10
105020.0427438719
 20
95050.53683645622
 30
0.0
 11
105020.0290447418
 21
95050.55218153827
 31
0.0
  0
LINE
  5
4EC44
330
1F
100
AcDbEntity
  8
0
100
AcDbLine
 10
105020.0290447418
 20
95050.55218153827
 30
0.0
 11
105020.0149685039
 21
95050.56723147124
 31
0.0
  0
LINE
  5
4EC45
330
1F
100
AcDbEntity
  8
0
100
AcDbLine
 10
105020.0149685039
 20
95050.56723147124
 30
0.0
 11
105020.0004794577
 21
95050.5817856917
 31
0.0
  0
LINE
  5
4EC46
330
1F
100
AcDbEntity
  8
0
100
AcDbLine
 10
105020.0004794577
 20
95050.5817856917
 30
0.0
 11
105019.9858031247
 21
95050.5957436772
 31
0.0
  0
LINE
  5
4EC47
330
1F
100
AcDbEntity
  8
0
100
AcDbLine
 10
105019.9858031247
 20
95050.5957436772
 30
0.0
 11
105019.9712303319
 21
95050.60902991552
 31
0.0
  0
LINE
  5
4EC48
330
1F
100
AcDbEntity
  8
0
100
AcDbLine
 10
105019.9712303319
 20
95050.60902991552
 30
0.0
 11
105019.9570519063
 21
95050.62156889446
 31
0.0
  0
LINE
  5
4EC49
330
1F
100
AcDbEntity
  8
0
100
AcDbLine
 10
105019.9570519063
 20
95050.62156889446
 30
0.0
 11
105019.9435586749
 21
95050.63328510177
 31
0.0
  0
LINE
  5
4EC4A
330
1F
100
AcDbEntity
  8
0
100
AcDbLine
 10
105019.9435586749
 20
95050.63328510177
 30
0.0
 11
105019.9310414647
 21
95050.64410302527
 31
0.0
  0
LINE
  5
4EC4B
330
1F
100
AcDbEntity
  8
0
100
AcDbLine
 10
105019.9310414647
 20
95050.64410302527
 30
0.0
 11
105019.9197911027
 21
95050.6539471527
 31
0.0
  0
LINE
  5
4EC4C
330
1F
100
AcDbEntity
  8
0
100
AcDbLine
 10
105019.9197911027
 20
95050.6539471527
 30
0.0
 11
105019.9100984158
 21
95050.6627419719
 31
0.0
  0
LINE
  5
4EC4D
330
1F
100
AcDbEntity
  8
0
100
AcDbLine
 10
105019.9100984158
 20
95050.6627419719
 30
0.0
 11
105019.9021775334
 21
95050.6704348438
 31
0.0
  0
LINE
  5
4EC4E
330
1F
100
AcDbEntity
  8
0
100
AcDbLine
 10
105019.9021775334
 20
95050.6704348438
 30
0.0
 11
105019.895935795
 21
95050.67706462217
 31
0.0
  0
LINE
  5
4EC4F
330
1F
100
AcDbEntity
  8
0
100
AcDbLine
 10
105019.895935795
 20
95050.67706462217
 30
0.0
 11
105019.8912038422
 21
95050.68269303389
 31
0.0
  0
LINE
  5
4EC50
330
1F
100
AcDbEntity
  8
0
100
AcDbLine
 10
105019.8912038422
 20
95050.68269303389
 30
0.0
 11
105019.8878123167
 21
95050.68738180593
 31
0.0
  0
LINE
  5
4EC51
330
1F
100
AcDbEntity
  8
0
100
AcDbLine
 10
105019.8878123167
 20
95050.68738180593
 30
0.0
 11
105019.8855918603
 21
95050.6911926652
 31
0.0
  0
LINE
  5
4EC52
330
1F
100
AcDbEntity
  8
0
100
AcDbLine
 10
105019.8855918603
 20
95050.6911926652
 30
0.0
 11
105019.8843731147
 21
95050.69418733862
 31
0.0
  0
LINE
  5
4EC53
330
1F
100
AcDbEntity
  8
0
100
AcDbLine
 10
105019.8843731147
 20
95050.69418733862
 30
0.0
 11
105019.8839867216
 21
95050.69642755312
 31
0.0
  0
LINE
  5
4EC54
330
1F
100
AcDbEntity
  8
0
100
AcDbLine
 10
105019.8839867216
 20
95050.69642755312
 30
0.0
 11
105019.8842633228
 21
95050.69797503562
 31
0.0
  0
LINE
  5
4EC55
330
1F
100
AcDbEntity
  8
0
100
AcDbLine
 10
105019.8842633228
 20
95050.69797503562
 30
0.0
 11
105019.8850757876
 21
95050.69889612576
 31
0.0
  0
LINE
  5
4EC56
330
1F
100
AcDbEntity
  8
0
100
AcDbLine
 10
105019.8850757876
 20
95050.69889612576
 30
0.0
 11
105019.8864658957
 21
95050.69927561383
 31
0.0
  0
LINE
  5
4EC57
330
1F
100
AcDbEntity
  8
0
100
AcDbLine
 10
105019.8864658957
 20
95050.69927561383
 30
0.0
 11
105019.8885176542
 21
95050.69920290283
 31
0.0
  0
LINE
  5
4EC58
330
1F
100
AcDbEntity
  8
0
100
AcDbLine
 10
105019.8885176542
 20
95050.69920290283
 30
0.0
 11
105019.8913150705
 21
95050.69876739579
 31
0.0
  0
LINE
  5
4EC59
330
1F
100
AcDbEntity
  8
0
100
AcDbLine
 10
105019.8913150705
 20
95050.69876739579
 30
0.0
 11
105019.8949421518
 21
95050.69805849574
 31
0.0
  0
LINE
  5
4EC5A
330
1F
100
AcDbEntity
  8
0
100
AcDbLine
 10
105019.8949421518
 20
95050.69805849574
 30
0.0
 11
105019.8994829053
 21
95050.69716560566
 31
0.0
  0
LINE
  5
4EC5B
330
1F
100
AcDbEntity
  8
0
100
AcDbLine
 10
105019.8994829053
 20
95050.69716560566
 30
0.0
 11
105019.9050213382
 21
95050.69617812857
 31
0.0
  0
LINE
  5
4EC5C
330
1F
100
AcDbEntity
  8
0
100
AcDbLine
 10
105019.9050213382
 20
95050.69617812857
 30
0.0
 11
105019.9116414579
 21
95050.69518546749
 31
0.0
  0
LINE
  5
4EC5D
330
1F
100
AcDbEntity
  8
0
100
AcDbLine
 10
105019.9116414579
 20
95050.69518546749
 30
0.0
 11
105019.9193949519
 21
95050.69423843888
 31
0.0
  0
LINE
  5
4EC5E
330
1F
100
AcDbEntity
  8
0
100
AcDbLine
 10
105019.9193949519
 20
95050.69423843888
 30
0.0
 11
105019.9282042302
 21
95050.69323351328
 31
0.0
  0
LINE
  5
4EC5F
330
1F
100
AcDbEntity
  8
0
100
AcDbLine
 10
105019.9282042302
 20
95050.69323351328
 30
0.0
 11
105019.9379593828
 21
95050.6920285747
 31
0.0
  0
LINE
  5
4EC60
330
1F
100
AcDbEntity
  8
0
100
AcDbLine
 10
105019.9379593828
 20
95050.6920285747
 30
0.0
 11
105019.9485505001
 21
95050.69048150707
 31
0.0
  0
LINE
  5
4EC61
330
1F
100
AcDbEntity
  8
0
100
AcDbLine
 10
105019.9485505001
 20
95050.69048150707
 30
0.0
 11
105019.9598676722
 21
95050.6884501944
 31
0.0
  0
LINE
  5
4EC62
330
1F
100
AcDbEntity
  8
0
100
AcDbLine
 10
105019.9598676722
 20
95050.6884501944
 30
0.0
 11
105019.9718009895
 21
95050.68579252068
 31
0.0
  0
LINE
  5
4EC63
330
1F
100
AcDbEntity
  8
0
100
AcDbLine
 10
105019.9718009895
 20
95050.68579252068
 30
0.0
 11
105019.9842405422
 21
95050.68236636994
 31
0.0
  0
LINE
  5
4EC64
330
1F
100
AcDbEntity
  8
0
100
AcDbLine
 10
105019.9842405422
 20
95050.68236636994
 30
0.0
 11
105019.9970764204
 21
95050.6780296261
 31
0.0
  0
LINE
  5
4EC65
330
1F
100
AcDbEntity
  8
0
100
AcDbLine
 10
105019.9970764204
 20
95050.6780296261
 30
0.0
 11
105020.0102150768
 21
95050.67264939865
 31
0.0
  0
LINE
  5
4EC66
330
1F
100
AcDbEntity
  8
0
100
AcDbLine
 10
105020.0102150768
 20
95050.67264939865
 30
0.0
 11
105020.0236284132
 21
95050.66612969871
 31
0.0
  0
LINE
  5
4EC67
330
1F
100
AcDbEntity
  8
0
100
AcDbLine
 10
105020.0236284132
 20
95050.66612969871
 30
0.0
 11
105020.0373046938
 21
95050.65838376291
 31
0.0
  0
LINE
  5
4EC68
330
1F
100
AcDbEntity
  8
0
100
AcDbLine
 10
105020.0373046938
 20
95050.65838376291
 30
0.0
 11
105020.0512321828
 21
95050.64932482786
 31
0.0
  0
LINE
  5
4EC69
330
1F
100
AcDbEntity
  8
0
100
AcDbLine
 10
105020.0512321828
 20
95050.64932482786
 30
0.0
 11
105020.0653991445
 21
95050.63886613015
 31
0.0
  0
LINE
  5
4EC6A
330
1F
100
AcDbEntity
  8
0
100
AcDbLine
 10
105020.0653991445
 20
95050.63886613015
 30
0.0
 11
105020.079793843
 21
95050.62692090637
 31
0.0
  0
LINE
  5
4EC6B
330
1F
100
AcDbEntity
  8
0
100
AcDbLine
 10
105020.079793843
 20
95050.62692090637
 30
0.0
 11
105020.0944045425
 21
95050.61340239317
 31
0.0
  0
LINE
  5
4EC6C
330
1F
100
AcDbEntity
  8
0
100
AcDbLine
 10
105020.0944045425
 20
95050.61340239317
 30
0.0
 11
105020.1092195073
 21
95050.59822382712
 31
0.0
  0
LINE
  5
4EC6D
330
1F
100
AcDbEntity
  8
0
100
AcDbLine
 10
105020.1092195073
 20
95050.59822382712
 30
0.0
 11
105020.1241893401
 21
95050.58138809793
 31
0.0
  0
LINE
  5
4EC6E
330
1F
100
AcDbEntity
  8
0
100
AcDbLine
 10
105020.1241893401
 20
95050.58138809793
 30
0.0
 11
105020.1391139983
 21
95050.56325670798
 31
0.0
  0
LINE
  5
4EC6F
330
1F
100
AcDbEntity
  8
0
100
AcDbLine
 10
105020.1391139983
 20
95050.56325670798
 30
0.0
 11
105020.1537557778
 21
95050.54428081262
 31
0.0
  0
LINE
  5
4EC70
330
1F
100
AcDbEntity
  8
0
100
AcDbLine
 10
105020.1537557778
 20
95050.54428081262
 30
0.0
 11
105020.1678769747
 21
95050.5249115673
 31
0.0
  0
LINE
  5
4EC71
330
1F
100
AcDbEntity
  8
0
100
AcDbLine
 10
105020.1678769747
 20
95050.5249115673
 30
0.0
 11
105020.1812398848
 21
95050.50560012747
 31
0.0
  0
LINE
  5
4EC72
330
1F
100
AcDbEntity
  8
0
100
AcDbLine
 10
105020.1812398848
 20
95050.50560012747
 30
0.0
 11
105020.1936068041
 21
95050.48679764858
 31
0.0
  0
LINE
  5
4EC73
330
1F
100
AcDbEntity
  8
0
100
AcDbLine
 10
105020.1936068041
 20
95050.48679764858
 30
0.0
 11
105020.2047400286
 21
95050.46895528598
 31
0.0
  0
LINE
  5
4EC74
330
1F
100
AcDbEntity
  8
0
100
AcDbLine
 10
105020.2047400286
 20
95050.46895528598
 30
0.0
 11
105020.2144018543
 21
95050.45252419519
 31
0.0
  0
LINE
  5
4EC75
330
1F
100
AcDbEntity
  8
0
100
AcDbLine
 10
105020.2144018543
 20
95050.45252419519
 30
0.0
 11
105020.222425317
 21
95050.43785868108
 31
0.0
  0
LINE
  5
4EC76
330
1F
100
AcDbEntity
  8
0
100
AcDbLine
 10
105020.222425317
 20
95050.43785868108
 30
0.0
 11
105020.2289264126
 21
95050.4249256466
 31
0.0
  0
LINE
  5
4EC77
330
1F
100
AcDbEntity
  8
0
100
AcDbLine
 10
105020.2289264126
 20
95050.4249256466
 30
0.0
 11
105020.2340918767
 21
95050.41359514416
 31
0.0
  0
LINE
  5
4EC78
330
1F
100
AcDbEntity
  8
0
100
AcDbLine
 10
105020.2340918767
 20
95050.41359514416
 30
0.0
 11
105020.2381084451
 21
95050.40373722623
 31
0.0
  0
LINE
  5
4EC79
330
1F
100
AcDbEntity
  8
0
100
AcDbLine
 10
105020.2381084451
 20
95050.40373722623
 30
0.0
 11
105020.2411628536
 21
95050.3952219452
 31
0.0
  0
LINE
  5
4EC7A
330
1F
100
AcDbEntity
  8
0
100
AcDbLine
 10
105020.2411628536
 20
95050.3952219452
 30
0.0
 11
105020.2434418377
 21
95050.38791935351
 31
0.0
  0
LINE
  5
4EC7B
330
1F
100
AcDbEntity
  8
0
100
AcDbLine
 10
105020.2434418377
 20
95050.38791935351
 30
0.0
 11
105020.2451321333
 21
95050.38169950358
 31
0.0
  0
LINE
  5
4EC7C
330
1F
100
AcDbEntity
  8
0
100
AcDbLine
 10
105020.2451321333
 20
95050.38169950358
 30
0.0
 11
105020.2464204762
 21
95050.37643244786
 31
0.0
  0
LINE
  5
4EC7D
330
1F
100
AcDbEntity
  8
0
100
AcDbLine
 10
105020.2464204762
 20
95050.37643244786
 30
0.0
 11
105020.2474674589
 21
95050.37199322284
 31
0.0
  0
LINE
  5
4EC7E
330
1F
100
AcDbEntity
  8
0
100
AcDbLine
 10
105020.2474674589
 20
95050.37199322284
 30
0.0
 11
105020.2483291022
 21
95050.36827680132
 31
0.0
  0
LINE
  5
4EC7F
330
1F
100
AcDbEntity
  8
0
100
AcDbLine
 10
105020.2483291022
 20
95050.36827680132
 30
0.0
 11
105020.249035284
 21
95050.36518314016
 31
0.0
  0
LINE
  5
4EC80
330
1F
100
AcDbEntity
  8
0
100
AcDbLine
 10
105020.249035284
 20
95050.36518314016
 30
0.0
 11
105020.249615882
 21
95050.36261219625
 31
0.0
  0
LINE
  5
4EC81
330
1F
100
AcDbEntity
  8
0
100
AcDbLine
 10
105020.249615882
 20
95050.36261219625
 30
0.0
 11
105020.2501007738
 21
95050.36046392646
 31
0.0
  0
LINE
  5
4EC82
330
1F
100
AcDbEntity
  8
0
100
AcDbLine
 10
105020.2501007738
 20
95050.36046392646
 30
0.0
 11
105020.2505198373
 21
95050.35863828767
 31
0.0
  0
LINE
  5
4EC83
330
1F
100
AcDbEntity
  8
0
100
AcDbLine
 10
105020.2505198373
 20
95050.35863828767
 30
0.0
 11
105020.2509029501
 21
95050.35703523674
 31
0.0
  0
LINE
  5
4EC84
330
1F
100
AcDbEntity
  8
0
100
AcDbLine
 10
105020.2509029501
 20
95050.35703523674
 30
0.0
 11
105020.2512799901
 21
95050.35555473055
 31
0.0
  0
LINE
  5
4EC85
330
1F
100
AcDbEntity
  8
0
100
AcDbLine
 10
105020.2512799901
 20
95050.35555473055
 30
0.0
 11
105020.2516733617
 21
95050.35411617113
 31
0.0
  0
LINE
  5
4EC86
330
1F
100
AcDbEntity
  8
0
100
AcDbLine
 10
105020.2516733617
 20
95050.35411617113
 30
0.0
 11
105020.2520755762
 21
95050.35271674115
 31
0.0
  0
LINE
  5
4EC87
330
1F
100
AcDbEntity
  8
0
100
AcDbLine
 10
105020.2520755762
 20
95050.35271674115
 30
0.0
 11
105020.2524716717
 21
95050.3513730684
 31
0.0
  0
LINE
  5
4EC88
330
1F
100
AcDbEntity
  8
0
100
AcDbLine
 10
105020.2524716717
 20
95050.3513730684
 30
0.0
 11
105020.2528466863
 21
95050.35010178074
 31
0.0
  0
LINE
  5
4EC89
330
1F
100
AcDbEntity
  8
0
100
AcDbLine
 10
105020.2528466863
 20
95050.35010178074
 30
0.0
 11
105020.2531856581
 21
95050.34891950597
 31
0.0
  0
LINE
  5
4EC8A
330
1F
100
AcDbEntity
  8
0
100
AcDbLine
 10
105020.2531856581
 20
95050.34891950597
 30
0.0
 11
105020.253473625
 21
95050.3478428719
 31
0.0
  0
LINE
  5
4EC8B
330
1F
100
AcDbEntity
  8
0
100
AcDbLine
 10
105020.253473625
 20
95050.3478428719
 30
0.0
 11
105020.2536956252
 21
95050.34688850633
 31
0.0
  0
LINE
  5
4EC8C
330
1F
100
AcDbEntity
  8
0
100
AcDbLine
 10
105020.2536956252
 20
95050.34688850633
 30
0.0
 11
105020.2538366967
 21
95050.34607303713
 31
0.0
  0
LINE
  5
4EC8D
330
1F
100
AcDbEntity
  8
0
100
AcDbLine
 10
105020.2538366967
 20
95050.34607303713
 30
0.0
 11
105020.25388236
 21
95050.34540852747
 31
0.0
  0
LINE
  5
4EC8E
330
1F
100
AcDbEntity
  8
0
100
AcDbLine
 10
105020.25388236
 20
95050.34540852747
 30
0.0
 11
105020.2538200647
 21
95050.34488878209
 31
0.0
  0
LINE
  5
4EC8F
330
1F
100
AcDbEntity
  8
0
100
AcDbLine
 10
105020.2538200647
 20
95050.34488878209
 30
0.0
 11
105020.2536377432
 21
95050.3445030411
 31
0.0
  0
LINE
  5
4EC90
330
1F
100
AcDbEntity
  8
0
100
AcDbLine
 10
105020.2536377432
 20
95050.3445030411
 30
0.0
 11
105020.2533233275
 21
95050.34424054468
 31
0.0
  0
LINE
  5
4EC91
330
1F
100
AcDbEntity
  8
0
100
AcDbLine
 10
105020.2533233275
 20
95050.34424054468
 30
0.0
 11
105020.2528647497
 21
95050.34409053289
 31
0.0
  0
LINE
  5
4EC92
330
1F
100
AcDbEntity
  8
0
100
AcDbLine
 10
105020.2528647497
 20
95050.34409053289
 30
0.0
 11
105020.252249942
 21
95050.34404224588
 31
0.0
  0
LINE
  5
4EC93
330
1F
100
AcDbEntity
  8
0
100
AcDbLine
 10
105020.252249942
 20
95050.34404224588
 30
0.0
 11
105020.2514668366
 21
95050.34408492377
 31
0.0
  0
LINE
  5
4EC94
330
1F
100
AcDbEntity
  8
0
100
AcDbLine
 10
105020.2514668366
 20
95050.34408492377
 30
0.0
 11
105020.2505033656
 21
95050.34420780669
 31
0.0
  0
LINE
  5
4EC95
330
1F
100
AcDbEntity
  8
0
100
AcDbLine
 10
105020.2505033656
 20
95050.34420780669
 30
0.0
 11
105020.2493548723
 21
95050.34439886903
 31
0.0
  0
LINE
  5
4EC96
330
1F
100
AcDbEntity
  8
0
100
AcDbLine
 10
105020.2493548723
 20
95050.34439886903
 30
0.0
 11
105020.2480463451
 21
95050.34464102246
 31
0.0
  0
LINE
  5
4EC97
330
1F
100
AcDbEntity
  8
0
100
AcDbLine
 10
105020.2480463451
 20
95050.34464102246
 30
0.0
 11
105020.2466101837
 21
95050.34491591283
 31
0.0
  0
LINE
  5
4EC98
330
1F
100
AcDbEntity
  8
0
100
AcDbLine
 10
105020.2466101837
 20
95050.34491591283
 30
0.0
 11
105020.2450787876
 21
95050.34520518604
 31
0.0
  0
LINE
  5
4EC99
330
1F
100
AcDbEntity
  8
0
100
AcDbLine
 10
105020.2450787876
 20
95050.34520518604
 30
0.0
 11
105020.2434845564
 21
95050.34549048803
 31
0.0
  0
LINE
  5
4EC9A
330
1F
100
AcDbEntity
  8
0
100
AcDbLine
 10
105020.2434845564
 20
95050.34549048803
 30
0.0
 11
105020.2418598898
 21
95050.34575346465
 31
0.0
  0
LINE
  5
4EC9B
330
1F
100
AcDbEntity
  8
0
100
AcDbLine
 10
105020.2418598898
 20
95050.34575346465
 30
0.0
 11
105020.2402371873
 21
95050.34597576186
 31
0.0
  0
LINE
  5
4EC9C
330
1F
100
AcDbEntity
  8
0
100
AcDbLine
 10
105020.2402371873
 20
95050.34597576186
 30
0.0
 11
105020.2386488486
 21
95050.34613902552
 31
0.0
  0
LINE
  5
4EC9D
330
1F
100
AcDbEntity
  8
0
100
AcDbLine
 10
105020.2386488486
 20
95050.34613902552
 30
0.0
 11
105020.2371205919
 21
95050.34623487629
 31
0.0
  0
LINE
  5
4EC9E
330
1F
100
AcDbEntity
  8
0
100
AcDbLine
 10
105020.2371205919
 20
95050.34623487629
 30
0.0
 11
105020.235651411
 21
95050.3462948339
 31
0.0
  0
LINE
  5
4EC9F
330
1F
100
AcDbEntity
  8
0
100
AcDbLine
 10
105020.235651411
 20
95050.3462948339
 30
0.0
 11
105020.2342336179
 21
95050.3463603928
 31
0.0
  0
LINE
  5
4ECA0
330
1F
100
AcDbEntity
  8
0
100
AcDbLine
 10
105020.2342336179
 20
95050.3463603928
 30
0.0
 11
105020.2328595249
 21
95050.34647304743
 31
0.0
  0
LINE
  5
4ECA1
330
1F
100
AcDbEntity
  8
0
100
AcDbLine
 10
105020.2328595249
 20
95050.34647304743
 30
0.0
 11
105020.2315214444
 21
95050.34667429223
 31
0.0
  0
LINE
  5
4ECA2
330
1F
100
AcDbEntity
  8
0
100
AcDbLine
 10
105020.2315214444
 20
95050.34667429223
 30
0.0
 11
105020.2302116886
 21
95050.3470056217
 31
0.0
  0
LINE
  5
4ECA3
330
1F
100
AcDbEntity
  8
0
100
AcDbLine
 10
105020.2302116886
 20
95050.3470056217
 30
0.0
 11
105020.2289225698
 21
95050.34750853026
 31
0.0
  0
LINE
  5
4ECA4
330
1F
100
AcDbEntity
  8
0
100
AcDbLine
 10
105020.2289225698
 20
95050.34750853026
 30
0.0
 11
105020.2276464002
 21
95050.34822451239
 31
0.0
  0
LINE
  5
4ECA5
330
1F
100
AcDbEntity
  8
0
100
AcDbLine
 10
105020.2276464002
 20
95050.34822451239
 30
0.0
 11
105020.2263725708
 21
95050.34917896615
 31
0.0
  0
LINE
  5
4ECA6
330
1F
100
AcDbEntity
  8
0
100
AcDbLine
 10
105020.2263725708
 20
95050.34917896615
 30
0.0
 11
105020.2250787874
 21
95050.35033290411
 31
0.0
  0
LINE
  5
4ECA7
330
1F
100
AcDbEntity
  8
0
100
AcDbLine
 10
105020.2250787874
 20
95050.35033290411
 30
0.0
 11
105020.2237398344
 21
95050.35163124242
 31
0.0
  0
LINE
  5
4ECA8
330
1F
100
AcDbEntity
  8
0
100
AcDbLine
 10
105020.2237398344
 20
95050.35163124242
 30
0.0
 11
105020.2223304964
 21
95050.35301889725
 31
0.0
  0
LINE
  5
4ECA9
330
1F
100
AcDbEntity
  8
0
100
AcDbLine
 10
105020.2223304964
 20
95050.35301889725
 30
0.0
 11
105020.2208255578
 21
95050.3544407848
 31
0.0
  0
LINE
  5
4ECAA
330
1F
100
AcDbEntity
  8
0
100
AcDbLine
 10
105020.2208255578
 20
95050.3544407848
 30
0.0
 11
105020.219199803
 21
95050.3558418212
 31
0.0
  0
LINE
  5
4ECAB
330
1F
100
AcDbEntity
  8
0
100
AcDbLine
 10
105020.219199803
 20
95050.3558418212
 30
0.0
 11
105020.2174280166
 21
95050.35716692267
 31
0.0
  0
LINE
  5
4ECAC
330
1F
100
AcDbEntity
  8
0
100
AcDbLine
 10
105020.2174280166
 20
95050.35716692267
 30
0.0
 11
105020.2154849831
 21
95050.35836100534
 31
0.0
  0
LINE
  5
4ECAD
330
1F
100
AcDbEntity
  8
0
100
AcDbLine
 10
105020.2154849831
 20
95050.35836100534
 30
0.0
 11
105020.2133606386
 21
95050.35938229486
 31
0.0
  0
LINE
  5
4ECAE
330
1F
100
AcDbEntity
  8
0
100
AcDbLine
 10
105020.2133606386
 20
95050.35938229486
 30
0.0
 11
105020.2111055265
 21
95050.36024225477
 31
0.0
  0
LINE
  5
4ECAF
330
1F
100
AcDbEntity
  8
0
100
AcDbLine
 10
105020.2111055265
 20
95050.36024225477
 30
0.0
 11
105020.2087853419
 21
95050.36096565808
 31
0.0
  0
LINE
  5
4ECB0
330
1F
100
AcDbEntity
  8
0
100
AcDbLine
 10
105020.2087853419
 20
95050.36096565808
 30
0.0
 11
105020.2064657799
 21
95050.36157727777
 31
0.0
  0
LINE
  5
4ECB1
330
1F
100
AcDbEntity
  8
0
100
AcDbLine
 10
105020.2064657799
 20
95050.36157727777
 30
0.0
 11
105020.2042125357
 21
95050.36210188688
 31
0.0
  0
LINE
  5
4ECB2
330
1F
100
AcDbEntity
  8
0
100
AcDbLine
 10
105020.2042125357
 20
95050.36210188688
 30
0.0
 11
105020.2020913042
 21
95050.36256425837
 31
0.0
  0
LINE
  5
4ECB3
330
1F
100
AcDbEntity
  8
0
100
AcDbLine
 10
105020.2020913042
 20
95050.36256425837
 30
0.0
 11
105020.2001677806
 21
95050.36298916525
 31
0.0
  0
LINE
  5
4ECB4
330
1F
100
AcDbEntity
  8
0
100
AcDbLine
 10
105020.2001677806
 20
95050.36298916525
 30
0.0
 11
105020.1985076602
 21
95050.36340138055
 31
0.0
  0
LINE
  5
4ECB5
330
1F
100
AcDbEntity
  8
0
100
AcDbLine
 10
105020.1985076602
 20
95050.36340138055
 30
0.0
 11
105020.1971547481
 21
95050.36381820971
 31
0.0
  0
LINE
  5
4ECB6
330
1F
100
AcDbEntity
  8
0
100
AcDbLine
 10
105020.1971547481
 20
95050.36381820971
 30
0.0
 11
105020.1960652916
 21
95050.36422708803
 31
0.0
  0
LINE
  5
4ECB7
330
1F
100
AcDbEntity
  8
0
100
AcDbLine
 10
105020.1960652916
 20
95050.36422708803
 30
0.0
 11
105020.195173648
 21
95050.36460798327
 31
0.0
  0
LINE
  5
4ECB8
330
1F
100
AcDbEntity
  8
0
100
AcDbLine
 10
105020.195173648
 20
95050.36460798327
 30
0.0
 11
105020.1944141747
 21
95050.36494086317
 31
0.0
  0
LINE
  5
4ECB9
330
1F
100
AcDbEntity
  8
0
100
AcDbLine
 10
105020.1944141747
 20
95050.36494086317
 30
0.0
 11
105020.1937212291
 21
95050.36520569552
 31
0.0
  0
LINE
  5
4ECBA
330
1F
100
AcDbEntity
  8
0
100
AcDbLine
 10
105020.1937212291
 20
95050.36520569552
 30
0.0
 11
105020.1930291686
 21
95050.36538244803
 31
0.0
  0
LINE
  5
4ECBB
330
1F
100
AcDbEntity
  8
0
100
AcDbLine
 10
105020.1930291686
 20
95050.36538244803
 30
0.0
 11
105020.1922723505
 21
95050.36545108849
 31
0.0
  0
LINE
  5
4ECBC
330
1F
100
AcDbEntity
  8
0
100
AcDbLine
 10
105020.1922723505
 20
95050.36545108849
 30
0.0
 11
105020.1913851323
 21
95050.36539158465
 31
0.0
  0
LINE
  5
4ECBD
330
1F
100
AcDbEntity
  8
0
100
AcDbLine
 10
105020.1913851323
 20
95050.36539158465
 30
0.0
 11
105020.1902919276
 21
95050.36520125328
 31
0.0
  0
LINE
  5
4ECBE
330
1F
100
AcDbEntity
  8
0
100
AcDbLine
 10
105020.1902919276
 20
95050.36520125328
 30
0.0
 11
105020.1888773752
 21
95050.36494680723
 31
0.0
  0
LINE
  5
4ECBF
330
1F
100
AcDbEntity
  8
0
100
AcDbLine
 10
105020.1888773752
 20
95050.36494680723
 30
0.0
 11
105020.18701617
 21
95050.36471230836
 31
0.0
  0
LINE
  5
4ECC0
330
1F
100
AcDbEntity
  8
0
100
AcDbLine
 10
105020.18701617
 20
95050.36471230836
 30
0.0
 11
105020.1845830071
 21
95050.36458181853
 31
0.0
  0
LINE
  5
4ECC1
330
1F
100
AcDbEntity
  8
0
100
AcDbLine
 10
105020.1845830071
 20
95050.36458181853
 30
0.0
 11
105020.1814525814
 21
95050.36463939964
 31
0.0
  0
LINE
  5
4ECC2
330
1F
100
AcDbEntity
  8
0
100
AcDbLine
 10
105020.1814525814
 20
95050.36463939964
 30
0.0
 11
105020.177499588
 21
95050.36496911355
 31
0.0
  0
LINE
  5
4ECC3
330
1F
100
AcDbEntity
  8
0
100
AcDbLine
 10
105020.177499588
 20
95050.36496911355
 30
0.0
 11
105020.1725987218
 21
95050.36565502212
 31
0.0
  0
LINE
  5
4ECC4
330
1F
100
AcDbEntity
  8
0
100
AcDbLine
 10
105020.1725987218
 20
95050.36565502212
 30
0.0
 11
105020.1666246778
 21
95050.36678118722
 31
0.0
  0
LINE
  5
4ECC5
330
1F
100
AcDbEntity
  8
0
100
AcDbLine
 10
105020.1666246778
 20
95050.36678118722
 30
0.0
 11
105020.159482193
 21
95050.368455679
 31
0.0
  0
LINE
  5
4ECC6
330
1F
100
AcDbEntity
  8
0
100
AcDbLine
 10
105020.159482193
 20
95050.368455679
 30
0.0
 11
105020.1511961718
 21
95050.37088260074
 31
0.0
  0
LINE
  5
4ECC7
330
1F
100
AcDbEntity
  8
0
100
AcDbLine
 10
105020.1511961718
 20
95050.37088260074
 30
0.0
 11
105020.1418215608
 21
95050.37429006394
 31
0.0
  0
LINE
  5
4ECC8
330
1F
100
AcDbEntity
  8
0
100
AcDbLine
 10
105020.1418215608
 20
95050.37429006394
 30
0.0
 11
105020.1314133061
 21
95050.37890618018
 31
0.0
  0
LINE
  5
4ECC9
330
1F
100
AcDbEntity
  8
0
100
AcDbLine
 10
105020.1314133061
 20
95050.37890618018
 30
0.0
 11
105020.1200263544
 21
95050.38495906097
 31
0.0
  0
LINE
  5
4ECCA
330
1F
100
AcDbEntity
  8
0
100
AcDbLine
 10
105020.1200263544
 20
95050.38495906097
 30
0.0
 11
105020.1077156519
 21
95050.39267681786
 31
0.0
  0
LINE
  5
4ECCB
330
1F
100
AcDbEntity
  8
0
100
AcDbLine
 10
105020.1077156519
 20
95050.39267681786
 30
0.0
 11
105020.0945361452
 21
95050.40228756241
 31
0.0
  0
LINE
  5
4ECCC
330
1F
100
AcDbEntity
  8
0
100
AcDbLine
 10
105020.0945361452
 20
95050.40228756241
 30
0.0
 11
105020.0805427806
 21
95050.41401940614
 31
0.0
  0
LINE
  5
4ECCD
330
1F
100
AcDbEntity
  8
0
100
AcDbLine
 10
105020.0805427806
 20
95050.41401940614
 30
0.0
 11
105020.0658280414
 21
95050.42798808373
 31
0.0
  0
LINE
  5
4ECCE
330
1F
100
AcDbEntity
  8
0
100
AcDbLine
 10
105020.0658280414
 20
95050.42798808373
 30
0.0
 11
105020.0506345586
 21
95050.44385982248
 31
0.0
  0
LINE
  5
4ECCF
330
1F
100
AcDbEntity
  8
0
100
AcDbLine
 10
105020.0506345586
 20
95050.44385982248
 30
0.0
 11
105020.0352425
 21
95050.4611884728
 31
0.0
  0
LINE
  5
4ECD0
330
1F
100
AcDbEntity
  8
0
100
AcDbLine
 10
105020.0352425
 20
95050.4611884728
 30
0.0
 11
105020.0199320334
 21
95050.47952788514
 31
0.0
  0
LINE
  5
4ECD1
330
1F
100
AcDbEntity
  8
0
100
AcDbLine
 10
105020.0199320334
 20
95050.47952788514
 30
0.0
 11
105020.0049833267
 21
95050.49843190992
 31
0.0
  0
LINE
  5
4ECD2
330
1F
100
AcDbEntity
  8
0
100
AcDbLine
 10
105020.0049833267
 20
95050.49843190992
 30
0.0
 11
105019.9906765478
 21
95050.51745439756
 31
0.0
  0
LINE
  5
4ECD3
330
1F
100
AcDbEntity
  8
0
100
AcDbLine
 10
105019.9906765478
 20
95050.51745439756
 30
0.0
 11
105019.9772918644
 21
95050.5361491985
 31
0.0
  0
LINE
  5
4ECD4
330
1F
100
AcDbEntity
  8
0
100
AcDbLine
 10
105019.9772918644
 20
95050.5361491985
 30
0.0
 11
105019.9651094445
 21
95050.55407016316
 31
0.0
  0
LINE
  5
4ECD5
330
1F
100
AcDbEntity
  8
0
100
AcDbLine
 10
105019.9651094445
 20
95050.55407016316
 30
0.0
 11
105019.9543475857
 21
95050.57084294417
 31
0.0
  0
LINE
  5
4ECD6
330
1F
100
AcDbEntity
  8
0
100
AcDbLine
 10
105019.9543475857
 20
95050.57084294417
 30
0.0
 11
105019.9449771057
 21
95050.58638040296
 31
0.0
  0
LINE
  5
4ECD7
330
1F
100
AcDbEntity
  8
0
100
AcDbLine
 10
105019.9449771057
 20
95050.58638040296
 30
0.0
 11
105019.9369069521
 21
95050.6006672032
 31
0.0
  0
LINE
  5
4ECD8
330
1F
100
AcDbEntity
  8
0
100
AcDbLine
 10
105019.9369069521
 20
95050.6006672032
 30
0.0
 11
105019.9300460722
 21
95050.61368800848
 31
0.0
  0
LINE
  5
4ECD9
330
1F
100
AcDbEntity
  8
0
100
AcDbLine
 10
105019.9300460722
 20
95050.61368800848
 30
0.0
 11
105019.9243034136
 21
95050.62542748248
 31
0.0
  0
LINE
  5
4ECDA
330
1F
100
AcDbEntity
  8
0
100
AcDbLine
 10
105019.9243034136
 20
95050.62542748248
 30
0.0
 11
105019.9195879238
 21
95050.63587028882
 31
0.0
  0
LINE
  5
4ECDB
330
1F
100
AcDbEntity
  8
0
100
AcDbLine
 10
105019.9195879238
 20
95050.63587028882
 30
0.0
 11
105019.9158085504
 21
95050.64500109112
 31
0.0
  0
LINE
  5
4ECDC
330
1F
100
AcDbEntity
  8
0
100
AcDbLine
 10
105019.9158085504
 20
95050.64500109112
 30
0.0
 11
105019.9128742408
 21
95050.65280455305
 31
0.0
  0
LINE
  5
4ECDD
330
1F
100
AcDbEntity
  8
0
100
AcDbLine
 10
105019.9128742408
 20
95050.65280455305
 30
0.0
 11
105019.9106355483
 21
95050.65934170174
 31
0.0
  0
LINE
  5
4ECDE
330
1F
100
AcDbEntity
  8
0
100
AcDbLine
 10
105019.9106355483
 20
95050.65934170174
 30
0.0
 11
105019.9087094487
 21
95050.66497901847
 31
0.0
  0
LINE
  5
4ECDF
330
1F
100
AcDbEntity
  8
0
100
AcDbLine
 10
105019.9087094487
 20
95050.66497901847
 30
0.0
 11
105019.9066545237
 21
95050.67015934807
 31
0.0
  0
LINE
  5
4ECE0
330
1F
100
AcDbEntity
  8
0
100
AcDbLine
 10
105019.9066545237
 20
95050.67015934807
 30
0.0
 11
105019.9040293548
 21
95050.67532553528
 31
0.0
  0
LINE
  5
4ECE1
330
1F
100
AcDbEntity
  8
0
100
AcDbLine
 10
105019.9040293548
 20
95050.67532553528
 30
0.0
 11
105019.9003925236
 21
95050.68092042492
 31
0.0
  0
LINE
  5
4ECE2
330
1F
100
AcDbEntity
  8
0
100
AcDbLine
 10
105019.9003925236
 20
95050.68092042492
 30
0.0
 11
105019.8953026116
 21
95050.68738686178
 31
0.0
  0
LINE
  5
4ECE3
330
1F
100
AcDbEntity
  8
0
100
AcDbLine
 10
105019.8953026116
 20
95050.68738686178
 30
0.0
 11
105019.8883182006
 21
95050.69516769067
 31
0.0
  0
LINE
  5
4ECE4
330
1F
100
AcDbEntity
  8
0
100
AcDbLine
 10
105019.8883182006
 20
95050.69516769067
 30
0.0
 11
105019.878997872
 21
95050.70470575637
 31
0.0
  0
LINE
  5
4ECE5
330
1F
100
AcDbEntity
  8
0
100
AcDbLine
 10
105019.6092210158
 20
95050.92605568139
 30
0.0
 11
105019.5896348834
 21
95050.94645854848
 31
0.0
  0
LINE
  5
4ECE6
330
1F
100
AcDbEntity
  8
0
100
AcDbLine
 10
105019.5896348834
 20
95050.94645854848
 30
0.0
 11
105019.5712759819
 21
95050.96370783615
 31
0.0
  0
LINE
  5
4ECE7
330
1F
100
AcDbEntity
  8
0
100
AcDbLine
 10
105019.5712759819
 20
95050.96370783615
 30
0.0
 11
105019.5540211042
 21
95050.97843611334
 31
0.0
  0
LINE
  5
4ECE8
330
1F
100
AcDbEntity
  8
0
100
AcDbLine
 10
105019.5540211042
 20
95050.97843611334
 30
0.0
 11
105019.537747043
 21
95050.99127594906
 31
0.0
  0
LINE
  5
4ECE9
330
1F
100
AcDbEntity
  8
0
100
AcDbLine
 10
105019.537747043
 20
95050.99127594906
 30
0.0
 11
105019.522330591
 21
95051.00285991236
 31
0.0
  0
LINE
  5
4ECEA
330
1F
100
AcDbEntity
  8
0
100
AcDbLine
 10
105019.522330591
 20
95051.00285991236
 30
0.0
 11
105019.5076485408
 21
95051.01382057217
 31
0.0
  0
LINE
  5
4ECEB
330
1F
100
AcDbEntity
  8
0
100
AcDbLine
 10
105019.5076485408
 20
95051.01382057217
 30
0.0
 11
105019.4935776853
 21
95051.02479049755
 31
0.0
  0
LINE
  5
4ECEC
330
1F
100
AcDbEntity
  8
0
100
AcDbLine
 10
105019.4935776853
 20
95051.02479049755
 30
0.0
 11
105019.4799948172
 21
95051.03640225746
 31
0.0
  0
LINE
  5
4ECED
330
1F
100
AcDbEntity
  8
0
100
AcDbLine
 10
105019.4799948172
 20
95051.03640225746
 30
0.0
 11
105019.4667794116
 21
95051.0491458696
 31
0.0
  0
LINE
  5
4ECEE
330
1F
100
AcDbEntity
  8
0
100
AcDbLine
 10
105019.4667794116
 20
95051.0491458696
 30
0.0
 11
105019.4538216737
 21
95051.06294114645
 31
0.0
  0
LINE
  5
4ECEF
330
1F
100
AcDbEntity
  8
0
100
AcDbLine
 10
105019.4538216737
 20
95051.06294114645
 30
0.0
 11
105019.4410144909
 21
95051.07756534924
 31
0.0
  0
LINE
  5
4ECF0
330
1F
100
AcDbEntity
  8
0
100
AcDbLine
 10
105019.4410144909
 20
95051.07756534924
 30
0.0
 11
105019.4282507509
 21
95051.09279573911
 31
0.0
  0
LINE
  5
4ECF1
330
1F
100
AcDbEntity
  8
0
100
AcDbLine
 10
105019.4282507509
 20
95051.09279573911
 30
0.0
 11
105019.4154233411
 21
95051.10840957728
 31
0.0
  0
LINE
  5
4ECF2
330
1F
100
AcDbEntity
  8
0
100
AcDbLine
 10
105019.4154233411
 20
95051.10840957728
 30
0.0
 11
105019.4024251491
 21
95051.12418412494
 31
0.0
  0
LINE
  5
4ECF3
330
1F
100
AcDbEntity
  8
0
100
AcDbLine
 10
105019.4024251491
 20
95051.12418412494
 30
0.0
 11
105019.3891490625
 21
95051.13989664327
 31
0.0
  0
LINE
  5
4ECF4
330
1F
100
AcDbEntity
  8
0
100
AcDbLine
 10
105019.3891490625
 20
95051.13989664327
 30
0.0
 11
105019.3754879689
 21
95051.15532439345
 31
0.0
  0
LINE
  5
4ECF5
330
1F
100
AcDbEntity
  8
0
100
AcDbLine
 10
105019.3754879689
 20
95051.15532439345
 30
0.0
 11
105019.3614007181
 21
95051.17026785891
 31
0.0
  0
LINE
  5
4ECF6
330
1F
100
AcDbEntity
  8
0
100
AcDbLine
 10
105019.3614007181
 20
95051.17026785891
 30
0.0
 11
105019.3471100101
 21
95051.18462041181
 31
0.0
  0
LINE
  5
4ECF7
330
1F
100
AcDbEntity
  8
0
100
AcDbLine
 10
105019.3471100101
 20
95051.18462041181
 30
0.0
 11
105019.3329045073
 21
95051.19829864659
 31
0.0
  0
LINE
  5
4ECF8
330
1F
100
AcDbEntity
  8
0
100
AcDbLine
 10
105019.3329045073
 20
95051.19829864659
 30
0.0
 11
105019.3190728719
 21
95051.21121915767
 31
0.0
  0
LINE
  5
4ECF9
330
1F
100
AcDbEntity
  8
0
100
AcDbLine
 10
105019.3190728719
 20
95051.21121915767
 30
0.0
 11
105019.3059037662
 21
95051.22329853943
 31
0.0
  0
LINE
  5
4ECFA
330
1F
100
AcDbEntity
  8
0
100
AcDbLine
 10
105019.3059037662
 20
95051.22329853943
 30
0.0
 11
105019.2936858527
 21
95051.23445338632
 31
0.0
  0
LINE
  5
4ECFB
330
1F
100
AcDbEntity
  8
0
100
AcDbLine
 10
105019.2936858527
 20
95051.23445338632
 30
0.0
 11
105019.2827077936
 21
95051.24460029273
 31
0.0
  0
LINE
  5
4ECFC
330
1F
100
AcDbEntity
  8
0
100
AcDbLine
 10
105019.2827077936
 20
95051.24460029273
 30
0.0
 11
105019.2732582512
 21
95051.25365585307
 31
0.0
  0
LINE
  5
4ECFD
330
1F
100
AcDbEntity
  8
0
100
AcDbLine
 10
105019.2732582512
 20
95051.25365585307
 30
0.0
 11
105019.2655498419
 21
95051.26156161553
 31
0.0
  0
LINE
  5
4ECFE
330
1F
100
AcDbEntity
  8
0
100
AcDbLine
 10
105019.2655498419
 20
95051.26156161553
 30
0.0
 11
105019.2594909974
 21
95051.26835894325
 31
0.0
  0
LINE
  5
4ECFF
330
1F
100
AcDbEntity
  8
0
100
AcDbLine
 10
105019.2594909974
 20
95051.26835894325
 30
0.0
 11
105019.2549141038
 21
95051.27411415314
 31
0.0
  0
LINE
  5
4ED00
330
1F
100
AcDbEntity
  8
0
100
AcDbLine
 10
105019.2549141038
 20
95051.27411415314
 30
0.0
 11
105019.2516515468
 21
95051.27889356213
 31
0.0
  0
LINE
  5
4ED01
330
1F
100
AcDbEntity
  8
0
100
AcDbLine
 10
105019.2516515468
 20
95051.27889356213
 30
0.0
 11
105019.2495357123
 21
95051.28276348711
 31
0.0
  0
LINE
  5
4ED02
330
1F
100
AcDbEntity
  8
0
100
AcDbLine
 10
105019.2495357123
 20
95051.28276348711
 30
0.0
 11
105019.2483989861
 21
95051.285790245
 31
0.0
  0
LINE
  5
4ED03
330
1F
100
AcDbEntity
  8
0
100
AcDbLine
 10
105019.2483989861
 20
95051.285790245
 30
0.0
 11
105019.2480737542
 21
95051.28804015273
 31
0.0
  0
LINE
  5
4ED04
330
1F
100
AcDbEntity
  8
0
100
AcDbLine
 10
105019.2480737542
 20
95051.28804015273
 30
0.0
 11
105019.2483924022
 21
95051.28957952718
 31
0.0
  0
LINE
  5
4ED05
330
1F
100
AcDbEntity
  8
0
100
AcDbLine
 10
105019.2483924022
 20
95051.28957952718
 30
0.0
 11
105019.2492296538
 21
95051.29047814611
 31
0.0
  0
LINE
  5
4ED06
330
1F
100
AcDbEntity
  8
0
100
AcDbLine
 10
105019.2492296538
 20
95051.29047814611
 30
0.0
 11
105019.2506295824
 21
95051.29081963037
 31
0.0
  0
LINE
  5
4ED07
330
1F
100
AcDbEntity
  8
0
100
AcDbLine
 10
105019.2506295824
 20
95051.29081963037
 30
0.0
 11
105019.2526785993
 21
95051.29069106169
 31
0.0
  0
LINE
  5
4ED08
330
1F
100
AcDbEntity
  8
0
100
AcDbLine
 10
105019.2526785993
 20
95051.29069106169
 30
0.0
 11
105019.2554631156
 21
95051.29017952173
 31
0.0
  0
LINE
  5
4ED09
330
1F
100
AcDbEntity
  8
0
100
AcDbLine
 10
105019.2554631156
 20
95051.29017952173
 30
0.0
 11
105019.2590695425
 21
95051.28937209223
 31
0.0
  0
LINE
  5
4ED0A
330
1F
100
AcDbEntity
  8
0
100
AcDbLine
 10
105019.2590695425
 20
95051.28937209223
 30
0.0
 11
105019.2635842913
 21
95051.28835585486
 31
0.0
  0
LINE
  5
4ED0B
330
1F
100
AcDbEntity
  8
0
100
AcDbLine
 10
105019.2635842913
 20
95051.28835585486
 30
0.0
 11
105019.2690937731
 21
95051.28721789132
 31
0.0
  0
LINE
  5
4ED0C
330
1F
100
AcDbEntity
  8
0
100
AcDbLine
 10
105019.2690937731
 20
95051.28721789132
 30
0.0
 11
105019.2756843991
 21
95051.28604528332
 31
0.0
  0
LINE
  5
4ED0D
330
1F
100
AcDbEntity
  8
0
100
AcDbLine
 10
105019.2756843991
 20
95051.28604528332
 30
0.0
 11
105019.2834092219
 21
95051.28488742064
 31
0.0
  0
LINE
  5
4ED0E
330
1F
100
AcDbEntity
  8
0
100
AcDbLine
 10
105019.2834092219
 20
95051.28488742064
 30
0.0
 11
105019.2921878601
 21
95051.28364292559
 31
0.0
  0
LINE
  5
4ED0F
330
1F
100
AcDbEntity
  8
0
100
AcDbLine
 10
105019.2921878601
 20
95051.28364292559
 30
0.0
 11
105019.3019065741
 21
95051.28217272851
 31
0.0
  0
LINE
  5
4ED10
330
1F
100
AcDbEntity
  8
0
100
AcDbLine
 10
105019.3019065741
 20
95051.28217272851
 30
0.0
 11
105019.3124516238
 21
95051.28033775978
 31
0.0
  0
LINE
  5
4ED11
330
1F
100
AcDbEntity
  8
0
100
AcDbLine
 10
105019.3124516238
 20
95051.28033775978
 30
0.0
 11
105019.3237092694
 21
95051.2779989498
 31
0.0
  0
LINE
  5
4ED12
330
1F
100
AcDbEntity
  8
0
100
AcDbLine
 10
105019.3237092694
 20
95051.2779989498
 30
0.0
 11
105019.3355657711
 21
95051.27501722894
 31
0.0
  0
LINE
  5
4ED13
330
1F
100
AcDbEntity
  8
0
100
AcDbLine
 10
105019.3355657711
 20
95051.27501722894
 30
0.0
 11
105019.3479073889
 21
95051.27125352759
 31
0.0
  0
LINE
  5
4ED14
330
1F
100
AcDbEntity
  8
0
100
AcDbLine
 10
105019.3479073889
 20
95051.27125352759
 30
0.0
 11
105019.3606203831
 21
95051.26656877607
 31
0.0
  0
LINE
  5
4ED15
330
1F
100
AcDbEntity
  8
0
100
AcDbLine
 10
105019.3606203831
 20
95051.26656877607
 30
0.0
 11
105019.3736076212
 21
95051.2608326812
 31
0.0
  0
LINE
  5
4ED16
330
1F
100
AcDbEntity
  8
0
100
AcDbLine
 10
105019.3736076212
 20
95051.2608326812
 30
0.0
 11
105019.3868384011
 21
95051.25395005499
 31
0.0
  0
LINE
  5
4ED17
330
1F
100
AcDbEntity
  8
0
100
AcDbLine
 10
105019.3868384011
 20
95051.25395005499
 30
0.0
 11
105019.4002986281
 21
95051.24583448594
 31
0.0
  0
LINE
  5
4ED18
330
1F
100
AcDbEntity
  8
0
100
AcDbLine
 10
105019.4002986281
 20
95051.24583448594
 30
0.0
 11
105019.4139742077
 21
95051.23639956249
 31
0.0
  0
LINE
  5
4ED19
330
1F
100
AcDbEntity
  8
0
100
AcDbLine
 10
105019.4139742077
 20
95051.23639956249
 30
0.0
 11
105019.427851045
 21
95051.22555887307
 31
0.0
  0
LINE
  5
4ED1A
330
1F
100
AcDbEntity
  8
0
100
AcDbLine
 10
105019.427851045
 20
95051.22555887307
 30
0.0
 11
105019.4419150455
 21
95051.21322600617
 31
0.0
  0
LINE
  5
4ED1B
330
1F
100
AcDbEntity
  8
0
100
AcDbLine
 10
105019.4419150455
 20
95051.21322600617
 30
0.0
 11
105019.4561521144
 21
95051.19931455018
 31
0.0
  0
LINE
  5
4ED1C
330
1F
100
AcDbEntity
  8
0
100
AcDbLine
 10
105019.4561521144
 20
95051.19931455018
 30
0.0
 11
105019.4705481572
 21
95051.18373809358
 31
0.0
  0
LINE
  5
4ED1D
330
1F
100
AcDbEntity
  8
0
100
AcDbLine
 10
105019.4705481572
 20
95051.18373809358
 30
0.0
 11
105019.4850538737
 21
95051.1665008705
 31
0.0
  0
LINE
  5
4ED1E
330
1F
100
AcDbEntity
  8
0
100
AcDbLine
 10
105019.4850538737
 20
95051.1665008705
 30
0.0
 11
105019.4994791418
 21
95051.14796969772
 31
0.0
  0
LINE
  5
4ED1F
330
1F
100
AcDbEntity
  8
0
100
AcDbLine
 10
105019.4994791418
 20
95051.14796969772
 30
0.0
 11
105019.5135986341
 21
95051.12860203778
 31
0.0
  0
LINE
  5
4ED20
330
1F
100
AcDbEntity
  8
0
100
AcDbLine
 10
105019.5135986341
 20
95051.12860203778
 30
0.0
 11
105019.5271870229
 21
95051.10885535319
 31
0.0
  0
LINE
  5
4ED21
330
1F
100
AcDbEntity
  8
0
100
AcDbLine
 10
105019.5271870229
 20
95051.10885535319
 30
0.0
 11
105019.5400189808
 21
95051.08918710643
 31
0.0
  0
LINE
  5
4ED22
330
1F
100
AcDbEntity
  8
0
100
AcDbLine
 10
105019.5400189808
 20
95051.08918710643
 30
0.0
 11
105019.5518691803
 21
95051.07005476
 31
0.0
  0
LINE
  5
4ED23
330
1F
100
AcDbEntity
  8
0
100
AcDbLine
 10
105019.5518691803
 20
95051.07005476
 30
0.0
 11
105019.5625122938
 21
95051.05191577641
 31
0.0
  0
LINE
  5
4ED24
330
1F
100
AcDbEntity
  8
0
100
AcDbLine
 10
105019.5625122938
 20
95051.05191577641
 30
0.0
 11
105019.5717229938
 21
95051.03522761814
 31
0.0
  0
LINE
  5
4ED25
330
1F
100
AcDbEntity
  8
0
100
AcDbLine
 10
105019.5717229938
 20
95051.03522761814
 30
0.0
 11
105019.5793440285
 21
95051.02034900636
 31
0.0
  0
LINE
  5
4ED26
330
1F
100
AcDbEntity
  8
0
100
AcDbLine
 10
105019.5793440285
 20
95051.02034900636
 30
0.0
 11
105019.5854904492
 21
95051.00724369686
 31
0.0
  0
LINE
  5
4ED27
330
1F
100
AcDbEntity
  8
0
100
AcDbLine
 10
105019.5854904492
 20
95051.00724369686
 30
0.0
 11
105019.5903453828
 21
95050.99577670405
 31
0.0
  0
LINE
  5
4ED28
330
1F
100
AcDbEntity
  8
0
100
AcDbLine
 10
105019.5903453828
 20
95050.99577670405
 30
0.0
 11
105019.5940919565
 21
95050.98581304238
 31
0.0
  0
LINE
  5
4ED29
330
1F
100
AcDbEntity
  8
0
100
AcDbLine
 10
105019.5940919565
 20
95050.98581304238
 30
0.0
 11
105019.5969132971
 21
95050.9772177263
 31
0.0
  0
LINE
  5
4ED2A
330
1F
100
AcDbEntity
  8
0
100
AcDbLine
 10
105019.5969132971
 20
95050.9772177263
 30
0.0
 11
105019.5989925317
 21
95050.96985577019
 31
0.0
  0
LINE
  5
4ED2B
330
1F
100
AcDbEntity
  8
0
100
AcDbLine
 10
105019.5989925317
 20
95050.96985577019
 30
0.0
 11
105019.6005127874
 21
95050.96359218855
 31
0.0
  0
LINE
  5
4ED2C
330
1F
100
AcDbEntity
  8
0
100
AcDbLine
 10
105019.6005127874
 20
95050.96359218855
 30
0.0
 11
105019.601657191
 21
95050.95829199577
 31
0.0
  0
LINE
  5
4ED2D
330
1F
100
AcDbEntity
  8
0
100
AcDbLine
 10
105019.601657191
 20
95050.95829199577
 30
0.0
 11
105019.6025828721
 21
95050.95382590059
 31
0.0
  0
LINE
  5
4ED2E
330
1F
100
AcDbEntity
  8
0
100
AcDbLine
 10
105019.6025828721
 20
95050.95382590059
 30
0.0
 11
105019.60334297
 21
95050.95008738893
 31
0.0
  0
LINE
  5
4ED2F
330
1F
100
AcDbEntity
  8
0
100
AcDbLine
 10
105019.60334297
 20
95050.95008738893
 30
0.0
 11
105019.6039646263
 21
95050.94697564095
 31
0.0
  0
LINE
  5
4ED30
330
1F
100
AcDbEntity
  8
0
100
AcDbLine
 10
105019.6039646263
 20
95050.94697564095
 30
0.0
 11
105019.6044749829
 21
95050.94438983686
 31
0.0
  0
LINE
  5
4ED31
330
1F
100
AcDbEntity
  8
0
100
AcDbLine
 10
105019.6044749829
 20
95050.94438983686
 30
0.0
 11
105019.6049011814
 21
95050.94222915687
 31
0.0
  0
LINE
  5
4ED32
330
1F
100
AcDbEntity
  8
0
100
AcDbLine
 10
105019.6049011814
 20
95050.94222915687
 30
0.0
 11
105019.6052703636
 21
95050.9403927812
 31
0.0
  0
LINE
  5
4ED33
330
1F
100
AcDbEntity
  8
0
100
AcDbLine
 10
105019.6052703636
 20
95050.9403927812
 30
0.0
 11
105019.6056096713
 21
95050.93877988999
 31
0.0
  0
LINE
  5
4ED34
330
1F
100
AcDbEntity
  8
0
100
AcDbLine
 10
105019.6056096713
 20
95050.93877988999
 30
0.0
 11
105019.6059462462
 21
95050.93728966347
 31
0.0
  0
LINE
  5
4ED35
330
1F
100
AcDbEntity
  8
0
100
AcDbLine
 10
105019.6059462462
 20
95050.93728966347
 30
0.0
 11
105019.6063002891
 21
95050.93584092332
 31
0.0
  0
LINE
  5
4ED36
330
1F
100
AcDbEntity
  8
0
100
AcDbLine
 10
105019.6063002891
 20
95050.93584092332
 30
0.0
 11
105019.6066642375
 21
95050.93443105725
 31
0.0
  0
LINE
  5
4ED37
330
1F
100
AcDbEntity
  8
0
100
AcDbLine
 10
105019.6066642375
 20
95050.93443105725
 30
0.0
 11
105019.6070235879
 21
95050.93307709438
 31
0.0
  0
LINE
  5
4ED38
330
1F
100
AcDbEntity
  8
0
100
AcDbLine
 10
105019.6070235879
 20
95050.93307709438
 30
0.0
 11
105019.6073638367
 21
95050.93179606394
 31
0.0
  0
LINE
  5
4ED39
330
1F
100
AcDbEntity
  8
0
100
AcDbLine
 10
105019.6073638367
 20
95050.93179606394
 30
0.0
 11
105019.6076704805
 21
95050.93060499508
 31
0.0
  0
LINE
  5
4ED3A
330
1F
100
AcDbEntity
  8
0
100
AcDbLine
 10
105019.6076704805
 20
95050.93060499508
 30
0.0
 11
105019.6079290159
 21
95050.92952091693
 31
0.0
  0
LINE
  5
4ED3B
330
1F
100
AcDbEntity
  8
0
100
AcDbLine
 10
105019.6079290159
 20
95050.92952091693
 30
0.0
 11
105019.6081249392
 21
95050.92856085875
 31
0.0
  0
LINE
  5
4ED3C
330
1F
100
AcDbEntity
  8
0
100
AcDbLine
 10
105019.6081249392
 20
95050.92856085875
 30
0.0
 11
105019.608243747
 21
95050.92774184966
 31
0.0
  0
LINE
  5
4ED3D
330
1F
100
AcDbEntity
  8
0
100
AcDbLine
 10
105019.608243747
 20
95050.92774184966
 30
0.0
 11
105019.6082712938
 21
95050.92707634277
 31
0.0
  0
LINE
  5
4ED3E
330
1F
100
AcDbEntity
  8
0
100
AcDbLine
 10
105019.6082712938
 20
95050.92707634277
 30
0.0
 11
105019.6081948651
 21
95050.926558487
 31
0.0
  0
LINE
  5
4ED3F
330
1F
100
AcDbEntity
  8
0
100
AcDbLine
 10
105019.6081948651
 20
95050.926558487
 30
0.0
 11
105019.6080021047
 21
95050.92617785512
 31
0.0
  0
LINE
  5
4ED40
330
1F
100
AcDbEntity
  8
0
100
AcDbLine
 10
105019.6080021047
 20
95050.92617785512
 30
0.0
 11
105019.6076806559
 21
95050.92592401995
 31
0.0
  0
LINE
  5
4ED41
330
1F
100
AcDbEntity
  8
0
100
AcDbLine
 10
105019.6076806559
 20
95050.92592401995
 30
0.0
 11
105019.6072181623
 21
95050.9257865543
 31
0.0
  0
LINE
  5
4ED42
330
1F
100
AcDbEntity
  8
0
100
AcDbLine
 10
105019.6072181623
 20
95050.9257865543
 30
0.0
 11
105019.6066022675
 21
95050.925755031
 31
0.0
  0
LINE
  5
4ED43
330
1F
100
AcDbEntity
  8
0
100
AcDbLine
 10
105019.6066022675
 20
95050.925755031
 30
0.0
 11
105019.605820615
 21
95050.92581902285
 31
0.0
  0
LINE
  5
4ED44
330
1F
100
AcDbEntity
  8
0
100
AcDbLine
 10
105019.605820615
 20
95050.92581902285
 30
0.0
 11
105019.6048608485
 21
95050.92596810268
 31
0.0
  0
LINE
  5
4ED45
330
1F
100
AcDbEntity
  8
0
100
AcDbLine
 10
105019.6048608485
 20
95050.92596810268
 30
0.0
 11
105019.6037179853
 21
95050.92619037618
 31
0.0
  0
LINE
  5
4ED46
330
1F
100
AcDbEntity
  8
0
100
AcDbLine
 10
105019.6037179853
 20
95050.92619037618
 30
0.0
 11
105019.6024165393
 21
95050.92646808071
 31
0.0
  0
LINE
  5
4ED47
330
1F
100
AcDbEntity
  8
0
100
AcDbLine
 10
105019.6024165393
 20
95050.92646808071
 30
0.0
 11
105019.600988398
 21
95050.92678198646
 31
0.0
  0
LINE
  5
4ED48
330
1F
100
AcDbEntity
  8
0
100
AcDbLine
 10
105019.600988398
 20
95050.92678198646
 30
0.0
 11
105019.5994654491
 21
95050.92711286369
 31
0.0
  0
LINE
  5
4ED49
330
1F
100
AcDbEntity
  8
0
100
AcDbLine
 10
105019.5994654491
 20
95050.92711286369
 30
0.0
 11
105019.5978795803
 21
95050.92744148262
 31
0.0
  0
LINE
  5
4ED4A
330
1F
100
AcDbEntity
  8
0
100
AcDbLine
 10
105019.5978795803
 20
95050.92744148262
 30
0.0
 11
105019.5962626793
 21
95050.92774861347
 31
0.0
  0
LINE
  5
4ED4B
330
1F
100
AcDbEntity
  8
0
100
AcDbLine
 10
105019.5962626793
 20
95050.92774861347
 30
0.0
 11
105019.5946466336
 21
95050.92801502646
 31
0.0
  0
LINE
  5
4ED4C
330
1F
100
AcDbEntity
  8
0
100
AcDbLine
 10
105019.5946466336
 20
95050.92801502646
 30
0.0
 11
105019.5930633311
 21
95050.92822149187
 31
0.0
  0
LINE
  5
4ED4D
330
1F
100
AcDbEntity
  8
0
100
AcDbLine
 10
105019.5930633311
 20
95050.92822149187
 30
0.0
 11
105019.5915382522
 21
95050.92835893291
 31
0.0
  0
LINE
  5
4ED4E
330
1F
100
AcDbEntity
  8
0
100
AcDbLine
 10
105019.5915382522
 20
95050.92835893291
 30
0.0
 11
105019.5900712494
 21
95050.92845888503
 31
0.0
  0
LINE
  5
4ED4F
330
1F
100
AcDbEntity
  8
0
100
AcDbLine
 10
105019.5900712494
 20
95050.92845888503
 30
0.0
 11
105019.588655768
 21
95050.92856303667
 31
0.0
  0
LINE
  5
4ED50
330
1F
100
AcDbEntity
  8
0
100
AcDbLine
 10
105019.588655768
 20
95050.92856303667
 30
0.0
 11
105019.5872852532
 21
95050.92871307628
 31
0.0
  0
LINE
  5
4ED51
330
1F
100
AcDbEntity
  8
0
100
AcDbLine
 10
105019.5872852532
 20
95050.92871307628
 30
0.0
 11
105019.5859531506
 21
95050.92895069234
 31
0.0
  0
LINE
  5
4ED52
330
1F
100
AcDbEntity
  8
0
100
AcDbLine
 10
105019.5859531506
 20
95050.92895069234
 30
0.0
 11
105019.5846529053
 21
95050.92931757328
 31
0.0
  0
LINE
  5
4ED53
330
1F
100
AcDbEntity
  8
0
100
AcDbLine
 10
105019.5846529053
 20
95050.92931757328
 30
0.0
 11
105019.5833779627
 21
95050.92985540757
 31
0.0
  0
LINE
  5
4ED54
330
1F
100
AcDbEntity
  8
0
100
AcDbLine
 10
105019.5833779627
 20
95050.92985540757
 30
0.0
 11
105019.582121768
 21
95050.93060588368
 31
0.0
  0
LINE
  5
4ED55
330
1F
100
AcDbEntity
  8
0
100
AcDbLine
 10
105019.582121768
 20
95050.93060588368
 30
0.0
 11
105019.5808744081
 21
95050.9315946792
 31
0.0
  0
LINE
  5
4ED56
330
1F
100
AcDbEntity
  8
0
100
AcDbLine
 10
105019.5808744081
 20
95050.9315946792
 30
0.0
 11
105019.5796125351
 21
95050.9327834284
 31
0.0
  0
LINE
  5
4ED57
330
1F
100
AcDbEntity
  8
0
100
AcDbLine
 10
105019.5796125351
 20
95050.9327834284
 30
0.0
 11
105019.5783094423
 21
95050.93411775469
 31
0.0
  0
LINE
  5
4ED58
330
1F
100
AcDbEntity
  8
0
100
AcDbLine
 10
105019.5783094423
 20
95050.93411775469
 30
0.0
 11
105019.5769384234
 21
95050.93554328148
 31
0.0
  0
LINE
  5
4ED59
330
1F
100
AcDbEntity
  8
0
100
AcDbLine
 10
105019.5769384234
 20
95050.93554328148
 30
0.0
 11
105019.5754727717
 21
95050.93700563218
 31
0.0
  0
LINE
  5
4ED5A
330
1F
100
AcDbEntity
  8
0
100
AcDbLine
 10
105019.5754727717
 20
95050.93700563218
 30
0.0
 11
105019.5738857808
 21
95050.93845043022
 31
0.0
  0
LINE
  5
4ED5B
330
1F
100
AcDbEntity
  8
0
100
AcDbLine
 10
105019.5738857808
 20
95050.93845043022
 30
0.0
 11
105019.5721507441
 21
95050.93982329901
 31
0.0
  0
LINE
  5
4ED5C
330
1F
100
AcDbEntity
  8
0
100
AcDbLine
 10
105019.5721507441
 20
95050.93982329901
 30
0.0
 11
105019.5702409552
 21
95050.94106986195
 31
0.0
  0
LINE
  5
4ED5D
330
1F
100
AcDbEntity
  8
0
100
AcDbLine
 10
105019.5702409552
 20
95050.94106986195
 30
0.0
 11
105019.5681452162
 21
95050.94214863429
 31
0.0
  0
LINE
  5
4ED5E
330
1F
100
AcDbEntity
  8
0
100
AcDbLine
 10
105019.5681452162
 20
95050.94214863429
 30
0.0
 11
105019.5659143638
 21
95050.94306969867
 31
0.0
  0
LINE
  5
4ED5F
330
1F
100
AcDbEntity
  8
0
100
AcDbLine
 10
105019.5659143638
 20
95050.94306969867
 30
0.0
 11
105019.5636147437
 21
95050.94385602951
 31
0.0
  0
LINE
  5
4ED60
330
1F
100
AcDbEntity
  8
0
100
AcDbLine
 10
105019.5636147437
 20
95050.94385602951
 30
0.0
 11
105019.5613127013
 21
95050.94453060126
 31
0.0
  0
LINE
  5
4ED61
330
1F
100
AcDbEntity
  8
0
100
AcDbLine
 10
105019.5613127013
 20
95050.94453060126
 30
0.0
 11
105019.559074582
 21
95050.94511638834
 31
0.0
  0
LINE
  5
4ED62
330
1F
100
AcDbEntity
  8
0
100
AcDbLine
 10
105019.559074582
 20
95050.94511638834
 30
0.0
 11
105019.5569667314
 21
95050.94563636523
 31
0.0
  0
LINE
  5
4ED63
330
1F
100
AcDbEntity
  8
0
100
AcDbLine
 10
105019.5569667314
 20
95050.94563636523
 30
0.0
 11
105019.5550554949
 21
95050.94611350637
 31
0.0
  0
LINE
  5
4ED64
330
1F
100
AcDbEntity
  8
0
100
AcDbLine
 10
105019.5550554949
 20
95050.94611350637
 30
0.0
 11
105019.553407218
 21
95050.94657078618
 31
0.0
  0
LINE
  5
4ED65
330
1F
100
AcDbEntity
  8
0
100
AcDbLine
 10
105019.553407218
 20
95050.94657078618
 30
0.0
 11
105019.5520661612
 21
95050.94702431057
 31
0.0
  0
LINE
  5
4ED66
330
1F
100
AcDbEntity
  8
0
100
AcDbLine
 10
105019.5520661612
 20
95050.94702431057
 30
0.0
 11
105019.5509882458
 21
95050.94746271121
 31
0.0
  0
LINE
  5
4ED67
330
1F
100
AcDbEntity
  8
0
100
AcDbLine
 10
105019.5509882458
 20
95050.94746271121
 30
0.0
 11
105019.5501073076
 21
95050.94786775124
 31
0.0
  0
LINE
  5
4ED68
330
1F
100
AcDbEntity
  8
0
100
AcDbLine
 10
105019.5501073076
 20
95050.94786775124
 30
0.0
 11
105019.5493571829
 21
95050.94822119378
 31
0.0
  0
LINE
  5
4ED69
330
1F
100
AcDbEntity
  8
0
100
AcDbLine
 10
105019.5493571829
 20
95050.94822119378
 30
0.0
 11
105019.5486717077
 21
95050.94850480192
 31
0.0
  0
LINE
  5
4ED6A
330
1F
100
AcDbEntity
  8
0
100
AcDbLine
 10
105019.5486717077
 20
95050.94850480192
 30
0.0
 11
105019.5479847182
 21
95050.94870033884
 31
0.0
  0
LINE
  5
4ED6B
330
1F
100
AcDbEntity
  8
0
100
AcDbLine
 10
105019.5479847182
 20
95050.94870033884
 30
0.0
 11
105019.5472300505
 21
95050.94878956763
 31
0.0
  0
LINE
  5
4ED6C
330
1F
100
AcDbEntity
  8
0
100
AcDbLine
 10
105019.5472300505
 20
95050.94878956763
 30
0.0
 11
105019.5463415407
 21
95050.94875425143
 31
0.0
  0
LINE
  5
4ED6D
330
1F
100
AcDbEntity
  8
0
100
AcDbLine
 10
105019.5463415407
 20
95050.94875425143
 30
0.0
 11
105019.5452435575
 21
95050.94859376677
 31
0.0
  0
LINE
  5
4ED6E
330
1F
100
AcDbEntity
  8
0
100
AcDbLine
 10
105019.5452435575
 20
95050.94859376677
 30
0.0
 11
105019.5438225994
 21
95050.94837794391
 31
0.0
  0
LINE
  5
4ED6F
330
1F
100
AcDbEntity
  8
0
100
AcDbLine
 10
105019.5438225994
 20
95050.94837794391
 30
0.0
 11
105019.5419556976
 21
95050.94819422653
 31
0.0
  0
LINE
  5
4ED70
330
1F
100
AcDbEntity
  8
0
100
AcDbLine
 10
105019.5419556976
 20
95050.94819422653
 30
0.0
 11
105019.5395198832
 21
95050.94813005831
 31
0.0
  0
LINE
  5
4ED71
330
1F
100
AcDbEntity
  8
0
100
AcDbLine
 10
105019.5395198832
 20
95050.94813005831
 30
0.0
 11
105019.5363921873
 21
95050.94827288287
 31
0.0
  0
LINE
  5
4ED72
330
1F
100
AcDbEntity
  8
0
100
AcDbLine
 10
105019.5363921873
 20
95050.94827288287
 30
0.0
 11
105019.532449641
 21
95050.94871014392
 31
0.0
  0
LINE
  5
4ED73
330
1F
100
AcDbEntity
  8
0
100
AcDbLine
 10
105019.532449641
 20
95050.94871014392
 30
0.0
 11
105019.5275692755
 21
95050.94952928514
 31
0.0
  0
LINE
  5
4ED74
330
1F
100
AcDbEntity
  8
0
100
AcDbLine
 10
105019.5275692755
 20
95050.94952928514
 30
0.0
 11
105019.5216281218
 21
95050.95081775017
 31
0.0
  0
LINE
  5
4ED75
330
1F
100
AcDbEntity
  8
0
100
AcDbLine
 10
105019.5216281218
 20
95050.95081775017
 30
0.0
 11
105019.5145338958
 21
95050.95268616379
 31
0.0
  0
LINE
  5
4ED76
330
1F
100
AcDbEntity
  8
0
100
AcDbLine
 10
105019.5145338958
 20
95050.95268616379
 30
0.0
 11
105019.506317052
 21
95050.95533787523
 31
0.0
  0
LINE
  5
4ED77
330
1F
100
AcDbEntity
  8
0
100
AcDbLine
 10
105019.506317052
 20
95050.95533787523
 30
0.0
 11
105019.4970387296
 21
95050.95899941478
 31
0.0
  0
LINE
  5
4ED78
330
1F
100
AcDbEntity
  8
0
100
AcDbLine
 10
105019.4970387296
 20
95050.95899941478
 30
0.0
 11
105019.4867600678
 21
95050.96389731274
 31
0.0
  0
LINE
  5
4ED79
330
1F
100
AcDbEntity
  8
0
100
AcDbLine
 10
105019.4867600678
 20
95050.96389731274
 30
0.0
 11
105019.4755422057
 21
95050.97025809943
 31
0.0
  0
LINE
  5
4ED7A
330
1F
100
AcDbEntity
  8
0
100
AcDbLine
 10
105019.4755422057
 20
95050.97025809943
 30
0.0
 11
105019.4634462827
 21
95050.97830830518
 31
0.0
  0
LINE
  5
4ED7B
330
1F
100
AcDbEntity
  8
0
100
AcDbLine
 10
105019.4634462827
 20
95050.97830830518
 30
0.0
 11
105019.4505334379
 21
95050.98827446024
 31
0.0
  0
LINE
  5
4ED7C
330
1F
100
AcDbEntity
  8
0
100
AcDbLine
 10
105019.4505334379
 20
95050.98827446024
 30
0.0
 11
105019.4368648105
 21
95051.00038309498
 31
0.0
  0
LINE
  5
4ED7D
330
1F
100
AcDbEntity
  8
0
100
AcDbLine
 10
105019.4368648105
 20
95051.00038309498
 30
0.0
 11
105019.4225360018
 21
95051.01474738209
 31
0.0
  0
LINE
  5
4ED7E
330
1F
100
AcDbEntity
  8
0
100
AcDbLine
 10
105019.4225360018
 20
95051.01474738209
 30
0.0
 11
105019.4077804616
 21
95051.03102706408
 31
0.0
  0
LINE
  5
4ED7F
330
1F
100
AcDbEntity
  8
0
100
AcDbLine
 10
105019.4077804616
 20
95051.03102706408
 30
0.0
 11
105019.3928661019
 21
95051.04876852582
 31
0.0
  0
LINE
  5
4ED80
330
1F
100
AcDbEntity
  8
0
100
AcDbLine
 10
105019.3928661019
 20
95051.04876852582
 30
0.0
 11
105019.3780608345
 21
95051.06751815221
 31
0.0
  0
LINE
  5
4ED81
330
1F
100
AcDbEntity
  8
0
100
AcDbLine
 10
105019.3780608345
 20
95051.06751815221
 30
0.0
 11
105019.3636325714
 21
95051.08682232814
 31
0.0
  0
LINE
  5
4ED82
330
1F
100
AcDbEntity
  8
0
100
AcDbLine
 10
105019.3636325714
 20
95051.08682232814
 30
0.0
 11
105019.3498492245
 21
95051.10622743851
 31
0.0
  0
LINE
  5
4ED83
330
1F
100
AcDbEntity
  8
0
100
AcDbLine
 10
105019.3498492245
 20
95051.10622743851
 30
0.0
 11
105019.3369787058
 21
95051.1252798682
 31
0.0
  0
LINE
  5
4ED84
330
1F
100
AcDbEntity
  8
0
100
AcDbLine
 10
105019.3369787058
 20
95051.1252798682
 30
0.0
 11
105019.3252889271
 21
95051.14352600214
 31
0.0
  0
LINE
  5
4ED85
330
1F
100
AcDbEntity
  8
0
100
AcDbLine
 10
105019.3252889271
 20
95051.14352600214
 30
0.0
 11
105019.3149879089
 21
95051.16058568594
 31
0.0
  0
LINE
  5
4ED86
330
1F
100
AcDbEntity
  8
0
100
AcDbLine
 10
105019.3149879089
 20
95051.16058568594
 30
0.0
 11
105019.3060441062
 21
95051.17637260823
 31
0.0
  0
LINE
  5
4ED87
330
1F
100
AcDbEntity
  8
0
100
AcDbLine
 10
105019.3060441062
 20
95051.17637260823
 30
0.0
 11
105019.2983660827
 21
95051.19087391838
 31
0.0
  0
LINE
  5
4ED88
330
1F
100
AcDbEntity
  8
0
100
AcDbLine
 10
105019.2983660827
 20
95051.19087391838
 30
0.0
 11
105019.2918624018
 21
95051.20407676573
 31
0.0
  0
LINE
  5
4ED89
330
1F
100
AcDbEntity
  8
0
100
AcDbLine
 10
105019.2918624018
 20
95051.20407676573
 30
0.0
 11
105019.2864416272
 21
95051.21596829967
 31
0.0
  0
LINE
  5
4ED8A
330
1F
100
AcDbEntity
  8
0
100
AcDbLine
 10
105019.2864416272
 20
95051.21596829967
 30
0.0
 11
105019.2820123224
 21
95051.22653566957
 31
0.0
  0
LINE
  5
4ED8B
330
1F
100
AcDbEntity
  8
0
100
AcDbLine
 10
105019.2820123224
 20
95051.22653566957
 30
0.0
 11
105019.2784830509
 21
95051.23576602478
 31
0.0
  0
LINE
  5
4ED8C
330
1F
100
AcDbEntity
  8
0
100
AcDbLine
 10
105019.2784830509
 20
95051.23576602478
 30
0.0
 11
105019.2757623765
 21
95051.24364651468
 31
0.0
  0
LINE
  5
4ED8D
330
1F
100
AcDbEntity
  8
0
100
AcDbLine
 10
105019.2757623765
 20
95051.24364651468
 30
0.0
 11
105019.2737025698
 21
95051.25024221431
 31
0.0
  0
LINE
  5
4ED8E
330
1F
100
AcDbEntity
  8
0
100
AcDbLine
 10
105019.2737025698
 20
95051.25024221431
 30
0.0
 11
105019.271930731
 21
95051.25592990161
 31
0.0
  0
LINE
  5
4ED8F
330
1F
100
AcDbEntity
  8
0
100
AcDbLine
 10
105019.271930731
 20
95051.25592990161
 30
0.0
 11
105019.2700176673
 21
95051.26116428018
 31
0.0
  0
LINE
  5
4ED90
330
1F
100
AcDbEntity
  8
0
100
AcDbLine
 10
105019.2700176673
 20
95051.26116428018
 30
0.0
 11
105019.2675341861
 21
95051.26640005361
 31
0.0
  0
LINE
  5
4ED91
330
1F
100
AcDbEntity
  8
0
100
AcDbLine
 10
105019.2675341861
 20
95051.26640005361
 30
0.0
 11
105019.2640510948
 21
95051.27209192552
 31
0.0
  0
LINE
  5
4ED92
330
1F
100
AcDbEntity
  8
0
100
AcDbLine
 10
105019.2640510948
 20
95051.27209192552
 30
0.0
 11
105019.2591392005
 21
95051.27869459952
 31
0.0
  0
LINE
  5
4ED93
330
1F
100
AcDbEntity
  8
0
100
AcDbLine
 10
105019.2591392005
 20
95051.27869459952
 30
0.0
 11
105019.2523693107
 21
95051.28666277922
 31
0.0
  0
LINE
  5
4ED94
330
1F
100
AcDbEntity
  8
0
100
AcDbLine
 10
105019.2523693107
 20
95051.28666277922
 30
0.0
 11
105019.2433122327
 21
95051.29645116824
 31
0.0
  0
ARC
  5
4ED95
330
1F
100
AcDbEntity
  8
0
100
AcDbCircle
 10
105018.2937838296
 20
95049.26105897585
 30
0.0
 40
1.700000000000905
100
AcDbArc
 50
21.528744328882
 51
125.2454405102753
  0
ARC
  5
4ED96
330
1F
100
AcDbEntity
  8
0
100
AcDbCircle
 10
105018.2931669203
 20
95049.26342470662
 30
0.0
 40
2.497752597576747
100
AcDbArc
 50
20.47439801182117
 51
127.8110182546469
  0
ARC
  5
4ED97
330
1F
100
AcDbEntity
  8
0
100
AcDbCircle
 10
105018.2931669203
 20
95049.26342470662
 30
0.0
 40
2.447752597576721
100
AcDbArc
 50
19.39735152086781
 51
129.860224058015
  0
ENDSEC
  0
SECTION
  2
OBJECTS
  0
DICTIONARY
  5
C
330
0
100
AcDbDictionary
281
     1
  3
ACAD_ASSOCPERSSUBENTMANAGER
350
2C1D4
  3
ACAD_CIP_PREVIOUS_PRODUCT_INFO
350
1A5
  3
ACAD_COLOR
350
73
  3
ACAD_DETAILVIEWSTYLE
350
1AB
  3
ACAD_GROUP
350
D
  3
ACAD_LAYOUT
350
1A
  3
ACAD_MATERIAL
350
72
  3
ACAD_MLEADERSTYLE
350
D7
  3
ACAD_MLINESTYLE
350
17
  3
ACAD_PLOTSETTINGS
350
19
  3
ACAD_PLOTSTYLENAME
350
E
  3
ACAD_SCALELIST
350
B6
  3
ACAD_SECTIONVIEWSTYLE
350
1A8
  3
ACAD_TABLESTYLE
350
86
  3
ACAD_VISUALSTYLE
350
99
  3
ACDB_RECOMPOSE_DATA
350
4EDA8
  3
ACDBVARIABLEDICTIONARY
350
4E684
  3
AEC_PROPERTY_SET_DEFS
350
22D1
  0
DICTIONARY
  5
18E
330
2
100
AcDbDictionary
280
     1
281
     1
  3
ACAD_LAYERSTATES
360
18F
  0
DICTIONARY
  5
E6
330
10
100
AcDbDictionary
280
     1
281
     1
  0
DICTIONARY
  5
15D
330
1F
100
AcDbDictionary
280
     1
281
     1
  3
ACAD_SORTENTS
360
28E
  0
ACDBASSOCPERSSUBENTMANAGER
  5
2C1D4
102
{ACAD_REACTORS
330
C
102
}
330
C
100
AcDbAssocPersSubentManager
 90
        2
 90
        3
 90
        0
 90
        2
 90
     1260
 90
        0
 90
        0
 90
        0
 90
        0
290
     0
  0
XRECORD
  5
1A5
102
{ACAD_REACTORS
330
C
102
}
330
C
100
AcDbXrecord
280
     1
300
ACD
300
2022
300

  0
DICTIONARY
  5
73
102
{ACAD_REACTORS
330
C
102
}
330
C
100
AcDbDictionary
281
     1
  0
DICTIONARY
  5
1AB
102
{ACAD_REACTORS
330
C
102
}
330
C
100
AcDbDictionary
281
     1
  3
Imperial24
350
1AC
  3
Metric50
350
224
  0
DICTIONARY
  5
D
102
{ACAD_REACTORS
330
C
102
}
330
C
100
AcDbDictionary
281
     1
  0
DICTIONARY
  5
1A
102
{ACAD_REACTORS
330
C
102
}
330
C
100
AcDbDictionary
281
     1
  3
Layout1
350
59
  3
Layout2
350
5E
  3
Model
350
22
  0
DICTIONARY
  5
72
102
{ACAD_REACTORS
330
C
102
}
330
C
100
AcDbDictionary
281
     1
  3
ByBlock
350
97
  3
ByLayer
350
96
  3
Global
350
98
  0
DICTIONARY
  5
D7
102
{ACAD_REACTORS
330
C
102
}
330
C
100
AcDbDictionary
281
     1
  3
Standard
350
D8
  0
DICTIONARY
  5
17
102
{ACAD_REACTORS
330
C
102
}
330
C
100
AcDbDictionary
281
     1
  3
Standard
350
18
  0
DICTIONARY
  5
19
102
{ACAD_REACTORS
330
C
102
}
330
C
100
AcDbDictionary
281
     1
  0
ACDBDICTIONARYWDFLT
  5
E
102
{ACAD_REACTORS
330
C
102
}
330
C
100
AcDbDictionary
281
     1
  3
Normal
350
F
100
AcDbDictionaryWithDefault
340
F
  0
DICTIONARY
  5
B6
102
{ACAD_REACTORS
330
C
102
}
330
C
100
AcDbDictionary
281
     1
  3
*A1
350
2283
  3
A0
350
B7
  3
A1
350
124
  3
A2
350
125
  3
A3
350
126
  3
A4
350
127
  3
A5
350
128
  3
A6
350
129
  3
A7
350
12A
  3
A8
350
12B
  3
A9
350
12C
  3
B0
350
12D
  3
B1
350
12E
  3
B2
350
12F
  3
B3
350
130
  3
B4
350
131
  3
B5
350
132
  3
B6
350
133
  3
B7
350
134
  3
B8
350
135
  3
B9
350
136
  3
C0
350
137
  3
C1
350
138
  3
C2
350
139
  3
C3
350
13A
  3
C4
350
13B
  3
C5
350
13C
  3
C6
350
13D
  3
C7
350
13E
  3
C8
350
13F
  3
C9
350
140
  3
D0
350
141
  3
D1
350
142
  3
D2
350
143
  0
DICTIONARY
  5
1A8
102
{ACAD_REACTORS
330
C
102
}
330
C
100
AcDbDictionary
281
     1
  3
Imperial24
350
1AA
  3
Metric50
350
223
  0
DICTIONARY
  5
86
102
{ACAD_REACTORS
330
C
102
}
330
C
100
AcDbDictionary
281
     1
  3
Standard
350
87
  0
DICTIONARY
  5
99
102
{ACAD_REACTORS
330
C
102
}
330
C
100
AcDbDictionary
281
     1
  3
2dWireframe
350
9F
  3
3dWireframe
350
22946
  3
Basic
350
9E
  3
Brighten
350
A5
  3
ColorChange
350
A9
  3
Conceptual
350
A2
  3
Dim
350
A4
  3
EdgeColorOff
350
175
  3
Facepattern
350
A8
  3
Flat
350
9A
  3
FlatWithEdges
350
9B
  3
Gouraud
350
9C
  3
GouraudWithEdges
350
9D
  3
Hidden
350
A1
  3
JitterOff
350
173
  3
Linepattern
350
A7
  3
OverhangOff
350
174
  3
Realistic
350
A3
  3
Shaded
350
182
  3
Shaded with edges
350
181
  3
Shades of Gray
350
17E
  3
Sketchy
350
17F
  3
Thicken
350
A6
  3
Wireframe
350
A0
  3
X-Ray
350
180
  0
XRECORD
  5
4EDA8
102
{ACAD_REACTORS
330
C
102
}
330
C
100
AcDbXrecord
280
     1
 90
        1
330
87
  0
DICTIONARY
  5
4E684
102
{ACAD_REACTORS
330
C
102
}
330
C
100
AcDbDictionary
281
     2
  3
#REVCLOUDAPPROXARCLEN
350
4E685
  3
ANNOALLVISIBLE
350
4E686
  3
CAMERADISPLAY
350
4E687
  3
CANNOSCALE
350
4E688
  3
CMLEADERSTYLE
350
4E689
  3
CTABLESTYLE
350
4E68A
  3
CVIEWDETAILSTYLE
350
4E68B
  3
CVIEWSECTIONSTYLE
350
4E68C
  3
DIMADEC
350
4E68D
  3
DIMASSOC
350
4E68E
  3
EXPORTPAPERSPACE
350
4E68F
  3
HPCOLOR
350
4E690
  3
HPINHERIT
350
4E691
  3
HPLAYER
350
4E692
  3
HPTRANSPARENCY
350
4E693
  3
INDEXCTL
350
4E694
  3
LAYEREVAL
350
4E695
  3
LAYERNOTIFY
350
4E696
  3
LIGHTINGUNITS
350
4E697
  3
MLEADERSCALE
350
4E698
  3
MSLTSCALE
350
4E699
  3
OLEFRAME
350
4E69A
  3
PDFFRAME
350
4E69B
  3
SOLIDHIST
350
4E69C
  3
SORTENTS
350
4E69D
  0
DICTIONARY
  5
22D1
102
{ACAD_REACTORS
330
C
102
}
330
C
100
AcDbDictionary
281
     1
  0
DICTIONARY
  5
18F
102
{ACAD_REACTORS
330
18E
102
}
330
18E
100
AcDbDictionary
281
     1
  0
SORTENTSTABLE
  5
28E
102
{ACAD_REACTORS
330
15D
102
}
330
15D
100
AcDbSortentsTable
330
1F
  0
ACDBDETAILVIEWSTYLE
  5
1AC
102
{ACAD_REACTORS
330
1AB
102
}
330
1AB
100
AcDbModelDocViewStyle
 70
     0
  3
Imperial24
290
     0
300
Imperial24
 90
        0
100
AcDbDetailViewStyle
 70
     0
 71
     0
 90
        3
 71
     1
340
11
 62
   256
 40
0.24
340
0
 62
   256
 40
0.24
300

 40
0.36
280
     3
 71
     2
340
16
 90
       25
 62
   256
 71
     3
340
11
 62
   256
 40
0.24
 90
        1
 40
0.75
 90
        1
300
%<\AcVar ViewType \f "%tc1">% %<\AcVar ViewDetailId>%\PSCALE %<\AcVar ViewScale \f "%sn">%
 71
     4
340
16
 90
       25
 62
   256
340
16
 90
       25
 62
   256
280
     0
  0
ACDBDETAILVIEWSTYLE
  5
224
102
{ACAD_REACTORS
330
1AB
102
}
330
1AB
100
AcDbModelDocViewStyle
 70
     0
  3
Metric50
290
     0
300
Metric50
 90
        0
100
AcDbDetailViewStyle
 70
     0
 71
     0
 90
        3
 71
     1
340
11
 62
   256
 40
5.0
340
0
 62
   256
 40
5.0
300

 40
0.0
280
     1
 71
     2
340
16
 90
       25
 62
   256
 71
     3
340
11
 62
   256
 40
5.0
 90
        0
 40
15.0
 90
        1
300
%<\AcVar ViewDetailId>% (%<\AcVar ViewScale \f "%sn">%)
 71
     4
340
16
 90
       25
 62
   256
340
16
 90
       25
 62
   256
280
     0
  0
LAYOUT
  5
59
102
{ACAD_REACTORS
330
1A
102
}
330
1A
100
AcDbPlotSettings
  1

  2
None
  4

  6

 40
0.0
 41
0.0
 42
0.0
 43
0.0
 44
0.0
 45
0.0
 46
0.0
 47
0.0
 48
0.0
 49
0.0
140
0.0
141
0.0
142
1.0
143
1.0
 70
   688
 72
     0
 73
     0
 74
     5
  7

 75
    16
147
1.0
 76
     0
 77
     2
 78
   300
148
0.0
149
0.0
100
AcDbLayout
  1
Layout1
 70
     1
 71
     1
 10
0.0
 20
0.0
 11
12.0
 21
9.0
 12
0.0
 22
0.0
 32
0.0
 14
0.0
 24
0.0
 34
0.0
 15
0.0
 25
0.0
 35
0.0
146
0.0
 13
0.0
 23
0.0
 33
0.0
 16
1.0
 26
0.0
 36
0.0
 17
0.0
 27
1.0
 37
0.0
 76
     0
330
58
  0
LAYOUT
  5
5E
102
{ACAD_REACTORS
330
1A
102
}
330
1A
100
AcDbPlotSettings
  1

  2
None
  4

  6

 40
0.0
 41
0.0
 42
0.0
 43
0.0
 44
0.0
 45
0.0
 46
0.0
 47
0.0
 48
0.0
 49
0.0
140
0.0
141
0.0
142
1.0
143
1.0
 70
   688
 72
     0
 73
     0
 74
     5
  7

 75
    16
147
1.0
 76
     0
 77
     2
 78
   300
148
0.0
149
0.0
100
AcDbLayout
  1
Layout2
 70
     1
 71
     2
 10
0.0
 20
0.0
 11
12.0
 21
9.0
 12
0.0
 22
0.0
 32
0.0
 14
0.0
 24
0.0
 34
0.0
 15
0.0
 25
0.0
 35
0.0
146
0.0
 13
0.0
 23
0.0
 33
0.0
 16
1.0
 26
0.0
 36
0.0
 17
0.0
 27
1.0
 37
0.0
 76
     0
330
5D
  0
LAYOUT
  5
22
102
{ACAD_XDICTIONARY
360
194
102
}
102
{ACAD_REACTORS
330
1A
102
}
330
1A
100
AcDbPlotSettings
  1

  2
none_device
  4
ANSI_A_(8.50_x_11.00_Inches)
  6

 40
6.349999904632568
 41
19.04999923706055
 42
6.350006103515625
 43
19.04998779296875
 44
215.8999938964844
 45
279.3999938964844
 46
0.0
 47
0.0
 48
0.0
 49
0.0
140
0.0
141
0.0
142
1.0
143
2.584895464708373
 70
 11952
 72
     0
 73
     1
 74
     0
  7

 75
     0
147
0.3868628397755418
 76
     0
 77
     2
 78
   300
148
0.0
149
0.0
100
AcDbLayout
  1
Model
 70
     1
 71
     0
 10
0.0
 20
0.0
 11
12.0
 21
9.0
 12
0.0
 22
0.0
 32
0.0
 14
0.0
 24
0.0
 34
0.0
 15
0.0
 25
0.0
 35
0.0
146
0.0
 13
0.0
 23
0.0
 33
0.0
 16
1.0
 26
0.0
 36
0.0
 17
0.0
 27
1.0
 37
0.0
 76
     0
330
1F
331
94
  0
MATERIAL
  5
97
102
{ACAD_XDICTIONARY
360
188
102
}
102
{ACAD_REACTORS
330
72
102
}
330
72
100
AcDbMaterial
  1
ByBlock
 94
       63
  0
MATERIAL
  5
96
102
{ACAD_XDICTIONARY
360
186
102
}
102
{ACAD_REACTORS
330
72
102
}
330
72
100
AcDbMaterial
  1
ByLayer
 94
       63
  0
MATERIAL
  5
98
102
{ACAD_XDICTIONARY
360
110
102
}
102
{ACAD_REACTORS
330
72
102
}
330
72
100
AcDbMaterial
  1
Global
 43
0.0208000000566244
 43
0.0
 43
0.0
 43
0.0
 43
0.0
 43
0.0208000000566244
 43
0.0
 43
0.0
 43
0.0
 43
0.0
 43
1.0
 43
0.0
 43
0.0
 43
0.0
 43
0.0
 43
1.0
 49
0.0208000000566244
 49
0.0
 49
0.0
 49
0.0
 49
0.0
 49
0.0208000000566244
 49
0.0
 49
0.0
 49
0.0
 49
0.0
 49
1.0
 49
0.0
 49
0.0
 49
0.0
 49
0.0
 49
1.0
142
0.0208000000566244
142
0.0
142
0.0
142
0.0
142
0.0
142
0.0208000000566244
142
0.0
142
0.0
142
0.0
142
0.0
142
1.0
142
0.0
142
0.0
142
0.0
142
0.0
142
1.0
144
0.0208000000566244
144
0.0
144
0.0
144
0.0
144
0.0
144
0.0208000000566244
144
0.0
144
0.0
144
0.0
144
0.0
144
1.0
144
0.0
144
0.0
144
0.0
144
0.0
144
1.0
 94
       63
1001
ACAD
1070
    -1
1070
     3
1070
     0
1000

1071
        0
1070
     0
  0
MLEADERSTYLE
  5
D8
102
{ACAD_REACTORS
330
D7
102
}
330
D7
100
AcDbMLeaderStyle
179
     2
170
     2
171
     1
172
     0
 90
        2
 40
0.0
 41
0.0
173
     1
 91
-1056964608
340
14
 92
       -2
290
     1
 42
0.09
291
     1
 43
0.36
  3
Standard
 44
0.18
300

342
11
174
     1
178
     1
175
     1
176
     0
 93
-1056964608
 45
0.18
292
     0
297
     0
 46
0.18
 94
-1056964608
 47
1.0
 49
1.0
140
1.0
293
     1
141
0.0
294
     1
177
     0
142
1.0
295
     0
296
     0
143
0.125
271
     0
272
     9
273
     9
298
     0
  0
MLINESTYLE
  5
18
102
{ACAD_REACTORS
330
17
102
}
330
17
100
AcDbMlineStyle
  2
STANDARD
 70
     0
  3

 62
   256
 51
90.0
 52
90.0
 71
     2
 49
0.5
 62
   256
  6
BYLAYER
 49
-0.5
 62
   256
  6
BYLAYER
  0
ACDBPLACEHOLDER
  5
F
102
{ACAD_REACTORS
330
E
102
}
330
E
  0
SCALE
  5
2283
102
{ACAD_REACTORS
330
B6
102
}
330
B6
100
AcDbScale
 70
     0
300
1:75
140
1.0
141
75.0
290
     0
  0
SCALE
  5
B7
102
{ACAD_REACTORS
330
B6
102
}
330
B6
100
AcDbScale
 70
     0
300
1:1
140
1.0
141
1.0
290
     1
  0
SCALE
  5
124
102
{ACAD_REACTORS
330
B6
102
}
330
B6
100
AcDbScale
 70
     0
300
1:2
140
1.0
141
2.0
290
     0
  0
SCALE
  5
125
102
{ACAD_REACTORS
330
B6
102
}
330
B6
100
AcDbScale
 70
     0
300
1:4
140
1.0
141
4.0
290
     0
  0
SCALE
  5
126
102
{ACAD_REACTORS
330
B6
102
}
330
B6
100
AcDbScale
 70
     0
300
1:5
140
1.0
141
5.0
290
     0
  0
SCALE
  5
127
102
{ACAD_REACTORS
330
B6
102
}
330
B6
100
AcDbScale
 70
     0
300
1:8
140
1.0
141
8.0
290
     0
  0
SCALE
  5
128
102
{ACAD_REACTORS
330
B6
102
}
330
B6
100
AcDbScale
 70
     0
300
1:10
140
1.0
141
10.0
290
     0
  0
SCALE
  5
129
102
{ACAD_REACTORS
330
B6
102
}
330
B6
100
AcDbScale
 70
     0
300
1:16
140
1.0
141
16.0
290
     0
  0
SCALE
  5
12A
102
{ACAD_REACTORS
330
B6
102
}
330
B6
100
AcDbScale
 70
     0
300
1:20
140
1.0
141
20.0
290
     0
  0
SCALE
  5
12B
102
{ACAD_REACTORS
330
B6
102
}
330
B6
100
AcDbScale
 70
     0
300
1:30
140
1.0
141
30.0
290
     0
  0
SCALE
  5
12C
102
{ACAD_REACTORS
330
B6
102
}
330
B6
100
AcDbScale
 70
     0
300
1:40
140
1.0
141
40.0
290
     0
  0
SCALE
  5
12D
102
{ACAD_REACTORS
330
B6
102
}
330
B6
100
AcDbScale
 70
     0
300
1:50
140
1.0
141
50.0
290
     0
  0
SCALE
  5
12E
102
{ACAD_REACTORS
330
B6
102
}
330
B6
100
AcDbScale
 70
     0
300
1:100
140
1.0
141
100.0
290
     0
  0
SCALE
  5
12F
102
{ACAD_REACTORS
330
B6
102
}
330
B6
100
AcDbScale
 70
     0
300
2:1
140
2.0
141
1.0
290
     0
  0
SCALE
  5
130
102
{ACAD_REACTORS
330
B6
102
}
330
B6
100
AcDbScale
 70
     0
300
4:1
140
4.0
141
1.0
290
     0
  0
SCALE
  5
131
102
{ACAD_REACTORS
330
B6
102
}
330
B6
100
AcDbScale
 70
     0
300
8:1
140
8.0
141
1.0
290
     0
  0
SCALE
  5
132
102
{ACAD_REACTORS
330
B6
102
}
330
B6
100
AcDbScale
 70
     0
300
10:1
140
10.0
141
1.0
290
     0
  0
SCALE
  5
133
102
{ACAD_REACTORS
330
B6
102
}
330
B6
100
AcDbScale
 70
     0
300
100:1
140
100.0
141
1.0
290
     0
  0
SCALE
  5
134
102
{ACAD_REACTORS
330
B6
102
}
330
B6
100
AcDbScale
 70
     0
300
1/128" = 1'-0"
140
0.0078125
141
12.0
290
     0
  0
SCALE
  5
135
102
{ACAD_REACTORS
330
B6
102
}
330
B6
100
AcDbScale
 70
     0
300
1/64" = 1'-0"
140
0.015625
141
12.0
290
     0
  0
SCALE
  5
136
102
{ACAD_REACTORS
330
B6
102
}
330
B6
100
AcDbScale
 70
     0
300
1/32" = 1'-0"
140
0.03125
141
12.0
290
     0
  0
SCALE
  5
137
102
{ACAD_REACTORS
330
B6
102
}
330
B6
100
AcDbScale
 70
     0
300
1/16" = 1'-0"
140
0.0625
141
12.0
290
     0
  0
SCALE
  5
138
102
{ACAD_REACTORS
330
B6
102
}
330
B6
100
AcDbScale
 70
     0
300
3/32" = 1'-0"
140
0.09375
141
12.0
290
     0
  0
SCALE
  5
139
102
{ACAD_REACTORS
330
B6
102
}
330
B6
100
AcDbScale
 70
     0
300
1/8" = 1'-0"
140
0.125
141
12.0
290
     0
  0
SCALE
  5
13A
102
{ACAD_REACTORS
330
B6
102
}
330
B6
100
AcDbScale
 70
     0
300
3/16" = 1'-0"
140
0.1875
141
12.0
290
     0
  0
SCALE
  5
13B
102
{ACAD_REACTORS
330
B6
102
}
330
B6
100
AcDbScale
 70
     0
300
1/4" = 1'-0"
140
0.25
141
12.0
290
     0
  0
SCALE
  5
13C
102
{ACAD_REACTORS
330
B6
102
}
330
B6
100
AcDbScale
 70
     0
300
3/8" = 1'-0"
140
0.375
141
12.0
290
     0
  0
SCALE
  5
13D
102
{ACAD_REACTORS
330
B6
102
}
330
B6
100
AcDbScale
 70
     0
300
1/2" = 1'-0"
140
0.5
141
12.0
290
     0
  0
SCALE
  5
13E
102
{ACAD_REACTORS
330
B6
102
}
330
B6
100
AcDbScale
 70
     0
300
3/4" = 1'-0"
140
0.75
141
12.0
290
     0
  0
SCALE
  5
13F
102
{ACAD_REACTORS
330
B6
102
}
330
B6
100
AcDbScale
 70
     0
300
1" = 1'-0"
140
1.0
141
12.0
290
     0
  0
SCALE
  5
140
102
{ACAD_REACTORS
330
B6
102
}
330
B6
100
AcDbScale
 70
     0
300
1-1/2" = 1'-0"
140
1.5
141
12.0
290
     0
  0
SCALE
  5
141
102
{ACAD_REACTORS
330
B6
102
}
330
B6
100
AcDbScale
 70
     0
300
3" = 1'-0"
140
3.0
141
12.0
290
     0
  0
SCALE
  5
142
102
{ACAD_REACTORS
330
B6
102
}
330
B6
100
AcDbScale
 70
     0
300
6" = 1'-0"
140
6.0
141
12.0
290
     0
  0
SCALE
  5
143
102
{ACAD_REACTORS
330
B6
102
}
330
B6
100
AcDbScale
 70
     0
300
1'-0" = 1'-0"
140
12.0
141
12.0
290
     0
  0
ACDBSECTIONVIEWSTYLE
  5
1AA
102
{ACAD_REACTORS
330
1A8
102
}
330
1A8
100
AcDbModelDocViewStyle
 70
     0
  3
Imperial24
290
     0
300
Imperial24
 90
        0
100
AcDbSectionViewStyle
 70
     0
 71
     0
 90
       78
 71
     1
340
11
 62
   256
 40
0.24
340
0
340
0
 62
   256
 40
0.24
300
I, O, Q, S, X, Z
 40
0.48
 90
        3
 40
0.18
 90
        1
 71
     2
340
16
 90
       25
 62
   256
340
16
 90
       50
 62
   256
 40
0.24
 40
0.0
 40
0.24
 71
     3
340
11
 62
   256
 40
0.24
 90
        1
 40
0.75
 90
        1
300
%<\AcVar ViewType \f "%tc1">% %<\AcVar ViewSectionStartId>%-%<\AcVar ViewSectionEndId>%\PSCALE %<\AcVar ViewScale \f "%sn">%
 71
     4
 62
   256
 62
   257
300
ANSI31
 40
1.0
 90
        0
290
     0
290
     0
 90
        6
 40
0.0
 40
1.570796326794896
 40
0.2617993877991494
 40
1.308996938995747
 40
-0.2617993877991494
 40
1.832595714594046
  0
ACDBSECTIONVIEWSTYLE
  5
223
102
{ACAD_REACTORS
330
1A8
102
}
330
1A8
100
AcDbModelDocViewStyle
 70
     0
  3
Metric50
290
     0
300
Metric50
 90
        0
100
AcDbSectionViewStyle
 70
     0
 71
     0
 90
      102
 71
     1
340
11
 62
   256
 40
5.0
340
0
340
0
 62
   256
 40
5.0
300
I, O, Q, S, X, Z
 40
10.0
 90
        0
 40
2.5
 90
        0
 71
     2
340
16
 90
       25
 62
   256
340
16
 90
       50
 62
   256
 40
5.0
 40
2.5
 40
5.0
 71
     3
340
11
 62
   256
 40
5.0
 90
        0
 40
15.0
 90
        1
300
%<\AcVar ViewSectionStartId>%-%<\AcVar ViewSectionEndId>% (%<\AcVar ViewScale \f "%sn">%)
 71
     4
 62
   256
 62
   257
300
ANSI31
 40
1.0
 90
        0
290
     0
290
     0
 90
        6
 40
0.0
 40
1.570796326794896
 40
0.2617993877991494
 40
1.308996938995747
 40
-0.2617993877991494
 40
1.832595714594046
  0
TABLESTYLE
  5
87
102
{ACAD_XDICTIONARY
360
104
102
}
102
{ACAD_REACTORS
330
86
102
}
330
86
100
AcDbTableStyle
280
     0
  3
Standard
 70
     0
 71
     0
 40
0.06
 41
0.06
280
     0
281
     0
  7
Standard
140
0.18
170
     2
 62
     0
 63
     7
283
     0
 90
      512
 91
        0
  1

274
    -2
284
     1
 64
     0
275
    -2
285
     1
 65
     0
276
    -2
286
     1
 66
     0
277
    -2
287
     1
 67
     0
278
    -2
288
     1
 68
     0
279
    -2
289
     1
 69
     0
  7
Standard
140
0.25
170
     5
 62
     0
 63
     7
283
     0
 90
      512
 91
        0
  1

274
    -2
284
     1
 64
     0
275
    -2
285
     1
 65
     0
276
    -2
286
     1
 66
     0
277
    -2
287
     1
 67
     0
278
    -2
288
     1
 68
     0
279
    -2
289
     1
 69
     0
  7
Standard
140
0.18
170
     5
 62
     0
 63
     7
283
     0
 90
      512
 91
        0
  1

274
    -2
284
     1
 64
     0
275
    -2
285
     1
 65
     0
276
    -2
286
     1
 66
     0
277
    -2
287
     1
 67
     0
278
    -2
288
     1
 68
     0
279
    -2
289
     1
 69
     0
  0
VISUALSTYLE
  5
9F
102
{ACAD_REACTORS
330
99
102
}
330
99
100
AcDbVisualStyle
  2
2dWireframe
 70
     4
177
     3
291
     0
 70
    58
 90
        0
176
     1
 90
        2
176
     1
 90
        1
176
     1
 90
        0
176
     1
 40
0.6
176
     1
 40
30.0
176
     1
 62
     7
420
 16777215
176
     1
 90
        1
176
     1
 90
        4
176
     1
 62
     7
176
     1
 62
   257
176
     1
 90
        1
176
     1
 90
        1
176
     1
 40
1.0
176
     1
 90
        0
176
     1
 62
   257
176
     1
 40
1.0
176
     1
 90
        1
176
     1
 90
        6
176
     1
 90
        2
176
     1
 62
     7
176
     1
 90
        5
176
     1
 90
        0
176
     1
 90
        0
176
     1
290
     0
176
     1
 90
        1
176
     1
 40
0.0
176
     1
 90
        0
176
     1
290
     1
176
     1
290
     1
176
     1
290
     0
176
     1
290
     0
176
     1
290
     0
176
     1
290
     0
176
     1
290
     0
176
     1
290
     0
176
     1
290
     0
176
     1
 90
       50
176
     1
 40
0.0
176
     1
 40
1.0
176
     1
 90
        0
176
     1
 62
    18
420
        0
176
     1
 90
       50
176
     1
 90
        3
176
     1
 62
     5
420
      255
176
     1
290
     0
176
     1
 90
       50
176
     1
 90
       50
176
     1
 90
       50
176
     1
290
     0
176
     1
 90
       50
176
     1
 62
   256
176
     0
 40
1.0
176
     0
 90
        2
176
     1
  1
strokes_ogs.tif
176
     1
290
     0
176
     1
 40
1.0
176
     1
 40
1.0
176
     1
  0
VISUALSTYLE
  5
22946
102
{ACAD_REACTORS
330
99
102
}
330
99
100
AcDbVisualStyle
  2
3dWireframe
 70
     5
177
     3
291
     0
 70
    58
 90
        0
176
     1
 90
        2
176
     1
 90
        0
176
     1
 90
        0
176
     1
 40
0.6
176
     1
 40
30.0
176
     1
 62
     7
176
     1
 90
        1
176
     1
 90
        4
176
     1
 62
     7
176
     1
 62
   257
176
     1
 90
        1
176
     1
 90
        1
176
     1
 40
1.0
176
     1
 90
        0
176
     1
 62
   257
176
     1
 40
1.0
176
     1
 90
        1
176
     1
 90
        6
176
     1
 90
        2
176
     1
 62
     7
176
     1
 90
        5
176
     1
 90
        0
176
     1
 90
        0
176
     1
290
     0
176
     1
 90
        1
176
     1
 40
0.0
176
     1
 90
        0
176
     1
290
     0
176
     1
290
     1
176
     1
290
     1
176
     1
290
     0
176
     1
290
     0
176
     1
290
     0
176
     1
290
     0
176
     1
290
     0
176
     1
290
     0
176
     1
 90
       50
176
     1
 40
0.0
176
     1
 40
1.0
176
     1
 90
        0
176
     1
 62
    18
420
        0
176
     1
 90
       50
176
     1
 90
        3
176
     1
 62
     5
420
      255
176
     1
290
     0
176
     1
 90
       50
176
     1
 90
       50
176
     1
 90
       50
176
     1
290
     0
176
     1
 90
       50
176
     1
 62
   256
176
     0
 40
1.0
176
     0
 90
        2
176
     1
  1
strokes_ogs.tif
176
     1
290
     0
176
     1
 40
1.0
176
     1
 40
1.0
176
     1
  0
VISUALSTYLE
  5
9E
102
{ACAD_REACTORS
330
99
102
}
330
99
100
AcDbVisualStyle
  2
Basic
 70
     7
177
     3
291
     1
 70
    58
 90
        1
176
     1
 90
        0
176
     1
 90
        1
176
     1
 90
        0
176
     1
 40
0.6
176
     1
 40
30.0
176
     1
 62
     7
420
 16777215
176
     1
 90
        0
176
     1
 90
        4
176
     1
 62
     7
176
     1
 62
   257
176
     1
 90
        1
176
     1
 90
        1
176
     1
 40
1.0
176
     1
 90
        8
176
     1
 62
     7
176
     1
 40
1.0
176
     1
 90
        1
176
     1
 90
        6
176
     1
 90
        2
176
     1
 62
     7
176
     1
 90
        5
176
     1
 90
        0
176
     1
 90
        0
176
     1
290
     0
176
     1
 90
        1
176
     1
 40
0.0
176
     1
 90
        0
176
     1
290
     0
176
     1
290
     1
176
     1
290
     1
176
     1
290
     0
176
     1
290
     0
176
     1
290
     0
176
     1
290
     0
176
     1
290
     0
176
     1
290
     0
176
     1
 90
       50
176
     1
 40
0.0
176
     1
 40
1.0
176
     1
 90
        0
176
     1
 62
    18
420
        0
176
     1
 90
       50
176
     1
 90
        3
176
     1
 62
     5
420
      255
176
     1
290
     0
176
     1
 90
       50
176
     1
 90
       50
176
     1
 90
       50
176
     1
290
     0
176
     1
 90
       50
176
     1
 62
   256
176
     0
 40
1.0
176
     0
 90
        2
176
     1
  1
strokes_ogs.tif
176
     1
290
     0
176
     1
 40
1.0
176
     1
 40
1.0
176
     1
  0
VISUALSTYLE
  5
A5
102
{ACAD_REACTORS
330
99
102
}
330
99
100
AcDbVisualStyle
  2
Brighten
 70
    12
177
     3
291
     1
 70
    58
 90
        2
176
     1
 90
        2
176
     1
 90
        1
176
     1
 90
        0
176
     1
 40
0.6
176
     1
 40
30.0
176
     1
 62
     7
420
 16777215
176
     1
 90
        1
176
     1
 90
        4
176
     1
 62
     7
176
     1
 62
   257
176
     1
 90
        1
176
     1
 90
        1
176
     1
 40
1.0
176
     1
 90
        8
176
     1
 62
     7
176
     1
 40
1.0
176
     1
 90
        1
176
     1
 90
        6
176
     1
 90
        2
176
     1
 62
     7
176
     1
 90
        5
176
     1
 90
        0
176
     1
 90
        0
176
     1
290
     0
176
     1
 90
        1
176
     1
 40
50.0
176
     1
 90
        0
176
     1
290
     0
176
     1
290
     1
176
     1
290
     1
176
     1
290
     0
176
     1
290
     0
176
     1
290
     0
176
     1
290
     0
176
     1
290
     0
176
     1
290
     0
176
     1
 90
       50
176
     1
 40
0.0
176
     1
 40
1.0
176
     1
 90
        0
176
     1
 62
    18
420
        0
176
     1
 90
       50
176
     1
 90
        3
176
     1
 62
     5
420
      255
176
     1
290
     0
176
     1
 90
       50
176
     1
 90
       50
176
     1
 90
       50
176
     1
290
     0
176
     1
 90
       50
176
     1
 62
   256
176
     0
 40
1.0
176
     0
 90
        2
176
     1
  1
strokes_ogs.tif
176
     1
290
     0
176
     1
 40
1.0
176
     1
 40
1.0
176
     1
  0
VISUALSTYLE
  5
A9
102
{ACAD_REACTORS
330
99
102
}
330
99
100
AcDbVisualStyle
  2
ColorChange
 70
    16
177
     3
291
     1
 70
    58
 90
        2
176
     1
 90
        2
176
     1
 90
        3
176
     1
 90
        0
176
     1
 40
0.6
176
     1
 40
30.0
176
     1
 62
     8
420
  8421504
176
     1
 90
        1
176
     1
 90
        4
176
     1
 62
     7
176
     1
 62
   257
176
     1
 90
        1
176
     1
 90
        1
176
     1
 40
1.0
176
     1
 90
        8
176
     1
 62
     8
420
  8421504
176
     1
 40
1.0
176
     1
 90
        1
176
     1
 90
        6
176
     1
 90
        2
176
     1
 62
     7
176
     1
 90
        5
176
     1
 90
        0
176
     1
 90
        0
176
     1
290
     0
176
     1
 90
        1
176
     1
 40
0.0
176
     1
 90
        0
176
     1
290
     0
176
     1
290
     1
176
     1
290
     1
176
     1
290
     0
176
     1
290
     0
176
     1
290
     0
176
     1
290
     0
176
     1
290
     0
176
     1
290
     0
176
     1
 90
       50
176
     1
 40
0.0
176
     1
 40
1.0
176
     1
 90
        0
176
     1
 62
    18
420
        0
176
     1
 90
       50
176
     1
 90
        3
176
     1
 62
     5
420
      255
176
     1
290
     0
176
     1
 90
       50
176
     1
 90
       50
176
     1
 90
       50
176
     1
290
     0
176
     1
 90
       50
176
     1
 62
   256
176
     0
 40
1.0
176
     0
 90
        2
176
     1
  1
strokes_ogs.tif
176
     1
290
     0
176
     1
 40
1.0
176
     1
 40
1.0
176
     1
  0
VISUALSTYLE
  5
A2
102
{ACAD_REACTORS
330
99
102
}
330
99
100
AcDbVisualStyle
  2
Conceptual
 70
     9
177
     3
291
     0
 70
    58
 90
        3
176
     1
 90
        2
176
     1
 90
        1
176
     1
 90
        0
176
     1
 40
0.6
176
     1
 40
30.0
176
     1
 62
     7
420
 16777215
176
     1
 90
        2
176
     1
 90
        2
176
     1
 62
     7
176
     1
 62
   257
176
     1
 90
        1
176
     1
 90
        1
176
     1
 40
40.0
176
     1
 90
        8
176
     1
 62
     7
176
     1
 40
1.0
176
     1
 90
        1
176
     1
 90
        6
176
     1
 90
        2
176
     1
 62
     7
176
     1
 90
        3
176
     1
 90
        0
176
     1
 90
        0
176
     1
290
     0
176
     1
 90
        1
176
     1
 40
0.0
176
     1
 90
        0
176
     1
290
     0
176
     1
290
     1
176
     1
290
     1
176
     1
290
     0
176
     1
290
     0
176
     1
290
     0
176
     1
290
     0
176
     1
290
     0
176
     1
290
     0
176
     1
 90
       50
176
     1
 40
0.0
176
     1
 40
1.0
176
     1
 90
        0
176
     1
 62
    18
420
        0
176
     1
 90
       50
176
     1
 90
        3
176
     1
 62
     5
420
      255
176
     1
290
     0
176
     1
 90
       50
176
     1
 90
       50
176
     1
 90
       50
176
     1
290
     0
176
     1
 90
       50
176
     1
 62
   256
176
     0
 40
1.0
176
     0
 90
        2
176
     1
  1
strokes_ogs.tif
176
     1
290
     0
176
     1
 40
1.0
176
     1
 40
1.0
176
     1
  0
VISUALSTYLE
  5
A4
102
{ACAD_REACTORS
330
99
102
}
330
99
100
AcDbVisualStyle
  2
Dim
 70
    11
177
     3
291
     1
 70
    58
 90
        2
176
     1
 90
        2
176
     1
 90
        1
176
     1
 90
        0
176
     1
 40
0.6
176
     1
 40
30.0
176
     1
 62
     7
420
 16777215
176
     1
 90
        1
176
     1
 90
        4
176
     1
 62
     7
176
     1
 62
   257
176
     1
 90
        1
176
     1
 90
        1
176
     1
 40
1.0
176
     1
 90
        8
176
     1
 62
     7
176
     1
 40
1.0
176
     1
 90
        1
176
     1
 90
        6
176
     1
 90
        2
176
     1
 62
     7
176
     1
 90
        5
176
     1
 90
        0
176
     1
 90
        0
176
     1
290
     0
176
     1
 90
        1
176
     1
 40
-50.0
176
     1
 90
        0
176
     1
290
     0
176
     1
290
     1
176
     1
290
     1
176
     1
290
     0
176
     1
290
     0
176
     1
290
     0
176
     1
290
     0
176
     1
290
     0
176
     1
290
     0
176
     1
 90
       50
176
     1
 40
0.0
176
     1
 40
1.0
176
     1
 90
        0
176
     1
 62
    18
420
        0
176
     1
 90
       50
176
     1
 90
        3
176
     1
 62
     5
420
      255
176
     1
290
     0
176
     1
 90
       50
176
     1
 90
       50
176
     1
 90
       50
176
     1
290
     0
176
     1
 90
       50
176
     1
 62
   256
176
     0
 40
1.0
176
     0
 90
        2
176
     1
  1
strokes_ogs.tif
176
     1
290
     0
176
     1
 40
1.0
176
     1
 40
1.0
176
     1
  0
VISUALSTYLE
  5
175
102
{ACAD_REACTORS
330
99
102
}
330
99
100
AcDbVisualStyle
  2
EdgeColorOff
 70
    22
177
     3
291
     1
 70
    58
 90
        2
176
     0
 90
        2
176
     0
 90
        0
176
     0
 90
        0
176
     0
 40
0.6
176
     0
 40
30.0
176
     0
 62
     7
420
 16777215
176
     0
 90
        1
176
     0
 90
        4
176
     0
 62
     7
176
     0
 62
   257
176
     0
 90
        1
176
     0
 90
        1
176
     0
 40
1.0
176
     0
 90
        8
176
     2
 62
     7
176
     0
 40
1.0
176
     0
 90
        1
176
     0
 90
        6
176
     0
 90
        2
176
     0
 62
     7
176
     0
 90
        5
176
     0
 90
        0
176
     0
 90
        0
176
     0
290
     0
176
     0
 90
        1
176
     0
 40
0.0
176
     0
 90
        0
176
     0
290
     0
176
     1
290
     1
176
     1
290
     1
176
     1
290
     0
176
     1
290
     0
176
     1
290
     0
176
     1
290
     0
176
     1
290
     0
176
     1
290
     0
176
     1
 90
       50
176
     1
 40
0.0
176
     1
 40
1.0
176
     1
 90
        0
176
     1
 62
    18
420
        0
176
     1
 90
       50
176
     1
 90
        3
176
     1
 62
     5
420
      255
176
     1
290
     0
176
     1
 90
       50
176
     1
 90
       50
176
     1
 90
       50
176
     1
290
     0
176
     1
 90
       50
176
     1
 62
   256
176
     0
 40
1.0
176
     0
 90
        2
176
     1
  1
strokes_ogs.tif
176
     1
290
     0
176
     1
 40
1.0
176
     1
 40
1.0
176
     1
  0
VISUALSTYLE
  5
A8
102
{ACAD_REACTORS
330
99
102
}
330
99
100
AcDbVisualStyle
  2
Facepattern
 70
    15
177
     3
291
     1
 70
    58
 90
        2
176
     1
 90
        2
176
     1
 90
        1
176
     1
 90
        0
176
     1
 40
0.6
176
     1
 40
30.0
176
     1
 62
     7
420
 16777215
176
     1
 90
        1
176
     1
 90
        4
176
     1
 62
     7
176
     1
 62
   257
176
     1
 90
        1
176
     1
 90
        1
176
     1
 40
1.0
176
     1
 90
        8
176
     1
 62
     7
176
     1
 40
1.0
176
     1
 90
        1
176
     1
 90
        6
176
     1
 90
        2
176
     1
 62
     7
176
     1
 90
        5
176
     1
 90
        0
176
     1
 90
        0
176
     1
290
     0
176
     1
 90
        1
176
     1
 40
0.0
176
     1
 90
        0
176
     1
290
     0
176
     1
290
     1
176
     1
290
     1
176
     1
290
     0
176
     1
290
     0
176
     1
290
     0
176
     1
290
     0
176
     1
290
     0
176
     1
290
     0
176
     1
 90
       50
176
     1
 40
0.0
176
     1
 40
1.0
176
     1
 90
        0
176
     1
 62
    18
420
        0
176
     1
 90
       50
176
     1
 90
        3
176
     1
 62
     5
420
      255
176
     1
290
     0
176
     1
 90
       50
176
     1
 90
       50
176
     1
 90
       50
176
     1
290
     0
176
     1
 90
       50
176
     1
 62
   256
176
     0
 40
1.0
176
     0
 90
        2
176
     1
  1
strokes_ogs.tif
176
     1
290
     0
176
     1
 40
1.0
176
     1
 40
1.0
176
     1
  0
VISUALSTYLE
  5
9A
102
{ACAD_REACTORS
330
99
102
}
330
99
100
AcDbVisualStyle
  2
Flat
 70
     0
177
     3
291
     1
 70
    58
 90
        2
176
     1
 90
        1
176
     1
 90
        1
176
     1
 90
        2
176
     1
 40
0.6
176
     1
 40
30.0
176
     1
 62
     7
420
 16777215
176
     1
 90
        0
176
     1
 90
        0
176
     1
 62
     7
176
     1
 62
   257
176
     1
 90
        1
176
     1
 90
        1
176
     1
 40
1.0
176
     1
 90
        8
176
     1
 62
     7
176
     1
 40
1.0
176
     1
 90
        1
176
     1
 90
        6
176
     1
 90
        2
176
     1
 62
     7
176
     1
 90
        5
176
     1
 90
        0
176
     1
 90
        0
176
     1
290
     0
176
     1
 90
       13
176
     1
 40
0.0
176
     1
 90
        0
176
     1
290
     0
176
     1
290
     1
176
     1
290
     1
176
     1
290
     0
176
     1
290
     0
176
     1
290
     0
176
     1
290
     0
176
     1
290
     0
176
     1
290
     0
176
     1
 90
       50
176
     1
 40
0.0
176
     1
 40
1.0
176
     1
 90
        0
176
     1
 62
    18
420
        0
176
     1
 90
       50
176
     1
 90
        3
176
     1
 62
     5
420
      255
176
     1
290
     0
176
     1
 90
       50
176
     1
 90
       50
176
     1
 90
       50
176
     1
290
     0
176
     1
 90
       50
176
     1
 62
   256
176
     0
 40
1.0
176
     0
 90
        2
176
     1
  1
strokes_ogs.tif
176
     1
290
     0
176
     1
 40
1.0
176
     1
 40
1.0
176
     1
  0
VISUALSTYLE
  5
9B
102
{ACAD_REACTORS
330
99
102
}
330
99
100
AcDbVisualStyle
  2
FlatWithEdges
 70
     1
177
     3
291
     1
 70
    58
 90
        2
176
     1
 90
        1
176
     1
 90
        1
176
     1
 90
        2
176
     1
 40
0.6
176
     1
 40
30.0
176
     1
 62
     7
420
 16777215
176
     1
 90
        1
176
     1
 90
        0
176
     1
 62
     7
176
     1
 62
   257
176
     1
 90
        1
176
     1
 90
        1
176
     1
 40
1.0
176
     1
 90
        0
176
     1
 62
   257
176
     1
 40
1.0
176
     1
 90
        1
176
     1
 90
        6
176
     1
 90
        2
176
     1
 62
     7
176
     1
 90
        5
176
     1
 90
        0
176
     1
 90
        0
176
     1
290
     0
176
     1
 90
       13
176
     1
 40
0.0
176
     1
 90
        0
176
     1
290
     0
176
     1
290
     1
176
     1
290
     1
176
     1
290
     0
176
     1
290
     0
176
     1
290
     0
176
     1
290
     0
176
     1
290
     0
176
     1
290
     0
176
     1
 90
       50
176
     1
 40
0.0
176
     1
 40
1.0
176
     1
 90
        0
176
     1
 62
    18
420
        0
176
     1
 90
       50
176
     1
 90
        3
176
     1
 62
     5
420
      255
176
     1
290
     0
176
     1
 90
       50
176
     1
 90
       50
176
     1
 90
       50
176
     1
290
     0
176
     1
 90
       50
176
     1
 62
   256
176
     0
 40
1.0
176
     0
 90
        2
176
     1
  1
strokes_ogs.tif
176
     1
290
     0
176
     1
 40
1.0
176
     1
 40
1.0
176
     1
  0
VISUALSTYLE
  5
9C
102
{ACAD_REACTORS
330
99
102
}
330
99
100
AcDbVisualStyle
  2
Gouraud
 70
     2
177
     3
291
     1
 70
    58
 90
        2
176
     1
 90
        2
176
     1
 90
        1
176
     1
 90
        2
176
     1
 40
0.6
176
     1
 40
30.0
176
     1
 62
     7
420
 16777215
176
     1
 90
        0
176
     1
 90
        0
176
     1
 62
     7
176
     1
 62
   257
176
     1
 90
        1
176
     1
 90
        1
176
     1
 40
1.0
176
     1
 90
        0
176
     1
 62
     7
176
     1
 40
1.0
176
     1
 90
        1
176
     1
 90
        6
176
     1
 90
        2
176
     1
 62
     7
176
     1
 90
        5
176
     1
 90
        0
176
     1
 90
        0
176
     1
290
     0
176
     1
 90
       13
176
     1
 40
0.0
176
     1
 90
        0
176
     1
290
     0
176
     1
290
     1
176
     1
290
     1
176
     1
290
     0
176
     1
290
     0
176
     1
290
     0
176
     1
290
     0
176
     1
290
     0
176
     1
290
     0
176
     1
 90
       50
176
     1
 40
0.0
176
     1
 40
1.0
176
     1
 90
        0
176
     1
 62
    18
420
        0
176
     1
 90
       50
176
     1
 90
        3
176
     1
 62
     5
420
      255
176
     1
290
     0
176
     1
 90
       50
176
     1
 90
       50
176
     1
 90
       50
176
     1
290
     0
176
     1
 90
       50
176
     1
 62
   256
176
     0
 40
1.0
176
     0
 90
        2
176
     1
  1
strokes_ogs.tif
176
     1
290
     0
176
     1
 40
1.0
176
     1
 40
1.0
176
     1
  0
VISUALSTYLE
  5
9D
102
{ACAD_REACTORS
330
99
102
}
330
99
100
AcDbVisualStyle
  2
GouraudWithEdges
 70
     3
177
     3
291
     1
 70
    58
 90
        2
176
     1
 90
        2
176
     1
 90
        1
176
     1
 90
        2
176
     1
 40
0.6
176
     1
 40
30.0
176
     1
 62
     7
420
 16777215
176
     1
 90
        1
176
     1
 90
        0
176
     1
 62
     7
176
     1
 62
   257
176
     1
 90
        1
176
     1
 90
        1
176
     1
 40
1.0
176
     1
 90
        0
176
     1
 62
   257
176
     1
 40
1.0
176
     1
 90
        1
176
     1
 90
        6
176
     1
 90
        2
176
     1
 62
     7
176
     1
 90
        5
176
     1
 90
        0
176
     1
 90
        0
176
     1
290
     0
176
     1
 90
       13
176
     1
 40
0.0
176
     1
 90
        0
176
     1
290
     0
176
     1
290
     1
176
     1
290
     1
176
     1
290
     0
176
     1
290
     0
176
     1
290
     0
176
     1
290
     0
176
     1
290
     0
176
     1
290
     0
176
     1
 90
       50
176
     1
 40
0.0
176
     1
 40
1.0
176
     1
 90
        0
176
     1
 62
    18
420
        0
176
     1
 90
       50
176
     1
 90
        3
176
     1
 62
     5
420
      255
176
     1
290
     0
176
     1
 90
       50
176
     1
 90
       50
176
     1
 90
       50
176
     1
290
     0
176
     1
 90
       50
176
     1
 62
   256
176
     0
 40
1.0
176
     0
 90
        2
176
     1
  1
strokes_ogs.tif
176
     1
290
     0
176
     1
 40
1.0
176
     1
 40
1.0
176
     1
  0
VISUALSTYLE
  5
A1
102
{ACAD_REACTORS
330
99
102
}
330
99
100
AcDbVisualStyle
  2
Hidden
 70
     6
177
     3
291
     0
 70
    58
 90
        1
176
     1
 90
        2
176
     1
 90
        2
176
     1
 90
        0
176
     1
 40
0.6
176
     1
 40
30.0
176
     1
 62
     7
420
 16777215
176
     1
 90
        2
176
     1
 90
        2
176
     1
 62
     7
176
     1
 62
   257
176
     1
 90
        2
176
     1
 90
        1
176
     1
 40
40.0
176
     1
 90
        0
176
     1
 62
   257
176
     1
 40
1.0
176
     1
 90
        1
176
     1
 90
        6
176
     1
 90
        2
176
     1
 62
     7
176
     1
 90
        3
176
     1
 90
        0
176
     1
 90
        0
176
     1
290
     0
176
     1
 90
        1
176
     1
 40
0.0
176
     1
 90
        0
176
     1
290
     0
176
     1
290
     1
176
     1
290
     1
176
     1
290
     0
176
     1
290
     0
176
     1
290
     0
176
     1
290
     0
176
     1
290
     0
176
     1
290
     0
176
     1
 90
       50
176
     1
 40
0.0
176
     1
 40
1.0
176
     1
 90
        0
176
     1
 62
    18
420
        0
176
     1
 90
       50
176
     1
 90
        3
176
     1
 62
     5
420
      255
176
     1
290
     0
176
     1
 90
       50
176
     1
 90
       50
176
     1
 90
       50
176
     1
290
     0
176
     1
 90
       50
176
     1
 62
   256
176
     0
 40
1.0
176
     0
 90
        2
176
     1
  1
strokes_ogs.tif
176
     1
290
     0
176
     1
 40
1.0
176
     1
 40
1.0
176
     1
  0
VISUALSTYLE
  5
173
102
{ACAD_REACTORS
330
99
102
}
330
99
100
AcDbVisualStyle
  2
JitterOff
 70
    20
177
     3
291
     1
 70
    58
 90
        2
176
     0
 90
        2
176
     0
 90
        0
176
     0
 90
        0
176
     0
 40
0.6
176
     0
 40
30.0
176
     0
 62
     7
420
 16777215
176
     0
 90
        1
176
     0
 90
        4
176
     0
 62
     7
176
     0
 62
   257
176
     0
 90
        1
176
     0
 90
        1
176
     0
 40
1.0
176
     0
 90
       10
176
     2
 62
     7
176
     0
 40
1.0
176
     0
 90
        1
176
     0
 90
        6
176
     0
 90
        2
176
     0
 62
     7
176
     0
 90
        5
176
     0
 90
        0
176
     0
 90
        0
176
     0
290
     0
176
     0
 90
        1
176
     0
 40
0.0
176
     0
 90
        0
176
     0
290
     0
176
     1
290
     1
176
     1
290
     1
176
     1
290
     0
176
     1
290
     0
176
     1
290
     0
176
     1
290
     0
176
     1
290
     0
176
     1
290
     0
176
     1
 90
       50
176
     1
 40
0.0
176
     1
 40
1.0
176
     1
 90
        0
176
     1
 62
    18
420
        0
176
     1
 90
       50
176
     1
 90
        3
176
     1
 62
     5
420
      255
176
     1
290
     0
176
     1
 90
       50
176
     1
 90
       50
176
     1
 90
       50
176
     1
290
     0
176
     1
 90
       50
176
     1
 62
   256
176
     0
 40
1.0
176
     0
 90
        2
176
     1
  1
strokes_ogs.tif
176
     1
290
     0
176
     1
 40
1.0
176
     1
 40
1.0
176
     1
  0
VISUALSTYLE
  5
A7
102
{ACAD_REACTORS
330
99
102
}
330
99
100
AcDbVisualStyle
  2
Linepattern
 70
    14
177
     3
291
     1
 70
    58
 90
        2
176
     1
 90
        2
176
     1
 90
        1
176
     1
 90
        0
176
     1
 40
0.6
176
     1
 40
30.0
176
     1
 62
     7
420
 16777215
176
     1
 90
        1
176
     1
 90
        4
176
     1
 62
     7
176
     1
 62
   257
176
     1
 90
        7
176
     1
 90
        7
176
     1
 40
1.0
176
     1
 90
        8
176
     1
 62
     7
176
     1
 40
1.0
176
     1
 90
        1
176
     1
 90
        6
176
     1
 90
        2
176
     1
 62
     7
176
     1
 90
        5
176
     1
 90
        0
176
     1
 90
        0
176
     1
290
     0
176
     1
 90
        1
176
     1
 40
0.0
176
     1
 90
        0
176
     1
290
     0
176
     1
290
     1
176
     1
290
     1
176
     1
290
     0
176
     1
290
     0
176
     1
290
     0
176
     1
290
     0
176
     1
290
     0
176
     1
290
     0
176
     1
 90
       50
176
     1
 40
0.0
176
     1
 40
1.0
176
     1
 90
        0
176
     1
 62
    18
420
        0
176
     1
 90
       50
176
     1
 90
        3
176
     1
 62
     5
420
      255
176
     1
290
     0
176
     1
 90
       50
176
     1
 90
       50
176
     1
 90
       50
176
     1
290
     0
176
     1
 90
       50
176
     1
 62
   256
176
     0
 40
1.0
176
     0
 90
        2
176
     1
  1
strokes_ogs.tif
176
     1
290
     0
176
     1
 40
1.0
176
     1
 40
1.0
176
     1
  0
VISUALSTYLE
  5
174
102
{ACAD_REACTORS
330
99
102
}
330
99
100
AcDbVisualStyle
  2
OverhangOff
 70
    21
177
     3
291
     1
 70
    58
 90
        2
176
     0
 90
        2
176
     0
 90
        0
176
     0
 90
        0
176
     0
 40
0.6
176
     0
 40
30.0
176
     0
 62
     7
420
 16777215
176
     0
 90
        1
176
     0
 90
        4
176
     0
 62
     7
176
     0
 62
   257
176
     0
 90
        1
176
     0
 90
        1
176
     0
 40
1.0
176
     0
 90
        9
176
     2
 62
     7
176
     0
 40
1.0
176
     0
 90
        1
176
     0
 90
        6
176
     0
 90
        2
176
     0
 62
     7
176
     0
 90
        5
176
     0
 90
        0
176
     0
 90
        0
176
     0
290
     0
176
     0
 90
        1
176
     0
 40
0.0
176
     0
 90
        0
176
     0
290
     0
176
     1
290
     1
176
     1
290
     1
176
     1
290
     0
176
     1
290
     0
176
     1
290
     0
176
     1
290
     0
176
     1
290
     0
176
     1
290
     0
176
     1
 90
       50
176
     1
 40
0.0
176
     1
 40
1.0
176
     1
 90
        0
176
     1
 62
    18
420
        0
176
     1
 90
       50
176
     1
 90
        3
176
     1
 62
     5
420
      255
176
     1
290
     0
176
     1
 90
       50
176
     1
 90
       50
176
     1
 90
       50
176
     1
290
     0
176
     1
 90
       50
176
     1
 62
   256
176
     0
 40
1.0
176
     0
 90
        2
176
     1
  1
strokes_ogs.tif
176
     1
290
     0
176
     1
 40
1.0
176
     1
 40
1.0
176
     1
  0
VISUALSTYLE
  5
A3
102
{ACAD_REACTORS
330
99
102
}
330
99
100
AcDbVisualStyle
  2
Realistic
 70
     8
177
     3
291
     0
 70
    58
 90
        2
176
     1
 90
        2
176
     1
 90
        0
176
     1
 90
        2
176
     1
 40
0.6
176
     1
 40
30.0
176
     1
 62
     7
420
 16777215
176
     1
 90
        0
176
     1
 90
        0
176
     1
 62
     7
176
     1
 62
   257
176
     1
 90
        1
176
     1
 90
        1
176
     1
 40
1.0
176
     1
 90
        8
176
     1
 62
   257
176
     1
 40
1.0
176
     1
 90
        1
176
     1
 90
        6
176
     1
 90
        2
176
     1
 62
     7
176
     1
 90
        3
176
     1
 90
        0
176
     1
 90
        0
176
     1
290
     0
176
     1
 90
       13
176
     1
 40
0.0
176
     1
 90
        0
176
     1
290
     0
176
     1
290
     1
176
     1
290
     1
176
     1
290
     0
176
     1
290
     0
176
     1
290
     0
176
     1
290
     0
176
     1
290
     0
176
     1
290
     0
176
     1
 90
       50
176
     1
 40
0.0
176
     1
 40
1.0
176
     1
 90
        0
176
     1
 62
    18
420
        0
176
     1
 90
       50
176
     1
 90
        3
176
     1
 62
     5
420
      255
176
     1
290
     0
176
     1
 90
       50
176
     1
 90
       50
176
     1
 90
       50
176
     1
290
     0
176
     1
 90
       50
176
     1
 62
   256
176
     0
 40
1.0
176
     0
 90
        2
176
     1
  1
strokes_ogs.tif
176
     1
290
     0
176
     1
 40
1.0
176
     1
 40
1.0
176
     1
  0
VISUALSTYLE
  5
182
102
{ACAD_REACTORS
330
99
102
}
330
99
100
AcDbVisualStyle
  2
Shaded
 70
    27
177
     3
291
     0
 70
    58
 90
        2
176
     1
 90
        2
176
     1
 90
        1
176
     1
 90
        2
176
     1
 40
0.6
176
     1
 40
30.0
176
     1
 62
     7
420
 16777215
176
     1
 90
        0
176
     1
 90
        4
176
     1
 62
     7
176
     1
 62
   257
176
     1
 90
        1
176
     1
 90
        1
176
     1
 40
1.0
176
     1
 90
        8
176
     1
 62
   257
176
     1
 40
1.0
176
     1
 90
        1
176
     1
 90
        6
176
     1
 90
        2
176
     1
 62
     8
420
  7895160
176
     1
 90
        3
176
     1
 90
        0
176
     1
 90
        0
176
     1
290
     0
176
     1
 90
        5
176
     1
 40
0.0
176
     1
 90
        0
176
     1
290
     0
176
     1
290
     1
176
     1
290
     1
176
     1
290
     0
176
     1
290
     0
176
     1
290
     0
176
     1
290
     0
176
     1
290
     0
176
     1
290
     0
176
     1
 90
       50
176
     1
 40
0.0
176
     1
 40
1.0
176
     1
 90
        0
176
     1
 62
    18
420
        0
176
     1
 90
       50
176
     1
 90
        3
176
     1
 62
     5
420
      255
176
     1
290
     0
176
     1
 90
       50
176
     1
 90
       50
176
     1
 90
       50
176
     1
290
     0
176
     1
 90
       50
176
     1
 62
   256
176
     0
 40
1.0
176
     0
 90
        2
176
     1
  1
strokes_ogs.tif
176
     1
290
     0
176
     1
 40
1.0
176
     1
 40
1.0
176
     1
  0
VISUALSTYLE
  5
181
102
{ACAD_REACTORS
330
99
102
}
330
99
100
AcDbVisualStyle
  2
Shaded with edges
 70
    26
177
     3
291
     0
 70
    58
 90
        2
176
     1
 90
        2
176
     1
 90
        1
176
     1
 90
        2
176
     1
 40
0.6
176
     1
 40
30.0
176
     1
 62
     7
420
 16777215
176
     1
 90
        1
176
     1
 90
        2
176
     1
 62
     7
176
     1
 62
   257
176
     1
 90
        2
176
     1
 90
        1
176
     1
 40
1.0
176
     1
 90
        8
176
     1
 62
   257
176
     1
 40
1.0
176
     1
 90
        1
176
     1
 90
        6
176
     1
 90
        2
176
     1
 62
     7
176
     1
 90
        3
176
     1
 90
        0
176
     1
 90
        0
176
     1
290
     0
176
     1
 90
        5
176
     1
 40
0.0
176
     1
 90
        0
176
     1
290
     0
176
     1
290
     1
176
     1
290
     1
176
     1
290
     0
176
     1
290
     0
176
     1
290
     0
176
     1
290
     0
176
     1
290
     0
176
     1
290
     0
176
     1
 90
       50
176
     1
 40
0.0
176
     1
 40
1.0
176
     1
 90
        0
176
     1
 62
    18
420
        0
176
     1
 90
       50
176
     1
 90
        3
176
     1
 62
     5
420
      255
176
     1
290
     0
176
     1
 90
       50
176
     1
 90
       50
176
     1
 90
       50
176
     1
290
     0
176
     1
 90
       50
176
     1
 62
   256
176
     0
 40
1.0
176
     0
 90
        2
176
     1
  1
strokes_ogs.tif
176
     1
290
     0
176
     1
 40
1.0
176
     1
 40
1.0
176
     1
  0
VISUALSTYLE
  5
17E
102
{ACAD_REACTORS
330
99
102
}
330
99
100
AcDbVisualStyle
  2
Shades of Gray
 70
    23
177
     3
291
     0
 70
    58
 90
        2
176
     1
 90
        2
176
     1
 90
        3
176
     1
 90
        0
176
     1
 40
0.6
176
     1
 40
30.0
176
     1
 62
     7
420
 16777215
176
     1
 90
        2
176
     1
 90
        2
176
     1
 62
     7
176
     1
 62
     7
176
     1
 90
        1
176
     1
 90
        1
176
     1
 40
40.0
176
     1
 90
        8
176
     1
 62
     7
176
     1
 40
1.0
176
     1
 90
        1
176
     1
 90
        6
176
     1
 90
        2
176
     1
 62
     7
176
     1
 90
        3
176
     1
 90
        0
176
     1
 90
        0
176
     1
290
     0
176
     1
 90
        1
176
     1
 40
0.0
176
     1
 90
        0
176
     1
290
     0
176
     1
290
     1
176
     1
290
     1
176
     1
290
     0
176
     1
290
     0
176
     1
290
     0
176
     1
290
     0
176
     1
290
     0
176
     1
290
     0
176
     1
 90
       50
176
     1
 40
0.0
176
     1
 40
1.0
176
     1
 90
        0
176
     1
 62
    18
420
        0
176
     1
 90
       50
176
     1
 90
        3
176
     1
 62
     5
420
      255
176
     1
290
     0
176
     1
 90
       50
176
     1
 90
       50
176
     1
 90
       50
176
     1
290
     0
176
     1
 90
       50
176
     1
 62
   256
176
     0
 40
1.0
176
     0
 90
        2
176
     1
  1
strokes_ogs.tif
176
     1
290
     0
176
     1
 40
1.0
176
     1
 40
1.0
176
     1
  0
VISUALSTYLE
  5
17F
102
{ACAD_REACTORS
330
99
102
}
330
99
100
AcDbVisualStyle
  2
Sketchy
 70
    24
177
     3
291
     0
 70
    58
 90
        1
176
     1
 90
        2
176
     1
 90
        2
176
     1
 90
        0
176
     1
 40
0.6
176
     1
 40
30.0
176
     1
 62
     7
420
 16777215
176
     1
 90
        2
176
     1
 90
        2
176
     1
 62
     7
176
     1
 62
     7
176
     1
 90
        1
176
     1
 90
        1
176
     1
 40
40.0
176
     1
 90
       11
176
     1
 62
     7
176
     1
 40
1.0
176
     1
 90
        1
176
     1
 90
        6
176
     1
 90
        2
176
     1
 62
     7
176
     1
 90
        6
176
     1
 90
        0
176
     1
 90
        0
176
     1
290
     0
176
     1
 90
        1
176
     1
 40
0.0
176
     1
 90
        0
176
     1
290
     0
176
     1
290
     1
176
     1
290
     1
176
     1
290
     0
176
     1
290
     0
176
     1
290
     0
176
     1
290
     0
176
     1
290
     0
176
     1
290
     0
176
     1
 90
       50
176
     1
 40
0.0
176
     1
 40
1.0
176
     1
 90
        0
176
     1
 62
    18
420
        0
176
     1
 90
       50
176
     1
 90
        3
176
     1
 62
     5
420
      255
176
     1
290
     0
176
     1
 90
       50
176
     1
 90
       50
176
     1
 90
       50
176
     1
290
     0
176
     1
 90
       50
176
     1
 62
   256
176
     0
 40
1.0
176
     0
 90
        2
176
     1
  1
strokes_ogs.tif
176
     1
290
     0
176
     1
 40
1.0
176
     1
 40
1.0
176
     1
  0
VISUALSTYLE
  5
A6
102
{ACAD_REACTORS
330
99
102
}
330
99
100
AcDbVisualStyle
  2
Thicken
 70
    13
177
     3
291
     1
 70
    58
 90
        2
176
     1
 90
        2
176
     1
 90
        1
176
     1
 90
        0
176
     1
 40
0.6
176
     1
 40
30.0
176
     1
 62
     7
420
 16777215
176
     1
 90
        1
176
     1
 90
        4
176
     1
 62
     7
176
     1
 62
   257
176
     1
 90
        1
176
     1
 90
        1
176
     1
 40
1.0
176
     1
 90
       12
176
     1
 62
     7
176
     1
 40
1.0
176
     1
 90
        1
176
     1
 90
        6
176
     1
 90
        2
176
     1
 62
     7
176
     1
 90
        5
176
     1
 90
        0
176
     1
 90
        0
176
     1
290
     0
176
     1
 90
        1
176
     1
 40
0.0
176
     1
 90
        0
176
     1
290
     0
176
     1
290
     1
176
     1
290
     1
176
     1
290
     0
176
     1
290
     0
176
     1
290
     0
176
     1
290
     0
176
     1
290
     0
176
     1
290
     0
176
     1
 90
       50
176
     1
 40
0.0
176
     1
 40
1.0
176
     1
 90
        0
176
     1
 62
    18
420
        0
176
     1
 90
       50
176
     1
 90
        3
176
     1
 62
     5
420
      255
176
     1
290
     0
176
     1
 90
       50
176
     1
 90
       50
176
     1
 90
       50
176
     1
290
     0
176
     1
 90
       50
176
     1
 62
   256
176
     0
 40
1.0
176
     0
 90
        2
176
     1
  1
strokes_ogs.tif
176
     1
290
     0
176
     1
 40
1.0
176
     1
 40
1.0
176
     1
  0
VISUALSTYLE
  5
A0
102
{ACAD_REACTORS
330
99
102
}
330
99
100
AcDbVisualStyle
  2
Wireframe
 70
     5
177
     3
291
     0
 70
    58
 90
        0
176
     1
 90
        2
176
     1
 90
        0
176
     1
 90
        0
176
     1
 40
0.6
176
     1
 40
30.0
176
     1
 62
     7
420
 16777215
176
     1
 90
        1
176
     1
 90
        4
176
     1
 62
     7
176
     1
 62
   257
176
     1
 90
        1
176
     1
 90
        1
176
     1
 40
1.0
176
     1
 90
        0
176
     1
 62
   257
176
     1
 40
1.0
176
     1
 90
        1
176
     1
 90
        6
176
     1
 90
        2
176
     1
 62
     7
176
     1
 90
        3
176
     1
 90
        0
176
     1
 90
        0
176
     1
290
     0
176
     1
 90
        1
176
     1
 40
0.0
176
     1
 90
        0
176
     1
290
     0
176
     1
290
     1
176
     1
290
     1
176
     1
290
     0
176
     1
290
     0
176
     1
290
     0
176
     1
290
     0
176
     1
290
     0
176
     1
290
     0
176
     1
 90
       50
176
     1
 40
0.0
176
     1
 40
1.0
176
     1
 90
        0
176
     1
 62
    18
420
        0
176
     1
 90
       50
176
     1
 90
        3
176
     1
 62
     5
420
      255
176
     1
290
     0
176
     1
 90
       50
176
     1
 90
       50
176
     1
 90
       50
176
     1
290
     0
176
     1
 90
       50
176
     1
 62
   256
176
     0
 40
1.0
176
     0
 90
        2
176
     1
  1
strokes_ogs.tif
176
     1
290
     0
176
     1
 40
1.0
176
     1
 40
1.0
176
     1
  0
VISUALSTYLE
  5
180
102
{ACAD_REACTORS
330
99
102
}
330
99
100
AcDbVisualStyle
  2
X-Ray
 70
    25
177
     3
291
     0
 70
    58
 90
        2
176
     1
 90
        2
176
     1
 90
        1
176
     1
 90
        1
176
     1
 40
0.5
176
     1
 40
30.0
176
     1
 62
     7
420
 16777215
176
     1
 90
        1
176
     1
 90
        0
176
     1
 62
     7
176
     1
 62
   257
176
     1
 90
        1
176
     1
 90
        1
176
     1
 40
1.0
176
     1
 90
        8
176
     1
 62
     7
176
     1
 40
1.0
176
     1
 90
        1
176
     1
 90
        6
176
     1
 90
        2
176
     1
 62
     7
176
     1
 90
        3
176
     1
 90
        0
176
     1
 90
        0
176
     1
290
     0
176
     1
 90
       13
176
     1
 40
0.0
176
     1
 90
        0
176
     1
290
     0
176
     1
290
     1
176
     1
290
     1
176
     1
290
     0
176
     1
290
     0
176
     1
290
     0
176
     1
290
     0
176
     1
290
     0
176
     1
290
     0
176
     1
 90
       50
176
     1
 40
0.0
176
     1
 40
1.0
176
     1
 90
        0
176
     1
 62
    18
420
        0
176
     1
 90
       50
176
     1
 90
        3
176
     1
 62
     5
420
      255
176
     1
290
     0
176
     1
 90
       50
176
     1
 90
       50
176
     1
 90
       50
176
     1
290
     0
176
     1
 90
       50
176
     1
 62
   256
176
     0
 40
1.0
176
     0
 90
        2
176
     1
  1
strokes_ogs.tif
176
     1
290
     0
176
     1
 40
1.0
176
     1
 40
1.0
176
     1
  0
DICTIONARYVAR
  5
4E685
102
{ACAD_REACTORS
330
4E684
102
}
330
4E684
100
DictionaryVariables
280
     0
  1
0.500000
  0
DICTIONARYVAR
  5
4E686
102
{ACAD_REACTORS
330
4E684
102
}
330
4E684
100
DictionaryVariables
280
     0
  1
1
  0
DICTIONARYVAR
  5
4E687
102
{ACAD_REACTORS
330
4E684
102
}
330
4E684
100
DictionaryVariables
280
     0
  1
0
  0
DICTIONARYVAR
  5
4E688
102
{ACAD_REACTORS
330
4E684
102
}
330
4E684
100
DictionaryVariables
280
     0
  1
1:1
  0
DICTIONARYVAR
  5
4E689
102
{ACAD_REACTORS
330
4E684
102
}
330
4E684
100
DictionaryVariables
280
     0
  1
STANDARD
  0
DICTIONARYVAR
  5
4E68A
102
{ACAD_REACTORS
330
4E684
102
}
330
4E684
100
DictionaryVariables
280
     0
  1
STANDARD
  0
DICTIONARYVAR
  5
4E68B
102
{ACAD_REACTORS
330
4E684
102
}
330
4E684
100
DictionaryVariables
280
     0
  1
Imperial24
  0
DICTIONARYVAR
  5
4E68C
102
{ACAD_REACTORS
330
4E684
102
}
330
4E684
100
DictionaryVariables
280
     0
  1
Imperial24
  0
DICTIONARYVAR
  5
4E68D
102
{ACAD_REACTORS
330
4E684
102
}
330
4E684
100
DictionaryVariables
280
     0
  1
0
  0
DICTIONARYVAR
  5
4E68E
102
{ACAD_REACTORS
330
4E684
102
}
330
4E684
100
DictionaryVariables
280
     0
  1
2
  0
DICTIONARYVAR
  5
4E68F
102
{ACAD_REACTORS
330
4E684
102
}
330
4E684
100
DictionaryVariables
280
     0
  1
1
  0
DICTIONARYVAR
  5
4E690
102
{ACAD_REACTORS
330
4E684
102
}
330
4E684
100
DictionaryVariables
280
     0
  1
BYLAYER
  0
DICTIONARYVAR
  5
4E691
102
{ACAD_REACTORS
330
4E684
102
}
330
4E684
100
DictionaryVariables
280
     0
  1
0
  0
DICTIONARYVAR
  5
4E692
102
{ACAD_REACTORS
330
4E684
102
}
330
4E684
100
DictionaryVariables
280
     0
  1
K-Hatch
  0
DICTIONARYVAR
  5
4E693
102
{ACAD_REACTORS
330
4E684
102
}
330
4E684
100
DictionaryVariables
280
     0
  1
ByLayer
  0
DICTIONARYVAR
  5
4E694
102
{ACAD_REACTORS
330
4E684
102
}
330
4E684
100
DictionaryVariables
280
     0
  1
0
  0
DICTIONARYVAR
  5
4E695
102
{ACAD_REACTORS
330
4E684
102
}
330
4E684
100
DictionaryVariables
280
     0
  1
0
  0
DICTIONARYVAR
  5
4E696
102
{ACAD_REACTORS
330
4E684
102
}
330
4E684
100
DictionaryVariables
280
     0
  1
0
  0
DICTIONARYVAR
  5
4E697
102
{ACAD_REACTORS
330
4E684
102
}
330
4E684
100
DictionaryVariables
280
     0
  1
2
  0
DICTIONARYVAR
  5
4E698
102
{ACAD_REACTORS
330
4E684
102
}
330
4E684
100
DictionaryVariables
280
     0
  1
1.000000
  0
DICTIONARYVAR
  5
4E699
102
{ACAD_REACTORS
330
4E684
102
}
330
4E684
100
DictionaryVariables
280
     0
  1
1
  0
DICTIONARYVAR
  5
4E69A
102
{ACAD_REACTORS
330
4E684
102
}
330
4E684
100
DictionaryVariables
280
     0
  1
2
  0
DICTIONARYVAR
  5
4E69B
102
{ACAD_REACTORS
330
4E684
102
}
330
4E684
100
DictionaryVariables
280
     0
  1
1
  0
DICTIONARYVAR
  5
4E69C
102
{ACAD_REACTORS
330
4E684
102
}
330
4E684
100
DictionaryVariables
280
     0
  1
0
  0
DICTIONARYVAR
  5
4E69D
102
{ACAD_REACTORS
330
4E684
102
}
330
4E684
100
DictionaryVariables
280
     0
  1
127
  0
DICTIONARY
  5
194
330
22
100
AcDbDictionary
280
     1
281
     1
  0
DICTIONARY
  5
188
330
97
100
AcDbDictionary
280
     1
281
     1
  3
FBXASSET
360
189
  0
DICTIONARY
  5
186
330
96
100
AcDbDictionary
280
     1
281
     1
  3
FBXASSET
360
187
  0
DICTIONARY
  5
110
330
98
100
AcDbDictionary
280
     1
281
     1
  3
BUMPTILE
360
112
  3
DIFFUSETILE
360
111
  3
FBXASSET
360
18A
  3
OPACITYTILE
360
113
  3
REFLECTIONTILE
360
114
  0
DICTIONARY
  5
104
330
87
100
AcDbDictionary
280
     1
281
     1
  3
ACAD_ROUNDTRIP_2008_TABLESTYLE_CELLSTYLEMAP
360
4EDA7
  0
XRECORD
  5
189
102
{ACAD_REACTORS
330
188
102
}
330
188
100
AcDbXrecord
280
     1
 70
     1
 90
429727718
  1
508B35C9-AEE7-456F-BE74-D52651303AC6
310
504B03040A0000080000B670623B3DEE336E79000000790000001B0000006175746F6465736B2D64657369676E2D7061636B6167652E786D6C3C3F786D6C2076657273696F6E3D22312E302220656E636F64696E673D227574662D3822203F3E3C666F726D6174733E3C666F726D61743E687474703A2F2F736368656D612E
310
6175746F6465736B2E636F6D2F64657369676E2D7061636B6167652F323030393C2F666F726D61743E3C2F666F726D6174733E504B0304140006080800B670623BD486FD9CA0000000F4000000130000005B436F6E74656E745F54797065735D2E786D6C7D8EC10E82300C865F65E91D8A1E8C310C0EEA1BF002731658846E
310
D98AC1B77784ABF1D8FE5FBFBF75BBCE937A534CCEB38643598122B6FEE978D0B0485F9C41B54DDD7D022595594E1A469170414C76A4D9A4D207E29CF43ECE46F218070CC6BECC4078ACAA135ACF422C856C0E68EA1BF5669944DDD7BCDE7B1F8E415D77AECB980613C2E4AC91FC167A2B244592486606FC29C8FD7F045B9A
310
EF7053A7E60B504B0304140006080800B670623B28ED286BEB0000007C01000008000000636F72652E786D6C8D90416EC3201045AF82665B6183218D6D61A254764FD00B204C5C94182C03558F5F9C3852BBEB6A467FFE9B197D71FA9E6FE8CBACC17AD7012D0820E3B41FAD9B3A48F1826B40272956EFE32F1B20A766D3C1
310
268314D3EAD3B24BDABB685CCCAAF3A3D94515828980F42D371D04FD696655A814B3235C8B45E9AB9A4C419F5D8653B2237A1CB163DE672FD6AC209BF3C08E0D1B30EB19C3FC9D72FCC6EB231EFA33EDE96BDD341517E5064B11EDFCBCAF57A3A2194156843498524CAA0FCA5B7268F9E185D42D21A2DCEC7FA0B48CFF8492
310
759155FBBB0F2C80A4F991FB408A72CB22977B50B96EB9C91F504B0304140006080800B670623B55019EA25F0000007C00000007000000636E782E786D6C4DCB3B0E80201045D1AD90E915ED2CF8AC45050C11660C8261F98AB1B07AC9C97D42D718D865D3E909258CFD00CCE24AC6E326A164D74DC0B4128928FF32603847
310
2BA13128B1252AC747C6BAB984FC68F0B87FE8960A5C09FE86CFB69FBA01504B0304140006080800B670623B7BC41AC871010000D40300000C0000006662782F636F72652E786D6CC553ED6E8320147D15C2DF4501B56B6D90A64BBB27D80B50A5CE54C120983EFEAE1F4DD7A56BBA5FF3879273EEE59E7310BE393735EA95
310
ED2AA333CC428A91D2B9292A5D66D8BB63B0C26823B835C67D2BC348CB46657880B1E0A535BE9DA1DC68A7B403549B42CDA0EC3AE530CA6B5864B8CB3F552343E91D5474A7B095F949962A6421D0502778E72C0840D390E18DC5F170E664C205F7BE2A66B62A605A75AC94C522DDEEE3651AEF837817C741F2CE92E02D592D
310
83FD6ECB76EC7595A651C2C9D02CB8AB9A8BBADC2AE954814544691A3016D0E883256BBA58278B17BA5A53CAC9507ED3E4DBE2C9265F691747B3DCA9ADC382819091F8E1162272A8933DE82182932144F88C09DF060D8140C84E1EEA8B8F1340BDCA9DB1093085F157AA97B557309586747CD0EF0B4EA64E983A6E0EAEEFCE
310
889E9EF17847386AA94B30211D2C0FDE0D3AF9A4610EAD5536E8DD1969631B593F67E381C33F5157F17725E5A636F6BF1491F980C8FC7B90E13E8A2F504B0304140006080800B670623B70102A487D0000009D0000000B0000006662782F636E782E786D6C4DCCD10A83201886E15B91FFDC95A5C30335ACCDFB886521330D
310
A76397BF1A1DECE883878F57749FD5A3B74D2F17830472A901D9F088930B8B849267CC01754AA418F3DF0D5018572BE160506249B16C274D761E8BCFBB7A179E27F65CB39A0F14D396184C9921B81F34C3ACA1B4B99ABB6E6F062A25AA5F69DF23ACBE504B0304140006080800B670623B3610CA3329010000120200003100
310
00006662782F42384135303843342D343331462D343546312D424341352D3532343432364645413344462F636F72652E786D6C8D515B6EC32010BC0AE22B55850D0E446E848992B43E412FE000495162B07854397EA176A4F62F3F2C9A9D991D58BEBB8F37F0AD7D30CE76905418026DA553C65E3A98E219B510EC04F7CEC5
310
3F3408EC30EA0E16180A7EF12E4D0B249D8DDAC68C5AA7F4020E21E80881BCE54B0783FCD2E3500D296646B856D320AFC34557A4CAEDCC133C449F0380794839A138B47B86DB2345744D7A44594FD0E1B867883594369BFE63BF7EEF793D0B054FC9A8456E548E63CE46FB674D8A58F068C6477CE9F510B582A2C1F80D1182
310
70F349E816B32D65AFB8DD62CCEB42FF274A937A52948C8DEB66893BCB021484D7734370E5D2E9F608A3EF93F3119479ABA0E50B14B8C298119A43CCC4FCFCECB8A18B6388CEE7EF5D5D4F994BD86CBBA182D76543B9FCAE2FD7B24DF103504B0304140006080800B670623B1B8617914E0100003303000030000000666278
310
2F42384135303843342D343331462D343546312D424341352D3532343432364645413344462F636E782E786D6CD593C16EC32010447F0571AD6CE3D489D20813A9877E410FBD62D82434182CC055F3F75D1292E692438FBD206B7698593D61BEFD1E2DF982108D773D6D6B460938E5B571FB9ECE6957AD29D90A1EBC4F7736
310
4A9C1CA1A759A682EF839FA72269D8C9D92654AD71C72206887E0E0A22CAF926B15E498B01E0AA19451807D01A34B919F16B070157417138917400F2F6FA41FCF0092A45DEE414C19BDC21783E4BD39D891265658C3D8DEA00A3ACE59CBC8678ACB54CB26EEB6BD7839D7E9348BE70AD9C8321B9BCA7F9A4A26C542347DEE0
310
50F09802D22BA6749A800A394DD62899107273365E3C82CFC6A55557BC06C10774B7ABE7AEC3B0F34CF06446280E154026D0542C187BA9DAB6628BF7B6DBB0E5A65B3EB1F58631DE64BBE083F7B65CC218087E22CABB042E51D1F2268F1FE12B3EA24D40D63E9CFE00120194D60B9D5BC67FE6D39CDF37E20AF817881F504B
310
0304140006080800B670623BBFEF2E3B690500003C100000340000006662782F42384135303843342D343331462D343546312D424341352D3532343432364645413344462F6F626A656374732E786D6CAD575D739B3814FD2B0CFB0C98D84E931D4227B6938EA793B6534F3BFB90198F0099B001899144EAECAFDF231018B0
310
D37A3FFC609090EEE7B94757C1FB7D915B2F54C88CB31BDB7727B64559CC938CA53776A576CE956DBD0F03C1B9EA2DB32D460A7A63EB693B0C52C1ABD24C257447AA5C8D66EF177F5832A68CDA569C13296F6C193FD182B8A4523CA1F2D94D88226EBADBBBBEDB2C1C8A4D05299F46424B222853B014F30C52ACC6287F389C
310
D85E1878FA7B18E87FB36AFAF62AAFF667A83F635211161F291B8999FAB3D5DDC5FCDA99CF6653677679E13B8BFBC5CAF1DF4D27CBCBE5F2FAF6EE1A8AA51290642C117467871F101B91C581D77CEA2C36869F3229E68CD1B8F61F1ED6361B89092D294B90C78C4A68EB793D190E7D1D9BDEE7A91E1B95FDE9F3BCEAEFE809
310
6A6D6F9F7D4B79F4275C90E7A04248AA51D5C4C738DAE06F72885AC4796EBE65D22A88A22223B995679120E2D50EB1542F098381188D4EA111AE3DB043FF20AF6F2B4AE3D7D83D65E5AECA730D4D3BAC91BD05FEA992B565D95F549CD6069B90AB2A63EACA38A45E4B6A87D781574F86817E4C2FCCC72690D62E2729520E37
310
9BAF234797BAF6D62B3BFC781FED37BA1E4F2B2F052FA9501A3E80569BB8F6A9A364D4FA67654E6F803383981F82F21591FF84F23D9882BC896C3FDBCF8C162508933B2E0AE4C69DD43F6BD2BE38DDDBF10BF86CB4FA784D37F3AF16075E67EC9030DECA1FC0A55373F5DFF3378C591FA9BDF485C10B0A8C8BA909E5262639
310
A8E72163488806A595734C81CB77D1DE0ED7604A303B76913CEC0272F412782FF88EFF4636D8AA56DF7B322474C4B767303F625997056C7B032C473C592B36CEBD15F3F9FF5233B7ABCDC74D257624A60F8658567497B14CE1EC3C80B76FD02011038F9EE9EB0F2E12387A9C844D3F09855125116D1D731DF8B43D2CF4E0A0
310
79A020C6BE946BCE0B7EA1E1219331CD73C228AF5A2DDD31A4B1DA918CE91350854D40A71723140BFA92E94E62B0626016CEFA5864A50E5977E8753CEDBEE1CBB7F52780D20E17AF0BA0F5F9B02A3AD07DCC732EB6D1EBB661421BE0C39E21BABF0FE16D22EA6929407C8DE596724C88B749B6DB5512BC7B228ADFD7CB7EA6
310
3A22397E690BA8D5D8D4E40CEC8CDA23C2C0B7D5898640101CEC9C6D331CE328CB93CAFBBAC70A642DF70DF95155945B52F08AA973C23469FD69ADEF84F7BB18F983A8F8C90E37F5D35980B2139A1C523540813E824EF83448CF7C72B598CE97D7CEEDDDDD3B6736BFBC771677EF66CE6A7E7139F7A793E9EDF2B2B3A8B624
310
0CDA13AA5F8388264EC4A0129909F3B7F5A16CEDF08128E97D680ACA4B9BE7B7B58BB638F0B00700EF36AE8B32A705658A68F83EE897FC2B41573190D1CCAF0B92D233A47CFEB019D9809933F67DD1A5467F8CF69AD9A5AE859342D45355448C64F968A371DC2D596ADC6E43D93D1B466F877A64E2893E54F23C4B40388995
310
525E5005DA3983ED45412510D3EFCA13737B3863F74BD30F2A12E5B4B5E489A025CE25500DB855B11ACE5BBFA185D35DD48D8DC3CE7DC69F2944DB42AA6F6CF09BCA622ADD08C7A36E7C6AE18000BAB08E040135C2D21C9D75B3A91B77BB746C403F38018DFE6EC939DD92F16B40BC05294B9CDA035AAD6D330AE27FE4786B
310
8E45145EA34A75BE1C263A676A35A8ACC6297337400BF16C54EF515F3F77CB77EB3583889C754FFA29081AA98E2222ADEF05DA3E63D2EDEA8B8756C05A7FB6CABC4A91CBF325398202CC952E70A008A830324BA200D5E5EF8F5F04C75DB4B0EE3340E071C98B823333B83577596BF3849B69F2085AA0FAFA212F26BEFF5877
310
FDE622B28D88A42E49E43326DA82D31E8CB006401E1DA726059ECEC168F97A6599036306A135688F9AD2E61A6EA178F4CD51974A9F2CCB9F36FE5EBD14601068D9C3BF01504B0304140006080000B670623B000000000000000000000000350000006662782F42384135303843342D343331462D343546312D424341352D35
310
32343432364645413344462F76657274696365732E62696E504B0304140006080800B670623BF270F1330600000004000000360000006662782F42384135303843342D343331462D343546312D424341352D3532343432364645413344462F747269616E676C65732E62696E636660600000504B0304140006080000B67062
310
3B000000000000000000000000370000006662782F42384135303843342D343331462D343546312D424341352D3532343432364645413344462F617474726962757465732E62696E504B0304140006080800B670623B08DA0BD19000000041010000360000006662782F42384135303843342D343331462D343546312D4243
310
41352D3532343432364645413344462F6469726563746F72792E786D6C858F410AC3201045AF22B36F53E9A60B35CBEEBAE80D244E44489C6234F4F835464A48035D0DF398FF9F8AF63D0E6CC63039F212F8F9020C7D47C6792B21C5FE7403D62A1188E2E60C98D7234A5830286103A55745067B9D86B8A3CF9C7F90C11DE6
310
07FB144396D7B6A82D282E9A152AD114D5EF2CB866EEE831B8EEA07A7BB5A8D7D61A2BAAEB7FD5F70921FF497D00504B0304140006080800B670623B3B4606F3FE000000A00100003B0000006662782F42384135303843342D343331462D343546312D424341352D3532343432364645413344462F7265736F75726365732F
310
636F72652E786D6C8D504B6E833010BD0A9A6D65B08134808CA354A427E8052C332156828DFCA97AFC9A40A576D7CDCCE87D344F8F9FBEE647F689CE6B6B7A6039850C8DB2A336530F315C4903D94970676DF82583CCC8197B5861107C72362E3BA4AC096842428D1D7107A5F71820538F74F4E0D50D6799CB1892C2DFF345
310
AABB9C306779A2934E701F5C0A906D4FD609C2A1B7D129F4BCD858C163D4E3AED163FAA9AF1A1D88F67CA98E6D35906AA82A52BFB39ABCD5CD915C86331BD86BD3B665CD8BD52C78D0F34F46E550061C419494B6843142CB0F5677F4D0D58717DA7494F26295FF31C565FCA7296A13AA728FBBD93C0896823C09C18BB5AFB4
310
9E65A6BD762BBE01504B010214000A0000080000B670623B3DEE336E79000000790000001B00000000000000000000000000000000006175746F6465736B2D64657369676E2D7061636B6167652E786D6C504B01021400140006080800B670623BD486FD9CA0000000F40000001300000000000000000000000000B2000000
310
5B436F6E74656E745F54797065735D2E786D6C504B01021400140006080800B670623B28ED286BEB0000007C010000080000000000000000000000000083010000636F72652E786D6C504B01021400140006080800B670623B55019EA25F0000007C000000070000000000000000000000000094020000636E782E786D6C50
310
4B01021400140006080800B670623B7BC41AC871010000D40300000C00000000000000000000000000180300006662782F636F72652E786D6C504B01021400140006080800B670623B70102A487D0000009D0000000B00000000000000000000000000B30400006662782F636E782E786D6C504B01021400140006080800B6
310
70623B3610CA3329010000120200003100000000000000000000000000590500006662782F42384135303843342D343331462D343546312D424341352D3532343432364645413344462F636F72652E786D6C504B01021400140006080800B670623B1B8617914E010000330300003000000000000000000000000000D10600
310
006662782F42384135303843342D343331462D343546312D424341352D3532343432364645413344462F636E782E786D6C504B01021400140006080800B670623BBFEF2E3B690500003C10000034000000000000000000000000006D0800006662782F42384135303843342D343331462D343546312D424341352D35323434
310
32364645413344462F6F626A656374732E786D6C504B01021400140006080000B670623B0000000000000000000000003500000000000000000000000000280E00006662782F42384135303843342D343331462D343546312D424341352D3532343432364645413344462F76657274696365732E62696E504B010214001400
310
06080800B670623BF270F133060000000400000036000000000000000000000000007B0E00006662782F42384135303843342D343331462D343546312D424341352D3532343432364645413344462F747269616E676C65732E62696E504B01021400140006080000B670623B00000000000000000000000037000000000000
310
00000000000000D50E00006662782F42384135303843342D343331462D343546312D424341352D3532343432364645413344462F617474726962757465732E62696E504B01021400140006080800B670623B08DA0BD1900000004101000036000000000000000000000000002A0F00006662782F42384135303843342D3433
310
31462D343546312D424341352D3532343432364645413344462F6469726563746F72792E786D6C504B01021400140006080800B670623B3B4606F3FE000000A00100003B000000000000000000000000000E1000006662782F42384135303843342D343331462D343546312D424341352D3532343432364645413344462F72
310
65736F75726365732F636F72652E786D6C504B0506000000000E000E0080040000651100000000
  0
XRECORD
  5
187
102
{ACAD_REACTORS
330
186
102
}
330
186
100
AcDbXrecord
280
     1
 70
     1
 90
429727718
  1
887D55A9-D0DD-414E-B741-A7DCD4DA2B4C
310
504B03040A0000080000B670623B3DEE336E79000000790000001B0000006175746F6465736B2D64657369676E2D7061636B6167652E786D6C3C3F786D6C2076657273696F6E3D22312E302220656E636F64696E673D227574662D3822203F3E3C666F726D6174733E3C666F726D61743E687474703A2F2F736368656D612E
310
6175746F6465736B2E636F6D2F64657369676E2D7061636B6167652F323030393C2F666F726D61743E3C2F666F726D6174733E504B0304140006080800B670623BD486FD9CA0000000F4000000130000005B436F6E74656E745F54797065735D2E786D6C7D8EC10E82300C865F65E91D8A1E8C310C0EEA1BF002731658846E
310
D98AC1B77784ABF1D8FE5FBFBF75BBCE937A534CCEB38643598122B6FEE978D0B0485F9C41B54DDD7D022595594E1A469170414C76A4D9A4D207E29CF43ECE46F218070CC6BECC4078ACAA135ACF422C856C0E68EA1BF5669944DDD7BCDE7B1F8E415D77AECB980613C2E4AC91FC167A2B244592486606FC29C8FD7F045B9A
310
EF7053A7E60B504B0304140006080800B670623BBC1638F5EC0000007C01000008000000636F72652E786D6C8D90416EC3201045AF82665B61836BE2D8C24471DB9CA01740401C94182C03558F5F9C3852BBEB6A467FFE9B197D7EF89E6EE8CB2CC17AD7032D0820E394D7D68D3DA478C67B4007C117EFE32F1B202727D3C3
310
2A83E0E3E2D3BC49CABB685CCCAAF3DA6CA20CC14440EA969B1E82BA98491632C5EC08D76296EA2A4753D06797E194AC468F2356E77DF66CCD02825543D50CACC62D39ED70FDC68EB8FD68F6F8787A6784342D1DDA1D2F5758F068A7E77DB518198D065111D2624A31A93E69DD11D6D5EC85EC3B4278B9DAFF4069D6FF8492
310
75F1B5DADE7D600104CD8FDC0782976B16B9DC83CA75CD4DFC00504B0304140006080800B670623B55019EA25F0000007C00000007000000636E782E786D6C4DCB3B0E80201045D1AD90E915ED2CF8AC45050C11660C8261F98AB1B07AC9C97D42D718D865D3E909258CFD00CCE24AC6E326A164D74DC0B4128928FF326038
310
472BA13128B1252AC747C6BAB984FC68F0B87FE8960A5C09FE86CFB69FBA01504B0304140006080800B670623B3586FFB671010000D40300000C0000006662782F636F72652E786D6CC553ED6E8320147D15C2DF4541A76D6D90A6DDD627D80B50A4CE54C120983EFEAE1F4DD7A55BBA5FF3879273EEE59E7310B6393735EA
310
95ED2AA3731C851423A5A5292A5DE6D8BB63B0C268C39935C67D29C3488B46E578803167A535BE9D2169B453DA01AA4DA16650749D7218C91A1639EEE4876A4428BC838AEE14B6429E44A9C228041AEA38EB9C0501681A32BC313F1ECE8C4C3867DE57C5CC56054CAB8E95B298A7F12E5EEED224C8E87E11242FE936C8DE96
310
AB60BB7F4D295D66D12E5B30323473E6AAE6A24E5A259C2A308F29CD82280A68FC1E256B9AAE93F489AED694323294DF34F9B678B0C957DA3DC7B3DCA9ADC33C022123F1CD2D44E450277AD04338234388F01913BE0D1A0281909D38D4171F27807A259DB1093085F157AA17B557309586747CD0CF0B46A64E983A6E0EAEEF
310
CE881F9EF1FB8E70D44297604238581EBC1B74B249C31C5AAB6CD0BB33D2C636A27ECCC62F0EFF445DC5DF95244D6DEC7F2922F30191F9F720C37DE49F504B0304140006080800B670623B4220A0FF7D0000009D0000000B0000006662782F636E782E786D6C4DCCD10A83201886E15B91FFDCE542CB0335D0EC3E6259C84A
310
C3E9D8E5AF46073BFAE0E1E315DD675BD1DBA5978F41C2FD4600B9F088930F8B849267CC01754AA418F3DF0D50183727E164506249B1EC174D6E1ECB9A0F5D7D785E68DB8151CD286E5A5363CA6B8A39E90D36D40E96B086F55A43A544F52B1D7B86D517504B0304140006080800B670623B2FA3FEDE290100001202000031
310
0000006662782F45374635344235342D363743322D343832342D383044432D4334454645303536354442422F636F72652E786D6C8D515B6EC32010BC0AE22B55850D2E386E848994D7097A0117488A1283C5A3CAF10BB523B57FF961D1ECCCECC0F2ED7DBC816FED8371B687A4C210682B9D32F6D2C314CFA883602BB8772E
310
FEA141608751F7B0C050F08B77695A20E96CD43666D43AA5177008414708E42D5F7A18E4971E876A483133C2B59A06791D2EBA22556E679EE021FA1C00CC43CA09C5717D6274C7286AD7FB06D1AEA1A8C3873DDAD3E3E98859CB0EBB1DAF67A1E02919B5C88DCA71CCD968FFAC49110B1ECDF8882FBD1EA256503418BF2342
310
106E3E08DD60B6A1EC15771B8C795DE8FF4469524F8A92B1F1AD59E2CEB20005E1F5DC105CB9F4797B84D1F7C9F908CABC55D0F2050A5C61CC1AD2F27A26E6E767C7962E8E213A9FBF7775FDCC5CC266DB960A5E970DE5F2BBBE5CCB36C50F504B0304140006080800B670623B1B8617914E01000033030000300000006662
310
782F45374635344235342D363743322D343832342D383044432D4334454645303536354442422F636E782E786D6CD593C16EC32010447F0571AD6CE3D489D20813A9877E410FBD62D82434182CC055F3F75D1292E692438FBD206B7698593D61BEFD1E2DF982108D773D6D6B460938E5B571FB9ECE6957AD29D90A1EBC4F77
310
364A9C1CA1A759A682EF839FA72269D8C9D92654AD71C72206887E0E0A22CAF926B15E498B01E0AA19451807D01A34B919F16B070157417138917400F2F6FA41FCF0092A45DEE414C19BDC21783E4BD39D891265658C3D8DEA00A3ACE59CBC8678ACB54CB26EEB6BD7839D7E9348BE70AD9C8321B9BCA7F9A4A26C542347DE
310
E050F09802D22BA6749A800A394DD62899107273365E3C82CFC6A55557BC06C10774B7ABE7AEC3B0F34CF06446280E154026D0542C187BA9DAB6628BF7B6DBB0E5A65B3EB1F58631DE64BBE083F7B65CC218087E22CABB042E51D1F2268F1FE12B3EA24D40D63E9CFE00120194D60B9D5BC67FE6D39CDF37E20AF817881F50
310
4B0304140006080800B670623B29652116630500003C100000340000006662782F45374635344235342D363743322D343832342D383044432D4334454645303536354442422F6F626A656374732E786D6CAD575D739B3814FD2B0CFB0C989834C90EA1639B24E3E9A6EDD4D3CE3E64C623834CD8006224913AFDF57B040203
310
B65BEF871F0C12D2FD3CF7E8CA7FBFCB33E3957291B2E2D674ED8969D02262715A24B76625B7D6B569BC0F7CCE98EC2D338D82E4F4D654D366E0279C55A59E8AE99654991CCDDECFFF3444440B6A1A514684B83545F44C7362934AB2988A173B2692D8C97667BB76B3702836E1A47C1E092D09A78584A5982F20C5688C7287
310
C389E904BEA3BE07BEFAD7ABA6A75739B53F43FD69212429A20365233153D70BEF2E2E6FAC4BCF9B5ADEBB0BD79ADFCF43CBBD9A4E16EF168B9BD9DD0D140BC921495BC2E9D60C1E101B9E46BED37CEA2CD6861F3329624541A3DA7F7858DBAC25C6B4A4458C3CA654405BCFEBC970E8AAD8F43E4FD558ABEC4F9FE7557F47
310
4F506B7BFBEC5BCA367FC105710E2AB8A00A554D7CB4A30DFE26FBA86D18CBF4B75418399194A72433B274C3097F33032C554B027F2046A1932B842B0FCCC0DDCBEBDB8AD2F835768F59B9ADB24C41D30C6A64AF817F2A456D59FA83F2E3DA60137255A585BCD60EC9B7929AC18DEFD49381AF1ED30BFDB109A4B1CD488294
310
C3CDE6EBC8D185AABD6568061FEE37BB95AAC7E3CA4BCE4ACAA5820FA0D526AE7DAA2869B5EE5999531BE0CC20E6FBA07C41E43FA27CF7A6206F3CDD793B4F6B919C1462CB788EDCD893FA674CDA17AB7B3B7C019F8D561FAEE966FED562DFE98C1D12C6A9FC015C2A35D7FF3D7FC398F591DA4B5FE0BFA2C0189FEA50AE22
310
92817A1ED3020951A03432862970F976B33383259812CC8E5D240BBA801CBCF8CE2BBEE3BF910DB6AAD5F79E05123AE2DB33981FB1ACCB02B69D00CB014FD68AB573A7627EF9BFD4CC2C5C7D58557C4B22FAA88925A4DBB44825CECE3D78FB060D1231F0E885BE7D673C86A3874958F593906B5502D1563157814FDAC3420D
310
F69A070A22EC4B98E23CFF171A1E5311D12C23056555ABA53B8614563B92D17D02AAB009E8F46284624E5F53D5490C560CCCC2591FF1B45421EB0EBD8EA7ED13BE7C5D7E0428CD60FEF60779EB13E6664FF711CB185F6FDED60D139A001FF60CD1FD6D086F1D51474901E26B2CB794A343BC8ED3EDB612E0DD2351FCB65CF4
310
33D511C9E14B5B40ADC6A6263DB0336A8F700DDF56271A024E70B0B3629DE21847591E55DED73D56206AB927E46FAABC5C939C55853C274C93D69FD6FA4E78BF8B11DF898C9ECD60553FAD39283BA6F18984AA23E8884F83F45C5F5F859797B31B2B9C84A1E5B9DE9D35BFF25C6B76152E422F9C5DCC3D847F5801ED09D5AF
310
41441327A25FF15487F9EB725FB666F048A4701E9A827292E6F97569A32DF61DEC01C0BB8DCBBCCC684E0B49147C1FD54BF685A0AB18C868E6973949E819523E3DAC463660E68C7D9F55A9D1EFA3BD7A76A16AE1A810F95CE59B82A4D968A376DC2E8B44BBDD86B27B368CDE0ED548C7137DA860591A83706223A12CA712B4
310
7306DBF39C0A20A6DF95C7FAF670C6EED7A61F946493D1D6926782963813403548A78AE470DEF80D2D9CEAA26E4D1C76F60BFE74219A06527D6B82DF641A51616F703CAAC6A7160E08A00BEB4810A0274592A1B36E3675E36E978A0DE80727A0D6DF2D39A75BD27E0D8837276589537B40ABB56D5A41F48F1C6FCD3188C4EB
310
A6929D2FFB89CE995A4D00AE813BDD032DC48B56BD437DFDDC2DD7AED70C2272D63DE9A72068A45A92F0A4BE17A8A06B9366E16707AD80B1FC649459952097E74BB23805982B55E0401150A165964402AA8BDF9F3E7386BB686EDCA780C0D382E5392BF460A6EFB2C6EA1937D3F809B440D5F5435C4C5CF7A9EEFAF54564BD
310
2182DA24162F98680B4E7930C21A0079709CEAEB99A372305ABE0C0D7D6078105A83F6A0296DAEE1068A47DD1C55A9F4C9B2FC69E3EFD44B81028E963DF81B504B0304140006080000B670623B000000000000000000000000350000006662782F45374635344235342D363743322D343832342D383044432D433445464530
310
3536354442422F76657274696365732E62696E504B0304140006080800B670623BF270F1330600000004000000360000006662782F45374635344235342D363743322D343832342D383044432D4334454645303536354442422F747269616E676C65732E62696E636660600000504B0304140006080000B670623B00000000
310
0000000000000000370000006662782F45374635344235342D363743322D343832342D383044432D4334454645303536354442422F617474726962757465732E62696E504B0304140006080800B670623B08DA0BD19000000041010000360000006662782F45374635344235342D363743322D343832342D383044432D4334
310
454645303536354442422F6469726563746F72792E786D6C858F410AC3201045AF22B36F53E9A60B35CBEEBAE80D244E44489C6234F4F835464A48035D0DF398FF9F8AF63D0E6CC63039F212F8F9020C7D47C6792B21C5FE7403D62A1188E2E60C98D7234A5830286103A55745067B9D86B8A3CF9C7F90C11DE607FB144396
310
D7B6A82D282E9A152AD114D5EF2CB866EEE831B8EEA07A7BB5A8D7D61A2BAAEB7FD5F70921FF497D00504B0304140006080800B670623B6378F24DFF000000A00100003B0000006662782F45374635344235342D363743322D343832342D383044432D4334454645303536354442422F7265736F75726365732F636F72652E
310
786D6C8D504B6E833010BD0A9A6D65B0094E42641C85B639412F6099496225D8C89FAAC7AF09546A77DDCC8CDE47F3F4C4F16B7C149FE88371B603565228D06A37187BED20C50BD9437194C23B177FC9A0B06AC40E6618A4B87A97A615D2CE46B431A3D60DB8822A048C50E8473E3A08FA86A32A558A5911EEE5A4F45D5DB1
310
6465A6B34E8A107D0E502C4FE609D26370C96B0CA25A58295232C3AA3143FE692E063D485EF7F5AEE71BD2D2F39634AFFC44DAF7DD9E9CCE6F9CD25DCBFA762BAAD92C4534E34F46ED51451C40D694B6843142EB0FD61C283F34FC85EE0F948A6A96FF31A569F8A729191B37F51A77B105902C0779125254735F793DCBCC7B
310
EE567E03504B010214000A0000080000B670623B3DEE336E79000000790000001B00000000000000000000000000000000006175746F6465736B2D64657369676E2D7061636B6167652E786D6C504B01021400140006080800B670623BD486FD9CA0000000F40000001300000000000000000000000000B20000005B436F6E
310
74656E745F54797065735D2E786D6C504B01021400140006080800B670623BBC1638F5EC0000007C010000080000000000000000000000000083010000636F72652E786D6C504B01021400140006080800B670623B55019EA25F0000007C000000070000000000000000000000000095020000636E782E786D6C504B010214
310
00140006080800B670623B3586FFB671010000D40300000C00000000000000000000000000190300006662782F636F72652E786D6C504B01021400140006080800B670623B4220A0FF7D0000009D0000000B00000000000000000000000000B40400006662782F636E782E786D6C504B01021400140006080800B670623B2F
310
A3FEDE290100001202000031000000000000000000000000005A0500006662782F45374635344235342D363743322D343832342D383044432D4334454645303536354442422F636F72652E786D6C504B01021400140006080800B670623B1B8617914E010000330300003000000000000000000000000000D2060000666278
310
2F45374635344235342D363743322D343832342D383044432D4334454645303536354442422F636E782E786D6C504B01021400140006080800B670623B29652116630500003C10000034000000000000000000000000006E0800006662782F45374635344235342D363743322D343832342D383044432D4334454645303536
310
354442422F6F626A656374732E786D6C504B01021400140006080000B670623B0000000000000000000000003500000000000000000000000000230E00006662782F45374635344235342D363743322D343832342D383044432D4334454645303536354442422F76657274696365732E62696E504B01021400140006080800
310
B670623BF270F13306000000040000003600000000000000000000000000760E00006662782F45374635344235342D363743322D343832342D383044432D4334454645303536354442422F747269616E676C65732E62696E504B01021400140006080000B670623B0000000000000000000000003700000000000000000000
310
000000D00E00006662782F45374635344235342D363743322D343832342D383044432D4334454645303536354442422F617474726962757465732E62696E504B01021400140006080800B670623B08DA0BD190000000410100003600000000000000000000000000250F00006662782F45374635344235342D363743322D34
310
3832342D383044432D4334454645303536354442422F6469726563746F72792E786D6C504B01021400140006080800B670623B6378F24DFF000000A00100003B00000000000000000000000000091000006662782F45374635344235342D363743322D343832342D383044432D4334454645303536354442422F7265736F75
310
726365732F636F72652E786D6C504B0506000000000E000E0080040000611100000000
  0
XRECORD
  5
112
102
{ACAD_REACTORS
330
110
102
}
330
110
100
AcDbXrecord
280
     1
270
     1
271
     1
  0
XRECORD
  5
111
102
{ACAD_REACTORS
330
110
102
}
330
110
100
AcDbXrecord
280
     1
270
     1
271
     1
  0
XRECORD
  5
18A
102
{ACAD_REACTORS
330
110
102
}
330
110
100
AcDbXrecord
280
     1
 70
     0
 90
1778669749
  1
9BF507EE-FAF7-4A99-A33D-4EE51894BC40
310
504B03040A0000080000B670623B3DEE336E79000000790000001B0000006175746F6465736B2D64657369676E2D7061636B6167652E786D6C3C3F786D6C2076657273696F6E3D22312E302220656E636F64696E673D227574662D3822203F3E3C666F726D6174733E3C666F726D61743E687474703A2F2F736368656D612E
310
6175746F6465736B2E636F6D2F64657369676E2D7061636B6167652F323030393C2F666F726D61743E3C2F666F726D6174733E504B0304140006080800B670623BD486FD9CA0000000F4000000130000005B436F6E74656E745F54797065735D2E786D6C7D8EC10E82300C865F65E91D8A1E8C310C0EEA1BF002731658846E
310
D98AC1B77784ABF1D8FE5FBFBF75BBCE937A534CCEB38643598122B6FEE978D0B0485F9C41B54DDD7D022595594E1A469170414C76A4D9A4D207E29CF43ECE46F218070CC6BECC4078ACAA135ACF422C856C0E68EA1BF5669944DDD7BCDE7B1F8E415D77AECB980613C2E4AC91FC167A2B244592486606FC29C8FD7F045B9A
310
EF7053A7E60B504B0304140006080800B670623BCA089DFFEC0000007C01000008000000636F72652E786D6C8D90416E83301045AF62CDB632D8402020E32882F604BD80653BC44AB011B6AB1EBF262152BBEB6A467FFE9B197D76FA9EEFE84BAFDE38DB03CD08206DA553C64E3DC470C1474027CE56E7C22F1B202B66DDC3
310
260367D3EAE2B24BD2D9A06D48AA754AEFA2F05E0740F29E9A1EBCBCEA59642286E4F0B76C11F226269DD15797E0188D42CF2346A57DE662F40ABCAEC77628C6120F654571D50C04B7F5B9C1E3997CD4F550BE3745C3F20DE62C98F9755FAE5A04AD801784B498524C8A4F5A75E4D055873772EC0861F966FF03C545FD138A
310
C686B2D8DF7D621E384D8F3C069CE55B16A93C824A75CB8DFF00504B0304140006080800B670623B55019EA25F0000007C00000007000000636E782E786D6C4DCB3B0E80201045D1AD90E915ED2CF8AC45050C11660C8261F98AB1B07AC9C97D42D718D865D3E909258CFD00CCE24AC6E326A164D74DC0B4128928FF326038
310
472BA13128B1252AC747C6BAB984FC68F0B87FE8960A5C09FE86CFB69FBA01504B0304140006080800B670623B68FC0B7272010000D40300000C0000006662782F636F72652E786D6CC5535B6E833010BC8AE5DF0A6C1E8124328E22D29EA01770C0A128602363A31CBFCB234A53A555FA553EC09AD9F5CE8C31DB5DDA060D
310
D2F4B556190E7C8A9154852E6B5565D8D993B7C668C799D1DA7E29C3488956667884316795D1AE5BA0422B2B950554E9522EA0E87B69312A1A5864B82F3E642B7CE12C54F467BF13C55954D20F7CA0A18EB3DE1A1080E621E31BF3D3F1C2C88C73E65C5D2E6C5DC2B4FA544B8379921C36797888BC3C8A032F4E73EA6D927D
310
EA1DF6F42D49F2E8350D5346C666CE6CDD5ED515460A2B4BCC434A375E1078347C0FE22D5D6DE3D50B5D6F2965642CBF6B725DF96493AB958DC245EEDCD6631E809089F8E61622B2A81703E8219C913144F84C09DF070D8140C8561C9BAB8F3340832CAC363130A576376A108D933095FA747AD0CF0B46E64E983A6D0EAE1F
310
CE089F9EF1FB8E70D44255604258581E9D1D75B259C3125A278D37D80B52DAB4A279CEC62F0EFF44DDC43F9454E8469BFF5244960322CBEF41C6FBC83F01504B0304140006080800B670623B0F71DDB67E0000009D0000000B0000006662782F636E782E786D6C4DCCD10A83201886E15B91FFDCA54DB73F502386BB8F5816
310
32D3703976F9ABD1C18E3E78F87855FB990379BBFCF2296AE02706C4C5471A7C9C349475A408A4352AA7B4FEDD80C47E761A7606A3A69CCA72D0E0C6BE8475D3E0E3F3409428EA6B27A84079A782899AA2EC1A7AE3ECCC2FD858CB2D544655BFD2B67BD87C01504B0304140006080800B670623BE134B4FB28010000120200
310
00310000006662782F38353834323741342D343835462D343034322D383541392D4331303331363839454531452F636F72652E786D6C8D515B6EC32010BC0AE22B55850D0EA424C24451959EA0172086A42831583CAA1CBF503B52FB971F16CDCECC0EACD8DFC71BF836215AEF7A481A0C817183D7D65D7A98D3197108F652
310
04EFD31F1A044E8DA6871586525C82CFD3020DDE25E352419DD76601558C264130DCCAA58771F832A36A544E8511AFCDA486ABBA988634A55D7852C4144A00300FA927949C71DABD1D28A29C7D208A6987383B6CD13BC16BB2E1DBE3911C453B0BA5C8D9EA456E758963CFD684674DAA588A64C747FC2118958C86B2C3788B
310
0841B8FB247487D98EB257CC77188BB6D2FF89F2A49F1465EBD2BA5BE2CEB2082511EDDC9042FB7CBA3DC298FBE4430275DE2A9AE1054ADC60CC08E3A29D89E5F9C5714317C7987C28DFBBBA9E0A97B0D97643A568EB864AF95D5FA9759BF207504B0304140006080800B670623B1B8617914E010000330300003000000066
310
62782F38353834323741342D343835462D343034322D383541392D4331303331363839454531452F636E782E786D6CD593C16EC32010447F0571AD6CE3D489D20813A9877E410FBD62D82434182CC055F3F75D1292E692438FBD206B7698593D61BEFD1E2DF982108D773D6D6B460938E5B571FB9ECE6957AD29D90A1EBC4F
310
77364A9C1CA1A759A682EF839FA72269D8C9D92654AD71C72206887E0E0A22CAF926B15E498B01E0AA19451807D01A34B919F16B070157417138917400F2F6FA41FCF0092A45DEE414C19BDC21783E4BD39D891265658C3D8DEA00A3ACE59CBC8678ACB54CB26EEB6BD7839D7E9348BE70AD9C8321B9BCA7F9A4A26C542347
310
DEE050F09802D22BA6749A800A394DD62899107273365E3C82CFC6A55557BC06C10774B7ABE7AEC3B0F34CF06446280E154026D0542C187BA9DAB6628BF7B6DBB0E5A65B3EB1F58631DE64BBE083F7B65CC218087E22CABB042E51D1F2268F1FE12B3EA24D40D63E9CFE00120194D60B9D5BC67FE6D39CDF37E20AF817881F
310
504B0304140006080800B670623B5933D422630500003B100000340000006662782F38353834323741342D343835462D343034322D383541392D4331303331363839454531452F6F626A656374732E786D6CAD575B6FA33814FE2B887D0642934E9B156594264D158D3A534DD4D13E548A0C38942D60649B4EBABF7E3F8321
310
40924EF6928780CDF1B97EE762EFF32E4B8D37CA45C2F21BD3B547A641F39045491EDF98A5DC5AD7A6F1D9F73863B243661A39C9E88DA9B64DDF8B392B0BBD15D12D295339D85DDEFE618890E6D434C2940871638AF08566C426A5641115AF764424B1E3EDCE76ED9AB0CF36E6A47819302D08A7B984A6D8CFC1C5A89572FB
310
CB91E9F89EA3BEFB9EFAD754E3D3544E654F5F7E920B49F2F040D880CDD89D2CEE2E2EA7D6E56432B6269F2E5CEB7679BBB0DCABF168FE693E9FCEEEA6102C240727AD09A75BD3BF876F78127A4EFDA9D5582B7E4CA590E5390D2BFB6161A5B3E618D182E611E2985001691DAB47FDA5AB7CD3F93C566B2DB2BB7D9E55DD13
310
1D468DEECDB3AB290BFE8409E21C54704115AA6AFF68436BFC8DF65E0B184BF5B74418199194272435D224E084BF9B3E481589EFF5D828747285706581E9BB7B7E5D5D911ABFC6EE312DB7659A2A689A7E85EC0DF04FA5A8344BFEA2FCB834E8845895492EAFB541F2BDA0A63FF59C6AD3F7D4637CA13FD68E34B629891172
310
98597F1D183A57B9B75A98FE9765B05BAB7C3C2EBCE0ACA05C2AF8005A4DE09AA7F29216EB9E15397500C6F47CBE77CA7778FE2BD277AF0AE2C693DD6437D1522427B9D8329E2136F6A8FA19A3E6C56ADF0E5F50CF06D48734EDCEBF22F69C56D97EC138153F804B85E6FABFC7AFEFB32E523BE1F3BD372418E363EDCA7548
310
52949E8724474014288D94610BB57C1BEC4C7F854A89CA8E5324F55B871CBC78CE1BBEE3BFE68D6A5589EF3C730474506FCFA8FCF0659516D0ED04580EEA6425581B77CAE797FF4BCECC16EB2FEB926F49481F746159D06D922712BD730FDEAE42BD40F42C7AA5EF3F198F60E86110D6DD20645A9480B795CF95E3E3A659A8
310
C55E724F408873315335CFFB8584874484344D494E59D94869DB90C26A5B64F49C802CAC1D3ABE18A098D3B7444D123D8A9E5AE8F5214F0AE5B2B6E9B575DA3E61CBD3EA2B4009FA940524DD1305FB6A1FB294F14DF0BEA90BA109ECE1481FDC3FFAE8D60E75141700BE82725371B4873751B2DD960265F788137FACE6DD40
310
B575E4F0A5C99F46629D92131467A41EE11ABD8D4CCC039CA0AFB37C93A08B232B8F0AEFCA1E0A1015DF13FC83322B362463652ECF71D3A8B1A7D1BE65DE1D62C44F22C317D35F574FEB16153BA2D13E543D10A80E74C4A65E78A6B7CBCBD1D5DD9DB59C2DAFACC96C3AB566E3F1C29ADCDD5DBAD7D3C9ED7C822ED74F80A6
310
41755310DE4443F44A9E68373FADF6596BFA0F440AE7BECE2727AE9F4F2B1B53B1E7E00CF0DD1E5C65454A339A4BA2D0FBA05ED2EF0443458F47BDBFCA484CCFE0F2ED7E3DD0013B679C7B5499467F0ECEEADDB9CA85A34CE44B99053949D2C1416DB85DE4B136BB7165FBAC0B7AB3542BED4F8CA182A549847A1319316519
310
95A83A67147B9E5101C47487F2485F1ECE38FD568F839204296D3479219888530154036E6528FBFBC66F98E0D4107563A2D7D9AFF8D389681A08F58D89F22693900A3B407754734FC51C10C010D6D640809EE4718AC1BA3ED4AEDB53CA37283F68805A7E4B72CEB0A4EDEAD5DD8C14059A76AFAA56BA6901E13F32BC51C720
310
12AF41295B5BF61BAD3195181FB506E6B40F4C10AF5AF40EF9F5B159AE5DD1F43C72D635E94310D45C2D49785C5D0B94D3B54AB3C5A38349C0587D338AB48C11CBF339599C02CCA54A70A008A8D03C0B2201D5F9EFCF8F9CE12A9A19CB0410789EB32C63B95ECCF455D658BFE0621A3DA32C5075FB101723D77DAE867E7D0F
310
D90444509B44E2151B4DC2290B065803200FBAA9BE9D392A0603F2D5C2D00D6302A615680F66D2FA166E2079D4C551A54AB758161FCEFD4E450A14704CECFEDF504B0304140006080000B670623B000000000000000000000000350000006662782F38353834323741342D343835462D343034322D383541392D4331303331
310
363839454531452F76657274696365732E62696E504B0304140006080800B670623BF270F1330600000004000000360000006662782F38353834323741342D343835462D343034322D383541392D4331303331363839454531452F747269616E676C65732E62696E636660600000504B0304140006080000B670623B000000
310
000000000000000000370000006662782F38353834323741342D343835462D343034322D383541392D4331303331363839454531452F617474726962757465732E62696E504B0304140006080800B670623B08DA0BD19000000041010000360000006662782F38353834323741342D343835462D343034322D383541392D43
310
31303331363839454531452F6469726563746F72792E786D6C858F410AC3201045AF22B36F53E9A60B35CBEEBAE80D244E44489C6234F4F835464A48035D0DF398FF9F8AF63D0E6CC63039F212F8F9020C7D47C6792B21C5FE7403D62A1188E2E60C98D7234A5830286103A55745067B9D86B8A3CF9C7F90C11DE607FB1443
310
96D7B6A82D282E9A152AD114D5EF2CB866EEE831B8EEA07A7BB5A8D7D61A2BAAEB7FD5F70921FF497D00504B0304140006080800B670623BD9A3B367FE000000A00100003B0000006662782F38353834323741342D343835462D343034322D383541392D4331303331363839454531452F7265736F75726365732F636F7265
310
2E786D6C8D504B6E833010BD0A9A6D65B01D0201194711694FD00B586642AD043BF2A7EAF16B122AB5BB6E6646EFA3797AE2F8B5DC8A4FF4C1383B002B291468B59B8C9D0748F1420E501CA5F0CEC55F3228AC5A708015062966EFD27D83B4B3116DCCA875136EA00A012314FA968F0182FEC045952AC5AC08D7F2AEF455CD
310
58B232D3592745883E07289E4FD609D26370C96B0CA27AB252A464A64D63A6FCD35C0C7A904D73EE467EE664DCD58CD4ED4849D79C5A723ED1B7A61977AF2D6F45B59AA58866F9C9A83DAA8813484E6947182394BFB3BAA7FBBEDEBFD0434FA9A856F91F53BA4FFF342563E38E6F719FB60092E5200F428A6AED2BAF479979
310
AFDDCA6F504B010214000A0000080000B670623B3DEE336E79000000790000001B00000000000000000000000000000000006175746F6465736B2D64657369676E2D7061636B6167652E786D6C504B01021400140006080800B670623BD486FD9CA0000000F40000001300000000000000000000000000B20000005B436F6E
310
74656E745F54797065735D2E786D6C504B01021400140006080800B670623BCA089DFFEC0000007C010000080000000000000000000000000083010000636F72652E786D6C504B01021400140006080800B670623B55019EA25F0000007C000000070000000000000000000000000095020000636E782E786D6C504B010214
310
00140006080800B670623B68FC0B7272010000D40300000C00000000000000000000000000190300006662782F636F72652E786D6C504B01021400140006080800B670623B0F71DDB67E0000009D0000000B00000000000000000000000000B50400006662782F636E782E786D6C504B01021400140006080800B670623BE1
310
34B4FB280100001202000031000000000000000000000000005C0500006662782F38353834323741342D343835462D343034322D383541392D4331303331363839454531452F636F72652E786D6C504B01021400140006080800B670623B1B8617914E010000330300003000000000000000000000000000D3060000666278
310
2F38353834323741342D343835462D343034322D383541392D4331303331363839454531452F636E782E786D6C504B01021400140006080800B670623B5933D422630500003B10000034000000000000000000000000006F0800006662782F38353834323741342D343835462D343034322D383541392D4331303331363839
310
454531452F6F626A656374732E786D6C504B01021400140006080000B670623B0000000000000000000000003500000000000000000000000000240E00006662782F38353834323741342D343835462D343034322D383541392D4331303331363839454531452F76657274696365732E62696E504B01021400140006080800
310
B670623BF270F13306000000040000003600000000000000000000000000770E00006662782F38353834323741342D343835462D343034322D383541392D4331303331363839454531452F747269616E676C65732E62696E504B01021400140006080000B670623B0000000000000000000000003700000000000000000000
310
000000D10E00006662782F38353834323741342D343835462D343034322D383541392D4331303331363839454531452F617474726962757465732E62696E504B01021400140006080800B670623B08DA0BD190000000410100003600000000000000000000000000260F00006662782F38353834323741342D343835462D34
310
3034322D383541392D4331303331363839454531452F6469726563746F72792E786D6C504B01021400140006080800B670623BD9A3B367FE000000A00100003B000000000000000000000000000A1000006662782F38353834323741342D343835462D343034322D383541392D4331303331363839454531452F7265736F75
310
726365732F636F72652E786D6C504B0506000000000E000E0080040000611100000000
  0
XRECORD
  5
113
102
{ACAD_REACTORS
330
110
102
}
330
110
100
AcDbXrecord
280
     1
270
     1
271
     1
  0
XRECORD
  5
114
102
{ACAD_REACTORS
330
110
102
}
330
110
100
AcDbXrecord
280
     1
270
     1
271
     1
  0
CELLSTYLEMAP
  5
4EDA7
102
{ACAD_REACTORS
330
104
102
}
330
104
100
AcDbCellStyleMap
 90
        3
300
CELLSTYLE
  1
TABLEFORMAT_BEGIN
 90
        5
170
     1
 91
        0
 92
    32768
 62
   257
 93
        1
300
CONTENTFORMAT
  1
CONTENTFORMAT_BEGIN
 90
        0
 91
        0
 92
      512
 93
        0
300

 40
0.0
140
1.0
 94
        5
 62
     0
340
11
144
0.25
309
CONTENTFORMAT_END
171
     1
301
MARGIN
  1
CELLMARGIN_BEGIN
 40
0.06
 40
0.06
 40
0.06
 40
0.06
 40
0.18
 40
0.18
309
CELLMARGIN_END
 94
        6
 95
        1
302
GRIDFORMAT
  1
GRIDFORMAT_BEGIN
 90
        0
 91
        1
 62
     0
 92
       -2
340
0
 93
        0
 40
0.045
309
GRIDFORMAT_END
 95
        2
302
GRIDFORMAT
  1
GRIDFORMAT_BEGIN
 90
        0
 91
        1
 62
     0
 92
       -2
340
0
 93
        0
 40
0.045
309
GRIDFORMAT_END
 95
        4
302
GRIDFORMAT
  1
GRIDFORMAT_BEGIN
 90
        0
 91
        1
 62
     0
 92
       -2
340
0
 93
        0
 40
0.045
309
GRIDFORMAT_END
 95
        8
302
GRIDFORMAT
  1
GRIDFORMAT_BEGIN
 90
        0
 91
        1
 62
     0
 92
       -2
340
0
 93
        0
 40
0.045
309
GRIDFORMAT_END
 95
       16
302
GRIDFORMAT
  1
GRIDFORMAT_BEGIN
 90
        0
 91
        1
 62
     0
 92
       -2
340
0
 93
        0
 40
0.045
309
GRIDFORMAT_END
 95
       32
302
GRIDFORMAT
  1
GRIDFORMAT_BEGIN
 90
        0
 91
        1
 62
     0
 92
       -2
340
0
 93
        0
 40
0.045
309
GRIDFORMAT_END
309
TABLEFORMAT_END
  1
CELLSTYLE_BEGIN
 90
        1
 91
        1
300
_TITLE
309
CELLSTYLE_END
300
CELLSTYLE
  1
TABLEFORMAT_BEGIN
 90
        5
170
     1
 91
        0
 92
        0
 62
   257
 93
        1
300
CONTENTFORMAT
  1
CONTENTFORMAT_BEGIN
 90
        0
 91
        0
 92
      512
 93
        0
300

 40
0.0
140
1.0
 94
        5
 62
     0
340
11
144
0.18
309
CONTENTFORMAT_END
171
     1
301
MARGIN
  1
CELLMARGIN_BEGIN
 40
0.06
 40
0.06
 40
0.06
 40
0.06
 40
0.18
 40
0.18
309
CELLMARGIN_END
 94
        6
 95
        1
302
GRIDFORMAT
  1
GRIDFORMAT_BEGIN
 90
        0
 91
        1
 62
     0
 92
       -2
340
0
 93
        0
 40
0.045
309
GRIDFORMAT_END
 95
        2
302
GRIDFORMAT
  1
GRIDFORMAT_BEGIN
 90
        0
 91
        1
 62
     0
 92
       -2
340
0
 93
        0
 40
0.045
309
GRIDFORMAT_END
 95
        4
302
GRIDFORMAT
  1
GRIDFORMAT_BEGIN
 90
        0
 91
        1
 62
     0
 92
       -2
340
0
 93
        0
 40
0.045
309
GRIDFORMAT_END
 95
        8
302
GRIDFORMAT
  1
GRIDFORMAT_BEGIN
 90
        0
 91
        1
 62
     0
 92
       -2
340
0
 93
        0
 40
0.045
309
GRIDFORMAT_END
 95
       16
302
GRIDFORMAT
  1
GRIDFORMAT_BEGIN
 90
        0
 91
        1
 62
     0
 92
       -2
340
0
 93
        0
 40
0.045
309
GRIDFORMAT_END
 95
       32
302
GRIDFORMAT
  1
GRIDFORMAT_BEGIN
 90
        0
 91
        1
 62
     0
 92
       -2
340
0
 93
        0
 40
0.045
309
GRIDFORMAT_END
309
TABLEFORMAT_END
  1
CELLSTYLE_BEGIN
 90
        2
 91
        1
300
_HEADER
309
CELLSTYLE_END
300
CELLSTYLE
  1
TABLEFORMAT_BEGIN
 90
        5
170
     1
 91
        0
 92
        0
 62
   257
 93
        1
300
CONTENTFORMAT
  1
CONTENTFORMAT_BEGIN
 90
        0
 91
        0
 92
      512
 93
        0
300

 40
0.0
140
1.0
 94
        2
 62
     0
340
11
144
0.18
309
CONTENTFORMAT_END
171
     1
301
MARGIN
  1
CELLMARGIN_BEGIN
 40
0.06
 40
0.06
 40
0.06
 40
0.06
 40
0.18
 40
0.18
309
CELLMARGIN_END
 94
        6
 95
        1
302
GRIDFORMAT
  1
GRIDFORMAT_BEGIN
 90
        0
 91
        1
 62
     0
 92
       -2
340
0
 93
        0
 40
0.045
309
GRIDFORMAT_END
 95
        2
302
GRIDFORMAT
  1
GRIDFORMAT_BEGIN
 90
        0
 91
        1
 62
     0
 92
       -2
340
0
 93
        0
 40
0.045
309
GRIDFORMAT_END
 95
        4
302
GRIDFORMAT
  1
GRIDFORMAT_BEGIN
 90
        0
 91
        1
 62
     0
 92
       -2
340
0
 93
        0
 40
0.045
309
GRIDFORMAT_END
 95
        8
302
GRIDFORMAT
  1
GRIDFORMAT_BEGIN
 90
        0
 91
        1
 62
     0
 92
       -2
340
0
 93
        0
 40
0.045
309
GRIDFORMAT_END
 95
       16
302
GRIDFORMAT
  1
GRIDFORMAT_BEGIN
 90
        0
 91
        1
 62
     0
 92
       -2
340
0
 93
        0
 40
0.045
309
GRIDFORMAT_END
 95
       32
302
GRIDFORMAT
  1
GRIDFORMAT_BEGIN
 90
        0
 91
        1
 62
     0
 92
       -2
340
0
 93
        0
 40
0.045
309
GRIDFORMAT_END
309
TABLEFORMAT_END
  1
CELLSTYLE_BEGIN
 90
        3
 91
        2
300
_DATA
309
CELLSTYLE_END
  0
ENDSEC
  0
SECTION
  2
ACDSDATA
 70
     2
 71
     8
  0
ACDSSCHEMA
 90
        0
  1
AcDb_Thumbnail_Schema
  2
AcDbDs::ID
280
    10
 91
        8
  2
Thumbnail_Data
280
    15
 91
        0
101
ACDSRECORD
 95
        0
 90
        1
  2
AcDbDs::TreatedAsObjectData
280
     1
291
     1
101
ACDSRECORD
 95
        0
 90
        2
  2
AcDbDs::Legacy
280
     1
291
     1
101
ACDSRECORD
  1
AcDbDs::ID
 90
        3
  2
AcDs:Indexable
280
     1
291
     1
101
ACDSRECORD
  1
AcDbDs::ID
 90
        4
  2
AcDbDs::HandleAttribute
280
     7
282
     1
  0
ACDSSCHEMA
 90
        1
  1
AcDbDs::TreatedAsObjectDataSchema
  2
AcDbDs::TreatedAsObjectData
280
     1
 91
        0
  0
ACDSSCHEMA
 90
        2
  1
AcDbDs::LegacySchema
  2
AcDbDs::Legacy
280
     1
 91
        0
  0
ACDSSCHEMA
 90
        3
  1
AcDbDs::IndexedPropertySchema
  2
AcDs:Indexable
280
     1
 91
        0
  0
ACDSSCHEMA
 90
        4
  1
AcDbDs::HandleAttributeSchema
  2
AcDbDs::HandleAttribute
280
     7
 91
        1
284
     1
  0
ACDSSCHEMA
 90
        5
  1
AcDb3DSolid_ASM_Data
  2
AcDbDs::ID
280
    10
 91
        8
  2
ASM_Data
280
    15
 91
        0
101
ACDSRECORD
 95
        5
 90
        1
  2
AcDbDs::TreatedAsObjectData
280
     1
291
     1
101
ACDSRECORD
 95
        5
 90
        2
  2
AcDbDs::Legacy
280
     1
291
     1
101
ACDSRECORD
  1
AcDbDs::ID
 90
        3
  2
AcDs:Indexable
280
     1
291
     1
101
ACDSRECORD
  1
AcDbDs::ID
 90
        4
  2
AcDbDs::HandleAttribute
280
     7
282
     1
  0
ACDSRECORD
 90
        0
  2
AcDbDs::ID
280
    10
320
22
  2
Thumbnail_Data
280
    15
 94
     1666
310
89504E470D0A1A0A0000000D49484452000001000000006F08030000003479EE6F00000300504C5445212830FFFFFF2128300000000000000000000000000000000000000000000000000000330000660000990000CC0000FF0033000033330033660033990033CC0033FF0066000066330066660066990066CC0066FF0099
310
000099330099660099990099CC0099FF00CC0000CC3300CC6600CC9900CCCC00CCFF00FF0000FF3300FF6600FF9900FFCC00FFFF3300003300333300663300993300CC3300FF3333003333333333663333993333CC3333FF3366003366333366663366993366CC3366FF3399003399333399663399993399CC3399FF33CC00
310
33CC3333CC6633CC9933CCCC33CCFF33FF0033FF3333FF6633FF9933FFCC33FFFF6600006600336600666600996600CC6600FF6633006633336633666633996633CC6633FF6666006666336666666666996666CC6666FF6699006699336699666699996699CC6699FF66CC0066CC3366CC6666CC9966CCCC66CCFF66FF0066
310
FF3366FF6666FF9966FFCC66FFFF9900009900339900669900999900CC9900FF9933009933339933669933999933CC9933FF9966009966339966669966999966CC9966FF9999009999339999669999999999CC9999FF99CC0099CC3399CC6699CC9999CCCC99CCFF99FF0099FF3399FF6699FF9999FFCC99FFFFCC0000CC00
310
33CC0066CC0099CC00CCCC00FFCC3300CC3333CC3366CC3399CC33CCCC33FFCC6600CC6633CC6666CC6699CC66CCCC66FFCC9900CC9933CC9966CC9999CC99CCCC99FFCCCC00CCCC33CCCC66CCCC99CCCCCCCCCCFFCCFF00CCFF33CCFF66CCFF99CCFFCCCCFFFFFF0000FF0033FF0066FF0099FF00CCFF00FFFF3300FF3333
310
FF3366FF3399FF33CCFF33FFFF6600FF6633FF6666FF6699FF66CCFF66FFFF9900FF9933FF9966FF9999FF99CCFF99FFFFCC00FFCC33FFCC66FFCC99FFCCCCFFCCFFFFFF00FFFF33FFFF66FFFF99FFFFCCFFFFFF0000000D0D0D1A1A1A2828283535354343435050505D5D5D6B6B6B787878868686939393A1A1A1AEAEAEBB
310
BBBBC9C9C9D6D6D6E4E4E4F1F1F1FFFFFF0000000000000000000000000000000000000000000000000000000000002E4550F10000004A4944415478DAEDD5310D0000080341FCFB6527582061EA9D83FED22A000000000000000000008067BD04480EB00D0410400001BC40EEFCF01F0400000000000000000000000000E0
310
6E003091245FD013190B0000000049454E44AE4260824F1E1040000104681CA0FB7E010410207BBF000284EF17A0C2F70B50E1FBB74646ECDF5899B15F800ADFBFBA3365FFDAD098FDF3A595B37F1A2068FE6C6C45EDFF081036FF3D40DCFCD70081F387001539FF11A0E91FA0760608DE0E000000000000003F70037F154F
310
06C6188E5E0000000049454E44AE426082BC7906C6FC5842605671075D0C0A01A03BC4DCEE7D5C4F3801D015C44C5864438B6974A576F4984356F0920613A82600D18B5A7817757455EFE14E828099EA5006923A6E2A63B9B897960044EC54055317D4F453114D5B4FD910C1975C0250074070A4660280E0452C011801F812
310
D1CB77CA0940D614C15ECA16C0434C378F952400715B044BA104E000C04D542D9D04E00300C1462601B80150C4D55149009E009C02AB882400670008AA1A09C01F803DB482842B007804B0C60D91CF2F9E2F7FB1C23DC1579225015C3F890CE05202B8F9242E001C5FF3827301006B5440D9FC87A325E680CBB4BF3A80E341
310
024800126BCED8DCCAFE0BC89323148B0004169DB1773E315BC236EF7D16429C74C0FC8810FAB822E4686C54F4D26BA9A9E2DD7790D975BD451A1FD53D220800A0797E05CB04E203000DE41FA502A8BD05F61574D1160836078CE58FF12DE253CECF072C2F70EA6F011040B1F60060AF8009C658FE140940F746886607B0F5
310
F2D84660BD1618B88A08D2027100640B8C5D0B2DBC0AC45A06BBF6C2581840B855A0358D18E98F251203406F1A612A80B202BAD38891FF580B500000D49D4988F37FAC813E72214627000A3582A5C338FE00598ED82311F33F3A0000000049454E44AE4260820F467818FD4AC64A010000000049454E44AE42608200187F52
310
539FF6AC0FF2D01229B97F7B56AE64E8787DBF9E93B283504D4929EEDB336DE133B927D0B706F146D8FDD54728002424931276690CDE5FFA471401522320E6FA719CDCC9E90D234F422DA512220CD4066298BF969A4028B717C4D481E25C1BC6C59A99842240E2F24B1F92F8AC20F021F00EFE737AFD0FDF7E00E9E9886BC5
310
1247A50000000049454E44AE426082
  0
ENDSEC
  0
EOF
