  0
SECTION
  2
HEADER
  9
$ACADVER
  1
AC1032
  9
$ACADMAINTVER
 90
      197
  9
$DWGCODEPAGE
  3
ANSI_1252
  9
$LASTSAVEDBY
  1
gregb
  9
$REQUIREDVERSIONS
160
                 0
  9
$INSBASE
 10
0.0
 20
0.0
 30
0.0
  9
$EXTMIN
 10
51012.40200913007
 20
67377.33703683598
 30
0.0000000090338273
  9
$EXTMAX
 10
51195.98972318248
 20
68644.79303983165
 30
0.000000009315656
  9
$LIMMIN
 10
0.0
 20
0.0
  9
$LIMMAX
 10
12.0
 20
9.0
  9
$ORTHOMODE
 70
     1
  9
$REGENMODE
 70
     1
  9
$FILLMODE
 70
     1
  9
$QTEXTMODE
 70
     0
  9
$MIRRTEXT
 70
     0
  9
$LTSCALE
 40
1.0
  9
$ATTMODE
 70
     1
  9
$TEXTSIZE
 40
0.2
  9
$TRACEWID
 40
0.05
  9
$TEXTSTYLE
  7
Standard
  9
$CLAYER
  8
freecads.com
  9
$CELTYPE
  6
ByLayer
  9
$CECOLOR
 62
   256
  9
$CELTSCALE
 40
1.0
  9
$DISPSILH
 70
     1
  9
$DIMSCALE
 40
1.0
  9
$DIMASZ
 40
0.18
  9
$DIMEXO
 40
0.0625
  9
$DIMDLI
 40
0.38
  9
$DIMRND
 40
0.0
  9
$DIMDLE
 40
0.0
  9
$DIMEXE
 40
0.18
  9
$DIMTP
 40
0.0
  9
$DIMTM
 40
0.0
  9
$DIMTXT
 40
0.18
  9
$DIMCEN
 40
0.09
  9
$DIMTSZ
 40
0.0
  9
$DIMTOL
 70
     0
  9
$DIMLIM
 70
     0
  9
$DIMTIH
 70
     1
  9
$DIMTOH
 70
     1
  9
$DIMSE1
 70
     0
  9
$DIMSE2
 70
     0
  9
$DIMTAD
 70
     0
  9
$DIMZIN
 70
     0
  9
$DIMBLK
  1

  9
$DIMASO
 70
     1
  9
$DIMSHO
 70
     1
  9
$DIMPOST
  1

  9
$DIMAPOST
  1

  9
$DIMALT
 70
     0
  9
$DIMALTD
 70
     2
  9
$DIMALTF
 40
25.4
  9
$DIMLFAC
 40
1.0
  9
$DIMTOFL
 70
     0
  9
$DIMTVP
 40
0.0
  9
$DIMTIX
 70
     0
  9
$DIMSOXD
 70
     0
  9
$DIMSAH
 70
     0
  9
$DIMBLK1
  1

  9
$DIMBLK2
  1

  9
$DIMSTYLE
  2
Standard
  9
$DIMCLRD
 70
     0
  9
$DIMCLRE
 70
     0
  9
$DIMCLRT
 70
     0
  9
$DIMTFAC
 40
1.0
  9
$DIMGAP
 40
0.09
  9
$DIMJUST
 70
     0
  9
$DIMSD1
 70
     0
  9
$DIMSD2
 70
     0
  9
$DIMTOLJ
 70
     1
  9
$DIMTZIN
 70
     0
  9
$DIMALTZ
 70
     0
  9
$DIMALTTZ
 70
     0
  9
$DIMUPT
 70
     0
  9
$DIMDEC
 70
     4
  9
$DIMTDEC
 70
     4
  9
$DIMALTU
 70
     2
  9
$DIMALTTD
 70
     2
  9
$DIMTXSTY
  7
Standard
  9
$DIMAUNIT
 70
     0
  9
$DIMADEC
 70
     0
  9
$DIMALTRND
 40
0.0
  9
$DIMAZIN
 70
     0
  9
$DIMDSEP
 70
    46
  9
$DIMATFIT
 70
     3
  9
$DIMFRAC
 70
     0
  9
$DIMLDRBLK
  1

  9
$DIMLUNIT
 70
     2
  9
$DIMLWD
 70
    -2
  9
$DIMLWE
 70
    -2
  9
$DIMTMOVE
 70
     0
  9
$DIMFXL
 40
1.0
  9
$DIMFXLON
 70
     0
  9
$DIMJOGANG
 40
0.7853981633974483
  9
$DIMTFILL
 70
     0
  9
$DIMTFILLCLR
 70
     0
  9
$DIMARCSYM
 70
     0
  9
$DIMLTYPE
  6

  9
$DIMLTEX1
  6

  9
$DIMLTEX2
  6

  9
$DIMTXTDIRECTION
 70
     0
  9
$LUNITS
 70
     2
  9
$LUPREC
 70
     4
  9
$SKETCHINC
 40
0.1
  9
$FILLETRAD
 40
0.0
  9
$AUNITS
 70
     0
  9
$AUPREC
 70
     0
  9
$MENU
  1
.
  9
$ELEVATION
 40
0.0
  9
$PELEVATION
 40
0.0
  9
$THICKNESS
 40
0.0
  9
$LIMCHECK
 70
     0
  9
$CHAMFERA
 40
0.0
  9
$CHAMFERB
 40
0.0
  9
$CHAMFERC
 40
0.0
  9
$CHAMFERD
 40
0.0
  9
$SKPOLY
 70
     0
  9
$TDCREATE
 40
2458157.454583334
  9
$TDUCREATE
 40
2458157.287916667
  9
$TDUPDATE
 40
2460671.736724537
  9
$TDUUPDATE
 40
2460671.570057870
  9
$TDINDWG
 40
0.1397800926
  9
$TDUSRTIMER
 40
0.1397800926
  9
$USRTIMER
 70
     1
  9
$ANGBASE
 50
0.0
  9
$ANGDIR
 70
     0
  9
$PDMODE
 70
     0
  9
$PDSIZE
 40
0.0
  9
$PLINEWID
 40
0.0
  9
$SPLFRAME
 70
     0
  9
$SPLINETYPE
 70
     6
  9
$SPLINESEGS
 70
     8
  9
$HANDSEED
  5
27D90
  9
$SURFTAB1
 70
     6
  9
$SURFTAB2
 70
     6
  9
$SURFTYPE
 70
     6
  9
$SURFU
 70
     6
  9
$SURFV
 70
     6
  9
$UCSBASE
  2

  9
$UCSNAME
  2

  9
$UCSORG
 10
0.0
 20
0.0
 30
0.0
  9
$UCSXDIR
 10
1.0
 20
0.0
 30
0.0
  9
$UCSYDIR
 10
0.0
 20
1.0
 30
0.0
  9
$UCSORTHOREF
  2

  9
$UCSORTHOVIEW
 70
     0
  9
$UCSORGTOP
 10
0.0
 20
0.0
 30
0.0
  9
$UCSORGBOTTOM
 10
0.0
 20
0.0
 30
0.0
  9
$UCSORGLEFT
 10
0.0
 20
0.0
 30
0.0
  9
$UCSORGRIGHT
 10
0.0
 20
0.0
 30
0.0
  9
$UCSORGFRONT
 10
0.0
 20
0.0
 30
0.0
  9
$UCSORGBACK
 10
0.0
 20
0.0
 30
0.0
  9
$PUCSBASE
  2

  9
$PUCSNAME
  2

  9
$PUCSORG
 10
0.0
 20
0.0
 30
0.0
  9
$PUCSXDIR
 10
1.0
 20
0.0
 30
0.0
  9
$PUCSYDIR
 10
0.0
 20
1.0
 30
0.0
  9
$PUCSORTHOREF
  2

  9
$PUCSORTHOVIEW
 70
     0
  9
$PUCSORGTOP
 10
0.0
 20
0.0
 30
0.0
  9
$PUCSORGBOTTOM
 10
0.0
 20
0.0
 30
0.0
  9
$PUCSORGLEFT
 10
0.0
 20
0.0
 30
0.0
  9
$PUCSORGRIGHT
 10
0.0
 20
0.0
 30
0.0
  9
$PUCSORGFRONT
 10
0.0
 20
0.0
 30
0.0
  9
$PUCSORGBACK
 10
0.0
 20
0.0
 30
0.0
  9
$USERI1
 70
     0
  9
$USERI2
 70
     0
  9
$USERI3
 70
     0
  9
$USERI4
 70
     0
  9
$USERI5
 70
     0
  9
$USERR1
 40
0.0
  9
$USERR2
 40
0.0
  9
$USERR3
 40
0.0
  9
$USERR4
 40
0.0
  9
$USERR5
 40
0.0
  9
$WORLDVIEW
 70
     1
  9
$SHADEDGE
 70
     3
  9
$SHADEDIF
 70
    70
  9
$TILEMODE
 70
     1
  9
$MAXACTVP
 70
    64
  9
$PINSBASE
 10
0.0
 20
0.0
 30
0.0
  9
$PLIMCHECK
 70
     0
  9
$PEXTMIN
 10
0.0
 20
0.0
 30
0.0
  9
$PEXTMAX
 10
0.0
 20
0.0
 30
0.0
  9
$PLIMMIN
 10
0.0
 20
0.0
  9
$PLIMMAX
 10
12.0
 20
9.0
  9
$UNITMODE
 70
     0
  9
$VISRETAIN
 70
     1
  9
$PLINEGEN
 70
     0
  9
$PSLTSCALE
 70
     1
  9
$TREEDEPTH
 70
  3020
  9
$CMLSTYLE
  2
Standard
  9
$CMLJUST
 70
     0
  9
$CMLSCALE
 40
1.0
  9
$PROXYGRAPHICS
 70
     1
  9
$MEASUREMENT
 70
     0
  9
$CELWEIGHT
370
    -1
  9
$ENDCAPS
280
     0
  9
$JOINSTYLE
280
     0
  9
$LWDISPLAY
290
     0
  9
$INSUNITS
 70
     1
  9
$HYPERLINKBASE
  1

  9
$STYLESHEET
  1
monochrome.ctb
  9
$XEDIT
290
     1
  9
$CEPSNTYPE
380
     0
  9
$PSTYLEMODE
290
     1
  9
$FINGERPRINTGUID
  2
{358EB121-6EE0-9143-8A3E-6E8E8869FDA6}
  9
$VERSIONGUID
  2
{57D43F76-FA52-164E-98FF-5F9C1C3F2CE9}
  9
$EXTNAMES
290
     1
  9
$PSVPSCALE
 40
0.0
  9
$OLESTARTUP
290
     0
  9
$SORTENTS
280
   127
  9
$INDEXCTL
280
     0
  9
$HIDETEXT
280
     1
  9
$XCLIPFRAME
280
     2
  9
$HALOGAP
280
     0
  9
$OBSCOLOR
 70
   257
  9
$OBSLTYPE
280
     0
  9
$INTERSECTIONDISPLAY
280
     0
  9
$INTERSECTIONCOLOR
 70
   257
  9
$DIMASSOC
280
     2
  9
$PROJECTNAME
  1

  9
$CAMERADISPLAY
290
     0
  9
$LENSLENGTH
 40
50.0
  9
$CAMERAHEIGHT
 40
0.0
  9
$STEPSPERSEC
 40
2.0
  9
$STEPSIZE
 40
6.0
  9
$3DDWFPREC
 40
2.0
  9
$PSOLWIDTH
 40
0.25
  9
$PSOLHEIGHT
 40
4.0
  9
$LOFTANG1
 40
1.570796326794896
  9
$LOFTANG2
 40
1.570796326794896
  9
$LOFTMAG1
 40
0.0
  9
$LOFTMAG2
 40
0.0
  9
$LOFTPARAM
 70
     7
  9
$LOFTNORMALS
280
     1
  9
$LATITUDE
 40
37.795
  9
$LONGITUDE
 40
-122.394
  9
$NORTHDIRECTION
 40
0.0
  9
$TIMEZONE
 70
 -8000
  9
$LIGHTGLYPHDISPLAY
280
     1
  9
$TILEMODELIGHTSYNCH
280
     1
  9
$CMATERIAL
347
96
  9
$SOLIDHIST
280
     0
  9
$SHOWHIST
280
     1
  9
$DWFFRAME
280
     2
  9
$DGNFRAME
280
     0
  9
$REALWORLDSCALE
290
     1
  9
$INTERFERECOLOR
 62
     1
  9
$INTERFEREOBJVS
345
A3
  9
$INTERFEREVPVS
346
A0
  9
$CSHADOW
280
     0
  9
$SHADOWPLANELOCATION
 40
0.0
  0
ENDSEC
  0
SECTION
  2
CLASSES
  0
CLASS
  1
ACDBDICTIONARYWDFLT
  2
AcDbDictionaryWithDefault
  3
ObjectDBX Classes
 90
        0
 91
        1
280
     0
281
     0
  0
CLASS
  1
DICTIONARYVAR
  2
AcDbDictionaryVar
  3
ObjectDBX Classes
 90
        0
 91
        9
280
     0
281
     0
  0
CLASS
  1
TABLESTYLE
  2
AcDbTableStyle
  3
ObjectDBX Classes
 90
     4095
 91
        1
280
     0
281
     0
  0
CLASS
  1
MATERIAL
  2
AcDbMaterial
  3
ObjectDBX Classes
 90
     1153
 91
        3
280
     0
281
     0
  0
CLASS
  1
VISUALSTYLE
  2
AcDbVisualStyle
  3
ObjectDBX Classes
 90
     4095
 91
       25
280
     0
281
     0
  0
CLASS
  1
SCALE
  2
AcDbScale
  3
ObjectDBX Classes
 90
     1153
 91
       34
280
     0
281
     0
  0
CLASS
  1
MLEADERSTYLE
  2
AcDbMLeaderStyle
  3
ACDB_MLEADERSTYLE_CLASS
 90
     4095
 91
        1
280
     0
281
     0
  0
CLASS
  1
CELLSTYLEMAP
  2
AcDbCellStyleMap
  3
ObjectDBX Classes
 90
     1152
 91
        1
280
     0
281
     0
  0
CLASS
  1
EXACXREFPANELOBJECT
  2
ExAcXREFPanelObject
  3
EXAC_ESW
 90
     1025
 91
        1
280
     0
281
     0
  0
CLASS
  1
NPOCOLLECTION
  2
AcDbImpNonPersistentObjectsCollection
  3
ObjectDBX Classes
 90
     1153
 91
        1
280
     0
281
     0
  0
CLASS
  1
LAYER_INDEX
  2
AcDbLayerIndex
  3
ObjectDBX Classes
 90
        0
 91
        0
280
     0
281
     0
  0
CLASS
  1
SPATIAL_INDEX
  2
AcDbSpatialIndex
  3
ObjectDBX Classes
 90
        0
 91
        0
280
     0
281
     0
  0
CLASS
  1
IDBUFFER
  2
AcDbIdBuffer
  3
ObjectDBX Classes
 90
        0
 91
        0
280
     0
281
     0
  0
CLASS
  1
ACDBSECTIONVIEWSTYLE
  2
AcDbSectionViewStyle
  3
ObjectDBX Classes
 90
     1025
 91
        2
280
     0
281
     0
  0
CLASS
  1
ACDBDETAILVIEWSTYLE
  2
AcDbDetailViewStyle
  3
ObjectDBX Classes
 90
     1025
 91
        2
280
     0
281
     0
  0
CLASS
  1
SORTENTSTABLE
  2
AcDbSortentsTable
  3
ObjectDBX Classes
 90
        0
 91
        1
280
     0
281
     0
  0
CLASS
  1
ACAD_EVALUATION_GRAPH
  2
AcDbEvalGraph
  3
ObjectDBX Classes
 90
     1153
 91
        0
280
     0
281
     0
  0
CLASS
  1
BLOCKLINEARPARAMETER
  2
AcDbBlockLinearParameter
  3
ObjectDBX Classes
 90
     1153
 91
        0
280
     0
281
     0
  0
CLASS
  1
BLOCKLINEARGRIP
  2
AcDbBlockLinearGrip
  3
ObjectDBX Classes
 90
     1153
 91
        0
280
     0
281
     0
  0
CLASS
  1
BLOCKGRIPLOCATIONCOMPONENT
  2
AcDbBlockGripExpr
  3
ObjectDBX Classes
 90
     1153
 91
        0
280
     0
281
     0
  0
CLASS
  1
BLOCKSTRETCHACTION
  2
AcDbBlockStretchAction
  3
ObjectDBX Classes
 90
     1153
 91
        0
280
     0
281
     0
  0
CLASS
  1
ACDB_DYNAMICBLOCKPURGEPREVENTER_VERSION
  2
AcDbDynamicBlockPurgePreventer
  3
ObjectDBX Classes
 90
     1153
 91
        0
280
     0
281
     0
  0
CLASS
  1
BLOCKVISIBILITYPARAMETER
  2
AcDbBlockVisibilityParameter
  3
ObjectDBX Classes
 90
     1153
 91
        0
280
     0
281
     0
  0
CLASS
  1
BLOCKVISIBILITYGRIP
  2
AcDbBlockVisibilityGrip
  3
ObjectDBX Classes
 90
     1153
 91
        0
280
     0
281
     0
  0
CLASS
  1
ACDB_BLOCKREPRESENTATION_DATA
  2
AcDbBlockRepresentationData
  3
ObjectDBX Classes
 90
     1153
 91
        0
280
     0
281
     0
  0
ENDSEC
  0
SECTION
  2
TABLES
  0
TABLE
  2
VPORT
  5
8
330
0
100
AcDbSymbolTable
 70
     1
  0
VPORT
  5
94
330
8
100
AcDbSymbolTableRecord
100
AcDbViewportTableRecord
  2
*Active
 70
     0
 10
0.0
 20
0.0
 11
1.0
 21
1.0
 12
51081.73551383416
 22
67992.09599447029
 13
0.0
 23
0.0
 14
0.5
 24
0.5
 15
0.5
 25
0.5
 16
0.0
 26
0.0
 36
1.0
 17
0.0
 27
0.0
 37
0.0
 40
2099.169575147376
 41
2.293369663941871
 42
50.0
 43
0.0
 44
0.0
 50
0.0
 51
0.0
 71
     0
 72
  1000
 73
     1
 74
     3
 75
     0
 76
     0
 77
     0
 78
     0
281
     0
 65
     1
110
0.0
120
0.0
130
0.0
111
1.0
121
0.0
131
0.0
112
0.0
122
1.0
132
0.0
 79
     0
146
0.0
348
9F
 60
     3
 61
     5
292
     1
282
     1
141
0.0
142
0.0
 63
   250
421
  3355443
1001
ACAD_NAV_VCDISPLAY
1070
     3
  0
ENDTAB
  0
TABLE
  2
LTYPE
  5
5
330
0
100
AcDbSymbolTable
 70
     1
  0
LTYPE
  5
14
330
5
100
AcDbSymbolTableRecord
100
AcDbLinetypeTableRecord
  2
ByBlock
 70
     0
  3

 72
    65
 73
     0
 40
0.0
  0
LTYPE
  5
15
330
5
100
AcDbSymbolTableRecord
100
AcDbLinetypeTableRecord
  2
ByLayer
 70
     0
  3

 72
    65
 73
     0
 40
0.0
  0
LTYPE
  5
16
330
5
100
AcDbSymbolTableRecord
100
AcDbLinetypeTableRecord
  2
Continuous
 70
     0
  3
Solid line
 72
    65
 73
     0
 40
0.0
  0
ENDTAB
  0
TABLE
  2
LAYER
  5
2
102
{ACAD_XDICTIONARY
360
18E
102
}
330
0
100
AcDbSymbolTable
 70
     2
  0
LAYER
  5
10
102
{ACAD_XDICTIONARY
360
E6
102
}
330
2
100
AcDbSymbolTableRecord
100
AcDbLayerTableRecord
  2
0
 70
     0
 62
     7
  6
Continuous
370
    -3
390
F
347
98
348
0
  0
LAYER
  5
204
330
2
100
AcDbSymbolTableRecord
100
AcDbLayerTableRecord
  2
freecads.com
 70
     0
 62
     7
  6
Continuous
370
    -3
390
F
347
98
348
0
1001
AcAecLayerStandard
1000

1000

1001
AcCmTransparency
1071
        0
  0
ENDTAB
  0
TABLE
  2
STYLE
  5
3
330
0
100
AcDbSymbolTable
 70
     2
  0
STYLE
  5
11
330
3
100
AcDbSymbolTableRecord
100
AcDbTextStyleTableRecord
  2
Standard
 70
     0
 40
0.0
 41
1.0
 50
0.0
 71
     0
 42
0.2
  3
arial.ttf
  4

1001
ACAD
1000
Arial
1071
       34
  0
ENDTAB
  0
TABLE
  2
VIEW
  5
6
330
0
100
AcDbSymbolTable
 70
     0
  0
ENDTAB
  0
TABLE
  2
UCS
  5
7
330
0
100
AcDbSymbolTable
 70
     0
  0
ENDTAB
  0
TABLE
  2
APPID
  5
9
330
0
100
AcDbSymbolTable
 70
    27
  0
APPID
  5
12
330
9
100
AcDbSymbolTableRecord
100
AcDbRegAppTableRecord
  2
ACAD
 70
     0
  0
APPID
  5
DD
330
9
100
AcDbSymbolTableRecord
100
AcDbRegAppTableRecord
  2
AcadAnnoPO
 70
     0
  0
APPID
  5
DE
330
9
100
AcDbSymbolTableRecord
100
AcDbRegAppTableRecord
  2
AcadAnnotative
 70
     0
  0
APPID
  5
DF
330
9
100
AcDbSymbolTableRecord
100
AcDbRegAppTableRecord
  2
ACAD_DSTYLE_DIMJAG
 70
     0
  0
APPID
  5
E0
330
9
100
AcDbSymbolTableRecord
100
AcDbRegAppTableRecord
  2
ACAD_DSTYLE_DIMTALN
 70
     0
  0
APPID
  5
107
330
9
100
AcDbSymbolTableRecord
100
AcDbRegAppTableRecord
  2
ACAD_MLEADERVER
 70
     0
  0
APPID
  5
1A6
330
9
100
AcDbSymbolTableRecord
100
AcDbRegAppTableRecord
  2
ACAD_NAV_VCDISPLAY
 70
     0
  0
APPID
  5
205
330
9
100
AcDbSymbolTableRecord
100
AcDbRegAppTableRecord
  2
AcAecLayerStandard
 70
     0
  0
APPID
  5
206
330
9
100
AcDbSymbolTableRecord
100
AcDbRegAppTableRecord
  2
AcCmTransparency
 70
     0
  0
APPID
  5
222
330
9
100
AcDbSymbolTableRecord
100
AcDbRegAppTableRecord
  2
ACAD_PSEXT
 70
     0
  0
APPID
  5
2DA
330
9
100
AcDbSymbolTableRecord
100
AcDbRegAppTableRecord
  2
GradientColor1ACI
 70
     0
  0
APPID
  5
2DB
330
9
100
AcDbSymbolTableRecord
100
AcDbRegAppTableRecord
  2
GradientColor2ACI
 70
     0
  0
APPID
  5
2F3
330
9
100
AcDbSymbolTableRecord
100
AcDbRegAppTableRecord
  2
ACAD_EXEMPT_FROM_CAD_STANDARDS
 70
     0
  0
APPID
  5
A1A
330
9
100
AcDbSymbolTableRecord
100
AcDbRegAppTableRecord
  2
AcDbBlockRepETag
 70
     0
  0
APPID
  5
2282
330
9
100
AcDbSymbolTableRecord
100
AcDbRegAppTableRecord
  2
RAK
 70
     0
  0
APPID
  5
39F4
330
9
100
AcDbSymbolTableRecord
100
AcDbRegAppTableRecord
  2
ACAD_DSTYLE_DIMJOGGED_JOGANGLE_SYMBOL
 70
     0
  0
APPID
  5
39F5
330
9
100
AcDbSymbolTableRecord
100
AcDbRegAppTableRecord
  2
AcDbDynamicBlockGUID
 70
     0
  0
APPID
  5
39F6
330
9
100
AcDbSymbolTableRecord
100
AcDbRegAppTableRecord
  2
ACAD_DSTYLE_DIMBREAK
 70
     0
  0
APPID
  5
3B59
330
9
100
AcDbSymbolTableRecord
100
AcDbRegAppTableRecord
  2
AEC_XDATA_BOUND_SPACE
 70
     0
  0
APPID
  5
75C5
330
9
100
AcDbSymbolTableRecord
100
AcDbRegAppTableRecord
  2
AcDbDynamicBlockTrueName
 70
     0
  0
APPID
  5
75C6
330
9
100
AcDbSymbolTableRecord
100
AcDbRegAppTableRecord
  2
AcDbBlockRepBTag
 70
     0
  0
APPID
  5
75C7
330
9
100
AcDbSymbolTableRecord
100
AcDbRegAppTableRecord
  2
ACAUTHENVIRON
 70
     0
  0
APPID
  5
AA90
330
9
100
AcDbSymbolTableRecord
100
AcDbRegAppTableRecord
  2
Acad_TC
 70
     0
  0
APPID
  5
AA9C
330
9
100
AcDbSymbolTableRecord
100
AcDbRegAppTableRecord
  2
AcDbBlockArrayActionTag
 70
     0
  0
APPID
  5
BEE4
330
9
100
AcDbSymbolTableRecord
100
AcDbRegAppTableRecord
  2
ACAD_DSTYLE_DIMTEXT_FILL
 70
     0
  0
APPID
  5
219E5
330
9
100
AcDbSymbolTableRecord
100
AcDbRegAppTableRecord
  2
AECLAY
 70
     0
  0
APPID
  5
26B46
330
9
100
AcDbSymbolTableRecord
100
AcDbRegAppTableRecord
  2
REVIT
 70
     0
  0
ENDTAB
  0
TABLE
  2
DIMSTYLE
  5
A
330
0
100
AcDbSymbolTable
 70
     2
100
AcDbDimStyleTable
 71
     1
340
27
  0
DIMSTYLE
105
27
330
A
100
AcDbSymbolTableRecord
100
AcDbDimStyleTableRecord
  2
Standard
 70
     0
340
11
  0
ENDTAB
  0
TABLE
  2
BLOCK_RECORD
  5
1
330
0
100
AcDbSymbolTable
 70
     2
  0
BLOCK_RECORD
  5
1F
102
{ACAD_XDICTIONARY
360
15D
102
}
330
1
100
AcDbSymbolTableRecord
100
AcDbBlockTableRecord
  2
*Model_Space
340
22
 70
     0
280
     1
281
     0
  0
BLOCK_RECORD
  5
58
330
1
100
AcDbSymbolTableRecord
100
AcDbBlockTableRecord
  2
*Paper_Space
340
59
 70
     0
280
     1
281
     0
  0
BLOCK_RECORD
  5
5D
330
1
100
AcDbSymbolTableRecord
100
AcDbBlockTableRecord
  2
*Paper_Space0
340
5E
 70
     0
280
     1
281
     0
  0
ENDTAB
  0
ENDSEC
  0
SECTION
  2
BLOCKS
  0
BLOCK
  5
20
330
1F
100
AcDbEntity
  8
0
100
AcDbBlockBegin
  2
*Model_Space
 70
     0
 10
0.0
 20
0.0
 30
0.0
  3
*Model_Space
  1

  0
ENDBLK
  5
21
330
1F
100
AcDbEntity
  8
0
100
AcDbBlockEnd
  0
BLOCK
  5
5A
330
58
100
AcDbEntity
 67
     1
  8
0
100
AcDbBlockBegin
  2
*Paper_Space
 70
     0
 10
0.0
 20
0.0
 30
0.0
  3
*Paper_Space
  1

  0
ENDBLK
  5
5B
330
58
100
AcDbEntity
 67
     1
  8
0
100
AcDbBlockEnd
  0
BLOCK
  5
5F
330
5D
100
AcDbEntity
 67
     1
  8
0
100
AcDbBlockBegin
  2
*Paper_Space0
 70
     0
 10
0.0
 20
0.0
 30
0.0
  3
*Paper_Space0
  1

  0
ENDBLK
  5
60
330
5D
100
AcDbEntity
 67
     1
  8
0
100
AcDbBlockEnd
  0
ENDSEC
  0
SECTION
  2
ENTITIES
  0
LINE
  5
2760F
330
1F
100
AcDbEntity
  8
freecads.com
100
AcDbLine
 10
51123.89757540463
 20
68547.6510609739
 30
0.0000000092067761
 11
51124.20681803726
 21
68547.44232353018
 31
0.0000000092064954
  0
LINE
  5
27610
330
1F
100
AcDbEntity
  8
freecads.com
100
AcDbLine
 10
51124.20681803726
 20
68547.44232353018
 30
0.0000000092064954
 11
51127.25950559955
 21
68545.30307169617
 31
0.0000000092037116
  0
LINE
  5
27611
330
1F
100
AcDbEntity
  8
freecads.com
100
AcDbLine
 10
51122.53343719391
 20
68548.57209458915
 30
0.0000000092080144
 11
51123.89757540463
 21
68547.6510609739
 31
0.0000000092067761
  0
LINE
  5
27612
330
1F
100
AcDbEntity
  8
freecads.com
100
AcDbLine
 10
51122.22658545051
 20
68548.76291998249
 30
0.0000000092082903
 11
51122.53343719391
 21
68548.57209458915
 31
0.0000000092080144
  0
LINE
  5
27613
330
1F
100
AcDbEntity
  8
freecads.com
100
AcDbLine
 10
51120.93764803347
 20
68549.56471247211
 30
0.0000000092094493
 11
51122.22658545051
 21
68548.76291998249
 31
0.0000000092082903
  0
LINE
  5
27614
330
1F
100
AcDbEntity
  8
freecads.com
100
AcDbLine
 10
51120.66280023856
 20
68549.71827863372
 30
0.0000000092096936
 11
51120.93764803347
 21
68549.56471247211
 31
0.0000000092094493
  0
LINE
  5
27615
330
1F
100
AcDbEntity
  8
freecads.com
100
AcDbLine
 10
51119.52931829548
 20
68550.35179442915
 30
0.0000000092107011
 11
51120.66280023856
 21
68549.71827863372
 31
0.0000000092096936
  0
LINE
  5
27616
330
1F
100
AcDbEntity
  8
freecads.com
100
AcDbLine
 10
51119.31202010489
 20
68550.45372487107
 30
0.0000000092108911
 11
51119.52931829548
 21
68550.35179442915
 31
0.0000000092107011
  0
LINE
  5
27617
330
1F
100
AcDbEntity
  8
freecads.com
100
AcDbLine
 10
51118.40531997785
 20
68550.87921919001
 30
0.0000000092116838
 11
51119.31202010489
 21
68550.45372487107
 31
0.0000000092108911
  0
LINE
  5
27618
330
1F
100
AcDbEntity
  8
freecads.com
100
AcDbLine
 10
51118.26270485392
 20
68550.92252418597
 30
0.0000000092118047
 11
51118.40531997785
 21
68550.87921919001
 31
0.0000000092116838
  0
LINE
  5
27619
330
1F
100
AcDbEntity
  8
freecads.com
100
AcDbLine
 10
51117.64269484134
 20
68551.11093876848
 30
0.0000000092123301
 11
51118.26270485392
 21
68550.92252418597
 31
0.0000000092118047
  0
LINE
  5
2761A
330
1F
100
AcDbEntity
  8
freecads.com
100
AcDbLine
 10
51117.58096167048
 20
68551.09687855697
 30
0.0000000092123771
 11
51117.64269484134
 21
68551.11093876848
 31
0.0000000092123301
  0
LINE
  5
2761B
330
1F
100
AcDbEntity
  8
freecads.com
100
AcDbLine
 10
51117.29329321015
 20
68551.0314583969
 30
0.000000009212596
 11
51117.58096167048
 21
68551.09687855697
 31
0.0000000092123771
  0
LINE
  5
2761C
330
1F
100
AcDbEntity
  8
freecads.com
100
AcDbLine
 10
51116.27700327338
 20
68551.20727360813
 30
0.0000000092134356
 11
51117.07652624684
 21
68550.64744156299
 31
0.0000000092127066
  0
LINE
  5
2761D
330
1F
100
AcDbEntity
  8
freecads.com
100
AcDbLine
 10
51139.28940040362
 20
68537.17366391691
 30
0.0000000091927901
 11
51138.31219325715
 21
68535.77806745784
 31
0.0000000091933431
  0
LINE
  5
2761E
330
1F
100
AcDbEntity
  8
freecads.com
100
AcDbLine
 10
51137.04827844625
 20
68536.66307014274
 30
0.0000000091944956
 11
51138.31219325715
 21
68535.77806745784
 31
0.0000000091933431
  0
LINE
  5
2761F
330
1F
100
AcDbEntity
  8
freecads.com
100
AcDbLine
 10
51137.28798083465
 20
68537.02771181092
 30
0.0000000091943636
 11
51137.28540240173
 21
68537.04124463861
 31
0.0000000091943678
  0
LINE
  5
27620
330
1F
100
AcDbEntity
  8
freecads.com
100
AcDbLine
 10
51137.28540240173
 20
68537.04124463861
 30
0.0000000091943678
 11
51137.21746361018
 21
68537.3993552732
 31
0.0000000091944802
  0
LINE
  5
27621
330
1F
100
AcDbEntity
  8
freecads.com
100
AcDbLine
 10
51137.21746361018
 20
68537.3993552732
 30
0.0000000091944802
 11
51137.19068324917
 21
68537.43427598415
 31
0.0000000091945073
  0
LINE
  5
27622
330
1F
100
AcDbEntity
  8
freecads.com
100
AcDbLine
 10
51137.19068324917
 20
68537.43427598415
 30
0.0000000091945073
 11
51136.7200735303
 21
68538.04856787226
 31
0.0000000091949827
  0
LINE
  5
27623
330
1F
100
AcDbEntity
  8
freecads.com
100
AcDbLine
 10
51136.7200735303
 20
68538.04856787226
 30
0.0000000091949827
 11
51136.65507587609
 21
68538.11292700964
 31
0.000000009195045
  0
LINE
  5
27624
330
1F
100
AcDbEntity
  8
freecads.com
100
AcDbLine
 10
51136.65507587609
 20
68538.11292700964
 30
0.000000009195045
 11
51135.82851779963
 21
68538.93189867813
 31
0.0000000091958377
  0
LINE
  5
27625
330
1F
100
AcDbEntity
  8
freecads.com
100
AcDbLine
 10
51135.82851779963
 20
68538.93189867813
 30
0.0000000091958377
 11
51135.71543032325
 21
68539.02943236451
 31
0.0000000091959438
  0
LINE
  5
27626
330
1F
100
AcDbEntity
  8
freecads.com
100
AcDbLine
 10
51135.71543032325
 20
68539.02943236451
 30
0.0000000091959438
 11
51134.60258440738
 21
68539.98968040311
 31
0.000000009196988
  0
LINE
  5
27627
330
1F
100
AcDbEntity
  8
freecads.com
100
AcDbLine
 10
51134.60258440738
 20
68539.98968040311
 30
0.000000009196988
 11
51134.43942897869
 21
68540.11778416211
 31
0.000000009197139
  0
LINE
  5
27628
330
1F
100
AcDbEntity
  8
freecads.com
100
AcDbLine
 10
51134.43942897869
 20
68540.11778416211
 30
0.000000009197139
 11
51133.12533218964
 21
68541.14995226726
 31
0.0000000091983555
  0
LINE
  5
27629
330
1F
100
AcDbEntity
  8
freecads.com
100
AcDbLine
 10
51133.12533218964
 20
68541.14995226726
 30
0.0000000091983555
 11
51132.91989644763
 21
68541.29926345634
 31
0.0000000091985437
  0
LINE
  5
2762A
330
1F
100
AcDbEntity
  8
freecads.com
100
AcDbLine
 10
51132.91989644763
 20
68541.29926345634
 30
0.0000000091985437
 11
51131.49755846393
 21
68542.33333355456
 31
0.0000000091998468
  0
LINE
  5
2762B
330
1F
100
AcDbEntity
  8
freecads.com
100
AcDbLine
 10
51131.49755846393
 20
68542.33333355456
 30
0.0000000091998468
 11
51130.9880526795
 21
68542.69028986941
 31
0.0000000092003114
  0
LINE
  5
2762C
330
1F
100
AcDbEntity
  8
freecads.com
100
AcDbLine
 10
51130.9880526795
 20
68542.69028986941
 30
0.0000000092003114
 11
51127.85627871782
 21
68544.88497822769
 31
0.0000000092031674
  0
LINE
  5
2762D
330
1F
100
AcDbEntity
  8
freecads.com
100
AcDbLine
 10
51127.85627871782
 20
68544.88497822769
 30
0.0000000092031674
 11
51127.25950559955
 21
68545.30307169617
 31
0.0000000092037116
  0
LINE
  5
2762E
330
1F
100
AcDbEntity
  8
freecads.com
100
AcDbLine
 10
51117.29329321015
 20
68551.0314583969
 30
0.000000009212596
 11
51115.84754135194
 21
68548.47021502964
 31
0.0000000092133336
  0
LINE
  5
2762F
330
1F
100
AcDbEntity
  8
freecads.com
100
AcDbLine
 10
51116.1950880447
 20
68551.26463126118
 30
0.0000000092135103
 11
51116.27700327338
 21
68551.20727360813
 31
0.0000000092134356
  0
LINE
  5
27630
330
1F
100
AcDbEntity
  8
freecads.com
100
AcDbLine
 10
51117.17229524943
 20
68552.66022770758
 30
0.0000000092129572
 11
51116.1950880447
 21
68551.26463126118
 31
0.0000000092135103
  0
LINE
  5
27631
330
1F
100
AcDbEntity
  8
freecads.com
100
AcDbLine
 10
51142.15442682374
 20
68541.26534568483
 30
0.0000000091911685
 11
51139.28940040362
 21
68537.17366391691
 31
0.0000000091927901
  0
LINE
  5
27632
330
1F
100
AcDbEntity
  8
freecads.com
100
AcDbLine
 10
51137.28798083465
 20
68537.02771181092
 30
0.0000000091943636
 11
51136.95510215661
 21
68536.52132792834
 31
0.0000000091945469
  0
LINE
  5
27633
330
1F
100
AcDbEntity
  8
freecads.com
100
AcDbLine
 10
51115.84754135194
 20
68548.47021502964
 30
0.0000000092133336
 11
51097.25899087758
 21
68514.42214532269
 31
0.0000000092226351
  0
LINE
  5
27634
330
1F
100
AcDbEntity
  8
freecads.com
100
AcDbLine
 10
51120.03732166954
 20
68556.75190947551
 30
0.0000000092113357
 11
51117.17229524943
 21
68552.66022770758
 31
0.0000000092129572
  0
LINE
  5
27635
330
1F
100
AcDbEntity
  8
freecads.com
100
AcDbLine
 10
51116.17053051466
 20
68551.40390407198
 30
0.0000000092135525
 11
51116.1950880447
 21
68551.26463126118
 31
0.0000000092135103
  0
LINE
  5
27636
330
1F
100
AcDbEntity
  8
freecads.com
100
AcDbLine
 10
51146.71202566975
 20
68547.77427140603
 30
0.0000000091885891
 11
51142.15442682374
 21
68541.26534568483
 31
0.0000000091911685
  0
LINE
  5
27637
330
1F
100
AcDbEntity
  8
freecads.com
100
AcDbLine
 10
51144.51701801055
 20
68539.40913518271
 30
0.0000000091889814
 11
51143.6375315967
 21
68538.15309839611
 31
0.0000000091894792
  0
LINE
  5
27638
330
1F
100
AcDbEntity
  8
freecads.com
100
AcDbLine
 10
51141.18007546846
 20
68539.87382770617
 30
0.00000000919172
 11
51143.6375315967
 21
68538.15309839611
 31
0.0000000091894792
  0
LINE
  5
27639
330
1F
100
AcDbEntity
  8
freecads.com
100
AcDbLine
 10
51136.95510215661
 20
68536.52132792834
 30
0.0000000091945469
 11
51117.98681800075
 21
68504.22571539006
 31
0.0000000092044363
  0
LINE
  5
2763A
330
1F
100
AcDbEntity
  8
freecads.com
100
AcDbLine
 10
51124.59492051555
 20
68563.26083519671
 30
0.0000000092087563
 11
51120.03732166954
 21
68556.75190947551
 31
0.0000000092113357
  0
LINE
  5
2763B
330
1F
100
AcDbEntity
  8
freecads.com
100
AcDbLine
 10
51122.75170454991
 20
68571.08913077088
 30
0.0000000092114994
 11
51116.17053051466
 21
68551.40390407198
 31
0.0000000092135525
  0
LINE
  5
2763C
330
1F
100
AcDbEntity
  8
freecads.com
100
AcDbLine
 10
51123.33802884945
 20
68571.9264886438
 30
0.0000000092111676
 11
51122.75170454991
 21
68571.08913077088
 31
0.0000000092114994
  0
LINE
  5
2763D
330
1F
100
AcDbEntity
  8
freecads.com
100
AcDbLine
 10
51152.65160415924
 20
68556.25686855018
 30
0.0000000091852275
 11
51146.71202566975
 21
68547.77427140603
 31
0.0000000091885891
  0
LINE
  5
2763E
330
1F
100
AcDbEntity
  8
freecads.com
100
AcDbLine
 10
51147.09554179778
 20
68543.09164875961
 30
0.0000000091875221
 11
51144.51701801055
 21
68539.40913518271
 31
0.0000000091889814
  0
LINE
  5
2763F
330
1F
100
AcDbEntity
  8
freecads.com
100
AcDbLine
 10
51169.44847120225
 20
68575.01494039068
 30
0.0000000091748711
 11
51162.76810848604
 21
68565.47439364542
 31
0.0000000091786519
  0
LINE
  5
27640
330
1F
100
AcDbEntity
  8
freecads.com
100
AcDbLine
 10
51176.12883397671
 20
68584.55548712326
 30
0.0000000091710902
 11
51169.44847120225
 21
68575.01494039068
 31
0.0000000091748711
  0
LINE
  5
27641
330
1F
100
AcDbEntity
  8
freecads.com
100
AcDbLine
 10
51182.35394103415
 20
68593.44586138163
 30
0.000000009167567
 11
51176.12883397671
 21
68584.55548712326
 31
0.0000000091710902
  0
LINE
  5
27642
330
1F
100
AcDbEntity
  8
freecads.com
100
AcDbLine
 10
51187.69956166508
 20
68601.08019879516
 30
0.0000000091645416
 11
51182.35394103415
 21
68593.44586138163
 31
0.000000009167567
  0
LINE
  5
27643
330
1F
100
AcDbEntity
  8
freecads.com
100
AcDbLine
 10
51191.80140065231
 20
68606.9382319508
 30
0.0000000091622201
 11
51187.69956166508
 21
68601.08019879516
 31
0.0000000091645416
  0
LINE
  5
27644
330
1F
100
AcDbEntity
  8
freecads.com
100
AcDbLine
 10
51194.37992438129
 20
68610.62074554042
 30
0.0000000091607607
 11
51191.80140065231
 21
68606.9382319508
 31
0.0000000091622201
  0
LINE
  5
27645
330
1F
100
AcDbEntity
  8
freecads.com
100
AcDbLine
 10
51195.25941086604
 20
68611.87678237256
 30
0.0000000091602629
 11
51194.37992438129
 21
68610.62074554042
 31
0.0000000091607607
  0
LINE
  5
27646
330
1F
100
AcDbEntity
  8
freecads.com
100
AcDbLine
 10
51151.19738078501
 20
68548.94968191528
 30
0.0000000091852006
 11
51147.09554179778
 21
68543.09164875961
 31
0.0000000091875221
  0
LINE
  5
27647
330
1F
100
AcDbEntity
  8
freecads.com
100
AcDbLine
 10
51156.5430014286
 20
68556.58401938709
 30
0.0000000091821751
 11
51151.19738078501
 21
68548.94968191528
 31
0.0000000091852006
  0
LINE
  5
27648
330
1F
100
AcDbEntity
  8
freecads.com
100
AcDbLine
 10
51162.76810848604
 20
68565.47439364542
 30
0.0000000091786519
 11
51156.5430014286
 21
68556.58401938709
 31
0.0000000091821751
  0
LINE
  5
27649
330
1F
100
AcDbEntity
  8
freecads.com
100
AcDbLine
 10
51097.25899087758
 20
68514.42214532269
 30
0.0000000092226351
 11
51055.26955010724
 21
68427.81242018679
 31
0.0000000092420702
  0
LINE
  5
2764A
330
1F
100
AcDbEntity
  8
freecads.com
100
AcDbLine
 10
51130.53449900506
 20
68571.74343234085
 30
0.0000000092053947
 11
51124.59492051555
 21
68563.26083519671
 31
0.0000000092087563
  0
LINE
  5
2764B
330
1F
100
AcDbEntity
  8
freecads.com
100
AcDbLine
 10
51125.05704467973
 20
68574.38149766051
 30
0.0000000092101947
 11
51123.33802884945
 21
68571.9264886438
 31
0.0000000092111676
  0
LINE
  5
2764C
330
1F
100
AcDbEntity
  8
freecads.com
100
AcDbLine
 10
51144.41257277539
 20
68602.0240565544
 30
0.0000000091992401
 11
51139.95899759242
 21
68595.66369206601
 31
0.0000000092017607
  0
LINE
  5
2764D
330
1F
100
AcDbEntity
  8
freecads.com
100
AcDbLine
 10
51139.95899759242
 20
68595.66369206601
 30
0.0000000092017607
 11
51135.5054224677
 21
68589.30332756494
 31
0.0000000092042812
  0
LINE
  5
2764E
330
1F
100
AcDbEntity
  8
freecads.com
100
AcDbLine
 10
51135.5054224677
 20
68589.30332756494
 30
0.0000000092042812
 11
51131.35535110029
 21
68583.37641141211
 31
0.00000000920663
  0
LINE
  5
2764F
330
1F
100
AcDbEntity
  8
freecads.com
100
AcDbLine
 10
51131.35535110029
 20
68583.37641141211
 30
0.00000000920663
 11
51127.79160397417
 21
68578.28685314488
 31
0.000000009208647
  0
LINE
  5
27650
330
1F
100
AcDbEntity
  8
freecads.com
100
AcDbLine
 10
51127.79160397417
 20
68578.28685314488
 30
0.000000009208647
 11
51125.05704467973
 21
68574.38149766051
 31
0.0000000092101947
  0
LINE
  5
27651
330
1F
100
AcDbEntity
  8
freecads.com
100
AcDbLine
 10
51157.16629070583
 20
68620.23825340668
 30
0.0000000091920219
 11
51156.57996640631
 21
68619.40089553376
 31
0.0000000091923537
  0
LINE
  5
27652
330
1F
100
AcDbEntity
  8
freecads.com
100
AcDbLine
 10
51156.57996640631
 20
68619.40089553376
 30
0.0000000091923537
 11
51154.86095056335
 21
68616.94588645882
 31
0.0000000091933266
  0
LINE
  5
27653
330
1F
100
AcDbEntity
  8
freecads.com
100
AcDbLine
 10
51154.86095056335
 20
68616.94588645882
 30
0.0000000091933266
 11
51152.12639128158
 21
68613.04053103272
 31
0.0000000091948743
  0
LINE
  5
27654
330
1F
100
AcDbEntity
  8
freecads.com
100
AcDbLine
 10
51152.12639128158
 20
68613.04053103272
 30
0.0000000091948743
 11
51148.56264415546
 21
68607.95097276545
 31
0.0000000091968913
  0
LINE
  5
27655
330
1F
100
AcDbEntity
  8
freecads.com
100
AcDbLine
 10
51148.56264415546
 20
68607.95097276545
 30
0.0000000091968913
 11
51144.41257277539
 21
68602.0240565544
 31
0.0000000091992401
  0
LINE
  5
27656
330
1F
100
AcDbEntity
  8
freecads.com
100
AcDbLine
 10
51159.56838980788
 20
68566.13506221163
 30
0.0000000091813128
 11
51152.65160415924
 21
68556.25686855018
 31
0.0000000091852275
  0
LINE
  5
27657
330
1F
100
AcDbEntity
  8
freecads.com
100
AcDbLine
 10
51192.8019547378
 20
68613.59751168266
 30
0.0000000091625037
 11
51195.25941086604
 21
68611.87678237256
 31
0.0000000091602629
  0
LINE
  5
27658
330
1F
100
AcDbEntity
  8
freecads.com
100
AcDbLine
 10
51117.98681800075
 20
68504.22571539006
 30
0.0000000092044363
 11
51075.20832139849
 21
68418.51481846673
 31
0.0000000092246471
  0
LINE
  5
27659
330
1F
100
AcDbEntity
  8
freecads.com
100
AcDbLine
 10
51068.86416685771
 20
68421.47314627306
 30
0.0000000092301908
 11
51070.50615487717
 21
68420.70747472171
 31
0.000000009228756
  0
LINE
  5
2765A
330
1F
100
AcDbEntity
  8
freecads.com
100
AcDbLine
 10
51065.23893572375
 20
68423.16361933309
 30
0.0000000092333586
 11
51068.86416685771
 21
68421.47314627306
 31
0.0000000092301908
  0
LINE
  5
2765B
330
1F
100
AcDbEntity
  8
freecads.com
100
AcDbLine
 10
51061.61370458978
 20
68424.85409239316
 30
0.0000000092365265
 11
51065.23893572375
 21
68423.16361933309
 31
0.0000000092333586
  0
LINE
  5
2765C
330
1F
100
AcDbEntity
  8
freecads.com
100
AcDbLine
 10
51059.97171657032
 20
68425.6197639445
 30
0.0000000092379613
 11
51061.61370458978
 21
68424.85409239316
 31
0.0000000092365265
  0
LINE
  5
2765D
330
1F
100
AcDbEntity
  8
freecads.com
100
AcDbLine
 10
51058.44162731938
 20
68426.33325629629
 30
0.0000000092392983
 11
51059.97171657032
 21
68425.6197639445
 31
0.0000000092379613
  0
LINE
  5
2765E
330
1F
100
AcDbEntity
  8
freecads.com
100
AcDbLine
 10
51057.12770990109
 20
68426.94594602232
 30
0.0000000092404464
 11
51058.44162731938
 21
68426.33325629629
 31
0.0000000092392983
  0
LINE
  5
2765F
330
1F
100
AcDbEntity
  8
freecads.com
100
AcDbLine
 10
51056.11950561174
 20
68427.41607940558
 30
0.0000000092413274
 11
51057.12770990109
 21
68426.94594602232
 31
0.0000000092404464
  0
LINE
  5
27660
330
1F
100
AcDbEntity
  8
freecads.com
100
AcDbLine
 10
51055.48572189429
 20
68427.71161763192
 30
0.0000000092418813
 11
51056.11950561174
 21
68427.41607940558
 31
0.0000000092413274
  0
LINE
  5
27661
330
1F
100
AcDbEntity
  8
freecads.com
100
AcDbLine
 10
51055.26955010724
 20
68427.81242018679
 30
0.0000000092420702
 11
51055.48572189429
 21
68427.71161763192
 31
0.0000000092418813
  0
LINE
  5
27662
330
1F
100
AcDbEntity
  8
freecads.com
100
AcDbLine
 10
51137.45128458278
 20
68581.62162595676
 30
0.00000000920148
 11
51130.53449900506
 21
68571.74343234085
 31
0.0000000092053947
  0
LINE
  5
27663
330
1F
100
AcDbEntity
  8
freecads.com
100
AcDbLine
 10
51157.16629070583
 20
68620.23825340668
 30
0.0000000091920219
 11
51173.41345884231
 21
68633.15527810046
 31
0.000000009181155
  0
LINE
  5
27664
330
1F
100
AcDbEntity
  8
freecads.com
100
AcDbLine
 10
51166.99101507401
 20
68576.73566970075
 30
0.0000000091771119
 11
51159.56838980788
 21
68566.13506221163
 31
0.0000000091813128
  0
LINE
  5
27665
330
1F
100
AcDbEntity
  8
freecads.com
100
AcDbLine
 10
51174.41364034013
 20
68587.33627718984
 30
0.0000000091729109
 11
51166.99101507401
 21
68576.73566970075
 31
0.0000000091771119
  0
LINE
  5
27666
330
1F
100
AcDbEntity
  8
freecads.com
100
AcDbLine
 10
51181.33042597611
 20
68597.21447079309
 30
0.0000000091689962
 11
51174.41364034013
 21
68587.33627718984
 31
0.0000000091729109
  0
LINE
  5
27667
330
1F
100
AcDbEntity
  8
freecads.com
100
AcDbLine
 10
51187.27000446561
 20
68605.69706793723
 30
0.0000000091656346
 11
51181.33042597611
 21
68597.21447079309
 31
0.0000000091689962
  0
LINE
  5
27668
330
1F
100
AcDbEntity
  8
freecads.com
100
AcDbLine
 10
51191.82760331161
 20
68612.20599365842
 30
0.0000000091630552
 11
51187.27000446561
 21
68605.69706793723
 31
0.0000000091656346
  0
LINE
  5
27669
330
1F
100
AcDbEntity
  8
freecads.com
100
AcDbLine
 10
51194.69262973173
 20
68616.29767542635
 30
0.0000000091614337
 11
51191.82760331161
 21
68612.20599365842
 31
0.0000000091630552
  0
LINE
  5
2766A
330
1F
100
AcDbEntity
  8
freecads.com
100
AcDbLine
 10
51195.66983687821
 20
68617.69327188542
 30
0.0000000091608806
 11
51194.69262973173
 21
68616.29767542635
 31
0.0000000091614337
  0
LINE
  5
2766B
330
1F
100
AcDbEntity
  8
freecads.com
100
AcDbLine
 10
51074.99214955319
 20
68418.61562103429
 30
0.000000009224836
 11
51075.20832139849
 21
68418.51481846673
 31
0.0000000092246471
  0
LINE
  5
2766C
330
1F
100
AcDbEntity
  8
freecads.com
100
AcDbLine
 10
51074.35836583574
 20
68418.91115926063
 30
0.0000000092253898
 11
51074.99214955319
 21
68418.61562103429
 31
0.000000009224836
  0
LINE
  5
2766D
330
1F
100
AcDbEntity
  8
freecads.com
100
AcDbLine
 10
51073.35016154639
 20
68419.3812926439
 30
0.0000000092262708
 11
51074.35836583574
 21
68418.91115926063
 31
0.0000000092253898
  0
LINE
  5
2766E
330
1F
100
AcDbEntity
  8
freecads.com
100
AcDbLine
 10
51072.0362441281
 20
68419.99398236989
 30
0.000000009227419
 11
51073.35016154639
 21
68419.3812926439
 31
0.0000000092262708
  0
LINE
  5
2766F
330
1F
100
AcDbEntity
  8
freecads.com
100
AcDbLine
 10
51070.50615487717
 20
68420.70747472171
 30
0.000000009228756
 11
51072.0362441281
 21
68419.99398236989
 31
0.000000009227419
  0
LINE
  5
27670
330
1F
100
AcDbEntity
  8
freecads.com
100
AcDbLine
 10
51144.87390990715
 20
68592.22223343318
 30
0.0000000091972791
 11
51137.45128458278
 21
68581.62162595676
 31
0.00000000920148
  0
LINE
  5
27671
330
1F
100
AcDbEntity
  8
freecads.com
100
AcDbLine
 10
51152.29653518594
 20
68602.82284098055
 30
0.0000000091930781
 11
51144.87390990715
 21
68592.22223343318
 31
0.0000000091972791
  0
LINE
  5
27672
330
1F
100
AcDbEntity
  8
freecads.com
100
AcDbLine
 10
51173.41345884231
 20
68633.15527810046
 30
0.000000009181155
 11
51173.55273172401
 21
68633.17983567609
 31
0.0000000091810478
  0
LINE
  5
27673
330
1F
100
AcDbEntity
  8
freecads.com
100
AcDbLine
 10
51173.55273172401
 20
68633.17983567609
 30
0.0000000091810478
 11
51172.57552457754
 21
68631.78423921703
 31
0.0000000091816009
  0
LINE
  5
27674
330
1F
100
AcDbEntity
  8
freecads.com
100
AcDbLine
 10
51172.57552457754
 20
68631.78423921703
 30
0.0000000091816009
 11
51169.71049815743
 21
68627.6925574491
 31
0.0000000091832224
  0
LINE
  5
27675
330
1F
100
AcDbEntity
  8
freecads.com
100
AcDbLine
 10
51169.71049815743
 20
68627.6925574491
 30
0.0000000091832224
 11
51165.15289925318
 21
68621.18363174056
 31
0.0000000091858018
  0
LINE
  5
27676
330
1F
100
AcDbEntity
  8
freecads.com
100
AcDbLine
 10
51165.15289925318
 20
68621.18363174056
 30
0.0000000091858018
 11
51159.21332082192
 21
68612.70103458376
 31
0.0000000091891634
  0
LINE
  5
27677
330
1F
100
AcDbEntity
  8
freecads.com
100
AcDbLine
 10
51159.21332082192
 20
68612.70103458376
 30
0.0000000091891634
 11
51152.29653518594
 21
68602.82284098055
 31
0.0000000091930781
  0
LINE
  5
27678
330
1F
100
AcDbEntity
  8
freecads.com
100
AcDbLine
 10
51173.63464689445
 20
68633.12247803571
 30
0.0000000091809731
 11
51195.66983687821
 21
68617.69327188542
 31
0.0000000091608806
  0
LINE
  5
27679
330
1F
100
AcDbEntity
  8
freecads.com
100
AcDbLine
 10
51173.55273172401
 20
68633.17983567609
 30
0.0000000091810478
 11
51173.63464689445
 21
68633.12247803571
 31
0.0000000091809731
  0
LINE
  5
2767A
330
1F
100
AcDbEntity
  8
freecads.com
100
AcDbLine
 10
51043.78657049966
 20
67806.03746359941
 30
0.0000000091501921
 11
51044.22953477049
 21
67806.03746360357
 31
0.0000000091498386
  0
LINE
  5
2767B
330
1F
100
AcDbEntity
  8
freecads.com
100
AcDbLine
 10
51044.22953477049
 20
67806.03746360357
 30
0.0000000091498386
 11
51045.52824023643
 21
67806.0374635981
 31
0.0000000091488021
  0
LINE
  5
2767C
330
1F
100
AcDbEntity
  8
freecads.com
100
AcDbLine
 10
51045.52824023643
 20
67806.0374635981
 30
0.0000000091488021
 11
51047.59418234363
 21
67806.03746359042
 31
0.0000000091471534
  0
LINE
  5
2767D
330
1F
100
AcDbEntity
  8
freecads.com
100
AcDbLine
 10
51047.59418234363
 20
67806.03746359042
 30
0.0000000091471534
 11
51050.28657047489
 21
67806.03746358899
 31
0.0000000091450047
  0
LINE
  5
2767E
330
1F
100
AcDbEntity
  8
freecads.com
100
AcDbLine
 10
51050.28657047489
 20
67806.03746358899
 30
0.0000000091450047
 11
51053.42192293521
 21
67806.03746357907
 31
0.0000000091425026
  0
LINE
  5
2767F
330
1F
100
AcDbEntity
  8
freecads.com
100
AcDbLine
 10
51053.42192293521
 20
67806.03746357907
 30
0.0000000091425026
 11
51056.78657050835
 21
67806.0374635659
 31
0.0000000091398174
  0
LINE
  5
27680
330
1F
100
AcDbEntity
  8
freecads.com
100
AcDbLine
 10
51056.78657050835
 20
67806.0374635659
 30
0.0000000091398174
 11
51063.79059468347
 21
67806.03746360258
 31
0.0000000091342279
  0
LINE
  5
27681
330
1F
100
AcDbEntity
  8
freecads.com
100
AcDbLine
 10
51076.86709946932
 20
67806.03746356393
 30
0.0000000091237922
 11
51083.60678275869
 21
67806.03746360656
 31
0.0000000091184136
  0
LINE
  5
27682
330
1F
100
AcDbEntity
  8
freecads.com
100
AcDbLine
 10
51083.60678275869
 20
67806.03746360656
 30
0.0000000091184136
 11
51094.92917464801
 21
67806.0374635731
 31
0.0000000091093778
  0
LINE
  5
27683
330
1F
100
AcDbEntity
  8
freecads.com
100
AcDbLine
 10
51094.92917464801
 20
67806.0374635731
 30
0.0000000091093778
 11
51108.21108028372
 21
67806.03746358395
 31
0.0000000090987782
  0
LINE
  5
27684
330
1F
100
AcDbEntity
  8
freecads.com
100
AcDbLine
 10
51108.21108028372
 20
67806.03746358395
 30
0.0000000090987782
 11
51122.5328162059
 21
67806.03746356946
 31
0.0000000090873487
  0
LINE
  5
27685
330
1F
100
AcDbEntity
  8
freecads.com
100
AcDbLine
 10
51122.5328162059
 20
67806.03746356946
 30
0.0000000090873487
 11
51136.90269781787
 21
67806.03746358494
 31
0.0000000090758808
  0
LINE
  5
27686
330
1F
100
AcDbEntity
  8
freecads.com
100
AcDbLine
 10
51136.90269781787
 20
67806.03746358494
 30
0.0000000090758808
 11
51150.32570661956
 21
67806.0374636002
 31
0.0000000090651686
  0
LINE
  5
27687
330
1F
100
AcDbEntity
  8
freecads.com
100
AcDbLine
 10
51150.32570661956
 20
67806.0374636002
 30
0.0000000090651686
 11
51161.87238879964
 21
67806.03746356535
 31
0.0000000090559538
  0
LINE
  5
27688
330
1F
100
AcDbEntity
  8
freecads.com
100
AcDbLine
 10
51161.87238879964
 20
67806.03746356535
 30
0.0000000090559538
 11
51170.74321370367
 21
67806.03746360209
 31
0.0000000090488745
  0
LINE
  5
27689
330
1F
100
AcDbEntity
  8
freecads.com
100
AcDbLine
 10
51170.74321370367
 20
67806.03746360209
 30
0.0000000090488745
 11
51176.32393579395
 21
67806.03746356501
 31
0.0000000090444208
  0
LINE
  5
2768A
330
1F
100
AcDbEntity
  8
freecads.com
100
AcDbLine
 10
51176.32393579395
 20
67806.03746356501
 30
0.0000000090444208
 11
51178.22812736884
 21
67806.03746357266
 31
0.0000000090429011
  0
LINE
  5
2768B
330
1F
100
AcDbEntity
  8
freecads.com
100
AcDbLine
 10
51043.78657052841
 20
67826.03746359429
 30
0.0000000091534422
 11
51043.78657049966
 21
67806.03746359941
 31
0.0000000091501921
  0
LINE
  5
2768C
330
1F
100
AcDbEntity
  8
freecads.com
100
AcDbLine
 10
51043.78657052841
 20
67826.03746359429
 30
0.0000000091534422
 11
51044.229534741
 21
67826.03746361111
 31
0.0000000091530887
  0
LINE
  5
2768D
330
1F
100
AcDbEntity
  8
freecads.com
100
AcDbLine
 10
51044.229534741
 20
67826.03746361111
 30
0.0000000091530887
 11
51045.52824026518
 21
67826.03746359295
 31
0.0000000091520522
  0
LINE
  5
2768E
330
1F
100
AcDbEntity
  8
freecads.com
100
AcDbLine
 10
51045.52824026518
 20
67826.03746359295
 30
0.0000000091520522
 11
51047.59418237239
 21
67826.03746358526
 31
0.0000000091504035
  0
LINE
  5
2768F
330
1F
100
AcDbEntity
  8
freecads.com
100
AcDbLine
 10
51047.59418237239
 20
67826.03746358526
 30
0.0000000091504035
 11
51050.28657050364
 21
67826.03746358383
 31
0.0000000091482549
  0
LINE
  5
27690
330
1F
100
AcDbEntity
  8
freecads.com
100
AcDbLine
 10
51050.28657050364
 20
67826.03746358383
 30
0.0000000091482549
 11
51053.42192290572
 21
67826.03746358661
 31
0.0000000091457527
  0
LINE
  5
27691
330
1F
100
AcDbEntity
  8
freecads.com
100
AcDbLine
 10
51053.42192290572
 20
67826.03746358661
 30
0.0000000091457527
 11
51056.78657047886
 21
67826.03746357342
 31
0.0000000091430675
  0
LINE
  5
27692
330
1F
100
AcDbEntity
  8
freecads.com
100
AcDbLine
 10
51056.78657047886
 20
67826.03746357342
 30
0.0000000091430675
 11
51061.50009923003
 21
67826.03746357715
 31
0.0000000091393059
  0
LINE
  5
27693
330
1F
100
AcDbEntity
  8
freecads.com
100
AcDbLine
 10
51074.5754402198
 20
67826.03746361582
 30
0.0000000091288712
 11
51075.02790468493
 21
67826.03746358328
 31
0.0000000091285101
  0
LINE
  5
27694
330
1F
100
AcDbEntity
  8
freecads.com
100
AcDbLine
 10
51075.02790468493
 20
67826.03746358328
 30
0.0000000091285101
 11
51083.60678278743
 21
67826.03746360141
 31
0.0000000091216637
  0
LINE
  5
27695
330
1F
100
AcDbEntity
  8
freecads.com
100
AcDbLine
 10
51083.60678278743
 20
67826.03746360141
 30
0.0000000091216637
 11
51094.92917467676
 21
67826.03746356797
 31
0.0000000091126279
  0
LINE
  5
27696
330
1F
100
AcDbEntity
  8
freecads.com
100
AcDbLine
 10
51094.92917467676
 20
67826.03746356797
 30
0.0000000091126279
 11
51108.21108025422
 21
67826.03746359146
 31
0.0000000091020283
  0
LINE
  5
27697
330
1F
100
AcDbEntity
  8
freecads.com
100
AcDbLine
 10
51108.21108025422
 20
67826.03746359146
 30
0.0000000091020283
 11
51122.53281617641
 21
67826.03746357697
 31
0.0000000090905988
  0
LINE
  5
27698
330
1F
100
AcDbEntity
  8
freecads.com
100
AcDbLine
 10
51122.53281617641
 20
67826.03746357697
 30
0.0000000090905988
 11
51136.90269778837
 21
67826.03746359248
 31
0.000000009079131
  0
LINE
  5
27699
330
1F
100
AcDbEntity
  8
freecads.com
100
AcDbLine
 10
51136.90269778837
 20
67826.03746359248
 30
0.000000009079131
 11
51150.32570659007
 21
67826.0374636077
 31
0.0000000090684187
  0
LINE
  5
2769A
330
1F
100
AcDbEntity
  8
freecads.com
100
AcDbLine
 10
51150.32570659007
 20
67826.0374636077
 30
0.0000000090684187
 11
51161.87238882839
 21
67826.0374635602
 31
0.0000000090592039
  0
LINE
  5
2769B
330
1F
100
AcDbEntity
  8
freecads.com
100
AcDbLine
 10
51161.87238882839
 20
67826.0374635602
 30
0.0000000090592039
 11
51170.74321367417
 21
67826.03746360959
 31
0.0000000090521246
  0
LINE
  5
2769C
330
1F
100
AcDbEntity
  8
freecads.com
100
AcDbLine
 10
51170.74321367417
 20
67826.03746360959
 30
0.0000000090521246
 11
51176.3239358227
 21
67826.03746355988
 31
0.0000000090476709
  0
LINE
  5
2769D
330
1F
100
AcDbEntity
  8
freecads.com
100
AcDbLine
 10
51178.22812733933
 20
67826.0374635802
 30
0.0000000090461512
 11
51178.22812736884
 21
67806.03746357266
 31
0.0000000090429011
  0
LINE
  5
2769E
330
1F
100
AcDbEntity
  8
freecads.com
100
AcDbLine
 10
51176.3239358227
 20
67826.03746355988
 30
0.0000000090476709
 11
51178.22812733933
 21
67826.0374635802
 31
0.0000000090461512
  0
LINE
  5
2769F
330
1F
100
AcDbEntity
  8
freecads.com
100
AcDbLine
 10
51055.73695986471
 20
68422.89927970525
 30
0.0000000092408987
 11
51057.53531952133
 21
68426.75587456446
 31
0.0000000092400903
  0
LINE
  5
276A0
330
1F
100
AcDbEntity
  8
freecads.com
100
AcDbLine
 10
51071.12294647245
 20
68415.6692076675
 30
0.000000009227445
 11
51072.94255192615
 21
68419.57136410172
 31
0.000000009226627
  0
LINE
  5
276A1
330
1F
100
AcDbEntity
  8
freecads.com
100
AcDbLine
 10
51056.78657051297
 20
68423.03746361431
 30
0.0000000092400835
 11
51052.12782767959
 21
68422.42412845132
 31
0.0000000092437018
  0
LINE
  5
276A2
330
1F
100
AcDbEntity
  8
freecads.com
100
AcDbLine
 10
51052.12782767959
 20
68422.42412845132
 30
0.0000000092437018
 11
51047.78657049405
 21
68420.62592085241
 31
0.0000000092468741
  0
LINE
  5
276A3
330
1F
100
AcDbEntity
  8
freecads.com
100
AcDbLine
 10
51041.19811326731
 20
68396.03746360461
 30
0.0000000092481362
 11
51044.05864844901
 21
68392.309541547
 31
0.0000000092452476
  0
LINE
  5
276A4
330
1F
100
AcDbEntity
  8
freecads.com
100
AcDbLine
 10
51061.44531329539
 20
68422.42412846026
 30
0.000000009236266
 11
51056.78657051297
 21
68423.03746361431
 31
0.0000000092400835
  0
LINE
  5
276A5
330
1F
100
AcDbEntity
  8
freecads.com
100
AcDbLine
 10
51069.51449256009
 20
68392.30954150133
 30
0.0000000092249326
 11
51072.37502775624
 21
68396.03746359105
 31
0.0000000092232555
  0
LINE
  5
276A6
330
1F
100
AcDbEntity
  8
freecads.com
100
AcDbLine
 10
51065.78657050246
 20
68389.44900631966
 30
0.0000000092274428
 11
51069.51449256009
 21
68392.30954150133
 31
0.0000000092249326
  0
LINE
  5
276A7
330
1F
100
AcDbEntity
  8
freecads.com
100
AcDbLine
 10
51061.44531331691
 20
68387.65079872074
 30
0.0000000092306151
 11
51065.78657050246
 21
68389.44900631966
 31
0.0000000092274428
  0
LINE
  5
276A8
330
1F
100
AcDbEntity
  8
freecads.com
100
AcDbLine
 10
51056.78657049619
 20
68387.03746361597
 30
0.0000000092342333
 11
51061.44531331691
 21
68387.65079872074
 31
0.0000000092306151
  0
LINE
  5
276A9
330
1F
100
AcDbEntity
  8
freecads.com
100
AcDbLine
 10
51052.12782770113
 20
68387.65079871181
 30
0.0000000092380509
 11
51056.78657049619
 21
68387.03746361597
 31
0.0000000092342333
  0
LINE
  5
276AA
330
1F
100
AcDbEntity
  8
freecads.com
100
AcDbLine
 10
51047.78657052608
 20
68389.44900629259
 30
0.0000000092418077
 11
51052.12782770113
 21
68387.65079871181
 31
0.0000000092380509
  0
LINE
  5
276AB
330
1F
100
AcDbEntity
  8
freecads.com
100
AcDbLine
 10
51044.05864844901
 20
68392.309541547
 30
0.0000000092452476
 11
51047.78657052608
 21
68389.44900629259
 31
0.0000000092418077
  0
LINE
  5
276AC
330
1F
100
AcDbEntity
  8
freecads.com
100
AcDbLine
 10
51039.39990561017
 20
68400.37872080281
 30
0.0000000092502768
 11
51041.19811326731
 21
68396.03746360461
 31
0.0000000092481362
  0
LINE
  5
276AD
330
1F
100
AcDbEntity
  8
freecads.com
100
AcDbLine
 10
51038.78657049275
 20
68405.0374635653
 30
0.0000000092515233
 11
51039.39990561017
 21
68400.37872080281
 31
0.0000000092502768
  0
LINE
  5
276AE
330
1F
100
AcDbEntity
  8
freecads.com
100
AcDbLine
 10
51039.39990565948
 20
68409.69620640596
 30
0.0000000092517909
 11
51038.78657049275
 21
68405.0374635653
 31
0.0000000092515233
  0
LINE
  5
276AF
330
1F
100
AcDbEntity
  8
freecads.com
100
AcDbLine
 10
51041.19811324027
 20
68414.03746358102
 30
0.0000000092510613
 11
51039.39990565948
 21
68409.69620640596
 31
0.0000000092517909
  0
LINE
  5
276B0
330
1F
100
AcDbEntity
  8
freecads.com
100
AcDbLine
 10
51044.05864843643
 20
68417.7653856707
 30
0.0000000092493843
 11
51041.19811324027
 21
68414.03746358102
 31
0.0000000092510613
  0
LINE
  5
276B1
330
1F
100
AcDbEntity
  8
freecads.com
100
AcDbLine
 10
51047.78657049405
 20
68420.62592085241
 30
0.0000000092468741
 11
51044.05864843643
 21
68417.7653856707
 31
0.0000000092493843
  0
LINE
  5
276B2
330
1F
100
AcDbEntity
  8
freecads.com
100
AcDbLine
 10
51065.78657052868
 20
68420.62592086682
 30
0.0000000092325092
 11
51061.44531329539
 21
68422.42412846026
 31
0.000000009236266
  0
LINE
  5
276B3
330
1F
100
AcDbEntity
  8
freecads.com
100
AcDbLine
 10
51069.5144925475
 20
68417.76538562506
 30
0.0000000092290693
 11
51065.78657052868
 21
68420.62592086682
 31
0.0000000092325092
  0
LINE
  5
276B4
330
1F
100
AcDbEntity
  8
freecads.com
100
AcDbLine
 10
51072.37502778743
 20
68414.03746355479
 30
0.0000000092261806
 11
51069.5144925475
 21
68417.76538562506
 31
0.0000000092290693
  0
LINE
  5
276B5
330
1F
100
AcDbEntity
  8
freecads.com
100
AcDbLine
 10
51074.17323538633
 20
68409.69620636923
 30
0.0000000092240401
 11
51072.37502778743
 21
68414.03746355479
 31
0.0000000092261806
  0
LINE
  5
276B6
330
1F
100
AcDbEntity
  8
freecads.com
100
AcDbLine
 10
51074.78657050375
 20
68405.03746360674
 30
0.0000000092227936
 11
51074.17323538633
 21
68409.69620636923
 31
0.0000000092240401
  0
LINE
  5
276B7
330
1F
100
AcDbEntity
  8
freecads.com
100
AcDbLine
 10
51074.17323539527
 20
68400.37872075344
 30
0.000000009222526
 11
51074.78657050375
 21
68405.03746360674
 31
0.0000000092227936
  0
LINE
  5
276B8
330
1F
100
AcDbEntity
  8
freecads.com
100
AcDbLine
 10
51072.37502775624
 20
68396.03746359105
 30
0.0000000092232555
 11
51074.17323539527
 21
68400.37872075344
 31
0.000000009222526
  0
LINE
  5
276B9
330
1F
100
AcDbEntity
  8
freecads.com
100
AcDbLine
 10
51012.78657048351
 20
68474.03746358861
 30
0.0000000092834855
 11
51052.78657048589
 21
68474.03746358937
 31
0.0000000092515635
  0
LINE
  5
276BA
330
1F
100
AcDbEntity
  8
freecads.com
100
AcDbLine
 10
51012.78657048275
 20
68514.037463591
 30
0.0000000092899857
 11
51052.78657048513
 21
68514.03746359173
 31
0.0000000092580638
  0
LINE
  5
276BB
330
1F
100
AcDbEntity
  8
freecads.com
100
AcDbLine
 10
51012.78657048351
 20
68474.03746358861
 30
0.0000000092834855
 11
51012.78657048275
 21
68514.037463591
 31
0.0000000092899857
  0
LINE
  5
276BC
330
1F
100
AcDbEntity
  8
freecads.com
100
AcDbLine
 10
51052.78657048589
 20
68474.03746358937
 30
0.0000000092515635
 11
51052.78657048513
 21
68514.03746359173
 31
0.0000000092580638
  0
LINE
  5
276BD
330
1F
100
AcDbEntity
  8
freecads.com
100
AcDbLine
 10
51056.78657047943
 20
67668.03746359504
 30
0.0000000091173916
 11
51074.90392523788
 21
67668.0374635664
 31
0.0000000091029331
  0
LINE
  5
276BE
330
1F
100
AcDbEntity
  8
freecads.com
100
AcDbLine
 10
51087.91991982164
 20
67668.03746360741
 30
0.0000000090925457
 11
51096.78657048181
 21
67668.0374635958
 31
0.0000000090854697
  0
LINE
  5
276BF
330
1F
100
AcDbEntity
  8
freecads.com
100
AcDbLine
 10
51096.78657048181
 20
67668.0374635958
 30
0.0000000090854697
 11
51098.74208277934
 21
67667.7800155046
 31
0.0000000090838672
  0
LINE
  5
276C0
330
1F
100
AcDbEntity
  8
freecads.com
100
AcDbLine
 10
51101.77561994658
 20
67667.38064278039
 30
0.0000000090813814
 11
51102.99822761112
 21
67667.21968341235
 31
0.0000000090803796
  0
LINE
  5
276C1
330
1F
100
AcDbEntity
  8
freecads.com
100
AcDbLine
 10
51102.99822761112
 20
67667.21968341235
 30
0.0000000090803796
 11
51104.87410085021
 21
67666.44267125951
 31
0.0000000090787563
  0
LINE
  5
276C2
330
1F
100
AcDbEntity
  8
freecads.com
100
AcDbLine
 10
51107.69923582508
 20
67665.27246204463
 30
0.0000000090763115
 11
51108.78657051118
 21
67664.82207330462
 31
0.0000000090753706
  0
LINE
  5
276C3
330
1F
100
AcDbEntity
  8
freecads.com
100
AcDbLine
 10
51108.78657051118
 20
67664.82207330462
 30
0.0000000090753706
 11
51110.44370958973
 21
67663.55050571259
 31
0.0000000090738414
  0
LINE
  5
276C4
330
1F
100
AcDbEntity
  8
freecads.com
100
AcDbLine
 10
51112.86799611358
 20
67661.69028526404
 30
0.0000000090716044
 11
51113.75713325442
 21
67661.00802636542
 31
0.000000009070784
  0
LINE
  5
276C5
330
1F
100
AcDbEntity
  8
freecads.com
100
AcDbLine
 10
51113.75713325442
 20
67661.00802636542
 30
0.000000009070784
 11
51115.06444081859
 21
67659.30430990516
 31
0.0000000090694638
  0
LINE
  5
276C6
330
1F
100
AcDbEntity
  8
freecads.com
100
AcDbLine
 10
51115.06444050729
 20
67628.77061681752
 30
0.0000000090645019
 11
51113.75713323914
 21
67627.0669008131
 31
0.0000000090652684
  0
LINE
  5
276C7
330
1F
100
AcDbEntity
  8
freecads.com
100
AcDbLine
 10
51113.75713323914
 20
67627.0669008131
 30
0.0000000090652684
 11
51112.86799485887
 21
67626.38464095534
 31
0.0000000090658671
  0
LINE
  5
276C8
330
1F
100
AcDbEntity
  8
freecads.com
100
AcDbLine
 10
51110.44371152704
 20
67624.52442296432
 30
0.0000000090674995
 11
51108.78657049985
 21
67623.2528539236
 31
0.0000000090686153
  0
LINE
  5
276C9
330
1F
100
AcDbEntity
  8
freecads.com
100
AcDbLine
 10
51108.78657049985
 20
67623.2528539236
 30
0.0000000090686153
 11
51107.69923679994
 21
67622.80246553546
 31
0.0000000090694099
  0
LINE
  5
276CA
330
1F
100
AcDbEntity
  8
freecads.com
100
AcDbLine
 10
51104.87409755646
 20
67621.63225451778
 30
0.0000000090714743
 11
51102.99822757314
 21
67620.85524373347
 31
0.0000000090728451
  0
LINE
  5
276CB
330
1F
100
AcDbEntity
  8
freecads.com
100
AcDbLine
 10
51102.99822757314
 20
67620.85524373347
 30
0.0000000090728451
 11
51101.77562213281
 21
67620.69428471048
 31
0.0000000090737946
  0
LINE
  5
276CC
330
1F
100
AcDbEntity
  8
freecads.com
100
AcDbLine
 10
51098.74208188683
 20
67620.2949115328
 30
0.0000000090761506
 11
51096.78657051766
 21
67620.03746358535
 31
0.0000000090776694
  0
LINE
  5
276CD
330
1F
100
AcDbEntity
  8
freecads.com
100
AcDbLine
 10
51096.78657051766
 20
67620.03746358535
 30
0.0000000090776694
 11
51089.28438678407
 21
67620.0374635591
 31
0.0000000090836565
  0
LINE
  5
276CE
330
1F
100
AcDbEntity
  8
freecads.com
100
AcDbLine
 10
51076.28876022216
 20
67620.03746358768
 30
0.0000000090940276
 11
51056.78657051529
 21
67620.03746358459
 31
0.0000000091095913
  0
LINE
  5
276CF
330
1F
100
AcDbEntity
  8
freecads.com
100
AcDbLine
 10
51056.78657051529
 20
67620.03746358459
 30
0.0000000091095913
 11
51056.78657047943
 21
67668.03746359504
 31
0.0000000091173916
  0
LINE
  5
276D0
330
1F
100
AcDbEntity
  8
freecads.com
100
AcDbLine
 10
51100.62807138171
 20
67667.72802842639
 30
0.0000000090823537
 11
51094.25596330599
 21
67667.90367490687
 31
0.0000000090874675
  0
LINE
  5
276D1
330
1F
100
AcDbEntity
  8
freecads.com
100
AcDbLine
 10
51094.25596330599
 20
67667.90367490687
 30
0.0000000090874675
 11
51088.06237944481
 21
67666.39564945921
 31
0.0000000090921652
  0
LINE
  5
276D2
330
1F
100
AcDbEntity
  8
freecads.com
100
AcDbLine
 10
51106.72917675821
 20
67665.88110306152
 30
0.0000000090771846
 11
51100.62807138171
 21
67667.72802842639
 31
0.0000000090823537
  0
LINE
  5
276D3
330
1F
100
AcDbEntity
  8
freecads.com
100
AcDbLine
 10
51088.06237944481
 20
67666.39564945921
 30
0.0000000090921652
 11
51088.01544436049
 21
67666.3696892602
 31
0.0000000090921984
  0
LINE
  5
276D4
330
1F
100
AcDbEntity
  8
freecads.com
100
AcDbLine
 10
51112.12886861539
 20
67662.49319180468
 30
0.0000000090723248
 11
51106.72917675821
 21
67665.88110306152
 31
0.0000000090771846
  0
LINE
  5
276D5
330
1F
100
AcDbEntity
  8
freecads.com
100
AcDbLine
 10
51116.44621931373
 20
67657.80329815814
 30
0.0000000090681172
 11
51112.12886861539
 21
67662.49319180468
 31
0.0000000090723248
  0
LINE
  5
276D6
330
1F
100
AcDbEntity
  8
freecads.com
100
AcDbLine
 10
51075.64936057626
 20
67655.02296953069
 30
0.0000000091002233
 11
51074.67726335405
 21
67653.37440762797
 31
0.0000000091007311
  0
LINE
  5
276D7
330
1F
100
AcDbEntity
  8
freecads.com
100
AcDbLine
 10
51124.70572065217
 20
67646.00750819693
 30
0.0000000090596088
 11
51116.44621931373
 21
67657.80329815814
 31
0.0000000090681172
  0
LINE
  5
276D8
330
1F
100
AcDbEntity
  8
freecads.com
100
AcDbLine
 10
51074.67726335405
 20
67653.37440762797
 30
0.0000000091007311
 11
51072.99915045212
 21
67647.2247281941
 31
0.000000009101071
  0
LINE
  5
276D9
330
1F
100
AcDbEntity
  8
freecads.com
100
AcDbLine
 10
51072.99915045212
 20
67647.2247281941
 30
0.000000009101071
 11
51072.99915043439
 21
67640.85019957268
 31
0.0000000091000351
  0
LINE
  5
276DA
330
1F
100
AcDbEntity
  8
freecads.com
100
AcDbLine
 10
51124.70572065798
 20
67642.06741857544
 30
0.0000000090589685
 11
51124.70572065217
 21
67646.00750819693
 31
0.0000000090596088
  0
LINE
  5
276DB
330
1F
100
AcDbEntity
  8
freecads.com
100
AcDbLine
 10
51116.44621933704
 20
67630.271628663
 30
0.0000000090636431
 11
51124.70572065798
 21
67642.06741857544
 31
0.0000000090589685
  0
LINE
  5
276DC
330
1F
100
AcDbEntity
  8
freecads.com
100
AcDbLine
 10
51072.99915043439
 20
67640.85019957268
 30
0.0000000091000351
 11
51074.67726332891
 21
67634.70052016139
 31
0.0000000090976965
  0
LINE
  5
276DD
330
1F
100
AcDbEntity
  8
freecads.com
100
AcDbLine
 10
51074.67726332891
 20
67634.70052016139
 30
0.0000000090976965
 11
51076.28899557355
 21
67631.96721249332
 31
0.0000000090959661
  0
LINE
  5
276DE
330
1F
100
AcDbEntity
  8
freecads.com
100
AcDbLine
 10
51112.12886864047
 20
67625.58173592411
 30
0.0000000090663265
 11
51116.44621933704
 21
67630.271628663
 31
0.0000000090636431
  0
LINE
  5
276DF
330
1F
100
AcDbEntity
  8
freecads.com
100
AcDbLine
 10
51106.72917676692
 20
67622.19382373197
 30
0.0000000090700851
 11
51112.12886864047
 21
67625.58173592411
 31
0.0000000090663265
  0
LINE
  5
276E0
330
1F
100
AcDbEntity
  8
freecads.com
100
AcDbLine
 10
51100.62807142033
 20
67620.34689836978
 30
0.000000009074654
 11
51106.72917676692
 21
67622.19382373197
 31
0.0000000090700851
  0
LINE
  5
276E1
330
1F
100
AcDbEntity
  8
freecads.com
100
AcDbLine
 10
51089.28436034266
 20
67621.38174732032
 30
0.000000009083875
 11
51094.25596331019
 21
67620.17125281272
 31
0.0000000090797107
  0
LINE
  5
276E2
330
1F
100
AcDbEntity
  8
freecads.com
100
AcDbLine
 10
51094.25596331019
 20
67620.17125281272
 30
0.0000000090797107
 11
51100.62807142033
 21
67620.34689836978
 31
0.000000009074654
  0
LINE
  5
276E3
330
1F
100
AcDbEntity
  8
freecads.com
100
AcDbLine
 10
51124.70572065217
 20
67646.00750819693
 30
0.0000000090596088
 11
51124.68005526423
 21
67645.99941593935
 31
0.000000009059628
  0
LINE
  5
276E4
330
1F
100
AcDbEntity
  8
freecads.com
100
AcDbLine
 10
51124.70572065798
 20
67642.06741857544
 30
0.0000000090589685
 11
51124.68005525917
 21
67642.07551088315
 31
0.0000000090589903
  0
LINE
  5
276E5
330
1F
100
AcDbEntity
  8
freecads.com
100
AcDbLine
 10
51124.68005526423
 20
67645.99941593935
 30
0.000000009059628
 11
51124.47735931533
 21
67645.93550614718
 31
0.0000000090597794
  0
LINE
  5
276E6
330
1F
100
AcDbEntity
  8
freecads.com
100
AcDbLine
 10
51124.68005525917
 20
67642.07551088315
 30
0.0000000090589903
 11
51124.47735935587
 21
67642.13942061492
 31
0.0000000090591625
  0
LINE
  5
276E7
330
1F
100
AcDbEntity
  8
freecads.com
100
AcDbLine
 10
51124.47735931533
 20
67645.93550614718
 30
0.0000000090597794
 11
51124.08578084707
 21
67645.81204194866
 31
0.0000000090600718
  0
LINE
  5
276E8
330
1F
100
AcDbEntity
  8
freecads.com
100
AcDbLine
 10
51124.47735935587
 20
67642.13942061492
 30
0.0000000090591625
 11
51124.08578087174
 21
67642.26288488478
 31
0.000000009059495
  0
LINE
  5
276E9
330
1F
100
AcDbEntity
  8
freecads.com
100
AcDbLine
 10
51124.08578084707
 20
67645.81204194866
 30
0.0000000090600718
 11
51123.53200528866
 21
67645.63743717563
 31
0.0000000090604854
  0
LINE
  5
276EA
330
1F
100
AcDbEntity
  8
freecads.com
100
AcDbLine
 10
51124.08578087174
 20
67642.26288488478
 30
0.000000009059495
 11
51123.53200527303
 21
67642.43748962364
 31
0.0000000090599654
  0
LINE
  5
276EB
330
1F
100
AcDbEntity
  8
freecads.com
100
AcDbLine
 10
51123.53200528866
 20
67645.63743717563
 30
0.0000000090604854
 11
51122.85377179653
 21
67645.42359095472
 31
0.0000000090609919
  0
LINE
  5
276EC
330
1F
100
AcDbEntity
  8
freecads.com
100
AcDbLine
 10
51123.53200527303
 20
67642.43748962364
 30
0.0000000090599654
 11
51122.85377176737
 21
67642.65133586401
 31
0.0000000090605414
  0
LINE
  5
276ED
330
1F
100
AcDbEntity
  8
freecads.com
100
AcDbLine
 10
51122.85377179653
 20
67645.42359095472
 30
0.0000000090609919
 11
51122.09730061842
 21
67645.18507650093
 31
0.0000000090615568
  0
LINE
  5
276EE
330
1F
100
AcDbEntity
  8
freecads.com
100
AcDbLine
 10
51122.85377176737
 20
67642.65133586401
 30
0.0000000090605414
 11
51122.09730062748
 21
67642.88985031692
 31
0.0000000090611838
  0
LINE
  5
276EF
330
1F
100
AcDbEntity
  8
freecads.com
100
AcDbLine
 10
51094.57511596311
 20
67664.89373983605
 30
0.0000000090867236
 11
51089.16264836362
 21
67663.57590203191
 31
0.0000000090908289
  0
LINE
  5
276F0
330
1F
100
AcDbEntity
  8
freecads.com
100
AcDbLine
 10
51100.14359275107
 20
67664.74024531944
 30
0.0000000090822548
 11
51094.57511596311
 21
67664.89373983605
 31
0.0000000090867236
  0
LINE
  5
276F1
330
1F
100
AcDbEntity
  8
freecads.com
100
AcDbLine
 10
51105.47524514957
 20
67663.12624863509
 30
0.0000000090777376
 11
51100.14359275107
 21
67664.74024531944
 31
0.0000000090822548
  0
LINE
  5
276F2
330
1F
100
AcDbEntity
  8
freecads.com
100
AcDbLine
 10
51089.16264836362
 20
67663.57590203191
 30
0.0000000090908289
 11
51088.20577714001
 21
67663.046648174
 31
0.0000000090915065
  0
LINE
  5
276F3
330
1F
100
AcDbEntity
  8
freecads.com
100
AcDbLine
 10
51110.19394390741
 20
67660.16561068021
 30
0.0000000090734907
 11
51105.47524514957
 21
67663.12624863509
 31
0.0000000090777376
  0
LINE
  5
276F4
330
1F
100
AcDbEntity
  8
freecads.com
100
AcDbLine
 10
51114.10353155795
 20
67655.91866574518
 30
0.0000000090696805
 11
51110.19394390741
 21
67660.16561068021
 31
0.0000000090734907
  0
LINE
  5
276F5
330
1F
100
AcDbEntity
  8
freecads.com
100
AcDbLine
 10
51122.09730061842
 20
67645.18507650093
 30
0.0000000090615568
 11
51121.70572247937
 21
67645.06161241384
 31
0.0000000090618493
  0
LINE
  5
276F6
330
1F
100
AcDbEntity
  8
freecads.com
100
AcDbLine
 10
51121.70572247937
 20
67645.06161241384
 30
0.0000000090618493
 11
51114.10353155795
 21
67655.91866574518
 31
0.0000000090696805
  0
LINE
  5
276F7
330
1F
100
AcDbEntity
  8
freecads.com
100
AcDbLine
 10
51076.09824602374
 20
67647.18591611812
 30
0.0000000090985915
 11
51075.99914859111
 21
67646.82275980452
 31
0.0000000090986115
  0
LINE
  5
276F8
330
1F
100
AcDbEntity
  8
freecads.com
100
AcDbLine
 10
51075.99914859111
 20
67646.82275980452
 30
0.0000000090986115
 11
51075.9991486004
 21
67641.25216793912
 31
0.0000000090977063
  0
LINE
  5
276F9
330
1F
100
AcDbEntity
  8
freecads.com
100
AcDbLine
 10
51122.09730062748
 20
67642.88985031692
 30
0.0000000090611838
 11
51121.70572246751
 21
67643.01331439433
 31
0.0000000090615164
  0
LINE
  5
276FA
330
1F
100
AcDbEntity
  8
freecads.com
100
AcDbLine
 10
51121.70572246751
 20
67643.01331439433
 30
0.0000000090615164
 11
51121.70572247937
 21
67645.06161241384
 31
0.0000000090618493
  0
LINE
  5
276FB
330
1F
100
AcDbEntity
  8
freecads.com
100
AcDbLine
 10
51114.10353165714
 20
67632.15626117627
 30
0.000000009065819
 11
51121.70572246751
 21
67643.01331439433
 31
0.0000000090615164
  0
LINE
  5
276FC
330
1F
100
AcDbEntity
  8
freecads.com
100
AcDbLine
 10
51075.9991486004
 20
67641.25216793912
 30
0.0000000090977063
 11
51076.28915780781
 21
67640.18938869963
 31
0.0000000090973021
  0
LINE
  5
276FD
330
1F
100
AcDbEntity
  8
freecads.com
100
AcDbLine
 10
51110.19394391216
 20
67627.90931699544
 30
0.0000000090682489
 11
51114.10353165714
 21
67632.15626117627
 31
0.000000009065819
  0
LINE
  5
276FE
330
1F
100
AcDbEntity
  8
freecads.com
100
AcDbLine
 10
51105.47524496719
 20
67624.94867811954
 30
0.0000000090715335
 11
51110.19394391216
 21
67627.90931699544
 31
0.0000000090682489
  0
LINE
  5
276FF
330
1F
100
AcDbEntity
  8
freecads.com
100
AcDbLine
 10
51100.14359298615
 20
67623.33468152367
 30
0.0000000090755261
 11
51105.47524496719
 21
67624.94867811954
 31
0.0000000090715335
  0
LINE
  5
27700
330
1F
100
AcDbEntity
  8
freecads.com
100
AcDbLine
 10
51089.28429960993
 20
67624.46940495047
 30
0.0000000090843768
 11
51094.5751159155
 21
67623.18118787641
 31
0.0000000090799451
  0
LINE
  5
27701
330
1F
100
AcDbEntity
  8
freecads.com
100
AcDbLine
 10
51094.5751159155
 20
67623.18118787641
 30
0.0000000090799451
 11
51100.14359298615
 21
67623.33468152367
 31
0.0000000090755261
  0
LINE
  5
27702
330
1F
100
AcDbEntity
  8
freecads.com
100
AcDbLine
 10
51019.78657049513
 20
67679.03746355904
 30
0.000000009148707
 11
51019.78657050654
 21
67677.84486751096
 31
0.0000000091485132
  0
LINE
  5
27703
330
1F
100
AcDbEntity
  8
freecads.com
100
AcDbLine
 10
51019.78657050654
 20
67677.84486751096
 30
0.0000000091485132
 11
51019.78657049803
 21
67674.34835273729
 31
0.000000009147945
  0
LINE
  5
27704
330
1F
100
AcDbEntity
  8
freecads.com
100
AcDbLine
 10
51019.78657049803
 20
67674.34835273729
 30
0.000000009147945
 11
51019.78657049701
 21
67668.78620095755
 31
0.0000000091470411
  0
LINE
  5
27705
330
1F
100
AcDbEntity
  8
freecads.com
100
AcDbLine
 10
51019.78657049701
 20
67668.78620095755
 30
0.0000000091470411
 11
51019.78657050702
 21
67661.53746359361
 31
0.0000000091458631
  0
LINE
  5
27706
330
1F
100
AcDbEntity
  8
freecads.com
100
AcDbLine
 10
51019.78657050702
 20
67661.53746359361
 30
0.0000000091458631
 11
51019.78657052844
 21
67653.09613018157
 31
0.0000000091444914
  0
LINE
  5
27707
330
1F
100
AcDbEntity
  8
freecads.com
100
AcDbLine
 10
51019.78657052844
 20
67653.09613018157
 30
0.0000000091444914
 11
51019.78657050624
 21
67644.03746356992
 31
0.0000000091430193
  0
LINE
  5
27708
330
1F
100
AcDbEntity
  8
freecads.com
100
AcDbLine
 10
51019.78657050624
 20
67644.03746356992
 30
0.0000000091430193
 11
51019.78657049671
 21
67634.97879701655
 31
0.0000000091415472
  0
LINE
  5
27709
330
1F
100
AcDbEntity
  8
freecads.com
100
AcDbLine
 10
51019.78657049671
 20
67634.97879701655
 30
0.0000000091415472
 11
51019.78657051812
 21
67626.5374636045
 31
0.0000000091401754
  0
LINE
  5
2770A
330
1F
100
AcDbEntity
  8
freecads.com
100
AcDbLine
 10
51019.78657051812
 20
67626.5374636045
 30
0.0000000091401754
 11
51019.78657052812
 21
67619.28872624057
 31
0.0000000091389975
  0
LINE
  5
2770B
330
1F
100
AcDbEntity
  8
freecads.com
100
AcDbLine
 10
51019.78657052812
 20
67619.28872624057
 30
0.0000000091389975
 11
51019.7865705271
 21
67613.72657446083
 31
0.0000000091380936
  0
LINE
  5
2770C
330
1F
100
AcDbEntity
  8
freecads.com
100
AcDbLine
 10
51019.7865705271
 20
67613.72657446083
 30
0.0000000091380936
 11
51019.78657051858
 21
67610.23005968719
 31
0.0000000091375254
  0
LINE
  5
2770D
330
1F
100
AcDbEntity
  8
freecads.com
100
AcDbLine
 10
51019.78657051858
 20
67610.23005968719
 30
0.0000000091375254
 11
51019.78657051734
 21
67609.03746358084
 31
0.0000000091373316
  0
LINE
  5
2770E
330
1F
100
AcDbEntity
  8
freecads.com
100
AcDbLine
 10
51039.78657050181
 20
67660.03746360293
 30
0.0000000091296584
 11
51019.78657049513
 21
67679.03746355904
 31
0.000000009148707
  0
LINE
  5
2770F
330
1F
100
AcDbEntity
  8
freecads.com
100
AcDbLine
 10
51019.78657049513
 20
67679.03746355904
 30
0.000000009148707
 11
51012.78657052162
 21
67679.03746361254
 31
0.0000000091542933
  0
LINE
  5
27710
330
1F
100
AcDbEntity
  8
freecads.com
100
AcDbLine
 10
51039.78657052571
 20
67628.03746359598
 30
0.0000000091244582
 11
51019.78657051734
 21
67609.03746358084
 31
0.0000000091373316
  0
LINE
  5
27711
330
1F
100
AcDbEntity
  8
freecads.com
100
AcDbLine
 10
51019.78657051734
 20
67609.03746358084
 30
0.0000000091373316
 11
51012.78657047292
 21
67609.03746358875
 31
0.0000000091429179
  0
LINE
  5
27712
330
1F
100
AcDbEntity
  8
freecads.com
100
AcDbLine
 10
51039.78657053216
 20
67660.49194625916
 30
0.0000000091297323
 11
51039.78657051376
 21
67644.03746359944
 31
0.0000000091270583
  0
LINE
  5
27713
330
1F
100
AcDbEntity
  8
freecads.com
100
AcDbLine
 10
51039.78657051376
 20
67644.03746359944
 30
0.0000000091270583
 11
51039.78657049535
 21
67627.58298093971
 31
0.0000000091243844
  0
LINE
  5
27714
330
1F
100
AcDbEntity
  8
freecads.com
100
AcDbLine
 10
51039.78657053216
 20
67660.49194625916
 30
0.0000000091297323
 11
51056.78657048666
 21
67660.4919462559
 31
0.0000000091161654
  0
LINE
  5
27715
330
1F
100
AcDbEntity
  8
freecads.com
100
AcDbLine
 10
51039.78657051376
 20
67644.03746359944
 30
0.0000000091270583
 11
51056.78657052648
 21
67644.03746358349
 31
0.0000000091134915
  0
LINE
  5
27716
330
1F
100
AcDbEntity
  8
freecads.com
100
AcDbLine
 10
51039.78657049535
 20
67627.58298093971
 30
0.0000000091243844
 11
51056.78657050806
 21
67627.58298092376
 31
0.0000000091108175
  0
LINE
  5
27717
330
1F
100
AcDbEntity
  8
freecads.com
100
AcDbLine
 10
51074.84664791838
 20
67669.03746356369
 30
0.0000000091031413
 11
51074.3012890961
 21
67669.03746356518
 31
0.0000000091035765
  0
LINE
  5
27718
330
1F
100
AcDbEntity
  8
freecads.com
100
AcDbLine
 10
51074.3012890961
 20
67669.03746356518
 30
0.0000000091035765
 11
51072.39426564526
 21
67669.0374635933
 31
0.0000000091050984
  0
LINE
  5
27719
330
1F
100
AcDbEntity
  8
freecads.com
100
AcDbLine
 10
51072.39426564526
 20
67669.0374635933
 30
0.0000000091050984
 11
51071.19546058537
 21
67669.03746359679
 31
0.0000000091060551
  0
LINE
  5
2771A
330
1F
100
AcDbEntity
  8
freecads.com
100
AcDbLine
 10
51071.19546058537
 20
67669.03746359679
 30
0.0000000091060551
 11
51070.78657047968
 21
67669.03746361379
 31
0.0000000091063814
  0
LINE
  5
2771B
330
1F
100
AcDbEntity
  8
freecads.com
100
AcDbLine
 10
51094.78657047858
 20
67669.03746360261
 30
0.0000000090872283
 11
51094.37768043113
 21
67669.03746360695
 31
0.0000000090875546
  0
LINE
  5
2771C
330
1F
100
AcDbEntity
  8
freecads.com
100
AcDbLine
 10
51094.37768043113
 20
67669.03746360695
 30
0.0000000090875546
 11
51093.17887537123
 21
67669.03746361044
 31
0.0000000090885113
  0
LINE
  5
2771D
330
1F
100
AcDbEntity
  8
freecads.com
100
AcDbLine
 10
51093.17887537123
 20
67669.03746361044
 30
0.0000000090885113
 11
51091.27185184949
 21
67669.03746359298
 31
0.0000000090900332
  0
LINE
  5
2771E
330
1F
100
AcDbEntity
  8
freecads.com
100
AcDbLine
 10
51091.27185184949
 20
67669.03746359298
 30
0.0000000090900332
 11
51088.78657050164
 21
67669.03746356995
 31
0.0000000090920166
  0
LINE
  5
2771F
330
1F
100
AcDbEntity
  8
freecads.com
100
AcDbLine
 10
51088.78657050164
 20
67669.03746356995
 30
0.0000000090920166
 11
51087.86264316814
 21
67669.03746358192
 31
0.0000000090927539
  0
LINE
  5
27720
330
1F
100
AcDbEntity
  8
freecads.com
100
AcDbLine
 10
51070.78657051002
 20
67668.03746359189
 30
0.0000000091062189
 11
51070.78657047968
 21
67669.03746361379
 31
0.0000000091063814
  0
LINE
  5
27721
330
1F
100
AcDbEntity
  8
freecads.com
100
AcDbLine
 10
51094.78657050892
 20
67668.03746358069
 30
0.0000000090870658
 11
51094.78657047858
 21
67669.03746360261
 31
0.0000000090872283
  0
LINE
  5
27722
330
1F
100
AcDbEntity
  8
freecads.com
100
AcDbLine
 10
51089.28657052019
 20
67384.03746361344
 30
0.0000000090453034
 11
51089.06508836773
 21
67382.35423857352
 31
0.0000000090452066
  0
LINE
  5
27723
330
1F
100
AcDbEntity
  8
freecads.com
100
AcDbLine
 10
51089.06508836773
 20
67382.35423857352
 30
0.0000000090452066
 11
51088.41573562541
 21
67380.78572257797
 31
0.0000000090454699
  0
LINE
  5
27724
330
1F
100
AcDbEntity
  8
freecads.com
100
AcDbLine
 10
51088.41573562541
 20
67380.78572257797
 30
0.0000000090454699
 11
51087.38276457008
 21
67379.43880732448
 31
0.0000000090460754
  0
LINE
  5
27725
330
1F
100
AcDbEntity
  8
freecads.com
100
AcDbLine
 10
51087.38276457008
 20
67379.43880732448
 30
0.0000000090460754
 11
51086.03657047515
 21
67378.40528291703
 31
0.0000000090469818
  0
LINE
  5
27726
330
1F
100
AcDbEntity
  8
freecads.com
100
AcDbLine
 10
51086.03657047515
 20
67378.40528291703
 30
0.0000000090469818
 11
51084.46889429903
 21
67377.75558234422
 31
0.0000000090481273
  0
LINE
  5
27727
330
1F
100
AcDbEntity
  8
freecads.com
100
AcDbLine
 10
51084.46889429903
 20
67377.75558234422
 30
0.0000000090481273
 11
51082.78657049218
 21
67377.53398155159
 31
0.0000000090494338
  0
LINE
  5
27728
330
1F
100
AcDbEntity
  8
freecads.com
100
AcDbLine
 10
51082.78657049218
 20
67377.53398155159
 30
0.0000000090494338
 11
51081.10424671323
 21
67377.75558229914
 31
0.0000000090508124
  0
LINE
  5
27729
330
1F
100
AcDbEntity
  8
freecads.com
100
AcDbLine
 10
51081.10424671323
 20
67377.75558229914
 30
0.0000000090508124
 11
51079.53657049993
 21
67378.40528292744
 31
0.0000000090521691
  0
LINE
  5
2772A
330
1F
100
AcDbEntity
  8
freecads.com
100
AcDbLine
 10
51079.53657049993
 20
67378.40528292744
 30
0.0000000090521691
 11
51078.19037640536
 21
67379.43880734898
 31
0.0000000090534114
  0
LINE
  5
2772B
330
1F
100
AcDbEntity
  8
freecads.com
100
AcDbLine
 10
51078.19037640536
 20
67379.43880734898
 30
0.0000000090534114
 11
51077.15740539907
 21
67380.78572253924
 31
0.0000000090544546
  0
LINE
  5
2772C
330
1F
100
AcDbEntity
  8
freecads.com
100
AcDbLine
 10
51077.15740539907
 20
67380.78572253924
 30
0.0000000090544546
 11
51076.5080526172
 21
67382.35423855294
 31
0.0000000090552277
  0
LINE
  5
2772D
330
1F
100
AcDbEntity
  8
freecads.com
100
AcDbLine
 10
51076.5080526172
 20
67382.35423855294
 30
0.0000000090552277
 11
51076.28657049883
 21
67384.03746358869
 31
0.000000009055678
  0
LINE
  5
2772E
330
1F
100
AcDbEntity
  8
freecads.com
100
AcDbLine
 10
51076.28657049883
 20
67384.03746358869
 30
0.000000009055678
 11
51076.28657052149
 21
67384.30509815889
 31
0.0000000090557215
  0
LINE
  5
2772F
330
1F
100
AcDbEntity
  8
freecads.com
100
AcDbLine
 10
51076.28657052149
 20
67384.30509815889
 30
0.0000000090557215
 11
51076.28657048127
 21
67385.10685589115
 31
0.0000000090558518
  0
LINE
  5
27730
330
1F
100
AcDbEntity
  8
freecads.com
100
AcDbLine
 10
51076.28657048127
 20
67385.10685589115
 30
0.0000000090558518
 11
51076.2865705169
 21
67386.43930350721
 31
0.0000000090560683
  0
LINE
  5
27731
330
1F
100
AcDbEntity
  8
freecads.com
100
AcDbLine
 10
51076.2865705169
 20
67386.43930350721
 30
0.0000000090560683
 11
51076.28657052498
 21
67388.29673529652
 31
0.0000000090563702
  0
LINE
  5
27732
330
1F
100
AcDbEntity
  8
freecads.com
100
AcDbLine
 10
51076.28657052498
 20
67388.29673529652
 30
0.0000000090563702
 11
51076.28657049354
 21
67390.67119738122
 31
0.000000009056756
  0
LINE
  5
27733
330
1F
100
AcDbEntity
  8
freecads.com
100
AcDbLine
 10
51076.28657049354
 20
67390.67119738122
 30
0.000000009056756
 11
51076.2865705114
 21
67393.55252199419
 31
0.0000000090572243
  0
LINE
  5
27734
330
1F
100
AcDbEntity
  8
freecads.com
100
AcDbLine
 10
51076.2865705114
 20
67393.55252199419
 30
0.0000000090572243
 11
51076.28657050875
 21
67396.928370904
 31
0.0000000090577729
  0
LINE
  5
27735
330
1F
100
AcDbEntity
  8
freecads.com
100
AcDbLine
 10
51076.28657050875
 20
67396.928370904
 30
0.0000000090577729
 11
51076.28657049136
 21
67400.78428812575
 31
0.0000000090583995
  0
LINE
  5
27736
330
1F
100
AcDbEntity
  8
freecads.com
100
AcDbLine
 10
51076.28657049136
 20
67400.78428812575
 30
0.0000000090583995
 11
51076.28657049849
 21
67405.1037620249
 31
0.0000000090591014
  0
LINE
  5
27737
330
1F
100
AcDbEntity
  8
freecads.com
100
AcDbLine
 10
51076.28657049849
 20
67405.1037620249
 30
0.0000000090591014
 11
51076.28657048212
 21
67409.86829603821
 31
0.0000000090598757
  0
LINE
  5
27738
330
1F
100
AcDbEntity
  8
freecads.com
100
AcDbLine
 10
51076.28657048212
 20
67409.86829603821
 30
0.0000000090598757
 11
51076.28657052281
 21
67415.05748767851
 31
0.0000000090607189
  0
LINE
  5
27739
330
1F
100
AcDbEntity
  8
freecads.com
100
AcDbLine
 10
51076.28657052281
 20
67415.05748767851
 30
0.0000000090607189
 11
51076.2865704957
 21
67420.64911595394
 31
0.0000000090616276
  0
LINE
  5
2773A
330
1F
100
AcDbEntity
  8
freecads.com
100
AcDbLine
 10
51076.2865704957
 20
67420.64911595394
 30
0.0000000090616276
 11
51076.28657047588
 21
67426.61923667872
 31
0.0000000090625978
  0
LINE
  5
2773B
330
1F
100
AcDbEntity
  8
freecads.com
100
AcDbLine
 10
51076.28657047588
 20
67426.61923667872
 30
0.0000000090625978
 11
51076.28657050291
 21
67432.94228493708
 31
0.0000000090636253
  0
LINE
  5
2773C
330
1F
100
AcDbEntity
  8
freecads.com
100
AcDbLine
 10
51076.28657050291
 20
67432.94228493708
 30
0.0000000090636253
 11
51076.28657050707
 21
67439.59118446618
 31
0.0000000090647058
  0
LINE
  5
2773D
330
1F
100
AcDbEntity
  8
freecads.com
100
AcDbLine
 10
51076.28657050707
 20
67439.59118446618
 30
0.0000000090647058
 11
51076.28657049655
 21
67446.53746356975
 31
0.0000000090658346
  0
LINE
  5
2773E
330
1F
100
AcDbEntity
  8
freecads.com
100
AcDbLine
 10
51076.28657049655
 20
67446.53746356975
 30
0.0000000090658346
 11
51076.28657052133
 21
67453.75137730182
 31
0.0000000090670069
  0
LINE
  5
2773F
330
1F
100
AcDbEntity
  8
freecads.com
100
AcDbLine
 10
51076.28657052133
 20
67453.75137730182
 30
0.0000000090670069
 11
51076.28657048528
 21
67461.20203456317
 31
0.0000000090682177
  0
LINE
  5
27740
330
1F
100
AcDbEntity
  8
freecads.com
100
AcDbLine
 10
51076.28657048528
 20
67461.20203456317
 30
0.0000000090682177
 11
51076.28657048969
 21
67468.85753045027
 31
0.0000000090694618
  0
LINE
  5
27741
330
1F
100
AcDbEntity
  8
freecads.com
100
AcDbLine
 10
51076.28657048969
 20
67468.85753045027
 30
0.0000000090694618
 11
51076.28657047796
 21
67476.6850829643
 31
0.0000000090707338
  0
LINE
  5
27742
330
1F
100
AcDbEntity
  8
freecads.com
100
AcDbLine
 10
51076.28657047796
 20
67476.6850829643
 30
0.0000000090707338
 11
51076.28657047765
 21
67484.65117331181
 31
0.0000000090720283
  0
LINE
  5
27743
330
1F
100
AcDbEntity
  8
freecads.com
100
AcDbLine
 10
51076.28657047765
 20
67484.65117331181
 30
0.0000000090720283
 11
51076.28657047796
 21
67492.72168957774
 31
0.0000000090733398
  0
LINE
  5
27744
330
1F
100
AcDbEntity
  8
freecads.com
100
AcDbLine
 10
51076.28657047796
 20
67492.72168957774
 30
0.0000000090733398
 11
51076.28657050453
 21
67500.86207242993
 31
0.0000000090746627
  0
LINE
  5
27745
330
1F
100
AcDbEntity
  8
freecads.com
100
AcDbLine
 10
51076.28657050453
 20
67500.86207242993
 30
0.0000000090746627
 11
51076.28657050693
 21
67509.0374636091
 31
0.0000000090759912
  0
LINE
  5
27746
330
1F
100
AcDbEntity
  8
freecads.com
100
AcDbLine
 10
51076.28657050693
 20
67509.0374636091
 30
0.0000000090759912
 11
51076.28923003867
 21
67643.85154190223
 31
0.0000000090978972
  0
LINE
  5
27747
330
1F
100
AcDbEntity
  8
freecads.com
100
AcDbLine
 10
51076.28923003867
 20
67643.85154190223
 30
0.0000000090978972
 11
51070.21038968937
 21
67749.98151194039
 31
0.0000000091199951
  0
LINE
  5
27748
330
1F
100
AcDbEntity
  8
freecads.com
100
AcDbLine
 10
51070.21038968937
 20
67749.98151194039
 30
0.0000000091199951
 11
51058.0654536256
 21
67856.02788033345
 31
0.0000000091469206
  0
LINE
  5
27749
330
1F
100
AcDbEntity
  8
freecads.com
100
AcDbLine
 10
51058.0654536256
 20
67856.02788033345
 30
0.0000000091469206
 11
51036.73030946783
 21
67962.43754570715
 31
0.0000000091812392
  0
LINE
  5
2774A
330
1F
100
AcDbEntity
  8
freecads.com
100
AcDbLine
 10
51036.73030946783
 20
67962.43754570715
 30
0.0000000091812392
 11
51021.41886201677
 21
68069.39035680424
 31
0.000000009210839
  0
LINE
  5
2774B
330
1F
100
AcDbEntity
  8
freecads.com
100
AcDbLine
 10
51021.41886201677
 20
68069.39035680424
 30
0.000000009210839
 11
51015.28723435822
 21
68176.44456936204
 31
0.0000000092331293
  0
LINE
  5
2774C
330
1F
100
AcDbEntity
  8
freecads.com
100
AcDbLine
 10
51015.28723435822
 20
68176.44456936204
 30
0.0000000092331293
 11
51018.36980129571
 21
68283.69389050917
 31
0.0000000092480979
  0
LINE
  5
2774D
330
1F
100
AcDbEntity
  8
freecads.com
100
AcDbLine
 10
51018.36980129571
 20
68283.69389050917
 30
0.0000000092480979
 11
51033.68185831653
 21
68370.73713229497
 31
0.0000000092500231
  0
LINE
  5
2774E
330
1F
100
AcDbEntity
  8
freecads.com
100
AcDbLine
 10
51033.68185831653
 20
68370.73713229497
 30
0.0000000092500231
 11
51043.82538941523
 21
68392.6135305606
 31
0.0000000092454831
  0
LINE
  5
2774F
330
1F
100
AcDbEntity
  8
freecads.com
100
AcDbLine
 10
51089.28657052019
 20
67384.03746361344
 30
0.0000000090453034
 11
51089.28657048458
 21
67384.30509819631
 31
0.0000000090453469
  0
LINE
  5
27750
330
1F
100
AcDbEntity
  8
freecads.com
100
AcDbLine
 10
51089.28657048458
 20
67384.30509819631
 30
0.0000000090453469
 11
51089.28657050261
 21
67385.10685591592
 31
0.0000000090454771
  0
LINE
  5
27751
330
1F
100
AcDbEntity
  8
freecads.com
100
AcDbLine
 10
51089.28657050261
 20
67385.10685591592
 30
0.0000000090454771
 11
51089.28657048
 21
67386.43930354464
 31
0.0000000090456937
  0
LINE
  5
27752
330
1F
100
AcDbEntity
  8
freecads.com
100
AcDbLine
 10
51089.28657048
 20
67386.43930354464
 30
0.0000000090456937
 11
51089.28657048808
 21
67388.29673533392
 31
0.0000000090459955
  0
LINE
  5
27753
330
1F
100
AcDbEntity
  8
freecads.com
100
AcDbLine
 10
51089.28657048808
 20
67388.29673533392
 30
0.0000000090459955
 11
51089.28657051489
 21
67390.67119740596
 31
0.0000000090463814
  0
LINE
  5
27754
330
1F
100
AcDbEntity
  8
freecads.com
100
AcDbLine
 10
51089.28657051489
 20
67390.67119740596
 30
0.0000000090463814
 11
51089.2865704745
 21
67393.55252203159
 31
0.0000000090468496
  0
LINE
  5
27755
330
1F
100
AcDbEntity
  8
freecads.com
100
AcDbLine
 10
51089.2865704745
 20
67393.55252203159
 30
0.0000000090468496
 11
51089.28657051744
 21
67396.92837087047
 31
0.0000000090473982
  0
LINE
  5
27756
330
1F
100
AcDbEntity
  8
freecads.com
100
AcDbLine
 10
51089.28657051744
 20
67396.92837087047
 30
0.0000000090473982
 11
51089.28657050004
 21
67400.78428809225
 31
0.0000000090480248
  0
LINE
  5
27757
330
1F
100
AcDbEntity
  8
freecads.com
100
AcDbLine
 10
51089.28657050004
 20
67400.78428809225
 30
0.0000000090480248
 11
51089.28657051984
 21
67405.10376204963
 31
0.0000000090487268
  0
LINE
  5
27758
330
1F
100
AcDbEntity
  8
freecads.com
100
AcDbLine
 10
51089.28657051984
 20
67405.10376204963
 30
0.0000000090487268
 11
51089.28657050348
 21
67409.86829606298
 31
0.000000009049501
  0
LINE
  5
27759
330
1F
100
AcDbEntity
  8
freecads.com
100
AcDbLine
 10
51089.28657050348
 20
67409.86829606298
 30
0.000000009049501
 11
51089.28657047325
 21
67415.05748765765
 31
0.0000000090503443
  0
LINE
  5
2775A
330
1F
100
AcDbEntity
  8
freecads.com
100
AcDbLine
 10
51089.28657047325
 20
67415.05748765765
 30
0.0000000090503443
 11
51089.28657050438
 21
67420.64911592044
 31
0.000000009051253
  0
LINE
  5
2775B
330
1F
100
AcDbEntity
  8
freecads.com
100
AcDbLine
 10
51089.28657050438
 20
67420.64911592044
 30
0.000000009051253
 11
51089.28657049723
 21
67426.61923670347
 31
0.0000000090522232
  0
LINE
  5
2775C
330
1F
100
AcDbEntity
  8
freecads.com
100
AcDbLine
 10
51089.28657049723
 20
67426.61923670347
 30
0.0000000090522232
 11
51089.28657052426
 21
67432.94228496181
 31
0.0000000090532507
  0
LINE
  5
2775D
330
1F
100
AcDbEntity
  8
freecads.com
100
AcDbLine
 10
51089.28657052426
 20
67432.94228496181
 30
0.0000000090532507
 11
51089.28657051577
 21
67439.5911844327
 31
0.0000000090543312
  0
LINE
  5
2775E
330
1F
100
AcDbEntity
  8
freecads.com
100
AcDbLine
 10
51089.28657051577
 20
67439.5911844327
 30
0.0000000090543312
 11
51089.2865705179
 21
67446.53746359452
 31
0.00000000905546
  0
LINE
  5
2775F
330
1F
100
AcDbEntity
  8
freecads.com
100
AcDbLine
 10
51089.2865705179
 20
67446.53746359452
 30
0.00000000905546
 11
51089.28657048444
 21
67453.75137733924
 31
0.0000000090566323
  0
LINE
  5
27760
330
1F
100
AcDbEntity
  8
freecads.com
100
AcDbLine
 10
51089.28657048444
 20
67453.75137733924
 30
0.0000000090566323
 11
51089.28657049396
 21
67461.20203452967
 31
0.0000000090578431
  0
LINE
  5
27761
330
1F
100
AcDbEntity
  8
freecads.com
100
AcDbLine
 10
51089.28657049396
 20
67461.20203452967
 30
0.0000000090578431
 11
51089.28657049839
 21
67468.85753041677
 31
0.0000000090590871
  0
LINE
  5
27762
330
1F
100
AcDbEntity
  8
freecads.com
100
AcDbLine
 10
51089.28657049839
 20
67468.85753041677
 30
0.0000000090590871
 11
51089.28657048665
 21
67476.68508293081
 31
0.0000000090603591
  0
LINE
  5
27763
330
1F
100
AcDbEntity
  8
freecads.com
100
AcDbLine
 10
51089.28657048665
 20
67476.68508293081
 30
0.0000000090603591
 11
51089.28657049899
 21
67484.65117333655
 31
0.0000000090616537
  0
LINE
  5
27764
330
1F
100
AcDbEntity
  8
freecads.com
100
AcDbLine
 10
51089.28657049899
 20
67484.65117333655
 30
0.0000000090616537
 11
51089.28657048664
 21
67492.72168954424
 31
0.0000000090629652
  0
LINE
  5
27765
330
1F
100
AcDbEntity
  8
freecads.com
100
AcDbLine
 10
51089.28657048664
 20
67492.72168954424
 30
0.0000000090629652
 11
51089.28657052588
 21
67500.86207245468
 31
0.0000000090642881
  0
LINE
  5
27766
330
1F
100
AcDbEntity
  8
freecads.com
100
AcDbLine
 10
51089.28657052588
 20
67500.86207245468
 30
0.0000000090642881
 11
51089.28657051561
 21
67509.0374635756
 31
0.0000000090656166
  0
LINE
  5
27767
330
1F
100
AcDbEntity
  8
freecads.com
100
AcDbLine
 10
51089.28657051561
 20
67509.0374635756
 30
0.0000000090656166
 11
51089.28391095788
 21
67644.22338527258
 31
0.0000000090875872
  0
LINE
  5
27768
330
1F
100
AcDbEntity
  8
freecads.com
100
AcDbLine
 10
51089.28391095788
 20
67644.22338527258
 30
0.0000000090875872
 11
51083.16275129712
 21
67751.09341520135
 31
0.0000000091098392
  0
LINE
  5
27769
330
1F
100
AcDbEntity
  8
freecads.com
100
AcDbLine
 10
51083.16275129712
 20
67751.09341520135
 30
0.0000000091098392
 11
51070.90768733636
 21
67858.04704683807
 31
0.0000000091369999
  0
LINE
  5
2776A
330
1F
100
AcDbEntity
  8
freecads.com
100
AcDbLine
 10
51070.90768733636
 20
67858.04704683807
 30
0.0000000091369999
 11
51049.54283158086
 21
67964.63738149849
 31
0.0000000091713717
  0
LINE
  5
2776B
330
1F
100
AcDbEntity
  8
freecads.com
100
AcDbLine
 10
51049.54283158086
 20
67964.63738149849
 30
0.0000000091713717
 11
51034.35427895837
 21
68070.68457041069
 31
0.0000000092007262
  0
LINE
  5
2776C
330
1F
100
AcDbEntity
  8
freecads.com
100
AcDbLine
 10
51034.35427895837
 20
68070.68457041069
 30
0.0000000092007262
 11
51028.2859066651
 21
68176.63035780715
 31
0.0000000092227859
  0
LINE
  5
2776D
330
1F
100
AcDbEntity
  8
freecads.com
100
AcDbLine
 10
51028.2859066651
 20
68176.63035780715
 30
0.0000000092227859
 11
51031.30333967719
 21
68282.3810366682
 31
0.0000000092375629
  0
LINE
  5
2776E
330
1F
100
AcDbEntity
  8
freecads.com
100
AcDbLine
 10
51031.30333967719
 20
68282.3810366682
 30
0.0000000092375629
 11
51046.08182177802
 21
68366.83317188881
 31
0.0000000092394929
  0
LINE
  5
2776F
330
1F
100
AcDbEntity
  8
freecads.com
100
AcDbLine
 10
51046.08182177802
 20
68366.83317188881
 30
0.0000000092394929
 11
51055.63163657178
 21
68387.18951352834
 31
0.0000000092351797
  0
LINE
  5
27770
330
1F
100
AcDbEntity
  8
freecads.com
100
AcDbLine
 10
51076.28846430272
 20
67605.03746357339
 30
0.0000000090915903
 11
51075.85836725033
 21
67605.0374636164
 31
0.0000000090919335
  0
LINE
  5
27771
330
1F
100
AcDbEntity
  8
freecads.com
100
AcDbLine
 10
51075.85836725033
 20
67605.0374636164
 30
0.0000000090919335
 11
51075.05916387285
 21
67605.03746359932
 31
0.0000000090925713
  0
LINE
  5
27772
330
1F
100
AcDbEntity
  8
freecads.com
100
AcDbLine
 10
51075.05916387285
 20
67605.03746359932
 30
0.0000000090925713
 11
51074.78657051886
 21
67605.03746355916
 31
0.0000000090927889
  0
LINE
  5
27773
330
1F
100
AcDbEntity
  8
freecads.com
100
AcDbLine
 10
51090.78657052234
 20
67605.03746357112
 30
0.0000000090800201
 11
51090.51397712277
 21
67605.03746360186
 31
0.0000000090802376
  0
LINE
  5
27774
330
1F
100
AcDbEntity
  8
freecads.com
100
AcDbLine
 10
51090.51397712277
 20
67605.03746360186
 30
0.0000000090802376
 11
51089.71477374528
 21
67605.03746358477
 31
0.0000000090808754
  0
LINE
  5
27775
330
1F
100
AcDbEntity
  8
freecads.com
100
AcDbLine
 10
51089.71477374528
 20
67605.03746358477
 30
0.0000000090808754
 11
51089.28468187156
 21
67605.03746360008
 31
0.0000000090812187
  0
LINE
  5
27776
330
1F
100
AcDbEntity
  8
freecads.com
100
AcDbLine
 10
51074.78657051886
 20
67605.03746355916
 30
0.0000000090927889
 11
51074.78657049167
 21
67620.03746361166
 31
0.0000000090952265
  0
LINE
  5
27777
330
1F
100
AcDbEntity
  8
freecads.com
100
AcDbLine
 10
51090.78657052234
 20
67605.03746357112
 30
0.0000000090800201
 11
51090.78657048248
 21
67620.03746356535
 31
0.0000000090824577
  0
LINE
  5
27778
330
1F
100
AcDbEntity
  8
freecads.com
100
AcDbLine
 10
51067.78657050083
 20
67686.03746358107
 30
0.0000000091115382
 11
51067.41175461852
 21
67686.03746360657
 31
0.0000000091118373
  0
LINE
  5
27779
330
1F
100
AcDbEntity
  8
freecads.com
100
AcDbLine
 10
51067.41175461852
 20
67686.03746360657
 30
0.0000000091118373
 11
51066.31284996467
 21
67686.03746360808
 31
0.0000000091127143
  0
LINE
  5
2777A
330
1F
100
AcDbEntity
  8
freecads.com
100
AcDbLine
 10
51066.31284996467
 20
67686.03746360808
 30
0.0000000091127143
 11
51064.56474509927
 21
67686.03746361108
 31
0.0000000091141094
  0
LINE
  5
2777B
330
1F
100
AcDbEntity
  8
freecads.com
100
AcDbLine
 10
51064.56474509927
 20
67686.03746361108
 30
0.0000000091141094
 11
51062.2865704766
 21
67686.03746357624
 31
0.0000000091159275
  0
LINE
  5
2777C
330
1F
100
AcDbEntity
  8
freecads.com
100
AcDbLine
 10
51062.2865704766
 20
67686.03746357624
 30
0.0000000091159275
 11
51059.63357997163
 21
67686.03746356693
 31
0.0000000091180447
  0
LINE
  5
2777D
330
1F
100
AcDbEntity
  8
freecads.com
100
AcDbLine
 10
51059.63357997163
 20
67686.03746356693
 30
0.0000000091180447
 11
51056.78657051062
 21
67686.03746355878
 31
0.0000000091203167
  0
LINE
  5
2777E
330
1F
100
AcDbEntity
  8
freecads.com
100
AcDbLine
 10
51056.78657051062
 20
67686.03746355878
 30
0.0000000091203167
 11
51012.78657051686
 21
67686.03746359871
 31
0.0000000091554309
  0
LINE
  5
2777F
330
1F
100
AcDbEntity
  8
freecads.com
100
AcDbLine
 10
51067.78657047778
 20
67737.03746357365
 30
0.000000009119826
 11
51067.41175459546
 21
67737.03746359914
 31
0.0000000091201251
  0
LINE
  5
27780
330
1F
100
AcDbEntity
  8
freecads.com
100
AcDbLine
 10
51067.41175459546
 20
67737.03746359914
 30
0.0000000091201251
 11
51066.3128499416
 21
67737.03746360066
 31
0.0000000091210021
  0
LINE
  5
27781
330
1F
100
AcDbEntity
  8
freecads.com
100
AcDbLine
 10
51066.3128499416
 20
67737.03746360066
 30
0.0000000091210021
 11
51064.56474507621
 21
67737.03746360365
 31
0.0000000091223972
  0
LINE
  5
27782
330
1F
100
AcDbEntity
  8
freecads.com
100
AcDbLine
 10
51064.56474507621
 20
67737.03746360365
 30
0.0000000091223972
 11
51062.28657051179
 21
67737.03746355619
 31
0.0000000091242153
  0
LINE
  5
27783
330
1F
100
AcDbEntity
  8
freecads.com
100
AcDbLine
 10
51062.28657051179
 20
67737.03746355619
 30
0.0000000091242153
 11
51059.63358001947
 21
67737.03746360508
 31
0.0000000091263325
  0
LINE
  5
27784
330
1F
100
AcDbEntity
  8
freecads.com
100
AcDbLine
 10
51059.63358001947
 20
67737.03746360508
 30
0.0000000091263325
 11
51056.78657050022
 21
67737.03746360959
 31
0.0000000091286045
  0
LINE
  5
27785
330
1F
100
AcDbEntity
  8
freecads.com
100
AcDbLine
 10
51056.78657050022
 20
67737.03746360959
 30
0.0000000091286045
 11
51012.78657049381
 21
67737.03746359129
 31
0.0000000091637187
  0
LINE
  5
27786
330
1F
100
AcDbEntity
  8
freecads.com
100
AcDbLine
 10
51067.78657050083
 20
67686.03746358107
 30
0.0000000091115382
 11
51067.78657047778
 21
67737.03746357365
 31
0.000000009119826
  0
LINE
  5
27787
330
1F
100
AcDbEntity
  8
freecads.com
100
AcDbLine
 10
51067.78657048031
 20
68592.03746360519
 30
0.0000000092587685
 11
51067.41175458534
 21
68592.03746357248
 31
0.0000000092590676
  0
LINE
  5
27788
330
1F
100
AcDbEntity
  8
freecads.com
100
AcDbLine
 10
51067.41175458534
 20
68592.03746357248
 30
0.0000000092590676
 11
51066.31284993149
 21
68592.03746357397
 31
0.0000000092599446
  0
LINE
  5
27789
330
1F
100
AcDbEntity
  8
freecads.com
100
AcDbLine
 10
51066.31284993149
 20
68592.03746357397
 30
0.0000000092599446
 11
51064.56474506609
 21
68592.03746357697
 31
0.0000000092613397
  0
LINE
  5
2778A
330
1F
100
AcDbEntity
  8
freecads.com
100
AcDbLine
 10
51064.56474506609
 20
68592.03746357697
 30
0.0000000092613397
 11
51062.28657051432
 21
68592.03746358773
 31
0.0000000092631578
  0
LINE
  5
2778B
330
1F
100
AcDbEntity
  8
freecads.com
100
AcDbLine
 10
51062.28657051432
 20
68592.03746358773
 30
0.0000000092631578
 11
51059.63358000936
 21
68592.03746357839
 31
0.000000009265275
  0
LINE
  5
2778C
330
1F
100
AcDbEntity
  8
freecads.com
100
AcDbLine
 10
51059.63358000936
 20
68592.03746357839
 30
0.000000009265275
 11
51056.7865704901
 21
68592.0374635829
 31
0.000000009267547
  0
LINE
  5
2778D
330
1F
100
AcDbEntity
  8
freecads.com
100
AcDbLine
 10
51056.7865704901
 20
68592.0374635829
 30
0.000000009267547
 11
51012.78657048369
 21
68592.0374635646
 31
0.0000000093026612
  0
LINE
  5
2778E
330
1F
100
AcDbEntity
  8
freecads.com
100
AcDbLine
 10
51067.7865705155
 20
68643.03746358515
 30
0.0000000092670563
 11
51067.41175456228
 21
68643.03746356506
 31
0.0000000092673554
  0
LINE
  5
2778F
330
1F
100
AcDbEntity
  8
freecads.com
100
AcDbLine
 10
51067.41175456228
 20
68643.03746356506
 30
0.0000000092673554
 11
51066.31284996667
 21
68643.03746355392
 31
0.0000000092682324
  0
LINE
  5
27790
330
1F
100
AcDbEntity
  8
freecads.com
100
AcDbLine
 10
51066.31284996667
 20
68643.03746355392
 30
0.0000000092682324
 11
51064.56474510127
 21
68643.03746355692
 31
0.0000000092696275
  0
LINE
  5
27791
330
1F
100
AcDbEntity
  8
freecads.com
100
AcDbLine
 10
51064.56474510127
 20
68643.03746355692
 30
0.0000000092696275
 11
51062.28657049127
 21
68643.03746358031
 31
0.0000000092714456
  0
LINE
  5
27792
330
1F
100
AcDbEntity
  8
freecads.com
100
AcDbLine
 10
51062.28657049127
 20
68643.03746358031
 30
0.0000000092714456
 11
51059.63357998629
 21
68643.03746357097
 31
0.0000000092735628
  0
LINE
  5
27793
330
1F
100
AcDbEntity
  8
freecads.com
100
AcDbLine
 10
51059.63357998629
 20
68643.03746357097
 30
0.0000000092735628
 11
51056.78657052528
 21
68643.03746356285
 31
0.0000000092758348
  0
LINE
  5
27794
330
1F
100
AcDbEntity
  8
freecads.com
100
AcDbLine
 10
51056.78657052528
 20
68643.03746356285
 30
0.0000000092758348
 11
51012.78657053153
 21
68643.03746360278
 31
0.000000009310949
  0
LINE
  5
27795
330
1F
100
AcDbEntity
  8
freecads.com
100
AcDbLine
 10
51067.78657048031
 20
68592.03746360519
 30
0.0000000092587685
 11
51067.7865705155
 21
68643.03746358515
 31
0.0000000092670563
  0
LINE
  5
27796
330
1F
100
AcDbEntity
  8
freecads.com
100
AcDbLine
 10
51045.78657051002
 20
67737.0374635873
 30
0.0000000091373831
 11
51045.78657053081
 21
67806.03746360185
 31
0.000000009148596
  0
LINE
  5
27797
330
1F
100
AcDbEntity
  8
freecads.com
100
AcDbLine
 10
51045.7865705013
 20
67826.03746360936
 30
0.0000000091518461
 11
51045.78657051676
 21
67917.26917471902
 31
0.0000000091666718
  0
LINE
  5
27798
330
1F
100
AcDbEntity
  8
freecads.com
100
AcDbLine
 10
51045.78657051233
 20
67990.86377291209
 30
0.0000000091786313
 11
51045.78657049309
 21
68365.14594867729
 31
0.0000000092394544
  0
LINE
  5
27799
330
1F
100
AcDbEntity
  8
freecads.com
100
AcDbLine
 10
51045.78657052631
 20
68419.09126688112
 30
0.0000000092482208
 11
51045.78657049971
 21
68474.03746358462
 31
0.0000000092571499
  0
LINE
  5
2779A
330
1F
100
AcDbEntity
  8
freecads.com
100
AcDbLine
 10
51045.78657049897
 20
68514.03746358698
 30
0.0000000092636501
 11
51045.7865704999
 21
68592.03746356061
 31
0.0000000092763256
  0
LINE
  5
2779B
330
1F
100
AcDbEntity
  8
freecads.com
100
AcDbLine
 10
51067.78657047778
 20
67737.03746357365
 30
0.000000009119826
 11
51067.78657051001
 21
67771.14565989323
 31
0.0000000091253688
  0
LINE
  5
2779C
330
1F
100
AcDbEntity
  8
freecads.com
100
AcDbLine
 10
51067.78657048354
 20
67873.61845502322
 30
0.0000000091420212
 11
51067.78657052843
 21
68390.98366027826
 31
0.0000000092260961
  0
LINE
  5
2779D
330
1F
100
AcDbEntity
  8
freecads.com
100
AcDbLine
 10
51067.78657049502
 20
68453.63071351612
 30
0.0000000092362766
 11
51067.78657048031
 21
68592.03746360519
 31
0.0000000092587685
  0
ENDSEC
  0
SECTION
  2
OBJECTS
  0
DICTIONARY
  5
C
330
0
100
AcDbDictionary
281
     1
  3
ACAD_CIP_PREVIOUS_PRODUCT_INFO
350
1A5
  3
ACAD_COLOR
350
73
  3
ACAD_DETAILVIEWSTYLE
350
1AB
  3
ACAD_GROUP
350
D
  3
ACAD_LAYOUT
350
1A
  3
ACAD_MATERIAL
350
72
  3
ACAD_MLEADERSTYLE
350
D7
  3
ACAD_MLINESTYLE
350
17
  3
ACAD_PLOTSETTINGS
350
19
  3
ACAD_PLOTSTYLENAME
350
E
  3
ACAD_SCALELIST
350
B6
  3
ACAD_SECTIONVIEWSTYLE
350
1A8
  3
ACAD_TABLESTYLE
350
86
  3
ACAD_VISUALSTYLE
350
99
  3
ACDB_RECOMPOSE_DATA
350
27D8F
  3
AcDbVariableDictionary
350
66
  3
AEC_PROPERTY_SET_DEFS
350
22D1
  0
DICTIONARY
  5
18E
330
2
100
AcDbDictionary
280
     1
281
     1
  3
ACAD_LAYERSTATES
360
18F
  0
DICTIONARY
  5
E6
330
10
100
AcDbDictionary
280
     1
281
     1
  0
DICTIONARY
  5
15D
330
1F
100
AcDbDictionary
280
     1
281
     1
  3
ACAD_SORTENTS
360
28E
  0
XRECORD
  5
1A5
102
{ACAD_REACTORS
330
C
102
}
330
C
100
AcDbXrecord
280
     1
300
ACD
300
2022
300

  0
DICTIONARY
  5
73
102
{ACAD_REACTORS
330
C
102
}
330
C
100
AcDbDictionary
281
     1
  0
DICTIONARY
  5
1AB
102
{ACAD_REACTORS
330
C
102
}
330
C
100
AcDbDictionary
281
     1
  3
Imperial24
350
1AC
  3
Metric50
350
224
  0
DICTIONARY
  5
D
102
{ACAD_REACTORS
330
C
102
}
330
C
100
AcDbDictionary
281
     1
  0
DICTIONARY
  5
1A
102
{ACAD_REACTORS
330
C
102
}
330
C
100
AcDbDictionary
281
     1
  3
Layout1
350
59
  3
Layout2
350
5E
  3
Model
350
22
  0
DICTIONARY
  5
72
102
{ACAD_REACTORS
330
C
102
}
330
C
100
AcDbDictionary
281
     1
  3
ByBlock
350
97
  3
ByLayer
350
96
  3
Global
350
98
  0
DICTIONARY
  5
D7
102
{ACAD_REACTORS
330
C
102
}
330
C
100
AcDbDictionary
281
     1
  3
Standard
350
D8
  0
DICTIONARY
  5
17
102
{ACAD_REACTORS
330
C
102
}
330
C
100
AcDbDictionary
281
     1
  3
Standard
350
18
  0
DICTIONARY
  5
19
102
{ACAD_REACTORS
330
C
102
}
330
C
100
AcDbDictionary
281
     1
  0
ACDBDICTIONARYWDFLT
  5
E
102
{ACAD_REACTORS
330
C
102
}
330
C
100
AcDbDictionary
281
     1
  3
Normal
350
F
100
AcDbDictionaryWithDefault
340
F
  0
DICTIONARY
  5
B6
102
{ACAD_REACTORS
330
C
102
}
330
C
100
AcDbDictionary
281
     1
  3
*A1
350
2283
  3
A0
350
B7
  3
A1
350
124
  3
A2
350
125
  3
A3
350
126
  3
A4
350
127
  3
A5
350
128
  3
A6
350
129
  3
A7
350
12A
  3
A8
350
12B
  3
A9
350
12C
  3
B0
350
12D
  3
B1
350
12E
  3
B2
350
12F
  3
B3
350
130
  3
B4
350
131
  3
B5
350
132
  3
B6
350
133
  3
B7
350
134
  3
B8
350
135
  3
B9
350
136
  3
C0
350
137
  3
C1
350
138
  3
C2
350
139
  3
C3
350
13A
  3
C4
350
13B
  3
C5
350
13C
  3
C6
350
13D
  3
C7
350
13E
  3
C8
350
13F
  3
C9
350
140
  3
D0
350
141
  3
D1
350
142
  3
D2
350
143
  0
DICTIONARY
  5
1A8
102
{ACAD_REACTORS
330
C
102
}
330
C
100
AcDbDictionary
281
     1
  3
Imperial24
350
1AA
  3
Metric50
350
223
  0
DICTIONARY
  5
86
102
{ACAD_REACTORS
330
C
102
}
330
C
100
AcDbDictionary
281
     1
  3
Standard
350
87
  0
DICTIONARY
  5
99
102
{ACAD_REACTORS
330
C
102
}
330
C
100
AcDbDictionary
281
     1
  3
2dWireframe
350
9F
  3
3dWireframe
350
22946
  3
Basic
350
9E
  3
Brighten
350
A5
  3
ColorChange
350
A9
  3
Conceptual
350
A2
  3
Dim
350
A4
  3
EdgeColorOff
350
175
  3
Facepattern
350
A8
  3
Flat
350
9A
  3
FlatWithEdges
350
9B
  3
Gouraud
350
9C
  3
GouraudWithEdges
350
9D
  3
Hidden
350
A1
  3
JitterOff
350
173
  3
Linepattern
350
A7
  3
OverhangOff
350
174
  3
Realistic
350
A3
  3
Shaded
350
182
  3
Shaded with edges
350
181
  3
Shades of Gray
350
17E
  3
Sketchy
350
17F
  3
Thicken
350
A6
  3
Wireframe
350
A0
  3
X-Ray
350
180
  0
XRECORD
  5
27D8F
102
{ACAD_REACTORS
330
C
102
}
330
C
100
AcDbXrecord
280
     1
 90
        1
330
87
  0
DICTIONARY
  5
66
102
{ACAD_REACTORS
330
C
102
}
330
C
100
AcDbDictionary
281
     1
  3
CANNOSCALE
350
F0
  3
CMLEADERSTYLE
350
EF
  3
CTABLESTYLE
350
89
  3
CVIEWDETAILSTYLE
350
1B7
  3
CVIEWSECTIONSTYLE
350
1B8
  3
DIMASSOC
350
67
  3
HIDETEXT
350
6B
  3
LAYEREVAL
350
14D
  3
LAYERNOTIFY
350
14E
  0
DICTIONARY
  5
22D1
102
{ACAD_REACTORS
330
C
102
}
330
C
100
AcDbDictionary
281
     1
  0
DICTIONARY
  5
18F
102
{ACAD_REACTORS
330
18E
102
}
330
18E
100
AcDbDictionary
281
     1
  0
SORTENTSTABLE
  5
28E
102
{ACAD_REACTORS
330
15D
102
}
330
15D
100
AcDbSortentsTable
330
1F
  0
ACDBDETAILVIEWSTYLE
  5
1AC
102
{ACAD_REACTORS
330
1AB
102
}
330
1AB
100
AcDbModelDocViewStyle
 70
     0
  3
Imperial24
290
     0
300
Imperial24
 90
        0
100
AcDbDetailViewStyle
 70
     0
 71
     0
 90
        3
 71
     1
340
11
 62
   256
 40
0.24
340
0
 62
   256
 40
0.24
300

 40
0.36
280
     3
 71
     2
340
16
 90
       25
 62
   256
 71
     3
340
11
 62
   256
 40
0.24
 90
        1
 40
0.75
 90
        1
300
%<\AcVar ViewType \f "%tc1">% %<\AcVar ViewDetailId>%\PSCALE %<\AcVar ViewScale \f "%sn">%
 71
     4
340
16
 90
       25
 62
   256
340
16
 90
       25
 62
   256
280
     0
  0
ACDBDETAILVIEWSTYLE
  5
224
102
{ACAD_REACTORS
330
1AB
102
}
330
1AB
100
AcDbModelDocViewStyle
 70
     0
  3
Metric50
290
     0
300
Metric50
 90
        0
100
AcDbDetailViewStyle
 70
     0
 71
     0
 90
        3
 71
     1
340
11
 62
   256
 40
5.0
340
0
 62
   256
 40
5.0
300

 40
0.0
280
     1
 71
     2
340
16
 90
       25
 62
   256
 71
     3
340
11
 62
   256
 40
5.0
 90
        0
 40
15.0
 90
        1
300
%<\AcVar ViewDetailId>% (%<\AcVar ViewScale \f "%sn">%)
 71
     4
340
16
 90
       25
 62
   256
340
16
 90
       25
 62
   256
280
     0
  0
LAYOUT
  5
59
102
{ACAD_REACTORS
330
1A
102
}
330
1A
100
AcDbPlotSettings
  1

  2
None
  4

  6

 40
0.0
 41
0.0
 42
0.0
 43
0.0
 44
0.0
 45
0.0
 46
0.0
 47
0.0
 48
0.0
 49
0.0
140
0.0
141
0.0
142
1.0
143
1.0
 70
   688
 72
     0
 73
     0
 74
     5
  7

 75
    16
147
1.0
 76
     0
 77
     2
 78
   300
148
0.0
149
0.0
100
AcDbLayout
  1
Layout1
 70
     1
 71
     1
 10
0.0
 20
0.0
 11
12.0
 21
9.0
 12
0.0
 22
0.0
 32
0.0
 14
0.0
 24
0.0
 34
0.0
 15
0.0
 25
0.0
 35
0.0
146
0.0
 13
0.0
 23
0.0
 33
0.0
 16
1.0
 26
0.0
 36
0.0
 17
0.0
 27
1.0
 37
0.0
 76
     0
330
58
  0
LAYOUT
  5
5E
102
{ACAD_REACTORS
330
1A
102
}
330
1A
100
AcDbPlotSettings
  1

  2
None
  4

  6

 40
0.0
 41
0.0
 42
0.0
 43
0.0
 44
0.0
 45
0.0
 46
0.0
 47
0.0
 48
0.0
 49
0.0
140
0.0
141
0.0
142
1.0
143
1.0
 70
   688
 72
     0
 73
     0
 74
     5
  7

 75
    16
147
1.0
 76
     0
 77
     2
 78
   300
148
0.0
149
0.0
100
AcDbLayout
  1
Layout2
 70
     1
 71
     2
 10
0.0
 20
0.0
 11
12.0
 21
9.0
 12
0.0
 22
0.0
 32
0.0
 14
0.0
 24
0.0
 34
0.0
 15
0.0
 25
0.0
 35
0.0
146
0.0
 13
0.0
 23
0.0
 33
0.0
 16
1.0
 26
0.0
 36
0.0
 17
0.0
 27
1.0
 37
0.0
 76
     0
330
5D
  0
LAYOUT
  5
22
102
{ACAD_XDICTIONARY
360
194
102
}
102
{ACAD_REACTORS
330
1A
102
}
330
1A
100
AcDbPlotSettings
  1

  2
none_device
  4
ANSI_A_(8.50_x_11.00_Inches)
  6

 40
6.349999904632568
 41
19.04999923706055
 42
6.350006103515625
 43
19.04998779296875
 44
215.8999938964844
 45
279.3999938964844
 46
0.0
 47
0.0
 48
0.0
 49
0.0
140
0.0
141
0.0
142
1.0
143
2.584895464708373
 70
 11952
 72
     0
 73
     1
 74
     0
  7

 75
     0
147
0.3868628397755418
 76
     0
 77
     2
 78
   300
148
0.0
149
0.0
100
AcDbLayout
  1
Model
 70
     1
 71
     0
 10
0.0
 20
0.0
 11
12.0
 21
9.0
 12
0.0
 22
0.0
 32
0.0
 14
0.0
 24
0.0
 34
0.0
 15
0.0
 25
0.0
 35
0.0
146
0.0
 13
0.0
 23
0.0
 33
0.0
 16
1.0
 26
0.0
 36
0.0
 17
0.0
 27
1.0
 37
0.0
 76
     0
330
1F
331
94
  0
MATERIAL
  5
97
102
{ACAD_XDICTIONARY
360
188
102
}
102
{ACAD_REACTORS
330
72
102
}
330
72
100
AcDbMaterial
  1
ByBlock
 94
       63
  0
MATERIAL
  5
96
102
{ACAD_XDICTIONARY
360
186
102
}
102
{ACAD_REACTORS
330
72
102
}
330
72
100
AcDbMaterial
  1
ByLayer
 94
       63
  0
MATERIAL
  5
98
102
{ACAD_XDICTIONARY
360
110
102
}
102
{ACAD_REACTORS
330
72
102
}
330
72
100
AcDbMaterial
  1
Global
 43
0.0208000000566244
 43
0.0
 43
0.0
 43
0.0
 43
0.0
 43
0.0208000000566244
 43
0.0
 43
0.0
 43
0.0
 43
0.0
 43
1.0
 43
0.0
 43
0.0
 43
0.0
 43
0.0
 43
1.0
 49
0.0208000000566244
 49
0.0
 49
0.0
 49
0.0
 49
0.0
 49
0.0208000000566244
 49
0.0
 49
0.0
 49
0.0
 49
0.0
 49
1.0
 49
0.0
 49
0.0
 49
0.0
 49
0.0
 49
1.0
142
0.0208000000566244
142
0.0
142
0.0
142
0.0
142
0.0
142
0.0208000000566244
142
0.0
142
0.0
142
0.0
142
0.0
142
1.0
142
0.0
142
0.0
142
0.0
142
0.0
142
1.0
144
0.0208000000566244
144
0.0
144
0.0
144
0.0
144
0.0
144
0.0208000000566244
144
0.0
144
0.0
144
0.0
144
0.0
144
1.0
144
0.0
144
0.0
144
0.0
144
0.0
144
1.0
 94
       63
1001
ACAD
1070
    -1
1070
     3
1070
     0
1000

1071
        0
1070
     0
  0
MLEADERSTYLE
  5
D8
102
{ACAD_REACTORS
330
D7
102
}
330
D7
100
AcDbMLeaderStyle
179
     2
170
     2
171
     1
172
     0
 90
        2
 40
0.0
 41
0.0
173
     1
 91
-1056964608
340
14
 92
       -2
290
     1
 42
0.09
291
     1
 43
0.36
  3
Standard
 44
0.18
300

342
11
174
     1
178
     1
175
     1
176
     0
 93
-1056964608
 45
0.18
292
     0
297
     0
 46
0.18
 94
-1056964608
 47
1.0
 49
1.0
140
1.0
293
     1
141
0.0
294
     1
177
     0
142
1.0
295
     0
296
     0
143
0.125
271
     0
272
     9
273
     9
298
     0
  0
MLINESTYLE
  5
18
102
{ACAD_REACTORS
330
17
102
}
330
17
100
AcDbMlineStyle
  2
STANDARD
 70
     0
  3

 62
   256
 51
90.0
 52
90.0
 71
     2
 49
0.5
 62
   256
  6
BYLAYER
 49
-0.5
 62
   256
  6
BYLAYER
  0
ACDBPLACEHOLDER
  5
F
102
{ACAD_REACTORS
330
E
102
}
330
E
  0
SCALE
  5
2283
102
{ACAD_REACTORS
330
B6
102
}
330
B6
100
AcDbScale
 70
     0
300
1:75
140
1.0
141
75.0
290
     0
  0
SCALE
  5
B7
102
{ACAD_REACTORS
330
B6
102
}
330
B6
100
AcDbScale
 70
     0
300
1:1
140
1.0
141
1.0
290
     1
  0
SCALE
  5
124
102
{ACAD_REACTORS
330
B6
102
}
330
B6
100
AcDbScale
 70
     0
300
1:2
140
1.0
141
2.0
290
     0
  0
SCALE
  5
125
102
{ACAD_REACTORS
330
B6
102
}
330
B6
100
AcDbScale
 70
     0
300
1:4
140
1.0
141
4.0
290
     0
  0
SCALE
  5
126
102
{ACAD_REACTORS
330
B6
102
}
330
B6
100
AcDbScale
 70
     0
300
1:5
140
1.0
141
5.0
290
     0
  0
SCALE
  5
127
102
{ACAD_REACTORS
330
B6
102
}
330
B6
100
AcDbScale
 70
     0
300
1:8
140
1.0
141
8.0
290
     0
  0
SCALE
  5
128
102
{ACAD_REACTORS
330
B6
102
}
330
B6
100
AcDbScale
 70
     0
300
1:10
140
1.0
141
10.0
290
     0
  0
SCALE
  5
129
102
{ACAD_REACTORS
330
B6
102
}
330
B6
100
AcDbScale
 70
     0
300
1:16
140
1.0
141
16.0
290
     0
  0
SCALE
  5
12A
102
{ACAD_REACTORS
330
B6
102
}
330
B6
100
AcDbScale
 70
     0
300
1:20
140
1.0
141
20.0
290
     0
  0
SCALE
  5
12B
102
{ACAD_REACTORS
330
B6
102
}
330
B6
100
AcDbScale
 70
     0
300
1:30
140
1.0
141
30.0
290
     0
  0
SCALE
  5
12C
102
{ACAD_REACTORS
330
B6
102
}
330
B6
100
AcDbScale
 70
     0
300
1:40
140
1.0
141
40.0
290
     0
  0
SCALE
  5
12D
102
{ACAD_REACTORS
330
B6
102
}
330
B6
100
AcDbScale
 70
     0
300
1:50
140
1.0
141
50.0
290
     0
  0
SCALE
  5
12E
102
{ACAD_REACTORS
330
B6
102
}
330
B6
100
AcDbScale
 70
     0
300
1:100
140
1.0
141
100.0
290
     0
  0
SCALE
  5
12F
102
{ACAD_REACTORS
330
B6
102
}
330
B6
100
AcDbScale
 70
     0
300
2:1
140
2.0
141
1.0
290
     0
  0
SCALE
  5
130
102
{ACAD_REACTORS
330
B6
102
}
330
B6
100
AcDbScale
 70
     0
300
4:1
140
4.0
141
1.0
290
     0
  0
SCALE
  5
131
102
{ACAD_REACTORS
330
B6
102
}
330
B6
100
AcDbScale
 70
     0
300
8:1
140
8.0
141
1.0
290
     0
  0
SCALE
  5
132
102
{ACAD_REACTORS
330
B6
102
}
330
B6
100
AcDbScale
 70
     0
300
10:1
140
10.0
141
1.0
290
     0
  0
SCALE
  5
133
102
{ACAD_REACTORS
330
B6
102
}
330
B6
100
AcDbScale
 70
     0
300
100:1
140
100.0
141
1.0
290
     0
  0
SCALE
  5
134
102
{ACAD_REACTORS
330
B6
102
}
330
B6
100
AcDbScale
 70
     0
300
1/128" = 1'-0"
140
0.0078125
141
12.0
290
     0
  0
SCALE
  5
135
102
{ACAD_REACTORS
330
B6
102
}
330
B6
100
AcDbScale
 70
     0
300
1/64" = 1'-0"
140
0.015625
141
12.0
290
     0
  0
SCALE
  5
136
102
{ACAD_REACTORS
330
B6
102
}
330
B6
100
AcDbScale
 70
     0
300
1/32" = 1'-0"
140
0.03125
141
12.0
290
     0
  0
SCALE
  5
137
102
{ACAD_REACTORS
330
B6
102
}
330
B6
100
AcDbScale
 70
     0
300
1/16" = 1'-0"
140
0.0625
141
12.0
290
     0
  0
SCALE
  5
138
102
{ACAD_REACTORS
330
B6
102
}
330
B6
100
AcDbScale
 70
     0
300
3/32" = 1'-0"
140
0.09375
141
12.0
290
     0
  0
SCALE
  5
139
102
{ACAD_REACTORS
330
B6
102
}
330
B6
100
AcDbScale
 70
     0
300
1/8" = 1'-0"
140
0.125
141
12.0
290
     0
  0
SCALE
  5
13A
102
{ACAD_REACTORS
330
B6
102
}
330
B6
100
AcDbScale
 70
     0
300
3/16" = 1'-0"
140
0.1875
141
12.0
290
     0
  0
SCALE
  5
13B
102
{ACAD_REACTORS
330
B6
102
}
330
B6
100
AcDbScale
 70
     0
300
1/4" = 1'-0"
140
0.25
141
12.0
290
     0
  0
SCALE
  5
13C
102
{ACAD_REACTORS
330
B6
102
}
330
B6
100
AcDbScale
 70
     0
300
3/8" = 1'-0"
140
0.375
141
12.0
290
     0
  0
SCALE
  5
13D
102
{ACAD_REACTORS
330
B6
102
}
330
B6
100
AcDbScale
 70
     0
300
1/2" = 1'-0"
140
0.5
141
12.0
290
     0
  0
SCALE
  5
13E
102
{ACAD_REACTORS
330
B6
102
}
330
B6
100
AcDbScale
 70
     0
300
3/4" = 1'-0"
140
0.75
141
12.0
290
     0
  0
SCALE
  5
13F
102
{ACAD_REACTORS
330
B6
102
}
330
B6
100
AcDbScale
 70
     0
300
1" = 1'-0"
140
1.0
141
12.0
290
     0
  0
SCALE
  5
140
102
{ACAD_REACTORS
330
B6
102
}
330
B6
100
AcDbScale
 70
     0
300
1-1/2" = 1'-0"
140
1.5
141
12.0
290
     0
  0
SCALE
  5
141
102
{ACAD_REACTORS
330
B6
102
}
330
B6
100
AcDbScale
 70
     0
300
3" = 1'-0"
140
3.0
141
12.0
290
     0
  0
SCALE
  5
142
102
{ACAD_REACTORS
330
B6
102
}
330
B6
100
AcDbScale
 70
     0
300
6" = 1'-0"
140
6.0
141
12.0
290
     0
  0
SCALE
  5
143
102
{ACAD_REACTORS
330
B6
102
}
330
B6
100
AcDbScale
 70
     0
300
1'-0" = 1'-0"
140
12.0
141
12.0
290
     0
  0
ACDBSECTIONVIEWSTYLE
  5
1AA
102
{ACAD_REACTORS
330
1A8
102
}
330
1A8
100
AcDbModelDocViewStyle
 70
     0
  3
Imperial24
290
     0
300
Imperial24
 90
        0
100
AcDbSectionViewStyle
 70
     0
 71
     0
 90
       78
 71
     1
340
11
 62
   256
 40
0.24
340
0
340
0
 62
   256
 40
0.24
300
I, O, Q, S, X, Z
 40
0.48
 90
        3
 40
0.18
 90
        1
 71
     2
340
16
 90
       25
 62
   256
340
16
 90
       50
 62
   256
 40
0.24
 40
0.0
 40
0.24
 71
     3
340
11
 62
   256
 40
0.24
 90
        1
 40
0.75
 90
        1
300
%<\AcVar ViewType \f "%tc1">% %<\AcVar ViewSectionStartId>%-%<\AcVar ViewSectionEndId>%\PSCALE %<\AcVar ViewScale \f "%sn">%
 71
     4
 62
   256
 62
   257
300
ANSI31
 40
1.0
 90
        0
290
     0
290
     0
 90
        6
 40
0.0
 40
1.570796326794896
 40
0.2617993877991494
 40
1.308996938995747
 40
-0.2617993877991494
 40
1.832595714594046
  0
ACDBSECTIONVIEWSTYLE
  5
223
102
{ACAD_REACTORS
330
1A8
102
}
330
1A8
100
AcDbModelDocViewStyle
 70
     0
  3
Metric50
290
     0
300
Metric50
 90
        0
100
AcDbSectionViewStyle
 70
     0
 71
     0
 90
      102
 71
     1
340
11
 62
   256
 40
5.0
340
0
340
0
 62
   256
 40
5.0
300
I, O, Q, S, X, Z
 40
10.0
 90
        0
 40
2.5
 90
        0
 71
     2
340
16
 90
       25
 62
   256
340
16
 90
       50
 62
   256
 40
5.0
 40
2.5
 40
5.0
 71
     3
340
11
 62
   256
 40
5.0
 90
        0
 40
15.0
 90
        1
300
%<\AcVar ViewSectionStartId>%-%<\AcVar ViewSectionEndId>% (%<\AcVar ViewScale \f "%sn">%)
 71
     4
 62
   256
 62
   257
300
ANSI31
 40
1.0
 90
        0
290
     0
290
     0
 90
        6
 40
0.0
 40
1.570796326794896
 40
0.2617993877991494
 40
1.308996938995747
 40
-0.2617993877991494
 40
1.832595714594046
  0
TABLESTYLE
  5
87
102
{ACAD_XDICTIONARY
360
104
102
}
102
{ACAD_REACTORS
330
86
102
}
330
86
100
AcDbTableStyle
280
     0
  3
Standard
 70
     0
 71
     0
 40
0.06
 41
0.06
280
     0
281
     0
  7
Standard
140
0.18
170
     2
 62
     0
 63
     7
283
     0
 90
      512
 91
        0
  1

274
    -2
284
     1
 64
     0
275
    -2
285
     1
 65
     0
276
    -2
286
     1
 66
     0
277
    -2
287
     1
 67
     0
278
    -2
288
     1
 68
     0
279
    -2
289
     1
 69
     0
  7
Standard
140
0.25
170
     5
 62
     0
 63
     7
283
     0
 90
      512
 91
        0
  1

274
    -2
284
     1
 64
     0
275
    -2
285
     1
 65
     0
276
    -2
286
     1
 66
     0
277
    -2
287
     1
 67
     0
278
    -2
288
     1
 68
     0
279
    -2
289
     1
 69
     0
  7
Standard
140
0.18
170
     5
 62
     0
 63
     7
283
     0
 90
      512
 91
        0
  1

274
    -2
284
     1
 64
     0
275
    -2
285
     1
 65
     0
276
    -2
286
     1
 66
     0
277
    -2
287
     1
 67
     0
278
    -2
288
     1
 68
     0
279
    -2
289
     1
 69
     0
  0
VISUALSTYLE
  5
9F
102
{ACAD_REACTORS
330
99
102
}
330
99
100
AcDbVisualStyle
  2
2dWireframe
 70
     4
177
     3
291
     0
 70
    58
 90
        0
176
     1
 90
        2
176
     1
 90
        1
176
     1
 90
        0
176
     1
 40
0.6
176
     1
 40
30.0
176
     1
 62
     7
420
 16777215
176
     1
 90
        1
176
     1
 90
        4
176
     1
 62
     7
176
     1
 62
   257
176
     1
 90
        1
176
     1
 90
        1
176
     1
 40
1.0
176
     1
 90
        0
176
     1
 62
   257
176
     1
 40
1.0
176
     1
 90
        1
176
     1
 90
        6
176
     1
 90
        2
176
     1
 62
     7
176
     1
 90
        5
176
     1
 90
        0
176
     1
 90
        0
176
     1
290
     0
176
     1
 90
        1
176
     1
 40
0.0
176
     1
 90
        0
176
     1
290
     1
176
     1
290
     1
176
     1
290
     0
176
     1
290
     0
176
     1
290
     0
176
     1
290
     0
176
     1
290
     0
176
     1
290
     0
176
     1
290
     0
176
     1
 90
       50
176
     1
 40
0.0
176
     1
 40
1.0
176
     1
 90
        0
176
     1
 62
    18
420
        0
176
     1
 90
       50
176
     1
 90
        3
176
     1
 62
     5
420
      255
176
     1
290
     0
176
     1
 90
       50
176
     1
 90
       50
176
     1
 90
       50
176
     1
290
     0
176
     1
 90
       50
176
     1
 62
   256
176
     0
 40
1.0
176
     0
 90
        2
176
     1
  1
strokes_ogs.tif
176
     1
290
     0
176
     1
 40
1.0
176
     1
 40
1.0
176
     1
  0
VISUALSTYLE
  5
22946
102
{ACAD_REACTORS
330
99
102
}
330
99
100
AcDbVisualStyle
  2
3dWireframe
 70
     5
177
     3
291
     0
 70
    58
 90
        0
176
     1
 90
        2
176
     1
 90
        0
176
     1
 90
        0
176
     1
 40
0.6
176
     1
 40
30.0
176
     1
 62
     7
176
     1
 90
        1
176
     1
 90
        4
176
     1
 62
     7
176
     1
 62
   257
176
     1
 90
        1
176
     1
 90
        1
176
     1
 40
1.0
176
     1
 90
        0
176
     1
 62
   257
176
     1
 40
1.0
176
     1
 90
        1
176
     1
 90
        6
176
     1
 90
        2
176
     1
 62
     7
176
     1
 90
        5
176
     1
 90
        0
176
     1
 90
        0
176
     1
290
     0
176
     1
 90
        1
176
     1
 40
0.0
176
     1
 90
        0
176
     1
290
     0
176
     1
290
     1
176
     1
290
     1
176
     1
290
     0
176
     1
290
     0
176
     1
290
     0
176
     1
290
     0
176
     1
290
     0
176
     1
290
     0
176
     1
 90
       50
176
     1
 40
0.0
176
     1
 40
1.0
176
     1
 90
        0
176
     1
 62
    18
420
        0
176
     1
 90
       50
176
     1
 90
        3
176
     1
 62
     5
420
      255
176
     1
290
     0
176
     1
 90
       50
176
     1
 90
       50
176
     1
 90
       50
176
     1
290
     0
176
     1
 90
       50
176
     1
 62
   256
176
     0
 40
1.0
176
     0
 90
        2
176
     1
  1
strokes_ogs.tif
176
     1
290
     0
176
     1
 40
1.0
176
     1
 40
1.0
176
     1
  0
VISUALSTYLE
  5
9E
102
{ACAD_REACTORS
330
99
102
}
330
99
100
AcDbVisualStyle
  2
Basic
 70
     7
177
     3
291
     1
 70
    58
 90
        1
176
     1
 90
        0
176
     1
 90
        1
176
     1
 90
        0
176
     1
 40
0.6
176
     1
 40
30.0
176
     1
 62
     7
420
 16777215
176
     1
 90
        0
176
     1
 90
        4
176
     1
 62
     7
176
     1
 62
   257
176
     1
 90
        1
176
     1
 90
        1
176
     1
 40
1.0
176
     1
 90
        8
176
     1
 62
     7
176
     1
 40
1.0
176
     1
 90
        1
176
     1
 90
        6
176
     1
 90
        2
176
     1
 62
     7
176
     1
 90
        5
176
     1
 90
        0
176
     1
 90
        0
176
     1
290
     0
176
     1
 90
        1
176
     1
 40
0.0
176
     1
 90
        0
176
     1
290
     0
176
     1
290
     1
176
     1
290
     1
176
     1
290
     0
176
     1
290
     0
176
     1
290
     0
176
     1
290
     0
176
     1
290
     0
176
     1
290
     0
176
     1
 90
       50
176
     1
 40
0.0
176
     1
 40
1.0
176
     1
 90
        0
176
     1
 62
    18
420
        0
176
     1
 90
       50
176
     1
 90
        3
176
     1
 62
     5
420
      255
176
     1
290
     0
176
     1
 90
       50
176
     1
 90
       50
176
     1
 90
       50
176
     1
290
     0
176
     1
 90
       50
176
     1
 62
   256
176
     0
 40
1.0
176
     0
 90
        2
176
     1
  1
strokes_ogs.tif
176
     1
290
     0
176
     1
 40
1.0
176
     1
 40
1.0
176
     1
  0
VISUALSTYLE
  5
A5
102
{ACAD_REACTORS
330
99
102
}
330
99
100
AcDbVisualStyle
  2
Brighten
 70
    12
177
     3
291
     1
 70
    58
 90
        2
176
     1
 90
        2
176
     1
 90
        1
176
     1
 90
        0
176
     1
 40
0.6
176
     1
 40
30.0
176
     1
 62
     7
420
 16777215
176
     1
 90
        1
176
     1
 90
        4
176
     1
 62
     7
176
     1
 62
   257
176
     1
 90
        1
176
     1
 90
        1
176
     1
 40
1.0
176
     1
 90
        8
176
     1
 62
     7
176
     1
 40
1.0
176
     1
 90
        1
176
     1
 90
        6
176
     1
 90
        2
176
     1
 62
     7
176
     1
 90
        5
176
     1
 90
        0
176
     1
 90
        0
176
     1
290
     0
176
     1
 90
        1
176
     1
 40
50.0
176
     1
 90
        0
176
     1
290
     0
176
     1
290
     1
176
     1
290
     1
176
     1
290
     0
176
     1
290
     0
176
     1
290
     0
176
     1
290
     0
176
     1
290
     0
176
     1
290
     0
176
     1
 90
       50
176
     1
 40
0.0
176
     1
 40
1.0
176
     1
 90
        0
176
     1
 62
    18
420
        0
176
     1
 90
       50
176
     1
 90
        3
176
     1
 62
     5
420
      255
176
     1
290
     0
176
     1
 90
       50
176
     1
 90
       50
176
     1
 90
       50
176
     1
290
     0
176
     1
 90
       50
176
     1
 62
   256
176
     0
 40
1.0
176
     0
 90
        2
176
     1
  1
strokes_ogs.tif
176
     1
290
     0
176
     1
 40
1.0
176
     1
 40
1.0
176
     1
  0
VISUALSTYLE
  5
A9
102
{ACAD_REACTORS
330
99
102
}
330
99
100
AcDbVisualStyle
  2
ColorChange
 70
    16
177
     3
291
     1
 70
    58
 90
        2
176
     1
 90
        2
176
     1
 90
        3
176
     1
 90
        0
176
     1
 40
0.6
176
     1
 40
30.0
176
     1
 62
     8
420
  8421504
176
     1
 90
        1
176
     1
 90
        4
176
     1
 62
     7
176
     1
 62
   257
176
     1
 90
        1
176
     1
 90
        1
176
     1
 40
1.0
176
     1
 90
        8
176
     1
 62
     8
420
  8421504
176
     1
 40
1.0
176
     1
 90
        1
176
     1
 90
        6
176
     1
 90
        2
176
     1
 62
     7
176
     1
 90
        5
176
     1
 90
        0
176
     1
 90
        0
176
     1
290
     0
176
     1
 90
        1
176
     1
 40
0.0
176
     1
 90
        0
176
     1
290
     0
176
     1
290
     1
176
     1
290
     1
176
     1
290
     0
176
     1
290
     0
176
     1
290
     0
176
     1
290
     0
176
     1
290
     0
176
     1
290
     0
176
     1
 90
       50
176
     1
 40
0.0
176
     1
 40
1.0
176
     1
 90
        0
176
     1
 62
    18
420
        0
176
     1
 90
       50
176
     1
 90
        3
176
     1
 62
     5
420
      255
176
     1
290
     0
176
     1
 90
       50
176
     1
 90
       50
176
     1
 90
       50
176
     1
290
     0
176
     1
 90
       50
176
     1
 62
   256
176
     0
 40
1.0
176
     0
 90
        2
176
     1
  1
strokes_ogs.tif
176
     1
290
     0
176
     1
 40
1.0
176
     1
 40
1.0
176
     1
  0
VISUALSTYLE
  5
A2
102
{ACAD_REACTORS
330
99
102
}
330
99
100
AcDbVisualStyle
  2
Conceptual
 70
     9
177
     3
291
     0
 70
    58
 90
        3
176
     1
 90
        2
176
     1
 90
        1
176
     1
 90
        0
176
     1
 40
0.6
176
     1
 40
30.0
176
     1
 62
     7
420
 16777215
176
     1
 90
        2
176
     1
 90
        2
176
     1
 62
     7
176
     1
 62
   257
176
     1
 90
        1
176
     1
 90
        1
176
     1
 40
40.0
176
     1
 90
        8
176
     1
 62
     7
176
     1
 40
1.0
176
     1
 90
        1
176
     1
 90
        6
176
     1
 90
        2
176
     1
 62
     7
176
     1
 90
        3
176
     1
 90
        0
176
     1
 90
        0
176
     1
290
     0
176
     1
 90
        1
176
     1
 40
0.0
176
     1
 90
        0
176
     1
290
     0
176
     1
290
     1
176
     1
290
     1
176
     1
290
     0
176
     1
290
     0
176
     1
290
     0
176
     1
290
     0
176
     1
290
     0
176
     1
290
     0
176
     1
 90
       50
176
     1
 40
0.0
176
     1
 40
1.0
176
     1
 90
        0
176
     1
 62
    18
420
        0
176
     1
 90
       50
176
     1
 90
        3
176
     1
 62
     5
420
      255
176
     1
290
     0
176
     1
 90
       50
176
     1
 90
       50
176
     1
 90
       50
176
     1
290
     0
176
     1
 90
       50
176
     1
 62
   256
176
     0
 40
1.0
176
     0
 90
        2
176
     1
  1
strokes_ogs.tif
176
     1
290
     0
176
     1
 40
1.0
176
     1
 40
1.0
176
     1
  0
VISUALSTYLE
  5
A4
102
{ACAD_REACTORS
330
99
102
}
330
99
100
AcDbVisualStyle
  2
Dim
 70
    11
177
     3
291
     1
 70
    58
 90
        2
176
     1
 90
        2
176
     1
 90
        1
176
     1
 90
        0
176
     1
 40
0.6
176
     1
 40
30.0
176
     1
 62
     7
420
 16777215
176
     1
 90
        1
176
     1
 90
        4
176
     1
 62
     7
176
     1
 62
   257
176
     1
 90
        1
176
     1
 90
        1
176
     1
 40
1.0
176
     1
 90
        8
176
     1
 62
     7
176
     1
 40
1.0
176
     1
 90
        1
176
     1
 90
        6
176
     1
 90
        2
176
     1
 62
     7
176
     1
 90
        5
176
     1
 90
        0
176
     1
 90
        0
176
     1
290
     0
176
     1
 90
        1
176
     1
 40
-50.0
176
     1
 90
        0
176
     1
290
     0
176
     1
290
     1
176
     1
290
     1
176
     1
290
     0
176
     1
290
     0
176
     1
290
     0
176
     1
290
     0
176
     1
290
     0
176
     1
290
     0
176
     1
 90
       50
176
     1
 40
0.0
176
     1
 40
1.0
176
     1
 90
        0
176
     1
 62
    18
420
        0
176
     1
 90
       50
176
     1
 90
        3
176
     1
 62
     5
420
      255
176
     1
290
     0
176
     1
 90
       50
176
     1
 90
       50
176
     1
 90
       50
176
     1
290
     0
176
     1
 90
       50
176
     1
 62
   256
176
     0
 40
1.0
176
     0
 90
        2
176
     1
  1
strokes_ogs.tif
176
     1
290
     0
176
     1
 40
1.0
176
     1
 40
1.0
176
     1
  0
VISUALSTYLE
  5
175
102
{ACAD_REACTORS
330
99
102
}
330
99
100
AcDbVisualStyle
  2
EdgeColorOff
 70
    22
177
     3
291
     1
 70
    58
 90
        2
176
     0
 90
        2
176
     0
 90
        0
176
     0
 90
        0
176
     0
 40
0.6
176
     0
 40
30.0
176
     0
 62
     7
420
 16777215
176
     0
 90
        1
176
     0
 90
        4
176
     0
 62
     7
176
     0
 62
   257
176
     0
 90
        1
176
     0
 90
        1
176
     0
 40
1.0
176
     0
 90
        8
176
     2
 62
     7
176
     0
 40
1.0
176
     0
 90
        1
176
     0
 90
        6
176
     0
 90
        2
176
     0
 62
     7
176
     0
 90
        5
176
     0
 90
        0
176
     0
 90
        0
176
     0
290
     0
176
     0
 90
        1
176
     0
 40
0.0
176
     0
 90
        0
176
     0
290
     0
176
     1
290
     1
176
     1
290
     1
176
     1
290
     0
176
     1
290
     0
176
     1
290
     0
176
     1
290
     0
176
     1
290
     0
176
     1
290
     0
176
     1
 90
       50
176
     1
 40
0.0
176
     1
 40
1.0
176
     1
 90
        0
176
     1
 62
    18
420
        0
176
     1
 90
       50
176
     1
 90
        3
176
     1
 62
     5
420
      255
176
     1
290
     0
176
     1
 90
       50
176
     1
 90
       50
176
     1
 90
       50
176
     1
290
     0
176
     1
 90
       50
176
     1
 62
   256
176
     0
 40
1.0
176
     0
 90
        2
176
     1
  1
strokes_ogs.tif
176
     1
290
     0
176
     1
 40
1.0
176
     1
 40
1.0
176
     1
  0
VISUALSTYLE
  5
A8
102
{ACAD_REACTORS
330
99
102
}
330
99
100
AcDbVisualStyle
  2
Facepattern
 70
    15
177
     3
291
     1
 70
    58
 90
        2
176
     1
 90
        2
176
     1
 90
        1
176
     1
 90
        0
176
     1
 40
0.6
176
     1
 40
30.0
176
     1
 62
     7
420
 16777215
176
     1
 90
        1
176
     1
 90
        4
176
     1
 62
     7
176
     1
 62
   257
176
     1
 90
        1
176
     1
 90
        1
176
     1
 40
1.0
176
     1
 90
        8
176
     1
 62
     7
176
     1
 40
1.0
176
     1
 90
        1
176
     1
 90
        6
176
     1
 90
        2
176
     1
 62
     7
176
     1
 90
        5
176
     1
 90
        0
176
     1
 90
        0
176
     1
290
     0
176
     1
 90
        1
176
     1
 40
0.0
176
     1
 90
        0
176
     1
290
     0
176
     1
290
     1
176
     1
290
     1
176
     1
290
     0
176
     1
290
     0
176
     1
290
     0
176
     1
290
     0
176
     1
290
     0
176
     1
290
     0
176
     1
 90
       50
176
     1
 40
0.0
176
     1
 40
1.0
176
     1
 90
        0
176
     1
 62
    18
420
        0
176
     1
 90
       50
176
     1
 90
        3
176
     1
 62
     5
420
      255
176
     1
290
     0
176
     1
 90
       50
176
     1
 90
       50
176
     1
 90
       50
176
     1
290
     0
176
     1
 90
       50
176
     1
 62
   256
176
     0
 40
1.0
176
     0
 90
        2
176
     1
  1
strokes_ogs.tif
176
     1
290
     0
176
     1
 40
1.0
176
     1
 40
1.0
176
     1
  0
VISUALSTYLE
  5
9A
102
{ACAD_REACTORS
330
99
102
}
330
99
100
AcDbVisualStyle
  2
Flat
 70
     0
177
     3
291
     1
 70
    58
 90
        2
176
     1
 90
        1
176
     1
 90
        1
176
     1
 90
        2
176
     1
 40
0.6
176
     1
 40
30.0
176
     1
 62
     7
420
 16777215
176
     1
 90
        0
176
     1
 90
        0
176
     1
 62
     7
176
     1
 62
   257
176
     1
 90
        1
176
     1
 90
        1
176
     1
 40
1.0
176
     1
 90
        8
176
     1
 62
     7
176
     1
 40
1.0
176
     1
 90
        1
176
     1
 90
        6
176
     1
 90
        2
176
     1
 62
     7
176
     1
 90
        5
176
     1
 90
        0
176
     1
 90
        0
176
     1
290
     0
176
     1
 90
       13
176
     1
 40
0.0
176
     1
 90
        0
176
     1
290
     0
176
     1
290
     1
176
     1
290
     1
176
     1
290
     0
176
     1
290
     0
176
     1
290
     0
176
     1
290
     0
176
     1
290
     0
176
     1
290
     0
176
     1
 90
       50
176
     1
 40
0.0
176
     1
 40
1.0
176
     1
 90
        0
176
     1
 62
    18
420
        0
176
     1
 90
       50
176
     1
 90
        3
176
     1
 62
     5
420
      255
176
     1
290
     0
176
     1
 90
       50
176
     1
 90
       50
176
     1
 90
       50
176
     1
290
     0
176
     1
 90
       50
176
     1
 62
   256
176
     0
 40
1.0
176
     0
 90
        2
176
     1
  1
strokes_ogs.tif
176
     1
290
     0
176
     1
 40
1.0
176
     1
 40
1.0
176
     1
  0
VISUALSTYLE
  5
9B
102
{ACAD_REACTORS
330
99
102
}
330
99
100
AcDbVisualStyle
  2
FlatWithEdges
 70
     1
177
     3
291
     1
 70
    58
 90
        2
176
     1
 90
        1
176
     1
 90
        1
176
     1
 90
        2
176
     1
 40
0.6
176
     1
 40
30.0
176
     1
 62
     7
420
 16777215
176
     1
 90
        1
176
     1
 90
        0
176
     1
 62
     7
176
     1
 62
   257
176
     1
 90
        1
176
     1
 90
        1
176
     1
 40
1.0
176
     1
 90
        0
176
     1
 62
   257
176
     1
 40
1.0
176
     1
 90
        1
176
     1
 90
        6
176
     1
 90
        2
176
     1
 62
     7
176
     1
 90
        5
176
     1
 90
        0
176
     1
 90
        0
176
     1
290
     0
176
     1
 90
       13
176
     1
 40
0.0
176
     1
 90
        0
176
     1
290
     0
176
     1
290
     1
176
     1
290
     1
176
     1
290
     0
176
     1
290
     0
176
     1
290
     0
176
     1
290
     0
176
     1
290
     0
176
     1
290
     0
176
     1
 90
       50
176
     1
 40
0.0
176
     1
 40
1.0
176
     1
 90
        0
176
     1
 62
    18
420
        0
176
     1
 90
       50
176
     1
 90
        3
176
     1
 62
     5
420
      255
176
     1
290
     0
176
     1
 90
       50
176
     1
 90
       50
176
     1
 90
       50
176
     1
290
     0
176
     1
 90
       50
176
     1
 62
   256
176
     0
 40
1.0
176
     0
 90
        2
176
     1
  1
strokes_ogs.tif
176
     1
290
     0
176
     1
 40
1.0
176
     1
 40
1.0
176
     1
  0
VISUALSTYLE
  5
9C
102
{ACAD_REACTORS
330
99
102
}
330
99
100
AcDbVisualStyle
  2
Gouraud
 70
     2
177
     3
291
     1
 70
    58
 90
        2
176
     1
 90
        2
176
     1
 90
        1
176
     1
 90
        2
176
     1
 40
0.6
176
     1
 40
30.0
176
     1
 62
     7
420
 16777215
176
     1
 90
        0
176
     1
 90
        0
176
     1
 62
     7
176
     1
 62
   257
176
     1
 90
        1
176
     1
 90
        1
176
     1
 40
1.0
176
     1
 90
        0
176
     1
 62
     7
176
     1
 40
1.0
176
     1
 90
        1
176
     1
 90
        6
176
     1
 90
        2
176
     1
 62
     7
176
     1
 90
        5
176
     1
 90
        0
176
     1
 90
        0
176
     1
290
     0
176
     1
 90
       13
176
     1
 40
0.0
176
     1
 90
        0
176
     1
290
     0
176
     1
290
     1
176
     1
290
     1
176
     1
290
     0
176
     1
290
     0
176
     1
290
     0
176
     1
290
     0
176
     1
290
     0
176
     1
290
     0
176
     1
 90
       50
176
     1
 40
0.0
176
     1
 40
1.0
176
     1
 90
        0
176
     1
 62
    18
420
        0
176
     1
 90
       50
176
     1
 90
        3
176
     1
 62
     5
420
      255
176
     1
290
     0
176
     1
 90
       50
176
     1
 90
       50
176
     1
 90
       50
176
     1
290
     0
176
     1
 90
       50
176
     1
 62
   256
176
     0
 40
1.0
176
     0
 90
        2
176
     1
  1
strokes_ogs.tif
176
     1
290
     0
176
     1
 40
1.0
176
     1
 40
1.0
176
     1
  0
VISUALSTYLE
  5
9D
102
{ACAD_REACTORS
330
99
102
}
330
99
100
AcDbVisualStyle
  2
GouraudWithEdges
 70
     3
177
     3
291
     1
 70
    58
 90
        2
176
     1
 90
        2
176
     1
 90
        1
176
     1
 90
        2
176
     1
 40
0.6
176
     1
 40
30.0
176
     1
 62
     7
420
 16777215
176
     1
 90
        1
176
     1
 90
        0
176
     1
 62
     7
176
     1
 62
   257
176
     1
 90
        1
176
     1
 90
        1
176
     1
 40
1.0
176
     1
 90
        0
176
     1
 62
   257
176
     1
 40
1.0
176
     1
 90
        1
176
     1
 90
        6
176
     1
 90
        2
176
     1
 62
     7
176
     1
 90
        5
176
     1
 90
        0
176
     1
 90
        0
176
     1
290
     0
176
     1
 90
       13
176
     1
 40
0.0
176
     1
 90
        0
176
     1
290
     0
176
     1
290
     1
176
     1
290
     1
176
     1
290
     0
176
     1
290
     0
176
     1
290
     0
176
     1
290
     0
176
     1
290
     0
176
     1
290
     0
176
     1
 90
       50
176
     1
 40
0.0
176
     1
 40
1.0
176
     1
 90
        0
176
     1
 62
    18
420
        0
176
     1
 90
       50
176
     1
 90
        3
176
     1
 62
     5
420
      255
176
     1
290
     0
176
     1
 90
       50
176
     1
 90
       50
176
     1
 90
       50
176
     1
290
     0
176
     1
 90
       50
176
     1
 62
   256
176
     0
 40
1.0
176
     0
 90
        2
176
     1
  1
strokes_ogs.tif
176
     1
290
     0
176
     1
 40
1.0
176
     1
 40
1.0
176
     1
  0
VISUALSTYLE
  5
A1
102
{ACAD_REACTORS
330
99
102
}
330
99
100
AcDbVisualStyle
  2
Hidden
 70
     6
177
     3
291
     0
 70
    58
 90
        1
176
     1
 90
        2
176
     1
 90
        2
176
     1
 90
        0
176
     1
 40
0.6
176
     1
 40
30.0
176
     1
 62
     7
420
 16777215
176
     1
 90
        2
176
     1
 90
        2
176
     1
 62
     7
176
     1
 62
   257
176
     1
 90
        2
176
     1
 90
        1
176
     1
 40
40.0
176
     1
 90
        0
176
     1
 62
   257
176
     1
 40
1.0
176
     1
 90
        1
176
     1
 90
        6
176
     1
 90
        2
176
     1
 62
     7
176
     1
 90
        3
176
     1
 90
        0
176
     1
 90
        0
176
     1
290
     0
176
     1
 90
        1
176
     1
 40
0.0
176
     1
 90
        0
176
     1
290
     0
176
     1
290
     1
176
     1
290
     1
176
     1
290
     0
176
     1
290
     0
176
     1
290
     0
176
     1
290
     0
176
     1
290
     0
176
     1
290
     0
176
     1
 90
       50
176
     1
 40
0.0
176
     1
 40
1.0
176
     1
 90
        0
176
     1
 62
    18
420
        0
176
     1
 90
       50
176
     1
 90
        3
176
     1
 62
     5
420
      255
176
     1
290
     0
176
     1
 90
       50
176
     1
 90
       50
176
     1
 90
       50
176
     1
290
     0
176
     1
 90
       50
176
     1
 62
   256
176
     0
 40
1.0
176
     0
 90
        2
176
     1
  1
strokes_ogs.tif
176
     1
290
     0
176
     1
 40
1.0
176
     1
 40
1.0
176
     1
  0
VISUALSTYLE
  5
173
102
{ACAD_REACTORS
330
99
102
}
330
99
100
AcDbVisualStyle
  2
JitterOff
 70
    20
177
     3
291
     1
 70
    58
 90
        2
176
     0
 90
        2
176
     0
 90
        0
176
     0
 90
        0
176
     0
 40
0.6
176
     0
 40
30.0
176
     0
 62
     7
420
 16777215
176
     0
 90
        1
176
     0
 90
        4
176
     0
 62
     7
176
     0
 62
   257
176
     0
 90
        1
176
     0
 90
        1
176
     0
 40
1.0
176
     0
 90
       10
176
     2
 62
     7
176
     0
 40
1.0
176
     0
 90
        1
176
     0
 90
        6
176
     0
 90
        2
176
     0
 62
     7
176
     0
 90
        5
176
     0
 90
        0
176
     0
 90
        0
176
     0
290
     0
176
     0
 90
        1
176
     0
 40
0.0
176
     0
 90
        0
176
     0
290
     0
176
     1
290
     1
176
     1
290
     1
176
     1
290
     0
176
     1
290
     0
176
     1
290
     0
176
     1
290
     0
176
     1
290
     0
176
     1
290
     0
176
     1
 90
       50
176
     1
 40
0.0
176
     1
 40
1.0
176
     1
 90
        0
176
     1
 62
    18
420
        0
176
     1
 90
       50
176
     1
 90
        3
176
     1
 62
     5
420
      255
176
     1
290
     0
176
     1
 90
       50
176
     1
 90
       50
176
     1
 90
       50
176
     1
290
     0
176
     1
 90
       50
176
     1
 62
   256
176
     0
 40
1.0
176
     0
 90
        2
176
     1
  1
strokes_ogs.tif
176
     1
290
     0
176
     1
 40
1.0
176
     1
 40
1.0
176
     1
  0
VISUALSTYLE
  5
A7
102
{ACAD_REACTORS
330
99
102
}
330
99
100
AcDbVisualStyle
  2
Linepattern
 70
    14
177
     3
291
     1
 70
    58
 90
        2
176
     1
 90
        2
176
     1
 90
        1
176
     1
 90
        0
176
     1
 40
0.6
176
     1
 40
30.0
176
     1
 62
     7
420
 16777215
176
     1
 90
        1
176
     1
 90
        4
176
     1
 62
     7
176
     1
 62
   257
176
     1
 90
        7
176
     1
 90
        7
176
     1
 40
1.0
176
     1
 90
        8
176
     1
 62
     7
176
     1
 40
1.0
176
     1
 90
        1
176
     1
 90
        6
176
     1
 90
        2
176
     1
 62
     7
176
     1
 90
        5
176
     1
 90
        0
176
     1
 90
        0
176
     1
290
     0
176
     1
 90
        1
176
     1
 40
0.0
176
     1
 90
        0
176
     1
290
     0
176
     1
290
     1
176
     1
290
     1
176
     1
290
     0
176
     1
290
     0
176
     1
290
     0
176
     1
290
     0
176
     1
290
     0
176
     1
290
     0
176
     1
 90
       50
176
     1
 40
0.0
176
     1
 40
1.0
176
     1
 90
        0
176
     1
 62
    18
420
        0
176
     1
 90
       50
176
     1
 90
        3
176
     1
 62
     5
420
      255
176
     1
290
     0
176
     1
 90
       50
176
     1
 90
       50
176
     1
 90
       50
176
     1
290
     0
176
     1
 90
       50
176
     1
 62
   256
176
     0
 40
1.0
176
     0
 90
        2
176
     1
  1
strokes_ogs.tif
176
     1
290
     0
176
     1
 40
1.0
176
     1
 40
1.0
176
     1
  0
VISUALSTYLE
  5
174
102
{ACAD_REACTORS
330
99
102
}
330
99
100
AcDbVisualStyle
  2
OverhangOff
 70
    21
177
     3
291
     1
 70
    58
 90
        2
176
     0
 90
        2
176
     0
 90
        0
176
     0
 90
        0
176
     0
 40
0.6
176
     0
 40
30.0
176
     0
 62
     7
420
 16777215
176
     0
 90
        1
176
     0
 90
        4
176
     0
 62
     7
176
     0
 62
   257
176
     0
 90
        1
176
     0
 90
        1
176
     0
 40
1.0
176
     0
 90
        9
176
     2
 62
     7
176
     0
 40
1.0
176
     0
 90
        1
176
     0
 90
        6
176
     0
 90
        2
176
     0
 62
     7
176
     0
 90
        5
176
     0
 90
        0
176
     0
 90
        0
176
     0
290
     0
176
     0
 90
        1
176
     0
 40
0.0
176
     0
 90
        0
176
     0
290
     0
176
     1
290
     1
176
     1
290
     1
176
     1
290
     0
176
     1
290
     0
176
     1
290
     0
176
     1
290
     0
176
     1
290
     0
176
     1
290
     0
176
     1
 90
       50
176
     1
 40
0.0
176
     1
 40
1.0
176
     1
 90
        0
176
     1
 62
    18
420
        0
176
     1
 90
       50
176
     1
 90
        3
176
     1
 62
     5
420
      255
176
     1
290
     0
176
     1
 90
       50
176
     1
 90
       50
176
     1
 90
       50
176
     1
290
     0
176
     1
 90
       50
176
     1
 62
   256
176
     0
 40
1.0
176
     0
 90
        2
176
     1
  1
strokes_ogs.tif
176
     1
290
     0
176
     1
 40
1.0
176
     1
 40
1.0
176
     1
  0
VISUALSTYLE
  5
A3
102
{ACAD_REACTORS
330
99
102
}
330
99
100
AcDbVisualStyle
  2
Realistic
 70
     8
177
     3
291
     0
 70
    58
 90
        2
176
     1
 90
        2
176
     1
 90
        0
176
     1
 90
        2
176
     1
 40
0.6
176
     1
 40
30.0
176
     1
 62
     7
420
 16777215
176
     1
 90
        0
176
     1
 90
        0
176
     1
 62
     7
176
     1
 62
   257
176
     1
 90
        1
176
     1
 90
        1
176
     1
 40
1.0
176
     1
 90
        8
176
     1
 62
   257
176
     1
 40
1.0
176
     1
 90
        1
176
     1
 90
        6
176
     1
 90
        2
176
     1
 62
     7
176
     1
 90
        3
176
     1
 90
        0
176
     1
 90
        0
176
     1
290
     0
176
     1
 90
       13
176
     1
 40
0.0
176
     1
 90
        0
176
     1
290
     0
176
     1
290
     1
176
     1
290
     1
176
     1
290
     0
176
     1
290
     0
176
     1
290
     0
176
     1
290
     0
176
     1
290
     0
176
     1
290
     0
176
     1
 90
       50
176
     1
 40
0.0
176
     1
 40
1.0
176
     1
 90
        0
176
     1
 62
    18
420
        0
176
     1
 90
       50
176
     1
 90
        3
176
     1
 62
     5
420
      255
176
     1
290
     0
176
     1
 90
       50
176
     1
 90
       50
176
     1
 90
       50
176
     1
290
     0
176
     1
 90
       50
176
     1
 62
   256
176
     0
 40
1.0
176
     0
 90
        2
176
     1
  1
strokes_ogs.tif
176
     1
290
     0
176
     1
 40
1.0
176
     1
 40
1.0
176
     1
  0
VISUALSTYLE
  5
182
102
{ACAD_REACTORS
330
99
102
}
330
99
100
AcDbVisualStyle
  2
Shaded
 70
    27
177
     3
291
     0
 70
    58
 90
        2
176
     1
 90
        2
176
     1
 90
        1
176
     1
 90
        2
176
     1
 40
0.6
176
     1
 40
30.0
176
     1
 62
     7
420
 16777215
176
     1
 90
        0
176
     1
 90
        4
176
     1
 62
     7
176
     1
 62
   257
176
     1
 90
        1
176
     1
 90
        1
176
     1
 40
1.0
176
     1
 90
        8
176
     1
 62
   257
176
     1
 40
1.0
176
     1
 90
        1
176
     1
 90
        6
176
     1
 90
        2
176
     1
 62
     8
420
  7895160
176
     1
 90
        3
176
     1
 90
        0
176
     1
 90
        0
176
     1
290
     0
176
     1
 90
        5
176
     1
 40
0.0
176
     1
 90
        0
176
     1
290
     0
176
     1
290
     1
176
     1
290
     1
176
     1
290
     0
176
     1
290
     0
176
     1
290
     0
176
     1
290
     0
176
     1
290
     0
176
     1
290
     0
176
     1
 90
       50
176
     1
 40
0.0
176
     1
 40
1.0
176
     1
 90
        0
176
     1
 62
    18
420
        0
176
     1
 90
       50
176
     1
 90
        3
176
     1
 62
     5
420
      255
176
     1
290
     0
176
     1
 90
       50
176
     1
 90
       50
176
     1
 90
       50
176
     1
290
     0
176
     1
 90
       50
176
     1
 62
   256
176
     0
 40
1.0
176
     0
 90
        2
176
     1
  1
strokes_ogs.tif
176
     1
290
     0
176
     1
 40
1.0
176
     1
 40
1.0
176
     1
  0
VISUALSTYLE
  5
181
102
{ACAD_REACTORS
330
99
102
}
330
99
100
AcDbVisualStyle
  2
Shaded with edges
 70
    26
177
     3
291
     0
 70
    58
 90
        2
176
     1
 90
        2
176
     1
 90
        1
176
     1
 90
        2
176
     1
 40
0.6
176
     1
 40
30.0
176
     1
 62
     7
420
 16777215
176
     1
 90
        1
176
     1
 90
        2
176
     1
 62
     7
176
     1
 62
   257
176
     1
 90
        2
176
     1
 90
        1
176
     1
 40
1.0
176
     1
 90
        8
176
     1
 62
   257
176
     1
 40
1.0
176
     1
 90
        1
176
     1
 90
        6
176
     1
 90
        2
176
     1
 62
     7
176
     1
 90
        3
176
     1
 90
        0
176
     1
 90
        0
176
     1
290
     0
176
     1
 90
        5
176
     1
 40
0.0
176
     1
 90
        0
176
     1
290
     0
176
     1
290
     1
176
     1
290
     1
176
     1
290
     0
176
     1
290
     0
176
     1
290
     0
176
     1
290
     0
176
     1
290
     0
176
     1
290
     0
176
     1
 90
       50
176
     1
 40
0.0
176
     1
 40
1.0
176
     1
 90
        0
176
     1
 62
    18
420
        0
176
     1
 90
       50
176
     1
 90
        3
176
     1
 62
     5
420
      255
176
     1
290
     0
176
     1
 90
       50
176
     1
 90
       50
176
     1
 90
       50
176
     1
290
     0
176
     1
 90
       50
176
     1
 62
   256
176
     0
 40
1.0
176
     0
 90
        2
176
     1
  1
strokes_ogs.tif
176
     1
290
     0
176
     1
 40
1.0
176
     1
 40
1.0
176
     1
  0
VISUALSTYLE
  5
17E
102
{ACAD_REACTORS
330
99
102
}
330
99
100
AcDbVisualStyle
  2
Shades of Gray
 70
    23
177
     3
291
     0
 70
    58
 90
        2
176
     1
 90
        2
176
     1
 90
        3
176
     1
 90
        0
176
     1
 40
0.6
176
     1
 40
30.0
176
     1
 62
     7
420
 16777215
176
     1
 90
        2
176
     1
 90
        2
176
     1
 62
     7
176
     1
 62
     7
176
     1
 90
        1
176
     1
 90
        1
176
     1
 40
40.0
176
     1
 90
        8
176
     1
 62
     7
176
     1
 40
1.0
176
     1
 90
        1
176
     1
 90
        6
176
     1
 90
        2
176
     1
 62
     7
176
     1
 90
        3
176
     1
 90
        0
176
     1
 90
        0
176
     1
290
     0
176
     1
 90
        1
176
     1
 40
0.0
176
     1
 90
        0
176
     1
290
     0
176
     1
290
     1
176
     1
290
     1
176
     1
290
     0
176
     1
290
     0
176
     1
290
     0
176
     1
290
     0
176
     1
290
     0
176
     1
290
     0
176
     1
 90
       50
176
     1
 40
0.0
176
     1
 40
1.0
176
     1
 90
        0
176
     1
 62
    18
420
        0
176
     1
 90
       50
176
     1
 90
        3
176
     1
 62
     5
420
      255
176
     1
290
     0
176
     1
 90
       50
176
     1
 90
       50
176
     1
 90
       50
176
     1
290
     0
176
     1
 90
       50
176
     1
 62
   256
176
     0
 40
1.0
176
     0
 90
        2
176
     1
  1
strokes_ogs.tif
176
     1
290
     0
176
     1
 40
1.0
176
     1
 40
1.0
176
     1
  0
VISUALSTYLE
  5
17F
102
{ACAD_REACTORS
330
99
102
}
330
99
100
AcDbVisualStyle
  2
Sketchy
 70
    24
177
     3
291
     0
 70
    58
 90
        1
176
     1
 90
        2
176
     1
 90
        2
176
     1
 90
        0
176
     1
 40
0.6
176
     1
 40
30.0
176
     1
 62
     7
420
 16777215
176
     1
 90
        2
176
     1
 90
        2
176
     1
 62
     7
176
     1
 62
     7
176
     1
 90
        1
176
     1
 90
        1
176
     1
 40
40.0
176
     1
 90
       11
176
     1
 62
     7
176
     1
 40
1.0
176
     1
 90
        1
176
     1
 90
        6
176
     1
 90
        2
176
     1
 62
     7
176
     1
 90
        6
176
     1
 90
        0
176
     1
 90
        0
176
     1
290
     0
176
     1
 90
        1
176
     1
 40
0.0
176
     1
 90
        0
176
     1
290
     0
176
     1
290
     1
176
     1
290
     1
176
     1
290
     0
176
     1
290
     0
176
     1
290
     0
176
     1
290
     0
176
     1
290
     0
176
     1
290
     0
176
     1
 90
       50
176
     1
 40
0.0
176
     1
 40
1.0
176
     1
 90
        0
176
     1
 62
    18
420
        0
176
     1
 90
       50
176
     1
 90
        3
176
     1
 62
     5
420
      255
176
     1
290
     0
176
     1
 90
       50
176
     1
 90
       50
176
     1
 90
       50
176
     1
290
     0
176
     1
 90
       50
176
     1
 62
   256
176
     0
 40
1.0
176
     0
 90
        2
176
     1
  1
strokes_ogs.tif
176
     1
290
     0
176
     1
 40
1.0
176
     1
 40
1.0
176
     1
  0
VISUALSTYLE
  5
A6
102
{ACAD_REACTORS
330
99
102
}
330
99
100
AcDbVisualStyle
  2
Thicken
 70
    13
177
     3
291
     1
 70
    58
 90
        2
176
     1
 90
        2
176
     1
 90
        1
176
     1
 90
        0
176
     1
 40
0.6
176
     1
 40
30.0
176
     1
 62
     7
420
 16777215
176
     1
 90
        1
176
     1
 90
        4
176
     1
 62
     7
176
     1
 62
   257
176
     1
 90
        1
176
     1
 90
        1
176
     1
 40
1.0
176
     1
 90
       12
176
     1
 62
     7
176
     1
 40
1.0
176
     1
 90
        1
176
     1
 90
        6
176
     1
 90
        2
176
     1
 62
     7
176
     1
 90
        5
176
     1
 90
        0
176
     1
 90
        0
176
     1
290
     0
176
     1
 90
        1
176
     1
 40
0.0
176
     1
 90
        0
176
     1
290
     0
176
     1
290
     1
176
     1
290
     1
176
     1
290
     0
176
     1
290
     0
176
     1
290
     0
176
     1
290
     0
176
     1
290
     0
176
     1
290
     0
176
     1
 90
       50
176
     1
 40
0.0
176
     1
 40
1.0
176
     1
 90
        0
176
     1
 62
    18
420
        0
176
     1
 90
       50
176
     1
 90
        3
176
     1
 62
     5
420
      255
176
     1
290
     0
176
     1
 90
       50
176
     1
 90
       50
176
     1
 90
       50
176
     1
290
     0
176
     1
 90
       50
176
     1
 62
   256
176
     0
 40
1.0
176
     0
 90
        2
176
     1
  1
strokes_ogs.tif
176
     1
290
     0
176
     1
 40
1.0
176
     1
 40
1.0
176
     1
  0
VISUALSTYLE
  5
A0
102
{ACAD_REACTORS
330
99
102
}
330
99
100
AcDbVisualStyle
  2
Wireframe
 70
     5
177
     3
291
     0
 70
    58
 90
        0
176
     1
 90
        2
176
     1
 90
        0
176
     1
 90
        0
176
     1
 40
0.6
176
     1
 40
30.0
176
     1
 62
     7
420
 16777215
176
     1
 90
        1
176
     1
 90
        4
176
     1
 62
     7
176
     1
 62
   257
176
     1
 90
        1
176
     1
 90
        1
176
     1
 40
1.0
176
     1
 90
        0
176
     1
 62
   257
176
     1
 40
1.0
176
     1
 90
        1
176
     1
 90
        6
176
     1
 90
        2
176
     1
 62
     7
176
     1
 90
        3
176
     1
 90
        0
176
     1
 90
        0
176
     1
290
     0
176
     1
 90
        1
176
     1
 40
0.0
176
     1
 90
        0
176
     1
290
     0
176
     1
290
     1
176
     1
290
     1
176
     1
290
     0
176
     1
290
     0
176
     1
290
     0
176
     1
290
     0
176
     1
290
     0
176
     1
290
     0
176
     1
 90
       50
176
     1
 40
0.0
176
     1
 40
1.0
176
     1
 90
        0
176
     1
 62
    18
420
        0
176
     1
 90
       50
176
     1
 90
        3
176
     1
 62
     5
420
      255
176
     1
290
     0
176
     1
 90
       50
176
     1
 90
       50
176
     1
 90
       50
176
     1
290
     0
176
     1
 90
       50
176
     1
 62
   256
176
     0
 40
1.0
176
     0
 90
        2
176
     1
  1
strokes_ogs.tif
176
     1
290
     0
176
     1
 40
1.0
176
     1
 40
1.0
176
     1
  0
VISUALSTYLE
  5
180
102
{ACAD_REACTORS
330
99
102
}
330
99
100
AcDbVisualStyle
  2
X-Ray
 70
    25
177
     3
291
     0
 70
    58
 90
        2
176
     1
 90
        2
176
     1
 90
        1
176
     1
 90
        1
176
     1
 40
0.5
176
     1
 40
30.0
176
     1
 62
     7
420
 16777215
176
     1
 90
        1
176
     1
 90
        0
176
     1
 62
     7
176
     1
 62
   257
176
     1
 90
        1
176
     1
 90
        1
176
     1
 40
1.0
176
     1
 90
        8
176
     1
 62
     7
176
     1
 40
1.0
176
     1
 90
        1
176
     1
 90
        6
176
     1
 90
        2
176
     1
 62
     7
176
     1
 90
        3
176
     1
 90
        0
176
     1
 90
        0
176
     1
290
     0
176
     1
 90
       13
176
     1
 40
0.0
176
     1
 90
        0
176
     1
290
     0
176
     1
290
     1
176
     1
290
     1
176
     1
290
     0
176
     1
290
     0
176
     1
290
     0
176
     1
290
     0
176
     1
290
     0
176
     1
290
     0
176
     1
 90
       50
176
     1
 40
0.0
176
     1
 40
1.0
176
     1
 90
        0
176
     1
 62
    18
420
        0
176
     1
 90
       50
176
     1
 90
        3
176
     1
 62
     5
420
      255
176
     1
290
     0
176
     1
 90
       50
176
     1
 90
       50
176
     1
 90
       50
176
     1
290
     0
176
     1
 90
       50
176
     1
 62
   256
176
     0
 40
1.0
176
     0
 90
        2
176
     1
  1
strokes_ogs.tif
176
     1
290
     0
176
     1
 40
1.0
176
     1
 40
1.0
176
     1
  0
DICTIONARYVAR
  5
F0
102
{ACAD_REACTORS
330
66
102
}
330
66
100
DictionaryVariables
280
     0
  1
1:1
  0
DICTIONARYVAR
  5
EF
102
{ACAD_REACTORS
330
66
102
}
330
66
100
DictionaryVariables
280
     0
  1
STANDARD
  0
DICTIONARYVAR
  5
89
102
{ACAD_REACTORS
330
66
102
}
330
66
100
DictionaryVariables
280
     0
  1
STANDARD
  0
DICTIONARYVAR
  5
1B7
102
{ACAD_REACTORS
330
66
102
}
330
66
100
DictionaryVariables
280
     0
  1
Imperial24
  0
DICTIONARYVAR
  5
1B8
102
{ACAD_REACTORS
330
66
102
}
330
66
100
DictionaryVariables
280
     0
  1
Imperial24
  0
DICTIONARYVAR
  5
67
102
{ACAD_REACTORS
330
66
102
}
330
66
100
DictionaryVariables
280
     0
  1
2
  0
DICTIONARYVAR
  5
6B
102
{ACAD_REACTORS
330
66
102
}
330
66
100
DictionaryVariables
280
     0
  1
1
  0
DICTIONARYVAR
  5
14D
102
{ACAD_REACTORS
330
66
102
}
330
66
100
DictionaryVariables
280
     0
  1
0
  0
DICTIONARYVAR
  5
14E
102
{ACAD_REACTORS
330
66
102
}
330
66
100
DictionaryVariables
280
     0
  1
0
  0
DICTIONARY
  5
194
330
22
100
AcDbDictionary
280
     1
281
     1
  0
DICTIONARY
  5
188
330
97
100
AcDbDictionary
280
     1
281
     1
  3
FBXASSET
360
189
  0
DICTIONARY
  5
186
330
96
100
AcDbDictionary
280
     1
281
     1
  3
FBXASSET
360
187
  0
DICTIONARY
  5
110
330
98
100
AcDbDictionary
280
     1
281
     1
  3
BUMPTILE
360
112
  3
DIFFUSETILE
360
111
  3
FBXASSET
360
18A
  3
OPACITYTILE
360
113
  3
REFLECTIONTILE
360
114
  0
DICTIONARY
  5
104
330
87
100
AcDbDictionary
280
     1
281
     1
  3
ACAD_ROUNDTRIP_2008_TABLESTYLE_CELLSTYLEMAP
360
27D8E
  0
XRECORD
  5
189
102
{ACAD_REACTORS
330
188
102
}
330
188
100
AcDbXrecord
280
     1
 70
     1
 90
429727718
  1
508B35C9-AEE7-456F-BE74-D52651303AC6
310
504B03040A0000080000B670623B3DEE336E79000000790000001B0000006175746F6465736B2D64657369676E2D7061636B6167652E786D6C3C3F786D6C2076657273696F6E3D22312E302220656E636F64696E673D227574662D3822203F3E3C666F726D6174733E3C666F726D61743E687474703A2F2F736368656D612E
310
6175746F6465736B2E636F6D2F64657369676E2D7061636B6167652F323030393C2F666F726D61743E3C2F666F726D6174733E504B0304140006080800B670623BD486FD9CA0000000F4000000130000005B436F6E74656E745F54797065735D2E786D6C7D8EC10E82300C865F65E91D8A1E8C310C0EEA1BF002731658846E
310
D98AC1B77784ABF1D8FE5FBFBF75BBCE937A534CCEB38643598122B6FEE978D0B0485F9C41B54DDD7D022595594E1A469170414C76A4D9A4D207E29CF43ECE46F218070CC6BECC4078ACAA135ACF422C856C0E68EA1BF5669944DDD7BCDE7B1F8E415D77AECB980613C2E4AC91FC167A2B244592486606FC29C8FD7F045B9A
310
EF7053A7E60B504B0304140006080800B670623B28ED286BEB0000007C01000008000000636F72652E786D6C8D90416EC3201045AF82665B6183218D6D61A254764FD00B204C5C94182C03558F5F9C3852BBEB6A467FFE9B197D71FA9E6FE8CBACC17AD7012D0820E3B41FAD9B3A48F1826B40272956EFE32F1B20A766D3C1
310
268314D3EAD3B24BDABB685CCCAAF3A3D94515828980F42D371D04FD696655A814B3235C8B45E9AB9A4C419F5D8653B2237A1CB163DE672FD6AC209BF3C08E0D1B30EB19C3FC9D72FCC6EB231EFA33EDE96BDD341517E5064B11EDFCBCAF57A3A2194156843498524CAA0FCA5B7268F9E185D42D21A2DCEC7FA0B48CFF8492
310
759155FBBB0F2C80A4F991FB408A72CB22977B50B96EB9C91F504B0304140006080800B670623B55019EA25F0000007C00000007000000636E782E786D6C4DCB3B0E80201045D1AD90E915ED2CF8AC45050C11660C8261F98AB1B07AC9C97D42D718D865D3E909258CFD00CCE24AC6E326A164D74DC0B4128928FF32603847
310
2BA13128B1252AC747C6BAB984FC68F0B87FE8960A5C09FE86CFB69FBA01504B0304140006080800B670623B7BC41AC871010000D40300000C0000006662782F636F72652E786D6CC553ED6E8320147D15C2DF4501B56B6D90A64BBB27D80B50A5CE54C120983EFEAE1F4DD7A56BBA5FF3879273EEE59E7310BE393735EA95
310
ED2AA333CC428A91D2B9292A5D66D8BB63B0C26823B835C67D2BC348CB46657880B1E0A535BE9DA1DC68A7B403549B42CDA0EC3AE530CA6B5864B8CB3F552343E91D5474A7B095F949962A6421D0502778E72C0840D390E18DC5F170E664C205F7BE2A66B62A605A75AC94C522DDEEE3651AEF837817C741F2CE92E02D592D
310
83FD6ECB76EC7595A651C2C9D02CB8AB9A8BBADC2AE954814544691A3016D0E883256BBA58278B17BA5A53CAC9507ED3E4DBE2C9265F691747B3DCA9ADC382819091F8E1162272A8933DE82182932144F88C09DF060D8140C84E1EEA8B8F1340BDCA9DB1093085F157AA97B557309586747CD0EF0B4EA64E983A6E0EAEEFCE
310
889E9EF17847386AA94B30211D2C0FDE0D3AF9A4610EAD5536E8DD1969631B593F67E381C33F5157F17725E5A636F6BF1491F980C8FC7B90E13E8A2F504B0304140006080800B670623B70102A487D0000009D0000000B0000006662782F636E782E786D6C4DCCD10A83201886E15B91FFDC95A5C30335ACCDFB886521330D
310
A76397BF1A1DECE883878F57749FD5A3B74D2F17830472A901D9F088930B8B849267CC01754AA418F3DF0D5018572BE160506249B16C274D761E8BCFBB7A179E27F65CB39A0F14D396184C9921B81F34C3ACA1B4B99ABB6E6F062A25AA5F69DF23ACBE504B0304140006080800B670623B3610CA3329010000120200003100
310
00006662782F42384135303843342D343331462D343546312D424341352D3532343432364645413344462F636F72652E786D6C8D515B6EC32010BC0AE22B55850D0E446E848992B43E412FE000495162B07854397EA176A4F62F3F2C9A9D991D58BEBB8F37F0AD7D30CE76905418026DA553C65E3A98E219B510EC04F7CEC5
310
3F3408EC30EA0E16180A7EF12E4D0B249D8DDAC68C5AA7F4020E21E80881BCE54B0783FCD2E3500D296646B856D320AFC34557A4CAEDCC133C449F0380794839A138B47B86DB2345744D7A44594FD0E1B867883594369BFE63BF7EEF793D0B054FC9A8456E548E63CE46FB674D8A58F068C6477CE9F510B582A2C1F80D1182
310
70F349E816B32D65AFB8DD62CCEB42FF274A937A52948C8DEB66893BCB021484D7734370E5D2E9F608A3EF93F3119479ABA0E50B14B8C298119A43CCC4FCFCECB8A18B6388CEE7EF5D5D4F994BD86CBBA182D76543B9FCAE2FD7B24DF103504B0304140006080800B670623B1B8617914E0100003303000030000000666278
310
2F42384135303843342D343331462D343546312D424341352D3532343432364645413344462F636E782E786D6CD593C16EC32010447F0571AD6CE3D489D20813A9877E410FBD62D82434182CC055F3F75D1292E692438FBD206B7698593D61BEFD1E2DF982108D773D6D6B460938E5B571FB9ECE6957AD29D90A1EBC4F7736
310
4A9C1CA1A759A682EF839FA72269D8C9D92654AD71C72206887E0E0A22CAF926B15E498B01E0AA19451807D01A34B919F16B070157417138917400F2F6FA41FCF0092A45DEE414C19BDC21783E4BD39D891265658C3D8DEA00A3ACE59CBC8678ACB54CB26EEB6BD7839D7E9348BE70AD9C8321B9BCA7F9A4A26C542347DEE0
310
50F09802D22BA6749A800A394DD62899107273365E3C82CFC6A55557BC06C10774B7ABE7AEC3B0F34CF06446280E154026D0542C187BA9DAB6628BF7B6DBB0E5A65B3EB1F58631DE64BBE083F7B65CC218087E22CABB042E51D1F2268F1FE12B3EA24D40D63E9CFE00120194D60B9D5BC67FE6D39CDF37E20AF817881F504B
310
0304140006080800B670623BBFEF2E3B690500003C100000340000006662782F42384135303843342D343331462D343546312D424341352D3532343432364645413344462F6F626A656374732E786D6CAD575D739B3814FD2B0CFB0C98D84E931D4227B6938EA793B6534F3BFB90198F0099B001899144EAECAFDF231018B0
310
D37A3FFC609090EEE7B94757C1FB7D915B2F54C88CB31BDB7727B64559CC938CA53776A576CE956DBD0F03C1B9EA2DB32D460A7A63EB693B0C52C1ABD24C257447AA5C8D66EF177F5832A68CDA569C13296F6C193FD182B8A4523CA1F2D94D88226EBADBBBBEDB2C1C8A4D05299F46424B222853B014F30C52ACC6287F389C
310
D85E1878FA7B18E87FB36AFAF62AAFF667A83F635211161F291B8999FAB3D5DDC5FCDA99CF6653677679E13B8BFBC5CAF1DF4D27CBCBE5F2FAF6EE1A8AA51290642C117467871F101B91C581D77CEA2C36869F3229E68CD1B8F61F1ED6361B89092D294B90C78C4A68EB793D190E7D1D9BDEE7A91E1B95FDE9F3BCEAEFE809
310
6A6D6F9F7D4B79F4275C90E7A04248AA51D5C4C738DAE06F72885AC4796EBE65D22A88A22223B995679120E2D50EB1542F098381188D4EA111AE3DB043FF20AF6F2B4AE3D7D83D65E5AECA730D4D3BAC91BD05FEA992B565D95F549CD6069B90AB2A63EACA38A45E4B6A87D781574F86817E4C2FCCC72690D62E2729520E37
310
9BAF234797BAF6D62B3BFC781FED37BA1E4F2B2F052FA9501A3E80569BB8F6A9A364D4FA67654E6F803383981F82F21591FF84F23D9882BC896C3FDBCF8C162508933B2E0AE4C69DD43F6BD2BE38DDDBF10BF86CB4FA784D37F3AF16075E67EC9030DECA1FC0A55373F5DFF3378C591FA9BDF485C10B0A8C8BA909E5262639
310
A8E72163488806A595734C81CB77D1DE0ED7604A303B76913CEC0272F412782FF88EFF4636D8AA56DF7B322474C4B767303F625997056C7B032C473C592B36CEBD15F3F9FF5233B7ABCDC74D257624A60F8658567497B14CE1EC3C80B76FD02011038F9EE9EB0F2E12387A9C844D3F09855125116D1D731DF8B43D2CF4E0A0
310
79A020C6BE946BCE0B7EA1E1219331CD73C228AF5A2DDD31A4B1DA918CE91350854D40A71723140BFA92E94E62B0626016CEFA5864A50E5977E8753CEDBEE1CBB7F52780D20E17AF0BA0F5F9B02A3AD07DCC732EB6D1EBB661421BE0C39E21BABF0FE16D22EA6929407C8DE596724C88B749B6DB5512BC7B228ADFD7CB7EA6
310
3A22397E690BA8D5D8D4E40CEC8CDA23C2C0B7D5898640101CEC9C6D331CE328CB93CAFBBAC70A642DF70DF95155945B52F08AA973C23469FD69ADEF84F7BB18F983A8F8C90E37F5D35980B2139A1C523540813E824EF83448CF7C72B598CE97D7CEEDDDDD3B6736BFBC771677EF66CE6A7E7139F7A793E9EDF2B2B3A8B624
310
0CDA13AA5F8388264EC4A0129909F3B7F5A16CEDF08128E97D680ACA4B9BE7B7B58BB638F0B00700EF36AE8B32A705658A68F83EE897FC2B41573190D1CCAF0B92D233A47CFEB019D9809933F67DD1A5467F8CF69AD9A5AE859342D45355448C64F968A371DC2D596ADC6E43D93D1B466F877A64E2893E54F23C4B40388995
310
525E5005DA3983ED45412510D3EFCA13737B3863F74BD30F2A12E5B4B5E489A025CE25500DB855B11ACE5BBFA185D35DD48D8DC3CE7DC69F2944DB42AA6F6CF09BCA622ADD08C7A36E7C6AE18000BAB08E040135C2D21C9D75B3A91B77BB746C403F38018DFE6EC939DD92F16B40BC05294B9CDA035AAD6D330AE27FE4786B
310
8E45145EA34A75BE1C263A676A35A8ACC6297337400BF16C54EF515F3F77CB77EB3583889C754FFA29081AA98E2222ADEF05DA3E63D2EDEA8B8756C05A7FB6CABC4A91CBF325398202CC952E70A008A830324BA200D5E5EF8F5F04C75DB4B0EE3340E071C98B823333B83577596BF3849B69F2085AA0FAFA212F26BEFF5877
310
FDE622B28D88A42E49E43326DA82D31E8CB006401E1DA726059ECEC168F97A6599036306A135688F9AD2E61A6EA178F4CD51974A9F2CCB9F36FE5EBD14601068D9C3BF01504B0304140006080000B670623B000000000000000000000000350000006662782F42384135303843342D343331462D343546312D424341352D35
310
32343432364645413344462F76657274696365732E62696E504B0304140006080800B670623BF270F1330600000004000000360000006662782F42384135303843342D343331462D343546312D424341352D3532343432364645413344462F747269616E676C65732E62696E636660600000504B0304140006080000B67062
310
3B000000000000000000000000370000006662782F42384135303843342D343331462D343546312D424341352D3532343432364645413344462F617474726962757465732E62696E504B0304140006080800B670623B08DA0BD19000000041010000360000006662782F42384135303843342D343331462D343546312D4243
310
41352D3532343432364645413344462F6469726563746F72792E786D6C858F410AC3201045AF22B36F53E9A60B35CBEEBAE80D244E44489C6234F4F835464A48035D0DF398FF9F8AF63D0E6CC63039F212F8F9020C7D47C6792B21C5FE7403D62A1188E2E60C98D7234A5830286103A55745067B9D86B8A3CF9C7F90C11DE6
310
07FB144396D7B6A82D282E9A152AD114D5EF2CB866EEE831B8EEA07A7BB5A8D7D61A2BAAEB7FD5F70921FF497D00504B0304140006080800B670623B3B4606F3FE000000A00100003B0000006662782F42384135303843342D343331462D343546312D424341352D3532343432364645413344462F7265736F75726365732F
310
636F72652E786D6C8D504B6E833010BD0A9A6D65B08134808CA354A427E8052C332156828DFCA97AFC9A40A576D7CDCCE87D344F8F9FBEE647F689CE6B6B7A6039850C8DB2A336530F315C4903D94970676DF82583CCC8197B5861107C72362E3BA4AC096842428D1D7107A5F71820538F74F4E0D50D6799CB1892C2DFF345
310
AABB9C306779A2934E701F5C0A906D4FD609C2A1B7D129F4BCD858C163D4E3AED163FAA9AF1A1D88F67CA98E6D35906AA82A52BFB39ABCD5CD915C86331BD86BD3B665CD8BD52C78D0F34F46E550061C419494B6843142CB0F5677F4D0D58717DA7494F26295FF31C565FCA7296A13AA728FBBD93C0896823C09C18BB5AFB4
310
9E65A6BD762BBE01504B010214000A0000080000B670623B3DEE336E79000000790000001B00000000000000000000000000000000006175746F6465736B2D64657369676E2D7061636B6167652E786D6C504B01021400140006080800B670623BD486FD9CA0000000F40000001300000000000000000000000000B2000000
310
5B436F6E74656E745F54797065735D2E786D6C504B01021400140006080800B670623B28ED286BEB0000007C010000080000000000000000000000000083010000636F72652E786D6C504B01021400140006080800B670623B55019EA25F0000007C000000070000000000000000000000000094020000636E782E786D6C50
310
4B01021400140006080800B670623B7BC41AC871010000D40300000C00000000000000000000000000180300006662782F636F72652E786D6C504B01021400140006080800B670623B70102A487D0000009D0000000B00000000000000000000000000B30400006662782F636E782E786D6C504B01021400140006080800B6
310
70623B3610CA3329010000120200003100000000000000000000000000590500006662782F42384135303843342D343331462D343546312D424341352D3532343432364645413344462F636F72652E786D6C504B01021400140006080800B670623B1B8617914E010000330300003000000000000000000000000000D10600
310
006662782F42384135303843342D343331462D343546312D424341352D3532343432364645413344462F636E782E786D6C504B01021400140006080800B670623BBFEF2E3B690500003C10000034000000000000000000000000006D0800006662782F42384135303843342D343331462D343546312D424341352D35323434
310
32364645413344462F6F626A656374732E786D6C504B01021400140006080000B670623B0000000000000000000000003500000000000000000000000000280E00006662782F42384135303843342D343331462D343546312D424341352D3532343432364645413344462F76657274696365732E62696E504B010214001400
310
06080800B670623BF270F133060000000400000036000000000000000000000000007B0E00006662782F42384135303843342D343331462D343546312D424341352D3532343432364645413344462F747269616E676C65732E62696E504B01021400140006080000B670623B00000000000000000000000037000000000000
310
00000000000000D50E00006662782F42384135303843342D343331462D343546312D424341352D3532343432364645413344462F617474726962757465732E62696E504B01021400140006080800B670623B08DA0BD1900000004101000036000000000000000000000000002A0F00006662782F42384135303843342D3433
310
31462D343546312D424341352D3532343432364645413344462F6469726563746F72792E786D6C504B01021400140006080800B670623B3B4606F3FE000000A00100003B000000000000000000000000000E1000006662782F42384135303843342D343331462D343546312D424341352D3532343432364645413344462F72
310
65736F75726365732F636F72652E786D6C504B0506000000000E000E0080040000651100000000
  0
XRECORD
  5
187
102
{ACAD_REACTORS
330
186
102
}
330
186
100
AcDbXrecord
280
     1
 70
     1
 90
429727718
  1
887D55A9-D0DD-414E-B741-A7DCD4DA2B4C
310
504B03040A0000080000B670623B3DEE336E79000000790000001B0000006175746F6465736B2D64657369676E2D7061636B6167652E786D6C3C3F786D6C2076657273696F6E3D22312E302220656E636F64696E673D227574662D3822203F3E3C666F726D6174733E3C666F726D61743E687474703A2F2F736368656D612E
310
6175746F6465736B2E636F6D2F64657369676E2D7061636B6167652F323030393C2F666F726D61743E3C2F666F726D6174733E504B0304140006080800B670623BD486FD9CA0000000F4000000130000005B436F6E74656E745F54797065735D2E786D6C7D8EC10E82300C865F65E91D8A1E8C310C0EEA1BF002731658846E
310
D98AC1B77784ABF1D8FE5FBFBF75BBCE937A534CCEB38643598122B6FEE978D0B0485F9C41B54DDD7D022595594E1A469170414C76A4D9A4D207E29CF43ECE46F218070CC6BECC4078ACAA135ACF422C856C0E68EA1BF5669944DDD7BCDE7B1F8E415D77AECB980613C2E4AC91FC167A2B244592486606FC29C8FD7F045B9A
310
EF7053A7E60B504B0304140006080800B670623BBC1638F5EC0000007C01000008000000636F72652E786D6C8D90416EC3201045AF82665B61836BE2D8C24471DB9CA01740401C94182C03558F5F9C3852BBEB6A467FFE9B197D7EF89E6EE8CB2CC17AD7032D0820E394D7D68D3DA478C67B4007C117EFE32F1B202727D3C3
310
2A83E0E3E2D3BC49CABB685CCCAAF3DA6CA20CC14440EA969B1E82BA98491632C5EC08D76296EA2A4753D06797E194AC468F2356E77DF66CCD02825543D50CACC62D39ED70FDC68EB8FD68F6F8787A6784342D1DDA1D2F5758F068A7E77DB518198D065111D2624A31A93E69DD11D6D5EC85EC3B4278B9DAFF4069D6FF8492
310
75F1B5DADE7D600104CD8FDC0782976B16B9DC83CA75CD4DFC00504B0304140006080800B670623B55019EA25F0000007C00000007000000636E782E786D6C4DCB3B0E80201045D1AD90E915ED2CF8AC45050C11660C8261F98AB1B07AC9C97D42D718D865D3E909258CFD00CCE24AC6E326A164D74DC0B4128928FF326038
310
472BA13128B1252AC747C6BAB984FC68F0B87FE8960A5C09FE86CFB69FBA01504B0304140006080800B670623B3586FFB671010000D40300000C0000006662782F636F72652E786D6CC553ED6E8320147D15C2DF4541A76D6D90A6DDD627D80B50A4CE54C120983EFEAE1F4DD7A55BBA5FF3879273EEE59E7310B6393735EA
310
95ED2AA3731C851423A5A5292A5DE6D8BB63B0C268C39935C67D29C3488B46E578803167A535BE9D2169B453DA01AA4DA16650749D7218C91A1639EEE4876A4428BC838AEE14B6429E44A9C228041AEA38EB9C0501681A32BC313F1ECE8C4C3867DE57C5CC56054CAB8E95B298A7F12E5EEED224C8E87E11242FE936C8DE96
310
AB60BB7F4D295D66D12E5B30323473E6AAE6A24E5A259C2A308F29CD82280A68FC1E256B9AAE93F489AED694323294DF34F9B678B0C957DA3DC7B3DCA9ADC33C022123F1CD2D44E450277AD04338234388F01913BE0D1A0281909D38D4171F27807A259DB1093085F157AA17B557309586747CD0CF0B46A64E983A6E0EAEEF
310
CE881F9EF1FB8E70D44297604238581EBC1B74B249C31C5AAB6CD0BB33D2C636A27ECCC62F0EFF445DC5DF95244D6DEC7F2922F30191F9F720C37DE49F504B0304140006080800B670623B4220A0FF7D0000009D0000000B0000006662782F636E782E786D6C4DCCD10A83201886E15B91FFDCE542CB0335D0EC3E6259C84A
310
C3E9D8E5AF46073BFAE0E1E315DD675BD1DBA5978F41C2FD4600B9F088930F8B849267CC01754AA418F3DF0D50183727E164506249B1EC174D6E1ECB9A0F5D7D785E68DB8151CD286E5A5363CA6B8A39E90D36D40E96B086F55A43A544F52B1D7B86D517504B0304140006080800B670623B2FA3FEDE290100001202000031
310
0000006662782F45374635344235342D363743322D343832342D383044432D4334454645303536354442422F636F72652E786D6C8D515B6EC32010BC0AE22B55850D2E386E848994D7097A0117488A1283C5A3CAF10BB523B57FF961D1ECCCECC0F2ED7DBC816FED8371B687A4C210682B9D32F6D2C314CFA883602BB8772E
310
FEA141608751F7B0C050F08B77695A20E96CD43666D43AA5177008414708E42D5F7A18E4971E876A483133C2B59A06791D2EBA22556E679EE021FA1C00CC43CA09C5717D6274C7286AD7FB06D1AEA1A8C3873DDAD3E3E98859CB0EBB1DAF67A1E02919B5C88DCA71CCD968FFAC49110B1ECDF8882FBD1EA256503418BF2342
310
106E3E08DD60B6A1EC15771B8C795DE8FF4469524F8A92B1F1AD59E2CEB20005E1F5DC105CB9F4797B84D1F7C9F908CABC55D0F2050A5C61CC1AD2F27A26E6E767C7962E8E213A9FBF7775FDCC5CC266DB960A5E970DE5F2BBBE5CCB36C50F504B0304140006080800B670623B1B8617914E01000033030000300000006662
310
782F45374635344235342D363743322D343832342D383044432D4334454645303536354442422F636E782E786D6CD593C16EC32010447F0571AD6CE3D489D20813A9877E410FBD62D82434182CC055F3F75D1292E692438FBD206B7698593D61BEFD1E2DF982108D773D6D6B460938E5B571FB9ECE6957AD29D90A1EBC4F77
310
364A9C1CA1A759A682EF839FA72269D8C9D92654AD71C72206887E0E0A22CAF926B15E498B01E0AA19451807D01A34B919F16B070157417138917400F2F6FA41FCF0092A45DEE414C19BDC21783E4BD39D891265658C3D8DEA00A3ACE59CBC8678ACB54CB26EEB6BD7839D7E9348BE70AD9C8321B9BCA7F9A4A26C542347DE
310
E050F09802D22BA6749A800A394DD62899107273365E3C82CFC6A55557BC06C10774B7ABE7AEC3B0F34CF06446280E154026D0542C187BA9DAB6628BF7B6DBB0E5A65B3EB1F58631DE64BBE083F7B65CC218087E22CABB042E51D1F2268F1FE12B3EA24D40D63E9CFE00120194D60B9D5BC67FE6D39CDF37E20AF817881F50
310
4B0304140006080800B670623B29652116630500003C100000340000006662782F45374635344235342D363743322D343832342D383044432D4334454645303536354442422F6F626A656374732E786D6CAD575D739B3814FD2B0CFB0C989834C90EA1639B24E3E9A6EDD4D3CE3E64C623834CD8006224913AFDF57B040203
310
B65BEF871F0C12D2FD3CF7E8CA7FBFCB33E3957291B2E2D674ED8969D02262715A24B76625B7D6B569BC0F7CCE98EC2D338D82E4F4D654D366E0279C55A59E8AE99654991CCDDECFFF3444440B6A1A514684B83545F44C7362934AB2988A173B2692D8C97667BB76B3702836E1A47C1E092D09A78584A5982F20C5688C7287
310
C389E904BEA3BE07BEFAD7ABA6A75739B53F43FD69212429A20365233153D70BEF2E2E6FAC4BCF9B5ADEBB0BD79ADFCF43CBBD9A4E16EF168B9BD9DD0D140BC921495BC2E9D60C1E101B9E46BED37CEA2CD6861F3329624541A3DA7F7858DBAC25C6B4A4458C3CA654405BCFEBC970E8AAD8F43E4FD558ABEC4F9FE7557F47
310
4F506B7BFBEC5BCA367FC105710E2AB8A00A554D7CB4A30DFE26FBA86D18CBF4B75418399194A72433B274C3097F33032C554B027F2046A1932B842B0FCCC0DDCBEBDB8AD2F835768F59B9ADB24C41D30C6A64AF817F2A456D59FA83F2E3DA60137255A585BCD60EC9B7929AC18DEFD49381AF1ED30BFDB109A4B1CD488294
310
C3CDE6EBC8D185AABD6568061FEE37BB95AAC7E3CA4BCE4ACAA5820FA0D526AE7DAA2869B5EE5999531BE0CC20E6FBA07C41E43FA27CF7A6206F3CDD793B4F6B919C1462CB788EDCD893FA674CDA17AB7B3B7C019F8D561FAEE966FED562DFE98C1D12C6A9FC015C2A35D7FF3D7FC398F591DA4B5FE0BFA2C0189FEA50AE22
310
92817A1ED3020951A03432862970F976B33383259812CC8E5D240BBA801CBCF8CE2BBEE3BF910DB6AAD5F79E05123AE2DB33981FB1ACCB02B69D00CB014FD68AB573A7627EF9BFD4CC2C5C7D58557C4B22FAA88925A4DBB44825CECE3D78FB060D1231F0E885BE7D673C86A3874958F593906B5502D1563157814FDAC3420D
310
F69A070A22EC4B98E23CFF171A1E5311D12C23056555ABA53B8614563B92D17D02AAB009E8F46284624E5F53D5490C560CCCC2591FF1B45421EB0EBD8EA7ED13BE7C5D7E0428CD60FEF60779EB13E6664FF711CB185F6FDED60D139A001FF60CD1FD6D086F1D51474901E26B2CB794A343BC8ED3EDB612E0DD2351FCB65CF4
310
33D511C9E14B5B40ADC6A6263DB0336A8F700DDF56271A024E70B0B3629DE21847591E55DED73D56206AB927E46FAABC5C939C55853C274C93D69FD6FA4E78BF8B11DF898C9ECD60553FAD39283BA6F18984AA23E8884F83F45C5F5F859797B31B2B9C84A1E5B9DE9D35BFF25C6B76152E422F9C5DCC3D847F5801ED09D5AF
310
41441327A25FF15487F9EB725FB666F048A4701E9A827292E6F97569A32DF61DEC01C0BB8DCBBCCC684E0B49147C1FD54BF685A0AB18C868E6973949E819523E3DAC463660E68C7D9F55A9D1EFA3BD7A76A16AE1A810F95CE59B82A4D968A376DC2E8B44BBDD86B27B368CDE0ED548C7137DA860591A83706223A12CA712B4
310
7306DBF39C0A20A6DF95C7FAF670C6EED7A61F946493D1D6926782963813403548A78AE470DEF80D2D9CEAA26E4D1C76F60BFE74219A06527D6B82DF641A51616F703CAAC6A7160E08A00BEB4810A0274592A1B36E3675E36E978A0DE80727A0D6DF2D39A75BD27E0D8837276589537B40ABB56D5A41F48F1C6FCD3188C4EB
310
A6929D2FFB89CE995A4D00AE813BDD032DC48B56BD437DFDDC2DD7AED70C2272D63DE9A72068A45A92F0A4BE17A8A06B9366E16707AD80B1FC649459952097E74BB23805982B55E0401150A165964402AA8BDF9F3E7386BB686EDCA780C0D382E5392BF460A6EFB2C6EA1937D3F809B440D5F5435C4C5CF7A9EEFAF54564BD
310
2182DA24162F98680B4E7930C21A0079709CEAEB99A372305ABE0C0D7D6078105A83F6A0296DAEE1068A47DD1C55A9F4C9B2FC69E3EFD44B81028E963DF81B504B0304140006080000B670623B000000000000000000000000350000006662782F45374635344235342D363743322D343832342D383044432D433445464530
310
3536354442422F76657274696365732E62696E504B0304140006080800B670623BF270F1330600000004000000360000006662782F45374635344235342D363743322D343832342D383044432D4334454645303536354442422F747269616E676C65732E62696E636660600000504B0304140006080000B670623B00000000
310
0000000000000000370000006662782F45374635344235342D363743322D343832342D383044432D4334454645303536354442422F617474726962757465732E62696E504B0304140006080800B670623B08DA0BD19000000041010000360000006662782F45374635344235342D363743322D343832342D383044432D4334
310
454645303536354442422F6469726563746F72792E786D6C858F410AC3201045AF22B36F53E9A60B35CBEEBAE80D244E44489C6234F4F835464A48035D0DF398FF9F8AF63D0E6CC63039F212F8F9020C7D47C6792B21C5FE7403D62A1188E2E60C98D7234A5830286103A55745067B9D86B8A3CF9C7F90C11DE607FB144396
310
D7B6A82D282E9A152AD114D5EF2CB866EEE831B8EEA07A7BB5A8D7D61A2BAAEB7FD5F70921FF497D00504B0304140006080800B670623B6378F24DFF000000A00100003B0000006662782F45374635344235342D363743322D343832342D383044432D4334454645303536354442422F7265736F75726365732F636F72652E
310
786D6C8D504B6E833010BD0A9A6D65B0094E42641C85B639412F6099496225D8C89FAAC7AF09546A77DDCC8CDE47F3F4C4F16B7C149FE88371B603565228D06A37187BED20C50BD9437194C23B177FC9A0B06AC40E6618A4B87A97A615D2CE46B431A3D60DB8822A048C50E8473E3A08FA86A32A558A5911EEE5A4F45D5DB1
310
6465A6B34E8A107D0E502C4FE609D26370C96B0CA25A58295232C3AA3143FE692E063D485EF7F5AEE71BD2D2F39634AFFC44DAF7DD9E9CCE6F9CD25DCBFA762BAAD92C4534E34F46ED51451C40D694B6843142EB0FD61C283F34FC85EE0F948A6A96FF31A569F8A729191B37F51A77B105902C0779125254735F793DCBCC7B
310
EE567E03504B010214000A0000080000B670623B3DEE336E79000000790000001B00000000000000000000000000000000006175746F6465736B2D64657369676E2D7061636B6167652E786D6C504B01021400140006080800B670623BD486FD9CA0000000F40000001300000000000000000000000000B20000005B436F6E
310
74656E745F54797065735D2E786D6C504B01021400140006080800B670623BBC1638F5EC0000007C010000080000000000000000000000000083010000636F72652E786D6C504B01021400140006080800B670623B55019EA25F0000007C000000070000000000000000000000000095020000636E782E786D6C504B010214
310
00140006080800B670623B3586FFB671010000D40300000C00000000000000000000000000190300006662782F636F72652E786D6C504B01021400140006080800B670623B4220A0FF7D0000009D0000000B00000000000000000000000000B40400006662782F636E782E786D6C504B01021400140006080800B670623B2F
310
A3FEDE290100001202000031000000000000000000000000005A0500006662782F45374635344235342D363743322D343832342D383044432D4334454645303536354442422F636F72652E786D6C504B01021400140006080800B670623B1B8617914E010000330300003000000000000000000000000000D2060000666278
310
2F45374635344235342D363743322D343832342D383044432D4334454645303536354442422F636E782E786D6C504B01021400140006080800B670623B29652116630500003C10000034000000000000000000000000006E0800006662782F45374635344235342D363743322D343832342D383044432D4334454645303536
310
354442422F6F626A656374732E786D6C504B01021400140006080000B670623B0000000000000000000000003500000000000000000000000000230E00006662782F45374635344235342D363743322D343832342D383044432D4334454645303536354442422F76657274696365732E62696E504B01021400140006080800
310
B670623BF270F13306000000040000003600000000000000000000000000760E00006662782F45374635344235342D363743322D343832342D383044432D4334454645303536354442422F747269616E676C65732E62696E504B01021400140006080000B670623B0000000000000000000000003700000000000000000000
310
000000D00E00006662782F45374635344235342D363743322D343832342D383044432D4334454645303536354442422F617474726962757465732E62696E504B01021400140006080800B670623B08DA0BD190000000410100003600000000000000000000000000250F00006662782F45374635344235342D363743322D34
310
3832342D383044432D4334454645303536354442422F6469726563746F72792E786D6C504B01021400140006080800B670623B6378F24DFF000000A00100003B00000000000000000000000000091000006662782F45374635344235342D363743322D343832342D383044432D4334454645303536354442422F7265736F75
310
726365732F636F72652E786D6C504B0506000000000E000E0080040000611100000000
  0
XRECORD
  5
112
102
{ACAD_REACTORS
330
110
102
}
330
110
100
AcDbXrecord
280
     1
270
     1
271
     1
  0
XRECORD
  5
111
102
{ACAD_REACTORS
330
110
102
}
330
110
100
AcDbXrecord
280
     1
270
     1
271
     1
  0
XRECORD
  5
18A
102
{ACAD_REACTORS
330
110
102
}
330
110
100
AcDbXrecord
280
     1
 70
     0
 90
1778669749
  1
9BF507EE-FAF7-4A99-A33D-4EE51894BC40
310
504B03040A0000080000B670623B3DEE336E79000000790000001B0000006175746F6465736B2D64657369676E2D7061636B6167652E786D6C3C3F786D6C2076657273696F6E3D22312E302220656E636F64696E673D227574662D3822203F3E3C666F726D6174733E3C666F726D61743E687474703A2F2F736368656D612E
310
6175746F6465736B2E636F6D2F64657369676E2D7061636B6167652F323030393C2F666F726D61743E3C2F666F726D6174733E504B0304140006080800B670623BD486FD9CA0000000F4000000130000005B436F6E74656E745F54797065735D2E786D6C7D8EC10E82300C865F65E91D8A1E8C310C0EEA1BF002731658846E
310
D98AC1B77784ABF1D8FE5FBFBF75BBCE937A534CCEB38643598122B6FEE978D0B0485F9C41B54DDD7D022595594E1A469170414C76A4D9A4D207E29CF43ECE46F218070CC6BECC4078ACAA135ACF422C856C0E68EA1BF5669944DDD7BCDE7B1F8E415D77AECB980613C2E4AC91FC167A2B244592486606FC29C8FD7F045B9A
310
EF7053A7E60B504B0304140006080800B670623BCA089DFFEC0000007C01000008000000636F72652E786D6C8D90416E83301045AF62CDB632D8402020E32882F604BD80653BC44AB011B6AB1EBF262152BBEB6A467FFE9B197D76FA9EEFE84BAFDE38DB03CD08206DA553C64E3DC470C1474027CE56E7C22F1B202B66DDC3
310
260367D3EAE2B24BD2D9A06D48AA754AEFA2F05E0740F29E9A1EBCBCEA59642286E4F0B76C11F226269DD15797E0188D42CF2346A57DE662F40ABCAEC77628C6120F654571D50C04B7F5B9C1E3997CD4F550BE3745C3F20DE62C98F9755FAE5A04AD801784B498524C8A4F5A75E4D055873772EC0861F966FF03C545FD138A
310
C686B2D8DF7D621E384D8F3C069CE55B16A93C824A75CB8DFF00504B0304140006080800B670623B55019EA25F0000007C00000007000000636E782E786D6C4DCB3B0E80201045D1AD90E915ED2CF8AC45050C11660C8261F98AB1B07AC9C97D42D718D865D3E909258CFD00CCE24AC6E326A164D74DC0B4128928FF326038
310
472BA13128B1252AC747C6BAB984FC68F0B87FE8960A5C09FE86CFB69FBA01504B0304140006080800B670623B68FC0B7272010000D40300000C0000006662782F636F72652E786D6CC5535B6E833010BC8AE5DF0A6C1E8124328E22D29EA01770C0A128602363A31CBFCB234A53A555FA553EC09AD9F5CE8C31DB5DDA060D
310
D2F4B556190E7C8A9154852E6B5565D8D993B7C668C799D1DA7E29C3488956667884316795D1AE5BA0422B2B950554E9522EA0E87B69312A1A5864B82F3E642B7CE12C54F467BF13C55954D20F7CA0A18EB3DE1A1080E621E31BF3D3F1C2C88C73E65C5D2E6C5DC2B4FA544B8379921C36797888BC3C8A032F4E73EA6D927D
310
EA1DF6F42D49F2E8350D5346C666CE6CDD5ED515460A2B4BCC434A375E1078347C0FE22D5D6DE3D50B5D6F2965642CBF6B725DF96493AB958DC245EEDCD6631E809089F8E61622B2A81703E8219C913144F84C09DF070D8140C8561C9BAB8F3340832CAC363130A576376A108D933095FA747AD0CF0B46E64E983A6D0EAE1F
310
CE089F9EF1FB8E70D44255604258581E9D1D75B259C3125A278D37D80B52DAB4A279CEC62F0EFF44DDC43F9454E8469BFF5244960322CBEF41C6FBC83F01504B0304140006080800B670623B0F71DDB67E0000009D0000000B0000006662782F636E782E786D6C4DCCD10A83201886E15B91FFDCA54DB73F502386BB8F5816
310
32D3703976F9ABD1C18E3E78F87855FB990379BBFCF2296AE02706C4C5471A7C9C349475A408A4352AA7B4FEDD80C47E761A7606A3A69CCA72D0E0C6BE8475D3E0E3F3409428EA6B27A84079A782899AA2EC1A7AE3ECCC2FD858CB2D544655BFD2B67BD87C01504B0304140006080800B670623BE134B4FB28010000120200
310
00310000006662782F38353834323741342D343835462D343034322D383541392D4331303331363839454531452F636F72652E786D6C8D515B6EC32010BC0AE22B55850D0EA424C24451959EA0172086A42831583CAA1CBF503B52FB971F16CDCECC0EACD8DFC71BF836215AEF7A481A0C817183D7D65D7A98D3197108F652
310
04EFD31F1A044E8DA6871586525C82CFD3020DDE25E352419DD76601558C264130DCCAA58771F832A36A544E8511AFCDA486ABBA988634A55D7852C4144A00300FA927949C71DABD1D28A29C7D208A6987383B6CD13BC16BB2E1DBE3911C453B0BA5C8D9EA456E758963CFD684674DAA588A64C747FC2118958C86B2C3788B
310
0841B8FB247487D98EB257CC77188BB6D2FF89F2A49F1465EBD2BA5BE2CEB2082511EDDC9042FB7CBA3DC298FBE4430275DE2A9AE1054ADC60CC08E3A29D89E5F9C5714317C7987C28DFBBBA9E0A97B0D97643A568EB864AF95D5FA9759BF207504B0304140006080800B670623B1B8617914E010000330300003000000066
310
62782F38353834323741342D343835462D343034322D383541392D4331303331363839454531452F636E782E786D6CD593C16EC32010447F0571AD6CE3D489D20813A9877E410FBD62D82434182CC055F3F75D1292E692438FBD206B7698593D61BEFD1E2DF982108D773D6D6B460938E5B571FB9ECE6957AD29D90A1EBC4F
310
77364A9C1CA1A759A682EF839FA72269D8C9D92654AD71C72206887E0E0A22CAF926B15E498B01E0AA19451807D01A34B919F16B070157417138917400F2F6FA41FCF0092A45DEE414C19BDC21783E4BD39D891265658C3D8DEA00A3ACE59CBC8678ACB54CB26EEB6BD7839D7E9348BE70AD9C8321B9BCA7F9A4A26C542347
310
DEE050F09802D22BA6749A800A394DD62899107273365E3C82CFC6A55557BC06C10774B7ABE7AEC3B0F34CF06446280E154026D0542C187BA9DAB6628BF7B6DBB0E5A65B3EB1F58631DE64BBE083F7B65CC218087E22CABB042E51D1F2268F1FE12B3EA24D40D63E9CFE00120194D60B9D5BC67FE6D39CDF37E20AF817881F
310
504B0304140006080800B670623B5933D422630500003B100000340000006662782F38353834323741342D343835462D343034322D383541392D4331303331363839454531452F6F626A656374732E786D6CAD575B6FA33814FE2B887D0642934E9B156594264D158D3A534DD4D13E548A0C38942D60649B4EBABF7E3F8321
310
40924EF6928780CDF1B97EE762EFF32E4B8D37CA45C2F21BD3B547A641F39045491EDF98A5DC5AD7A6F1D9F73863B243661A39C9E88DA9B64DDF8B392B0BBD15D12D295339D85DDEFE618890E6D434C2940871638AF08566C426A5641115AF764424B1E3EDCE76ED9AB0CF36E6A47819302D08A7B984A6D8CFC1C5A89572FB
310
CB91E9F89EA3BEFB9EFAD754E3D3544E654F5F7E920B49F2F040D880CDD89D2CEE2E2EA7D6E56432B6269F2E5CEB7679BBB0DCABF168FE693E9FCEEEA6102C240727AD09A75BD3BF876F78127A4EFDA9D5582B7E4CA590E5390D2BFB6161A5B3E618D182E611E2985001691DAB47FDA5AB7CD3F93C566B2DB2BB7D9E55DD13
310
1D468DEECDB3AB290BFE8409E21C54704115AA6AFF68436BFC8DF65E0B184BF5B74418199194272435D224E084BF9B3E481589EFF5D828747285706581E9BB7B7E5D5D911ABFC6EE312DB7659A2A689A7E85EC0DF04FA5A8344BFEA2FCB834E8845895492EAFB541F2BDA0A63FF59C6AD3F7D4637CA13FD68E34B629891172
310
98597F1D183A57B9B75A98FE9765B05BAB7C3C2EBCE0ACA05C2AF8005A4DE09AA7F29216EB9E15397500C6F47CBE77CA7778FE2BD277AF0AE2C693DD6437D1522427B9D8329E2136F6A8FA19A3E6C56ADF0E5F50CF06D48734EDCEBF22F69C56D97EC138153F804B85E6FABFC7AFEFB32E523BE1F3BD372418E363EDCA7548
310
52949E8724474014288D94610BB57C1BEC4C7F854A89CA8E5324F55B871CBC78CE1BBEE3BFE68D6A5589EF3C730474506FCFA8FCF0659516D0ED04580EEA6425581B77CAE797FF4BCECC16EB2FEB926F49481F746159D06D922712BD730FDEAE42BD40F42C7AA5EF3F198F60E86110D6DD20645A9480B795CF95E3E3A659A8
310
C55E724F408873315335CFFB8584874484344D494E59D94869DB90C26A5B64F49C802CAC1D3ABE18A098D3B7444D123D8A9E5AE8F5214F0AE5B2B6E9B575DA3E61CBD3EA2B4009FA940524DD1305FB6A1FB294F14DF0BEA90BA109ECE1481FDC3FFAE8D60E75141700BE82725371B4873751B2DD960265F788137FACE6DD40
310
B575E4F0A5C99F46629D92131467A41EE11ABD8D4CCC039CA0AFB37C93A08B232B8F0AEFCA1E0A1015DF13FC83322B362463652ECF71D3A8B1A7D1BE65DE1D62C44F22C317D35F574FEB16153BA2D13E543D10A80E74C4A65E78A6B7CBCBD1D5DD9DB59C2DAFACC96C3AB566E3F1C29ADCDD5DBAD7D3C9ED7C822ED74F80A6
310
41755310DE4443F44A9E68373FADF6596BFA0F440AE7BECE2727AE9F4F2B1B53B1E7E00CF0DD1E5C65454A339A4BA2D0FBA05ED2EF0443458F47BDBFCA484CCFE0F2ED7E3DD0013B679C7B5499467F0ECEEADDB9CA85A34CE44B99053949D2C1416DB85DE4B136BB7165FBAC0B7AB3542BED4F8CA182A549847A1319316519
310
95A83A67147B9E5101C47487F2485F1ECE38FD568F839204296D3479219888530154036E6528FBFBC66F98E0D4107563A2D7D9AFF8D389681A08F58D89F22693900A3B407754734FC51C10C010D6D640809EE4718AC1BA3ED4AEDB53CA37283F68805A7E4B72CEB0A4EDEAD5DD8C14059A76AFAA56BA6901E13F32BC51C720
310
12AF41295B5BF61BAD3195181FB506E6B40F4C10AF5AF40EF9F5B159AE5DD1F43C72D635E94310D45C2D49785C5D0B94D3B54AB3C5A38349C0587D338AB48C11CBF339599C02CCA54A70A008A8D03C0B2201D5F9EFCF8F9CE12A9A19CB0410789EB32C63B95ECCF455D658BFE0621A3DA32C5075FB101723D77DAE867E7D0F
310
D90444509B44E2151B4DC2290B065803200FBAA9BE9D392A0603F2D5C2D00D6302A615680F66D2FA166E2079D4C551A54AB758161FCEFD4E450A14704CECFEDF504B0304140006080000B670623B000000000000000000000000350000006662782F38353834323741342D343835462D343034322D383541392D4331303331
310
363839454531452F76657274696365732E62696E504B0304140006080800B670623BF270F1330600000004000000360000006662782F38353834323741342D343835462D343034322D383541392D4331303331363839454531452F747269616E676C65732E62696E636660600000504B0304140006080000B670623B000000
310
000000000000000000370000006662782F38353834323741342D343835462D343034322D383541392D4331303331363839454531452F617474726962757465732E62696E504B0304140006080800B670623B08DA0BD19000000041010000360000006662782F38353834323741342D343835462D343034322D383541392D43
310
31303331363839454531452F6469726563746F72792E786D6C858F410AC3201045AF22B36F53E9A60B35CBEEBAE80D244E44489C6234F4F835464A48035D0DF398FF9F8AF63D0E6CC63039F212F8F9020C7D47C6792B21C5FE7403D62A1188E2E60C98D7234A5830286103A55745067B9D86B8A3CF9C7F90C11DE607FB1443
310
96D7B6A82D282E9A152AD114D5EF2CB866EEE831B8EEA07A7BB5A8D7D61A2BAAEB7FD5F70921FF497D00504B0304140006080800B670623BD9A3B367FE000000A00100003B0000006662782F38353834323741342D343835462D343034322D383541392D4331303331363839454531452F7265736F75726365732F636F7265
310
2E786D6C8D504B6E833010BD0A9A6D65B01D0201194711694FD00B586642AD043BF2A7EAF16B122AB5BB6E6646EFA3797AE2F8B5DC8A4FF4C1383B002B291468B59B8C9D0748F1420E501CA5F0CEC55F3228AC5A708015062966EFD27D83B4B3116DCCA875136EA00A012314FA968F0182FEC045952AC5AC08D7F2AEF455CD
310
58B232D3592745883E07289E4FD609D26370C96B0CA27AB252A464A64D63A6FCD35C0C7A904D73EE467EE664DCD58CD4ED4849D79C5A723ED1B7A61977AF2D6F45B59AA58866F9C9A83DAA8813484E6947182394BFB3BAA7FBBEDEBFD0434FA9A856F91F53BA4FFF342563E38E6F719FB60092E5200F428A6AED2BAF479979
310
AFDDCA6F504B010214000A0000080000B670623B3DEE336E79000000790000001B00000000000000000000000000000000006175746F6465736B2D64657369676E2D7061636B6167652E786D6C504B01021400140006080800B670623BD486FD9CA0000000F40000001300000000000000000000000000B20000005B436F6E
310
74656E745F54797065735D2E786D6C504B01021400140006080800B670623BCA089DFFEC0000007C010000080000000000000000000000000083010000636F72652E786D6C504B01021400140006080800B670623B55019EA25F0000007C000000070000000000000000000000000095020000636E782E786D6C504B010214
310
00140006080800B670623B68FC0B7272010000D40300000C00000000000000000000000000190300006662782F636F72652E786D6C504B01021400140006080800B670623B0F71DDB67E0000009D0000000B00000000000000000000000000B50400006662782F636E782E786D6C504B01021400140006080800B670623BE1
310
34B4FB280100001202000031000000000000000000000000005C0500006662782F38353834323741342D343835462D343034322D383541392D4331303331363839454531452F636F72652E786D6C504B01021400140006080800B670623B1B8617914E010000330300003000000000000000000000000000D3060000666278
310
2F38353834323741342D343835462D343034322D383541392D4331303331363839454531452F636E782E786D6C504B01021400140006080800B670623B5933D422630500003B10000034000000000000000000000000006F0800006662782F38353834323741342D343835462D343034322D383541392D4331303331363839
310
454531452F6F626A656374732E786D6C504B01021400140006080000B670623B0000000000000000000000003500000000000000000000000000240E00006662782F38353834323741342D343835462D343034322D383541392D4331303331363839454531452F76657274696365732E62696E504B01021400140006080800
310
B670623BF270F13306000000040000003600000000000000000000000000770E00006662782F38353834323741342D343835462D343034322D383541392D4331303331363839454531452F747269616E676C65732E62696E504B01021400140006080000B670623B0000000000000000000000003700000000000000000000
310
000000D10E00006662782F38353834323741342D343835462D343034322D383541392D4331303331363839454531452F617474726962757465732E62696E504B01021400140006080800B670623B08DA0BD190000000410100003600000000000000000000000000260F00006662782F38353834323741342D343835462D34
310
3034322D383541392D4331303331363839454531452F6469726563746F72792E786D6C504B01021400140006080800B670623BD9A3B367FE000000A00100003B000000000000000000000000000A1000006662782F38353834323741342D343835462D343034322D383541392D4331303331363839454531452F7265736F75
310
726365732F636F72652E786D6C504B0506000000000E000E0080040000611100000000
  0
XRECORD
  5
113
102
{ACAD_REACTORS
330
110
102
}
330
110
100
AcDbXrecord
280
     1
270
     1
271
     1
  0
XRECORD
  5
114
102
{ACAD_REACTORS
330
110
102
}
330
110
100
AcDbXrecord
280
     1
270
     1
271
     1
  0
CELLSTYLEMAP
  5
27D8E
102
{ACAD_REACTORS
330
104
102
}
330
104
100
AcDbCellStyleMap
 90
        3
300
CELLSTYLE
  1
TABLEFORMAT_BEGIN
 90
        5
170
     1
 91
        0
 92
    32768
 62
   257
 93
        1
300
CONTENTFORMAT
  1
CONTENTFORMAT_BEGIN
 90
        0
 91
        0
 92
      512
 93
        0
300

 40
0.0
140
1.0
 94
        5
 62
     0
340
11
144
0.25
309
CONTENTFORMAT_END
171
     1
301
MARGIN
  1
CELLMARGIN_BEGIN
 40
0.06
 40
0.06
 40
0.06
 40
0.06
 40
0.18
 40
0.18
309
CELLMARGIN_END
 94
        6
 95
        1
302
GRIDFORMAT
  1
GRIDFORMAT_BEGIN
 90
        0
 91
        1
 62
     0
 92
       -2
340
0
 93
        0
 40
0.045
309
GRIDFORMAT_END
 95
        2
302
GRIDFORMAT
  1
GRIDFORMAT_BEGIN
 90
        0
 91
        1
 62
     0
 92
       -2
340
0
 93
        0
 40
0.045
309
GRIDFORMAT_END
 95
        4
302
GRIDFORMAT
  1
GRIDFORMAT_BEGIN
 90
        0
 91
        1
 62
     0
 92
       -2
340
0
 93
        0
 40
0.045
309
GRIDFORMAT_END
 95
        8
302
GRIDFORMAT
  1
GRIDFORMAT_BEGIN
 90
        0
 91
        1
 62
     0
 92
       -2
340
0
 93
        0
 40
0.045
309
GRIDFORMAT_END
 95
       16
302
GRIDFORMAT
  1
GRIDFORMAT_BEGIN
 90
        0
 91
        1
 62
     0
 92
       -2
340
0
 93
        0
 40
0.045
309
GRIDFORMAT_END
 95
       32
302
GRIDFORMAT
  1
GRIDFORMAT_BEGIN
 90
        0
 91
        1
 62
     0
 92
       -2
340
0
 93
        0
 40
0.045
309
GRIDFORMAT_END
309
TABLEFORMAT_END
  1
CELLSTYLE_BEGIN
 90
        1
 91
        1
300
_TITLE
309
CELLSTYLE_END
300
CELLSTYLE
  1
TABLEFORMAT_BEGIN
 90
        5
170
     1
 91
        0
 92
        0
 62
   257
 93
        1
300
CONTENTFORMAT
  1
CONTENTFORMAT_BEGIN
 90
        0
 91
        0
 92
      512
 93
        0
300

 40
0.0
140
1.0
 94
        5
 62
     0
340
11
144
0.18
309
CONTENTFORMAT_END
171
     1
301
MARGIN
  1
CELLMARGIN_BEGIN
 40
0.06
 40
0.06
 40
0.06
 40
0.06
 40
0.18
 40
0.18
309
CELLMARGIN_END
 94
        6
 95
        1
302
GRIDFORMAT
  1
GRIDFORMAT_BEGIN
 90
        0
 91
        1
 62
     0
 92
       -2
340
0
 93
        0
 40
0.045
309
GRIDFORMAT_END
 95
        2
302
GRIDFORMAT
  1
GRIDFORMAT_BEGIN
 90
        0
 91
        1
 62
     0
 92
       -2
340
0
 93
        0
 40
0.045
309
GRIDFORMAT_END
 95
        4
302
GRIDFORMAT
  1
GRIDFORMAT_BEGIN
 90
        0
 91
        1
 62
     0
 92
       -2
340
0
 93
        0
 40
0.045
309
GRIDFORMAT_END
 95
        8
302
GRIDFORMAT
  1
GRIDFORMAT_BEGIN
 90
        0
 91
        1
 62
     0
 92
       -2
340
0
 93
        0
 40
0.045
309
GRIDFORMAT_END
 95
       16
302
GRIDFORMAT
  1
GRIDFORMAT_BEGIN
 90
        0
 91
        1
 62
     0
 92
       -2
340
0
 93
        0
 40
0.045
309
GRIDFORMAT_END
 95
       32
302
GRIDFORMAT
  1
GRIDFORMAT_BEGIN
 90
        0
 91
        1
 62
     0
 92
       -2
340
0
 93
        0
 40
0.045
309
GRIDFORMAT_END
309
TABLEFORMAT_END
  1
CELLSTYLE_BEGIN
 90
        2
 91
        1
300
_HEADER
309
CELLSTYLE_END
300
CELLSTYLE
  1
TABLEFORMAT_BEGIN
 90
        5
170
     1
 91
        0
 92
        0
 62
   257
 93
        1
300
CONTENTFORMAT
  1
CONTENTFORMAT_BEGIN
 90
        0
 91
        0
 92
      512
 93
        0
300

 40
0.0
140
1.0
 94
        2
 62
     0
340
11
144
0.18
309
CONTENTFORMAT_END
171
     1
301
MARGIN
  1
CELLMARGIN_BEGIN
 40
0.06
 40
0.06
 40
0.06
 40
0.06
 40
0.18
 40
0.18
309
CELLMARGIN_END
 94
        6
 95
        1
302
GRIDFORMAT
  1
GRIDFORMAT_BEGIN
 90
        0
 91
        1
 62
     0
 92
       -2
340
0
 93
        0
 40
0.045
309
GRIDFORMAT_END
 95
        2
302
GRIDFORMAT
  1
GRIDFORMAT_BEGIN
 90
        0
 91
        1
 62
     0
 92
       -2
340
0
 93
        0
 40
0.045
309
GRIDFORMAT_END
 95
        4
302
GRIDFORMAT
  1
GRIDFORMAT_BEGIN
 90
        0
 91
        1
 62
     0
 92
       -2
340
0
 93
        0
 40
0.045
309
GRIDFORMAT_END
 95
        8
302
GRIDFORMAT
  1
GRIDFORMAT_BEGIN
 90
        0
 91
        1
 62
     0
 92
       -2
340
0
 93
        0
 40
0.045
309
GRIDFORMAT_END
 95
       16
302
GRIDFORMAT
  1
GRIDFORMAT_BEGIN
 90
        0
 91
        1
 62
     0
 92
       -2
340
0
 93
        0
 40
0.045
309
GRIDFORMAT_END
 95
       32
302
GRIDFORMAT
  1
GRIDFORMAT_BEGIN
 90
        0
 91
        1
 62
     0
 92
       -2
340
0
 93
        0
 40
0.045
309
GRIDFORMAT_END
309
TABLEFORMAT_END
  1
CELLSTYLE_BEGIN
 90
        3
 91
        2
300
_DATA
309
CELLSTYLE_END
  0
ENDSEC
  0
SECTION
  2
ACDSDATA
 70
     2
 71
     8
  0
ACDSSCHEMA
 90
        0
  1
AcDb_Thumbnail_Schema
  2
AcDbDs::ID
280
    10
 91
        8
  2
Thumbnail_Data
280
    15
 91
        0
101
ACDSRECORD
 95
        0
 90
        1
  2
AcDbDs::TreatedAsObjectData
280
     1
291
     1
101
ACDSRECORD
 95
        0
 90
        2
  2
AcDbDs::Legacy
280
     1
291
     1
101
ACDSRECORD
  1
AcDbDs::ID
 90
        3
  2
AcDs:Indexable
280
     1
291
     1
101
ACDSRECORD
  1
AcDbDs::ID
 90
        4
  2
AcDbDs::HandleAttribute
280
     7
282
     1
  0
ACDSSCHEMA
 90
        1
  1
AcDbDs::TreatedAsObjectDataSchema
  2
AcDbDs::TreatedAsObjectData
280
     1
 91
        0
  0
ACDSSCHEMA
 90
        2
  1
AcDbDs::LegacySchema
  2
AcDbDs::Legacy
280
     1
 91
        0
  0
ACDSSCHEMA
 90
        3
  1
AcDbDs::IndexedPropertySchema
  2
AcDs:Indexable
280
     1
 91
        0
  0
ACDSSCHEMA
 90
        4
  1
AcDbDs::HandleAttributeSchema
  2
AcDbDs::HandleAttribute
280
     7
 91
        1
284
     1
  0
ACDSRECORD
 90
        0
  2
AcDbDs::ID
280
    10
320
22
  2
Thumbnail_Data
280
    15
 94
     1666
310
89504E470D0A1A0A0000000D49484452000001000000006C0803000000B2ED9CC100000300504C5445212830FFFFFF2128300000000000000000000000000000000000000000000000000000330000660000990000CC0000FF0033000033330033660033990033CC0033FF0066000066330066660066990066CC0066FF0099
310
000099330099660099990099CC0099FF00CC0000CC3300CC6600CC9900CCCC00CCFF00FF0000FF3300FF6600FF9900FFCC00FFFF3300003300333300663300993300CC3300FF3333003333333333663333993333CC3333FF3366003366333366663366993366CC3366FF3399003399333399663399993399CC3399FF33CC00
310
33CC3333CC6633CC9933CCCC33CCFF33FF0033FF3333FF6633FF9933FFCC33FFFF6600006600336600666600996600CC6600FF6633006633336633666633996633CC6633FF6666006666336666666666996666CC6666FF6699006699336699666699996699CC6699FF66CC0066CC3366CC6666CC9966CCCC66CCFF66FF0066
310
FF3366FF6666FF9966FFCC66FFFF9900009900339900669900999900CC9900FF9933009933339933669933999933CC9933FF9966009966339966669966999966CC9966FF9999009999339999669999999999CC9999FF99CC0099CC3399CC6699CC9999CCCC99CCFF99FF0099FF3399FF6699FF9999FFCC99FFFFCC0000CC00
310
33CC0066CC0099CC00CCCC00FFCC3300CC3333CC3366CC3399CC33CCCC33FFCC6600CC6633CC6666CC6699CC66CCCC66FFCC9900CC9933CC9966CC9999CC99CCCC99FFCCCC00CCCC33CCCC66CCCC99CCCCCCCCCCFFCCFF00CCFF33CCFF66CCFF99CCFFCCCCFFFFFF0000FF0033FF0066FF0099FF00CCFF00FFFF3300FF3333
310
FF3366FF3399FF33CCFF33FFFF6600FF6633FF6666FF6699FF66CCFF66FFFF9900FF9933FF9966FF9999FF99CCFF99FFFFCC00FFCC33FFCC66FFCC99FFCCCCFFCCFFFFFF00FFFF33FFFF66FFFF99FFFFCCFFFFFF0000000D0D0D1A1A1A2828283535354343435050505D5D5D6B6B6B787878868686939393A1A1A1AEAEAEBB
310
BBBBC9C9C9D6D6D6E4E4E4F1F1F1FFFFFF0000000000000000000000000000000000000000000000000000000000002E4550F1000001014944415478DAEDD9BB0EC2300C0550FFFFFF7A07A9A2943E522131A0DC7316864EBEB59334540100000000000000FC485F88A9FFEB0721F5A72420000108203880E75E370C60F6BD
310
F066BB9FFF34D0F11D50B71D307D00F11D10BF08DA05EC02D680D12929611BECAED3DB904EE980F3397F259330023D4A2762044602B6C1AEDC0EA8E1B740C6CD70F200DCB440A75C8945BFFFC34BAFC0AAE3963D010C13280108207B0D88AF3F3C81F4197010128000049078FCFFB80C0FFB201E5F8BCEDF0F4B896BA1EF97
310
BEFCCE9FC0AECE7D00117F8F6F02E8BC00EAD00115D9019BBAFBE249C60C6C56BDB5053AA4053AB305E267E0B0D6A5AD820000000000007FE1019FDCCF44C6F26F410000000049454E44AE42608282F08317FF8F9CD936D868E12F4DB6C8A243963D499224499224499224499224FD930FC5160C085307D0F0000000004945
310
4E44AE426082BF77CC3B350860D872189B4FB10BE0BE233B04D6BDA4E06903DC46706E80EA6930D259E06F3F5AF3002CED80B99950C03CE054269832BCE344D0523BC95C0C61CE6248E5B000044001C0DE2DFE910F316E2DB05F29CD7D698CFEE2A8E9F2F8FD41136D8044E7A65383A44CC3E43450524365E302B00F96661F
310
2ECF3E61827DCA0CFBA429F66973F41327357576B307A493A7357DBE2809B484060D00FD222A5A46C7981752625F4A8B7E3135D3727A5A50F16329850004200001084000021080000420000E80FBFAC07F00A9E564560A5BE6E70000000049454E44AE426082910A600D1FB400D463300A804B0530965E3B0D2CA10330BD0E
310
58A98DF029420FC04B8025478A2E8020F4009C04180761108169840EC01505480AF86401B64E40ADE69308368083000B58BD4713087680C75CB0EDBF1560BB0E370834C0792A605DD11A26D000DFD9F0E10583C1151FE84558564CDC9E887503EDEB3FBF84509AEB379A381A00E784827A030547101809DCE3226B00187F52
310
539FF6AC0FF2D01229B97F7B56AE64E8787DBF9E93B283504D4929EEDB336DE133B927D0B706F146D8FDD54728002424931276690CDE5FFA471401522320E6FA719CDCC9E90D234F422DA512220CD4066298BF969A4028B717C4D481E25C1BC6C59A99842240E2F24B1F92F8AC20F021F00EFE737AFD0FDF7E00E9E9886BC5
310
1247A50000000049454E44AE426082
  0
ENDSEC
  0
EOF
