  0
SECTION
  2
HEADER
  9
$ACADVER
  1
AC1032
  9
$ACADMAINTVER
 90
      197
  9
$DWGCODEPAGE
  3
ANSI_1252
  9
$LASTSAVEDBY
  1
gregb
  9
$REQUIREDVERSIONS
160
                 0
  9
$INSBASE
 10
0.0
 20
0.0
 30
0.0
  9
$EXTMIN
 10
104457.4701731293
 20
95258.56151966449
 30
0.0
  9
$EXTMAX
 10
104461.9074337242
 20
95260.61696089207
 30
0.0
  9
$LIMMIN
 10
0.0
 20
0.0
  9
$LIMMAX
 10
12.0
 20
9.0
  9
$ORTHOMODE
 70
     1
  9
$REGENMODE
 70
     1
  9
$FILLMODE
 70
     1
  9
$QTEXTMODE
 70
     0
  9
$MIRRTEXT
 70
     0
  9
$LTSCALE
 40
1.0
  9
$ATTMODE
 70
     1
  9
$TEXTSIZE
 40
0.2
  9
$TRACEWID
 40
0.05
  9
$TEXTSTYLE
  7
Standard
  9
$CLAYER
  8
freecads.com
  9
$CELTYPE
  6
ByLayer
  9
$CECOLOR
 62
   256
  9
$CELTSCALE
 40
1.0
  9
$DISPSILH
 70
     1
  9
$DIMSCALE
 40
1.0
  9
$DIMASZ
 40
0.18
  9
$DIMEXO
 40
0.0625
  9
$DIMDLI
 40
0.38
  9
$DIMRND
 40
0.0
  9
$DIMDLE
 40
0.0
  9
$DIMEXE
 40
0.18
  9
$DIMTP
 40
0.0
  9
$DIMTM
 40
0.0
  9
$DIMTXT
 40
0.18
  9
$DIMCEN
 40
0.09
  9
$DIMTSZ
 40
0.0
  9
$DIMTOL
 70
     0
  9
$DIMLIM
 70
     0
  9
$DIMTIH
 70
     1
  9
$DIMTOH
 70
     1
  9
$DIMSE1
 70
     0
  9
$DIMSE2
 70
     0
  9
$DIMTAD
 70
     0
  9
$DIMZIN
 70
     0
  9
$DIMBLK
  1

  9
$DIMASO
 70
     1
  9
$DIMSHO
 70
     1
  9
$DIMPOST
  1

  9
$DIMAPOST
  1

  9
$DIMALT
 70
     0
  9
$DIMALTD
 70
     2
  9
$DIMALTF
 40
25.4
  9
$DIMLFAC
 40
1.0
  9
$DIMTOFL
 70
     0
  9
$DIMTVP
 40
0.0
  9
$DIMTIX
 70
     0
  9
$DIMSOXD
 70
     0
  9
$DIMSAH
 70
     0
  9
$DIMBLK1
  1

  9
$DIMBLK2
  1

  9
$DIMSTYLE
  2
Standard
  9
$DIMCLRD
 70
     0
  9
$DIMCLRE
 70
     0
  9
$DIMCLRT
 70
     0
  9
$DIMTFAC
 40
1.0
  9
$DIMGAP
 40
0.09
  9
$DIMJUST
 70
     0
  9
$DIMSD1
 70
     0
  9
$DIMSD2
 70
     0
  9
$DIMTOLJ
 70
     1
  9
$DIMTZIN
 70
     0
  9
$DIMALTZ
 70
     0
  9
$DIMALTTZ
 70
     0
  9
$DIMUPT
 70
     0
  9
$DIMDEC
 70
     4
  9
$DIMTDEC
 70
     4
  9
$DIMALTU
 70
     2
  9
$DIMALTTD
 70
     2
  9
$DIMTXSTY
  7
Standard
  9
$DIMAUNIT
 70
     0
  9
$DIMADEC
 70
     0
  9
$DIMALTRND
 40
0.0
  9
$DIMAZIN
 70
     0
  9
$DIMDSEP
 70
    46
  9
$DIMATFIT
 70
     3
  9
$DIMFRAC
 70
     0
  9
$DIMLDRBLK
  1

  9
$DIMLUNIT
 70
     2
  9
$DIMLWD
 70
    -2
  9
$DIMLWE
 70
    -2
  9
$DIMTMOVE
 70
     0
  9
$DIMFXL
 40
1.0
  9
$DIMFXLON
 70
     0
  9
$DIMJOGANG
 40
0.7853981633974483
  9
$DIMTFILL
 70
     0
  9
$DIMTFILLCLR
 70
     0
  9
$DIMARCSYM
 70
     0
  9
$DIMLTYPE
  6

  9
$DIMLTEX1
  6

  9
$DIMLTEX2
  6

  9
$DIMTXTDIRECTION
 70
     0
  9
$LUNITS
 70
     2
  9
$LUPREC
 70
     4
  9
$SKETCHINC
 40
0.1
  9
$FILLETRAD
 40
0.0
  9
$AUNITS
 70
     0
  9
$AUPREC
 70
     0
  9
$MENU
  1
.
  9
$ELEVATION
 40
0.0
  9
$PELEVATION
 40
0.0
  9
$THICKNESS
 40
0.0
  9
$LIMCHECK
 70
     0
  9
$CHAMFERA
 40
0.0
  9
$CHAMFERB
 40
0.0
  9
$CHAMFERC
 40
0.0
  9
$CHAMFERD
 40
0.0
  9
$SKPOLY
 70
     0
  9
$TDCREATE
 40
2458157.454583334
  9
$TDUCREATE
 40
2458157.287916667
  9
$TDUPDATE
 40
2460671.733263889
  9
$TDUUPDATE
 40
2460671.566597222
  9
$TDINDWG
 40
0.1858333333
  9
$TDUSRTIMER
 40
0.1858333333
  9
$USRTIMER
 70
     1
  9
$ANGBASE
 50
0.0
  9
$ANGDIR
 70
     0
  9
$PDMODE
 70
     0
  9
$PDSIZE
 40
0.0
  9
$PLINEWID
 40
0.0
  9
$SPLFRAME
 70
     0
  9
$SPLINETYPE
 70
     6
  9
$SPLINESEGS
 70
     8
  9
$HANDSEED
  5
6B28B
  9
$SURFTAB1
 70
     6
  9
$SURFTAB2
 70
     6
  9
$SURFTYPE
 70
     6
  9
$SURFU
 70
     6
  9
$SURFV
 70
     6
  9
$UCSBASE
  2

  9
$UCSNAME
  2

  9
$UCSORG
 10
0.0
 20
0.0
 30
0.0
  9
$UCSXDIR
 10
1.0
 20
0.0
 30
0.0
  9
$UCSYDIR
 10
0.0
 20
1.0
 30
0.0
  9
$UCSORTHOREF
  2

  9
$UCSORTHOVIEW
 70
     0
  9
$UCSORGTOP
 10
0.0
 20
0.0
 30
0.0
  9
$UCSORGBOTTOM
 10
0.0
 20
0.0
 30
0.0
  9
$UCSORGLEFT
 10
0.0
 20
0.0
 30
0.0
  9
$UCSORGRIGHT
 10
0.0
 20
0.0
 30
0.0
  9
$UCSORGFRONT
 10
0.0
 20
0.0
 30
0.0
  9
$UCSORGBACK
 10
0.0
 20
0.0
 30
0.0
  9
$PUCSBASE
  2

  9
$PUCSNAME
  2

  9
$PUCSORG
 10
0.0
 20
0.0
 30
0.0
  9
$PUCSXDIR
 10
1.0
 20
0.0
 30
0.0
  9
$PUCSYDIR
 10
0.0
 20
1.0
 30
0.0
  9
$PUCSORTHOREF
  2

  9
$PUCSORTHOVIEW
 70
     0
  9
$PUCSORGTOP
 10
0.0
 20
0.0
 30
0.0
  9
$PUCSORGBOTTOM
 10
0.0
 20
0.0
 30
0.0
  9
$PUCSORGLEFT
 10
0.0
 20
0.0
 30
0.0
  9
$PUCSORGRIGHT
 10
0.0
 20
0.0
 30
0.0
  9
$PUCSORGFRONT
 10
0.0
 20
0.0
 30
0.0
  9
$PUCSORGBACK
 10
0.0
 20
0.0
 30
0.0
  9
$USERI1
 70
     0
  9
$USERI2
 70
     0
  9
$USERI3
 70
     0
  9
$USERI4
 70
     0
  9
$USERI5
 70
     0
  9
$USERR1
 40
0.0
  9
$USERR2
 40
0.0
  9
$USERR3
 40
0.0
  9
$USERR4
 40
0.0
  9
$USERR5
 40
0.0
  9
$WORLDVIEW
 70
     1
  9
$SHADEDGE
 70
     3
  9
$SHADEDIF
 70
    70
  9
$TILEMODE
 70
     1
  9
$MAXACTVP
 70
    64
  9
$PINSBASE
 10
0.0
 20
0.0
 30
0.0
  9
$PLIMCHECK
 70
     0
  9
$PEXTMIN
 10
0.0
 20
0.0
 30
0.0
  9
$PEXTMAX
 10
0.0
 20
0.0
 30
0.0
  9
$PLIMMIN
 10
0.0
 20
0.0
  9
$PLIMMAX
 10
12.0
 20
9.0
  9
$UNITMODE
 70
     0
  9
$VISRETAIN
 70
     1
  9
$PLINEGEN
 70
     0
  9
$PSLTSCALE
 70
     1
  9
$TREEDEPTH
 70
  3020
  9
$CMLSTYLE
  2
Standard
  9
$CMLJUST
 70
     0
  9
$CMLSCALE
 40
1.0
  9
$PROXYGRAPHICS
 70
     1
  9
$MEASUREMENT
 70
     0
  9
$CELWEIGHT
370
    -1
  9
$ENDCAPS
280
     0
  9
$JOINSTYLE
280
     0
  9
$LWDISPLAY
290
     0
  9
$INSUNITS
 70
     1
  9
$HYPERLINKBASE
  1

  9
$STYLESHEET
  1
monochrome.ctb
  9
$XEDIT
290
     1
  9
$CEPSNTYPE
380
     0
  9
$PSTYLEMODE
290
     1
  9
$FINGERPRINTGUID
  2
{358EB121-6EE0-9143-8A3E-6E8E8869FDA6}
  9
$VERSIONGUID
  2
{FB6D0ACA-7063-6242-A297-EA8319FB292A}
  9
$EXTNAMES
290
     1
  9
$PSVPSCALE
 40
0.0
  9
$OLESTARTUP
290
     0
  9
$SORTENTS
280
   127
  9
$INDEXCTL
280
     0
  9
$HIDETEXT
280
     1
  9
$XCLIPFRAME
280
     2
  9
$HALOGAP
280
     0
  9
$OBSCOLOR
 70
   257
  9
$OBSLTYPE
280
     0
  9
$INTERSECTIONDISPLAY
280
     0
  9
$INTERSECTIONCOLOR
 70
   257
  9
$DIMASSOC
280
     2
  9
$PROJECTNAME
  1

  9
$CAMERADISPLAY
290
     0
  9
$LENSLENGTH
 40
50.0
  9
$CAMERAHEIGHT
 40
0.0
  9
$STEPSPERSEC
 40
2.0
  9
$STEPSIZE
 40
6.0
  9
$3DDWFPREC
 40
2.0
  9
$PSOLWIDTH
 40
0.25
  9
$PSOLHEIGHT
 40
4.0
  9
$LOFTANG1
 40
1.570796326794896
  9
$LOFTANG2
 40
1.570796326794896
  9
$LOFTMAG1
 40
0.0
  9
$LOFTMAG2
 40
0.0
  9
$LOFTPARAM
 70
     7
  9
$LOFTNORMALS
280
     1
  9
$LATITUDE
 40
37.795
  9
$LONGITUDE
 40
-122.394
  9
$NORTHDIRECTION
 40
0.0
  9
$TIMEZONE
 70
 -8000
  9
$LIGHTGLYPHDISPLAY
280
     1
  9
$TILEMODELIGHTSYNCH
280
     1
  9
$CMATERIAL
347
96
  9
$SOLIDHIST
280
     0
  9
$SHOWHIST
280
     1
  9
$DWFFRAME
280
     2
  9
$DGNFRAME
280
     0
  9
$REALWORLDSCALE
290
     1
  9
$INTERFERECOLOR
 62
     1
  9
$INTERFEREOBJVS
345
A3
  9
$INTERFEREVPVS
346
A0
  9
$CSHADOW
280
     0
  9
$SHADOWPLANELOCATION
 40
0.0
  0
ENDSEC
  0
SECTION
  2
CLASSES
  0
CLASS
  1
ACDBDICTIONARYWDFLT
  2
AcDbDictionaryWithDefault
  3
ObjectDBX Classes
 90
        0
 91
        1
280
     0
281
     0
  0
CLASS
  1
DICTIONARYVAR
  2
AcDbDictionaryVar
  3
ObjectDBX Classes
 90
        0
 91
       27
280
     0
281
     0
  0
CLASS
  1
TABLESTYLE
  2
AcDbTableStyle
  3
ObjectDBX Classes
 90
     4095
 91
        1
280
     0
281
     0
  0
CLASS
  1
MATERIAL
  2
AcDbMaterial
  3
ObjectDBX Classes
 90
     1153
 91
        3
280
     0
281
     0
  0
CLASS
  1
VISUALSTYLE
  2
AcDbVisualStyle
  3
ObjectDBX Classes
 90
     4095
 91
       25
280
     0
281
     0
  0
CLASS
  1
SCALE
  2
AcDbScale
  3
ObjectDBX Classes
 90
     1153
 91
       34
280
     0
281
     0
  0
CLASS
  1
MLEADERSTYLE
  2
AcDbMLeaderStyle
  3
ACDB_MLEADERSTYLE_CLASS
 90
     4095
 91
        1
280
     0
281
     0
  0
CLASS
  1
CELLSTYLEMAP
  2
AcDbCellStyleMap
  3
ObjectDBX Classes
 90
     1152
 91
        1
280
     0
281
     0
  0
CLASS
  1
EXACXREFPANELOBJECT
  2
ExAcXREFPanelObject
  3
EXAC_ESW
 90
     1025
 91
        1
280
     0
281
     0
  0
CLASS
  1
NPOCOLLECTION
  2
AcDbImpNonPersistentObjectsCollection
  3
ObjectDBX Classes
 90
     1153
 91
        1
280
     0
281
     0
  0
CLASS
  1
LAYER_INDEX
  2
AcDbLayerIndex
  3
ObjectDBX Classes
 90
        0
 91
        0
280
     0
281
     0
  0
CLASS
  1
SPATIAL_INDEX
  2
AcDbSpatialIndex
  3
ObjectDBX Classes
 90
        0
 91
        0
280
     0
281
     0
  0
CLASS
  1
IDBUFFER
  2
AcDbIdBuffer
  3
ObjectDBX Classes
 90
        0
 91
        0
280
     0
281
     0
  0
CLASS
  1
ACDBSECTIONVIEWSTYLE
  2
AcDbSectionViewStyle
  3
ObjectDBX Classes
 90
     1025
 91
        2
280
     0
281
     0
  0
CLASS
  1
ACDBDETAILVIEWSTYLE
  2
AcDbDetailViewStyle
  3
ObjectDBX Classes
 90
     1025
 91
        2
280
     0
281
     0
  0
CLASS
  1
SORTENTSTABLE
  2
AcDbSortentsTable
  3
ObjectDBX Classes
 90
        0
 91
        1
280
     0
281
     0
  0
CLASS
  1
ACAD_EVALUATION_GRAPH
  2
AcDbEvalGraph
  3
ObjectDBX Classes
 90
     1153
 91
        0
280
     0
281
     0
  0
CLASS
  1
BLOCKLINEARPARAMETER
  2
AcDbBlockLinearParameter
  3
ObjectDBX Classes
 90
     1153
 91
        0
280
     0
281
     0
  0
CLASS
  1
BLOCKLINEARGRIP
  2
AcDbBlockLinearGrip
  3
ObjectDBX Classes
 90
     1153
 91
        0
280
     0
281
     0
  0
CLASS
  1
BLOCKGRIPLOCATIONCOMPONENT
  2
AcDbBlockGripExpr
  3
ObjectDBX Classes
 90
     1153
 91
        0
280
     0
281
     0
  0
CLASS
  1
BLOCKSTRETCHACTION
  2
AcDbBlockStretchAction
  3
ObjectDBX Classes
 90
     1153
 91
        0
280
     0
281
     0
  0
CLASS
  1
ACDB_DYNAMICBLOCKPURGEPREVENTER_VERSION
  2
AcDbDynamicBlockPurgePreventer
  3
ObjectDBX Classes
 90
     1153
 91
        0
280
     0
281
     0
  0
CLASS
  1
BLOCKVISIBILITYPARAMETER
  2
AcDbBlockVisibilityParameter
  3
ObjectDBX Classes
 90
     1153
 91
        0
280
     0
281
     0
  0
CLASS
  1
BLOCKVISIBILITYGRIP
  2
AcDbBlockVisibilityGrip
  3
ObjectDBX Classes
 90
     1153
 91
        0
280
     0
281
     0
  0
CLASS
  1
ACDB_BLOCKREPRESENTATION_DATA
  2
AcDbBlockRepresentationData
  3
ObjectDBX Classes
 90
     1153
 91
        0
280
     0
281
     0
  0
CLASS
  1
SURFACE
  2
AcDbSurface
  3
ObjectDBX Classes
 90
     4095
 91
        0
280
     0
281
     1
  0
CLASS
  1
ACDBASSOCPERSSUBENTMANAGER
  2
AcDbAssocPersSubentManager
  3
ObjectDBX Classes
 90
     1024
 91
        1
280
     0
281
     0
  0
CLASS
  1
BLOCKARRAYACTION
  2
AcDbBlockArrayAction
  3
ObjectDBX Classes
 90
     1153
 91
        0
280
     0
281
     0
  0
CLASS
  1
BLOCKLOOKUPPARAMETER
  2
AcDbBlockLookupParameter
  3
ObjectDBX Classes
 90
     1153
 91
        0
280
     0
281
     0
  0
CLASS
  1
BLOCKLOOKUPGRIP
  2
AcDbBlockLookupGrip
  3
ObjectDBX Classes
 90
     1153
 91
        0
280
     0
281
     0
  0
CLASS
  1
BLOCKLOOKUPACTION
  2
AcDbBlockLookupAction
  3
ObjectDBX Classes
 90
     1153
 91
        0
280
     0
281
     0
  0
ENDSEC
  0
SECTION
  2
TABLES
  0
TABLE
  2
VPORT
  5
8
330
0
100
AcDbSymbolTable
 70
     1
  0
VPORT
  5
94
330
8
100
AcDbSymbolTableRecord
100
AcDbViewportTableRecord
  2
*Active
 70
     0
 10
0.0
 20
0.0
 11
1.0
 21
1.0
 12
104465.5453707339
 22
95257.84774338989
 13
0.0
 23
0.0
 14
0.5
 24
0.5
 15
0.5
 25
0.5
 16
0.0
 26
0.0
 36
1.0
 17
0.0
 27
0.0
 37
0.0
 40
16.05110869113666
 41
2.293369663941871
 42
50.0
 43
0.0
 44
0.0
 50
0.0
 51
0.0
 71
     0
 72
  1000
 73
     1
 74
     3
 75
     0
 76
     0
 77
     0
 78
     0
281
     0
 65
     1
110
0.0
120
0.0
130
0.0
111
1.0
121
0.0
131
0.0
112
0.0
122
1.0
132
0.0
 79
     0
146
0.0
348
9F
 60
     3
 61
     5
292
     1
282
     1
141
0.0
142
0.0
 63
   250
421
  3355443
1001
ACAD_NAV_VCDISPLAY
1070
     3
  0
ENDTAB
  0
TABLE
  2
LTYPE
  5
5
330
0
100
AcDbSymbolTable
 70
     1
  0
LTYPE
  5
14
330
5
100
AcDbSymbolTableRecord
100
AcDbLinetypeTableRecord
  2
ByBlock
 70
     0
  3

 72
    65
 73
     0
 40
0.0
  0
LTYPE
  5
15
330
5
100
AcDbSymbolTableRecord
100
AcDbLinetypeTableRecord
  2
ByLayer
 70
     0
  3

 72
    65
 73
     0
 40
0.0
  0
LTYPE
  5
16
330
5
100
AcDbSymbolTableRecord
100
AcDbLinetypeTableRecord
  2
Continuous
 70
     0
  3
Solid line
 72
    65
 73
     0
 40
0.0
  0
ENDTAB
  0
TABLE
  2
LAYER
  5
2
102
{ACAD_XDICTIONARY
360
18E
102
}
330
0
100
AcDbSymbolTable
 70
     2
  0
LAYER
  5
10
102
{ACAD_XDICTIONARY
360
E6
102
}
330
2
100
AcDbSymbolTableRecord
100
AcDbLayerTableRecord
  2
0
 70
     0
 62
     7
  6
Continuous
370
    -3
390
F
347
98
348
0
  0
LAYER
  5
204
330
2
100
AcDbSymbolTableRecord
100
AcDbLayerTableRecord
  2
freecads.com
 70
     0
 62
     7
  6
Continuous
370
    -3
390
F
347
98
348
0
1001
AcAecLayerStandard
1000

1000

1001
AcCmTransparency
1071
        0
  0
ENDTAB
  0
TABLE
  2
STYLE
  5
3
330
0
100
AcDbSymbolTable
 70
     2
  0
STYLE
  5
11
330
3
100
AcDbSymbolTableRecord
100
AcDbTextStyleTableRecord
  2
Standard
 70
     0
 40
0.0
 41
1.0
 50
0.0
 71
     0
 42
0.2
  3
arial.ttf
  4

1001
ACAD
1000
Arial
1071
       34
  0
ENDTAB
  0
TABLE
  2
VIEW
  5
6
330
0
100
AcDbSymbolTable
 70
     0
  0
ENDTAB
  0
TABLE
  2
UCS
  5
7
330
0
100
AcDbSymbolTable
 70
     0
  0
ENDTAB
  0
TABLE
  2
APPID
  5
9
330
0
100
AcDbSymbolTable
 70
    31
  0
APPID
  5
12
330
9
100
AcDbSymbolTableRecord
100
AcDbRegAppTableRecord
  2
ACAD
 70
     0
  0
APPID
  5
DD
330
9
100
AcDbSymbolTableRecord
100
AcDbRegAppTableRecord
  2
AcadAnnoPO
 70
     0
  0
APPID
  5
DE
330
9
100
AcDbSymbolTableRecord
100
AcDbRegAppTableRecord
  2
AcadAnnotative
 70
     0
  0
APPID
  5
DF
330
9
100
AcDbSymbolTableRecord
100
AcDbRegAppTableRecord
  2
ACAD_DSTYLE_DIMJAG
 70
     0
  0
APPID
  5
E0
330
9
100
AcDbSymbolTableRecord
100
AcDbRegAppTableRecord
  2
ACAD_DSTYLE_DIMTALN
 70
     0
  0
APPID
  5
107
330
9
100
AcDbSymbolTableRecord
100
AcDbRegAppTableRecord
  2
ACAD_MLEADERVER
 70
     0
  0
APPID
  5
1A6
330
9
100
AcDbSymbolTableRecord
100
AcDbRegAppTableRecord
  2
ACAD_NAV_VCDISPLAY
 70
     0
  0
APPID
  5
205
330
9
100
AcDbSymbolTableRecord
100
AcDbRegAppTableRecord
  2
AcAecLayerStandard
 70
     0
  0
APPID
  5
206
330
9
100
AcDbSymbolTableRecord
100
AcDbRegAppTableRecord
  2
AcCmTransparency
 70
     0
  0
APPID
  5
222
330
9
100
AcDbSymbolTableRecord
100
AcDbRegAppTableRecord
  2
ACAD_PSEXT
 70
     0
  0
APPID
  5
2DA
330
9
100
AcDbSymbolTableRecord
100
AcDbRegAppTableRecord
  2
GradientColor1ACI
 70
     0
  0
APPID
  5
2DB
330
9
100
AcDbSymbolTableRecord
100
AcDbRegAppTableRecord
  2
GradientColor2ACI
 70
     0
  0
APPID
  5
2F3
330
9
100
AcDbSymbolTableRecord
100
AcDbRegAppTableRecord
  2
ACAD_EXEMPT_FROM_CAD_STANDARDS
 70
     0
  0
APPID
  5
A1A
330
9
100
AcDbSymbolTableRecord
100
AcDbRegAppTableRecord
  2
AcDbBlockRepETag
 70
     0
  0
APPID
  5
2282
330
9
100
AcDbSymbolTableRecord
100
AcDbRegAppTableRecord
  2
RAK
 70
     0
  0
APPID
  5
39F4
330
9
100
AcDbSymbolTableRecord
100
AcDbRegAppTableRecord
  2
ACAD_DSTYLE_DIMJOGGED_JOGANGLE_SYMBOL
 70
     0
  0
APPID
  5
39F5
330
9
100
AcDbSymbolTableRecord
100
AcDbRegAppTableRecord
  2
AcDbDynamicBlockGUID
 70
     0
  0
APPID
  5
39F6
330
9
100
AcDbSymbolTableRecord
100
AcDbRegAppTableRecord
  2
ACAD_DSTYLE_DIMBREAK
 70
     0
  0
APPID
  5
3B59
330
9
100
AcDbSymbolTableRecord
100
AcDbRegAppTableRecord
  2
AEC_XDATA_BOUND_SPACE
 70
     0
  0
APPID
  5
75C5
330
9
100
AcDbSymbolTableRecord
100
AcDbRegAppTableRecord
  2
AcDbDynamicBlockTrueName
 70
     0
  0
APPID
  5
75C6
330
9
100
AcDbSymbolTableRecord
100
AcDbRegAppTableRecord
  2
AcDbBlockRepBTag
 70
     0
  0
APPID
  5
75C7
330
9
100
AcDbSymbolTableRecord
100
AcDbRegAppTableRecord
  2
ACAUTHENVIRON
 70
     0
  0
APPID
  5
AA90
330
9
100
AcDbSymbolTableRecord
100
AcDbRegAppTableRecord
  2
Acad_TC
 70
     0
  0
APPID
  5
AA9C
330
9
100
AcDbSymbolTableRecord
100
AcDbRegAppTableRecord
  2
AcDbBlockArrayActionTag
 70
     0
  0
APPID
  5
BEE4
330
9
100
AcDbSymbolTableRecord
100
AcDbRegAppTableRecord
  2
ACAD_DSTYLE_DIMTEXT_FILL
 70
     0
  0
APPID
  5
219E5
330
9
100
AcDbSymbolTableRecord
100
AcDbRegAppTableRecord
  2
AECLAY
 70
     0
  0
APPID
  5
26B46
330
9
100
AcDbSymbolTableRecord
100
AcDbRegAppTableRecord
  2
REVIT
 70
     0
  0
APPID
  5
280A5
330
9
100
AcDbSymbolTableRecord
100
AcDbRegAppTableRecord
  2
HATCHBACKGROUNDCOLOR
 70
     0
  0
APPID
  5
29EE0
330
9
100
AcDbSymbolTableRecord
100
AcDbRegAppTableRecord
  2
ACAD_STEPID
 70
     0
  0
APPID
  5
29EE1
330
9
100
AcDbSymbolTableRecord
100
AcDbRegAppTableRecord
  2
AcLayerTools
 70
     0
  0
APPID
  5
4D86C
330
9
100
AcDbSymbolTableRecord
100
AcDbRegAppTableRecord
  2
PE_URL
 70
     0
  0
ENDTAB
  0
TABLE
  2
DIMSTYLE
  5
A
330
0
100
AcDbSymbolTable
 70
     2
100
AcDbDimStyleTable
 71
     1
340
27
  0
DIMSTYLE
105
27
330
A
100
AcDbSymbolTableRecord
100
AcDbDimStyleTableRecord
  2
Standard
 70
     0
340
11
  0
ENDTAB
  0
TABLE
  2
BLOCK_RECORD
  5
1
330
0
100
AcDbSymbolTable
 70
     2
  0
BLOCK_RECORD
  5
1F
102
{ACAD_XDICTIONARY
360
15D
102
}
330
1
100
AcDbSymbolTableRecord
100
AcDbBlockTableRecord
  2
*Model_Space
340
22
 70
     0
280
     1
281
     0
  0
BLOCK_RECORD
  5
58
330
1
100
AcDbSymbolTableRecord
100
AcDbBlockTableRecord
  2
*Paper_Space
340
59
 70
     0
280
     1
281
     0
  0
BLOCK_RECORD
  5
5D
330
1
100
AcDbSymbolTableRecord
100
AcDbBlockTableRecord
  2
*Paper_Space0
340
5E
 70
     0
280
     1
281
     0
  0
ENDTAB
  0
ENDSEC
  0
SECTION
  2
BLOCKS
  0
BLOCK
  5
20
330
1F
100
AcDbEntity
  8
0
100
AcDbBlockBegin
  2
*Model_Space
 70
     0
 10
0.0
 20
0.0
 30
0.0
  3
*Model_Space
  1

  0
ENDBLK
  5
21
330
1F
100
AcDbEntity
  8
0
100
AcDbBlockEnd
  0
BLOCK
  5
5A
330
58
100
AcDbEntity
 67
     1
  8
0
100
AcDbBlockBegin
  2
*Paper_Space
 70
     0
 10
0.0
 20
0.0
 30
0.0
  3
*Paper_Space
  1

  0
ENDBLK
  5
5B
330
58
100
AcDbEntity
 67
     1
  8
0
100
AcDbBlockEnd
  0
BLOCK
  5
5F
330
5D
100
AcDbEntity
 67
     1
  8
0
100
AcDbBlockBegin
  2
*Paper_Space0
 70
     0
 10
0.0
 20
0.0
 30
0.0
  3
*Paper_Space0
  1

  0
ENDBLK
  5
60
330
5D
100
AcDbEntity
 67
     1
  8
0
100
AcDbBlockEnd
  0
ENDSEC
  0
SECTION
  2
ENTITIES
  0
LINE
  5
60ED1
330
1F
100
AcDbEntity
  8
freecads.com
100
AcDbLine
 10
104458.2890603321
 20
95258.79351477961
 30
0.0
 11
104458.271699394
 21
95258.83303390388
 31
0.0
  0
LINE
  5
60ED2
330
1F
100
AcDbEntity
  8
freecads.com
100
AcDbLine
 10
104458.2983803058
 20
95258.76553691926
 30
0.0
 11
104458.2890603321
 21
95258.79351477961
 31
0.0
  0
LINE
  5
60ED3
330
1F
100
AcDbEntity
  8
freecads.com
100
AcDbLine
 10
104458.2950796383
 20
95258.73771652399
 30
0.0
 11
104458.2983803058
 21
95258.76553691926
 31
0.0
  0
LINE
  5
60ED4
330
1F
100
AcDbEntity
  8
freecads.com
100
AcDbLine
 10
104457.4701731293
 20
95258.75918860045
 30
0.0
 11
104457.479752775
 21
95258.78648073179
 31
0.0
  0
LINE
  5
60ED5
330
1F
100
AcDbEntity
  8
freecads.com
100
AcDbLine
 10
104461.9046822604
 20
95259.95223900288
 30
0.0
 11
104461.9072032116
 21
95259.92423155278
 31
0.0
  0
LINE
  5
60ED6
330
1F
100
AcDbEntity
  8
freecads.com
100
AcDbLine
 10
104461.9020370961
 20
95259.97671006509
 30
0.0
 11
104461.9046822604
 21
95259.95223900288
 31
0.0
  0
LINE
  5
60ED7
330
1F
100
AcDbEntity
  8
freecads.com
100
AcDbLine
 10
104461.8993919319
 20
95259.99390594664
 30
0.0
 11
104461.9020370961
 21
95259.97671006509
 31
0.0
  0
LINE
  5
60ED8
330
1F
100
AcDbEntity
  8
freecads.com
100
AcDbLine
 10
104461.8980693497
 20
95260.00018905721
 30
0.0
 11
104461.8993919319
 21
95259.99390594664
 31
0.0
  0
LINE
  5
60ED9
330
1F
100
AcDbEntity
  8
freecads.com
100
AcDbLine
 10
104461.8941016033
 20
95260.00217319738
 30
0.0
 11
104461.8980693497
 21
95260.00018905721
 31
0.0
  0
LINE
  5
60EDA
330
1F
100
AcDbEntity
  8
freecads.com
100
AcDbLine
 10
104461.8894725658
 20
95260.0011811273
 30
0.0
 11
104461.8941016033
 21
95260.00217319738
 31
0.0
  0
LINE
  5
60EDB
330
1F
100
AcDbEntity
  8
freecads.com
100
AcDbLine
 10
104461.8874886926
 20
95259.99721284694
 30
0.0
 11
104461.8894725658
 21
95260.0011811273
 31
0.0
  0
LINE
  5
60EDC
330
1F
100
AcDbEntity
  8
freecads.com
100
AcDbLine
 10
104461.8884806292
 20
95259.98133972551
 30
0.0
 11
104461.8874886926
 21
95259.99721284694
 31
0.0
  0
LINE
  5
60EDD
330
1F
100
AcDbEntity
  8
freecads.com
100
AcDbLine
 10
104461.8891956737
 20
95259.96386948255
 30
0.0
 11
104461.8884806292
 21
95259.98133972551
 31
0.0
  0
ARC
  5
60EDE
330
1F
100
AcDbEntity
  8
freecads.com
100
AcDbCircle
 10
104461.2065760725
 20
95259.90625768171
 30
0.0
 40
0.7008576517959331
100
AcDbArc
 50
307.1562024674368
 51
1.469542167173518
  0
ARC
  5
60EDF
330
1F
100
AcDbEntity
  8
freecads.com
100
AcDbCircle
 10
104461.2549962272
 20
95259.95041242664
 30
0.0
 40
0.6343422029082456
100
AcDbArc
 50
300.764190873829
 51
1.215574732507414
  0
LINE
  5
60EE0
330
1F
100
AcDbEntity
  8
freecads.com
100
AcDbLine
 10
104458.2742424561
 20
95258.74026854202
 30
0.0
 11
104458.2950796383
 21
95258.73771652399
 31
0.0
  0
LINE
  5
60EE1
330
1F
100
AcDbEntity
  8
freecads.com
100
AcDbLine
 10
104458.2497069465
 20
95258.73253450727
 30
0.0
 11
104458.2742424561
 21
95258.74026854202
 31
0.0
  0
LINE
  5
60EE2
330
1F
100
AcDbEntity
  8
freecads.com
100
AcDbLine
 10
104458.2070478753
 20
95258.72500364801
 30
0.0
 11
104458.2497069465
 21
95258.73253450727
 31
0.0
  0
LINE
  5
60EE3
330
1F
100
AcDbEntity
  8
freecads.com
100
AcDbLine
 10
104458.1746843068
 20
95258.71461741781
 30
0.0
 11
104458.2070478753
 21
95258.72500364801
 31
0.0
  0
LINE
  5
60EE4
330
1F
100
AcDbEntity
  8
freecads.com
100
AcDbLine
 10
104458.135018108
 20
95258.71084678707
 30
0.0
 11
104458.1746843068
 21
95258.71461741781
 31
0.0
  0
LINE
  5
60EE5
330
1F
100
AcDbEntity
  8
freecads.com
100
AcDbLine
 10
104458.0934524187
 20
95258.72564482124
 30
0.0
 11
104458.135018108
 21
95258.71084678707
 31
0.0
  0
LINE
  5
60EE6
330
1F
100
AcDbEntity
  8
freecads.com
100
AcDbLine
 10
104458.0885387934
 20
95258.73855660583
 30
0.0
 11
104458.0934524187
 21
95258.72564482124
 31
0.0
  0
LINE
  5
60EE7
330
1F
100
AcDbEntity
  8
freecads.com
100
AcDbLine
 10
104458.0752282035
 20
95258.7732713793
 30
0.0
 11
104458.0885387934
 21
95258.73855660583
 31
0.0
  0
LINE
  5
60EE8
330
1F
100
AcDbEntity
  8
freecads.com
100
AcDbLine
 10
104458.0458948314
 20
95258.7887753445
 30
0.0
 11
104458.0752282035
 21
95258.7732713793
 31
0.0
  0
LINE
  5
60EE9
330
1F
100
AcDbEntity
  8
freecads.com
100
AcDbLine
 10
104458.0089413009
 20
95258.82017215412
 30
0.0
 11
104458.0458948314
 21
95258.7887753445
 31
0.0
  0
LINE
  5
60EEA
330
1F
100
AcDbEntity
  8
freecads.com
100
AcDbLine
 10
104457.9964571298
 20
95258.85340230397
 30
0.0
 11
104458.0089413009
 21
95258.82017215412
 31
0.0
  0
LINE
  5
60EEB
330
1F
100
AcDbEntity
  8
freecads.com
100
AcDbLine
 10
104457.9960724996
 20
95258.8942951373
 30
0.0
 11
104457.9964571298
 21
95258.85340230397
 31
0.0
  0
LINE
  5
60EEC
330
1F
100
AcDbEntity
  8
freecads.com
100
AcDbLine
 10
104457.9973359819
 20
95258.93179724517
 30
0.0
 11
104457.9960724996
 21
95258.8942951373
 31
0.0
  0
LINE
  5
60EED
330
1F
100
AcDbEntity
  8
freecads.com
100
AcDbLine
 10
104457.9928901327
 20
95258.98643536942
 30
0.0
 11
104457.9973359819
 21
95258.93179724517
 31
0.0
  0
LINE
  5
60EEE
330
1F
100
AcDbEntity
  8
freecads.com
100
AcDbLine
 10
104457.9851088478
 20
95259.00675609719
 30
0.0
 11
104457.9928901327
 21
95258.98643536942
 31
0.0
  0
LINE
  5
60EEF
330
1F
100
AcDbEntity
  8
freecads.com
100
AcDbLine
 10
104461.1656846805
 20
95259.45017017573
 30
0.0
 11
104461.2049227898
 21
95259.43455517277
 31
0.0
  0
LINE
  5
60EF0
330
1F
100
AcDbEntity
  8
freecads.com
100
AcDbLine
 10
104461.0848874934
 20
95259.49997357159
 30
0.0
 11
104461.1334978239
 21
95259.47434751866
 31
0.0
  0
LINE
  5
60EF1
330
1F
100
AcDbEntity
  8
freecads.com
100
AcDbLine
 10
104461.0368347141
 20
95259.57533404953
 30
0.0
 11
104461.0528943622
 21
95259.54143151983
 31
0.0
  0
LINE
  5
60EF2
330
1F
100
AcDbEntity
  8
freecads.com
100
AcDbLine
 10
104457.7920911464
 20
95259.36785370886
 30
0.0
 11
104457.7951619814
 21
95259.37856832733
 31
0.0
  0
LINE
  5
60EF3
330
1F
100
AcDbEntity
  8
freecads.com
100
AcDbLine
 10
104457.7803398461
 20
95259.3536533886
 30
0.0
 11
104457.7920911464
 21
95259.36785370886
 31
0.0
  0
LINE
  5
60EF4
330
1F
100
AcDbEntity
  8
freecads.com
100
AcDbLine
 10
104457.75722281
 20
95259.34084507817
 30
0.0
 11
104457.7803398461
 21
95259.3536533886
 31
0.0
  0
LINE
  5
60EF5
330
1F
100
AcDbEntity
  8
freecads.com
100
AcDbLine
 10
104457.7412236529
 20
95259.32374166076
 30
0.0
 11
104457.75722281
 21
95259.34084507817
 31
0.0
  0
LINE
  5
60EF6
330
1F
100
AcDbEntity
  8
freecads.com
100
AcDbLine
 10
104457.7114154171
 20
95259.29688706904
 30
0.0
 11
104457.7412236529
 21
95259.32374166076
 31
0.0
  0
LINE
  5
60EF7
330
1F
100
AcDbEntity
  8
freecads.com
100
AcDbLine
 10
104457.6802099705
 20
95259.27700340478
 30
0.0
 11
104457.7114154171
 21
95259.29688706904
 31
0.0
  0
LINE
  5
60EF8
330
1F
100
AcDbEntity
  8
freecads.com
100
AcDbLine
 10
104457.6484290067
 20
95259.2621845662
 30
0.0
 11
104457.6802099705
 21
95259.27700340478
 31
0.0
  0
LINE
  5
60EF9
330
1F
100
AcDbEntity
  8
freecads.com
100
AcDbLine
 10
104457.6279736161
 20
95259.24239115326
 30
0.0
 11
104457.6484290067
 21
95259.2621845662
 31
0.0
  0
LINE
  5
60EFA
330
1F
100
AcDbEntity
  8
freecads.com
100
AcDbLine
 10
104457.5945899034
 20
95259.21620894138
 30
0.0
 11
104457.6279736161
 21
95259.24239115326
 31
0.0
  0
LINE
  5
60EFB
330
1F
100
AcDbEntity
  8
freecads.com
100
AcDbLine
 10
104457.5720819357
 20
95259.1825280111
 30
0.0
 11
104457.5945899034
 21
95259.21620894138
 31
0.0
  0
LINE
  5
60EFC
330
1F
100
AcDbEntity
  8
freecads.com
100
AcDbLine
 10
104457.5667903095
 20
95259.1617215414
 30
0.0
 11
104457.5720819357
 21
95259.1825280111
 31
0.0
  0
LINE
  5
60EFD
330
1F
100
AcDbEntity
  8
freecads.com
100
AcDbLine
 10
104457.5665658714
 20
95259.14170132791
 30
0.0
 11
104457.5667903095
 21
95259.1617215414
 31
0.0
  0
LINE
  5
60EFE
330
1F
100
AcDbEntity
  8
freecads.com
100
AcDbLine
 10
104457.5682692739
 20
95259.1056413186
 30
0.0
 11
104457.5665658714
 21
95259.14170132791
 31
0.0
  0
LINE
  5
60EFF
330
1F
100
AcDbEntity
  8
freecads.com
100
AcDbLine
 10
104457.5715045501
 20
95259.07462250989
 30
0.0
 11
104457.5682692739
 21
95259.1056413186
 31
0.0
  0
LINE
  5
60F00
330
1F
100
AcDbEntity
  8
freecads.com
100
AcDbLine
 10
104457.5660995236
 20
95259.04370056391
 30
0.0
 11
104457.5715045501
 21
95259.07462250989
 31
0.0
  0
LINE
  5
60F01
330
1F
100
AcDbEntity
  8
freecads.com
100
AcDbLine
 10
104457.5512707769
 20
95258.99939526645
 30
0.0
 11
104457.5660995236
 21
95259.04370056391
 31
0.0
  0
LINE
  5
60F02
330
1F
100
AcDbEntity
  8
freecads.com
100
AcDbLine
 10
104457.5371451226
 20
95258.96140505418
 30
0.0
 11
104457.5512707769
 21
95258.99939526645
 31
0.0
  0
LINE
  5
60F03
330
1F
100
AcDbEntity
  8
freecads.com
100
AcDbLine
 10
104457.5156606138
 20
95258.90621456175
 30
0.0
 11
104457.5371451226
 21
95258.96140505418
 31
0.0
  0
LINE
  5
60F04
330
1F
100
AcDbEntity
  8
freecads.com
100
AcDbLine
 10
104457.502458241
 20
95258.87538002846
 30
0.0
 11
104457.5156606138
 21
95258.90621456175
 31
0.0
  0
LINE
  5
60F05
330
1F
100
AcDbEntity
  8
freecads.com
100
AcDbLine
 10
104457.4866967627
 20
95258.82307609565
 30
0.0
 11
104457.502458241
 21
95258.87538002846
 31
0.0
  0
LINE
  5
60F06
330
1F
100
AcDbEntity
  8
freecads.com
100
AcDbLine
 10
104457.479752775
 20
95258.78648073179
 30
0.0
 11
104457.4866967627
 21
95258.82307609565
 31
0.0
  0
LINE
  5
60F07
330
1F
100
AcDbEntity
  8
freecads.com
100
AcDbLine
 10
104457.9177039681
 20
95259.16073831689
 30
0.0
 11
104457.9292653337
 21
95259.10159434657
 31
0.0
  0
LINE
  5
60F08
330
1F
100
AcDbEntity
  8
freecads.com
100
AcDbLine
 10
104457.9003227093
 20
95259.20835542494
 30
0.0
 11
104457.9177039681
 21
95259.16073831689
 31
0.0
  0
LINE
  5
60F09
330
1F
100
AcDbEntity
  8
freecads.com
100
AcDbLine
 10
104457.8769368057
 20
95259.24676616321
 30
0.0
 11
104457.9003227093
 21
95259.20835542494
 31
0.0
  0
LINE
  5
60F0A
330
1F
100
AcDbEntity
  8
freecads.com
100
AcDbLine
 10
104457.8479748231
 20
95259.27659802398
 30
0.0
 11
104457.8769368057
 21
95259.24676616321
 31
0.0
  0
LINE
  5
60F0B
330
1F
100
AcDbEntity
  8
freecads.com
100
AcDbLine
 10
104457.8197981445
 20
95259.33887897949
 30
0.0
 11
104457.8479748231
 21
95259.27659802398
 31
0.0
  0
LINE
  5
60F0C
330
1F
100
AcDbEntity
  8
freecads.com
100
AcDbLine
 10
104457.7987138334
 20
95259.37578855657
 30
0.0
 11
104457.8197981445
 21
95259.33887897949
 31
0.0
  0
LINE
  5
60F0D
330
1F
100
AcDbEntity
  8
freecads.com
100
AcDbLine
 10
104457.7702843667
 20
95259.41552042953
 30
0.0
 11
104457.7987138334
 21
95259.37578855657
 31
0.0
  0
LINE
  5
60F0E
330
1F
100
AcDbEntity
  8
freecads.com
100
AcDbLine
 10
104457.7457072662
 20
95259.46047825462
 30
0.0
 11
104457.7702843667
 21
95259.41552042953
 31
0.0
  0
LINE
  5
60F0F
330
1F
100
AcDbEntity
  8
freecads.com
100
AcDbLine
 10
104457.7315844326
 20
95259.49794208628
 30
0.0
 11
104457.7457072662
 21
95259.46047825462
 31
0.0
  0
LINE
  5
60F10
330
1F
100
AcDbEntity
  8
freecads.com
100
AcDbLine
 10
104457.6989992467
 20
95259.54298968656
 30
0.0
 11
104457.7315844326
 21
95259.49794208628
 31
0.0
  0
LINE
  5
60F11
330
1F
100
AcDbEntity
  8
freecads.com
100
AcDbLine
 10
104457.6679931848
 20
95259.59729326926
 30
0.0
 11
104457.6989992467
 21
95259.54298968656
 31
0.0
  0
LINE
  5
60F12
330
1F
100
AcDbEntity
  8
freecads.com
100
AcDbLine
 10
104457.6462596427
 20
95259.65149290168
 30
0.0
 11
104457.6679931848
 21
95259.59729326926
 31
0.0
  0
LINE
  5
60F13
330
1F
100
AcDbEntity
  8
freecads.com
100
AcDbLine
 10
104457.6290083217
 20
95259.71070065965
 30
0.0
 11
104457.6462596427
 21
95259.65149290168
 31
0.0
  0
LINE
  5
60F14
330
1F
100
AcDbEntity
  8
freecads.com
100
AcDbLine
 10
104457.6207720075
 20
95259.74683390662
 30
0.0
 11
104457.6290083217
 21
95259.71070065965
 31
0.0
  0
LINE
  5
60F15
330
1F
100
AcDbEntity
  8
freecads.com
100
AcDbLine
 10
104457.6102889146
 20
95259.77055717241
 30
0.0
 11
104457.6207720075
 21
95259.74683390662
 31
0.0
  0
LINE
  5
60F16
330
1F
100
AcDbEntity
  8
freecads.com
100
AcDbLine
 10
104457.6086530906
 20
95259.75624345187
 30
0.0
 11
104457.6102889146
 21
95259.77055717241
 31
0.0
  0
LINE
  5
60F17
330
1F
100
AcDbEntity
  8
freecads.com
100
AcDbLine
 10
104457.6083223398
 20
95259.72673997939
 30
0.0
 11
104457.6086530906
 21
95259.75624345187
 31
0.0
  0
LINE
  5
60F18
330
1F
100
AcDbEntity
  8
freecads.com
100
AcDbLine
 10
104457.6152606683
 20
95259.70642870163
 30
0.0
 11
104457.6083223398
 21
95259.72673997939
 31
0.0
  0
LINE
  5
60F19
330
1F
100
AcDbEntity
  8
freecads.com
100
AcDbLine
 10
104457.6207096481
 20
95259.68486952688
 30
0.0
 11
104457.6152606683
 21
95259.70642870163
 31
0.0
  0
LINE
  5
60F1A
330
1F
100
AcDbEntity
  8
freecads.com
100
AcDbLine
 10
104457.6347190815
 20
95259.63729021892
 30
0.0
 11
104457.6207096481
 21
95259.68486952688
 31
0.0
  0
LINE
  5
60F1B
330
1F
100
AcDbEntity
  8
freecads.com
100
AcDbLine
 10
104457.6395098566
 20
95259.6134200017
 30
0.0
 11
104457.6347190815
 21
95259.63729021892
 31
0.0
  0
LINE
  5
60F1C
330
1F
100
AcDbEntity
  8
freecads.com
100
AcDbLine
 10
104457.6341615302
 20
95259.58755579386
 30
0.0
 11
104457.6395098566
 21
95259.6134200017
 31
0.0
  0
LINE
  5
60F1D
330
1F
100
AcDbEntity
  8
freecads.com
100
AcDbLine
 10
104457.6244703707
 20
95259.56911706675
 30
0.0
 11
104457.6341615302
 21
95259.58755579386
 31
0.0
  0
LINE
  5
60F1E
330
1F
100
AcDbEntity
  8
freecads.com
100
AcDbLine
 10
104457.5956397542
 20
95259.55426515308
 30
0.0
 11
104457.6244703707
 21
95259.56911706675
 31
0.0
  0
LINE
  5
60F1F
330
1F
100
AcDbEntity
  8
freecads.com
100
AcDbLine
 10
104457.572003425
 20
95259.5703375479
 30
0.0
 11
104457.5956397542
 21
95259.55426515308
 31
0.0
  0
LINE
  5
60F20
330
1F
100
AcDbEntity
  8
freecads.com
100
AcDbLine
 10
104457.5486411465
 20
95259.61085567708
 30
0.0
 11
104457.572003425
 21
95259.5703375479
 31
0.0
  0
LINE
  5
60F21
330
1F
100
AcDbEntity
  8
freecads.com
100
AcDbLine
 10
104457.5210640862
 20
95259.65142105636
 30
0.0
 11
104457.5486411465
 21
95259.61085567708
 31
0.0
  0
LINE
  5
60F22
330
1F
100
AcDbEntity
  8
freecads.com
100
AcDbLine
 10
104457.524465672
 20
95259.69163914734
 30
0.0
 11
104457.5210640862
 21
95259.65142105636
 31
0.0
  0
LINE
  5
60F23
330
1F
100
AcDbEntity
  8
freecads.com
100
AcDbLine
 10
104457.5446729995
 20
95259.6893049559
 30
0.0
 11
104457.524465672
 21
95259.69163914734
 31
0.0
  0
LINE
  5
60F24
330
1F
100
AcDbEntity
  8
freecads.com
100
AcDbLine
 10
104457.5572540333
 20
95259.66471510871
 30
0.0
 11
104457.5446729995
 21
95259.6893049559
 31
0.0
  0
LINE
  5
60F25
330
1F
100
AcDbEntity
  8
freecads.com
100
AcDbLine
 10
104457.5726814641
 20
95259.63081966652
 30
0.0
 11
104457.5572540333
 21
95259.66471510871
 31
0.0
  0
LINE
  5
60F26
330
1F
100
AcDbEntity
  8
freecads.com
100
AcDbLine
 10
104457.5883167954
 20
95259.61546926417
 30
0.0
 11
104457.5726814641
 21
95259.63081966652
 31
0.0
  0
LINE
  5
60F27
330
1F
100
AcDbEntity
  8
freecads.com
100
AcDbLine
 10
104457.6005467501
 20
95259.61596445613
 30
0.0
 11
104457.5883167954
 21
95259.61546926417
 31
0.0
  0
LINE
  5
60F28
330
1F
100
AcDbEntity
  8
freecads.com
100
AcDbLine
 10
104457.5907880122
 20
95259.64789945886
 30
0.0
 11
104457.6005467501
 21
95259.61596445613
 31
0.0
  0
LINE
  5
60F29
330
1F
100
AcDbEntity
  8
freecads.com
100
AcDbLine
 10
104457.5762200752
 20
95259.68326062466
 30
0.0
 11
104457.5907880122
 21
95259.64789945886
 31
0.0
  0
LINE
  5
60F2A
330
1F
100
AcDbEntity
  8
freecads.com
100
AcDbLine
 10
104457.5664920499
 20
95259.71793523556
 30
0.0
 11
104457.5762200752
 21
95259.68326062466
 31
0.0
  0
LINE
  5
60F2B
330
1F
100
AcDbEntity
  8
freecads.com
100
AcDbLine
 10
104457.5662472835
 20
95259.75250353372
 30
0.0
 11
104457.5664920499
 21
95259.71793523556
 31
0.0
  0
LINE
  5
60F2C
330
1F
100
AcDbEntity
  8
freecads.com
100
AcDbLine
 10
104457.5718266593
 20
95259.81777831376
 30
0.0
 11
104457.5662472835
 21
95259.75250353372
 31
0.0
  0
LINE
  5
60F2D
330
1F
100
AcDbEntity
  8
freecads.com
100
AcDbLine
 10
104457.581135551
 20
95259.87732061327
 30
0.0
 11
104457.5718266593
 21
95259.81777831376
 31
0.0
  0
LINE
  5
60F2E
330
1F
100
AcDbEntity
  8
freecads.com
100
AcDbLine
 10
104457.5871732708
 20
95259.88947733029
 30
0.0
 11
104457.581135551
 21
95259.87732061327
 31
0.0
  0
LINE
  5
60F2F
330
1F
100
AcDbEntity
  8
freecads.com
100
AcDbLine
 10
104457.5916951784
 20
95259.91682616179
 30
0.0
 11
104457.5871732708
 21
95259.88947733029
 31
0.0
  0
LINE
  5
60F30
330
1F
100
AcDbEntity
  8
freecads.com
100
AcDbLine
 10
104457.6060381832
 20
95259.97420437029
 30
0.0
 11
104457.5916951784
 21
95259.91682616179
 31
0.0
  0
LINE
  5
60F31
330
1F
100
AcDbEntity
  8
freecads.com
100
AcDbLine
 10
104457.6186886639
 20
95260.01221112011
 30
0.0
 11
104457.6060381832
 21
95259.97420437029
 31
0.0
  0
LINE
  5
60F32
330
1F
100
AcDbEntity
  8
freecads.com
100
AcDbLine
 10
104457.6344028921
 20
95260.06030027115
 30
0.0
 11
104457.6186886639
 21
95260.01221112011
 31
0.0
  0
LINE
  5
60F33
330
1F
100
AcDbEntity
  8
freecads.com
100
AcDbLine
 10
104457.6439825377
 20
95260.0875924025
 30
0.0
 11
104457.6344028921
 21
95260.06030027115
 31
0.0
  0
LINE
  5
60F34
330
1F
100
AcDbEntity
  8
freecads.com
100
AcDbLine
 10
104457.6573861995
 20
95260.11758161692
 30
0.0
 11
104457.6439825377
 21
95260.0875924025
 31
0.0
  0
LINE
  5
60F35
330
1F
100
AcDbEntity
  8
freecads.com
100
AcDbLine
 10
104457.6793162876
 20
95260.15611663378
 30
0.0
 11
104457.6573861995
 21
95260.11758161692
 31
0.0
  0
LINE
  5
60F36
330
1F
100
AcDbEntity
  8
freecads.com
100
AcDbLine
 10
104457.7179042138
 20
95260.19530796904
 30
0.0
 11
104457.6793162876
 21
95260.15611663378
 31
0.0
  0
LINE
  5
60F37
330
1F
100
AcDbEntity
  8
freecads.com
100
AcDbLine
 10
104457.7623498334
 20
95260.24939799199
 30
0.0
 11
104457.7179042138
 21
95260.19530796904
 31
0.0
  0
LINE
  5
60F38
330
1F
100
AcDbEntity
  8
freecads.com
100
AcDbLine
 10
104457.804473074
 20
95260.28433438289
 30
0.0
 11
104457.7623498334
 21
95260.24939799199
 31
0.0
  0
LINE
  5
60F39
330
1F
100
AcDbEntity
  8
freecads.com
100
AcDbLine
 10
104457.8468349276
 20
95260.34055542179
 30
0.0
 11
104457.804473074
 21
95260.28433438289
 31
0.0
  0
LINE
  5
60F3A
330
1F
100
AcDbEntity
  8
freecads.com
100
AcDbLine
 10
104457.8905538296
 20
95260.38622296869
 30
0.0
 11
104457.8468349276
 21
95260.34055542179
 31
0.0
  0
LINE
  5
60F3B
330
1F
100
AcDbEntity
  8
freecads.com
100
AcDbLine
 10
104457.9276972948
 20
95260.42817044967
 30
0.0
 11
104457.8905538296
 21
95260.38622296869
 31
0.0
  0
LINE
  5
60F3C
330
1F
100
AcDbEntity
  8
freecads.com
100
AcDbLine
 10
104457.9544039829
 20
95260.44157081475
 30
0.0
 11
104457.9276972948
 21
95260.42817044967
 31
0.0
  0
LINE
  5
60F3D
330
1F
100
AcDbEntity
  8
freecads.com
100
AcDbLine
 10
104458.0030813978
 20
95260.47833061978
 30
0.0
 11
104457.9544039829
 21
95260.44157081475
 31
0.0
  0
LINE
  5
60F3E
330
1F
100
AcDbEntity
  8
freecads.com
100
AcDbLine
 10
104458.0315632977
 20
95260.51847831167
 30
0.0
 11
104458.0030813978
 21
95260.47833061978
 31
0.0
  0
LINE
  5
60F3F
330
1F
100
AcDbEntity
  8
freecads.com
100
AcDbLine
 10
104458.078541101
 20
95260.53523444076
 30
0.0
 11
104458.0315632977
 21
95260.51847831167
 31
0.0
  0
LINE
  5
60F40
330
1F
100
AcDbEntity
  8
freecads.com
100
AcDbLine
 10
104458.1376756213
 20
95260.54595285001
 30
0.0
 11
104458.078541101
 21
95260.53523444076
 31
0.0
  0
LINE
  5
60F41
330
1F
100
AcDbEntity
  8
freecads.com
100
AcDbLine
 10
104458.2017332169
 20
95260.54460243107
 30
0.0
 11
104458.1376756213
 21
95260.54595285001
 31
0.0
  0
LINE
  5
60F42
330
1F
100
AcDbEntity
  8
freecads.com
100
AcDbLine
 10
104458.2476908759
 20
95260.54556257848
 30
0.0
 11
104458.2017332169
 21
95260.54460243107
 31
0.0
  0
LINE
  5
60F43
330
1F
100
AcDbEntity
  8
freecads.com
100
AcDbLine
 10
104458.2959643024
 20
95260.54628599924
 30
0.0
 11
104458.2476908759
 21
95260.54556257848
 31
0.0
  0
LINE
  5
60F44
330
1F
100
AcDbEntity
  8
freecads.com
100
AcDbLine
 10
104458.3297085442
 20
95260.54822612833
 30
0.0
 11
104458.2959643024
 21
95260.54628599924
 31
0.0
  0
LINE
  5
60F45
330
1F
100
AcDbEntity
  8
freecads.com
100
AcDbLine
 10
104458.3699597102
 20
95260.54777488976
 30
0.0
 11
104458.3297085442
 21
95260.54822612833
 31
0.0
  0
LINE
  5
60F46
330
1F
100
AcDbEntity
  8
freecads.com
100
AcDbLine
 10
104458.4113113458
 20
95260.57028476191
 30
0.0
 11
104458.3699597102
 21
95260.54777488976
 31
0.0
  0
LINE
  5
60F47
330
1F
100
AcDbEntity
  8
freecads.com
100
AcDbLine
 10
104458.463280737
 20
95260.58108349637
 30
0.0
 11
104458.4113113458
 21
95260.57028476191
 31
0.0
  0
LINE
  5
60F48
330
1F
100
AcDbEntity
  8
freecads.com
100
AcDbLine
 10
104458.5185605285
 20
95260.5863652144
 30
0.0
 11
104458.463280737
 21
95260.58108349637
 31
0.0
  0
LINE
  5
60F49
330
1F
100
AcDbEntity
  8
freecads.com
100
AcDbLine
 10
104458.5610235118
 20
95260.57640472926
 30
0.0
 11
104458.5185605285
 21
95260.5863652144
 31
0.0
  0
LINE
  5
60F4A
330
1F
100
AcDbEntity
  8
freecads.com
100
AcDbLine
 10
104458.6191000878
 20
95260.56795533143
 30
0.0
 11
104458.5610235118
 21
95260.57640472926
 31
0.0
  0
LINE
  5
60F4B
330
1F
100
AcDbEntity
  8
freecads.com
100
AcDbLine
 10
104458.6721595642
 20
95260.5443870568
 30
0.0
 11
104458.6191000878
 21
95260.56795533143
 31
0.0
  0
LINE
  5
60F4C
330
1F
100
AcDbEntity
  8
freecads.com
100
AcDbLine
 10
104458.7402287661
 20
95260.52486582605
 30
0.0
 11
104458.6721595642
 21
95260.5443870568
 31
0.0
  0
LINE
  5
60F4D
330
1F
100
AcDbEntity
  8
freecads.com
100
AcDbLine
 10
104458.7812024007
 20
95260.51365744391
 30
0.0
 11
104458.7402287661
 21
95260.52486582605
 31
0.0
  0
LINE
  5
60F4E
330
1F
100
AcDbEntity
  8
freecads.com
100
AcDbLine
 10
104458.8580253056
 20
95260.50415482671
 30
0.0
 11
104458.7812024007
 21
95260.51365744391
 31
0.0
  0
LINE
  5
60F4F
330
1F
100
AcDbEntity
  8
freecads.com
100
AcDbLine
 10
104458.9183703989
 20
95260.49125392045
 30
0.0
 11
104458.8580253056
 21
95260.50415482671
 31
0.0
  0
LINE
  5
60F50
330
1F
100
AcDbEntity
  8
freecads.com
100
AcDbLine
 10
104458.9895742235
 20
95260.48813726358
 30
0.0
 11
104458.9183703989
 21
95260.49125392045
 31
0.0
  0
LINE
  5
60F51
330
1F
100
AcDbEntity
  8
freecads.com
100
AcDbLine
 10
104459.0332236786
 20
95260.47120821347
 30
0.0
 11
104458.9895742235
 21
95260.48813726358
 31
0.0
  0
LINE
  5
60F52
330
1F
100
AcDbEntity
  8
freecads.com
100
AcDbLine
 10
104459.1146492922
 20
95260.47746141536
 30
0.0
 11
104459.0332236786
 21
95260.47120821347
 31
0.0
  0
LINE
  5
60F53
330
1F
100
AcDbEntity
  8
freecads.com
100
AcDbLine
 10
104459.1830657825
 20
95260.48891883073
 30
0.0
 11
104459.1146492922
 21
95260.47746141536
 31
0.0
  0
LINE
  5
60F54
330
1F
100
AcDbEntity
  8
freecads.com
100
AcDbLine
 10
104459.2249055224
 20
95260.49856653092
 30
0.0
 11
104459.1830657825
 21
95260.48891883073
 31
0.0
  0
LINE
  5
60F55
330
1F
100
AcDbEntity
  8
freecads.com
100
AcDbLine
 10
104459.2694447079
 20
95260.50460095401
 30
0.0
 11
104459.2249055224
 21
95260.49856653092
 31
0.0
  0
LINE
  5
60F56
330
1F
100
AcDbEntity
  8
freecads.com
100
AcDbLine
 10
104459.3013867982
 20
95260.51499190922
 30
0.0
 11
104459.2694447079
 21
95260.50460095401
 31
0.0
  0
LINE
  5
60F57
330
1F
100
AcDbEntity
  8
freecads.com
100
AcDbLine
 10
104459.3575237211
 20
95260.52152861177
 30
0.0
 11
104459.3013867982
 21
95260.51499190922
 31
0.0
  0
LINE
  5
60F58
330
1F
100
AcDbEntity
  8
freecads.com
100
AcDbLine
 10
104459.4231032643
 20
95260.5431345785
 30
0.0
 11
104459.3575237211
 21
95260.52152861177
 31
0.0
  0
LINE
  5
60F59
330
1F
100
AcDbEntity
  8
freecads.com
100
AcDbLine
 10
104459.4736801697
 20
95260.56132571861
 30
0.0
 11
104459.4231032643
 21
95260.5431345785
 31
0.0
  0
LINE
  5
60F5A
330
1F
100
AcDbEntity
  8
freecads.com
100
AcDbLine
 10
104459.5414880677
 20
95260.57489761241
 30
0.0
 11
104459.4736801697
 21
95260.56132571861
 31
0.0
  0
LINE
  5
60F5B
330
1F
100
AcDbEntity
  8
freecads.com
100
AcDbLine
 10
104459.5878407412
 20
95260.59229304626
 30
0.0
 11
104459.5414880677
 21
95260.57489761241
 31
0.0
  0
LINE
  5
60F5C
330
1F
100
AcDbEntity
  8
freecads.com
100
AcDbLine
 10
104459.6374282148
 20
95260.59742781287
 30
0.0
 11
104459.5878407412
 21
95260.59229304626
 31
0.0
  0
LINE
  5
60F5D
330
1F
100
AcDbEntity
  8
freecads.com
100
AcDbLine
 10
104459.6865063215
 20
95260.61352809964
 30
0.0
 11
104459.6374282148
 21
95260.59742781287
 31
0.0
  0
LINE
  5
60F5E
330
1F
100
AcDbEntity
  8
freecads.com
100
AcDbLine
 10
104459.7563082101
 20
95260.61696089207
 30
0.0
 11
104459.6865063215
 21
95260.61352809964
 31
0.0
  0
LINE
  5
60F5F
330
1F
100
AcDbEntity
  8
freecads.com
100
AcDbLine
 10
104459.8074776462
 20
95260.61280423871
 30
0.0
 11
104459.7563082101
 21
95260.61696089207
 31
0.0
  0
LINE
  5
60F60
330
1F
100
AcDbEntity
  8
freecads.com
100
AcDbLine
 10
104459.8715021668
 20
95260.60850347249
 30
0.0
 11
104459.8074776462
 21
95260.61280423871
 31
0.0
  0
LINE
  5
60F61
330
1F
100
AcDbEntity
  8
freecads.com
100
AcDbLine
 10
104459.9245611671
 20
95260.60369333931
 30
0.0
 11
104459.8715021668
 21
95260.60850347249
 31
0.0
  0
LINE
  5
60F62
330
1F
100
AcDbEntity
  8
freecads.com
100
AcDbLine
 10
104459.9818590504
 20
95260.58218520546
 30
0.0
 11
104459.9245611671
 21
95260.60369333931
 31
0.0
  0
LINE
  5
60F63
330
1F
100
AcDbEntity
  8
freecads.com
100
AcDbLine
 10
104460.0082090002
 20
95260.56376396809
 30
0.0
 11
104459.9818590504
 21
95260.58218520546
 31
0.0
  0
LINE
  5
60F64
330
1F
100
AcDbEntity
  8
freecads.com
100
AcDbLine
 10
104460.0453496447
 20
95260.53025740509
 30
0.0
 11
104460.0082090002
 21
95260.56376396809
 31
0.0
  0
LINE
  5
60F65
330
1F
100
AcDbEntity
  8
freecads.com
100
AcDbLine
 10
104460.0959775909
 20
95260.49659964172
 30
0.0
 11
104460.0453496447
 21
95260.53025740509
 31
0.0
  0
LINE
  5
60F66
330
1F
100
AcDbEntity
  8
freecads.com
100
AcDbLine
 10
104460.1201894372
 20
95260.47546242125
 30
0.0
 11
104460.0959775909
 21
95260.49659964172
 31
0.0
  0
LINE
  5
60F67
330
1F
100
AcDbEntity
  8
freecads.com
100
AcDbLine
 10
104460.1723828084
 20
95260.43103806429
 30
0.0
 11
104460.1201894372
 21
95260.47546242125
 31
0.0
  0
LINE
  5
60F68
330
1F
100
AcDbEntity
  8
freecads.com
100
AcDbLine
 10
104460.22011002
 20
95260.40183889691
 30
0.0
 11
104460.1723828084
 21
95260.43103806429
 31
0.0
  0
LINE
  5
60F69
330
1F
100
AcDbEntity
  8
freecads.com
100
AcDbLine
 10
104460.2721233646
 20
95260.3601565106
 30
0.0
 11
104460.22011002
 21
95260.40183889691
 31
0.0
  0
LINE
  5
60F6A
330
1F
100
AcDbEntity
  8
freecads.com
100
AcDbLine
 10
104460.3214230886
 20
95260.32082296689
 30
0.0
 11
104460.2721233646
 21
95260.3601565106
 31
0.0
  0
LINE
  5
60F6B
330
1F
100
AcDbEntity
  8
freecads.com
100
AcDbLine
 10
104460.3648622808
 20
95260.28513813782
 30
0.0
 11
104460.3214230886
 21
95260.32082296689
 31
0.0
  0
LINE
  5
60F6C
330
1F
100
AcDbEntity
  8
freecads.com
100
AcDbLine
 10
104460.3961660184
 20
95260.25738768037
 30
0.0
 11
104460.3648622808
 21
95260.28513813782
 31
0.0
  0
LINE
  5
60F6D
330
1F
100
AcDbEntity
  8
freecads.com
100
AcDbLine
 10
104460.4497844745
 20
95260.22727940647
 30
0.0
 11
104460.3961660184
 21
95260.25738768037
 31
0.0
  0
LINE
  5
60F6E
330
1F
100
AcDbEntity
  8
freecads.com
100
AcDbLine
 10
104460.4905478461
 20
95260.19731524538
 30
0.0
 11
104460.4497844745
 21
95260.22727940647
 31
0.0
  0
LINE
  5
60F6F
330
1F
100
AcDbEntity
  8
freecads.com
100
AcDbLine
 10
104460.5268219092
 20
95260.16171074152
 30
0.0
 11
104460.4905478461
 21
95260.19731524538
 31
0.0
  0
LINE
  5
60F70
330
1F
100
AcDbEntity
  8
freecads.com
100
AcDbLine
 10
104460.5895593224
 20
95260.11780047655
 30
0.0
 11
104460.5268219092
 21
95260.16171074152
 31
0.0
  0
LINE
  5
60F71
330
1F
100
AcDbEntity
  8
freecads.com
100
AcDbLine
 10
104460.6273487217
 20
95260.08576199966
 30
0.0
 11
104460.5895593224
 21
95260.11780047655
 31
0.0
  0
LINE
  5
60F72
330
1F
100
AcDbEntity
  8
freecads.com
100
AcDbLine
 10
104460.6550462698
 20
95260.05594431394
 30
0.0
 11
104460.6273487217
 21
95260.08576199966
 31
0.0
  0
LINE
  5
60F73
330
1F
100
AcDbEntity
  8
freecads.com
100
AcDbLine
 10
104460.6989608016
 20
95260.04385990036
 30
0.0
 11
104460.6550462698
 21
95260.05594431394
 31
0.0
  0
LINE
  5
60F74
330
1F
100
AcDbEntity
  8
freecads.com
100
AcDbLine
 10
104460.7197034836
 20
95260.03287831876
 30
0.0
 11
104460.6989608016
 21
95260.04385990036
 31
0.0
  0
LINE
  5
60F75
330
1F
100
AcDbEntity
  8
freecads.com
100
AcDbLine
 10
104460.7366528621
 20
95260.02193926228
 30
0.0
 11
104460.7197034836
 21
95260.03287831876
 31
0.0
  0
LINE
  5
60F76
330
1F
100
AcDbEntity
  8
freecads.com
100
AcDbLine
 10
104460.7580684001
 20
95259.99577501622
 30
0.0
 11
104460.7366528621
 21
95260.02193926228
 31
0.0
  0
LINE
  5
60F77
330
1F
100
AcDbEntity
  8
freecads.com
100
AcDbLine
 10
104460.7699605165
 20
95259.96613451839
 30
0.0
 11
104460.7580684001
 21
95259.99577501622
 31
0.0
  0
LINE
  5
60F78
330
1F
100
AcDbEntity
  8
freecads.com
100
AcDbLine
 10
104460.8198064734
 20
95259.86272211651
 30
0.0
 11
104460.8203517541
 21
95259.83615954125
 31
0.0
  0
LINE
  5
60F79
330
1F
100
AcDbEntity
  8
freecads.com
100
AcDbLine
 10
104460.8271653279
 20
95259.87992239663
 30
0.0
 11
104460.8198064734
 21
95259.86272211651
 31
0.0
  0
LINE
  5
60F7A
330
1F
100
AcDbEntity
  8
freecads.com
100
AcDbLine
 10
104460.8367359996
 20
95259.88761343018
 30
0.0
 11
104460.8271653279
 21
95259.87992239663
 31
0.0
  0
LINE
  5
60F7B
330
1F
100
AcDbEntity
  8
freecads.com
100
AcDbLine
 10
104460.8635631755
 20
95259.91176148885
 30
0.0
 11
104460.8367359996
 21
95259.88761343018
 31
0.0
  0
LINE
  5
60F7C
330
1F
100
AcDbEntity
  8
freecads.com
100
AcDbLine
 10
104460.8846366083
 20
95259.93028337973
 30
0.0
 11
104460.8635631755
 21
95259.91176148885
 31
0.0
  0
LINE
  5
60F7D
330
1F
100
AcDbEntity
  8
freecads.com
100
AcDbLine
 10
104460.9014716343
 20
95259.94674512984
 30
0.0
 11
104460.8846366083
 21
95259.93028337973
 31
0.0
  0
LINE
  5
60F7E
330
1F
100
AcDbEntity
  8
freecads.com
100
AcDbLine
 10
104460.9066564716
 20
95259.97682648197
 30
0.0
 11
104460.9014716343
 21
95259.94674512984
 31
0.0
  0
LINE
  5
60F7F
330
1F
100
AcDbEntity
  8
freecads.com
100
AcDbLine
 10
104460.8937243588
 20
95260.02650136829
 30
0.0
 11
104460.9066564716
 21
95259.97682648197
 31
0.0
  0
LINE
  5
60F80
330
1F
100
AcDbEntity
  8
freecads.com
100
AcDbLine
 10
104460.8786172945
 20
95260.0325721632
 30
0.0
 11
104460.8937243588
 21
95260.02650136829
 31
0.0
  0
LINE
  5
60F81
330
1F
100
AcDbEntity
  8
freecads.com
100
AcDbLine
 10
104460.8599016781
 20
95260.03636499071
 30
0.0
 11
104460.8786172945
 21
95260.0325721632
 31
0.0
  0
LINE
  5
60F82
330
1F
100
AcDbEntity
  8
freecads.com
100
AcDbLine
 10
104460.8166269272
 20
95260.03031639259
 30
0.0
 11
104460.8599016781
 21
95260.03636499071
 31
0.0
  0
LINE
  5
60F83
330
1F
100
AcDbEntity
  8
freecads.com
100
AcDbLine
 10
104460.8022328815
 20
95260.02478708754
 30
0.0
 11
104460.8166269272
 21
95260.03031639259
 31
0.0
  0
LINE
  5
60F84
330
1F
100
AcDbEntity
  8
freecads.com
100
AcDbLine
 10
104460.7816881917
 20
95259.97822744777
 30
0.0
 11
104460.8022328815
 21
95260.02478708754
 31
0.0
  0
LINE
  5
60F85
330
1F
100
AcDbEntity
  8
freecads.com
100
AcDbLine
 10
104460.7565804797
 20
95259.93825269488
 30
0.0
 11
104460.7816881917
 21
95259.97822744777
 31
0.0
  0
LINE
  5
60F86
330
1F
100
AcDbEntity
  8
freecads.com
100
AcDbLine
 10
104460.7476335275
 20
95259.89219533455
 30
0.0
 11
104460.7565804797
 21
95259.93825269488
 31
0.0
  0
LINE
  5
60F87
330
1F
100
AcDbEntity
  8
freecads.com
100
AcDbLine
 10
104460.7535540742
 20
95259.85629881422
 30
0.0
 11
104460.7476335275
 21
95259.89219533455
 31
0.0
  0
LINE
  5
60F88
330
1F
100
AcDbEntity
  8
freecads.com
100
AcDbLine
 10
104460.7540001296
 20
95259.8208851972
 30
0.0
 11
104460.7535540742
 21
95259.85629881422
 31
0.0
  0
LINE
  5
60F89
330
1F
100
AcDbEntity
  8
freecads.com
100
AcDbLine
 10
104460.3804287491
 20
95259.62442431904
 30
0.0
 11
104460.3745176524
 21
95259.66116379574
 31
0.0
  0
LINE
  5
60F8A
330
1F
100
AcDbEntity
  8
freecads.com
100
AcDbLine
 10
104460.391065881
 20
95259.59564095263
 30
0.0
 11
104460.3804287491
 21
95259.62442431904
 31
0.0
  0
LINE
  5
60F8B
330
1F
100
AcDbEntity
  8
freecads.com
100
AcDbLine
 10
104460.3998375497
 20
95259.55086031546
 30
0.0
 11
104460.391065881
 21
95259.59564095263
 31
0.0
  0
LINE
  5
60F8C
330
1F
100
AcDbEntity
  8
freecads.com
100
AcDbLine
 10
104460.4006512218
 20
95259.49183683295
 30
0.0
 11
104460.3998375497
 21
95259.55086031546
 31
0.0
  0
LINE
  5
60F8D
330
1F
100
AcDbEntity
  8
freecads.com
100
AcDbLine
 10
104460.4005652373
 20
95259.4277650623
 30
0.0
 11
104460.4006512218
 21
95259.49183683295
 31
0.0
  0
LINE
  5
60F8E
330
1F
100
AcDbEntity
  8
freecads.com
100
AcDbLine
 10
104460.3978695826
 20
95259.37531465412
 30
0.0
 11
104460.4005652373
 21
95259.4277650623
 31
0.0
  0
LINE
  5
60F8F
330
1F
100
AcDbEntity
  8
freecads.com
100
AcDbLine
 10
104460.3858749442
 20
95259.33940820767
 30
0.0
 11
104460.3978695826
 21
95259.37531465412
 31
0.0
  0
LINE
  5
60F90
330
1F
100
AcDbEntity
  8
freecads.com
100
AcDbLine
 10
104460.2837207876
 20
95259.53340391458
 30
0.0
 11
104460.2814891182
 21
95259.57874353133
 31
0.0
  0
LINE
  5
60F91
330
1F
100
AcDbEntity
  8
freecads.com
100
AcDbLine
 10
104460.2827105695
 20
95259.49969274781
 30
0.0
 11
104460.2837207876
 21
95259.53340391458
 31
0.0
  0
LINE
  5
60F92
330
1F
100
AcDbEntity
  8
freecads.com
100
AcDbLine
 10
104460.2844139719
 20
95259.46363273849
 30
0.0
 11
104460.2827105695
 21
95259.49969274781
 31
0.0
  0
LINE
  5
60F93
330
1F
100
AcDbEntity
  8
freecads.com
100
AcDbLine
 10
104460.2765471787
 20
95259.40112355419
 30
0.0
 11
104460.2844139719
 21
95259.46363273849
 31
0.0
  0
LINE
  5
60F94
330
1F
100
AcDbEntity
  8
freecads.com
100
AcDbLine
 10
104460.2744908287
 20
95259.34929827577
 30
0.0
 11
104460.2765471787
 21
95259.40112355419
 31
0.0
  0
LINE
  5
60F95
330
1F
100
AcDbEntity
  8
freecads.com
100
AcDbLine
 10
104461.2513270522
 20
95259.0053377764
 30
0.0
 11
104461.24913886
 21
95259.01695441387
 31
0.0
  0
LINE
  5
60F96
330
1F
100
AcDbEntity
  8
freecads.com
100
AcDbLine
 10
104461.2445271773
 20
95258.98159749699
 30
0.0
 11
104461.2513270522
 21
95259.0053377764
 31
0.0
  0
LINE
  5
60F97
330
1F
100
AcDbEntity
  8
freecads.com
100
AcDbLine
 10
104461.2328254896
 20
95258.9718226976
 30
0.0
 11
104461.2445271773
 21
95258.98159749699
 31
0.0
  0
LINE
  5
60F98
330
1F
100
AcDbEntity
  8
freecads.com
100
AcDbLine
 10
104461.2143276999
 20
95258.97624537988
 30
0.0
 11
104461.2328254896
 21
95258.9718226976
 31
0.0
  0
LINE
  5
60F99
330
1F
100
AcDbEntity
  8
freecads.com
100
AcDbLine
 10
104461.2023717958
 20
95259.00019592228
 30
0.0
 11
104461.2143276999
 21
95258.97624537988
 31
0.0
  0
LINE
  5
60F9A
330
1F
100
AcDbEntity
  8
freecads.com
100
AcDbLine
 10
104461.2090081817
 20
95259.028153346
 30
0.0
 11
104461.2023717958
 21
95259.00019592228
 31
0.0
  0
LINE
  5
60F9B
330
1F
100
AcDbEntity
  8
freecads.com
100
AcDbLine
 10
104461.2177051845
 20
95259.0331142214
 30
0.0
 11
104461.2090081817
 21
95259.028153346
 31
0.0
  0
LINE
  5
60F9C
330
1F
100
AcDbEntity
  8
freecads.com
100
AcDbLine
 10
104461.0010355865
 20
95259.27729132504
 30
0.0
 11
104461.0239966972
 21
95259.27619085559
 31
0.0
  0
LINE
  5
60F9D
330
1F
100
AcDbEntity
  8
freecads.com
100
AcDbLine
 10
104460.9830967764
 20
95259.27517400802
 30
0.0
 11
104461.0010355865
 21
95259.27729132504
 31
0.0
  0
LINE
  5
60F9E
330
1F
100
AcDbEntity
  8
freecads.com
100
AcDbLine
 10
104460.9650393648
 20
95259.281277878
 30
0.0
 11
104460.9830967764
 21
95259.27517400802
 31
0.0
  0
LINE
  5
60F9F
330
1F
100
AcDbEntity
  8
freecads.com
100
AcDbLine
 10
104460.9481065239
 20
95259.29369210814
 30
0.0
 11
104460.9650393648
 21
95259.281277878
 31
0.0
  0
LINE
  5
60FA0
330
1F
100
AcDbEntity
  8
freecads.com
100
AcDbLine
 10
104460.926513798
 20
95259.3040509225
 30
0.0
 11
104460.9481065239
 21
95259.29369210814
 31
0.0
  0
LINE
  5
60FA1
330
1F
100
AcDbEntity
  8
freecads.com
100
AcDbLine
 10
104461.0782327014
 20
95259.3575706474
 30
0.0
 11
104461.0836651437
 21
95259.33453629901
 31
0.0
  0
LINE
  5
60FA2
330
1F
100
AcDbEntity
  8
freecads.com
100
AcDbLine
 10
104461.0663665726
 20
95259.38952927518
 30
0.0
 11
104461.0782327014
 21
95259.3575706474
 31
0.0
  0
LINE
  5
60FA3
330
1F
100
AcDbEntity
  8
freecads.com
100
AcDbLine
 10
104461.0478517692
 20
95259.41123492529
 30
0.0
 11
104461.0663665726
 21
95259.38952927518
 31
0.0
  0
LINE
  5
60FA4
330
1F
100
AcDbEntity
  8
freecads.com
100
AcDbLine
 10
104461.0157055513
 20
95259.42023669129
 30
0.0
 11
104461.0478517692
 21
95259.41123492529
 31
0.0
  0
LINE
  5
60FA5
330
1F
100
AcDbEntity
  8
freecads.com
100
AcDbLine
 10
104460.9874665133
 20
95259.42055326703
 30
0.0
 11
104461.0157055513
 21
95259.42023669129
 31
0.0
  0
LINE
  5
60FA6
330
1F
100
AcDbEntity
  8
freecads.com
100
AcDbLine
 10
104460.9608732255
 20
95259.41726837823
 30
0.0
 11
104460.9874665133
 21
95259.42055326703
 31
0.0
  0
LINE
  5
60FA7
330
1F
100
AcDbEntity
  8
freecads.com
100
AcDbLine
 10
104460.934230325
 20
95259.40955796853
 30
0.0
 11
104460.9608732255
 21
95259.41726837823
 31
0.0
  0
LINE
  5
60FA8
330
1F
100
AcDbEntity
  8
freecads.com
100
AcDbLine
 10
104460.9025391365
 20
95259.40274721532
 30
0.0
 11
104460.934230325
 21
95259.40955796853
 31
0.0
  0
LINE
  5
60FA9
330
1F
100
AcDbEntity
  8
freecads.com
100
AcDbLine
 10
104460.887861114
 20
95259.39068736104
 30
0.0
 11
104460.9025391365
 21
95259.40274721532
 31
0.0
  0
LINE
  5
60FAA
330
1F
100
AcDbEntity
  8
freecads.com
100
AcDbLine
 10
104460.9819580127
 20
95259.36160065967
 30
0.0
 11
104460.9688921892
 21
95259.36174713502
 31
0.0
  0
LINE
  5
60FAB
330
1F
100
AcDbEntity
  8
freecads.com
100
AcDbLine
 10
104460.9941808799
 20
95259.36146363436
 30
0.0
 11
104460.9819580127
 21
95259.36160065967
 31
0.0
  0
LINE
  5
60FAC
330
1F
100
AcDbEntity
  8
freecads.com
100
AcDbLine
 10
104461.0064108346
 20
95259.3619588263
 30
0.0
 11
104460.9941808799
 21
95259.36146363436
 31
0.0
  0
LINE
  5
60FAD
330
1F
100
AcDbEntity
  8
freecads.com
100
AcDbLine
 10
104461.0227610709
 20
95259.35397720456
 30
0.0
 11
104461.0064108346
 21
95259.3619588263
 31
0.0
  0
LINE
  5
60FAE
330
1F
100
AcDbEntity
  8
freecads.com
100
AcDbLine
 10
104461.0347665875
 20
95259.33445218303
 30
0.0
 11
104461.0227610709
 21
95259.35397720456
 31
0.0
  0
LINE
  5
60FAF
330
1F
100
AcDbEntity
  8
freecads.com
100
AcDbLine
 10
104461.0281935132
 20
95259.33094285619
 30
0.0
 11
104461.0347665875
 21
95259.33445218303
 31
0.0
  0
LINE
  5
60FB0
330
1F
100
AcDbEntity
  8
freecads.com
100
AcDbLine
 10
104461.0116991641
 20
95259.32606939349
 30
0.0
 11
104461.0281935132
 21
95259.33094285619
 31
0.0
  0
LINE
  5
60FB1
330
1F
100
AcDbEntity
  8
freecads.com
100
AcDbLine
 10
104460.9887191533
 20
95259.32548395024
 30
0.0
 11
104461.0116991641
 21
95259.32606939349
 31
0.0
  0
LINE
  5
60FB2
330
1F
100
AcDbEntity
  8
freecads.com
100
AcDbLine
 10
104460.9721841656
 20
95259.33578606444
 30
0.0
 11
104460.9887191533
 21
95259.32548395024
 31
0.0
  0
LINE
  5
60FB3
330
1F
100
AcDbEntity
  8
freecads.com
100
AcDbLine
 10
104460.9595393441
 20
95259.35468595623
 30
0.0
 11
104460.9721841656
 21
95259.33578606444
 31
0.0
  0
LINE
  5
60FB4
330
1F
100
AcDbEntity
  8
freecads.com
100
AcDbLine
 10
104460.9567094846
 20
95259.36546672486
 30
0.0
 11
104460.9595393441
 21
95259.35468595623
 31
0.0
  0
LINE
  5
60FB5
330
1F
100
AcDbEntity
  8
freecads.com
100
AcDbLine
 10
104460.8789906063
 20
95259.87786604664
 30
0.0
 11
104460.852638294
 21
95259.89607654492
 31
0.0
  0
LINE
  5
60FB6
330
1F
100
AcDbEntity
  8
freecads.com
100
AcDbLine
 10
104460.8996600507
 20
95259.86035155327
 30
0.0
 11
104460.8789906063
 21
95259.87786604664
 31
0.0
  0
LINE
  5
60FB7
330
1F
100
AcDbEntity
  8
freecads.com
100
AcDbLine
 10
104460.912645549
 20
95259.8530399489
 30
0.0
 11
104460.8996600507
 21
95259.86035155327
 31
0.0
  0
LINE
  5
60FB8
330
1F
100
AcDbEntity
  8
freecads.com
100
AcDbLine
 10
104460.9323279242
 20
95259.82267982112
 30
0.0
 11
104460.912645549
 21
95259.8530399489
 31
0.0
  0
LINE
  5
60FB9
330
1F
100
AcDbEntity
  8
freecads.com
100
AcDbLine
 10
104460.9469672124
 20
95259.77488268654
 30
0.0
 11
104460.9323279242
 21
95259.82267982112
 31
0.0
  0
LINE
  5
60FBA
330
1F
100
AcDbEntity
  8
freecads.com
100
AcDbLine
 10
104460.9516941997
 20
95259.74532251391
 30
0.0
 11
104460.9469672124
 21
95259.77488268654
 31
0.0
  0
LINE
  5
60FBB
330
1F
100
AcDbEntity
  8
freecads.com
100
AcDbLine
 10
104460.9604351559
 20
95259.69780226859
 30
0.0
 11
104460.9516941997
 21
95259.74532251391
 31
0.0
  0
LINE
  5
60FBC
330
1F
100
AcDbEntity
  8
freecads.com
100
AcDbLine
 10
104460.970269494
 20
95259.6726109167
 30
0.0
 11
104460.9604351559
 21
95259.69780226859
 31
0.0
  0
LINE
  5
60FBD
330
1F
100
AcDbEntity
  8
freecads.com
100
AcDbLine
 10
104460.9820316726
 20
95259.63137976898
 30
0.0
 11
104460.970269494
 21
95259.6726109167
 31
0.0
  0
LINE
  5
60FBE
330
1F
100
AcDbEntity
  8
freecads.com
100
AcDbLine
 10
104461.0111476942
 20
95259.59648780757
 30
0.0
 11
104460.9820316726
 21
95259.63137976898
 31
0.0
  0
LINE
  5
60FBF
330
1F
100
AcDbEntity
  8
freecads.com
100
AcDbLine
 10
104461.0405377664
 20
95259.5860415805
 30
0.0
 11
104461.0111476942
 21
95259.59648780757
 31
0.0
  0
LINE
  5
60FC0
330
1F
100
AcDbEntity
  8
freecads.com
100
AcDbLine
 10
104461.0497795738
 20
95259.5831980221
 30
0.0
 11
104461.0405377664
 21
95259.5860415805
 31
0.0
  0
LINE
  5
60FC1
330
1F
100
AcDbEntity
  8
freecads.com
100
AcDbLine
 10
104461.0670908917
 20
95259.58574390481
 30
0.0
 11
104461.0497795738
 21
95259.5831980221
 31
0.0
  0
LINE
  5
60FC2
330
1F
100
AcDbEntity
  8
freecads.com
100
AcDbLine
 10
104461.0873879944
 20
95259.59141779877
 30
0.0
 11
104461.0670908917
 21
95259.58574390481
 31
0.0
  0
LINE
  5
60FC3
330
1F
100
AcDbEntity
  8
freecads.com
100
AcDbLine
 10
104461.1334826787
 20
95259.60460081336
 30
0.0
 11
104461.0873879944
 21
95259.59141779877
 31
0.0
  0
LINE
  5
60FC4
330
1F
100
AcDbEntity
  8
freecads.com
100
AcDbLine
 10
104461.1675557849
 20
95259.6170755344
 30
0.0
 11
104461.1334826787
 21
95259.60460081336
 31
0.0
  0
LINE
  5
60FC5
330
1F
100
AcDbEntity
  8
freecads.com
100
AcDbLine
 10
104461.2107733597
 20
95259.63682453584
 30
0.0
 11
104461.1675557849
 21
95259.6170755344
 31
0.0
  0
LINE
  5
60FC6
330
1F
100
AcDbEntity
  8
freecads.com
100
AcDbLine
 10
104461.2564531772
 20
95259.66940263414
 30
0.0
 11
104461.2107733597
 21
95259.63682453584
 31
0.0
  0
LINE
  5
60FC7
330
1F
100
AcDbEntity
  8
freecads.com
100
AcDbLine
 10
104461.2738613578
 20
95259.6805888195
 30
0.0
 11
104461.2564531772
 21
95259.66940263414
 31
0.0
  0
LINE
  5
60FC8
330
1F
100
AcDbEntity
  8
freecads.com
100
AcDbLine
 10
104461.3096128131
 20
95259.71117056469
 30
0.0
 11
104461.2738613578
 21
95259.6805888195
 31
0.0
  0
LINE
  5
60FC9
330
1F
100
AcDbEntity
  8
freecads.com
100
AcDbLine
 10
104461.3343963858
 20
95259.74103220381
 30
0.0
 11
104461.3096128131
 21
95259.71117056469
 31
0.0
  0
LINE
  5
60FCA
330
1F
100
AcDbEntity
  8
freecads.com
100
AcDbLine
 10
104461.3715020508
 20
95259.77960785935
 30
0.0
 11
104461.3343963858
 21
95259.74103220381
 31
0.0
  0
LINE
  5
60FCB
330
1F
100
AcDbEntity
  8
freecads.com
100
AcDbLine
 10
104461.4276918831
 20
95259.8472659853
 30
0.0
 11
104461.3715020508
 21
95259.77960785935
 31
0.0
  0
LINE
  5
60FCC
330
1F
100
AcDbEntity
  8
freecads.com
100
AcDbLine
 10
104461.4509931946
 20
95259.87651194469
 30
0.0
 11
104461.4276918831
 21
95259.8472659853
 31
0.0
  0
LINE
  5
60FCD
330
1F
100
AcDbEntity
  8
freecads.com
100
AcDbLine
 10
104461.478532913
 20
95259.90781804486
 30
0.0
 11
104461.4509931946
 21
95259.87651194469
 31
0.0
  0
LINE
  5
60FCE
330
1F
100
AcDbEntity
  8
freecads.com
100
AcDbLine
 10
104461.5055472029
 20
95259.9298563501
 30
0.0
 11
104461.478532913
 21
95259.90781804486
 31
0.0
  0
LINE
  5
60FCF
330
1F
100
AcDbEntity
  8
freecads.com
100
AcDbLine
 10
104461.5156461416
 20
95259.92826777622
 30
0.0
 11
104461.5055472029
 21
95259.9298563501
 31
0.0
  0
LINE
  5
60FD0
330
1F
100
AcDbEntity
  8
freecads.com
100
AcDbLine
 10
104461.520396278
 20
95259.91957313594
 30
0.0
 11
104461.5156461416
 21
95259.92826777622
 31
0.0
  0
LINE
  5
60FD1
330
1F
100
AcDbEntity
  8
freecads.com
100
AcDbLine
 10
104461.519700273
 20
95259.91389026804
 30
0.0
 11
104461.520396278
 21
95259.91957313594
 31
0.0
  0
LINE
  5
60FD2
330
1F
100
AcDbEntity
  8
freecads.com
100
AcDbLine
 10
104461.4967476781
 20
95259.85934853043
 30
0.0
 11
104461.519700273
 21
95259.91389026804
 31
0.0
  0
LINE
  5
60FD3
330
1F
100
AcDbEntity
  8
freecads.com
100
AcDbLine
 10
104461.4764061639
 20
95259.83091245231
 30
0.0
 11
104461.4967476781
 21
95259.85934853043
 31
0.0
  0
LINE
  5
60FD4
330
1F
100
AcDbEntity
  8
freecads.com
100
AcDbLine
 10
104461.4455423463
 20
95259.78510079259
 30
0.0
 11
104461.4764061639
 21
95259.83091245231
 31
0.0
  0
LINE
  5
60FD5
330
1F
100
AcDbEntity
  8
freecads.com
100
AcDbLine
 10
104461.4200131562
 20
95259.74513076469
 30
0.0
 11
104461.4455423463
 21
95259.78510079259
 31
0.0
  0
LINE
  5
60FD6
330
1F
100
AcDbEntity
  8
freecads.com
100
AcDbLine
 10
104461.3761265162
 20
95259.68450074246
 30
0.0
 11
104461.4200131562
 21
95259.74513076469
 31
0.0
  0
LINE
  5
60FD7
330
1F
100
AcDbEntity
  8
freecads.com
100
AcDbLine
 10
104461.3440809518
 20
95259.64607912587
 30
0.0
 11
104461.3761265162
 21
95259.68450074246
 31
0.0
  0
LINE
  5
60FD8
330
1F
100
AcDbEntity
  8
freecads.com
100
AcDbLine
 10
104461.3247676216
 20
95259.59655496381
 30
0.0
 11
104461.3440809518
 21
95259.64607912587
 31
0.0
  0
LINE
  5
60FD9
330
1F
100
AcDbEntity
  8
freecads.com
100
AcDbLine
 10
104461.3194452828
 20
95259.57300888594
 30
0.0
 11
104461.3247676216
 21
95259.59655496381
 31
0.0
  0
LINE
  5
60FDA
330
1F
100
AcDbEntity
  8
freecads.com
100
AcDbLine
 10
104461.3031059249
 20
95259.5255590397
 30
0.0
 11
104461.3194452828
 21
95259.57300888594
 31
0.0
  0
LINE
  5
60FDB
330
1F
100
AcDbEntity
  8
freecads.com
100
AcDbLine
 10
104461.2898728395
 20
95259.49198489826
 30
0.0
 11
104461.3031059249
 21
95259.5255590397
 31
0.0
  0
LINE
  5
60FDC
330
1F
100
AcDbEntity
  8
freecads.com
100
AcDbLine
 10
104461.2772152713
 20
95259.45334593117
 30
0.0
 11
104461.2898728395
 21
95259.49198489826
 31
0.0
  0
LINE
  5
60FDD
330
1F
100
AcDbEntity
  8
freecads.com
100
AcDbLine
 10
104461.2658930129
 20
95259.4210149617
 30
0.0
 11
104461.2772152713
 21
95259.45334593117
 31
0.0
  0
LINE
  5
60FDE
330
1F
100
AcDbEntity
  8
freecads.com
100
AcDbLine
 10
104461.2724424621
 20
95259.42241689765
 30
0.0
 11
104461.2658930129
 21
95259.4210149617
 31
0.0
  0
LINE
  5
60FDF
330
1F
100
AcDbEntity
  8
freecads.com
100
AcDbLine
 10
104461.3069942228
 20
95259.42118649039
 30
0.0
 11
104461.2724424621
 21
95259.42241689765
 31
0.0
  0
LINE
  5
60FE0
330
1F
100
AcDbEntity
  8
freecads.com
100
AcDbLine
 10
104461.3385176734
 20
95259.41303476825
 30
0.0
 11
104461.3069942228
 21
95259.42118649039
 31
0.0
  0
LINE
  5
60FE1
330
1F
100
AcDbEntity
  8
freecads.com
100
AcDbLine
 10
104461.3802274755
 20
95259.41109181854
 30
0.0
 11
104461.3385176734
 21
95259.41303476825
 31
0.0
  0
LINE
  5
60FE2
330
1F
100
AcDbEntity
  8
freecads.com
100
AcDbLine
 10
104461.4276603082
 20
95259.4120354284
 30
0.0
 11
104461.3802274755
 21
95259.41109181854
 31
0.0
  0
LINE
  5
60FE3
330
1F
100
AcDbEntity
  8
freecads.com
100
AcDbLine
 10
104461.4616058391
 20
95259.41313023862
 30
0.0
 11
104461.4276603082
 21
95259.4120354284
 31
0.0
  0
LINE
  5
60FE4
330
1F
100
AcDbEntity
  8
freecads.com
100
AcDbLine
 10
104461.5018971677
 20
95259.41626156459
 30
0.0
 11
104461.4616058391
 21
95259.41313023862
 31
0.0
  0
LINE
  5
60FE5
330
1F
100
AcDbEntity
  8
freecads.com
100
AcDbLine
 10
104461.5407038727
 20
95259.41856647172
 30
0.0
 11
104461.5018971677
 21
95259.41626156459
 31
0.0
  0
LINE
  5
60FE6
330
1F
100
AcDbEntity
  8
freecads.com
100
AcDbLine
 10
104461.5738064473
 20
95259.41967073197
 30
0.0
 11
104461.5407038727
 21
95259.41856647172
 31
0.0
  0
LINE
  5
60FE7
330
1F
100
AcDbEntity
  8
freecads.com
100
AcDbLine
 10
104461.5919134714
 20
95259.41799238287
 30
0.0
 11
104461.5738064473
 21
95259.41967073197
 31
0.0
  0
LINE
  5
60FE8
330
1F
100
AcDbEntity
  8
freecads.com
100
AcDbLine
 10
104461.5816742106
 20
95259.35066218707
 30
0.0
 11
104461.5981028856
 21
95259.33087681382
 31
0.0
  0
LINE
  5
60FE9
330
1F
100
AcDbEntity
  8
freecads.com
100
AcDbLine
 10
104461.5675683906
 20
95259.37084305091
 30
0.0
 11
104461.5816742106
 21
95259.35066218707
 31
0.0
  0
LINE
  5
60FEA
330
1F
100
AcDbEntity
  8
freecads.com
100
AcDbLine
 10
104461.5657445003
 20
95259.39615536669
 30
0.0
 11
104461.5675683906
 21
95259.37084305091
 31
0.0
  0
LINE
  5
60FEB
330
1F
100
AcDbEntity
  8
freecads.com
100
AcDbLine
 10
104461.5817011324
 20
95259.40946548049
 30
0.0
 11
104461.5657445003
 21
95259.39615536669
 31
0.0
  0
LINE
  5
60FEC
330
1F
100
AcDbEntity
  8
freecads.com
100
AcDbLine
 10
104461.6319180026
 20
95259.33913911559
 30
0.0
 11
104461.6383531696
 21
95259.35419791462
 31
0.0
  0
LINE
  5
60FED
330
1F
100
AcDbEntity
  8
freecads.com
100
AcDbLine
 10
104461.6304121164
 20
95259.33641604497
 30
0.0
 11
104461.6319180026
 21
95259.33913911559
 31
0.0
  0
LINE
  5
60FEE
330
1F
100
AcDbEntity
  8
freecads.com
100
AcDbLine
 10
104461.6189093553
 20
95259.32558518762
 30
0.0
 11
104461.6304121164
 21
95259.33641604497
 31
0.0
  0
LINE
  5
60FEF
330
1F
100
AcDbEntity
  8
freecads.com
100
AcDbLine
 10
104461.6050742892
 20
95259.31351588331
 30
0.0
 11
104461.6189093553
 21
95259.32558518762
 31
0.0
  0
LINE
  5
60FF0
330
1F
100
AcDbEntity
  8
freecads.com
100
AcDbLine
 10
104461.5890845821
 20
95259.29725542228
 30
0.0
 11
104461.6050742892
 21
95259.31351588331
 31
0.0
  0
LINE
  5
60FF1
330
1F
100
AcDbEntity
  8
freecads.com
100
AcDbLine
 10
104461.5651505772
 20
95259.28677469185
 30
0.0
 11
104461.5890845821
 21
95259.29725542228
 31
0.0
  0
LINE
  5
60FF2
330
1F
100
AcDbEntity
  8
freecads.com
100
AcDbLine
 10
104461.5333530759
 20
95259.27048067964
 30
0.0
 11
104461.5651505772
 21
95259.28677469185
 31
0.0
  0
LINE
  5
60FF3
330
1F
100
AcDbEntity
  8
freecads.com
100
AcDbLine
 10
104461.514396484
 20
95259.25277812005
 30
0.0
 11
104461.5333530759
 21
95259.27048067964
 31
0.0
  0
LINE
  5
60FF4
330
1F
100
AcDbEntity
  8
freecads.com
100
AcDbLine
 10
104461.4917840899
 20
95259.22858281129
 30
0.0
 11
104461.514396484
 21
95259.25277812005
 31
0.0
  0
LINE
  5
60FF5
330
1F
100
AcDbEntity
  8
freecads.com
100
AcDbLine
 10
104461.4608389949
 20
95259.2131223054
 30
0.0
 11
104461.4917840899
 21
95259.22858281129
 31
0.0
  0
LINE
  5
60FF6
330
1F
100
AcDbEntity
  8
freecads.com
100
AcDbLine
 10
104461.4302256029
 20
95259.18964898913
 30
0.0
 11
104461.4608389949
 21
95259.2131223054
 31
0.0
  0
LINE
  5
60FF7
330
1F
100
AcDbEntity
  8
freecads.com
100
AcDbLine
 10
104461.4084963278
 20
95259.16902679485
 30
0.0
 11
104461.4302256029
 21
95259.18964898913
 31
0.0
  0
LINE
  5
60FF8
330
1F
100
AcDbEntity
  8
freecads.com
100
AcDbLine
 10
104461.3794242596
 20
95259.15143763553
 30
0.0
 11
104461.4084963278
 21
95259.16902679485
 31
0.0
  0
LINE
  5
60FF9
330
1F
100
AcDbEntity
  8
freecads.com
100
AcDbLine
 10
104461.3469472909
 20
95259.13093592905
 30
0.0
 11
104461.3794242596
 21
95259.15143763553
 31
0.0
  0
LINE
  5
60FFA
330
1F
100
AcDbEntity
  8
freecads.com
100
AcDbLine
 10
104461.3366617142
 20
95259.1158761149
 30
0.0
 11
104461.3469472909
 21
95259.13093592905
 31
0.0
  0
LINE
  5
60FFB
330
1F
100
AcDbEntity
  8
freecads.com
100
AcDbLine
 10
104461.3334609414
 20
95259.09357084652
 30
0.0
 11
104461.3366617142
 21
95259.1158761149
 31
0.0
  0
LINE
  5
60FFC
330
1F
100
AcDbEntity
  8
freecads.com
100
AcDbLine
 10
104461.3302464696
 20
95259.05124300214
 30
0.0
 11
104461.3334609414
 21
95259.09357084652
 31
0.0
  0
LINE
  5
60FFD
330
1F
100
AcDbEntity
  8
freecads.com
100
AcDbLine
 10
104461.3203285096
 20
95259.01257332247
 30
0.0
 11
104461.3302464696
 21
95259.05124300214
 31
0.0
  0
LINE
  5
60FFE
330
1F
100
AcDbEntity
  8
freecads.com
100
AcDbLine
 10
104461.3071497618
 20
95258.9838461801
 30
0.0
 11
104461.3203285096
 21
95259.01257332247
 31
0.0
  0
LINE
  5
60FFF
330
1F
100
AcDbEntity
  8
freecads.com
100
AcDbLine
 10
104461.2837752127
 20
95258.94806730894
 30
0.0
 11
104461.3071497618
 21
95258.9838461801
 31
0.0
  0
LINE
  5
61000
330
1F
100
AcDbEntity
  8
freecads.com
100
AcDbLine
 10
104461.2244138918
 20
95258.91711794711
 30
0.0
 11
104461.2837752127
 21
95258.94806730894
 31
0.0
  0
LINE
  5
61001
330
1F
100
AcDbEntity
  8
freecads.com
100
AcDbLine
 10
104461.2003901118
 20
95258.89862913128
 30
0.0
 11
104461.2244138918
 21
95258.91711794711
 31
0.0
  0
LINE
  5
61002
330
1F
100
AcDbEntity
  8
freecads.com
100
AcDbLine
 10
104461.1724350506
 20
95258.9054762563
 30
0.0
 11
104461.2003901118
 21
95258.89862913128
 31
0.0
  0
LINE
  5
61003
330
1F
100
AcDbEntity
  8
freecads.com
100
AcDbLine
 10
104461.1625132997
 20
95258.92287026188
 30
0.0
 11
104461.1724350506
 21
95258.9054762563
 31
0.0
  0
LINE
  5
61004
330
1F
100
AcDbEntity
  8
freecads.com
100
AcDbLine
 10
104461.1454264199
 20
95258.94034459266
 30
0.0
 11
104461.1625132997
 21
95258.92287026188
 31
0.0
  0
LINE
  5
61005
330
1F
100
AcDbEntity
  8
freecads.com
100
AcDbLine
 10
104461.1317520041
 20
95258.94260554641
 30
0.0
 11
104461.1454264199
 21
95258.94034459266
 31
0.0
  0
LINE
  5
61006
330
1F
100
AcDbEntity
  8
freecads.com
100
AcDbLine
 10
104461.0973542825
 20
95258.93877585303
 30
0.0
 11
104461.1317520041
 21
95258.94260554641
 31
0.0
  0
LINE
  5
61007
330
1F
100
AcDbEntity
  8
freecads.com
100
AcDbLine
 10
104461.0684428647
 20
95258.93551695178
 30
0.0
 11
104461.0973542825
 21
95258.93877585303
 31
0.0
  0
LINE
  5
61008
330
1F
100
AcDbEntity
  8
freecads.com
100
AcDbLine
 10
104461.0323167052
 20
95258.92791285484
 30
0.0
 11
104461.0684428647
 21
95258.93551695178
 31
0.0
  0
LINE
  5
61009
330
1F
100
AcDbEntity
  8
freecads.com
100
AcDbLine
 10
104460.9879806952
 20
95258.94000199343
 30
0.0
 11
104461.0323167052
 21
95258.92791285484
 31
0.0
  0
LINE
  5
6100A
330
1F
100
AcDbEntity
  8
freecads.com
100
AcDbLine
 10
104460.9744031421
 20
95258.95090324983
 30
0.0
 11
104460.9879806952
 21
95258.94000199343
 31
0.0
  0
LINE
  5
6100B
330
1F
100
AcDbEntity
  8
freecads.com
100
AcDbLine
 10
104460.9506297877
 20
95258.95475277749
 30
0.0
 11
104460.9744031421
 21
95258.95090324983
 31
0.0
  0
LINE
  5
6100C
330
1F
100
AcDbEntity
  8
freecads.com
100
AcDbLine
 10
104460.9125356251
 20
95258.95960591187
 30
0.0
 11
104460.9506297877
 21
95258.95475277749
 31
0.0
  0
LINE
  5
6100D
330
1F
100
AcDbEntity
  8
freecads.com
100
AcDbLine
 10
104460.8782087786
 20
95258.96209839116
 30
0.0
 11
104460.9125356251
 21
95258.95960591187
 31
0.0
  0
LINE
  5
6100E
330
1F
100
AcDbEntity
  8
freecads.com
100
AcDbLine
 10
104460.8342446342
 20
95258.96975728384
 30
0.0
 11
104460.8782087786
 21
95258.96209839116
 31
0.0
  0
LINE
  5
6100F
330
1F
100
AcDbEntity
  8
freecads.com
100
AcDbLine
 10
104460.7914381354
 20
95258.98667688396
 30
0.0
 11
104460.8342446342
 21
95258.96975728384
 31
0.0
  0
LINE
  5
61010
330
1F
100
AcDbEntity
  8
freecads.com
100
AcDbLine
 10
104460.7527018295
 20
95259.00945229093
 30
0.0
 11
104460.7914381354
 21
95258.98667688396
 31
0.0
  0
LINE
  5
61011
330
1F
100
AcDbEntity
  8
freecads.com
100
AcDbLine
 10
104460.7091823122
 20
95259.03797199097
 30
0.0
 11
104460.7527018295
 21
95259.00945229093
 31
0.0
  0
LINE
  5
61012
330
1F
100
AcDbEntity
  8
freecads.com
100
AcDbLine
 10
104460.680554395
 20
95259.06000178041
 30
0.0
 11
104460.7091823122
 21
95259.03797199097
 31
0.0
  0
LINE
  5
61013
330
1F
100
AcDbEntity
  8
freecads.com
100
AcDbLine
 10
104460.6456657303
 20
95259.08758166135
 30
0.0
 11
104460.680554395
 21
95259.06000178041
 31
0.0
  0
LINE
  5
61014
330
1F
100
AcDbEntity
  8
freecads.com
100
AcDbLine
 10
104460.6236983002
 20
95259.12091812395
 30
0.0
 11
104460.6456657303
 21
95259.08758166135
 31
0.0
  0
LINE
  5
61015
330
1F
100
AcDbEntity
  8
freecads.com
100
AcDbLine
 10
104460.5990574122
 20
95259.16018599362
 30
0.0
 11
104460.6236983002
 21
95259.12091812395
 31
0.0
  0
LINE
  5
61016
330
1F
100
AcDbEntity
  8
freecads.com
100
AcDbLine
 10
104460.5733940173
 20
95259.18344714254
 30
0.0
 11
104460.5990574122
 21
95259.16018599362
 31
0.0
  0
LINE
  5
61017
330
1F
100
AcDbEntity
  8
freecads.com
100
AcDbLine
 10
104460.5498143883
 20
95259.20457727549
 30
0.0
 11
104460.5733940173
 21
95259.18344714254
 31
0.0
  0
LINE
  5
61018
330
1F
100
AcDbEntity
  8
freecads.com
100
AcDbLine
 10
104460.5299713627
 20
95259.22060714522
 30
0.0
 11
104460.5498143883
 21
95259.20457727549
 31
0.0
  0
LINE
  5
61019
330
1F
100
AcDbEntity
  8
freecads.com
100
AcDbLine
 10
104460.5165639101
 20
95259.24668161605
 30
0.0
 11
104460.5299713627
 21
95259.22060714522
 31
0.0
  0
LINE
  5
6101A
330
1F
100
AcDbEntity
  8
freecads.com
100
AcDbLine
 10
104460.5113251932
 20
95259.28699656974
 30
0.0
 11
104460.5165639101
 21
95259.24668161605
 31
0.0
  0
LINE
  5
6101B
330
1F
100
AcDbEntity
  8
freecads.com
100
AcDbLine
 10
104460.5065178807
 20
95259.30939161336
 30
0.0
 11
104460.5113251932
 21
95259.28699656974
 31
0.0
  0
LINE
  5
6101C
330
1F
100
AcDbEntity
  8
freecads.com
100
AcDbLine
 10
104460.5008746993
 20
95259.33242832422
 30
0.0
 11
104460.5065178807
 21
95259.30939161336
 31
0.0
  0
LINE
  5
6101D
330
1F
100
AcDbEntity
  8
freecads.com
100
AcDbLine
 10
104460.4877512234
 20
95259.36503334433
 30
0.0
 11
104460.5008746993
 21
95259.33242832422
 31
0.0
  0
LINE
  5
6101E
330
1F
100
AcDbEntity
  8
freecads.com
100
AcDbLine
 10
104460.4579278785
 20
95259.28042915461
 30
0.0
 11
104460.4866691959
 21
95259.26851484147
 31
0.0
  0
LINE
  5
6101F
330
1F
100
AcDbEntity
  8
freecads.com
100
AcDbLine
 10
104460.4201479292
 20
95259.31331058789
 30
0.0
 11
104460.4579278785
 21
95259.28042915461
 31
0.0
  0
LINE
  5
61020
330
1F
100
AcDbEntity
  8
freecads.com
100
AcDbLine
 10
104460.4146091741
 20
95259.32686167724
 30
0.0
 11
104460.4201479292
 21
95259.31331058789
 31
0.0
  0
LINE
  5
61021
330
1F
100
AcDbEntity
  8
freecads.com
100
AcDbLine
 10
104460.3866541129
 20
95259.33370880224
 30
0.0
 11
104460.4146091741
 21
95259.32686167724
 31
0.0
  0
LINE
  5
61022
330
1F
100
AcDbEntity
  8
freecads.com
100
AcDbLine
 10
104460.3204655014
 20
95259.33297545536
 30
0.0
 11
104460.3866541129
 21
95259.33370880224
 31
0.0
  0
LINE
  5
61023
330
1F
100
AcDbEntity
  8
freecads.com
100
AcDbLine
 10
104460.294584756
 20
95259.33684860806
 30
0.0
 11
104460.3204655014
 21
95259.33297545536
 31
0.0
  0
LINE
  5
61024
330
1F
100
AcDbEntity
  8
freecads.com
100
AcDbLine
 10
104460.2666698574
 20
95259.34727829758
 30
0.0
 11
104460.294584756
 21
95259.33684860806
 31
0.0
  0
LINE
  5
61025
330
1F
100
AcDbEntity
  8
freecads.com
100
AcDbLine
 10
104460.2536772715
 20
95259.3539576847
 30
0.0
 11
104460.2666698574
 21
95259.34727829758
 31
0.0
  0
LINE
  5
61026
330
1F
100
AcDbEntity
  8
freecads.com
100
AcDbLine
 10
104460.2336901331
 20
95259.35713246997
 30
0.0
 11
104460.2536772715
 21
95259.3539576847
 31
0.0
  0
LINE
  5
61027
330
1F
100
AcDbEntity
  8
freecads.com
100
AcDbLine
 10
104460.201972957
 20
95259.3480035868
 30
0.0
 11
104460.2336901331
 21
95259.35713246997
 31
0.0
  0
LINE
  5
61028
330
1F
100
AcDbEntity
  8
freecads.com
100
AcDbLine
 10
104460.1672912586
 20
95259.33764334416
 30
0.0
 11
104460.201972957
 21
95259.3480035868
 31
0.0
  0
LINE
  5
61029
330
1F
100
AcDbEntity
  8
freecads.com
100
AcDbLine
 10
104460.1412498628
 20
95259.32718623879
 30
0.0
 11
104460.1672912586
 21
95259.33764334416
 31
0.0
  0
LINE
  5
6102A
330
1F
100
AcDbEntity
  8
freecads.com
100
AcDbLine
 10
104460.1319825364
 20
95259.32465044546
 30
0.0
 11
104460.1412498628
 21
95259.32718623879
 31
0.0
  0
LINE
  5
6102B
330
1F
100
AcDbEntity
  8
freecads.com
100
AcDbLine
 10
104460.0748830932
 20
95259.44216518944
 30
0.0
 11
104460.0701726434
 21
95259.47320053569
 31
0.0
  0
LINE
  5
6102C
330
1F
100
AcDbEntity
  8
freecads.com
100
AcDbLine
 10
104460.0931734585
 20
95259.40043932587
 30
0.0
 11
104460.0748830932
 21
95259.44216518944
 31
0.0
  0
LINE
  5
6102D
330
1F
100
AcDbEntity
  8
freecads.com
100
AcDbLine
 10
104460.1135192396
 20
95259.35405357728
 30
0.0
 11
104460.0931734585
 21
95259.40043932587
 31
0.0
  0
LINE
  5
6102E
330
1F
100
AcDbEntity
  8
freecads.com
100
AcDbLine
 10
104460.1367109416
 20
95259.31712037513
 30
0.0
 11
104460.1135192396
 21
95259.35405357728
 31
0.0
  0
LINE
  5
6102F
330
1F
100
AcDbEntity
  8
freecads.com
100
AcDbLine
 10
104460.1471850607
 20
95259.27379601153
 30
0.0
 11
104460.1367109416
 21
95259.31712037513
 31
0.0
  0
LINE
  5
61030
330
1F
100
AcDbEntity
  8
freecads.com
100
AcDbLine
 10
104460.1609601299
 20
95259.2241116752
 30
0.0
 11
104460.1471850607
 21
95259.27379601153
 31
0.0
  0
LINE
  5
61031
330
1F
100
AcDbEntity
  8
freecads.com
100
AcDbLine
 10
104460.1669685655
 20
95259.1772543597
 30
0.0
 11
104460.1609601299
 21
95259.2241116752
 31
0.0
  0
LINE
  5
61032
330
1F
100
AcDbEntity
  8
freecads.com
100
AcDbLine
 10
104460.1779114127
 20
95259.1381400529
 30
0.0
 11
104460.1669685655
 21
95259.1772543597
 31
0.0
  0
LINE
  5
61033
330
1F
100
AcDbEntity
  8
freecads.com
100
AcDbLine
 10
104460.193121493
 20
95259.08485661449
 30
0.0
 11
104460.1779114127
 21
95259.1381400529
 31
0.0
  0
LINE
  5
61034
330
1F
100
AcDbEntity
  8
freecads.com
100
AcDbLine
 10
104460.2149920604
 20
95259.04287984923
 30
0.0
 11
104460.193121493
 21
95259.08485661449
 31
0.0
  0
LINE
  5
61035
330
1F
100
AcDbEntity
  8
freecads.com
100
AcDbLine
 10
104460.2296478861
 20
95258.9965578883
 30
0.0
 11
104460.2149920604
 21
95259.04287984923
 31
0.0
  0
LINE
  5
61036
330
1F
100
AcDbEntity
  8
freecads.com
100
AcDbLine
 10
104460.2465268655
 20
95258.96053851766
 30
0.0
 11
104460.2296478861
 21
95258.9965578883
 31
0.0
  0
LINE
  5
61037
330
1F
100
AcDbEntity
  8
freecads.com
100
AcDbLine
 10
104460.2600420591
 20
95258.88767288151
 30
0.0
 11
104460.2465268655
 21
95258.96053851766
 31
0.0
  0
LINE
  5
61038
330
1F
100
AcDbEntity
  8
freecads.com
100
AcDbLine
 10
104460.2761418698
 20
95258.8573529163
 30
0.0
 11
104460.2600420591
 21
95258.88767288151
 31
0.0
  0
LINE
  5
61039
330
1F
100
AcDbEntity
  8
freecads.com
100
AcDbLine
 10
104460.2941284061
 20
95258.84492687366
 30
0.0
 11
104460.2761418698
 21
95258.8573529163
 31
0.0
  0
LINE
  5
6103A
330
1F
100
AcDbEntity
  8
freecads.com
100
AcDbLine
 10
104460.3050405409
 20
95258.80307295869
 30
0.0
 11
104460.2941284061
 21
95258.84492687366
 31
0.0
  0
LINE
  5
6103B
330
1F
100
AcDbEntity
  8
freecads.com
100
AcDbLine
 10
104460.3142804618
 20
95258.78126051974
 30
0.0
 11
104460.3050405409
 21
95258.80307295869
 31
0.0
  0
LINE
  5
6103C
330
1F
100
AcDbEntity
  8
freecads.com
100
AcDbLine
 10
104460.3261087906
 20
95258.74593006651
 30
0.0
 11
104460.3142804618
 21
95258.78126051974
 31
0.0
  0
LINE
  5
6103D
330
1F
100
AcDbEntity
  8
freecads.com
100
AcDbLine
 10
104460.3492107174
 20
95258.70098877897
 30
0.0
 11
104460.3261087906
 21
95258.74593006651
 31
0.0
  0
LINE
  5
6103E
330
1F
100
AcDbEntity
  8
freecads.com
100
AcDbLine
 10
104460.3727100212
 20
95258.67269351699
 30
0.0
 11
104460.3492107174
 21
95258.70098877897
 31
0.0
  0
LINE
  5
6103F
330
1F
100
AcDbEntity
  8
freecads.com
100
AcDbLine
 10
104460.4010898753
 20
95258.62853612316
 30
0.0
 11
104460.3727100212
 21
95258.67269351699
 31
0.0
  0
LINE
  5
61040
330
1F
100
AcDbEntity
  8
freecads.com
100
AcDbLine
 10
104460.4207557129
 20
95258.59670082175
 30
0.0
 11
104460.4010898753
 21
95258.62853612316
 31
0.0
  0
LINE
  5
61041
330
1F
100
AcDbEntity
  8
freecads.com
100
AcDbLine
 10
104460.4284732101
 20
95258.57069013856
 30
0.0
 11
104460.4207557129
 21
95258.59670082175
 31
0.0
  0
LINE
  5
61042
330
1F
100
AcDbEntity
  8
freecads.com
100
AcDbLine
 10
104460.4153034363
 20
95258.56156409398
 30
0.0
 11
104460.4284732101
 21
95258.57069013856
 31
0.0
  0
LINE
  5
61043
330
1F
100
AcDbEntity
  8
freecads.com
100
AcDbLine
 10
104460.3750758954
 20
95258.56412272343
 30
0.0
 11
104460.4153034363
 21
95258.56156409398
 31
0.0
  0
LINE
  5
61044
330
1F
100
AcDbEntity
  8
freecads.com
100
AcDbLine
 10
104460.3440641742
 20
95258.56151966449
 30
0.0
 11
104460.3750758954
 21
95258.56412272343
 31
0.0
  0
LINE
  5
61045
330
1F
100
AcDbEntity
  8
freecads.com
100
AcDbLine
 10
104460.2874958469
 20
95258.57290287204
 30
0.0
 11
104460.3440641742
 21
95258.56151966449
 31
0.0
  0
LINE
  5
61046
330
1F
100
AcDbEntity
  8
freecads.com
100
AcDbLine
 10
104460.2356304059
 20
95258.57137665752
 30
0.0
 11
104460.2874958469
 21
95258.57290287204
 31
0.0
  0
LINE
  5
61047
330
1F
100
AcDbEntity
  8
freecads.com
100
AcDbLine
 10
104460.1895116205
 20
95258.57484439349
 30
0.0
 11
104460.2356304059
 21
95258.57137665752
 31
0.0
  0
LINE
  5
61048
330
1F
100
AcDbEntity
  8
freecads.com
100
AcDbLine
 10
104460.1574291902
 20
95258.58953611491
 30
0.0
 11
104460.1895116205
 21
95258.57484439349
 31
0.0
  0
LINE
  5
61049
330
1F
100
AcDbEntity
  8
freecads.com
100
AcDbLine
 10
104460.0929425528
 20
95258.60901718306
 30
0.0
 11
104460.1574291902
 21
95258.58953611491
 31
0.0
  0
LINE
  5
6104A
330
1F
100
AcDbEntity
  8
freecads.com
100
AcDbLine
 10
104460.0903064188
 20
95258.637078557
 30
0.0
 11
104460.0929425528
 21
95258.60901718306
 31
0.0
  0
LINE
  5
6104B
330
1F
100
AcDbEntity
  8
freecads.com
100
AcDbLine
 10
104460.0786080279
 20
95258.68399966013
 30
0.0
 11
104460.0903064188
 21
95258.637078557
 31
0.0
  0
LINE
  5
6104C
330
1F
100
AcDbEntity
  8
freecads.com
100
AcDbLine
 10
104460.0208106857
 20
95258.79255957537
 30
0.0
 11
104460.0786080279
 21
95258.68399966013
 31
0.0
  0
LINE
  5
6104D
330
1F
100
AcDbEntity
  8
freecads.com
100
AcDbLine
 10
104459.9833851123
 20
95258.85705187203
 30
0.0
 11
104460.0208106857
 21
95258.79255957537
 31
0.0
  0
LINE
  5
6104E
330
1F
100
AcDbEntity
  8
freecads.com
100
AcDbLine
 10
104459.9609130402
 20
95258.90177533295
 30
0.0
 11
104459.9833851123
 21
95258.85705187203
 31
0.0
  0
LINE
  5
6104F
330
1F
100
AcDbEntity
  8
freecads.com
100
AcDbLine
 10
104459.9168246172
 20
95258.95475021735
 30
0.0
 11
104459.9609130402
 21
95258.90177533295
 31
0.0
  0
LINE
  5
61050
330
1F
100
AcDbEntity
  8
freecads.com
100
AcDbLine
 10
104459.8855539546
 20
95258.98545102203
 30
0.0
 11
104459.9168246172
 21
95258.95475021735
 31
0.0
  0
LINE
  5
61051
330
1F
100
AcDbEntity
  8
freecads.com
100
AcDbLine
 10
104459.8457941897
 20
95259.02973599116
 30
0.0
 11
104459.8855539546
 21
95258.98545102203
 31
0.0
  0
LINE
  5
61052
330
1F
100
AcDbEntity
  8
freecads.com
100
AcDbLine
 10
104459.806619392
 20
95259.06979909098
 30
0.0
 11
104459.8457941897
 21
95259.02973599116
 31
0.0
  0
LINE
  5
61053
330
1F
100
AcDbEntity
  8
freecads.com
100
AcDbLine
 10
104459.7409278408
 20
95259.16980611627
 30
0.0
 11
104459.806619392
 21
95259.06979909098
 31
0.0
  0
LINE
  5
61054
330
1F
100
AcDbEntity
  8
freecads.com
100
AcDbLine
 10
104459.7277684512
 20
95259.21800819148
 30
0.0
 11
104459.7409278408
 21
95259.16980611627
 31
0.0
  0
LINE
  5
61055
330
1F
100
AcDbEntity
  8
freecads.com
100
AcDbLine
 10
104459.7153905929
 20
95259.26072160034
 30
0.0
 11
104459.7277684512
 21
95259.21800819148
 31
0.0
  0
LINE
  5
61056
330
1F
100
AcDbEntity
  8
freecads.com
100
AcDbLine
 10
104459.6754035514
 20
95259.30353375834
 30
0.0
 11
104459.7153905929
 21
95259.26072160034
 31
0.0
  0
LINE
  5
61057
330
1F
100
AcDbEntity
  8
freecads.com
100
AcDbLine
 10
104459.6503988375
 20
95259.31034780828
 30
0.0
 11
104459.6754035514
 21
95259.30353375834
 31
0.0
  0
LINE
  5
61058
330
1F
100
AcDbEntity
  8
freecads.com
100
AcDbLine
 10
104459.6246149548
 20
95259.32286126362
 30
0.0
 11
104459.6503988375
 21
95259.31034780828
 31
0.0
  0
LINE
  5
61059
330
1F
100
AcDbEntity
  8
freecads.com
100
AcDbLine
 10
104459.5931576543
 20
95259.33691368026
 30
0.0
 11
104459.6246149548
 21
95259.32286126362
 31
0.0
  0
LINE
  5
6105A
330
1F
100
AcDbEntity
  8
freecads.com
100
AcDbLine
 10
104459.5430981377
 20
95259.36487440072
 30
0.0
 11
104459.5931576543
 21
95259.33691368026
 31
0.0
  0
LINE
  5
6105B
330
1F
100
AcDbEntity
  8
freecads.com
100
AcDbLine
 10
104459.5266836377
 20
95259.38592420848
 30
0.0
 11
104459.5430981377
 21
95259.36487440072
 31
0.0
  0
LINE
  5
6105C
330
1F
100
AcDbEntity
  8
freecads.com
100
AcDbLine
 10
104459.7671851947
 20
95259.06792274954
 30
0.0
 11
104459.7902620682
 21
95259.07714849545
 31
0.0
  0
LINE
  5
6105D
330
1F
100
AcDbEntity
  8
freecads.com
100
AcDbLine
 10
104459.7338912572
 20
95259.04974862307
 30
0.0
 11
104459.7671851947
 21
95259.06792274954
 31
0.0
  0
LINE
  5
6105E
330
1F
100
AcDbEntity
  8
freecads.com
100
AcDbLine
 10
104459.7098603896
 20
95259.03062758997
 30
0.0
 11
104459.7338912572
 21
95259.04974862307
 31
0.0
  0
LINE
  5
6105F
330
1F
100
AcDbEntity
  8
freecads.com
100
AcDbLine
 10
104459.6784942926
 20
95258.99641366766
 30
0.0
 11
104459.7098603896
 21
95259.03062758997
 31
0.0
  0
LINE
  5
61060
330
1F
100
AcDbEntity
  8
freecads.com
100
AcDbLine
 10
104459.6421177075
 20
95258.96647122726
 30
0.0
 11
104459.6784942926
 21
95258.99641366766
 31
0.0
  0
LINE
  5
61061
330
1F
100
AcDbEntity
  8
freecads.com
100
AcDbLine
 10
104459.6150968062
 20
95258.92504256329
 30
0.0
 11
104459.6421177075
 21
95258.96647122726
 31
0.0
  0
LINE
  5
61062
330
1F
100
AcDbEntity
  8
freecads.com
100
AcDbLine
 10
104459.5973413372
 20
95258.88287773181
 30
0.0
 11
104459.6150968062
 21
95258.92504256329
 31
0.0
  0
LINE
  5
61063
330
1F
100
AcDbEntity
  8
freecads.com
100
AcDbLine
 10
104459.5768060975
 20
95258.83716104839
 30
0.0
 11
104459.5973413372
 21
95258.88287773181
 31
0.0
  0
LINE
  5
61064
330
1F
100
AcDbEntity
  8
freecads.com
100
AcDbLine
 10
104459.5566663485
 20
95258.78912150997
 30
0.0
 11
104459.5768060975
 21
95258.83716104839
 31
0.0
  0
LINE
  5
61065
330
1F
100
AcDbEntity
  8
freecads.com
100
AcDbLine
 10
104459.5525026076
 20
95258.7373198566
 30
0.0
 11
104459.5566663485
 21
95258.78912150997
 31
0.0
  0
LINE
  5
61066
330
1F
100
AcDbEntity
  8
freecads.com
100
AcDbLine
 10
104459.5580295054
 20
95258.65747276379
 30
0.0
 11
104459.5525026076
 21
95258.7373198566
 31
0.0
  0
LINE
  5
61067
330
1F
100
AcDbEntity
  8
freecads.com
100
AcDbLine
 10
104459.5684629857
 20
95258.62932397712
 30
0.0
 11
104459.5580295054
 21
95258.65747276379
 31
0.0
  0
LINE
  5
61068
330
1F
100
AcDbEntity
  8
freecads.com
100
AcDbLine
 10
104459.5552506868
 20
95258.61640462894
 30
0.0
 11
104459.5684629857
 21
95258.62932397712
 31
0.0
  0
LINE
  5
61069
330
1F
100
AcDbEntity
  8
freecads.com
100
AcDbLine
 10
104459.5330592948
 20
95258.61096273661
 30
0.0
 11
104459.5552506868
 21
95258.61640462894
 31
0.0
  0
LINE
  5
6106A
330
1F
100
AcDbEntity
  8
freecads.com
100
AcDbLine
 10
104459.5025663906
 20
95258.59823711389
 30
0.0
 11
104459.5330592948
 21
95258.61096273661
 31
0.0
  0
LINE
  5
6106B
330
1F
100
AcDbEntity
  8
freecads.com
100
AcDbLine
 10
104459.4480109541
 20
95258.6011671328
 30
0.0
 11
104459.5025663906
 21
95258.59823711389
 31
0.0
  0
LINE
  5
6106C
330
1F
100
AcDbEntity
  8
freecads.com
100
AcDbLine
 10
104459.4133528807
 20
95258.59291428105
 30
0.0
 11
104459.4480109541
 21
95258.6011671328
 31
0.0
  0
LINE
  5
6106D
330
1F
100
AcDbEntity
  8
freecads.com
100
AcDbLine
 10
104459.3631870514
 20
95258.61139174246
 30
0.0
 11
104459.4133528807
 21
95258.59291428105
 31
0.0
  0
LINE
  5
6106E
330
1F
100
AcDbEntity
  8
freecads.com
100
AcDbLine
 10
104459.3492347942
 20
95258.64527064712
 30
0.0
 11
104459.3631870514
 21
95258.61139174246
 31
0.0
  0
LINE
  5
6106F
330
1F
100
AcDbEntity
  8
freecads.com
100
AcDbLine
 10
104459.3522649905
 20
95258.67116084253
 30
0.0
 11
104459.3492347942
 21
95258.64527064712
 31
0.0
  0
LINE
  5
61070
330
1F
100
AcDbEntity
  8
freecads.com
100
AcDbLine
 10
104459.3537416192
 20
95258.77411363499
 30
0.0
 11
104459.3522649905
 21
95258.67116084253
 31
0.0
  0
LINE
  5
61071
330
1F
100
AcDbEntity
  8
freecads.com
100
AcDbLine
 10
104459.3551629133
 20
95258.84449340329
 30
0.0
 11
104459.3537416192
 21
95258.77411363499
 31
0.0
  0
LINE
  5
61072
330
1F
100
AcDbEntity
  8
freecads.com
100
AcDbLine
 10
104459.354432405
 20
95258.89213461248
 30
0.0
 11
104459.3551629133
 21
95258.84449340329
 31
0.0
  0
LINE
  5
61073
330
1F
100
AcDbEntity
  8
freecads.com
100
AcDbLine
 10
104459.3634100699
 20
95258.94093158097
 30
0.0
 11
104459.354432405
 21
95258.89213461248
 31
0.0
  0
LINE
  5
61074
330
1F
100
AcDbEntity
  8
freecads.com
100
AcDbLine
 10
104459.3790675979
 20
95258.98396299387
 30
0.0
 11
104459.3634100699
 21
95258.94093158097
 31
0.0
  0
LINE
  5
61075
330
1F
100
AcDbEntity
  8
freecads.com
100
AcDbLine
 10
104459.3997497891
 20
95259.02398735937
 30
0.0
 11
104459.3790675979
 21
95258.98396299387
 31
0.0
  0
LINE
  5
61076
330
1F
100
AcDbEntity
  8
freecads.com
100
AcDbLine
 10
104459.4254490797
 20
95259.07913060168
 30
0.0
 11
104459.3997497891
 21
95259.02398735937
 31
0.0
  0
LINE
  5
61077
330
1F
100
AcDbEntity
  8
freecads.com
100
AcDbLine
 10
104459.4376185434
 20
95259.13063174074
 30
0.0
 11
104459.4254490797
 21
95259.07913060168
 31
0.0
  0
LINE
  5
61078
330
1F
100
AcDbEntity
  8
freecads.com
100
AcDbLine
 10
104459.424796058
 20
95259.15248434229
 30
0.0
 11
104459.4376185434
 21
95259.13063174074
 31
0.0
  0
LINE
  5
61079
330
1F
100
AcDbEntity
  8
freecads.com
100
AcDbLine
 10
104459.3939478257
 20
95259.14566413906
 30
0.0
 11
104459.424796058
 21
95259.15248434229
 31
0.0
  0
LINE
  5
6107A
330
1F
100
AcDbEntity
  8
freecads.com
100
AcDbLine
 10
104459.3642978779
 20
95259.13292906629
 30
0.0
 11
104459.3939478257
 21
95259.14566413906
 31
0.0
  0
LINE
  5
6107B
330
1F
100
AcDbEntity
  8
freecads.com
100
AcDbLine
 10
104459.336788396
 20
95259.12312071573
 30
0.0
 11
104459.3642978779
 21
95259.13292906629
 31
0.0
  0
LINE
  5
6107C
330
1F
100
AcDbEntity
  8
freecads.com
100
AcDbLine
 10
104459.2942526512
 20
95259.10779014767
 30
0.0
 11
104459.336788396
 21
95259.12312071573
 31
0.0
  0
LINE
  5
6107D
330
1F
100
AcDbEntity
  8
freecads.com
100
AcDbLine
 10
104459.2543998144
 20
95259.08737112887
 30
0.0
 11
104459.2942526512
 21
95259.10779014767
 31
0.0
  0
LINE
  5
6107E
330
1F
100
AcDbEntity
  8
freecads.com
100
AcDbLine
 10
104459.2111108884
 20
95259.0800580962
 30
0.0
 11
104459.2543998144
 21
95259.08737112887
 31
0.0
  0
LINE
  5
6107F
330
1F
100
AcDbEntity
  8
freecads.com
100
AcDbLine
 10
104459.1758513103
 20
95259.07455194014
 30
0.0
 11
104459.2111108884
 21
95259.0800580962
 31
0.0
  0
LINE
  5
61080
330
1F
100
AcDbEntity
  8
freecads.com
100
AcDbLine
 10
104459.1268558914
 20
95259.06582752151
 30
0.0
 11
104459.1758513103
 21
95259.07455194014
 31
0.0
  0
LINE
  5
61081
330
1F
100
AcDbEntity
  8
freecads.com
100
AcDbLine
 10
104459.076465624
 20
95259.06428476943
 30
0.0
 11
104459.1268558914
 21
95259.06582752151
 31
0.0
  0
LINE
  5
61082
330
1F
100
AcDbEntity
  8
freecads.com
100
AcDbLine
 10
104459.0139564397
 20
95259.07215156264
 30
0.0
 11
104459.076465624
 21
95259.06428476943
 31
0.0
  0
LINE
  5
61083
330
1F
100
AcDbEntity
  8
freecads.com
100
AcDbLine
 10
104458.9636370474
 20
95259.07693098323
 30
0.0
 11
104459.0139564397
 21
95259.07215156264
 31
0.0
  0
LINE
  5
61084
330
1F
100
AcDbEntity
  8
freecads.com
100
AcDbLine
 10
104458.8873660347
 20
95259.07926138389
 30
0.0
 11
104458.9636370474
 21
95259.07693098323
 31
0.0
  0
LINE
  5
61085
330
1F
100
AcDbEntity
  8
freecads.com
100
AcDbLine
 10
104458.8284559524
 20
95259.0885631881
 30
0.0
 11
104458.8873660347
 21
95259.07926138389
 31
0.0
  0
LINE
  5
61086
330
1F
100
AcDbEntity
  8
freecads.com
100
AcDbLine
 10
104458.7919905264
 20
95259.10709782573
 30
0.0
 11
104458.8284559524
 21
95259.0885631881
 31
0.0
  0
LINE
  5
61087
330
1F
100
AcDbEntity
  8
freecads.com
100
AcDbLine
 10
104458.7168837707
 20
95259.13807929249
 30
0.0
 11
104458.7919905264
 21
95259.10709782573
 31
0.0
  0
LINE
  5
61088
330
1F
100
AcDbEntity
  8
freecads.com
100
AcDbLine
 10
104458.6536521179
 20
95259.15670322925
 30
0.0
 11
104458.7168837707
 21
95259.13807929249
 31
0.0
  0
LINE
  5
61089
330
1F
100
AcDbEntity
  8
freecads.com
100
AcDbLine
 10
104458.6029367589
 20
95259.18256364631
 30
0.0
 11
104458.6536521179
 21
95259.15670322925
 31
0.0
  0
LINE
  5
6108A
330
1F
100
AcDbEntity
  8
freecads.com
100
AcDbLine
 10
104458.5355706494
 20
95259.20839996221
 30
0.0
 11
104458.6029367589
 21
95259.18256364631
 31
0.0
  0
LINE
  5
6108B
330
1F
100
AcDbEntity
  8
freecads.com
100
AcDbLine
 10
104458.4778437243
 20
95259.24803874525
 30
0.0
 11
104458.5355706494
 21
95259.20839996221
 31
0.0
  0
LINE
  5
6108C
330
1F
100
AcDbEntity
  8
freecads.com
100
AcDbLine
 10
104458.4350036744
 20
95259.28076613954
 30
0.0
 11
104458.4778437243
 21
95259.24803874525
 31
0.0
  0
LINE
  5
6108D
330
1F
100
AcDbEntity
  8
freecads.com
100
AcDbLine
 10
104458.3787325468
 20
95259.33746061378
 30
0.0
 11
104458.4350036744
 21
95259.28076613954
 31
0.0
  0
LINE
  5
6108E
330
1F
100
AcDbEntity
  8
freecads.com
100
AcDbLine
 10
104458.3505492568
 20
95259.38035121056
 30
0.0
 11
104458.3787325468
 21
95259.33746061378
 31
0.0
  0
LINE
  5
6108F
330
1F
100
AcDbEntity
  8
freecads.com
100
AcDbLine
 10
104458.2958737906
 20
95259.44777684081
 30
0.0
 11
104458.3505492568
 21
95259.38035121056
 31
0.0
  0
LINE
  5
61090
330
1F
100
AcDbEntity
  8
freecads.com
100
AcDbLine
 10
104458.266958582
 20
95259.50058162482
 30
0.0
 11
104458.2958737906
 21
95259.44777684081
 31
0.0
  0
LINE
  5
61091
330
1F
100
AcDbEntity
  8
freecads.com
100
AcDbLine
 10
104458.2300376505
 20
95259.55368692311
 30
0.0
 11
104458.266958582
 21
95259.50058162482
 31
0.0
  0
LINE
  5
61092
330
1F
100
AcDbEntity
  8
freecads.com
100
AcDbLine
 10
104458.192107435
 20
95259.62956621809
 30
0.0
 11
104458.2300376505
 21
95259.55368692311
 31
0.0
  0
LINE
  5
61093
330
1F
100
AcDbEntity
  8
freecads.com
100
AcDbLine
 10
104458.1763478252
 20
95259.69023261213
 30
0.0
 11
104458.192107435
 21
95259.62956621809
 31
0.0
  0
LINE
  5
61094
330
1F
100
AcDbEntity
  8
freecads.com
100
AcDbLine
 10
104458.1496770327
 20
95259.75523663824
 30
0.0
 11
104458.1763478252
 21
95259.69023261213
 31
0.0
  0
LINE
  5
61095
330
1F
100
AcDbEntity
  8
freecads.com
100
AcDbLine
 10
104458.1314693551
 20
95259.80433836995
 30
0.0
 11
104458.1496770327
 21
95259.75523663824
 31
0.0
  0
LINE
  5
61096
330
1F
100
AcDbEntity
  8
freecads.com
100
AcDbLine
 10
104458.3549190297
 20
95259.33772757692
 30
0.0
 11
104458.371690268
 21
95259.34849937161
 31
0.0
  0
LINE
  5
61097
330
1F
100
AcDbEntity
  8
freecads.com
100
AcDbLine
 10
104458.3297442153
 20
95259.32936841241
 30
0.0
 11
104458.3549190297
 21
95259.33772757692
 31
0.0
  0
LINE
  5
61098
330
1F
100
AcDbEntity
  8
freecads.com
100
AcDbLine
 10
104458.2944066746
 20
95259.3169078664
 30
0.0
 11
104458.3297442153
 21
95259.32936841241
 31
0.0
  0
LINE
  5
61099
330
1F
100
AcDbEntity
  8
freecads.com
100
AcDbLine
 10
104458.2704325071
 20
95259.30284457146
 30
0.0
 11
104458.2944066746
 21
95259.3169078664
 31
0.0
  0
LINE
  5
6109A
330
1F
100
AcDbEntity
  8
freecads.com
100
AcDbLine
 10
104458.2350453538
 20
95259.28595850457
 30
0.0
 11
104458.2704325071
 21
95259.30284457146
 31
0.0
  0
LINE
  5
6109B
330
1F
100
AcDbEntity
  8
freecads.com
100
AcDbLine
 10
104458.1922657948
 20
95259.26767995175
 30
0.0
 11
104458.2350453538
 21
95259.28595850457
 31
0.0
  0
LINE
  5
6109C
330
1F
100
AcDbEntity
  8
freecads.com
100
AcDbLine
 10
104458.1751085158
 20
95259.2600739684
 30
0.0
 11
104458.1922657948
 21
95259.26767995175
 31
0.0
  0
LINE
  5
6109D
330
1F
100
AcDbEntity
  8
freecads.com
100
AcDbLine
 10
104458.1851455174
 20
95259.4597672123
 30
0.0
 11
104458.1865294875
 21
95259.50801701371
 31
0.0
  0
LINE
  5
6109E
330
1F
100
AcDbEntity
  8
freecads.com
100
AcDbLine
 10
104458.1825703504
 20
95259.41806449766
 30
0.0
 11
104458.1851455174
 21
95259.4597672123
 31
0.0
  0
LINE
  5
6109F
330
1F
100
AcDbEntity
  8
freecads.com
100
AcDbLine
 10
104458.1805565255
 20
95259.37003252288
 30
0.0
 11
104458.1825703504
 21
95259.41806449766
 31
0.0
  0
LINE
  5
610A0
330
1F
100
AcDbEntity
  8
freecads.com
100
AcDbLine
 10
104458.1829729465
 20
95259.32237241363
 30
0.0
 11
104458.1805565255
 21
95259.37003252288
 31
0.0
  0
LINE
  5
610A1
330
1F
100
AcDbEntity
  8
freecads.com
100
AcDbLine
 10
104458.1779426242
 20
95259.2684728194
 30
0.0
 11
104458.1829729465
 21
95259.32237241363
 31
0.0
  0
LINE
  5
610A2
330
1F
100
AcDbEntity
  8
freecads.com
100
AcDbLine
 10
104458.1769961937
 20
95259.24045160804
 30
0.0
 11
104458.1779426242
 21
95259.2684728194
 31
0.0
  0
LINE
  5
610A3
330
1F
100
AcDbEntity
  8
freecads.com
100
AcDbLine
 10
104458.1757516114
 20
95259.20463541289
 30
0.0
 11
104458.1769961937
 21
95259.24045160804
 31
0.0
  0
LINE
  5
610A4
330
1F
100
AcDbEntity
  8
freecads.com
100
AcDbLine
 10
104458.1762401919
 20
95259.17301509949
 30
0.0
 11
104458.1757516114
 21
95259.20463541289
 31
0.0
  0
LINE
  5
610A5
330
1F
100
AcDbEntity
  8
freecads.com
100
AcDbLine
 10
104458.1828406821
 20
95259.12256813198
 30
0.0
 11
104458.1762401919
 21
95259.17301509949
 31
0.0
  0
LINE
  5
610A6
330
1F
100
AcDbEntity
  8
freecads.com
100
AcDbLine
 10
104458.1901702523
 20
95259.08075437959
 30
0.0
 11
104458.1828406821
 21
95259.12256813198
 31
0.0
  0
LINE
  5
610A7
330
1F
100
AcDbEntity
  8
freecads.com
100
AcDbLine
 10
104458.1995982395
 20
95259.01931590437
 30
0.0
 11
104458.1901702523
 21
95259.08075437959
 31
0.0
  0
LINE
  5
610A8
330
1F
100
AcDbEntity
  8
freecads.com
100
AcDbLine
 10
104458.2178720673
 20
95258.97611486717
 30
0.0
 11
104458.1995982395
 21
95259.01931590437
 31
0.0
  0
LINE
  5
610A9
330
1F
100
AcDbEntity
  8
freecads.com
100
AcDbLine
 10
104458.2417130002
 20
95258.92189160968
 30
0.0
 11
104458.2178720673
 21
95258.97611486717
 31
0.0
  0
LINE
  5
610AA
330
1F
100
AcDbEntity
  8
freecads.com
100
AcDbLine
 10
104458.2579006997
 20
95258.88061084932
 30
0.0
 11
104458.2417130002
 21
95258.92189160968
 31
0.0
  0
LINE
  5
610AB
330
1F
100
AcDbEntity
  8
freecads.com
100
AcDbLine
 10
104458.271699394
 20
95258.83303390388
 30
0.0
 11
104458.2579006997
 21
95258.88061084932
 31
0.0
  0
LINE
  5
610AC
330
1F
100
AcDbEntity
  8
freecads.com
100
AcDbLine
 10
104457.964152112
 20
95259.0550455851
 30
0.0
 11
104457.9870296008
 21
95258.99008408408
 31
0.0
  0
LINE
  5
610AD
330
1F
100
AcDbEntity
  8
freecads.com
100
AcDbLine
 10
104457.9443345979
 20
95259.09215172625
 30
0.0
 11
104457.964152112
 21
95259.0550455851
 31
0.0
  0
LINE
  5
610AE
330
1F
100
AcDbEntity
  8
freecads.com
100
AcDbLine
 10
104457.9294425217
 20
95259.11739977827
 30
0.0
 11
104457.9443345979
 21
95259.09215172625
 31
0.0
  0
LINE
  5
610AF
330
1F
100
AcDbEntity
  8
freecads.com
100
AcDbLine
 10
104457.9179657481
 20
95259.10888705091
 30
0.0
 11
104457.9294425217
 21
95259.11739977827
 31
0.0
  0
LINE
  5
610B0
330
1F
100
AcDbEntity
  8
freecads.com
100
AcDbLine
 10
104457.8773932813
 20
95259.08067777335
 30
0.0
 11
104457.9179657481
 21
95259.10888705091
 31
0.0
  0
LINE
  5
610B1
330
1F
100
AcDbEntity
  8
freecads.com
100
AcDbLine
 10
104457.8368420771
 20
95259.05436514756
 30
0.0
 11
104457.8773932813
 21
95259.08067777335
 31
0.0
  0
LINE
  5
610B2
330
1F
100
AcDbEntity
  8
freecads.com
100
AcDbLine
 10
104457.8053554922
 20
95259.00940353171
 30
0.0
 11
104457.8368420771
 21
95259.05436514756
 31
0.0
  0
LINE
  5
610B3
330
1F
100
AcDbEntity
  8
freecads.com
100
AcDbLine
 10
104457.7703595806
 20
95258.97101499019
 30
0.0
 11
104457.8053554922
 21
95259.00940353171
 31
0.0
  0
LINE
  5
610B4
330
1F
100
AcDbEntity
  8
freecads.com
100
AcDbLine
 10
104457.7504400206
 20
95258.92381604563
 30
0.0
 11
104457.7703595806
 21
95258.97101499019
 31
0.0
  0
LINE
  5
610B5
330
1F
100
AcDbEntity
  8
freecads.com
100
AcDbLine
 10
104457.7362482162
 20
95258.87992513885
 30
0.0
 11
104457.7504400206
 21
95258.92381604563
 31
0.0
  0
LINE
  5
610B6
330
1F
100
AcDbEntity
  8
freecads.com
100
AcDbLine
 10
104457.7240456773
 20
95258.82547365252
 30
0.0
 11
104457.7362482162
 21
95258.87992513885
 31
0.0
  0
LINE
  5
610B7
330
1F
100
AcDbEntity
  8
freecads.com
100
AcDbLine
 10
104457.7136164639
 20
95258.77880061248
 30
0.0
 11
104457.7240456773
 21
95258.82547365252
 31
0.0
  0
LINE
  5
610B8
330
1F
100
AcDbEntity
  8
freecads.com
100
AcDbLine
 10
104457.7006512939
 20
95258.73152370522
 30
0.0
 11
104457.7136164639
 21
95258.77880061248
 31
0.0
  0
LINE
  5
610B9
330
1F
100
AcDbEntity
  8
freecads.com
100
AcDbLine
 10
104457.6673620814
 20
95258.71377105692
 30
0.0
 11
104457.7006512939
 21
95258.73152370522
 31
0.0
  0
LINE
  5
610BA
330
1F
100
AcDbEntity
  8
freecads.com
100
AcDbLine
 10
104457.6322017285
 20
95258.71711594261
 30
0.0
 11
104457.6673620814
 21
95258.71377105692
 31
0.0
  0
LINE
  5
610BB
330
1F
100
AcDbEntity
  8
freecads.com
100
AcDbLine
 10
104457.5876885306
 20
95258.7133996495
 30
0.0
 11
104457.6322017285
 21
95258.71711594261
 31
0.0
  0
LINE
  5
610BC
330
1F
100
AcDbEntity
  8
freecads.com
100
AcDbLine
 10
104457.5401181966
 20
95258.71899131388
 30
0.0
 11
104457.5876885306
 21
95258.7133996495
 31
0.0
  0
LINE
  5
610BD
330
1F
100
AcDbEntity
  8
freecads.com
100
AcDbLine
 10
104457.5065038926
 20
95258.72864183471
 30
0.0
 11
104457.5401181966
 21
95258.71899131388
 31
0.0
  0
LINE
  5
610BE
330
1F
100
AcDbEntity
  8
freecads.com
100
AcDbLine
 10
104457.4701731293
 20
95258.75918860045
 30
0.0
 11
104457.5065038926
 21
95258.72864183471
 31
0.0
  0
ENDSEC
  0
SECTION
  2
OBJECTS
  0
DICTIONARY
  5
C
330
0
100
AcDbDictionary
281
     1
  3
ACAD_ASSOCPERSSUBENTMANAGER
350
2C1D4
  3
ACAD_CIP_PREVIOUS_PRODUCT_INFO
350
1A5
  3
ACAD_COLOR
350
73
  3
ACAD_DETAILVIEWSTYLE
350
1AB
  3
ACAD_GROUP
350
D
  3
ACAD_LAYOUT
350
1A
  3
ACAD_MATERIAL
350
72
  3
ACAD_MLEADERSTYLE
350
D7
  3
ACAD_MLINESTYLE
350
17
  3
ACAD_PLOTSETTINGS
350
19
  3
ACAD_PLOTSTYLENAME
350
E
  3
ACAD_SCALELIST
350
B6
  3
ACAD_SECTIONVIEWSTYLE
350
1A8
  3
ACAD_TABLESTYLE
350
86
  3
ACAD_VISUALSTYLE
350
99
  3
ACDB_RECOMPOSE_DATA
350
6B28A
  3
ACDBVARIABLEDICTIONARY
350
4A0D5
  3
AEC_PROPERTY_SET_DEFS
350
22D1
  0
DICTIONARY
  5
18E
330
2
100
AcDbDictionary
280
     1
281
     1
  3
ACAD_LAYERSTATES
360
18F
  0
DICTIONARY
  5
E6
330
10
100
AcDbDictionary
280
     1
281
     1
  0
DICTIONARY
  5
15D
330
1F
100
AcDbDictionary
280
     1
281
     1
  3
ACAD_SORTENTS
360
28E
  0
ACDBASSOCPERSSUBENTMANAGER
  5
2C1D4
102
{ACAD_REACTORS
330
C
102
}
330
C
100
AcDbAssocPersSubentManager
 90
        2
 90
        3
 90
        0
 90
        2
 90
     1260
 90
        0
 90
     1260
 90
        1
 90
        2
 90
        3
 90
        4
 90
        5
 90
        6
 90
        7
 90
        8
 90
        9
 90
       10
 90
       11
 90
       12
 90
       13
 90
       14
 90
       15
 90
       16
 90
       17
 90
       18
 90
       19
 90
       20
 90
       21
 90
       22
 90
       23
 90
       24
 90
       25
 90
       26
 90
       27
 90
       28
 90
       29
 90
       30
 90
       31
 90
       32
 90
       33
 90
       34
 90
       35
 90
       36
 90
       37
 90
       38
 90
       39
 90
       40
 90
       41
 90
       42
 90
       43
 90
       44
 90
       45
 90
       46
 90
       47
 90
       48
 90
       49
 90
       50
 90
       51
 90
       52
 90
       53
 90
       54
 90
       55
 90
       56
 90
       57
 90
       58
 90
       59
 90
       60
 90
       61
 90
       62
 90
       63
 90
       64
 90
       65
 90
       66
 90
       67
 90
       68
 90
       69
 90
       70
 90
       71
 90
       72
 90
       73
 90
       74
 90
       75
 90
       76
 90
       77
 90
       78
 90
       79
 90
       80
 90
       81
 90
       82
 90
       83
 90
       84
 90
       85
 90
       86
 90
       87
 90
       88
 90
       89
 90
       90
 90
       91
 90
       92
 90
       93
 90
       94
 90
       95
 90
       96
 90
       97
 90
       98
 90
       99
 90
      100
 90
      101
 90
      102
 90
      103
 90
      104
 90
      105
 90
      106
 90
      107
 90
      108
 90
      109
 90
      110
 90
      111
 90
      112
 90
      113
 90
      114
 90
      115
 90
      116
 90
      117
 90
      118
 90
      119
 90
      120
 90
      121
 90
      122
 90
      123
 90
      124
 90
      125
 90
      126
 90
      127
 90
      128
 90
      129
 90
      130
 90
      131
 90
      132
 90
      133
 90
      134
 90
      135
 90
      136
 90
      137
 90
      138
 90
      139
 90
      140
 90
      141
 90
      142
 90
      143
 90
      144
 90
      145
 90
      146
 90
      147
 90
      148
 90
      149
 90
      150
 90
      151
 90
      152
 90
      153
 90
      154
 90
      155
 90
      156
 90
      157
 90
      158
 90
      159
 90
      160
 90
      161
 90
      162
 90
      163
 90
      164
 90
      165
 90
      166
 90
      167
 90
      168
 90
      169
 90
      170
 90
      171
 90
      172
 90
      173
 90
      174
 90
      175
 90
      176
 90
      177
 90
      178
 90
      179
 90
      180
 90
      181
 90
      182
 90
      183
 90
      184
 90
      185
 90
      186
 90
      187
 90
      188
 90
      189
 90
      190
 90
      191
 90
      192
 90
      193
 90
      194
 90
      195
 90
      196
 90
      197
 90
      198
 90
      199
 90
      200
 90
      201
 90
      202
 90
      203
 90
      204
 90
      205
 90
      206
 90
      207
 90
      208
 90
      209
 90
      210
 90
      211
 90
      212
 90
      213
 90
      214
 90
      215
 90
      216
 90
      217
 90
      218
 90
      219
 90
      220
 90
      221
 90
      222
 90
      223
 90
      224
 90
      225
 90
      226
 90
      227
 90
      228
 90
      229
 90
      230
 90
      231
 90
      232
 90
      233
 90
      234
 90
      235
 90
      236
 90
      237
 90
      238
 90
      239
 90
      240
 90
      241
 90
      242
 90
      243
 90
      244
 90
      245
 90
      246
 90
      247
 90
      248
 90
      249
 90
      250
 90
      251
 90
      252
 90
      253
 90
      254
 90
      255
 90
      256
 90
      257
 90
      258
 90
      259
 90
      260
 90
      261
 90
      262
 90
      263
 90
      264
 90
      265
 90
      266
 90
      267
 90
      268
 90
      269
 90
      270
 90
      271
 90
      272
 90
      273
 90
      274
 90
      275
 90
      276
 90
      277
 90
      278
 90
      279
 90
      280
 90
      281
 90
      282
 90
      283
 90
      284
 90
      285
 90
      286
 90
      287
 90
      288
 90
      289
 90
      290
 90
      291
 90
      292
 90
      293
 90
      294
 90
      295
 90
      296
 90
      297
 90
      298
 90
      299
 90
      300
 90
      301
 90
      302
 90
      303
 90
      304
 90
      305
 90
      306
 90
      307
 90
      308
 90
      309
 90
      310
 90
      311
 90
      312
 90
      313
 90
      314
 90
      315
 90
      316
 90
      317
 90
      318
 90
      319
 90
      320
 90
      321
 90
      322
 90
      323
 90
      324
 90
      325
 90
      326
 90
      327
 90
      328
 90
      329
 90
      330
 90
      331
 90
      332
 90
      333
 90
      334
 90
      335
 90
      336
 90
      337
 90
      338
 90
      339
 90
      340
 90
      341
 90
      342
 90
      343
 90
      344
 90
      345
 90
      346
 90
      347
 90
      348
 90
      349
 90
      350
 90
      351
 90
      352
 90
      353
 90
      354
 90
      355
 90
      356
 90
      357
 90
      358
 90
      359
 90
      360
 90
      361
 90
      362
 90
      363
 90
      364
 90
      365
 90
      366
 90
      367
 90
      368
 90
      369
 90
      370
 90
      371
 90
      372
 90
      373
 90
      374
 90
      375
 90
      376
 90
      377
 90
      378
 90
      379
 90
      380
 90
      381
 90
      382
 90
      383
 90
      384
 90
      385
 90
      386
 90
      387
 90
      388
 90
      389
 90
      390
 90
      391
 90
      392
 90
      393
 90
      394
 90
      395
 90
      396
 90
      397
 90
      398
 90
      399
 90
      400
 90
      401
 90
      402
 90
      403
 90
      404
 90
      405
 90
      406
 90
      407
 90
      408
 90
      409
 90
      410
 90
      411
 90
      412
 90
      413
 90
      414
 90
      415
 90
      416
 90
      417
 90
      418
 90
      419
 90
      420
 90
      421
 90
      422
 90
      423
 90
      424
 90
      425
 90
      426
 90
      427
 90
      428
 90
      429
 90
      430
 90
      431
 90
      432
 90
      433
 90
      434
 90
      435
 90
      436
 90
      437
 90
      438
 90
      439
 90
      440
 90
      441
 90
      442
 90
      443
 90
      444
 90
      445
 90
      446
 90
      447
 90
      448
 90
      449
 90
      450
 90
      451
 90
      452
 90
      453
 90
      454
 90
      455
 90
      456
 90
      457
 90
      458
 90
      459
 90
      460
 90
      461
 90
      462
 90
      463
 90
      464
 90
      465
 90
      466
 90
      467
 90
      468
 90
      469
 90
      470
 90
      471
 90
      472
 90
      473
 90
      474
 90
      475
 90
      476
 90
      477
 90
      478
 90
      479
 90
      480
 90
      481
 90
      482
 90
      483
 90
      484
 90
      485
 90
      486
 90
      487
 90
      488
 90
      489
 90
      490
 90
      491
 90
      492
 90
      493
 90
      494
 90
      495
 90
      496
 90
      497
 90
      498
 90
      499
 90
      500
 90
      501
 90
      502
 90
      503
 90
      504
 90
      505
 90
      506
 90
      507
 90
      508
 90
      509
 90
      510
 90
      511
 90
      512
 90
      513
 90
      514
 90
      515
 90
      516
 90
      517
 90
      518
 90
      519
 90
      520
 90
      521
 90
      522
 90
      523
 90
      524
 90
      525
 90
      526
 90
      527
 90
      528
 90
      529
 90
      530
 90
      531
 90
      532
 90
      533
 90
      534
 90
      535
 90
      536
 90
      537
 90
      538
 90
      539
 90
      540
 90
      541
 90
      542
 90
      543
 90
      544
 90
      545
 90
      546
 90
      547
 90
      548
 90
      549
 90
      550
 90
      551
 90
      552
 90
      553
 90
      554
 90
      555
 90
      556
 90
      557
 90
      558
 90
      559
 90
      560
 90
      561
 90
      562
 90
      563
 90
      564
 90
      565
 90
      566
 90
      567
 90
      568
 90
      569
 90
      570
 90
      571
 90
      572
 90
      573
 90
      574
 90
      575
 90
      576
 90
      577
 90
      578
 90
      579
 90
      580
 90
      581
 90
      582
 90
      583
 90
      584
 90
      585
 90
      586
 90
      587
 90
      588
 90
      589
 90
      590
 90
      591
 90
      592
 90
      593
 90
      594
 90
      595
 90
      596
 90
      597
 90
      598
 90
      599
 90
      600
 90
      601
 90
      602
 90
      603
 90
      604
 90
      605
 90
      606
 90
      607
 90
      608
 90
      609
 90
      610
 90
      611
 90
      612
 90
      613
 90
      614
 90
      615
 90
      616
 90
      617
 90
      618
 90
      619
 90
      620
 90
      621
 90
      622
 90
      623
 90
      624
 90
      625
 90
      626
 90
      627
 90
      628
 90
      629
 90
      630
 90
      631
 90
      632
 90
      633
 90
      634
 90
      635
 90
      636
 90
      637
 90
      638
 90
      639
 90
      640
 90
      641
 90
      642
 90
      643
 90
      644
 90
      645
 90
      646
 90
      647
 90
      648
 90
      649
 90
      650
 90
      651
 90
      652
 90
      653
 90
      654
 90
      655
 90
      656
 90
      657
 90
      658
 90
      659
 90
      660
 90
      661
 90
      662
 90
      663
 90
      664
 90
      665
 90
      666
 90
      667
 90
      668
 90
      669
 90
      670
 90
      671
 90
      672
 90
      673
 90
      674
 90
      675
 90
      676
 90
      677
 90
      678
 90
      679
 90
      680
 90
      681
 90
      682
 90
      683
 90
      684
 90
      685
 90
      686
 90
      687
 90
      688
 90
      689
 90
      690
 90
      691
 90
      692
 90
      693
 90
      694
 90
      695
 90
      696
 90
      697
 90
      698
 90
      699
 90
      700
 90
      701
 90
      702
 90
      703
 90
      704
 90
      705
 90
      706
 90
      707
 90
      708
 90
      709
 90
      710
 90
      711
 90
      712
 90
      713
 90
      714
 90
      715
 90
      716
 90
      717
 90
      718
 90
      719
 90
      720
 90
      721
 90
      722
 90
      723
 90
      724
 90
      725
 90
      726
 90
      727
 90
      728
 90
      729
 90
      730
 90
      731
 90
      732
 90
      733
 90
      734
 90
      735
 90
      736
 90
      737
 90
      738
 90
      739
 90
      740
 90
      741
 90
      742
 90
      743
 90
      744
 90
      745
 90
      746
 90
      747
 90
      748
 90
      749
 90
      750
 90
      751
 90
      752
 90
      753
 90
      754
 90
      755
 90
      756
 90
      757
 90
      758
 90
      759
 90
      760
 90
      761
 90
      762
 90
      763
 90
      764
 90
      765
 90
      766
 90
      767
 90
      768
 90
      769
 90
      770
 90
      771
 90
      772
 90
      773
 90
      774
 90
      775
 90
      776
 90
      777
 90
      778
 90
      779
 90
      780
 90
      781
 90
      782
 90
      783
 90
      784
 90
      785
 90
      786
 90
      787
 90
      788
 90
      789
 90
      790
 90
      791
 90
      792
 90
      793
 90
      794
 90
      795
 90
      796
 90
      797
 90
      798
 90
      799
 90
      800
 90
      801
 90
      802
 90
      803
 90
      804
 90
      805
 90
      806
 90
      807
 90
      808
 90
      809
 90
      810
 90
      811
 90
      812
 90
      813
 90
      814
 90
      815
 90
      816
 90
      817
 90
      818
 90
      819
 90
      820
 90
      821
 90
      822
 90
      823
 90
      824
 90
      825
 90
      826
 90
      827
 90
      828
 90
      829
 90
      830
 90
      831
 90
      832
 90
      833
 90
      834
 90
      835
 90
      836
 90
      837
 90
      838
 90
      839
 90
      840
 90
      841
 90
      842
 90
      843
 90
      844
 90
      845
 90
      846
 90
      847
 90
      848
 90
      849
 90
      850
 90
      851
 90
      852
 90
      853
 90
      854
 90
      855
 90
      856
 90
      857
 90
      858
 90
      859
 90
      860
 90
      861
 90
      862
 90
      863
 90
      864
 90
      865
 90
      866
 90
      867
 90
      868
 90
      869
 90
      870
 90
      871
 90
      872
 90
      873
 90
      874
 90
      875
 90
      876
 90
      877
 90
      878
 90
      879
 90
      880
 90
      881
 90
      882
 90
      883
 90
      884
 90
      885
 90
      886
 90
      887
 90
      888
 90
      889
 90
      890
 90
      891
 90
      892
 90
      893
 90
      894
 90
      895
 90
      896
 90
      897
 90
      898
 90
      899
 90
      900
 90
      901
 90
      902
 90
      903
 90
      904
 90
      905
 90
      906
 90
      907
 90
      908
 90
      909
 90
      910
 90
      911
 90
      912
 90
      913
 90
      914
 90
      915
 90
      916
 90
      917
 90
      918
 90
      919
 90
      920
 90
      921
 90
      922
 90
      923
 90
      924
 90
      925
 90
      926
 90
      927
 90
      928
 90
      929
 90
      930
 90
      931
 90
      932
 90
      933
 90
      934
 90
      935
 90
      936
 90
      937
 90
      938
 90
      939
 90
      940
 90
      941
 90
      942
 90
      943
 90
      944
 90
      945
 90
      946
 90
      947
 90
      948
 90
      949
 90
      950
 90
      951
 90
      952
 90
      953
 90
      954
 90
      955
 90
      956
 90
      957
 90
      958
 90
      959
 90
      960
 90
      961
 90
      962
 90
      963
 90
      964
 90
      965
 90
      966
 90
      967
 90
      968
 90
      969
 90
      970
 90
      971
 90
      972
 90
      973
 90
      974
 90
      975
 90
      976
 90
      977
 90
      978
 90
      979
 90
      980
 90
      981
 90
      982
 90
      983
 90
      984
 90
      985
 90
      986
 90
      987
 90
      988
 90
      989
 90
      990
 90
      991
 90
      992
 90
      993
 90
      994
 90
      995
 90
      996
 90
      997
 90
      998
 90
      999
 90
     1000
 90
     1001
 90
     1002
 90
     1003
 90
     1004
 90
     1005
 90
     1006
 90
     1007
 90
     1008
 90
     1009
 90
     1010
 90
     1011
 90
     1012
 90
     1013
 90
     1014
 90
     1015
 90
     1016
 90
     1017
 90
     1018
 90
     1019
 90
     1020
 90
     1021
 90
     1022
 90
     1023
 90
     1024
 90
     1025
 90
     1026
 90
     1027
 90
     1028
 90
     1029
 90
     1030
 90
     1031
 90
     1032
 90
     1033
 90
     1034
 90
     1035
 90
     1036
 90
     1037
 90
     1038
 90
     1039
 90
     1040
 90
     1041
 90
     1042
 90
     1043
 90
     1044
 90
     1045
 90
     1046
 90
     1047
 90
     1048
 90
     1049
 90
     1050
 90
     1051
 90
     1052
 90
     1053
 90
     1054
 90
     1055
 90
     1056
 90
     1057
 90
     1058
 90
     1059
 90
     1060
 90
     1061
 90
     1062
 90
     1063
 90
     1064
 90
     1065
 90
     1066
 90
     1067
 90
     1068
 90
     1069
 90
     1070
 90
     1071
 90
     1072
 90
     1073
 90
     1074
 90
     1075
 90
     1076
 90
     1077
 90
     1078
 90
     1079
 90
     1080
 90
     1081
 90
     1082
 90
     1083
 90
     1084
 90
     1085
 90
     1086
 90
     1087
 90
     1088
 90
     1089
 90
     1090
 90
     1091
 90
     1092
 90
     1093
 90
     1094
 90
     1095
 90
     1096
 90
     1097
 90
     1098
 90
     1099
 90
     1100
 90
     1101
 90
     1102
 90
     1103
 90
     1104
 90
     1105
 90
     1106
 90
     1107
 90
     1108
 90
     1109
 90
     1110
 90
     1111
 90
     1112
 90
     1113
 90
     1114
 90
     1115
 90
     1116
 90
     1117
 90
     1118
 90
     1119
 90
     1120
 90
     1121
 90
     1122
 90
     1123
 90
     1124
 90
     1125
 90
     1126
 90
     1127
 90
     1128
 90
     1129
 90
     1130
 90
     1131
 90
     1132
 90
     1133
 90
     1134
 90
     1135
 90
     1136
 90
     1137
 90
     1138
 90
     1139
 90
     1140
 90
     1141
 90
     1142
 90
     1143
 90
     1144
 90
     1145
 90
     1146
 90
     1147
 90
     1148
 90
     1149
 90
     1150
 90
     1151
 90
     1152
 90
     1153
 90
     1154
 90
     1155
 90
     1156
 90
     1157
 90
     1158
 90
     1159
 90
     1160
 90
     1161
 90
     1162
 90
     1163
 90
     1164
 90
     1165
 90
     1166
 90
     1167
 90
     1168
 90
     1169
 90
     1170
 90
     1171
 90
     1172
 90
     1173
 90
     1174
 90
     1175
 90
     1176
 90
     1177
 90
     1178
 90
     1179
 90
     1180
 90
     1181
 90
     1182
 90
     1183
 90
     1184
 90
     1185
 90
     1186
 90
     1187
 90
     1188
 90
     1189
 90
     1190
 90
     1191
 90
     1192
 90
     1193
 90
     1194
 90
     1195
 90
     1196
 90
     1197
 90
     1198
 90
     1199
 90
     1200
 90
     1201
 90
     1202
 90
     1203
 90
     1204
 90
     1205
 90
     1206
 90
     1207
 90
     1208
 90
     1209
 90
     1210
 90
     1211
 90
     1212
 90
     1213
 90
     1214
 90
     1215
 90
     1216
 90
     1217
 90
     1218
 90
     1219
 90
     1220
 90
     1221
 90
     1222
 90
     1223
 90
     1224
 90
     1225
 90
     1226
 90
     1227
 90
     1228
 90
     1229
 90
     1230
 90
     1231
 90
     1232
 90
     1233
 90
     1234
 90
     1235
 90
     1236
 90
     1237
 90
     1238
 90
     1239
 90
     1240
 90
     1241
 90
     1242
 90
     1243
 90
     1244
 90
     1245
 90
     1246
 90
     1247
 90
     1248
 90
     1249
 90
     1250
 90
     1251
 90
     1252
 90
     1253
 90
     1254
 90
     1255
 90
     1256
 90
     1257
 90
     1258
 90
     1259
 90
     1260
 90
        0
 90
        0
290
     0
  0
XRECORD
  5
1A5
102
{ACAD_REACTORS
330
C
102
}
330
C
100
AcDbXrecord
280
     1
300
ACD
300
2022
300

  0
DICTIONARY
  5
73
102
{ACAD_REACTORS
330
C
102
}
330
C
100
AcDbDictionary
281
     1
  0
DICTIONARY
  5
1AB
102
{ACAD_REACTORS
330
C
102
}
330
C
100
AcDbDictionary
281
     1
  3
Imperial24
350
1AC
  3
Metric50
350
224
  0
DICTIONARY
  5
D
102
{ACAD_REACTORS
330
C
102
}
330
C
100
AcDbDictionary
281
     1
  0
DICTIONARY
  5
1A
102
{ACAD_REACTORS
330
C
102
}
330
C
100
AcDbDictionary
281
     1
  3
Layout1
350
59
  3
Layout2
350
5E
  3
Model
350
22
  0
DICTIONARY
  5
72
102
{ACAD_REACTORS
330
C
102
}
330
C
100
AcDbDictionary
281
     1
  3
ByBlock
350
97
  3
ByLayer
350
96
  3
Global
350
98
  0
DICTIONARY
  5
D7
102
{ACAD_REACTORS
330
C
102
}
330
C
100
AcDbDictionary
281
     1
  3
Standard
350
D8
  0
DICTIONARY
  5
17
102
{ACAD_REACTORS
330
C
102
}
330
C
100
AcDbDictionary
281
     1
  3
Standard
350
18
  0
DICTIONARY
  5
19
102
{ACAD_REACTORS
330
C
102
}
330
C
100
AcDbDictionary
281
     1
  0
ACDBDICTIONARYWDFLT
  5
E
102
{ACAD_REACTORS
330
C
102
}
330
C
100
AcDbDictionary
281
     1
  3
Normal
350
F
100
AcDbDictionaryWithDefault
340
F
  0
DICTIONARY
  5
B6
102
{ACAD_REACTORS
330
C
102
}
330
C
100
AcDbDictionary
281
     1
  3
*A1
350
2283
  3
A0
350
B7
  3
A1
350
124
  3
A2
350
125
  3
A3
350
126
  3
A4
350
127
  3
A5
350
128
  3
A6
350
129
  3
A7
350
12A
  3
A8
350
12B
  3
A9
350
12C
  3
B0
350
12D
  3
B1
350
12E
  3
B2
350
12F
  3
B3
350
130
  3
B4
350
131
  3
B5
350
132
  3
B6
350
133
  3
B7
350
134
  3
B8
350
135
  3
B9
350
136
  3
C0
350
137
  3
C1
350
138
  3
C2
350
139
  3
C3
350
13A
  3
C4
350
13B
  3
C5
350
13C
  3
C6
350
13D
  3
C7
350
13E
  3
C8
350
13F
  3
C9
350
140
  3
D0
350
141
  3
D1
350
142
  3
D2
350
143
  0
DICTIONARY
  5
1A8
102
{ACAD_REACTORS
330
C
102
}
330
C
100
AcDbDictionary
281
     1
  3
Imperial24
350
1AA
  3
Metric50
350
223
  0
DICTIONARY
  5
86
102
{ACAD_REACTORS
330
C
102
}
330
C
100
AcDbDictionary
281
     1
  3
Standard
350
87
  0
DICTIONARY
  5
99
102
{ACAD_REACTORS
330
C
102
}
330
C
100
AcDbDictionary
281
     1
  3
2dWireframe
350
9F
  3
3dWireframe
350
22946
  3
Basic
350
9E
  3
Brighten
350
A5
  3
ColorChange
350
A9
  3
Conceptual
350
A2
  3
Dim
350
A4
  3
EdgeColorOff
350
175
  3
Facepattern
350
A8
  3
Flat
350
9A
  3
FlatWithEdges
350
9B
  3
Gouraud
350
9C
  3
GouraudWithEdges
350
9D
  3
Hidden
350
A1
  3
JitterOff
350
173
  3
Linepattern
350
A7
  3
OverhangOff
350
174
  3
Realistic
350
A3
  3
Shaded
350
182
  3
Shaded with edges
350
181
  3
Shades of Gray
350
17E
  3
Sketchy
350
17F
  3
Thicken
350
A6
  3
Wireframe
350
A0
  3
X-Ray
350
180
  0
XRECORD
  5
6B28A
102
{ACAD_REACTORS
330
C
102
}
330
C
100
AcDbXrecord
280
     1
 90
        1
330
87
  0
DICTIONARY
  5
4A0D5
102
{ACAD_REACTORS
330
C
102
}
330
C
100
AcDbDictionary
281
     2
  3
#COMPAREDIFFTOTAL
350
4A0D6
  3
#REVCLOUDAPPROXARCLEN
350
4A0D7
  3
ANNOALLVISIBLE
350
4A0D8
  3
CANNOSCALE
350
4A0D9
  3
CMLEADERSTYLE
350
4A0DA
  3
CTABLESTYLE
350
4A0DB
  3
CVIEWDETAILSTYLE
350
4A0DC
  3
CVIEWSECTIONSTYLE
350
4A0DD
  3
DIMADEC
350
4A0DE
  3
DIMASSOC
350
4A0DF
  3
DWFFRAME
350
4A0E0
  3
HIDETEXT
350
4A0E1
  3
HPCOLOR
350
4A0E2
  3
HPLAYER
350
4A0E3
  3
HPTRANSPARENCY
350
4A0E4
  3
INDEXCTL
350
4A0E5
  3
LAYEREVAL
350
4A0E6
  3
LAYERNOTIFY
350
4A0E7
  3
LIGHTINGUNITS
350
4A0E8
  3
MLEADERSCALE
350
4A0E9
  3
MSLTSCALE
350
4A0EA
  3
MSOLESCALE
350
4A0EB
  3
PDFFRAME
350
4A0EC
  3
POINTCLOUDCLIPFRAME
350
4A0ED
  3
PROJECTNAME
350
4A0EE
  3
SOLIDHIST
350
4A0EF
  3
SORTENTS
350
4A0F0
  0
DICTIONARY
  5
22D1
102
{ACAD_REACTORS
330
C
102
}
330
C
100
AcDbDictionary
281
     1
  0
DICTIONARY
  5
18F
102
{ACAD_REACTORS
330
18E
102
}
330
18E
100
AcDbDictionary
281
     1
  0
SORTENTSTABLE
  5
28E
102
{ACAD_REACTORS
330
15D
102
}
330
15D
100
AcDbSortentsTable
330
1F
  0
ACDBDETAILVIEWSTYLE
  5
1AC
102
{ACAD_REACTORS
330
1AB
102
}
330
1AB
100
AcDbModelDocViewStyle
 70
     0
  3
Imperial24
290
     0
300
Imperial24
 90
        0
100
AcDbDetailViewStyle
 70
     0
 71
     0
 90
        3
 71
     1
340
11
 62
   256
 40
0.24
340
0
 62
   256
 40
0.24
300

 40
0.36
280
     3
 71
     2
340
16
 90
       25
 62
   256
 71
     3
340
11
 62
   256
 40
0.24
 90
        1
 40
0.75
 90
        1
300
%<\AcVar ViewType \f "%tc1">% %<\AcVar ViewDetailId>%\PSCALE %<\AcVar ViewScale \f "%sn">%
 71
     4
340
16
 90
       25
 62
   256
340
16
 90
       25
 62
   256
280
     0
  0
ACDBDETAILVIEWSTYLE
  5
224
102
{ACAD_REACTORS
330
1AB
102
}
330
1AB
100
AcDbModelDocViewStyle
 70
     0
  3
Metric50
290
     0
300
Metric50
 90
        0
100
AcDbDetailViewStyle
 70
     0
 71
     0
 90
        3
 71
     1
340
11
 62
   256
 40
5.0
340
0
 62
   256
 40
5.0
300

 40
0.0
280
     1
 71
     2
340
16
 90
       25
 62
   256
 71
     3
340
11
 62
   256
 40
5.0
 90
        0
 40
15.0
 90
        1
300
%<\AcVar ViewDetailId>% (%<\AcVar ViewScale \f "%sn">%)
 71
     4
340
16
 90
       25
 62
   256
340
16
 90
       25
 62
   256
280
     0
  0
LAYOUT
  5
59
102
{ACAD_REACTORS
330
1A
102
}
330
1A
100
AcDbPlotSettings
  1

  2
None
  4

  6

 40
0.0
 41
0.0
 42
0.0
 43
0.0
 44
0.0
 45
0.0
 46
0.0
 47
0.0
 48
0.0
 49
0.0
140
0.0
141
0.0
142
1.0
143
1.0
 70
   688
 72
     0
 73
     0
 74
     5
  7

 75
    16
147
1.0
 76
     0
 77
     2
 78
   300
148
0.0
149
0.0
100
AcDbLayout
  1
Layout1
 70
     1
 71
     1
 10
0.0
 20
0.0
 11
12.0
 21
9.0
 12
0.0
 22
0.0
 32
0.0
 14
0.0
 24
0.0
 34
0.0
 15
0.0
 25
0.0
 35
0.0
146
0.0
 13
0.0
 23
0.0
 33
0.0
 16
1.0
 26
0.0
 36
0.0
 17
0.0
 27
1.0
 37
0.0
 76
     0
330
58
  0
LAYOUT
  5
5E
102
{ACAD_REACTORS
330
1A
102
}
330
1A
100
AcDbPlotSettings
  1

  2
None
  4

  6

 40
0.0
 41
0.0
 42
0.0
 43
0.0
 44
0.0
 45
0.0
 46
0.0
 47
0.0
 48
0.0
 49
0.0
140
0.0
141
0.0
142
1.0
143
1.0
 70
   688
 72
     0
 73
     0
 74
     5
  7

 75
    16
147
1.0
 76
     0
 77
     2
 78
   300
148
0.0
149
0.0
100
AcDbLayout
  1
Layout2
 70
     1
 71
     2
 10
0.0
 20
0.0
 11
12.0
 21
9.0
 12
0.0
 22
0.0
 32
0.0
 14
0.0
 24
0.0
 34
0.0
 15
0.0
 25
0.0
 35
0.0
146
0.0
 13
0.0
 23
0.0
 33
0.0
 16
1.0
 26
0.0
 36
0.0
 17
0.0
 27
1.0
 37
0.0
 76
     0
330
5D
  0
LAYOUT
  5
22
102
{ACAD_XDICTIONARY
360
194
102
}
102
{ACAD_REACTORS
330
1A
102
}
330
1A
100
AcDbPlotSettings
  1

  2
none_device
  4
ANSI_A_(8.50_x_11.00_Inches)
  6

 40
6.349999904632568
 41
19.04999923706055
 42
6.350006103515625
 43
19.04998779296875
 44
215.8999938964844
 45
279.3999938964844
 46
0.0
 47
0.0
 48
0.0
 49
0.0
140
0.0
141
0.0
142
1.0
143
2.584895464708373
 70
 11952
 72
     0
 73
     1
 74
     0
  7

 75
     0
147
0.3868628397755418
 76
     0
 77
     2
 78
   300
148
0.0
149
0.0
100
AcDbLayout
  1
Model
 70
     1
 71
     0
 10
0.0
 20
0.0
 11
12.0
 21
9.0
 12
0.0
 22
0.0
 32
0.0
 14
0.0
 24
0.0
 34
0.0
 15
0.0
 25
0.0
 35
0.0
146
0.0
 13
0.0
 23
0.0
 33
0.0
 16
1.0
 26
0.0
 36
0.0
 17
0.0
 27
1.0
 37
0.0
 76
     0
330
1F
331
94
  0
MATERIAL
  5
97
102
{ACAD_XDICTIONARY
360
188
102
}
102
{ACAD_REACTORS
330
72
102
}
330
72
100
AcDbMaterial
  1
ByBlock
 94
       63
  0
MATERIAL
  5
96
102
{ACAD_XDICTIONARY
360
186
102
}
102
{ACAD_REACTORS
330
72
102
}
330
72
100
AcDbMaterial
  1
ByLayer
 94
       63
  0
MATERIAL
  5
98
102
{ACAD_XDICTIONARY
360
110
102
}
102
{ACAD_REACTORS
330
72
102
}
330
72
100
AcDbMaterial
  1
Global
 43
0.0208000000566244
 43
0.0
 43
0.0
 43
0.0
 43
0.0
 43
0.0208000000566244
 43
0.0
 43
0.0
 43
0.0
 43
0.0
 43
1.0
 43
0.0
 43
0.0
 43
0.0
 43
0.0
 43
1.0
 49
0.0208000000566244
 49
0.0
 49
0.0
 49
0.0
 49
0.0
 49
0.0208000000566244
 49
0.0
 49
0.0
 49
0.0
 49
0.0
 49
1.0
 49
0.0
 49
0.0
 49
0.0
 49
0.0
 49
1.0
142
0.0208000000566244
142
0.0
142
0.0
142
0.0
142
0.0
142
0.0208000000566244
142
0.0
142
0.0
142
0.0
142
0.0
142
1.0
142
0.0
142
0.0
142
0.0
142
0.0
142
1.0
144
0.0208000000566244
144
0.0
144
0.0
144
0.0
144
0.0
144
0.0208000000566244
144
0.0
144
0.0
144
0.0
144
0.0
144
1.0
144
0.0
144
0.0
144
0.0
144
0.0
144
1.0
 94
       63
1001
ACAD
1070
    -1
1070
     3
1070
     0
1000

1071
        0
1070
     0
  0
MLEADERSTYLE
  5
D8
102
{ACAD_REACTORS
330
D7
102
}
330
D7
100
AcDbMLeaderStyle
179
     2
170
     2
171
     1
172
     0
 90
        2
 40
0.0
 41
0.0
173
     1
 91
-1056964608
340
14
 92
       -2
290
     1
 42
0.09
291
     1
 43
0.36
  3
Standard
 44
0.18
300

342
11
174
     1
178
     1
175
     1
176
     0
 93
-1056964608
 45
0.18
292
     0
297
     0
 46
0.18
 94
-1056964608
 47
1.0
 49
1.0
140
1.0
293
     1
141
0.0
294
     1
177
     0
142
1.0
295
     0
296
     0
143
0.125
271
     0
272
     9
273
     9
298
     0
  0
MLINESTYLE
  5
18
102
{ACAD_REACTORS
330
17
102
}
330
17
100
AcDbMlineStyle
  2
STANDARD
 70
     0
  3

 62
   256
 51
90.0
 52
90.0
 71
     2
 49
0.5
 62
   256
  6
BYLAYER
 49
-0.5
 62
   256
  6
BYLAYER
  0
ACDBPLACEHOLDER
  5
F
102
{ACAD_REACTORS
330
E
102
}
330
E
  0
SCALE
  5
2283
102
{ACAD_REACTORS
330
B6
102
}
330
B6
100
AcDbScale
 70
     0
300
1:75
140
1.0
141
75.0
290
     0
  0
SCALE
  5
B7
102
{ACAD_REACTORS
330
B6
102
}
330
B6
100
AcDbScale
 70
     0
300
1:1
140
1.0
141
1.0
290
     1
  0
SCALE
  5
124
102
{ACAD_REACTORS
330
B6
102
}
330
B6
100
AcDbScale
 70
     0
300
1:2
140
1.0
141
2.0
290
     0
  0
SCALE
  5
125
102
{ACAD_REACTORS
330
B6
102
}
330
B6
100
AcDbScale
 70
     0
300
1:4
140
1.0
141
4.0
290
     0
  0
SCALE
  5
126
102
{ACAD_REACTORS
330
B6
102
}
330
B6
100
AcDbScale
 70
     0
300
1:5
140
1.0
141
5.0
290
     0
  0
SCALE
  5
127
102
{ACAD_REACTORS
330
B6
102
}
330
B6
100
AcDbScale
 70
     0
300
1:8
140
1.0
141
8.0
290
     0
  0
SCALE
  5
128
102
{ACAD_REACTORS
330
B6
102
}
330
B6
100
AcDbScale
 70
     0
300
1:10
140
1.0
141
10.0
290
     0
  0
SCALE
  5
129
102
{ACAD_REACTORS
330
B6
102
}
330
B6
100
AcDbScale
 70
     0
300
1:16
140
1.0
141
16.0
290
     0
  0
SCALE
  5
12A
102
{ACAD_REACTORS
330
B6
102
}
330
B6
100
AcDbScale
 70
     0
300
1:20
140
1.0
141
20.0
290
     0
  0
SCALE
  5
12B
102
{ACAD_REACTORS
330
B6
102
}
330
B6
100
AcDbScale
 70
     0
300
1:30
140
1.0
141
30.0
290
     0
  0
SCALE
  5
12C
102
{ACAD_REACTORS
330
B6
102
}
330
B6
100
AcDbScale
 70
     0
300
1:40
140
1.0
141
40.0
290
     0
  0
SCALE
  5
12D
102
{ACAD_REACTORS
330
B6
102
}
330
B6
100
AcDbScale
 70
     0
300
1:50
140
1.0
141
50.0
290
     0
  0
SCALE
  5
12E
102
{ACAD_REACTORS
330
B6
102
}
330
B6
100
AcDbScale
 70
     0
300
1:100
140
1.0
141
100.0
290
     0
  0
SCALE
  5
12F
102
{ACAD_REACTORS
330
B6
102
}
330
B6
100
AcDbScale
 70
     0
300
2:1
140
2.0
141
1.0
290
     0
  0
SCALE
  5
130
102
{ACAD_REACTORS
330
B6
102
}
330
B6
100
AcDbScale
 70
     0
300
4:1
140
4.0
141
1.0
290
     0
  0
SCALE
  5
131
102
{ACAD_REACTORS
330
B6
102
}
330
B6
100
AcDbScale
 70
     0
300
8:1
140
8.0
141
1.0
290
     0
  0
SCALE
  5
132
102
{ACAD_REACTORS
330
B6
102
}
330
B6
100
AcDbScale
 70
     0
300
10:1
140
10.0
141
1.0
290
     0
  0
SCALE
  5
133
102
{ACAD_REACTORS
330
B6
102
}
330
B6
100
AcDbScale
 70
     0
300
100:1
140
100.0
141
1.0
290
     0
  0
SCALE
  5
134
102
{ACAD_REACTORS
330
B6
102
}
330
B6
100
AcDbScale
 70
     0
300
1/128" = 1'-0"
140
0.0078125
141
12.0
290
     0
  0
SCALE
  5
135
102
{ACAD_REACTORS
330
B6
102
}
330
B6
100
AcDbScale
 70
     0
300
1/64" = 1'-0"
140
0.015625
141
12.0
290
     0
  0
SCALE
  5
136
102
{ACAD_REACTORS
330
B6
102
}
330
B6
100
AcDbScale
 70
     0
300
1/32" = 1'-0"
140
0.03125
141
12.0
290
     0
  0
SCALE
  5
137
102
{ACAD_REACTORS
330
B6
102
}
330
B6
100
AcDbScale
 70
     0
300
1/16" = 1'-0"
140
0.0625
141
12.0
290
     0
  0
SCALE
  5
138
102
{ACAD_REACTORS
330
B6
102
}
330
B6
100
AcDbScale
 70
     0
300
3/32" = 1'-0"
140
0.09375
141
12.0
290
     0
  0
SCALE
  5
139
102
{ACAD_REACTORS
330
B6
102
}
330
B6
100
AcDbScale
 70
     0
300
1/8" = 1'-0"
140
0.125
141
12.0
290
     0
  0
SCALE
  5
13A
102
{ACAD_REACTORS
330
B6
102
}
330
B6
100
AcDbScale
 70
     0
300
3/16" = 1'-0"
140
0.1875
141
12.0
290
     0
  0
SCALE
  5
13B
102
{ACAD_REACTORS
330
B6
102
}
330
B6
100
AcDbScale
 70
     0
300
1/4" = 1'-0"
140
0.25
141
12.0
290
     0
  0
SCALE
  5
13C
102
{ACAD_REACTORS
330
B6
102
}
330
B6
100
AcDbScale
 70
     0
300
3/8" = 1'-0"
140
0.375
141
12.0
290
     0
  0
SCALE
  5
13D
102
{ACAD_REACTORS
330
B6
102
}
330
B6
100
AcDbScale
 70
     0
300
1/2" = 1'-0"
140
0.5
141
12.0
290
     0
  0
SCALE
  5
13E
102
{ACAD_REACTORS
330
B6
102
}
330
B6
100
AcDbScale
 70
     0
300
3/4" = 1'-0"
140
0.75
141
12.0
290
     0
  0
SCALE
  5
13F
102
{ACAD_REACTORS
330
B6
102
}
330
B6
100
AcDbScale
 70
     0
300
1" = 1'-0"
140
1.0
141
12.0
290
     0
  0
SCALE
  5
140
102
{ACAD_REACTORS
330
B6
102
}
330
B6
100
AcDbScale
 70
     0
300
1-1/2" = 1'-0"
140
1.5
141
12.0
290
     0
  0
SCALE
  5
141
102
{ACAD_REACTORS
330
B6
102
}
330
B6
100
AcDbScale
 70
     0
300
3" = 1'-0"
140
3.0
141
12.0
290
     0
  0
SCALE
  5
142
102
{ACAD_REACTORS
330
B6
102
}
330
B6
100
AcDbScale
 70
     0
300
6" = 1'-0"
140
6.0
141
12.0
290
     0
  0
SCALE
  5
143
102
{ACAD_REACTORS
330
B6
102
}
330
B6
100
AcDbScale
 70
     0
300
1'-0" = 1'-0"
140
12.0
141
12.0
290
     0
  0
ACDBSECTIONVIEWSTYLE
  5
1AA
102
{ACAD_REACTORS
330
1A8
102
}
330
1A8
100
AcDbModelDocViewStyle
 70
     0
  3
Imperial24
290
     0
300
Imperial24
 90
        0
100
AcDbSectionViewStyle
 70
     0
 71
     0
 90
       78
 71
     1
340
11
 62
   256
 40
0.24
340
0
340
0
 62
   256
 40
0.24
300
I, O, Q, S, X, Z
 40
0.48
 90
        3
 40
0.18
 90
        1
 71
     2
340
16
 90
       25
 62
   256
340
16
 90
       50
 62
   256
 40
0.24
 40
0.0
 40
0.24
 71
     3
340
11
 62
   256
 40
0.24
 90
        1
 40
0.75
 90
        1
300
%<\AcVar ViewType \f "%tc1">% %<\AcVar ViewSectionStartId>%-%<\AcVar ViewSectionEndId>%\PSCALE %<\AcVar ViewScale \f "%sn">%
 71
     4
 62
   256
 62
   257
300
ANSI31
 40
1.0
 90
        0
290
     0
290
     0
 90
        6
 40
0.0
 40
1.570796326794896
 40
0.2617993877991494
 40
1.308996938995747
 40
-0.2617993877991494
 40
1.832595714594046
  0
ACDBSECTIONVIEWSTYLE
  5
223
102
{ACAD_REACTORS
330
1A8
102
}
330
1A8
100
AcDbModelDocViewStyle
 70
     0
  3
Metric50
290
     0
300
Metric50
 90
        0
100
AcDbSectionViewStyle
 70
     0
 71
     0
 90
      102
 71
     1
340
11
 62
   256
 40
5.0
340
0
340
0
 62
   256
 40
5.0
300
I, O, Q, S, X, Z
 40
10.0
 90
        0
 40
2.5
 90
        0
 71
     2
340
16
 90
       25
 62
   256
340
16
 90
       50
 62
   256
 40
5.0
 40
2.5
 40
5.0
 71
     3
340
11
 62
   256
 40
5.0
 90
        0
 40
15.0
 90
        1
300
%<\AcVar ViewSectionStartId>%-%<\AcVar ViewSectionEndId>% (%<\AcVar ViewScale \f "%sn">%)
 71
     4
 62
   256
 62
   257
300
ANSI31
 40
1.0
 90
        0
290
     0
290
     0
 90
        6
 40
0.0
 40
1.570796326794896
 40
0.2617993877991494
 40
1.308996938995747
 40
-0.2617993877991494
 40
1.832595714594046
  0
TABLESTYLE
  5
87
102
{ACAD_XDICTIONARY
360
104
102
}
102
{ACAD_REACTORS
330
86
102
}
330
86
100
AcDbTableStyle
280
     0
  3
Standard
 70
     0
 71
     0
 40
0.06
 41
0.06
280
     0
281
     0
  7
Standard
140
0.18
170
     2
 62
     0
 63
     7
283
     0
 90
      512
 91
        0
  1

274
    -2
284
     1
 64
     0
275
    -2
285
     1
 65
     0
276
    -2
286
     1
 66
     0
277
    -2
287
     1
 67
     0
278
    -2
288
     1
 68
     0
279
    -2
289
     1
 69
     0
  7
Standard
140
0.25
170
     5
 62
     0
 63
     7
283
     0
 90
      512
 91
        0
  1

274
    -2
284
     1
 64
     0
275
    -2
285
     1
 65
     0
276
    -2
286
     1
 66
     0
277
    -2
287
     1
 67
     0
278
    -2
288
     1
 68
     0
279
    -2
289
     1
 69
     0
  7
Standard
140
0.18
170
     5
 62
     0
 63
     7
283
     0
 90
      512
 91
        0
  1

274
    -2
284
     1
 64
     0
275
    -2
285
     1
 65
     0
276
    -2
286
     1
 66
     0
277
    -2
287
     1
 67
     0
278
    -2
288
     1
 68
     0
279
    -2
289
     1
 69
     0
  0
VISUALSTYLE
  5
9F
102
{ACAD_REACTORS
330
99
102
}
330
99
100
AcDbVisualStyle
  2
2dWireframe
 70
     4
177
     3
291
     0
 70
    58
 90
        0
176
     1
 90
        2
176
     1
 90
        1
176
     1
 90
        0
176
     1
 40
0.6
176
     1
 40
30.0
176
     1
 62
     7
420
 16777215
176
     1
 90
        1
176
     1
 90
        4
176
     1
 62
     7
176
     1
 62
   257
176
     1
 90
        1
176
     1
 90
        1
176
     1
 40
1.0
176
     1
 90
        0
176
     1
 62
   257
176
     1
 40
1.0
176
     1
 90
        1
176
     1
 90
        6
176
     1
 90
        2
176
     1
 62
     7
176
     1
 90
        5
176
     1
 90
        0
176
     1
 90
        0
176
     1
290
     0
176
     1
 90
        1
176
     1
 40
0.0
176
     1
 90
        0
176
     1
290
     1
176
     1
290
     1
176
     1
290
     0
176
     1
290
     0
176
     1
290
     0
176
     1
290
     0
176
     1
290
     0
176
     1
290
     0
176
     1
290
     0
176
     1
 90
       50
176
     1
 40
0.0
176
     1
 40
1.0
176
     1
 90
        0
176
     1
 62
    18
420
        0
176
     1
 90
       50
176
     1
 90
        3
176
     1
 62
     5
420
      255
176
     1
290
     0
176
     1
 90
       50
176
     1
 90
       50
176
     1
 90
       50
176
     1
290
     0
176
     1
 90
       50
176
     1
 62
   256
176
     0
 40
1.0
176
     0
 90
        2
176
     1
  1
strokes_ogs.tif
176
     1
290
     0
176
     1
 40
1.0
176
     1
 40
1.0
176
     1
  0
VISUALSTYLE
  5
22946
102
{ACAD_REACTORS
330
99
102
}
330
99
100
AcDbVisualStyle
  2
3dWireframe
 70
     5
177
     3
291
     0
 70
    58
 90
        0
176
     1
 90
        2
176
     1
 90
        0
176
     1
 90
        0
176
     1
 40
0.6
176
     1
 40
30.0
176
     1
 62
     7
176
     1
 90
        1
176
     1
 90
        4
176
     1
 62
     7
176
     1
 62
   257
176
     1
 90
        1
176
     1
 90
        1
176
     1
 40
1.0
176
     1
 90
        0
176
     1
 62
   257
176
     1
 40
1.0
176
     1
 90
        1
176
     1
 90
        6
176
     1
 90
        2
176
     1
 62
     7
176
     1
 90
        5
176
     1
 90
        0
176
     1
 90
        0
176
     1
290
     0
176
     1
 90
        1
176
     1
 40
0.0
176
     1
 90
        0
176
     1
290
     0
176
     1
290
     1
176
     1
290
     1
176
     1
290
     0
176
     1
290
     0
176
     1
290
     0
176
     1
290
     0
176
     1
290
     0
176
     1
290
     0
176
     1
 90
       50
176
     1
 40
0.0
176
     1
 40
1.0
176
     1
 90
        0
176
     1
 62
    18
420
        0
176
     1
 90
       50
176
     1
 90
        3
176
     1
 62
     5
420
      255
176
     1
290
     0
176
     1
 90
       50
176
     1
 90
       50
176
     1
 90
       50
176
     1
290
     0
176
     1
 90
       50
176
     1
 62
   256
176
     0
 40
1.0
176
     0
 90
        2
176
     1
  1
strokes_ogs.tif
176
     1
290
     0
176
     1
 40
1.0
176
     1
 40
1.0
176
     1
  0
VISUALSTYLE
  5
9E
102
{ACAD_REACTORS
330
99
102
}
330
99
100
AcDbVisualStyle
  2
Basic
 70
     7
177
     3
291
     1
 70
    58
 90
        1
176
     1
 90
        0
176
     1
 90
        1
176
     1
 90
        0
176
     1
 40
0.6
176
     1
 40
30.0
176
     1
 62
     7
420
 16777215
176
     1
 90
        0
176
     1
 90
        4
176
     1
 62
     7
176
     1
 62
   257
176
     1
 90
        1
176
     1
 90
        1
176
     1
 40
1.0
176
     1
 90
        8
176
     1
 62
     7
176
     1
 40
1.0
176
     1
 90
        1
176
     1
 90
        6
176
     1
 90
        2
176
     1
 62
     7
176
     1
 90
        5
176
     1
 90
        0
176
     1
 90
        0
176
     1
290
     0
176
     1
 90
        1
176
     1
 40
0.0
176
     1
 90
        0
176
     1
290
     0
176
     1
290
     1
176
     1
290
     1
176
     1
290
     0
176
     1
290
     0
176
     1
290
     0
176
     1
290
     0
176
     1
290
     0
176
     1
290
     0
176
     1
 90
       50
176
     1
 40
0.0
176
     1
 40
1.0
176
     1
 90
        0
176
     1
 62
    18
420
        0
176
     1
 90
       50
176
     1
 90
        3
176
     1
 62
     5
420
      255
176
     1
290
     0
176
     1
 90
       50
176
     1
 90
       50
176
     1
 90
       50
176
     1
290
     0
176
     1
 90
       50
176
     1
 62
   256
176
     0
 40
1.0
176
     0
 90
        2
176
     1
  1
strokes_ogs.tif
176
     1
290
     0
176
     1
 40
1.0
176
     1
 40
1.0
176
     1
  0
VISUALSTYLE
  5
A5
102
{ACAD_REACTORS
330
99
102
}
330
99
100
AcDbVisualStyle
  2
Brighten
 70
    12
177
     3
291
     1
 70
    58
 90
        2
176
     1
 90
        2
176
     1
 90
        1
176
     1
 90
        0
176
     1
 40
0.6
176
     1
 40
30.0
176
     1
 62
     7
420
 16777215
176
     1
 90
        1
176
     1
 90
        4
176
     1
 62
     7
176
     1
 62
   257
176
     1
 90
        1
176
     1
 90
        1
176
     1
 40
1.0
176
     1
 90
        8
176
     1
 62
     7
176
     1
 40
1.0
176
     1
 90
        1
176
     1
 90
        6
176
     1
 90
        2
176
     1
 62
     7
176
     1
 90
        5
176
     1
 90
        0
176
     1
 90
        0
176
     1
290
     0
176
     1
 90
        1
176
     1
 40
50.0
176
     1
 90
        0
176
     1
290
     0
176
     1
290
     1
176
     1
290
     1
176
     1
290
     0
176
     1
290
     0
176
     1
290
     0
176
     1
290
     0
176
     1
290
     0
176
     1
290
     0
176
     1
 90
       50
176
     1
 40
0.0
176
     1
 40
1.0
176
     1
 90
        0
176
     1
 62
    18
420
        0
176
     1
 90
       50
176
     1
 90
        3
176
     1
 62
     5
420
      255
176
     1
290
     0
176
     1
 90
       50
176
     1
 90
       50
176
     1
 90
       50
176
     1
290
     0
176
     1
 90
       50
176
     1
 62
   256
176
     0
 40
1.0
176
     0
 90
        2
176
     1
  1
strokes_ogs.tif
176
     1
290
     0
176
     1
 40
1.0
176
     1
 40
1.0
176
     1
  0
VISUALSTYLE
  5
A9
102
{ACAD_REACTORS
330
99
102
}
330
99
100
AcDbVisualStyle
  2
ColorChange
 70
    16
177
     3
291
     1
 70
    58
 90
        2
176
     1
 90
        2
176
     1
 90
        3
176
     1
 90
        0
176
     1
 40
0.6
176
     1
 40
30.0
176
     1
 62
     8
420
  8421504
176
     1
 90
        1
176
     1
 90
        4
176
     1
 62
     7
176
     1
 62
   257
176
     1
 90
        1
176
     1
 90
        1
176
     1
 40
1.0
176
     1
 90
        8
176
     1
 62
     8
420
  8421504
176
     1
 40
1.0
176
     1
 90
        1
176
     1
 90
        6
176
     1
 90
        2
176
     1
 62
     7
176
     1
 90
        5
176
     1
 90
        0
176
     1
 90
        0
176
     1
290
     0
176
     1
 90
        1
176
     1
 40
0.0
176
     1
 90
        0
176
     1
290
     0
176
     1
290
     1
176
     1
290
     1
176
     1
290
     0
176
     1
290
     0
176
     1
290
     0
176
     1
290
     0
176
     1
290
     0
176
     1
290
     0
176
     1
 90
       50
176
     1
 40
0.0
176
     1
 40
1.0
176
     1
 90
        0
176
     1
 62
    18
420
        0
176
     1
 90
       50
176
     1
 90
        3
176
     1
 62
     5
420
      255
176
     1
290
     0
176
     1
 90
       50
176
     1
 90
       50
176
     1
 90
       50
176
     1
290
     0
176
     1
 90
       50
176
     1
 62
   256
176
     0
 40
1.0
176
     0
 90
        2
176
     1
  1
strokes_ogs.tif
176
     1
290
     0
176
     1
 40
1.0
176
     1
 40
1.0
176
     1
  0
VISUALSTYLE
  5
A2
102
{ACAD_REACTORS
330
99
102
}
330
99
100
AcDbVisualStyle
  2
Conceptual
 70
     9
177
     3
291
     0
 70
    58
 90
        3
176
     1
 90
        2
176
     1
 90
        1
176
     1
 90
        0
176
     1
 40
0.6
176
     1
 40
30.0
176
     1
 62
     7
420
 16777215
176
     1
 90
        2
176
     1
 90
        2
176
     1
 62
     7
176
     1
 62
   257
176
     1
 90
        1
176
     1
 90
        1
176
     1
 40
40.0
176
     1
 90
        8
176
     1
 62
     7
176
     1
 40
1.0
176
     1
 90
        1
176
     1
 90
        6
176
     1
 90
        2
176
     1
 62
     7
176
     1
 90
        3
176
     1
 90
        0
176
     1
 90
        0
176
     1
290
     0
176
     1
 90
        1
176
     1
 40
0.0
176
     1
 90
        0
176
     1
290
     0
176
     1
290
     1
176
     1
290
     1
176
     1
290
     0
176
     1
290
     0
176
     1
290
     0
176
     1
290
     0
176
     1
290
     0
176
     1
290
     0
176
     1
 90
       50
176
     1
 40
0.0
176
     1
 40
1.0
176
     1
 90
        0
176
     1
 62
    18
420
        0
176
     1
 90
       50
176
     1
 90
        3
176
     1
 62
     5
420
      255
176
     1
290
     0
176
     1
 90
       50
176
     1
 90
       50
176
     1
 90
       50
176
     1
290
     0
176
     1
 90
       50
176
     1
 62
   256
176
     0
 40
1.0
176
     0
 90
        2
176
     1
  1
strokes_ogs.tif
176
     1
290
     0
176
     1
 40
1.0
176
     1
 40
1.0
176
     1
  0
VISUALSTYLE
  5
A4
102
{ACAD_REACTORS
330
99
102
}
330
99
100
AcDbVisualStyle
  2
Dim
 70
    11
177
     3
291
     1
 70
    58
 90
        2
176
     1
 90
        2
176
     1
 90
        1
176
     1
 90
        0
176
     1
 40
0.6
176
     1
 40
30.0
176
     1
 62
     7
420
 16777215
176
     1
 90
        1
176
     1
 90
        4
176
     1
 62
     7
176
     1
 62
   257
176
     1
 90
        1
176
     1
 90
        1
176
     1
 40
1.0
176
     1
 90
        8
176
     1
 62
     7
176
     1
 40
1.0
176
     1
 90
        1
176
     1
 90
        6
176
     1
 90
        2
176
     1
 62
     7
176
     1
 90
        5
176
     1
 90
        0
176
     1
 90
        0
176
     1
290
     0
176
     1
 90
        1
176
     1
 40
-50.0
176
     1
 90
        0
176
     1
290
     0
176
     1
290
     1
176
     1
290
     1
176
     1
290
     0
176
     1
290
     0
176
     1
290
     0
176
     1
290
     0
176
     1
290
     0
176
     1
290
     0
176
     1
 90
       50
176
     1
 40
0.0
176
     1
 40
1.0
176
     1
 90
        0
176
     1
 62
    18
420
        0
176
     1
 90
       50
176
     1
 90
        3
176
     1
 62
     5
420
      255
176
     1
290
     0
176
     1
 90
       50
176
     1
 90
       50
176
     1
 90
       50
176
     1
290
     0
176
     1
 90
       50
176
     1
 62
   256
176
     0
 40
1.0
176
     0
 90
        2
176
     1
  1
strokes_ogs.tif
176
     1
290
     0
176
     1
 40
1.0
176
     1
 40
1.0
176
     1
  0
VISUALSTYLE
  5
175
102
{ACAD_REACTORS
330
99
102
}
330
99
100
AcDbVisualStyle
  2
EdgeColorOff
 70
    22
177
     3
291
     1
 70
    58
 90
        2
176
     0
 90
        2
176
     0
 90
        0
176
     0
 90
        0
176
     0
 40
0.6
176
     0
 40
30.0
176
     0
 62
     7
420
 16777215
176
     0
 90
        1
176
     0
 90
        4
176
     0
 62
     7
176
     0
 62
   257
176
     0
 90
        1
176
     0
 90
        1
176
     0
 40
1.0
176
     0
 90
        8
176
     2
 62
     7
176
     0
 40
1.0
176
     0
 90
        1
176
     0
 90
        6
176
     0
 90
        2
176
     0
 62
     7
176
     0
 90
        5
176
     0
 90
        0
176
     0
 90
        0
176
     0
290
     0
176
     0
 90
        1
176
     0
 40
0.0
176
     0
 90
        0
176
     0
290
     0
176
     1
290
     1
176
     1
290
     1
176
     1
290
     0
176
     1
290
     0
176
     1
290
     0
176
     1
290
     0
176
     1
290
     0
176
     1
290
     0
176
     1
 90
       50
176
     1
 40
0.0
176
     1
 40
1.0
176
     1
 90
        0
176
     1
 62
    18
420
        0
176
     1
 90
       50
176
     1
 90
        3
176
     1
 62
     5
420
      255
176
     1
290
     0
176
     1
 90
       50
176
     1
 90
       50
176
     1
 90
       50
176
     1
290
     0
176
     1
 90
       50
176
     1
 62
   256
176
     0
 40
1.0
176
     0
 90
        2
176
     1
  1
strokes_ogs.tif
176
     1
290
     0
176
     1
 40
1.0
176
     1
 40
1.0
176
     1
  0
VISUALSTYLE
  5
A8
102
{ACAD_REACTORS
330
99
102
}
330
99
100
AcDbVisualStyle
  2
Facepattern
 70
    15
177
     3
291
     1
 70
    58
 90
        2
176
     1
 90
        2
176
     1
 90
        1
176
     1
 90
        0
176
     1
 40
0.6
176
     1
 40
30.0
176
     1
 62
     7
420
 16777215
176
     1
 90
        1
176
     1
 90
        4
176
     1
 62
     7
176
     1
 62
   257
176
     1
 90
        1
176
     1
 90
        1
176
     1
 40
1.0
176
     1
 90
        8
176
     1
 62
     7
176
     1
 40
1.0
176
     1
 90
        1
176
     1
 90
        6
176
     1
 90
        2
176
     1
 62
     7
176
     1
 90
        5
176
     1
 90
        0
176
     1
 90
        0
176
     1
290
     0
176
     1
 90
        1
176
     1
 40
0.0
176
     1
 90
        0
176
     1
290
     0
176
     1
290
     1
176
     1
290
     1
176
     1
290
     0
176
     1
290
     0
176
     1
290
     0
176
     1
290
     0
176
     1
290
     0
176
     1
290
     0
176
     1
 90
       50
176
     1
 40
0.0
176
     1
 40
1.0
176
     1
 90
        0
176
     1
 62
    18
420
        0
176
     1
 90
       50
176
     1
 90
        3
176
     1
 62
     5
420
      255
176
     1
290
     0
176
     1
 90
       50
176
     1
 90
       50
176
     1
 90
       50
176
     1
290
     0
176
     1
 90
       50
176
     1
 62
   256
176
     0
 40
1.0
176
     0
 90
        2
176
     1
  1
strokes_ogs.tif
176
     1
290
     0
176
     1
 40
1.0
176
     1
 40
1.0
176
     1
  0
VISUALSTYLE
  5
9A
102
{ACAD_REACTORS
330
99
102
}
330
99
100
AcDbVisualStyle
  2
Flat
 70
     0
177
     3
291
     1
 70
    58
 90
        2
176
     1
 90
        1
176
     1
 90
        1
176
     1
 90
        2
176
     1
 40
0.6
176
     1
 40
30.0
176
     1
 62
     7
420
 16777215
176
     1
 90
        0
176
     1
 90
        0
176
     1
 62
     7
176
     1
 62
   257
176
     1
 90
        1
176
     1
 90
        1
176
     1
 40
1.0
176
     1
 90
        8
176
     1
 62
     7
176
     1
 40
1.0
176
     1
 90
        1
176
     1
 90
        6
176
     1
 90
        2
176
     1
 62
     7
176
     1
 90
        5
176
     1
 90
        0
176
     1
 90
        0
176
     1
290
     0
176
     1
 90
       13
176
     1
 40
0.0
176
     1
 90
        0
176
     1
290
     0
176
     1
290
     1
176
     1
290
     1
176
     1
290
     0
176
     1
290
     0
176
     1
290
     0
176
     1
290
     0
176
     1
290
     0
176
     1
290
     0
176
     1
 90
       50
176
     1
 40
0.0
176
     1
 40
1.0
176
     1
 90
        0
176
     1
 62
    18
420
        0
176
     1
 90
       50
176
     1
 90
        3
176
     1
 62
     5
420
      255
176
     1
290
     0
176
     1
 90
       50
176
     1
 90
       50
176
     1
 90
       50
176
     1
290
     0
176
     1
 90
       50
176
     1
 62
   256
176
     0
 40
1.0
176
     0
 90
        2
176
     1
  1
strokes_ogs.tif
176
     1
290
     0
176
     1
 40
1.0
176
     1
 40
1.0
176
     1
  0
VISUALSTYLE
  5
9B
102
{ACAD_REACTORS
330
99
102
}
330
99
100
AcDbVisualStyle
  2
FlatWithEdges
 70
     1
177
     3
291
     1
 70
    58
 90
        2
176
     1
 90
        1
176
     1
 90
        1
176
     1
 90
        2
176
     1
 40
0.6
176
     1
 40
30.0
176
     1
 62
     7
420
 16777215
176
     1
 90
        1
176
     1
 90
        0
176
     1
 62
     7
176
     1
 62
   257
176
     1
 90
        1
176
     1
 90
        1
176
     1
 40
1.0
176
     1
 90
        0
176
     1
 62
   257
176
     1
 40
1.0
176
     1
 90
        1
176
     1
 90
        6
176
     1
 90
        2
176
     1
 62
     7
176
     1
 90
        5
176
     1
 90
        0
176
     1
 90
        0
176
     1
290
     0
176
     1
 90
       13
176
     1
 40
0.0
176
     1
 90
        0
176
     1
290
     0
176
     1
290
     1
176
     1
290
     1
176
     1
290
     0
176
     1
290
     0
176
     1
290
     0
176
     1
290
     0
176
     1
290
     0
176
     1
290
     0
176
     1
 90
       50
176
     1
 40
0.0
176
     1
 40
1.0
176
     1
 90
        0
176
     1
 62
    18
420
        0
176
     1
 90
       50
176
     1
 90
        3
176
     1
 62
     5
420
      255
176
     1
290
     0
176
     1
 90
       50
176
     1
 90
       50
176
     1
 90
       50
176
     1
290
     0
176
     1
 90
       50
176
     1
 62
   256
176
     0
 40
1.0
176
     0
 90
        2
176
     1
  1
strokes_ogs.tif
176
     1
290
     0
176
     1
 40
1.0
176
     1
 40
1.0
176
     1
  0
VISUALSTYLE
  5
9C
102
{ACAD_REACTORS
330
99
102
}
330
99
100
AcDbVisualStyle
  2
Gouraud
 70
     2
177
     3
291
     1
 70
    58
 90
        2
176
     1
 90
        2
176
     1
 90
        1
176
     1
 90
        2
176
     1
 40
0.6
176
     1
 40
30.0
176
     1
 62
     7
420
 16777215
176
     1
 90
        0
176
     1
 90
        0
176
     1
 62
     7
176
     1
 62
   257
176
     1
 90
        1
176
     1
 90
        1
176
     1
 40
1.0
176
     1
 90
        0
176
     1
 62
     7
176
     1
 40
1.0
176
     1
 90
        1
176
     1
 90
        6
176
     1
 90
        2
176
     1
 62
     7
176
     1
 90
        5
176
     1
 90
        0
176
     1
 90
        0
176
     1
290
     0
176
     1
 90
       13
176
     1
 40
0.0
176
     1
 90
        0
176
     1
290
     0
176
     1
290
     1
176
     1
290
     1
176
     1
290
     0
176
     1
290
     0
176
     1
290
     0
176
     1
290
     0
176
     1
290
     0
176
     1
290
     0
176
     1
 90
       50
176
     1
 40
0.0
176
     1
 40
1.0
176
     1
 90
        0
176
     1
 62
    18
420
        0
176
     1
 90
       50
176
     1
 90
        3
176
     1
 62
     5
420
      255
176
     1
290
     0
176
     1
 90
       50
176
     1
 90
       50
176
     1
 90
       50
176
     1
290
     0
176
     1
 90
       50
176
     1
 62
   256
176
     0
 40
1.0
176
     0
 90
        2
176
     1
  1
strokes_ogs.tif
176
     1
290
     0
176
     1
 40
1.0
176
     1
 40
1.0
176
     1
  0
VISUALSTYLE
  5
9D
102
{ACAD_REACTORS
330
99
102
}
330
99
100
AcDbVisualStyle
  2
GouraudWithEdges
 70
     3
177
     3
291
     1
 70
    58
 90
        2
176
     1
 90
        2
176
     1
 90
        1
176
     1
 90
        2
176
     1
 40
0.6
176
     1
 40
30.0
176
     1
 62
     7
420
 16777215
176
     1
 90
        1
176
     1
 90
        0
176
     1
 62
     7
176
     1
 62
   257
176
     1
 90
        1
176
     1
 90
        1
176
     1
 40
1.0
176
     1
 90
        0
176
     1
 62
   257
176
     1
 40
1.0
176
     1
 90
        1
176
     1
 90
        6
176
     1
 90
        2
176
     1
 62
     7
176
     1
 90
        5
176
     1
 90
        0
176
     1
 90
        0
176
     1
290
     0
176
     1
 90
       13
176
     1
 40
0.0
176
     1
 90
        0
176
     1
290
     0
176
     1
290
     1
176
     1
290
     1
176
     1
290
     0
176
     1
290
     0
176
     1
290
     0
176
     1
290
     0
176
     1
290
     0
176
     1
290
     0
176
     1
 90
       50
176
     1
 40
0.0
176
     1
 40
1.0
176
     1
 90
        0
176
     1
 62
    18
420
        0
176
     1
 90
       50
176
     1
 90
        3
176
     1
 62
     5
420
      255
176
     1
290
     0
176
     1
 90
       50
176
     1
 90
       50
176
     1
 90
       50
176
     1
290
     0
176
     1
 90
       50
176
     1
 62
   256
176
     0
 40
1.0
176
     0
 90
        2
176
     1
  1
strokes_ogs.tif
176
     1
290
     0
176
     1
 40
1.0
176
     1
 40
1.0
176
     1
  0
VISUALSTYLE
  5
A1
102
{ACAD_REACTORS
330
99
102
}
330
99
100
AcDbVisualStyle
  2
Hidden
 70
     6
177
     3
291
     0
 70
    58
 90
        1
176
     1
 90
        2
176
     1
 90
        2
176
     1
 90
        0
176
     1
 40
0.6
176
     1
 40
30.0
176
     1
 62
     7
420
 16777215
176
     1
 90
        2
176
     1
 90
        2
176
     1
 62
     7
176
     1
 62
   257
176
     1
 90
        2
176
     1
 90
        1
176
     1
 40
40.0
176
     1
 90
        0
176
     1
 62
   257
176
     1
 40
1.0
176
     1
 90
        1
176
     1
 90
        6
176
     1
 90
        2
176
     1
 62
     7
176
     1
 90
        3
176
     1
 90
        0
176
     1
 90
        0
176
     1
290
     0
176
     1
 90
        1
176
     1
 40
0.0
176
     1
 90
        0
176
     1
290
     0
176
     1
290
     1
176
     1
290
     1
176
     1
290
     0
176
     1
290
     0
176
     1
290
     0
176
     1
290
     0
176
     1
290
     0
176
     1
290
     0
176
     1
 90
       50
176
     1
 40
0.0
176
     1
 40
1.0
176
     1
 90
        0
176
     1
 62
    18
420
        0
176
     1
 90
       50
176
     1
 90
        3
176
     1
 62
     5
420
      255
176
     1
290
     0
176
     1
 90
       50
176
     1
 90
       50
176
     1
 90
       50
176
     1
290
     0
176
     1
 90
       50
176
     1
 62
   256
176
     0
 40
1.0
176
     0
 90
        2
176
     1
  1
strokes_ogs.tif
176
     1
290
     0
176
     1
 40
1.0
176
     1
 40
1.0
176
     1
  0
VISUALSTYLE
  5
173
102
{ACAD_REACTORS
330
99
102
}
330
99
100
AcDbVisualStyle
  2
JitterOff
 70
    20
177
     3
291
     1
 70
    58
 90
        2
176
     0
 90
        2
176
     0
 90
        0
176
     0
 90
        0
176
     0
 40
0.6
176
     0
 40
30.0
176
     0
 62
     7
420
 16777215
176
     0
 90
        1
176
     0
 90
        4
176
     0
 62
     7
176
     0
 62
   257
176
     0
 90
        1
176
     0
 90
        1
176
     0
 40
1.0
176
     0
 90
       10
176
     2
 62
     7
176
     0
 40
1.0
176
     0
 90
        1
176
     0
 90
        6
176
     0
 90
        2
176
     0
 62
     7
176
     0
 90
        5
176
     0
 90
        0
176
     0
 90
        0
176
     0
290
     0
176
     0
 90
        1
176
     0
 40
0.0
176
     0
 90
        0
176
     0
290
     0
176
     1
290
     1
176
     1
290
     1
176
     1
290
     0
176
     1
290
     0
176
     1
290
     0
176
     1
290
     0
176
     1
290
     0
176
     1
290
     0
176
     1
 90
       50
176
     1
 40
0.0
176
     1
 40
1.0
176
     1
 90
        0
176
     1
 62
    18
420
        0
176
     1
 90
       50
176
     1
 90
        3
176
     1
 62
     5
420
      255
176
     1
290
     0
176
     1
 90
       50
176
     1
 90
       50
176
     1
 90
       50
176
     1
290
     0
176
     1
 90
       50
176
     1
 62
   256
176
     0
 40
1.0
176
     0
 90
        2
176
     1
  1
strokes_ogs.tif
176
     1
290
     0
176
     1
 40
1.0
176
     1
 40
1.0
176
     1
  0
VISUALSTYLE
  5
A7
102
{ACAD_REACTORS
330
99
102
}
330
99
100
AcDbVisualStyle
  2
Linepattern
 70
    14
177
     3
291
     1
 70
    58
 90
        2
176
     1
 90
        2
176
     1
 90
        1
176
     1
 90
        0
176
     1
 40
0.6
176
     1
 40
30.0
176
     1
 62
     7
420
 16777215
176
     1
 90
        1
176
     1
 90
        4
176
     1
 62
     7
176
     1
 62
   257
176
     1
 90
        7
176
     1
 90
        7
176
     1
 40
1.0
176
     1
 90
        8
176
     1
 62
     7
176
     1
 40
1.0
176
     1
 90
        1
176
     1
 90
        6
176
     1
 90
        2
176
     1
 62
     7
176
     1
 90
        5
176
     1
 90
        0
176
     1
 90
        0
176
     1
290
     0
176
     1
 90
        1
176
     1
 40
0.0
176
     1
 90
        0
176
     1
290
     0
176
     1
290
     1
176
     1
290
     1
176
     1
290
     0
176
     1
290
     0
176
     1
290
     0
176
     1
290
     0
176
     1
290
     0
176
     1
290
     0
176
     1
 90
       50
176
     1
 40
0.0
176
     1
 40
1.0
176
     1
 90
        0
176
     1
 62
    18
420
        0
176
     1
 90
       50
176
     1
 90
        3
176
     1
 62
     5
420
      255
176
     1
290
     0
176
     1
 90
       50
176
     1
 90
       50
176
     1
 90
       50
176
     1
290
     0
176
     1
 90
       50
176
     1
 62
   256
176
     0
 40
1.0
176
     0
 90
        2
176
     1
  1
strokes_ogs.tif
176
     1
290
     0
176
     1
 40
1.0
176
     1
 40
1.0
176
     1
  0
VISUALSTYLE
  5
174
102
{ACAD_REACTORS
330
99
102
}
330
99
100
AcDbVisualStyle
  2
OverhangOff
 70
    21
177
     3
291
     1
 70
    58
 90
        2
176
     0
 90
        2
176
     0
 90
        0
176
     0
 90
        0
176
     0
 40
0.6
176
     0
 40
30.0
176
     0
 62
     7
420
 16777215
176
     0
 90
        1
176
     0
 90
        4
176
     0
 62
     7
176
     0
 62
   257
176
     0
 90
        1
176
     0
 90
        1
176
     0
 40
1.0
176
     0
 90
        9
176
     2
 62
     7
176
     0
 40
1.0
176
     0
 90
        1
176
     0
 90
        6
176
     0
 90
        2
176
     0
 62
     7
176
     0
 90
        5
176
     0
 90
        0
176
     0
 90
        0
176
     0
290
     0
176
     0
 90
        1
176
     0
 40
0.0
176
     0
 90
        0
176
     0
290
     0
176
     1
290
     1
176
     1
290
     1
176
     1
290
     0
176
     1
290
     0
176
     1
290
     0
176
     1
290
     0
176
     1
290
     0
176
     1
290
     0
176
     1
 90
       50
176
     1
 40
0.0
176
     1
 40
1.0
176
     1
 90
        0
176
     1
 62
    18
420
        0
176
     1
 90
       50
176
     1
 90
        3
176
     1
 62
     5
420
      255
176
     1
290
     0
176
     1
 90
       50
176
     1
 90
       50
176
     1
 90
       50
176
     1
290
     0
176
     1
 90
       50
176
     1
 62
   256
176
     0
 40
1.0
176
     0
 90
        2
176
     1
  1
strokes_ogs.tif
176
     1
290
     0
176
     1
 40
1.0
176
     1
 40
1.0
176
     1
  0
VISUALSTYLE
  5
A3
102
{ACAD_REACTORS
330
99
102
}
330
99
100
AcDbVisualStyle
  2
Realistic
 70
     8
177
     3
291
     0
 70
    58
 90
        2
176
     1
 90
        2
176
     1
 90
        0
176
     1
 90
        2
176
     1
 40
0.6
176
     1
 40
30.0
176
     1
 62
     7
420
 16777215
176
     1
 90
        0
176
     1
 90
        0
176
     1
 62
     7
176
     1
 62
   257
176
     1
 90
        1
176
     1
 90
        1
176
     1
 40
1.0
176
     1
 90
        8
176
     1
 62
   257
176
     1
 40
1.0
176
     1
 90
        1
176
     1
 90
        6
176
     1
 90
        2
176
     1
 62
     7
176
     1
 90
        3
176
     1
 90
        0
176
     1
 90
        0
176
     1
290
     0
176
     1
 90
       13
176
     1
 40
0.0
176
     1
 90
        0
176
     1
290
     0
176
     1
290
     1
176
     1
290
     1
176
     1
290
     0
176
     1
290
     0
176
     1
290
     0
176
     1
290
     0
176
     1
290
     0
176
     1
290
     0
176
     1
 90
       50
176
     1
 40
0.0
176
     1
 40
1.0
176
     1
 90
        0
176
     1
 62
    18
420
        0
176
     1
 90
       50
176
     1
 90
        3
176
     1
 62
     5
420
      255
176
     1
290
     0
176
     1
 90
       50
176
     1
 90
       50
176
     1
 90
       50
176
     1
290
     0
176
     1
 90
       50
176
     1
 62
   256
176
     0
 40
1.0
176
     0
 90
        2
176
     1
  1
strokes_ogs.tif
176
     1
290
     0
176
     1
 40
1.0
176
     1
 40
1.0
176
     1
  0
VISUALSTYLE
  5
182
102
{ACAD_REACTORS
330
99
102
}
330
99
100
AcDbVisualStyle
  2
Shaded
 70
    27
177
     3
291
     0
 70
    58
 90
        2
176
     1
 90
        2
176
     1
 90
        1
176
     1
 90
        2
176
     1
 40
0.6
176
     1
 40
30.0
176
     1
 62
     7
420
 16777215
176
     1
 90
        0
176
     1
 90
        4
176
     1
 62
     7
176
     1
 62
   257
176
     1
 90
        1
176
     1
 90
        1
176
     1
 40
1.0
176
     1
 90
        8
176
     1
 62
   257
176
     1
 40
1.0
176
     1
 90
        1
176
     1
 90
        6
176
     1
 90
        2
176
     1
 62
     8
420
  7895160
176
     1
 90
        3
176
     1
 90
        0
176
     1
 90
        0
176
     1
290
     0
176
     1
 90
        5
176
     1
 40
0.0
176
     1
 90
        0
176
     1
290
     0
176
     1
290
     1
176
     1
290
     1
176
     1
290
     0
176
     1
290
     0
176
     1
290
     0
176
     1
290
     0
176
     1
290
     0
176
     1
290
     0
176
     1
 90
       50
176
     1
 40
0.0
176
     1
 40
1.0
176
     1
 90
        0
176
     1
 62
    18
420
        0
176
     1
 90
       50
176
     1
 90
        3
176
     1
 62
     5
420
      255
176
     1
290
     0
176
     1
 90
       50
176
     1
 90
       50
176
     1
 90
       50
176
     1
290
     0
176
     1
 90
       50
176
     1
 62
   256
176
     0
 40
1.0
176
     0
 90
        2
176
     1
  1
strokes_ogs.tif
176
     1
290
     0
176
     1
 40
1.0
176
     1
 40
1.0
176
     1
  0
VISUALSTYLE
  5
181
102
{ACAD_REACTORS
330
99
102
}
330
99
100
AcDbVisualStyle
  2
Shaded with edges
 70
    26
177
     3
291
     0
 70
    58
 90
        2
176
     1
 90
        2
176
     1
 90
        1
176
     1
 90
        2
176
     1
 40
0.6
176
     1
 40
30.0
176
     1
 62
     7
420
 16777215
176
     1
 90
        1
176
     1
 90
        2
176
     1
 62
     7
176
     1
 62
   257
176
     1
 90
        2
176
     1
 90
        1
176
     1
 40
1.0
176
     1
 90
        8
176
     1
 62
   257
176
     1
 40
1.0
176
     1
 90
        1
176
     1
 90
        6
176
     1
 90
        2
176
     1
 62
     7
176
     1
 90
        3
176
     1
 90
        0
176
     1
 90
        0
176
     1
290
     0
176
     1
 90
        5
176
     1
 40
0.0
176
     1
 90
        0
176
     1
290
     0
176
     1
290
     1
176
     1
290
     1
176
     1
290
     0
176
     1
290
     0
176
     1
290
     0
176
     1
290
     0
176
     1
290
     0
176
     1
290
     0
176
     1
 90
       50
176
     1
 40
0.0
176
     1
 40
1.0
176
     1
 90
        0
176
     1
 62
    18
420
        0
176
     1
 90
       50
176
     1
 90
        3
176
     1
 62
     5
420
      255
176
     1
290
     0
176
     1
 90
       50
176
     1
 90
       50
176
     1
 90
       50
176
     1
290
     0
176
     1
 90
       50
176
     1
 62
   256
176
     0
 40
1.0
176
     0
 90
        2
176
     1
  1
strokes_ogs.tif
176
     1
290
     0
176
     1
 40
1.0
176
     1
 40
1.0
176
     1
  0
VISUALSTYLE
  5
17E
102
{ACAD_REACTORS
330
99
102
}
330
99
100
AcDbVisualStyle
  2
Shades of Gray
 70
    23
177
     3
291
     0
 70
    58
 90
        2
176
     1
 90
        2
176
     1
 90
        3
176
     1
 90
        0
176
     1
 40
0.6
176
     1
 40
30.0
176
     1
 62
     7
420
 16777215
176
     1
 90
        2
176
     1
 90
        2
176
     1
 62
     7
176
     1
 62
     7
176
     1
 90
        1
176
     1
 90
        1
176
     1
 40
40.0
176
     1
 90
        8
176
     1
 62
     7
176
     1
 40
1.0
176
     1
 90
        1
176
     1
 90
        6
176
     1
 90
        2
176
     1
 62
     7
176
     1
 90
        3
176
     1
 90
        0
176
     1
 90
        0
176
     1
290
     0
176
     1
 90
        1
176
     1
 40
0.0
176
     1
 90
        0
176
     1
290
     0
176
     1
290
     1
176
     1
290
     1
176
     1
290
     0
176
     1
290
     0
176
     1
290
     0
176
     1
290
     0
176
     1
290
     0
176
     1
290
     0
176
     1
 90
       50
176
     1
 40
0.0
176
     1
 40
1.0
176
     1
 90
        0
176
     1
 62
    18
420
        0
176
     1
 90
       50
176
     1
 90
        3
176
     1
 62
     5
420
      255
176
     1
290
     0
176
     1
 90
       50
176
     1
 90
       50
176
     1
 90
       50
176
     1
290
     0
176
     1
 90
       50
176
     1
 62
   256
176
     0
 40
1.0
176
     0
 90
        2
176
     1
  1
strokes_ogs.tif
176
     1
290
     0
176
     1
 40
1.0
176
     1
 40
1.0
176
     1
  0
VISUALSTYLE
  5
17F
102
{ACAD_REACTORS
330
99
102
}
330
99
100
AcDbVisualStyle
  2
Sketchy
 70
    24
177
     3
291
     0
 70
    58
 90
        1
176
     1
 90
        2
176
     1
 90
        2
176
     1
 90
        0
176
     1
 40
0.6
176
     1
 40
30.0
176
     1
 62
     7
420
 16777215
176
     1
 90
        2
176
     1
 90
        2
176
     1
 62
     7
176
     1
 62
     7
176
     1
 90
        1
176
     1
 90
        1
176
     1
 40
40.0
176
     1
 90
       11
176
     1
 62
     7
176
     1
 40
1.0
176
     1
 90
        1
176
     1
 90
        6
176
     1
 90
        2
176
     1
 62
     7
176
     1
 90
        6
176
     1
 90
        0
176
     1
 90
        0
176
     1
290
     0
176
     1
 90
        1
176
     1
 40
0.0
176
     1
 90
        0
176
     1
290
     0
176
     1
290
     1
176
     1
290
     1
176
     1
290
     0
176
     1
290
     0
176
     1
290
     0
176
     1
290
     0
176
     1
290
     0
176
     1
290
     0
176
     1
 90
       50
176
     1
 40
0.0
176
     1
 40
1.0
176
     1
 90
        0
176
     1
 62
    18
420
        0
176
     1
 90
       50
176
     1
 90
        3
176
     1
 62
     5
420
      255
176
     1
290
     0
176
     1
 90
       50
176
     1
 90
       50
176
     1
 90
       50
176
     1
290
     0
176
     1
 90
       50
176
     1
 62
   256
176
     0
 40
1.0
176
     0
 90
        2
176
     1
  1
strokes_ogs.tif
176
     1
290
     0
176
     1
 40
1.0
176
     1
 40
1.0
176
     1
  0
VISUALSTYLE
  5
A6
102
{ACAD_REACTORS
330
99
102
}
330
99
100
AcDbVisualStyle
  2
Thicken
 70
    13
177
     3
291
     1
 70
    58
 90
        2
176
     1
 90
        2
176
     1
 90
        1
176
     1
 90
        0
176
     1
 40
0.6
176
     1
 40
30.0
176
     1
 62
     7
420
 16777215
176
     1
 90
        1
176
     1
 90
        4
176
     1
 62
     7
176
     1
 62
   257
176
     1
 90
        1
176
     1
 90
        1
176
     1
 40
1.0
176
     1
 90
       12
176
     1
 62
     7
176
     1
 40
1.0
176
     1
 90
        1
176
     1
 90
        6
176
     1
 90
        2
176
     1
 62
     7
176
     1
 90
        5
176
     1
 90
        0
176
     1
 90
        0
176
     1
290
     0
176
     1
 90
        1
176
     1
 40
0.0
176
     1
 90
        0
176
     1
290
     0
176
     1
290
     1
176
     1
290
     1
176
     1
290
     0
176
     1
290
     0
176
     1
290
     0
176
     1
290
     0
176
     1
290
     0
176
     1
290
     0
176
     1
 90
       50
176
     1
 40
0.0
176
     1
 40
1.0
176
     1
 90
        0
176
     1
 62
    18
420
        0
176
     1
 90
       50
176
     1
 90
        3
176
     1
 62
     5
420
      255
176
     1
290
     0
176
     1
 90
       50
176
     1
 90
       50
176
     1
 90
       50
176
     1
290
     0
176
     1
 90
       50
176
     1
 62
   256
176
     0
 40
1.0
176
     0
 90
        2
176
     1
  1
strokes_ogs.tif
176
     1
290
     0
176
     1
 40
1.0
176
     1
 40
1.0
176
     1
  0
VISUALSTYLE
  5
A0
102
{ACAD_REACTORS
330
99
102
}
330
99
100
AcDbVisualStyle
  2
Wireframe
 70
     5
177
     3
291
     0
 70
    58
 90
        0
176
     1
 90
        2
176
     1
 90
        0
176
     1
 90
        0
176
     1
 40
0.6
176
     1
 40
30.0
176
     1
 62
     7
420
 16777215
176
     1
 90
        1
176
     1
 90
        4
176
     1
 62
     7
176
     1
 62
   257
176
     1
 90
        1
176
     1
 90
        1
176
     1
 40
1.0
176
     1
 90
        0
176
     1
 62
   257
176
     1
 40
1.0
176
     1
 90
        1
176
     1
 90
        6
176
     1
 90
        2
176
     1
 62
     7
176
     1
 90
        3
176
     1
 90
        0
176
     1
 90
        0
176
     1
290
     0
176
     1
 90
        1
176
     1
 40
0.0
176
     1
 90
        0
176
     1
290
     0
176
     1
290
     1
176
     1
290
     1
176
     1
290
     0
176
     1
290
     0
176
     1
290
     0
176
     1
290
     0
176
     1
290
     0
176
     1
290
     0
176
     1
 90
       50
176
     1
 40
0.0
176
     1
 40
1.0
176
     1
 90
        0
176
     1
 62
    18
420
        0
176
     1
 90
       50
176
     1
 90
        3
176
     1
 62
     5
420
      255
176
     1
290
     0
176
     1
 90
       50
176
     1
 90
       50
176
     1
 90
       50
176
     1
290
     0
176
     1
 90
       50
176
     1
 62
   256
176
     0
 40
1.0
176
     0
 90
        2
176
     1
  1
strokes_ogs.tif
176
     1
290
     0
176
     1
 40
1.0
176
     1
 40
1.0
176
     1
  0
VISUALSTYLE
  5
180
102
{ACAD_REACTORS
330
99
102
}
330
99
100
AcDbVisualStyle
  2
X-Ray
 70
    25
177
     3
291
     0
 70
    58
 90
        2
176
     1
 90
        2
176
     1
 90
        1
176
     1
 90
        1
176
     1
 40
0.5
176
     1
 40
30.0
176
     1
 62
     7
420
 16777215
176
     1
 90
        1
176
     1
 90
        0
176
     1
 62
     7
176
     1
 62
   257
176
     1
 90
        1
176
     1
 90
        1
176
     1
 40
1.0
176
     1
 90
        8
176
     1
 62
     7
176
     1
 40
1.0
176
     1
 90
        1
176
     1
 90
        6
176
     1
 90
        2
176
     1
 62
     7
176
     1
 90
        3
176
     1
 90
        0
176
     1
 90
        0
176
     1
290
     0
176
     1
 90
       13
176
     1
 40
0.0
176
     1
 90
        0
176
     1
290
     0
176
     1
290
     1
176
     1
290
     1
176
     1
290
     0
176
     1
290
     0
176
     1
290
     0
176
     1
290
     0
176
     1
290
     0
176
     1
290
     0
176
     1
 90
       50
176
     1
 40
0.0
176
     1
 40
1.0
176
     1
 90
        0
176
     1
 62
    18
420
        0
176
     1
 90
       50
176
     1
 90
        3
176
     1
 62
     5
420
      255
176
     1
290
     0
176
     1
 90
       50
176
     1
 90
       50
176
     1
 90
       50
176
     1
290
     0
176
     1
 90
       50
176
     1
 62
   256
176
     0
 40
1.0
176
     0
 90
        2
176
     1
  1
strokes_ogs.tif
176
     1
290
     0
176
     1
 40
1.0
176
     1
 40
1.0
176
     1
  0
DICTIONARYVAR
  5
4A0D6
102
{ACAD_REACTORS
330
4A0D5
102
}
330
4A0D5
100
DictionaryVariables
280
     0
  1
2
  0
DICTIONARYVAR
  5
4A0D7
102
{ACAD_REACTORS
330
4A0D5
102
}
330
4A0D5
100
DictionaryVariables
280
     0
  1
400.000000
  0
DICTIONARYVAR
  5
4A0D8
102
{ACAD_REACTORS
330
4A0D5
102
}
330
4A0D5
100
DictionaryVariables
280
     0
  1
1
  0
DICTIONARYVAR
  5
4A0D9
102
{ACAD_REACTORS
330
4A0D5
102
}
330
4A0D5
100
DictionaryVariables
280
     0
  1
1:1
  0
DICTIONARYVAR
  5
4A0DA
102
{ACAD_REACTORS
330
4A0D5
102
}
330
4A0D5
100
DictionaryVariables
280
     0
  1
STANDARD
  0
DICTIONARYVAR
  5
4A0DB
102
{ACAD_REACTORS
330
4A0D5
102
}
330
4A0D5
100
DictionaryVariables
280
     0
  1
STANDARD
  0
DICTIONARYVAR
  5
4A0DC
102
{ACAD_REACTORS
330
4A0D5
102
}
330
4A0D5
100
DictionaryVariables
280
     0
  1
Imperial24
  0
DICTIONARYVAR
  5
4A0DD
102
{ACAD_REACTORS
330
4A0D5
102
}
330
4A0D5
100
DictionaryVariables
280
     0
  1
Imperial24
  0
DICTIONARYVAR
  5
4A0DE
102
{ACAD_REACTORS
330
4A0D5
102
}
330
4A0D5
100
DictionaryVariables
280
     0
  1
-1
  0
DICTIONARYVAR
  5
4A0DF
102
{ACAD_REACTORS
330
4A0D5
102
}
330
4A0D5
100
DictionaryVariables
280
     0
  1
1
  0
DICTIONARYVAR
  5
4A0E0
102
{ACAD_REACTORS
330
4A0D5
102
}
330
4A0D5
100
DictionaryVariables
280
     0
  1
2
  0
DICTIONARYVAR
  5
4A0E1
102
{ACAD_REACTORS
330
4A0D5
102
}
330
4A0D5
100
DictionaryVariables
280
     0
  1
0
  0
DICTIONARYVAR
  5
4A0E2
102
{ACAD_REACTORS
330
4A0D5
102
}
330
4A0D5
100
DictionaryVariables
280
     0
  1
4
  0
DICTIONARYVAR
  5
4A0E3
102
{ACAD_REACTORS
330
4A0D5
102
}
330
4A0D5
100
DictionaryVariables
280
     0
  1
V-Construction
  0
DICTIONARYVAR
  5
4A0E4
102
{ACAD_REACTORS
330
4A0D5
102
}
330
4A0D5
100
DictionaryVariables
280
     0
  1
ByLayer
  0
DICTIONARYVAR
  5
4A0E5
102
{ACAD_REACTORS
330
4A0D5
102
}
330
4A0D5
100
DictionaryVariables
280
     0
  1
0
  0
DICTIONARYVAR
  5
4A0E6
102
{ACAD_REACTORS
330
4A0D5
102
}
330
4A0D5
100
DictionaryVariables
280
     0
  1
0
  0
DICTIONARYVAR
  5
4A0E7
102
{ACAD_REACTORS
330
4A0D5
102
}
330
4A0D5
100
DictionaryVariables
280
     0
  1
0
  0
DICTIONARYVAR
  5
4A0E8
102
{ACAD_REACTORS
330
4A0D5
102
}
330
4A0D5
100
DictionaryVariables
280
     0
  1
2
  0
DICTIONARYVAR
  5
4A0E9
102
{ACAD_REACTORS
330
4A0D5
102
}
330
4A0D5
100
DictionaryVariables
280
     0
  1
1.000000
  0
DICTIONARYVAR
  5
4A0EA
102
{ACAD_REACTORS
330
4A0D5
102
}
330
4A0D5
100
DictionaryVariables
280
     0
  1
1
  0
DICTIONARYVAR
  5
4A0EB
102
{ACAD_REACTORS
330
4A0D5
102
}
330
4A0D5
100
DictionaryVariables
280
     0
  1
1.000000
  0
DICTIONARYVAR
  5
4A0EC
102
{ACAD_REACTORS
330
4A0D5
102
}
330
4A0D5
100
DictionaryVariables
280
     0
  1
1
  0
DICTIONARYVAR
  5
4A0ED
102
{ACAD_REACTORS
330
4A0D5
102
}
330
4A0D5
100
DictionaryVariables
280
     0
  1
0
  0
DICTIONARYVAR
  5
4A0EE
102
{ACAD_REACTORS
330
4A0D5
102
}
330
4A0D5
100
DictionaryVariables
280
     0
  1

  0
DICTIONARYVAR
  5
4A0EF
102
{ACAD_REACTORS
330
4A0D5
102
}
330
4A0D5
100
DictionaryVariables
280
     0
  1
0
  0
DICTIONARYVAR
  5
4A0F0
102
{ACAD_REACTORS
330
4A0D5
102
}
330
4A0D5
100
DictionaryVariables
280
     0
  1
127
  0
DICTIONARY
  5
194
330
22
100
AcDbDictionary
280
     1
281
     1
  0
DICTIONARY
  5
188
330
97
100
AcDbDictionary
280
     1
281
     1
  3
FBXASSET
360
189
  0
DICTIONARY
  5
186
330
96
100
AcDbDictionary
280
     1
281
     1
  3
FBXASSET
360
187
  0
DICTIONARY
  5
110
330
98
100
AcDbDictionary
280
     1
281
     1
  3
BUMPTILE
360
112
  3
DIFFUSETILE
360
111
  3
FBXASSET
360
18A
  3
OPACITYTILE
360
113
  3
REFLECTIONTILE
360
114
  0
DICTIONARY
  5
104
330
87
100
AcDbDictionary
280
     1
281
     1
  3
ACAD_ROUNDTRIP_2008_TABLESTYLE_CELLSTYLEMAP
360
6B289
  0
XRECORD
  5
189
102
{ACAD_REACTORS
330
188
102
}
330
188
100
AcDbXrecord
280
     1
 70
     1
 90
429727718
  1
508B35C9-AEE7-456F-BE74-D52651303AC6
310
504B03040A0000080000B670623B3DEE336E79000000790000001B0000006175746F6465736B2D64657369676E2D7061636B6167652E786D6C3C3F786D6C2076657273696F6E3D22312E302220656E636F64696E673D227574662D3822203F3E3C666F726D6174733E3C666F726D61743E687474703A2F2F736368656D612E
310
6175746F6465736B2E636F6D2F64657369676E2D7061636B6167652F323030393C2F666F726D61743E3C2F666F726D6174733E504B0304140006080800B670623BD486FD9CA0000000F4000000130000005B436F6E74656E745F54797065735D2E786D6C7D8EC10E82300C865F65E91D8A1E8C310C0EEA1BF002731658846E
310
D98AC1B77784ABF1D8FE5FBFBF75BBCE937A534CCEB38643598122B6FEE978D0B0485F9C41B54DDD7D022595594E1A469170414C76A4D9A4D207E29CF43ECE46F218070CC6BECC4078ACAA135ACF422C856C0E68EA1BF5669944DDD7BCDE7B1F8E415D77AECB980613C2E4AC91FC167A2B244592486606FC29C8FD7F045B9A
310
EF7053A7E60B504B0304140006080800B670623B28ED286BEB0000007C01000008000000636F72652E786D6C8D90416EC3201045AF82665B6183218D6D61A254764FD00B204C5C94182C03558F5F9C3852BBEB6A467FFE9B197D71FA9E6FE8CBACC17AD7012D0820E3B41FAD9B3A48F1826B40272956EFE32F1B20A766D3C1
310
268314D3EAD3B24BDABB685CCCAAF3A3D94515828980F42D371D04FD696655A814B3235C8B45E9AB9A4C419F5D8653B2237A1CB163DE672FD6AC209BF3C08E0D1B30EB19C3FC9D72FCC6EB231EFA33EDE96BDD341517E5064B11EDFCBCAF57A3A2194156843498524CAA0FCA5B7268F9E185D42D21A2DCEC7FA0B48CFF8492
310
759155FBBB0F2C80A4F991FB408A72CB22977B50B96EB9C91F504B0304140006080800B670623B55019EA25F0000007C00000007000000636E782E786D6C4DCB3B0E80201045D1AD90E915ED2CF8AC45050C11660C8261F98AB1B07AC9C97D42D718D865D3E909258CFD00CCE24AC6E326A164D74DC0B4128928FF32603847
310
2BA13128B1252AC747C6BAB984FC68F0B87FE8960A5C09FE86CFB69FBA01504B0304140006080800B670623B7BC41AC871010000D40300000C0000006662782F636F72652E786D6CC553ED6E8320147D15C2DF4501B56B6D90A64BBB27D80B50A5CE54C120983EFEAE1F4DD7A56BBA5FF3879273EEE59E7310BE393735EA95
310
ED2AA333CC428A91D2B9292A5D66D8BB63B0C26823B835C67D2BC348CB46657880B1E0A535BE9DA1DC68A7B403549B42CDA0EC3AE530CA6B5864B8CB3F552343E91D5474A7B095F949962A6421D0502778E72C0840D390E18DC5F170E664C205F7BE2A66B62A605A75AC94C522DDEEE3651AEF837817C741F2CE92E02D592D
310
83FD6ECB76EC7595A651C2C9D02CB8AB9A8BBADC2AE954814544691A3016D0E883256BBA58278B17BA5A53CAC9507ED3E4DBE2C9265F691747B3DCA9ADC382819091F8E1162272A8933DE82182932144F88C09DF060D8140C84E1EEA8B8F1340BDCA9DB1093085F157AA97B557309586747CD0EF0B4EA64E983A6E0EAEEFCE
310
889E9EF17847386AA94B30211D2C0FDE0D3AF9A4610EAD5536E8DD1969631B593F67E381C33F5157F17725E5A636F6BF1491F980C8FC7B90E13E8A2F504B0304140006080800B670623B70102A487D0000009D0000000B0000006662782F636E782E786D6C4DCCD10A83201886E15B91FFDC95A5C30335ACCDFB886521330D
310
A76397BF1A1DECE883878F57749FD5A3B74D2F17830472A901D9F088930B8B849267CC01754AA418F3DF0D5018572BE160506249B16C274D761E8BCFBB7A179E27F65CB39A0F14D396184C9921B81F34C3ACA1B4B99ABB6E6F062A25AA5F69DF23ACBE504B0304140006080800B670623B3610CA3329010000120200003100
310
00006662782F42384135303843342D343331462D343546312D424341352D3532343432364645413344462F636F72652E786D6C8D515B6EC32010BC0AE22B55850D0E446E848992B43E412FE000495162B07854397EA176A4F62F3F2C9A9D991D58BEBB8F37F0AD7D30CE76905418026DA553C65E3A98E219B510EC04F7CEC5
310
3F3408EC30EA0E16180A7EF12E4D0B249D8DDAC68C5AA7F4020E21E80881BCE54B0783FCD2E3500D296646B856D320AFC34557A4CAEDCC133C449F0380794839A138B47B86DB2345744D7A44594FD0E1B867883594369BFE63BF7EEF793D0B054FC9A8456E548E63CE46FB674D8A58F068C6477CE9F510B582A2C1F80D1182
310
70F349E816B32D65AFB8DD62CCEB42FF274A937A52948C8DEB66893BCB021484D7734370E5D2E9F608A3EF93F3119479ABA0E50B14B8C298119A43CCC4FCFCECB8A18B6388CEE7EF5D5D4F994BD86CBBA182D76543B9FCAE2FD7B24DF103504B0304140006080800B670623B1B8617914E0100003303000030000000666278
310
2F42384135303843342D343331462D343546312D424341352D3532343432364645413344462F636E782E786D6CD593C16EC32010447F0571AD6CE3D489D20813A9877E410FBD62D82434182CC055F3F75D1292E692438FBD206B7698593D61BEFD1E2DF982108D773D6D6B460938E5B571FB9ECE6957AD29D90A1EBC4F7736
310
4A9C1CA1A759A682EF839FA72269D8C9D92654AD71C72206887E0E0A22CAF926B15E498B01E0AA19451807D01A34B919F16B070157417138917400F2F6FA41FCF0092A45DEE414C19BDC21783E4BD39D891265658C3D8DEA00A3ACE59CBC8678ACB54CB26EEB6BD7839D7E9348BE70AD9C8321B9BCA7F9A4A26C542347DEE0
310
50F09802D22BA6749A800A394DD62899107273365E3C82CFC6A55557BC06C10774B7ABE7AEC3B0F34CF06446280E154026D0542C187BA9DAB6628BF7B6DBB0E5A65B3EB1F58631DE64BBE083F7B65CC218087E22CABB042E51D1F2268F1FE12B3EA24D40D63E9CFE00120194D60B9D5BC67FE6D39CDF37E20AF817881F504B
310
0304140006080800B670623BBFEF2E3B690500003C100000340000006662782F42384135303843342D343331462D343546312D424341352D3532343432364645413344462F6F626A656374732E786D6CAD575D739B3814FD2B0CFB0C98D84E931D4227B6938EA793B6534F3BFB90198F0099B001899144EAECAFDF231018B0
310
D37A3FFC609090EEE7B94757C1FB7D915B2F54C88CB31BDB7727B64559CC938CA53776A576CE956DBD0F03C1B9EA2DB32D460A7A63EB693B0C52C1ABD24C257447AA5C8D66EF177F5832A68CDA569C13296F6C193FD182B8A4523CA1F2D94D88226EBADBBBBEDB2C1C8A4D05299F46424B222853B014F30C52ACC6287F389C
310
D85E1878FA7B18E87FB36AFAF62AAFF667A83F635211161F291B8999FAB3D5DDC5FCDA99CF6653677679E13B8BFBC5CAF1DF4D27CBCBE5F2FAF6EE1A8AA51290642C117467871F101B91C581D77CEA2C36869F3229E68CD1B8F61F1ED6361B89092D294B90C78C4A68EB793D190E7D1D9BDEE7A91E1B95FDE9F3BCEAEFE809
310
6A6D6F9F7D4B79F4275C90E7A04248AA51D5C4C738DAE06F72885AC4796EBE65D22A88A22223B995679120E2D50EB1542F098381188D4EA111AE3DB043FF20AF6F2B4AE3D7D83D65E5AECA730D4D3BAC91BD05FEA992B565D95F549CD6069B90AB2A63EACA38A45E4B6A87D781574F86817E4C2FCCC72690D62E2729520E37
310
9BAF234797BAF6D62B3BFC781FED37BA1E4F2B2F052FA9501A3E80569BB8F6A9A364D4FA67654E6F803383981F82F21591FF84F23D9882BC896C3FDBCF8C162508933B2E0AE4C69DD43F6BD2BE38DDDBF10BF86CB4FA784D37F3AF16075E67EC9030DECA1FC0A55373F5DFF3378C591FA9BDF485C10B0A8C8BA909E5262639
310
A8E72163488806A595734C81CB77D1DE0ED7604A303B76913CEC0272F412782FF88EFF4636D8AA56DF7B322474C4B767303F625997056C7B032C473C592B36CEBD15F3F9FF5233B7ABCDC74D257624A60F8658567497B14CE1EC3C80B76FD02011038F9EE9EB0F2E12387A9C844D3F09855125116D1D731DF8B43D2CF4E0A0
310
79A020C6BE946BCE0B7EA1E1219331CD73C228AF5A2DDD31A4B1DA918CE91350854D40A71723140BFA92E94E62B0626016CEFA5864A50E5977E8753CEDBEE1CBB7F52780D20E17AF0BA0F5F9B02A3AD07DCC732EB6D1EBB661421BE0C39E21BABF0FE16D22EA6929407C8DE596724C88B749B6DB5512BC7B228ADFD7CB7EA6
310
3A22397E690BA8D5D8D4E40CEC8CDA23C2C0B7D5898640101CEC9C6D331CE328CB93CAFBBAC70A642DF70DF95155945B52F08AA973C23469FD69ADEF84F7BB18F983A8F8C90E37F5D35980B2139A1C523540813E824EF83448CF7C72B598CE97D7CEEDDDDD3B6736BFBC771677EF66CE6A7E7139F7A793E9EDF2B2B3A8B624
310
0CDA13AA5F8388264EC4A0129909F3B7F5A16CEDF08128E97D680ACA4B9BE7B7B58BB638F0B00700EF36AE8B32A705658A68F83EE897FC2B41573190D1CCAF0B92D233A47CFEB019D9809933F67DD1A5467F8CF69AD9A5AE859342D45355448C64F968A371DC2D596ADC6E43D93D1B466F877A64E2893E54F23C4B40388995
310
525E5005DA3983ED45412510D3EFCA13737B3863F74BD30F2A12E5B4B5E489A025CE25500DB855B11ACE5BBFA185D35DD48D8DC3CE7DC69F2944DB42AA6F6CF09BCA622ADD08C7A36E7C6AE18000BAB08E040135C2D21C9D75B3A91B77BB746C403F38018DFE6EC939DD92F16B40BC05294B9CDA035AAD6D330AE27FE4786B
310
8E45145EA34A75BE1C263A676A35A8ACC6297337400BF16C54EF515F3F77CB77EB3583889C754FFA29081AA98E2222ADEF05DA3E63D2EDEA8B8756C05A7FB6CABC4A91CBF325398202CC952E70A008A830324BA200D5E5EF8F5F04C75DB4B0EE3340E071C98B823333B83577596BF3849B69F2085AA0FAFA212F26BEFF5877
310
FDE622B28D88A42E49E43326DA82D31E8CB006401E1DA726059ECEC168F97A6599036306A135688F9AD2E61A6EA178F4CD51974A9F2CCB9F36FE5EBD14601068D9C3BF01504B0304140006080000B670623B000000000000000000000000350000006662782F42384135303843342D343331462D343546312D424341352D35
310
32343432364645413344462F76657274696365732E62696E504B0304140006080800B670623BF270F1330600000004000000360000006662782F42384135303843342D343331462D343546312D424341352D3532343432364645413344462F747269616E676C65732E62696E636660600000504B0304140006080000B67062
310
3B000000000000000000000000370000006662782F42384135303843342D343331462D343546312D424341352D3532343432364645413344462F617474726962757465732E62696E504B0304140006080800B670623B08DA0BD19000000041010000360000006662782F42384135303843342D343331462D343546312D4243
310
41352D3532343432364645413344462F6469726563746F72792E786D6C858F410AC3201045AF22B36F53E9A60B35CBEEBAE80D244E44489C6234F4F835464A48035D0DF398FF9F8AF63D0E6CC63039F212F8F9020C7D47C6792B21C5FE7403D62A1188E2E60C98D7234A5830286103A55745067B9D86B8A3CF9C7F90C11DE6
310
07FB144396D7B6A82D282E9A152AD114D5EF2CB866EEE831B8EEA07A7BB5A8D7D61A2BAAEB7FD5F70921FF497D00504B0304140006080800B670623B3B4606F3FE000000A00100003B0000006662782F42384135303843342D343331462D343546312D424341352D3532343432364645413344462F7265736F75726365732F
310
636F72652E786D6C8D504B6E833010BD0A9A6D65B08134808CA354A427E8052C332156828DFCA97AFC9A40A576D7CDCCE87D344F8F9FBEE647F689CE6B6B7A6039850C8DB2A336530F315C4903D94970676DF82583CCC8197B5861107C72362E3BA4AC096842428D1D7107A5F71820538F74F4E0D50D6799CB1892C2DFF345
310
AABB9C306779A2934E701F5C0A906D4FD609C2A1B7D129F4BCD858C163D4E3AED163FAA9AF1A1D88F67CA98E6D35906AA82A52BFB39ABCD5CD915C86331BD86BD3B665CD8BD52C78D0F34F46E550061C419494B6843142CB0F5677F4D0D58717DA7494F26295FF31C565FCA7296A13AA728FBBD93C0896823C09C18BB5AFB4
310
9E65A6BD762BBE01504B010214000A0000080000B670623B3DEE336E79000000790000001B00000000000000000000000000000000006175746F6465736B2D64657369676E2D7061636B6167652E786D6C504B01021400140006080800B670623BD486FD9CA0000000F40000001300000000000000000000000000B2000000
310
5B436F6E74656E745F54797065735D2E786D6C504B01021400140006080800B670623B28ED286BEB0000007C010000080000000000000000000000000083010000636F72652E786D6C504B01021400140006080800B670623B55019EA25F0000007C000000070000000000000000000000000094020000636E782E786D6C50
310
4B01021400140006080800B670623B7BC41AC871010000D40300000C00000000000000000000000000180300006662782F636F72652E786D6C504B01021400140006080800B670623B70102A487D0000009D0000000B00000000000000000000000000B30400006662782F636E782E786D6C504B01021400140006080800B6
310
70623B3610CA3329010000120200003100000000000000000000000000590500006662782F42384135303843342D343331462D343546312D424341352D3532343432364645413344462F636F72652E786D6C504B01021400140006080800B670623B1B8617914E010000330300003000000000000000000000000000D10600
310
006662782F42384135303843342D343331462D343546312D424341352D3532343432364645413344462F636E782E786D6C504B01021400140006080800B670623BBFEF2E3B690500003C10000034000000000000000000000000006D0800006662782F42384135303843342D343331462D343546312D424341352D35323434
310
32364645413344462F6F626A656374732E786D6C504B01021400140006080000B670623B0000000000000000000000003500000000000000000000000000280E00006662782F42384135303843342D343331462D343546312D424341352D3532343432364645413344462F76657274696365732E62696E504B010214001400
310
06080800B670623BF270F133060000000400000036000000000000000000000000007B0E00006662782F42384135303843342D343331462D343546312D424341352D3532343432364645413344462F747269616E676C65732E62696E504B01021400140006080000B670623B00000000000000000000000037000000000000
310
00000000000000D50E00006662782F42384135303843342D343331462D343546312D424341352D3532343432364645413344462F617474726962757465732E62696E504B01021400140006080800B670623B08DA0BD1900000004101000036000000000000000000000000002A0F00006662782F42384135303843342D3433
310
31462D343546312D424341352D3532343432364645413344462F6469726563746F72792E786D6C504B01021400140006080800B670623B3B4606F3FE000000A00100003B000000000000000000000000000E1000006662782F42384135303843342D343331462D343546312D424341352D3532343432364645413344462F72
310
65736F75726365732F636F72652E786D6C504B0506000000000E000E0080040000651100000000
  0
XRECORD
  5
187
102
{ACAD_REACTORS
330
186
102
}
330
186
100
AcDbXrecord
280
     1
 70
     1
 90
429727718
  1
887D55A9-D0DD-414E-B741-A7DCD4DA2B4C
310
504B03040A0000080000B670623B3DEE336E79000000790000001B0000006175746F6465736B2D64657369676E2D7061636B6167652E786D6C3C3F786D6C2076657273696F6E3D22312E302220656E636F64696E673D227574662D3822203F3E3C666F726D6174733E3C666F726D61743E687474703A2F2F736368656D612E
310
6175746F6465736B2E636F6D2F64657369676E2D7061636B6167652F323030393C2F666F726D61743E3C2F666F726D6174733E504B0304140006080800B670623BD486FD9CA0000000F4000000130000005B436F6E74656E745F54797065735D2E786D6C7D8EC10E82300C865F65E91D8A1E8C310C0EEA1BF002731658846E
310
D98AC1B77784ABF1D8FE5FBFBF75BBCE937A534CCEB38643598122B6FEE978D0B0485F9C41B54DDD7D022595594E1A469170414C76A4D9A4D207E29CF43ECE46F218070CC6BECC4078ACAA135ACF422C856C0E68EA1BF5669944DDD7BCDE7B1F8E415D77AECB980613C2E4AC91FC167A2B244592486606FC29C8FD7F045B9A
310
EF7053A7E60B504B0304140006080800B670623BBC1638F5EC0000007C01000008000000636F72652E786D6C8D90416EC3201045AF82665B61836BE2D8C24471DB9CA01740401C94182C03558F5F9C3852BBEB6A467FFE9B197D7EF89E6EE8CB2CC17AD7032D0820E394D7D68D3DA478C67B4007C117EFE32F1B202727D3C3
310
2A83E0E3E2D3BC49CABB685CCCAAF3DA6CA20CC14440EA969B1E82BA98491632C5EC08D76296EA2A4753D06797E194AC468F2356E77DF66CCD02825543D50CACC62D39ED70FDC68EB8FD68F6F8787A6784342D1DDA1D2F5758F068A7E77DB518198D065111D2624A31A93E69DD11D6D5EC85EC3B4278B9DAFF4069D6FF8492
310
75F1B5DADE7D600104CD8FDC0782976B16B9DC83CA75CD4DFC00504B0304140006080800B670623B55019EA25F0000007C00000007000000636E782E786D6C4DCB3B0E80201045D1AD90E915ED2CF8AC45050C11660C8261F98AB1B07AC9C97D42D718D865D3E909258CFD00CCE24AC6E326A164D74DC0B4128928FF326038
310
472BA13128B1252AC747C6BAB984FC68F0B87FE8960A5C09FE86CFB69FBA01504B0304140006080800B670623B3586FFB671010000D40300000C0000006662782F636F72652E786D6CC553ED6E8320147D15C2DF4541A76D6D90A6DDD627D80B50A4CE54C120983EFEAE1F4DD7A55BBA5FF3879273EEE59E7310B6393735EA
310
95ED2AA3731C851423A5A5292A5DE6D8BB63B0C268C39935C67D29C3488B46E578803167A535BE9D2169B453DA01AA4DA16650749D7218C91A1639EEE4876A4428BC838AEE14B6429E44A9C228041AEA38EB9C0501681A32BC313F1ECE8C4C3867DE57C5CC56054CAB8E95B298A7F12E5EEED224C8E87E11242FE936C8DE96
310
AB60BB7F4D295D66D12E5B30323473E6AAE6A24E5A259C2A308F29CD82280A68FC1E256B9AAE93F489AED694323294DF34F9B678B0C957DA3DC7B3DCA9ADC33C022123F1CD2D44E450277AD04338234388F01913BE0D1A0281909D38D4171F27807A259DB1093085F157AA17B557309586747CD0CF0B46A64E983A6E0EAEEF
310
CE881F9EF1FB8E70D44297604238581EBC1B74B249C31C5AAB6CD0BB33D2C636A27ECCC62F0EFF445DC5DF95244D6DEC7F2922F30191F9F720C37DE49F504B0304140006080800B670623B4220A0FF7D0000009D0000000B0000006662782F636E782E786D6C4DCCD10A83201886E15B91FFDCE542CB0335D0EC3E6259C84A
310
C3E9D8E5AF46073BFAE0E1E315DD675BD1DBA5978F41C2FD4600B9F088930F8B849267CC01754AA418F3DF0D50183727E164506249B1EC174D6E1ECB9A0F5D7D785E68DB8151CD286E5A5363CA6B8A39E90D36D40E96B086F55A43A544F52B1D7B86D517504B0304140006080800B670623B2FA3FEDE290100001202000031
310
0000006662782F45374635344235342D363743322D343832342D383044432D4334454645303536354442422F636F72652E786D6C8D515B6EC32010BC0AE22B55850D2E386E848994D7097A0117488A1283C5A3CAF10BB523B57FF961D1ECCCECC0F2ED7DBC816FED8371B687A4C210682B9D32F6D2C314CFA883602BB8772E
310
FEA141608751F7B0C050F08B77695A20E96CD43666D43AA5177008414708E42D5F7A18E4971E876A483133C2B59A06791D2EBA22556E679EE021FA1C00CC43CA09C5717D6274C7286AD7FB06D1AEA1A8C3873DDAD3E3E98859CB0EBB1DAF67A1E02919B5C88DCA71CCD968FFAC49110B1ECDF8882FBD1EA256503418BF2342
310
106E3E08DD60B6A1EC15771B8C795DE8FF4469524F8A92B1F1AD59E2CEB20005E1F5DC105CB9F4797B84D1F7C9F908CABC55D0F2050A5C61CC1AD2F27A26E6E767C7962E8E213A9FBF7775FDCC5CC266DB960A5E970DE5F2BBBE5CCB36C50F504B0304140006080800B670623B1B8617914E01000033030000300000006662
310
782F45374635344235342D363743322D343832342D383044432D4334454645303536354442422F636E782E786D6CD593C16EC32010447F0571AD6CE3D489D20813A9877E410FBD62D82434182CC055F3F75D1292E692438FBD206B7698593D61BEFD1E2DF982108D773D6D6B460938E5B571FB9ECE6957AD29D90A1EBC4F77
310
364A9C1CA1A759A682EF839FA72269D8C9D92654AD71C72206887E0E0A22CAF926B15E498B01E0AA19451807D01A34B919F16B070157417138917400F2F6FA41FCF0092A45DEE414C19BDC21783E4BD39D891265658C3D8DEA00A3ACE59CBC8678ACB54CB26EEB6BD7839D7E9348BE70AD9C8321B9BCA7F9A4A26C542347DE
310
E050F09802D22BA6749A800A394DD62899107273365E3C82CFC6A55557BC06C10774B7ABE7AEC3B0F34CF06446280E154026D0542C187BA9DAB6628BF7B6DBB0E5A65B3EB1F58631DE64BBE083F7B65CC218087E22CABB042E51D1F2268F1FE12B3EA24D40D63E9CFE00120194D60B9D5BC67FE6D39CDF37E20AF817881F50
310
4B0304140006080800B670623B29652116630500003C100000340000006662782F45374635344235342D363743322D343832342D383044432D4334454645303536354442422F6F626A656374732E786D6CAD575D739B3814FD2B0CFB0C989834C90EA1639B24E3E9A6EDD4D3CE3E64C623834CD8006224913AFDF57B040203
310
B65BEF871F0C12D2FD3CF7E8CA7FBFCB33E3957291B2E2D674ED8969D02262715A24B76625B7D6B569BC0F7CCE98EC2D338D82E4F4D654D366E0279C55A59E8AE99654991CCDDECFFF3444440B6A1A514684B83545F44C7362934AB2988A173B2692D8C97667BB76B3702836E1A47C1E092D09A78584A5982F20C5688C7287
310
C389E904BEA3BE07BEFAD7ABA6A75739B53F43FD69212429A20365233153D70BEF2E2E6FAC4BCF9B5ADEBB0BD79ADFCF43CBBD9A4E16EF168B9BD9DD0D140BC921495BC2E9D60C1E101B9E46BED37CEA2CD6861F3329624541A3DA7F7858DBAC25C6B4A4458C3CA654405BCFEBC970E8AAD8F43E4FD558ABEC4F9FE7557F47
310
4F506B7BFBEC5BCA367FC105710E2AB8A00A554D7CB4A30DFE26FBA86D18CBF4B75418399194A72433B274C3097F33032C554B027F2046A1932B842B0FCCC0DDCBEBDB8AD2F835768F59B9ADB24C41D30C6A64AF817F2A456D59FA83F2E3DA60137255A585BCD60EC9B7929AC18DEFD49381AF1ED30BFDB109A4B1CD488294
310
C3CDE6EBC8D185AABD6568061FEE37BB95AAC7E3CA4BCE4ACAA5820FA0D526AE7DAA2869B5EE5999531BE0CC20E6FBA07C41E43FA27CF7A6206F3CDD793B4F6B919C1462CB788EDCD893FA674CDA17AB7B3B7C019F8D561FAEE966FED562DFE98C1D12C6A9FC015C2A35D7FF3D7FC398F591DA4B5FE0BFA2C0189FEA50AE22
310
92817A1ED3020951A03432862970F976B33383259812CC8E5D240BBA801CBCF8CE2BBEE3BF910DB6AAD5F79E05123AE2DB33981FB1ACCB02B69D00CB014FD68AB573A7627EF9BFD4CC2C5C7D58557C4B22FAA88925A4DBB44825CECE3D78FB060D1231F0E885BE7D673C86A3874958F593906B5502D1563157814FDAC3420D
310
F69A070A22EC4B98E23CFF171A1E5311D12C23056555ABA53B8614563B92D17D02AAB009E8F46284624E5F53D5490C560CCCC2591FF1B45421EB0EBD8EA7ED13BE7C5D7E0428CD60FEF60779EB13E6664FF711CB185F6FDED60D139A001FF60CD1FD6D086F1D51474901E26B2CB794A343BC8ED3EDB612E0DD2351FCB65CF4
310
33D511C9E14B5B40ADC6A6263DB0336A8F700DDF56271A024E70B0B3629DE21847591E55DED73D56206AB927E46FAABC5C939C55853C274C93D69FD6FA4E78BF8B11DF898C9ECD60553FAD39283BA6F18984AA23E8884F83F45C5F5F859797B31B2B9C84A1E5B9DE9D35BFF25C6B76152E422F9C5DCC3D847F5801ED09D5AF
310
41441327A25FF15487F9EB725FB666F048A4701E9A827292E6F97569A32DF61DEC01C0BB8DCBBCCC684E0B49147C1FD54BF685A0AB18C868E6973949E819523E3DAC463660E68C7D9F55A9D1EFA3BD7A76A16AE1A810F95CE59B82A4D968A376DC2E8B44BBDD86B27B368CDE0ED548C7137DA860591A83706223A12CA712B4
310
7306DBF39C0A20A6DF95C7FAF670C6EED7A61F946493D1D6926782963813403548A78AE470DEF80D2D9CEAA26E4D1C76F60BFE74219A06527D6B82DF641A51616F703CAAC6A7160E08A00BEB4810A0274592A1B36E3675E36E978A0DE80727A0D6DF2D39A75BD27E0D8837276589537B40ABB56D5A41F48F1C6FCD3188C4EB
310
A6929D2FFB89CE995A4D00AE813BDD032DC48B56BD437DFDDC2DD7AED70C2272D63DE9A72068A45A92F0A4BE17A8A06B9366E16707AD80B1FC649459952097E74BB23805982B55E0401150A165964402AA8BDF9F3E7386BB686EDCA780C0D382E5392BF460A6EFB2C6EA1937D3F809B440D5F5435C4C5CF7A9EEFAF54564BD
310
2182DA24162F98680B4E7930C21A0079709CEAEB99A372305ABE0C0D7D6078105A83F6A0296DAEE1068A47DD1C55A9F4C9B2FC69E3EFD44B81028E963DF81B504B0304140006080000B670623B000000000000000000000000350000006662782F45374635344235342D363743322D343832342D383044432D433445464530
310
3536354442422F76657274696365732E62696E504B0304140006080800B670623BF270F1330600000004000000360000006662782F45374635344235342D363743322D343832342D383044432D4334454645303536354442422F747269616E676C65732E62696E636660600000504B0304140006080000B670623B00000000
310
0000000000000000370000006662782F45374635344235342D363743322D343832342D383044432D4334454645303536354442422F617474726962757465732E62696E504B0304140006080800B670623B08DA0BD19000000041010000360000006662782F45374635344235342D363743322D343832342D383044432D4334
310
454645303536354442422F6469726563746F72792E786D6C858F410AC3201045AF22B36F53E9A60B35CBEEBAE80D244E44489C6234F4F835464A48035D0DF398FF9F8AF63D0E6CC63039F212F8F9020C7D47C6792B21C5FE7403D62A1188E2E60C98D7234A5830286103A55745067B9D86B8A3CF9C7F90C11DE607FB144396
310
D7B6A82D282E9A152AD114D5EF2CB866EEE831B8EEA07A7BB5A8D7D61A2BAAEB7FD5F70921FF497D00504B0304140006080800B670623B6378F24DFF000000A00100003B0000006662782F45374635344235342D363743322D343832342D383044432D4334454645303536354442422F7265736F75726365732F636F72652E
310
786D6C8D504B6E833010BD0A9A6D65B0094E42641C85B639412F6099496225D8C89FAAC7AF09546A77DDCC8CDE47F3F4C4F16B7C149FE88371B603565228D06A37187BED20C50BD9437194C23B177FC9A0B06AC40E6618A4B87A97A615D2CE46B431A3D60DB8822A048C50E8473E3A08FA86A32A558A5911EEE5A4F45D5DB1
310
6465A6B34E8A107D0E502C4FE609D26370C96B0CA25A58295232C3AA3143FE692E063D485EF7F5AEE71BD2D2F39634AFFC44DAF7DD9E9CCE6F9CD25DCBFA762BAAD92C4534E34F46ED51451C40D694B6843142EB0FD61C283F34FC85EE0F948A6A96FF31A569F8A729191B37F51A77B105902C0779125254735F793DCBCC7B
310
EE567E03504B010214000A0000080000B670623B3DEE336E79000000790000001B00000000000000000000000000000000006175746F6465736B2D64657369676E2D7061636B6167652E786D6C504B01021400140006080800B670623BD486FD9CA0000000F40000001300000000000000000000000000B20000005B436F6E
310
74656E745F54797065735D2E786D6C504B01021400140006080800B670623BBC1638F5EC0000007C010000080000000000000000000000000083010000636F72652E786D6C504B01021400140006080800B670623B55019EA25F0000007C000000070000000000000000000000000095020000636E782E786D6C504B010214
310
00140006080800B670623B3586FFB671010000D40300000C00000000000000000000000000190300006662782F636F72652E786D6C504B01021400140006080800B670623B4220A0FF7D0000009D0000000B00000000000000000000000000B40400006662782F636E782E786D6C504B01021400140006080800B670623B2F
310
A3FEDE290100001202000031000000000000000000000000005A0500006662782F45374635344235342D363743322D343832342D383044432D4334454645303536354442422F636F72652E786D6C504B01021400140006080800B670623B1B8617914E010000330300003000000000000000000000000000D2060000666278
310
2F45374635344235342D363743322D343832342D383044432D4334454645303536354442422F636E782E786D6C504B01021400140006080800B670623B29652116630500003C10000034000000000000000000000000006E0800006662782F45374635344235342D363743322D343832342D383044432D4334454645303536
310
354442422F6F626A656374732E786D6C504B01021400140006080000B670623B0000000000000000000000003500000000000000000000000000230E00006662782F45374635344235342D363743322D343832342D383044432D4334454645303536354442422F76657274696365732E62696E504B01021400140006080800
310
B670623BF270F13306000000040000003600000000000000000000000000760E00006662782F45374635344235342D363743322D343832342D383044432D4334454645303536354442422F747269616E676C65732E62696E504B01021400140006080000B670623B0000000000000000000000003700000000000000000000
310
000000D00E00006662782F45374635344235342D363743322D343832342D383044432D4334454645303536354442422F617474726962757465732E62696E504B01021400140006080800B670623B08DA0BD190000000410100003600000000000000000000000000250F00006662782F45374635344235342D363743322D34
310
3832342D383044432D4334454645303536354442422F6469726563746F72792E786D6C504B01021400140006080800B670623B6378F24DFF000000A00100003B00000000000000000000000000091000006662782F45374635344235342D363743322D343832342D383044432D4334454645303536354442422F7265736F75
310
726365732F636F72652E786D6C504B0506000000000E000E0080040000611100000000
  0
XRECORD
  5
112
102
{ACAD_REACTORS
330
110
102
}
330
110
100
AcDbXrecord
280
     1
270
     1
271
     1
  0
XRECORD
  5
111
102
{ACAD_REACTORS
330
110
102
}
330
110
100
AcDbXrecord
280
     1
270
     1
271
     1
  0
XRECORD
  5
18A
102
{ACAD_REACTORS
330
110
102
}
330
110
100
AcDbXrecord
280
     1
 70
     0
 90
1778669749
  1
9BF507EE-FAF7-4A99-A33D-4EE51894BC40
310
504B03040A0000080000B670623B3DEE336E79000000790000001B0000006175746F6465736B2D64657369676E2D7061636B6167652E786D6C3C3F786D6C2076657273696F6E3D22312E302220656E636F64696E673D227574662D3822203F3E3C666F726D6174733E3C666F726D61743E687474703A2F2F736368656D612E
310
6175746F6465736B2E636F6D2F64657369676E2D7061636B6167652F323030393C2F666F726D61743E3C2F666F726D6174733E504B0304140006080800B670623BD486FD9CA0000000F4000000130000005B436F6E74656E745F54797065735D2E786D6C7D8EC10E82300C865F65E91D8A1E8C310C0EEA1BF002731658846E
310
D98AC1B77784ABF1D8FE5FBFBF75BBCE937A534CCEB38643598122B6FEE978D0B0485F9C41B54DDD7D022595594E1A469170414C76A4D9A4D207E29CF43ECE46F218070CC6BECC4078ACAA135ACF422C856C0E68EA1BF5669944DDD7BCDE7B1F8E415D77AECB980613C2E4AC91FC167A2B244592486606FC29C8FD7F045B9A
310
EF7053A7E60B504B0304140006080800B670623BCA089DFFEC0000007C01000008000000636F72652E786D6C8D90416E83301045AF62CDB632D8402020E32882F604BD80653BC44AB011B6AB1EBF262152BBEB6A467FFE9B197D76FA9EEFE84BAFDE38DB03CD08206DA553C64E3DC470C1474027CE56E7C22F1B202B66DDC3
310
260367D3EAE2B24BD2D9A06D48AA754AEFA2F05E0740F29E9A1EBCBCEA59642286E4F0B76C11F226269DD15797E0188D42CF2346A57DE662F40ABCAEC77628C6120F654571D50C04B7F5B9C1E3997CD4F550BE3745C3F20DE62C98F9755FAE5A04AD801784B498524C8A4F5A75E4D055873772EC0861F966FF03C545FD138A
310
C686B2D8DF7D621E384D8F3C069CE55B16A93C824A75CB8DFF00504B0304140006080800B670623B55019EA25F0000007C00000007000000636E782E786D6C4DCB3B0E80201045D1AD90E915ED2CF8AC45050C11660C8261F98AB1B07AC9C97D42D718D865D3E909258CFD00CCE24AC6E326A164D74DC0B4128928FF326038
310
472BA13128B1252AC747C6BAB984FC68F0B87FE8960A5C09FE86CFB69FBA01504B0304140006080800B670623B68FC0B7272010000D40300000C0000006662782F636F72652E786D6CC5535B6E833010BC8AE5DF0A6C1E8124328E22D29EA01770C0A128602363A31CBFCB234A53A555FA553EC09AD9F5CE8C31DB5DDA060D
310
D2F4B556190E7C8A9154852E6B5565D8D993B7C668C799D1DA7E29C3488956667884316795D1AE5BA0422B2B950554E9522EA0E87B69312A1A5864B82F3E642B7CE12C54F467BF13C55954D20F7CA0A18EB3DE1A1080E621E31BF3D3F1C2C88C73E65C5D2E6C5DC2B4FA544B8379921C36797888BC3C8A032F4E73EA6D927D
310
EA1DF6F42D49F2E8350D5346C666CE6CDD5ED515460A2B4BCC434A375E1078347C0FE22D5D6DE3D50B5D6F2965642CBF6B725DF96493AB958DC245EEDCD6631E809089F8E61622B2A81703E8219C913144F84C09DF070D8140C8561C9BAB8F3340832CAC363130A576376A108D933095FA747AD0CF0B46E64E983A6D0EAE1F
310
CE089F9EF1FB8E70D44255604258581E9D1D75B259C3125A278D37D80B52DAB4A279CEC62F0EFF44DDC43F9454E8469BFF5244960322CBEF41C6FBC83F01504B0304140006080800B670623B0F71DDB67E0000009D0000000B0000006662782F636E782E786D6C4DCCD10A83201886E15B91FFDCA54DB73F502386BB8F5816
310
32D3703976F9ABD1C18E3E78F87855FB990379BBFCF2296AE02706C4C5471A7C9C349475A408A4352AA7B4FEDD80C47E761A7606A3A69CCA72D0E0C6BE8475D3E0E3F3409428EA6B27A84079A782899AA2EC1A7AE3ECCC2FD858CB2D544655BFD2B67BD87C01504B0304140006080800B670623BE134B4FB28010000120200
310
00310000006662782F38353834323741342D343835462D343034322D383541392D4331303331363839454531452F636F72652E786D6C8D515B6EC32010BC0AE22B55850D0EA424C24451959EA0172086A42831583CAA1CBF503B52FB971F16CDCECC0EACD8DFC71BF836215AEF7A481A0C817183D7D65D7A98D3197108F652
310
04EFD31F1A044E8DA6871586525C82CFD3020DDE25E352419DD76601558C264130DCCAA58771F832A36A544E8511AFCDA486ABBA988634A55D7852C4144A00300FA927949C71DABD1D28A29C7D208A6987383B6CD13BC16BB2E1DBE3911C453B0BA5C8D9EA456E758963CFD684674DAA588A64C747FC2118958C86B2C3788B
310
0841B8FB247487D98EB257CC77188BB6D2FF89F2A49F1465EBD2BA5BE2CEB2082511EDDC9042FB7CBA3DC298FBE4430275DE2A9AE1054ADC60CC08E3A29D89E5F9C5714317C7987C28DFBBBA9E0A97B0D97643A568EB864AF95D5FA9759BF207504B0304140006080800B670623B1B8617914E010000330300003000000066
310
62782F38353834323741342D343835462D343034322D383541392D4331303331363839454531452F636E782E786D6CD593C16EC32010447F0571AD6CE3D489D20813A9877E410FBD62D82434182CC055F3F75D1292E692438FBD206B7698593D61BEFD1E2DF982108D773D6D6B460938E5B571FB9ECE6957AD29D90A1EBC4F
310
77364A9C1CA1A759A682EF839FA72269D8C9D92654AD71C72206887E0E0A22CAF926B15E498B01E0AA19451807D01A34B919F16B070157417138917400F2F6FA41FCF0092A45DEE414C19BDC21783E4BD39D891265658C3D8DEA00A3ACE59CBC8678ACB54CB26EEB6BD7839D7E9348BE70AD9C8321B9BCA7F9A4A26C542347
310
DEE050F09802D22BA6749A800A394DD62899107273365E3C82CFC6A55557BC06C10774B7ABE7AEC3B0F34CF06446280E154026D0542C187BA9DAB6628BF7B6DBB0E5A65B3EB1F58631DE64BBE083F7B65CC218087E22CABB042E51D1F2268F1FE12B3EA24D40D63E9CFE00120194D60B9D5BC67FE6D39CDF37E20AF817881F
310
504B0304140006080800B670623B5933D422630500003B100000340000006662782F38353834323741342D343835462D343034322D383541392D4331303331363839454531452F6F626A656374732E786D6CAD575B6FA33814FE2B887D0642934E9B156594264D158D3A534DD4D13E548A0C38942D60649B4EBABF7E3F8321
310
40924EF6928780CDF1B97EE762EFF32E4B8D37CA45C2F21BD3B547A641F39045491EDF98A5DC5AD7A6F1D9F73863B243661A39C9E88DA9B64DDF8B392B0BBD15D12D295339D85DDEFE618890E6D434C2940871638AF08566C426A5641115AF764424B1E3EDCE76ED9AB0CF36E6A47819302D08A7B984A6D8CFC1C5A89572FB
310
CB91E9F89EA3BEFB9EFAD754E3D3544E654F5F7E920B49F2F040D880CDD89D2CEE2E2EA7D6E56432B6269F2E5CEB7679BBB0DCABF168FE693E9FCEEEA6102C240727AD09A75BD3BF876F78127A4EFDA9D5582B7E4CA590E5390D2BFB6161A5B3E618D182E611E2985001691DAB47FDA5AB7CD3F93C566B2DB2BB7D9E55DD13
310
1D468DEECDB3AB290BFE8409E21C54704115AA6AFF68436BFC8DF65E0B184BF5B74418199194272435D224E084BF9B3E481589EFF5D828747285706581E9BB7B7E5D5D911ABFC6EE312DB7659A2A689A7E85EC0DF04FA5A8344BFEA2FCB834E8845895492EAFB541F2BDA0A63FF59C6AD3F7D4637CA13FD68E34B629891172
310
98597F1D183A57B9B75A98FE9765B05BAB7C3C2EBCE0ACA05C2AF8005A4DE09AA7F29216EB9E15397500C6F47CBE77CA7778FE2BD277AF0AE2C693DD6437D1522427B9D8329E2136F6A8FA19A3E6C56ADF0E5F50CF06D48734EDCEBF22F69C56D97EC138153F804B85E6FABFC7AFEFB32E523BE1F3BD372418E363EDCA7548
310
52949E8724474014288D94610BB57C1BEC4C7F854A89CA8E5324F55B871CBC78CE1BBEE3BFE68D6A5589EF3C730474506FCFA8FCF0659516D0ED04580EEA6425581B77CAE797FF4BCECC16EB2FEB926F49481F746159D06D922712BD730FDEAE42BD40F42C7AA5EF3F198F60E86110D6DD20645A9480B795CF95E3E3A659A8
310
C55E724F408873315335CFFB8584874484344D494E59D94869DB90C26A5B64F49C802CAC1D3ABE18A098D3B7444D123D8A9E5AE8F5214F0AE5B2B6E9B575DA3E61CBD3EA2B4009FA940524DD1305FB6A1FB294F14DF0BEA90BA109ECE1481FDC3FFAE8D60E75141700BE82725371B4873751B2DD960265F788137FACE6DD40
310
B575E4F0A5C99F46629D92131467A41EE11ABD8D4CCC039CA0AFB37C93A08B232B8F0AEFCA1E0A1015DF13FC83322B362463652ECF71D3A8B1A7D1BE65DE1D62C44F22C317D35F574FEB16153BA2D13E543D10A80E74C4A65E78A6B7CBCBD1D5DD9DB59C2DAFACC96C3AB566E3F1C29ADCDD5DBAD7D3C9ED7C822ED74F80A6
310
41755310DE4443F44A9E68373FADF6596BFA0F440AE7BECE2727AE9F4F2B1B53B1E7E00CF0DD1E5C65454A339A4BA2D0FBA05ED2EF0443458F47BDBFCA484CCFE0F2ED7E3DD0013B679C7B5499467F0ECEEADDB9CA85A34CE44B99053949D2C1416DB85DE4B136BB7165FBAC0B7AB3542BED4F8CA182A549847A1319316519
310
95A83A67147B9E5101C47487F2485F1ECE38FD568F839204296D3479219888530154036E6528FBFBC66F98E0D4107563A2D7D9AFF8D389681A08F58D89F22693900A3B407754734FC51C10C010D6D640809EE4718AC1BA3ED4AEDB53CA37283F68805A7E4B72CEB0A4EDEAD5DD8C14059A76AFAA56BA6901E13F32BC51C720
310
12AF41295B5BF61BAD3195181FB506E6B40F4C10AF5AF40EF9F5B159AE5DD1F43C72D635E94310D45C2D49785C5D0B94D3B54AB3C5A38349C0587D338AB48C11CBF339599C02CCA54A70A008A8D03C0B2201D5F9EFCF8F9CE12A9A19CB0410789EB32C63B95ECCF455D658BFE0621A3DA32C5075FB101723D77DAE867E7D0F
310
D90444509B44E2151B4DC2290B065803200FBAA9BE9D392A0603F2D5C2D00D6302A615680F66D2FA166E2079D4C551A54AB758161FCEFD4E450A14704CECFEDF504B0304140006080000B670623B000000000000000000000000350000006662782F38353834323741342D343835462D343034322D383541392D4331303331
310
363839454531452F76657274696365732E62696E504B0304140006080800B670623BF270F1330600000004000000360000006662782F38353834323741342D343835462D343034322D383541392D4331303331363839454531452F747269616E676C65732E62696E636660600000504B0304140006080000B670623B000000
310
000000000000000000370000006662782F38353834323741342D343835462D343034322D383541392D4331303331363839454531452F617474726962757465732E62696E504B0304140006080800B670623B08DA0BD19000000041010000360000006662782F38353834323741342D343835462D343034322D383541392D43
310
31303331363839454531452F6469726563746F72792E786D6C858F410AC3201045AF22B36F53E9A60B35CBEEBAE80D244E44489C6234F4F835464A48035D0DF398FF9F8AF63D0E6CC63039F212F8F9020C7D47C6792B21C5FE7403D62A1188E2E60C98D7234A5830286103A55745067B9D86B8A3CF9C7F90C11DE607FB1443
310
96D7B6A82D282E9A152AD114D5EF2CB866EEE831B8EEA07A7BB5A8D7D61A2BAAEB7FD5F70921FF497D00504B0304140006080800B670623BD9A3B367FE000000A00100003B0000006662782F38353834323741342D343835462D343034322D383541392D4331303331363839454531452F7265736F75726365732F636F7265
310
2E786D6C8D504B6E833010BD0A9A6D65B01D0201194711694FD00B586642AD043BF2A7EAF16B122AB5BB6E6646EFA3797AE2F8B5DC8A4FF4C1383B002B291468B59B8C9D0748F1420E501CA5F0CEC55F3228AC5A708015062966EFD27D83B4B3116DCCA875136EA00A012314FA968F0182FEC045952AC5AC08D7F2AEF455CD
310
58B232D3592745883E07289E4FD609D26370C96B0CA27AB252A464A64D63A6FCD35C0C7A904D73EE467EE664DCD58CD4ED4849D79C5A723ED1B7A61977AF2D6F45B59AA58866F9C9A83DAA8813484E6947182394BFB3BAA7FBBEDEBFD0434FA9A856F91F53BA4FFF342563E38E6F719FB60092E5200F428A6AED2BAF479979
310
AFDDCA6F504B010214000A0000080000B670623B3DEE336E79000000790000001B00000000000000000000000000000000006175746F6465736B2D64657369676E2D7061636B6167652E786D6C504B01021400140006080800B670623BD486FD9CA0000000F40000001300000000000000000000000000B20000005B436F6E
310
74656E745F54797065735D2E786D6C504B01021400140006080800B670623BCA089DFFEC0000007C010000080000000000000000000000000083010000636F72652E786D6C504B01021400140006080800B670623B55019EA25F0000007C000000070000000000000000000000000095020000636E782E786D6C504B010214
310
00140006080800B670623B68FC0B7272010000D40300000C00000000000000000000000000190300006662782F636F72652E786D6C504B01021400140006080800B670623B0F71DDB67E0000009D0000000B00000000000000000000000000B50400006662782F636E782E786D6C504B01021400140006080800B670623BE1
310
34B4FB280100001202000031000000000000000000000000005C0500006662782F38353834323741342D343835462D343034322D383541392D4331303331363839454531452F636F72652E786D6C504B01021400140006080800B670623B1B8617914E010000330300003000000000000000000000000000D3060000666278
310
2F38353834323741342D343835462D343034322D383541392D4331303331363839454531452F636E782E786D6C504B01021400140006080800B670623B5933D422630500003B10000034000000000000000000000000006F0800006662782F38353834323741342D343835462D343034322D383541392D4331303331363839
310
454531452F6F626A656374732E786D6C504B01021400140006080000B670623B0000000000000000000000003500000000000000000000000000240E00006662782F38353834323741342D343835462D343034322D383541392D4331303331363839454531452F76657274696365732E62696E504B01021400140006080800
310
B670623BF270F13306000000040000003600000000000000000000000000770E00006662782F38353834323741342D343835462D343034322D383541392D4331303331363839454531452F747269616E676C65732E62696E504B01021400140006080000B670623B0000000000000000000000003700000000000000000000
310
000000D10E00006662782F38353834323741342D343835462D343034322D383541392D4331303331363839454531452F617474726962757465732E62696E504B01021400140006080800B670623B08DA0BD190000000410100003600000000000000000000000000260F00006662782F38353834323741342D343835462D34
310
3034322D383541392D4331303331363839454531452F6469726563746F72792E786D6C504B01021400140006080800B670623BD9A3B367FE000000A00100003B000000000000000000000000000A1000006662782F38353834323741342D343835462D343034322D383541392D4331303331363839454531452F7265736F75
310
726365732F636F72652E786D6C504B0506000000000E000E0080040000611100000000
  0
XRECORD
  5
113
102
{ACAD_REACTORS
330
110
102
}
330
110
100
AcDbXrecord
280
     1
270
     1
271
     1
  0
XRECORD
  5
114
102
{ACAD_REACTORS
330
110
102
}
330
110
100
AcDbXrecord
280
     1
270
     1
271
     1
  0
CELLSTYLEMAP
  5
6B289
102
{ACAD_REACTORS
330
104
102
}
330
104
100
AcDbCellStyleMap
 90
        3
300
CELLSTYLE
  1
TABLEFORMAT_BEGIN
 90
        5
170
     1
 91
        0
 92
    32768
 62
   257
 93
        1
300
CONTENTFORMAT
  1
CONTENTFORMAT_BEGIN
 90
        0
 91
        0
 92
      512
 93
        0
300

 40
0.0
140
1.0
 94
        5
 62
     0
340
11
144
0.25
309
CONTENTFORMAT_END
171
     1
301
MARGIN
  1
CELLMARGIN_BEGIN
 40
0.06
 40
0.06
 40
0.06
 40
0.06
 40
0.18
 40
0.18
309
CELLMARGIN_END
 94
        6
 95
        1
302
GRIDFORMAT
  1
GRIDFORMAT_BEGIN
 90
        0
 91
        1
 62
     0
 92
       -2
340
0
 93
        0
 40
0.045
309
GRIDFORMAT_END
 95
        2
302
GRIDFORMAT
  1
GRIDFORMAT_BEGIN
 90
        0
 91
        1
 62
     0
 92
       -2
340
0
 93
        0
 40
0.045
309
GRIDFORMAT_END
 95
        4
302
GRIDFORMAT
  1
GRIDFORMAT_BEGIN
 90
        0
 91
        1
 62
     0
 92
       -2
340
0
 93
        0
 40
0.045
309
GRIDFORMAT_END
 95
        8
302
GRIDFORMAT
  1
GRIDFORMAT_BEGIN
 90
        0
 91
        1
 62
     0
 92
       -2
340
0
 93
        0
 40
0.045
309
GRIDFORMAT_END
 95
       16
302
GRIDFORMAT
  1
GRIDFORMAT_BEGIN
 90
        0
 91
        1
 62
     0
 92
       -2
340
0
 93
        0
 40
0.045
309
GRIDFORMAT_END
 95
       32
302
GRIDFORMAT
  1
GRIDFORMAT_BEGIN
 90
        0
 91
        1
 62
     0
 92
       -2
340
0
 93
        0
 40
0.045
309
GRIDFORMAT_END
309
TABLEFORMAT_END
  1
CELLSTYLE_BEGIN
 90
        1
 91
        1
300
_TITLE
309
CELLSTYLE_END
300
CELLSTYLE
  1
TABLEFORMAT_BEGIN
 90
        5
170
     1
 91
        0
 92
        0
 62
   257
 93
        1
300
CONTENTFORMAT
  1
CONTENTFORMAT_BEGIN
 90
        0
 91
        0
 92
      512
 93
        0
300

 40
0.0
140
1.0
 94
        5
 62
     0
340
11
144
0.18
309
CONTENTFORMAT_END
171
     1
301
MARGIN
  1
CELLMARGIN_BEGIN
 40
0.06
 40
0.06
 40
0.06
 40
0.06
 40
0.18
 40
0.18
309
CELLMARGIN_END
 94
        6
 95
        1
302
GRIDFORMAT
  1
GRIDFORMAT_BEGIN
 90
        0
 91
        1
 62
     0
 92
       -2
340
0
 93
        0
 40
0.045
309
GRIDFORMAT_END
 95
        2
302
GRIDFORMAT
  1
GRIDFORMAT_BEGIN
 90
        0
 91
        1
 62
     0
 92
       -2
340
0
 93
        0
 40
0.045
309
GRIDFORMAT_END
 95
        4
302
GRIDFORMAT
  1
GRIDFORMAT_BEGIN
 90
        0
 91
        1
 62
     0
 92
       -2
340
0
 93
        0
 40
0.045
309
GRIDFORMAT_END
 95
        8
302
GRIDFORMAT
  1
GRIDFORMAT_BEGIN
 90
        0
 91
        1
 62
     0
 92
       -2
340
0
 93
        0
 40
0.045
309
GRIDFORMAT_END
 95
       16
302
GRIDFORMAT
  1
GRIDFORMAT_BEGIN
 90
        0
 91
        1
 62
     0
 92
       -2
340
0
 93
        0
 40
0.045
309
GRIDFORMAT_END
 95
       32
302
GRIDFORMAT
  1
GRIDFORMAT_BEGIN
 90
        0
 91
        1
 62
     0
 92
       -2
340
0
 93
        0
 40
0.045
309
GRIDFORMAT_END
309
TABLEFORMAT_END
  1
CELLSTYLE_BEGIN
 90
        2
 91
        1
300
_HEADER
309
CELLSTYLE_END
300
CELLSTYLE
  1
TABLEFORMAT_BEGIN
 90
        5
170
     1
 91
        0
 92
        0
 62
   257
 93
        1
300
CONTENTFORMAT
  1
CONTENTFORMAT_BEGIN
 90
        0
 91
        0
 92
      512
 93
        0
300

 40
0.0
140
1.0
 94
        2
 62
     0
340
11
144
0.18
309
CONTENTFORMAT_END
171
     1
301
MARGIN
  1
CELLMARGIN_BEGIN
 40
0.06
 40
0.06
 40
0.06
 40
0.06
 40
0.18
 40
0.18
309
CELLMARGIN_END
 94
        6
 95
        1
302
GRIDFORMAT
  1
GRIDFORMAT_BEGIN
 90
        0
 91
        1
 62
     0
 92
       -2
340
0
 93
        0
 40
0.045
309
GRIDFORMAT_END
 95
        2
302
GRIDFORMAT
  1
GRIDFORMAT_BEGIN
 90
        0
 91
        1
 62
     0
 92
       -2
340
0
 93
        0
 40
0.045
309
GRIDFORMAT_END
 95
        4
302
GRIDFORMAT
  1
GRIDFORMAT_BEGIN
 90
        0
 91
        1
 62
     0
 92
       -2
340
0
 93
        0
 40
0.045
309
GRIDFORMAT_END
 95
        8
302
GRIDFORMAT
  1
GRIDFORMAT_BEGIN
 90
        0
 91
        1
 62
     0
 92
       -2
340
0
 93
        0
 40
0.045
309
GRIDFORMAT_END
 95
       16
302
GRIDFORMAT
  1
GRIDFORMAT_BEGIN
 90
        0
 91
        1
 62
     0
 92
       -2
340
0
 93
        0
 40
0.045
309
GRIDFORMAT_END
 95
       32
302
GRIDFORMAT
  1
GRIDFORMAT_BEGIN
 90
        0
 91
        1
 62
     0
 92
       -2
340
0
 93
        0
 40
0.045
309
GRIDFORMAT_END
309
TABLEFORMAT_END
  1
CELLSTYLE_BEGIN
 90
        3
 91
        2
300
_DATA
309
CELLSTYLE_END
  0
ENDSEC
  0
SECTION
  2
ACDSDATA
 70
     2
 71
     8
  0
ACDSSCHEMA
 90
        0
  1
AcDb_Thumbnail_Schema
  2
AcDbDs::ID
280
    10
 91
        8
  2
Thumbnail_Data
280
    15
 91
        0
101
ACDSRECORD
 95
        0
 90
        1
  2
AcDbDs::TreatedAsObjectData
280
     1
291
     1
101
ACDSRECORD
 95
        0
 90
        2
  2
AcDbDs::Legacy
280
     1
291
     1
101
ACDSRECORD
  1
AcDbDs::ID
 90
        3
  2
AcDs:Indexable
280
     1
291
     1
101
ACDSRECORD
  1
AcDbDs::ID
 90
        4
  2
AcDbDs::HandleAttribute
280
     7
282
     1
  0
ACDSSCHEMA
 90
        1
  1
AcDbDs::TreatedAsObjectDataSchema
  2
AcDbDs::TreatedAsObjectData
280
     1
 91
        0
  0
ACDSSCHEMA
 90
        2
  1
AcDbDs::LegacySchema
  2
AcDbDs::Legacy
280
     1
 91
        0
  0
ACDSSCHEMA
 90
        3
  1
AcDbDs::IndexedPropertySchema
  2
AcDs:Indexable
280
     1
 91
        0
  0
ACDSSCHEMA
 90
        4
  1
AcDbDs::HandleAttributeSchema
  2
AcDbDs::HandleAttribute
280
     7
 91
        1
284
     1
  0
ACDSSCHEMA
 90
        5
  1
AcDb3DSolid_ASM_Data
  2
AcDbDs::ID
280
    10
 91
        8
  2
ASM_Data
280
    15
 91
        0
101
ACDSRECORD
 95
        5
 90
        1
  2
AcDbDs::TreatedAsObjectData
280
     1
291
     1
101
ACDSRECORD
 95
        5
 90
        2
  2
AcDbDs::Legacy
280
     1
291
     1
101
ACDSRECORD
  1
AcDbDs::ID
 90
        3
  2
AcDs:Indexable
280
     1
291
     1
101
ACDSRECORD
  1
AcDbDs::ID
 90
        4
  2
AcDbDs::HandleAttribute
280
     7
282
     1
  0
ACDSRECORD
 90
        0
  2
AcDbDs::ID
280
    10
320
22
  2
Thumbnail_Data
280
    15
 94
     1666
310
89504E470D0A1A0A0000000D49484452000001000000006C0803000000B2ED9CC100000300504C5445212830FFFFFF2128300000000000000000000000000000000000000000000000000000330000660000990000CC0000FF0033000033330033660033990033CC0033FF0066000066330066660066990066CC0066FF0099
310
000099330099660099990099CC0099FF00CC0000CC3300CC6600CC9900CCCC00CCFF00FF0000FF3300FF6600FF9900FFCC00FFFF3300003300333300663300993300CC3300FF3333003333333333663333993333CC3333FF3366003366333366663366993366CC3366FF3399003399333399663399993399CC3399FF33CC00
310
33CC3333CC6633CC9933CCCC33CCFF33FF0033FF3333FF6633FF9933FFCC33FFFF6600006600336600666600996600CC6600FF6633006633336633666633996633CC6633FF6666006666336666666666996666CC6666FF6699006699336699666699996699CC6699FF66CC0066CC3366CC6666CC9966CCCC66CCFF66FF0066
310
FF3366FF6666FF9966FFCC66FFFF9900009900339900669900999900CC9900FF9933009933339933669933999933CC9933FF9966009966339966669966999966CC9966FF9999009999339999669999999999CC9999FF99CC0099CC3399CC6699CC9999CCCC99CCFF99FF0099FF3399FF6699FF9999FFCC99FFFFCC0000CC00
310
33CC0066CC0099CC00CCCC00FFCC3300CC3333CC3366CC3399CC33CCCC33FFCC6600CC6633CC6666CC6699CC66CCCC66FFCC9900CC9933CC9966CC9999CC99CCCC99FFCCCC00CCCC33CCCC66CCCC99CCCCCCCCCCFFCCFF00CCFF33CCFF66CCFF99CCFFCCCCFFFFFF0000FF0033FF0066FF0099FF00CCFF00FFFF3300FF3333
310
FF3366FF3399FF33CCFF33FFFF6600FF6633FF6666FF6699FF66CCFF66FFFF9900FF9933FF9966FF9999FF99CCFF99FFFFCC00FFCC33FFCC66FFCC99FFCCCCFFCCFFFFFF00FFFF33FFFF66FFFF99FFFFCCFFFFFF0000000D0D0D1A1A1A2828283535354343435050505D5D5D6B6B6B787878868686939393A1A1A1AEAEAEBB
310
BBBBC9C9C9D6D6D6E4E4E4F1F1F1FFFFFF0000000000000000000000000000000000000000000000000000000000002E4550F1000000CD4944415478DAEDD8CB0E8320100550FFFF7F67DFA6A63E2A4981B48903E7AC5CB8702E3080CB0200000000000000000000DC44444C5BF8CBA4197C961C338CF5D1E59D19C67A7B2A
310
553B6C02F1F31705906BF1B7758A31977CF50C18218075183B47337B0071A8FEF9D05E4EEA000E67BA6B0015132292F780F5DBDF95C71E42755DD9A77FF1D0F78FEDF2DECDBFBF09E40FE074B99B6F06942F3E1306B0B5C3D65D6DA000BE9F8563B823506520FB7DF814CCE83F84A2B045F6B6CADC9D710100000000000000
310
0000003A3D00DEC2F9CA2C8DFA270000000049454E44AE42608271075D0C0A01A03BC4DCEE7D5C4F3801D015C44C5864438B6974A576F4984356F0920613A82600D18B5A7817757455EFE14E828099EA5006923A6E2A63B9B897960044EC54055317D4F453114D5B4FD910C1975C0250074070A4660280E0452C011801F812
310
D1CB77CA0940D614C15ECA16C0434C378F952400715B044BA104E000C04D542D9D04E00300C1462601B80150C4D55149009E009C02AB882400670008AA1A09C01F803DB482842B007804B0C60D91CF2F9E2F7FB1C23DC1579225015C3F890CE05202B8F9242E001C5FF3827301006B5440D9FC87A325E680CBB4BF3A80E341
310
024800126BCED8DCCAFE0BC89323148B0004169DB1773E315BC236EF7D16429C74C0FC8810FAB822E4686C54F4D26BA9A9E2DD7790D975BD451A1FD53D220800A0797E05CB04E203000DE41FA502A8BD05F61574D1160836078CE58FF12DE253CECF072C2F70EA6F011040B1F60060AF8009C658FE140940F746886607B0F5
310
F2D84660BD1618B88A08D2027100640B8C5D0B2DBC0AC45A06BBF6C2581840B855A0358D18E98F251203406F1A612A80B202BAD38891FF580B500000D49D4988F37FAC813E72214627000A3582A5C338FE00598ED82311F33F3A0000000049454E44AE4260820F467818FD4AC64A010000000049454E44AE42608200187F52
310
539FF6AC0FF2D01229B97F7B56AE64E8787DBF9E93B283504D4929EEDB336DE133B927D0B706F146D8FDD54728002424931276690CDE5FFA471401522320E6FA719CDCC9E90D234F422DA512220CD4066298BF969A4028B717C4D481E25C1BC6C59A99842240E2F24B1F92F8AC20F021F00EFE737AFD0FDF7E00E9E9886BC5
310
1247A50000000049454E44AE426082
  0
ENDSEC
  0
EOF
