  0
SECTION
  2
HEADER
  9
$ACADVER
  1
AC1032
  9
$ACADMAINTVER
 90
      197
  9
$DWGCODEPAGE
  3
ANSI_1252
  9
$LASTSAVEDBY
  1
gregb
  9
$REQUIREDVERSIONS
160
                 0
  9
$INSBASE
 10
0.0
 20
0.0
 30
0.0
  9
$EXTMIN
 10
104466.4871381871
 20
95253.1563670472
 30
0.0
  9
$EXTMAX
 10
104468.7552290036
 20
95255.31415605614
 30
0.0
  9
$LIMMIN
 10
0.0
 20
0.0
  9
$LIMMAX
 10
12.0
 20
9.0
  9
$ORTHOMODE
 70
     1
  9
$REGENMODE
 70
     1
  9
$FILLMODE
 70
     1
  9
$QTEXTMODE
 70
     0
  9
$MIRRTEXT
 70
     0
  9
$LTSCALE
 40
1.0
  9
$ATTMODE
 70
     1
  9
$TEXTSIZE
 40
0.2
  9
$TRACEWID
 40
0.05
  9
$TEXTSTYLE
  7
Standard
  9
$CLAYER
  8
freecads.com
  9
$CELTYPE
  6
ByLayer
  9
$CECOLOR
 62
   256
  9
$CELTSCALE
 40
1.0
  9
$DISPSILH
 70
     1
  9
$DIMSCALE
 40
1.0
  9
$DIMASZ
 40
0.18
  9
$DIMEXO
 40
0.0625
  9
$DIMDLI
 40
0.38
  9
$DIMRND
 40
0.0
  9
$DIMDLE
 40
0.0
  9
$DIMEXE
 40
0.18
  9
$DIMTP
 40
0.0
  9
$DIMTM
 40
0.0
  9
$DIMTXT
 40
0.18
  9
$DIMCEN
 40
0.09
  9
$DIMTSZ
 40
0.0
  9
$DIMTOL
 70
     0
  9
$DIMLIM
 70
     0
  9
$DIMTIH
 70
     1
  9
$DIMTOH
 70
     1
  9
$DIMSE1
 70
     0
  9
$DIMSE2
 70
     0
  9
$DIMTAD
 70
     0
  9
$DIMZIN
 70
     0
  9
$DIMBLK
  1

  9
$DIMASO
 70
     1
  9
$DIMSHO
 70
     1
  9
$DIMPOST
  1

  9
$DIMAPOST
  1

  9
$DIMALT
 70
     0
  9
$DIMALTD
 70
     2
  9
$DIMALTF
 40
25.4
  9
$DIMLFAC
 40
1.0
  9
$DIMTOFL
 70
     0
  9
$DIMTVP
 40
0.0
  9
$DIMTIX
 70
     0
  9
$DIMSOXD
 70
     0
  9
$DIMSAH
 70
     0
  9
$DIMBLK1
  1

  9
$DIMBLK2
  1

  9
$DIMSTYLE
  2
Standard
  9
$DIMCLRD
 70
     0
  9
$DIMCLRE
 70
     0
  9
$DIMCLRT
 70
     0
  9
$DIMTFAC
 40
1.0
  9
$DIMGAP
 40
0.09
  9
$DIMJUST
 70
     0
  9
$DIMSD1
 70
     0
  9
$DIMSD2
 70
     0
  9
$DIMTOLJ
 70
     1
  9
$DIMTZIN
 70
     0
  9
$DIMALTZ
 70
     0
  9
$DIMALTTZ
 70
     0
  9
$DIMUPT
 70
     0
  9
$DIMDEC
 70
     4
  9
$DIMTDEC
 70
     4
  9
$DIMALTU
 70
     2
  9
$DIMALTTD
 70
     2
  9
$DIMTXSTY
  7
Standard
  9
$DIMAUNIT
 70
     0
  9
$DIMADEC
 70
     0
  9
$DIMALTRND
 40
0.0
  9
$DIMAZIN
 70
     0
  9
$DIMDSEP
 70
    46
  9
$DIMATFIT
 70
     3
  9
$DIMFRAC
 70
     0
  9
$DIMLDRBLK
  1

  9
$DIMLUNIT
 70
     2
  9
$DIMLWD
 70
    -2
  9
$DIMLWE
 70
    -2
  9
$DIMTMOVE
 70
     0
  9
$DIMFXL
 40
1.0
  9
$DIMFXLON
 70
     0
  9
$DIMJOGANG
 40
0.7853981633974483
  9
$DIMTFILL
 70
     0
  9
$DIMTFILLCLR
 70
     0
  9
$DIMARCSYM
 70
     0
  9
$DIMLTYPE
  6

  9
$DIMLTEX1
  6

  9
$DIMLTEX2
  6

  9
$DIMTXTDIRECTION
 70
     0
  9
$LUNITS
 70
     2
  9
$LUPREC
 70
     4
  9
$SKETCHINC
 40
0.1
  9
$FILLETRAD
 40
0.0
  9
$AUNITS
 70
     0
  9
$AUPREC
 70
     0
  9
$MENU
  1
.
  9
$ELEVATION
 40
0.0
  9
$PELEVATION
 40
0.0
  9
$THICKNESS
 40
0.0
  9
$LIMCHECK
 70
     0
  9
$CHAMFERA
 40
0.0
  9
$CHAMFERB
 40
0.0
  9
$CHAMFERC
 40
0.0
  9
$CHAMFERD
 40
0.0
  9
$SKPOLY
 70
     0
  9
$TDCREATE
 40
2458157.454583334
  9
$TDUCREATE
 40
2458157.287916667
  9
$TDUPDATE
 40
2460668.779305556
  9
$TDUUPDATE
 40
2460668.612638889
  9
$TDINDWG
 40
0.1809606481
  9
$TDUSRTIMER
 40
0.1809606481
  9
$USRTIMER
 70
     1
  9
$ANGBASE
 50
0.0
  9
$ANGDIR
 70
     0
  9
$PDMODE
 70
     0
  9
$PDSIZE
 40
0.0
  9
$PLINEWID
 40
0.0
  9
$SPLFRAME
 70
     0
  9
$SPLINETYPE
 70
     6
  9
$SPLINESEGS
 70
     8
  9
$HANDSEED
  5
6B28B
  9
$SURFTAB1
 70
     6
  9
$SURFTAB2
 70
     6
  9
$SURFTYPE
 70
     6
  9
$SURFU
 70
     6
  9
$SURFV
 70
     6
  9
$UCSBASE
  2

  9
$UCSNAME
  2

  9
$UCSORG
 10
0.0
 20
0.0
 30
0.0
  9
$UCSXDIR
 10
1.0
 20
0.0
 30
0.0
  9
$UCSYDIR
 10
0.0
 20
1.0
 30
0.0
  9
$UCSORTHOREF
  2

  9
$UCSORTHOVIEW
 70
     0
  9
$UCSORGTOP
 10
0.0
 20
0.0
 30
0.0
  9
$UCSORGBOTTOM
 10
0.0
 20
0.0
 30
0.0
  9
$UCSORGLEFT
 10
0.0
 20
0.0
 30
0.0
  9
$UCSORGRIGHT
 10
0.0
 20
0.0
 30
0.0
  9
$UCSORGFRONT
 10
0.0
 20
0.0
 30
0.0
  9
$UCSORGBACK
 10
0.0
 20
0.0
 30
0.0
  9
$PUCSBASE
  2

  9
$PUCSNAME
  2

  9
$PUCSORG
 10
0.0
 20
0.0
 30
0.0
  9
$PUCSXDIR
 10
1.0
 20
0.0
 30
0.0
  9
$PUCSYDIR
 10
0.0
 20
1.0
 30
0.0
  9
$PUCSORTHOREF
  2

  9
$PUCSORTHOVIEW
 70
     0
  9
$PUCSORGTOP
 10
0.0
 20
0.0
 30
0.0
  9
$PUCSORGBOTTOM
 10
0.0
 20
0.0
 30
0.0
  9
$PUCSORGLEFT
 10
0.0
 20
0.0
 30
0.0
  9
$PUCSORGRIGHT
 10
0.0
 20
0.0
 30
0.0
  9
$PUCSORGFRONT
 10
0.0
 20
0.0
 30
0.0
  9
$PUCSORGBACK
 10
0.0
 20
0.0
 30
0.0
  9
$USERI1
 70
     0
  9
$USERI2
 70
     0
  9
$USERI3
 70
     0
  9
$USERI4
 70
     0
  9
$USERI5
 70
     0
  9
$USERR1
 40
0.0
  9
$USERR2
 40
0.0
  9
$USERR3
 40
0.0
  9
$USERR4
 40
0.0
  9
$USERR5
 40
0.0
  9
$WORLDVIEW
 70
     1
  9
$SHADEDGE
 70
     3
  9
$SHADEDIF
 70
    70
  9
$TILEMODE
 70
     1
  9
$MAXACTVP
 70
    64
  9
$PINSBASE
 10
0.0
 20
0.0
 30
0.0
  9
$PLIMCHECK
 70
     0
  9
$PEXTMIN
 10
0.0
 20
0.0
 30
0.0
  9
$PEXTMAX
 10
0.0
 20
0.0
 30
0.0
  9
$PLIMMIN
 10
0.0
 20
0.0
  9
$PLIMMAX
 10
12.0
 20
9.0
  9
$UNITMODE
 70
     0
  9
$VISRETAIN
 70
     1
  9
$PLINEGEN
 70
     0
  9
$PSLTSCALE
 70
     1
  9
$TREEDEPTH
 70
  3020
  9
$CMLSTYLE
  2
Standard
  9
$CMLJUST
 70
     0
  9
$CMLSCALE
 40
1.0
  9
$PROXYGRAPHICS
 70
     1
  9
$MEASUREMENT
 70
     0
  9
$CELWEIGHT
370
    -1
  9
$ENDCAPS
280
     0
  9
$JOINSTYLE
280
     0
  9
$LWDISPLAY
290
     0
  9
$INSUNITS
 70
     1
  9
$HYPERLINKBASE
  1

  9
$STYLESHEET
  1
monochrome.ctb
  9
$XEDIT
290
     1
  9
$CEPSNTYPE
380
     0
  9
$PSTYLEMODE
290
     1
  9
$FINGERPRINTGUID
  2
{358EB121-6EE0-9143-8A3E-6E8E8869FDA6}
  9
$VERSIONGUID
  2
{69D7707E-E55A-0C45-B4C8-5E477A2802D1}
  9
$EXTNAMES
290
     1
  9
$PSVPSCALE
 40
0.0
  9
$OLESTARTUP
290
     0
  9
$SORTENTS
280
   127
  9
$INDEXCTL
280
     0
  9
$HIDETEXT
280
     1
  9
$XCLIPFRAME
280
     2
  9
$HALOGAP
280
     0
  9
$OBSCOLOR
 70
   257
  9
$OBSLTYPE
280
     0
  9
$INTERSECTIONDISPLAY
280
     0
  9
$INTERSECTIONCOLOR
 70
   257
  9
$DIMASSOC
280
     2
  9
$PROJECTNAME
  1

  9
$CAMERADISPLAY
290
     0
  9
$LENSLENGTH
 40
50.0
  9
$CAMERAHEIGHT
 40
0.0
  9
$STEPSPERSEC
 40
2.0
  9
$STEPSIZE
 40
6.0
  9
$3DDWFPREC
 40
2.0
  9
$PSOLWIDTH
 40
0.25
  9
$PSOLHEIGHT
 40
4.0
  9
$LOFTANG1
 40
1.570796326794896
  9
$LOFTANG2
 40
1.570796326794896
  9
$LOFTMAG1
 40
0.0
  9
$LOFTMAG2
 40
0.0
  9
$LOFTPARAM
 70
     7
  9
$LOFTNORMALS
280
     1
  9
$LATITUDE
 40
37.795
  9
$LONGITUDE
 40
-122.394
  9
$NORTHDIRECTION
 40
0.0
  9
$TIMEZONE
 70
 -8000
  9
$LIGHTGLYPHDISPLAY
280
     1
  9
$TILEMODELIGHTSYNCH
280
     1
  9
$CMATERIAL
347
96
  9
$SOLIDHIST
280
     0
  9
$SHOWHIST
280
     1
  9
$DWFFRAME
280
     2
  9
$DGNFRAME
280
     0
  9
$REALWORLDSCALE
290
     1
  9
$INTERFERECOLOR
 62
     1
  9
$INTERFEREOBJVS
345
A3
  9
$INTERFEREVPVS
346
A0
  9
$CSHADOW
280
     0
  9
$SHADOWPLANELOCATION
 40
0.0
  0
ENDSEC
  0
SECTION
  2
CLASSES
  0
CLASS
  1
ACDBDICTIONARYWDFLT
  2
AcDbDictionaryWithDefault
  3
ObjectDBX Classes
 90
        0
 91
        1
280
     0
281
     0
  0
CLASS
  1
DICTIONARYVAR
  2
AcDbDictionaryVar
  3
ObjectDBX Classes
 90
        0
 91
       27
280
     0
281
     0
  0
CLASS
  1
TABLESTYLE
  2
AcDbTableStyle
  3
ObjectDBX Classes
 90
     4095
 91
        1
280
     0
281
     0
  0
CLASS
  1
MATERIAL
  2
AcDbMaterial
  3
ObjectDBX Classes
 90
     1153
 91
        3
280
     0
281
     0
  0
CLASS
  1
VISUALSTYLE
  2
AcDbVisualStyle
  3
ObjectDBX Classes
 90
     4095
 91
       25
280
     0
281
     0
  0
CLASS
  1
SCALE
  2
AcDbScale
  3
ObjectDBX Classes
 90
     1153
 91
       34
280
     0
281
     0
  0
CLASS
  1
MLEADERSTYLE
  2
AcDbMLeaderStyle
  3
ACDB_MLEADERSTYLE_CLASS
 90
     4095
 91
        1
280
     0
281
     0
  0
CLASS
  1
CELLSTYLEMAP
  2
AcDbCellStyleMap
  3
ObjectDBX Classes
 90
     1152
 91
        1
280
     0
281
     0
  0
CLASS
  1
EXACXREFPANELOBJECT
  2
ExAcXREFPanelObject
  3
EXAC_ESW
 90
     1025
 91
        1
280
     0
281
     0
  0
CLASS
  1
NPOCOLLECTION
  2
AcDbImpNonPersistentObjectsCollection
  3
ObjectDBX Classes
 90
     1153
 91
        1
280
     0
281
     0
  0
CLASS
  1
LAYER_INDEX
  2
AcDbLayerIndex
  3
ObjectDBX Classes
 90
        0
 91
        0
280
     0
281
     0
  0
CLASS
  1
SPATIAL_INDEX
  2
AcDbSpatialIndex
  3
ObjectDBX Classes
 90
        0
 91
        0
280
     0
281
     0
  0
CLASS
  1
IDBUFFER
  2
AcDbIdBuffer
  3
ObjectDBX Classes
 90
        0
 91
        0
280
     0
281
     0
  0
CLASS
  1
ACDBSECTIONVIEWSTYLE
  2
AcDbSectionViewStyle
  3
ObjectDBX Classes
 90
     1025
 91
        2
280
     0
281
     0
  0
CLASS
  1
ACDBDETAILVIEWSTYLE
  2
AcDbDetailViewStyle
  3
ObjectDBX Classes
 90
     1025
 91
        2
280
     0
281
     0
  0
CLASS
  1
SORTENTSTABLE
  2
AcDbSortentsTable
  3
ObjectDBX Classes
 90
        0
 91
        1
280
     0
281
     0
  0
CLASS
  1
ACAD_EVALUATION_GRAPH
  2
AcDbEvalGraph
  3
ObjectDBX Classes
 90
     1153
 91
        0
280
     0
281
     0
  0
CLASS
  1
BLOCKLINEARPARAMETER
  2
AcDbBlockLinearParameter
  3
ObjectDBX Classes
 90
     1153
 91
        0
280
     0
281
     0
  0
CLASS
  1
BLOCKLINEARGRIP
  2
AcDbBlockLinearGrip
  3
ObjectDBX Classes
 90
     1153
 91
        0
280
     0
281
     0
  0
CLASS
  1
BLOCKGRIPLOCATIONCOMPONENT
  2
AcDbBlockGripExpr
  3
ObjectDBX Classes
 90
     1153
 91
        0
280
     0
281
     0
  0
CLASS
  1
BLOCKSTRETCHACTION
  2
AcDbBlockStretchAction
  3
ObjectDBX Classes
 90
     1153
 91
        0
280
     0
281
     0
  0
CLASS
  1
ACDB_DYNAMICBLOCKPURGEPREVENTER_VERSION
  2
AcDbDynamicBlockPurgePreventer
  3
ObjectDBX Classes
 90
     1153
 91
        0
280
     0
281
     0
  0
CLASS
  1
BLOCKVISIBILITYPARAMETER
  2
AcDbBlockVisibilityParameter
  3
ObjectDBX Classes
 90
     1153
 91
        0
280
     0
281
     0
  0
CLASS
  1
BLOCKVISIBILITYGRIP
  2
AcDbBlockVisibilityGrip
  3
ObjectDBX Classes
 90
     1153
 91
        0
280
     0
281
     0
  0
CLASS
  1
ACDB_BLOCKREPRESENTATION_DATA
  2
AcDbBlockRepresentationData
  3
ObjectDBX Classes
 90
     1153
 91
        0
280
     0
281
     0
  0
CLASS
  1
SURFACE
  2
AcDbSurface
  3
ObjectDBX Classes
 90
     4095
 91
        0
280
     0
281
     1
  0
CLASS
  1
ACDBASSOCPERSSUBENTMANAGER
  2
AcDbAssocPersSubentManager
  3
ObjectDBX Classes
 90
     1024
 91
        1
280
     0
281
     0
  0
CLASS
  1
BLOCKARRAYACTION
  2
AcDbBlockArrayAction
  3
ObjectDBX Classes
 90
     1153
 91
        0
280
     0
281
     0
  0
CLASS
  1
BLOCKLOOKUPPARAMETER
  2
AcDbBlockLookupParameter
  3
ObjectDBX Classes
 90
     1153
 91
        0
280
     0
281
     0
  0
CLASS
  1
BLOCKLOOKUPGRIP
  2
AcDbBlockLookupGrip
  3
ObjectDBX Classes
 90
     1153
 91
        0
280
     0
281
     0
  0
CLASS
  1
BLOCKLOOKUPACTION
  2
AcDbBlockLookupAction
  3
ObjectDBX Classes
 90
     1153
 91
        0
280
     0
281
     0
  0
ENDSEC
  0
SECTION
  2
TABLES
  0
TABLE
  2
VPORT
  5
8
330
0
100
AcDbSymbolTable
 70
     1
  0
VPORT
  5
94
330
8
100
AcDbSymbolTableRecord
100
AcDbViewportTableRecord
  2
*Active
 70
     0
 10
0.0
 20
0.0
 11
1.0
 21
1.0
 12
104468.3884559723
 22
95253.52403481425
 13
0.0
 23
0.0
 14
0.5
 24
0.5
 15
0.5
 25
0.5
 16
0.0
 26
0.0
 36
1.0
 17
0.0
 27
0.0
 37
0.0
 40
6.349892295780591
 41
2.293369663941871
 42
50.0
 43
0.0
 44
0.0
 50
0.0
 51
0.0
 71
     0
 72
  1000
 73
     1
 74
     3
 75
     0
 76
     0
 77
     0
 78
     0
281
     0
 65
     1
110
0.0
120
0.0
130
0.0
111
1.0
121
0.0
131
0.0
112
0.0
122
1.0
132
0.0
 79
     0
146
0.0
348
9F
 60
     3
 61
     5
292
     1
282
     1
141
0.0
142
0.0
 63
   250
421
  3355443
1001
ACAD_NAV_VCDISPLAY
1070
     3
  0
ENDTAB
  0
TABLE
  2
LTYPE
  5
5
330
0
100
AcDbSymbolTable
 70
     1
  0
LTYPE
  5
14
330
5
100
AcDbSymbolTableRecord
100
AcDbLinetypeTableRecord
  2
ByBlock
 70
     0
  3

 72
    65
 73
     0
 40
0.0
  0
LTYPE
  5
15
330
5
100
AcDbSymbolTableRecord
100
AcDbLinetypeTableRecord
  2
ByLayer
 70
     0
  3

 72
    65
 73
     0
 40
0.0
  0
LTYPE
  5
16
330
5
100
AcDbSymbolTableRecord
100
AcDbLinetypeTableRecord
  2
Continuous
 70
     0
  3
Solid line
 72
    65
 73
     0
 40
0.0
  0
ENDTAB
  0
TABLE
  2
LAYER
  5
2
102
{ACAD_XDICTIONARY
360
18E
102
}
330
0
100
AcDbSymbolTable
 70
     2
  0
LAYER
  5
10
102
{ACAD_XDICTIONARY
360
E6
102
}
330
2
100
AcDbSymbolTableRecord
100
AcDbLayerTableRecord
  2
0
 70
     0
 62
     7
  6
Continuous
370
    -3
390
F
347
98
348
0
  0
LAYER
  5
204
330
2
100
AcDbSymbolTableRecord
100
AcDbLayerTableRecord
  2
freecads.com
 70
     0
 62
     7
  6
Continuous
370
    -3
390
F
347
98
348
0
1001
AcAecLayerStandard
1000

1000

1001
AcCmTransparency
1071
        0
  0
ENDTAB
  0
TABLE
  2
STYLE
  5
3
330
0
100
AcDbSymbolTable
 70
     2
  0
STYLE
  5
11
330
3
100
AcDbSymbolTableRecord
100
AcDbTextStyleTableRecord
  2
Standard
 70
     0
 40
0.0
 41
1.0
 50
0.0
 71
     0
 42
0.2
  3
arial.ttf
  4

1001
ACAD
1000
Arial
1071
       34
  0
ENDTAB
  0
TABLE
  2
VIEW
  5
6
330
0
100
AcDbSymbolTable
 70
     0
  0
ENDTAB
  0
TABLE
  2
UCS
  5
7
330
0
100
AcDbSymbolTable
 70
     0
  0
ENDTAB
  0
TABLE
  2
APPID
  5
9
330
0
100
AcDbSymbolTable
 70
    31
  0
APPID
  5
12
330
9
100
AcDbSymbolTableRecord
100
AcDbRegAppTableRecord
  2
ACAD
 70
     0
  0
APPID
  5
DD
330
9
100
AcDbSymbolTableRecord
100
AcDbRegAppTableRecord
  2
AcadAnnoPO
 70
     0
  0
APPID
  5
DE
330
9
100
AcDbSymbolTableRecord
100
AcDbRegAppTableRecord
  2
AcadAnnotative
 70
     0
  0
APPID
  5
DF
330
9
100
AcDbSymbolTableRecord
100
AcDbRegAppTableRecord
  2
ACAD_DSTYLE_DIMJAG
 70
     0
  0
APPID
  5
E0
330
9
100
AcDbSymbolTableRecord
100
AcDbRegAppTableRecord
  2
ACAD_DSTYLE_DIMTALN
 70
     0
  0
APPID
  5
107
330
9
100
AcDbSymbolTableRecord
100
AcDbRegAppTableRecord
  2
ACAD_MLEADERVER
 70
     0
  0
APPID
  5
1A6
330
9
100
AcDbSymbolTableRecord
100
AcDbRegAppTableRecord
  2
ACAD_NAV_VCDISPLAY
 70
     0
  0
APPID
  5
205
330
9
100
AcDbSymbolTableRecord
100
AcDbRegAppTableRecord
  2
AcAecLayerStandard
 70
     0
  0
APPID
  5
206
330
9
100
AcDbSymbolTableRecord
100
AcDbRegAppTableRecord
  2
AcCmTransparency
 70
     0
  0
APPID
  5
222
330
9
100
AcDbSymbolTableRecord
100
AcDbRegAppTableRecord
  2
ACAD_PSEXT
 70
     0
  0
APPID
  5
2DA
330
9
100
AcDbSymbolTableRecord
100
AcDbRegAppTableRecord
  2
GradientColor1ACI
 70
     0
  0
APPID
  5
2DB
330
9
100
AcDbSymbolTableRecord
100
AcDbRegAppTableRecord
  2
GradientColor2ACI
 70
     0
  0
APPID
  5
2F3
330
9
100
AcDbSymbolTableRecord
100
AcDbRegAppTableRecord
  2
ACAD_EXEMPT_FROM_CAD_STANDARDS
 70
     0
  0
APPID
  5
A1A
330
9
100
AcDbSymbolTableRecord
100
AcDbRegAppTableRecord
  2
AcDbBlockRepETag
 70
     0
  0
APPID
  5
2282
330
9
100
AcDbSymbolTableRecord
100
AcDbRegAppTableRecord
  2
RAK
 70
     0
  0
APPID
  5
39F4
330
9
100
AcDbSymbolTableRecord
100
AcDbRegAppTableRecord
  2
ACAD_DSTYLE_DIMJOGGED_JOGANGLE_SYMBOL
 70
     0
  0
APPID
  5
39F5
330
9
100
AcDbSymbolTableRecord
100
AcDbRegAppTableRecord
  2
AcDbDynamicBlockGUID
 70
     0
  0
APPID
  5
39F6
330
9
100
AcDbSymbolTableRecord
100
AcDbRegAppTableRecord
  2
ACAD_DSTYLE_DIMBREAK
 70
     0
  0
APPID
  5
3B59
330
9
100
AcDbSymbolTableRecord
100
AcDbRegAppTableRecord
  2
AEC_XDATA_BOUND_SPACE
 70
     0
  0
APPID
  5
75C5
330
9
100
AcDbSymbolTableRecord
100
AcDbRegAppTableRecord
  2
AcDbDynamicBlockTrueName
 70
     0
  0
APPID
  5
75C6
330
9
100
AcDbSymbolTableRecord
100
AcDbRegAppTableRecord
  2
AcDbBlockRepBTag
 70
     0
  0
APPID
  5
75C7
330
9
100
AcDbSymbolTableRecord
100
AcDbRegAppTableRecord
  2
ACAUTHENVIRON
 70
     0
  0
APPID
  5
AA90
330
9
100
AcDbSymbolTableRecord
100
AcDbRegAppTableRecord
  2
Acad_TC
 70
     0
  0
APPID
  5
AA9C
330
9
100
AcDbSymbolTableRecord
100
AcDbRegAppTableRecord
  2
AcDbBlockArrayActionTag
 70
     0
  0
APPID
  5
BEE4
330
9
100
AcDbSymbolTableRecord
100
AcDbRegAppTableRecord
  2
ACAD_DSTYLE_DIMTEXT_FILL
 70
     0
  0
APPID
  5
219E5
330
9
100
AcDbSymbolTableRecord
100
AcDbRegAppTableRecord
  2
AECLAY
 70
     0
  0
APPID
  5
26B46
330
9
100
AcDbSymbolTableRecord
100
AcDbRegAppTableRecord
  2
REVIT
 70
     0
  0
APPID
  5
280A5
330
9
100
AcDbSymbolTableRecord
100
AcDbRegAppTableRecord
  2
HATCHBACKGROUNDCOLOR
 70
     0
  0
APPID
  5
29EE0
330
9
100
AcDbSymbolTableRecord
100
AcDbRegAppTableRecord
  2
ACAD_STEPID
 70
     0
  0
APPID
  5
29EE1
330
9
100
AcDbSymbolTableRecord
100
AcDbRegAppTableRecord
  2
AcLayerTools
 70
     0
  0
APPID
  5
4D86C
330
9
100
AcDbSymbolTableRecord
100
AcDbRegAppTableRecord
  2
PE_URL
 70
     0
  0
ENDTAB
  0
TABLE
  2
DIMSTYLE
  5
A
330
0
100
AcDbSymbolTable
 70
     2
100
AcDbDimStyleTable
 71
     1
340
27
  0
DIMSTYLE
105
27
330
A
100
AcDbSymbolTableRecord
100
AcDbDimStyleTableRecord
  2
Standard
 70
     0
340
11
  0
ENDTAB
  0
TABLE
  2
BLOCK_RECORD
  5
1
330
0
100
AcDbSymbolTable
 70
     2
  0
BLOCK_RECORD
  5
1F
102
{ACAD_XDICTIONARY
360
15D
102
}
330
1
100
AcDbSymbolTableRecord
100
AcDbBlockTableRecord
  2
*Model_Space
340
22
 70
     0
280
     1
281
     0
  0
BLOCK_RECORD
  5
58
330
1
100
AcDbSymbolTableRecord
100
AcDbBlockTableRecord
  2
*Paper_Space
340
59
 70
     0
280
     1
281
     0
  0
BLOCK_RECORD
  5
5D
330
1
100
AcDbSymbolTableRecord
100
AcDbBlockTableRecord
  2
*Paper_Space0
340
5E
 70
     0
280
     1
281
     0
  0
ENDTAB
  0
ENDSEC
  0
SECTION
  2
BLOCKS
  0
BLOCK
  5
20
330
1F
100
AcDbEntity
  8
0
100
AcDbBlockBegin
  2
*Model_Space
 70
     0
 10
0.0
 20
0.0
 30
0.0
  3
*Model_Space
  1

  0
ENDBLK
  5
21
330
1F
100
AcDbEntity
  8
0
100
AcDbBlockEnd
  0
BLOCK
  5
5A
330
58
100
AcDbEntity
 67
     1
  8
0
100
AcDbBlockBegin
  2
*Paper_Space
 70
     0
 10
0.0
 20
0.0
 30
0.0
  3
*Paper_Space
  1

  0
ENDBLK
  5
5B
330
58
100
AcDbEntity
 67
     1
  8
0
100
AcDbBlockEnd
  0
BLOCK
  5
5F
330
5D
100
AcDbEntity
 67
     1
  8
0
100
AcDbBlockBegin
  2
*Paper_Space0
 70
     0
 10
0.0
 20
0.0
 30
0.0
  3
*Paper_Space0
  1

  0
ENDBLK
  5
60
330
5D
100
AcDbEntity
 67
     1
  8
0
100
AcDbBlockEnd
  0
ENDSEC
  0
SECTION
  2
ENTITIES
  0
LINE
  5
68C64
330
1F
100
AcDbEntity
  8
freecads.com
100
AcDbLine
 10
104466.8510894367
 20
95254.28310223864
 30
0.0
 11
104466.8514668876
 21
95254.28301933837
 31
0.0
  0
LINE
  5
68C65
330
1F
100
AcDbEntity
  8
freecads.com
100
AcDbLine
 10
104466.8514668876
 20
95254.28301933837
 30
0.0
 11
104466.852001108
 21
95254.28262799357
 31
0.0
  0
LINE
  5
68C66
330
1F
100
AcDbEntity
  8
freecads.com
100
AcDbLine
 10
104466.852001108
 20
95254.28262799357
 30
0.0
 11
104466.8591374774
 21
95254.28112594735
 31
0.0
  0
LINE
  5
68C67
330
1F
100
AcDbEntity
  8
freecads.com
100
AcDbLine
 10
104466.8591374774
 20
95254.28112594735
 30
0.0
 11
104466.8727958743
 21
95254.27897042479
 31
0.0
  0
LINE
  5
68C68
330
1F
100
AcDbEntity
  8
freecads.com
100
AcDbLine
 10
104466.8727958743
 20
95254.27897042479
 30
0.0
 11
104466.8841776402
 21
95254.27757848772
 31
0.0
  0
LINE
  5
68C69
330
1F
100
AcDbEntity
  8
freecads.com
100
AcDbLine
 10
104466.8841776402
 20
95254.27757848772
 30
0.0
 11
104466.8907824521
 21
95254.27701694267
 31
0.0
  0
LINE
  5
68C6A
330
1F
100
AcDbEntity
  8
freecads.com
100
AcDbLine
 10
104466.8907824521
 20
95254.27701694267
 30
0.0
 11
104466.8934401234
 21
95254.27682034401
 31
0.0
  0
LINE
  5
68C6B
330
1F
100
AcDbEntity
  8
freecads.com
100
AcDbLine
 10
104466.8934401234
 20
95254.27682034401
 30
0.0
 11
104466.8956960293
 21
95254.27679128259
 31
0.0
  0
LINE
  5
68C6C
330
1F
100
AcDbEntity
  8
freecads.com
100
AcDbLine
 10
104466.8956960293
 20
95254.27679128259
 30
0.0
 11
104466.8967568285
 21
95254.27807554196
 31
0.0
  0
LINE
  5
68C6D
330
1F
100
AcDbEntity
  8
freecads.com
100
AcDbLine
 10
104466.8967568285
 20
95254.27807554196
 30
0.0
 11
104466.8967644701
 21
95254.28156441563
 31
0.0
  0
LINE
  5
68C6E
330
1F
100
AcDbEntity
  8
freecads.com
100
AcDbLine
 10
104466.8967644701
 20
95254.28156441563
 30
0.0
 11
104466.8967644701
 21
95254.29123387429
 31
0.0
  0
LINE
  5
68C6F
330
1F
100
AcDbEntity
  8
freecads.com
100
AcDbLine
 10
104466.8967644701
 20
95254.29123387429
 30
0.0
 11
104466.89676667
 21
95254.29231481959
 31
0.0
  0
LINE
  5
68C70
330
1F
100
AcDbEntity
  8
freecads.com
100
AcDbLine
 10
104466.89676667
 20
95254.29231481959
 30
0.0
 11
104466.8980980528
 21
95254.29304066001
 31
0.0
  0
LINE
  5
68C71
330
1F
100
AcDbEntity
  8
freecads.com
100
AcDbLine
 10
104466.8980980528
 20
95254.29304066001
 30
0.0
 11
104466.9009126093
 21
95254.29441511391
 31
0.0
  0
LINE
  5
68C72
330
1F
100
AcDbEntity
  8
freecads.com
100
AcDbLine
 10
104466.9009126093
 20
95254.29441511391
 30
0.0
 11
104466.9037864464
 21
95254.29541975855
 31
0.0
  0
LINE
  5
68C73
330
1F
100
AcDbEntity
  8
freecads.com
100
AcDbLine
 10
104466.9037864464
 20
95254.29541975855
 30
0.0
 11
104466.9066993022
 21
95254.29487025485
 31
0.0
  0
LINE
  5
68C74
330
1F
100
AcDbEntity
  8
freecads.com
100
AcDbLine
 10
104466.9066993022
 20
95254.29487025485
 30
0.0
 11
104466.9082849434
 21
95254.29504554955
 31
0.0
  0
LINE
  5
68C75
330
1F
100
AcDbEntity
  8
freecads.com
100
AcDbLine
 10
104466.9082849434
 20
95254.29504554955
 30
0.0
 11
104466.9058602265
 21
95254.29956048764
 31
0.0
  0
LINE
  5
68C76
330
1F
100
AcDbEntity
  8
freecads.com
100
AcDbLine
 10
104466.9058602265
 20
95254.29956048764
 30
0.0
 11
104466.9021467348
 21
95254.30474580634
 31
0.0
  0
LINE
  5
68C77
330
1F
100
AcDbEntity
  8
freecads.com
100
AcDbLine
 10
104466.9021467348
 20
95254.30474580634
 30
0.0
 11
104466.8995833106
 21
95254.30828724529
 31
0.0
  0
LINE
  5
68C78
330
1F
100
AcDbEntity
  8
freecads.com
100
AcDbLine
 10
104466.8995833106
 20
95254.30828724529
 30
0.0
 11
104466.8984382218
 21
95254.31136636475
 31
0.0
  0
LINE
  5
68C79
330
1F
100
AcDbEntity
  8
freecads.com
100
AcDbLine
 10
104466.8984382218
 20
95254.31136636475
 30
0.0
 11
104466.8972486725
 21
95254.31405726553
 31
0.0
  0
LINE
  5
68C7A
330
1F
100
AcDbEntity
  8
freecads.com
100
AcDbLine
 10
104466.8972486725
 20
95254.31405726553
 30
0.0
 11
104466.8961931993
 21
95254.31638877748
 31
0.0
  0
LINE
  5
68C7B
330
1F
100
AcDbEntity
  8
freecads.com
100
AcDbLine
 10
104466.8961931993
 20
95254.31638877748
 30
0.0
 11
104466.8964298588
 21
95254.31862766344
 31
0.0
  0
LINE
  5
68C7C
330
1F
100
AcDbEntity
  8
freecads.com
100
AcDbLine
 10
104466.8964298588
 20
95254.31862766344
 30
0.0
 11
104466.8985007443
 21
95254.31892094047
 31
0.0
  0
LINE
  5
68C7D
330
1F
100
AcDbEntity
  8
freecads.com
100
AcDbLine
 10
104466.8985007443
 20
95254.31892094047
 30
0.0
 11
104466.900199505
 21
95254.31993160582
 31
0.0
  0
LINE
  5
68C7E
330
1F
100
AcDbEntity
  8
freecads.com
100
AcDbLine
 10
104466.900199505
 20
95254.31993160582
 30
0.0
 11
104466.8991302537
 21
95254.325350342
 31
0.0
  0
LINE
  5
68C7F
330
1F
100
AcDbEntity
  8
freecads.com
100
AcDbLine
 10
104466.8991302537
 20
95254.325350342
 30
0.0
 11
104466.896676707
 21
95254.33132552882
 31
0.0
  0
LINE
  5
68C80
330
1F
100
AcDbEntity
  8
freecads.com
100
AcDbLine
 10
104466.896676707
 20
95254.33132552882
 30
0.0
 11
104466.8947197514
 21
95254.33512145767
 31
0.0
  0
LINE
  5
68C81
330
1F
100
AcDbEntity
  8
freecads.com
100
AcDbLine
 10
104466.8947197514
 20
95254.33512145767
 30
0.0
 11
104466.8942530322
 21
95254.33610896651
 31
0.0
  0
LINE
  5
68C82
330
1F
100
AcDbEntity
  8
freecads.com
100
AcDbLine
 10
104466.8942530322
 20
95254.33610896651
 30
0.0
 11
104466.8931689608
 21
95254.34089020434
 31
0.0
  0
LINE
  5
68C83
330
1F
100
AcDbEntity
  8
freecads.com
100
AcDbLine
 10
104466.8931689608
 20
95254.34089020434
 30
0.0
 11
104466.8924105855
 21
95254.34174155295
 31
0.0
  0
LINE
  5
68C84
330
1F
100
AcDbEntity
  8
freecads.com
100
AcDbLine
 10
104466.8924105855
 20
95254.34174155295
 30
0.0
 11
104466.8887891408
 21
95254.34403960376
 31
0.0
  0
LINE
  5
68C85
330
1F
100
AcDbEntity
  8
freecads.com
100
AcDbLine
 10
104466.8887891408
 20
95254.34403960376
 30
0.0
 11
104466.8868776878
 21
95254.34610053205
 31
0.0
  0
LINE
  5
68C86
330
1F
100
AcDbEntity
  8
freecads.com
100
AcDbLine
 10
104466.8868776878
 20
95254.34610053205
 30
0.0
 11
104466.8904740076
 21
95254.34607216533
 31
0.0
  0
LINE
  5
68C87
330
1F
100
AcDbEntity
  8
freecads.com
100
AcDbLine
 10
104466.8904740076
 20
95254.34607216533
 30
0.0
 11
104466.8934790263
 21
95254.346214462
 31
0.0
  0
LINE
  5
68C88
330
1F
100
AcDbEntity
  8
freecads.com
100
AcDbLine
 10
104466.8934790263
 20
95254.346214462
 30
0.0
 11
104466.8963972081
 21
95254.34606162912
 31
0.0
  0
LINE
  5
68C89
330
1F
100
AcDbEntity
  8
freecads.com
100
AcDbLine
 10
104466.8963972081
 20
95254.34606162912
 30
0.0
 11
104466.9004038611
 21
95254.34498218899
 31
0.0
  0
LINE
  5
68C8A
330
1F
100
AcDbEntity
  8
freecads.com
100
AcDbLine
 10
104466.9004038611
 20
95254.34498218899
 30
0.0
 11
104466.9037533326
 21
95254.34410594712
 31
0.0
  0
LINE
  5
68C8B
330
1F
100
AcDbEntity
  8
freecads.com
100
AcDbLine
 10
104466.9037533326
 20
95254.34410594712
 30
0.0
 11
104466.9067291741
 21
95254.34344679743
 31
0.0
  0
LINE
  5
68C8C
330
1F
100
AcDbEntity
  8
freecads.com
100
AcDbLine
 10
104466.9067291741
 20
95254.34344679743
 30
0.0
 11
104466.9093441216
 21
95254.34295321668
 31
0.0
  0
LINE
  5
68C8D
330
1F
100
AcDbEntity
  8
freecads.com
100
AcDbLine
 10
104466.9093441216
 20
95254.34295321668
 30
0.0
 11
104466.9108783553
 21
95254.34289520966
 31
0.0
  0
LINE
  5
68C8E
330
1F
100
AcDbEntity
  8
freecads.com
100
AcDbLine
 10
104466.9108783553
 20
95254.34289520966
 30
0.0
 11
104466.9137486032
 21
95254.34271736775
 31
0.0
  0
LINE
  5
68C8F
330
1F
100
AcDbEntity
  8
freecads.com
100
AcDbLine
 10
104466.9137486032
 20
95254.34271736775
 30
0.0
 11
104466.9177771391
 21
95254.34214528649
 31
0.0
  0
LINE
  5
68C90
330
1F
100
AcDbEntity
  8
freecads.com
100
AcDbLine
 10
104466.9177771391
 20
95254.34214528649
 30
0.0
 11
104466.9192928476
 21
95254.34153140775
 31
0.0
  0
LINE
  5
68C91
330
1F
100
AcDbEntity
  8
freecads.com
100
AcDbLine
 10
104466.9192928476
 20
95254.34153140775
 30
0.0
 11
104466.9232050221
 21
95254.34091150831
 31
0.0
  0
LINE
  5
68C92
330
1F
100
AcDbEntity
  8
freecads.com
100
AcDbLine
 10
104466.9232050221
 20
95254.34091150831
 30
0.0
 11
104466.9311905402
 21
95254.34037358285
 31
0.0
  0
LINE
  5
68C93
330
1F
100
AcDbEntity
  8
freecads.com
100
AcDbLine
 10
104466.9311905402
 20
95254.34037358285
 30
0.0
 11
104466.9370206516
 21
95254.34014873328
 31
0.0
  0
LINE
  5
68C94
330
1F
100
AcDbEntity
  8
freecads.com
100
AcDbLine
 10
104466.9370206516
 20
95254.34014873328
 30
0.0
 11
104466.9395914859
 21
95254.34010763049
 31
0.0
  0
LINE
  5
68C95
330
1F
100
AcDbEntity
  8
freecads.com
100
AcDbLine
 10
104466.9395914859
 20
95254.34010763049
 30
0.0
 11
104466.9419180192
 21
95254.3411330002
 31
0.0
  0
LINE
  5
68C96
330
1F
100
AcDbEntity
  8
freecads.com
100
AcDbLine
 10
104466.9419180192
 20
95254.3411330002
 30
0.0
 11
104466.9449922758
 21
95254.34198550666
 31
0.0
  0
LINE
  5
68C97
330
1F
100
AcDbEntity
  8
freecads.com
100
AcDbLine
 10
104466.9449922758
 20
95254.34198550666
 30
0.0
 11
104466.9485120635
 21
95254.3420665544
 31
0.0
  0
LINE
  5
68C98
330
1F
100
AcDbEntity
  8
freecads.com
100
AcDbLine
 10
104466.9485120635
 20
95254.3420665544
 30
0.0
 11
104466.9513603126
 21
95254.34087028974
 31
0.0
  0
LINE
  5
68C99
330
1F
100
AcDbEntity
  8
freecads.com
100
AcDbLine
 10
104466.9513603126
 20
95254.34087028974
 30
0.0
 11
104466.9527226094
 21
95254.3399191366
 31
0.0
  0
LINE
  5
68C9A
330
1F
100
AcDbEntity
  8
freecads.com
100
AcDbLine
 10
104466.9527226094
 20
95254.3399191366
 30
0.0
 11
104466.9537543471
 21
95254.3418642824
 31
0.0
  0
LINE
  5
68C9B
330
1F
100
AcDbEntity
  8
freecads.com
100
AcDbLine
 10
104466.9537543471
 20
95254.3418642824
 30
0.0
 11
104466.9547789064
 21
95254.34541614176
 31
0.0
  0
LINE
  5
68C9C
330
1F
100
AcDbEntity
  8
freecads.com
100
AcDbLine
 10
104466.9547789064
 20
95254.34541614176
 30
0.0
 11
104466.9554110788
 21
95254.34746676539
 31
0.0
  0
LINE
  5
68C9D
330
1F
100
AcDbEntity
  8
freecads.com
100
AcDbLine
 10
104466.9554110788
 20
95254.34746676539
 30
0.0
 11
104466.9556211082
 21
95254.34810901083
 31
0.0
  0
LINE
  5
68C9E
330
1F
100
AcDbEntity
  8
freecads.com
100
AcDbLine
 10
104466.9556211082
 20
95254.34810901083
 30
0.0
 11
104466.9556211082
 21
95254.35185480588
 31
0.0
  0
LINE
  5
68C9F
330
1F
100
AcDbEntity
  8
freecads.com
100
AcDbLine
 10
104466.9556211082
 20
95254.35185480588
 30
0.0
 11
104466.9556227291
 21
95254.35297534878
 31
0.0
  0
LINE
  5
68CA0
330
1F
100
AcDbEntity
  8
freecads.com
100
AcDbLine
 10
104466.9556227291
 20
95254.35297534878
 30
0.0
 11
104466.9556633688
 21
95254.35393842752
 31
0.0
  0
LINE
  5
68CA1
330
1F
100
AcDbEntity
  8
freecads.com
100
AcDbLine
 10
104466.9556633688
 20
95254.35393842752
 30
0.0
 11
104466.9550184603
 21
95254.35630120073
 31
0.0
  0
LINE
  5
68CA2
330
1F
100
AcDbEntity
  8
freecads.com
100
AcDbLine
 10
104466.9550184603
 20
95254.35630120073
 30
0.0
 11
104466.9526875273
 21
95254.35971006873
 31
0.0
  0
LINE
  5
68CA3
330
1F
100
AcDbEntity
  8
freecads.com
100
AcDbLine
 10
104466.9526875273
 20
95254.35971006873
 30
0.0
 11
104466.9499878271
 21
95254.36291654894
 31
0.0
  0
LINE
  5
68CA4
330
1F
100
AcDbEntity
  8
freecads.com
100
AcDbLine
 10
104466.9499878271
 20
95254.36291654894
 30
0.0
 11
104466.9476616411
 21
95254.36546005861
 31
0.0
  0
LINE
  5
68CA5
330
1F
100
AcDbEntity
  8
freecads.com
100
AcDbLine
 10
104466.9476616411
 20
95254.36546005861
 30
0.0
 11
104466.9452745536
 21
95254.36745638026
 31
0.0
  0
LINE
  5
68CA6
330
1F
100
AcDbEntity
  8
freecads.com
100
AcDbLine
 10
104466.9452745536
 20
95254.36745638026
 30
0.0
 11
104466.9430207316
 21
95254.36879471003
 31
0.0
  0
LINE
  5
68CA7
330
1F
100
AcDbEntity
  8
freecads.com
100
AcDbLine
 10
104466.9430207316
 20
95254.36879471003
 30
0.0
 11
104466.9410218628
 21
95254.37023828608
 31
0.0
  0
LINE
  5
68CA8
330
1F
100
AcDbEntity
  8
freecads.com
100
AcDbLine
 10
104466.9410218628
 20
95254.37023828608
 30
0.0
 11
104466.9391317137
 21
95254.3728820634
 31
0.0
  0
LINE
  5
68CA9
330
1F
100
AcDbEntity
  8
freecads.com
100
AcDbLine
 10
104466.9391317137
 20
95254.3728820634
 30
0.0
 11
104466.9371982619
 21
95254.37598978115
 31
0.0
  0
LINE
  5
68CAA
330
1F
100
AcDbEntity
  8
freecads.com
100
AcDbLine
 10
104466.9371982619
 20
95254.37598978115
 30
0.0
 11
104466.9357374343
 21
95254.37824371882
 31
0.0
  0
LINE
  5
68CAB
330
1F
100
AcDbEntity
  8
freecads.com
100
AcDbLine
 10
104466.9357374343
 20
95254.37824371882
 30
0.0
 11
104466.9353286063
 21
95254.37902837674
 31
0.0
  0
LINE
  5
68CAC
330
1F
100
AcDbEntity
  8
freecads.com
100
AcDbLine
 10
104466.9353286063
 20
95254.37902837674
 30
0.0
 11
104466.933755817
 21
95254.38534500612
 31
0.0
  0
LINE
  5
68CAD
330
1F
100
AcDbEntity
  8
freecads.com
100
AcDbLine
 10
104466.933755817
 20
95254.38534500612
 30
0.0
 11
104466.9335550502
 21
95254.38627913922
 31
0.0
  0
LINE
  5
68CAE
330
1F
100
AcDbEntity
  8
freecads.com
100
AcDbLine
 10
104466.9335550502
 20
95254.38627913922
 30
0.0
 11
104466.9335550502
 21
95254.38998869434
 31
0.0
  0
LINE
  5
68CAF
330
1F
100
AcDbEntity
  8
freecads.com
100
AcDbLine
 10
104466.9335550502
 20
95254.38998869434
 30
0.0
 11
104466.9336756955
 21
95254.3929091918
 31
0.0
  0
LINE
  5
68CB0
330
1F
100
AcDbEntity
  8
freecads.com
100
AcDbLine
 10
104466.9336756955
 20
95254.3929091918
 30
0.0
 11
104466.9344653321
 21
95254.39492473333
 31
0.0
  0
LINE
  5
68CB1
330
1F
100
AcDbEntity
  8
freecads.com
100
AcDbLine
 10
104466.9344653321
 20
95254.39492473333
 30
0.0
 11
104466.9352639997
 21
95254.39584775131
 31
0.0
  0
LINE
  5
68CB2
330
1F
100
AcDbEntity
  8
freecads.com
100
AcDbLine
 10
104466.9352639997
 20
95254.39584775131
 30
0.0
 11
104466.9348393095
 21
95254.39623307544
 31
0.0
  0
LINE
  5
68CB3
330
1F
100
AcDbEntity
  8
freecads.com
100
AcDbLine
 10
104466.9348393095
 20
95254.39623307544
 30
0.0
 11
104466.9329517076
 21
95254.39736878587
 31
0.0
  0
LINE
  5
68CB4
330
1F
100
AcDbEntity
  8
freecads.com
100
AcDbLine
 10
104466.9329517076
 20
95254.39736878587
 30
0.0
 11
104466.934994458
 21
95254.39709843375
 31
0.0
  0
LINE
  5
68CB5
330
1F
100
AcDbEntity
  8
freecads.com
100
AcDbLine
 10
104466.934994458
 20
95254.39709843375
 30
0.0
 11
104466.9430492142
 21
95254.39408623658
 31
0.0
  0
LINE
  5
68CB6
330
1F
100
AcDbEntity
  8
freecads.com
100
AcDbLine
 10
104466.9430492142
 20
95254.39408623658
 30
0.0
 11
104466.9462665779
 21
95254.39223580086
 31
0.0
  0
LINE
  5
68CB7
330
1F
100
AcDbEntity
  8
freecads.com
100
AcDbLine
 10
104466.9462665779
 20
95254.39223580086
 30
0.0
 11
104466.9491717921
 21
95254.39160895446
 31
0.0
  0
LINE
  5
68CB8
330
1F
100
AcDbEntity
  8
freecads.com
100
AcDbLine
 10
104466.9491717921
 20
95254.39160895446
 30
0.0
 11
104466.9549044146
 21
95254.39179675366
 31
0.0
  0
LINE
  5
68CB9
330
1F
100
AcDbEntity
  8
freecads.com
100
AcDbLine
 10
104466.9549044146
 20
95254.39179675366
 30
0.0
 11
104466.9578536261
 21
95254.39248091238
 31
0.0
  0
LINE
  5
68CBA
330
1F
100
AcDbEntity
  8
freecads.com
100
AcDbLine
 10
104466.9578536261
 20
95254.39248091238
 30
0.0
 11
104466.9624110564
 21
95254.39252722536
 31
0.0
  0
LINE
  5
68CBB
330
1F
100
AcDbEntity
  8
freecads.com
100
AcDbLine
 10
104466.9624110564
 20
95254.39252722536
 30
0.0
 11
104466.9689818283
 21
95254.39145971084
 31
0.0
  0
LINE
  5
68CBC
330
1F
100
AcDbEntity
  8
freecads.com
100
AcDbLine
 10
104466.9689818283
 20
95254.39145971084
 30
0.0
 11
104466.9706598639
 21
95254.39059030015
 31
0.0
  0
LINE
  5
68CBD
330
1F
100
AcDbEntity
  8
freecads.com
100
AcDbLine
 10
104466.9706598639
 20
95254.39059030015
 30
0.0
 11
104466.9752568918
 21
95254.3898844901
 31
0.0
  0
LINE
  5
68CBE
330
1F
100
AcDbEntity
  8
freecads.com
100
AcDbLine
 10
104466.9752568918
 20
95254.3898844901
 30
0.0
 11
104466.985104887
 21
95254.38921920393
 31
0.0
  0
LINE
  5
68CBF
330
1F
100
AcDbEntity
  8
freecads.com
100
AcDbLine
 10
104466.985104887
 20
95254.38921920393
 30
0.0
 11
104466.990876644
 21
95254.38844427174
 31
0.0
  0
LINE
  5
68CC0
330
1F
100
AcDbEntity
  8
freecads.com
100
AcDbLine
 10
104466.990876644
 20
95254.38844427174
 30
0.0
 11
104466.9943462978
 21
95254.3879850784
 31
0.0
  0
LINE
  5
68CC1
330
1F
100
AcDbEntity
  8
freecads.com
100
AcDbLine
 10
104466.9943462978
 20
95254.3879850784
 30
0.0
 11
104466.9972611219
 21
95254.38867178433
 31
0.0
  0
LINE
  5
68CC2
330
1F
100
AcDbEntity
  8
freecads.com
100
AcDbLine
 10
104466.9972611219
 20
95254.38867178433
 30
0.0
 11
104466.9994013612
 21
95254.39042334181
 31
0.0
  0
LINE
  5
68CC3
330
1F
100
AcDbEntity
  8
freecads.com
100
AcDbLine
 10
104466.9994013612
 20
95254.39042334181
 30
0.0
 11
104467.0003309788
 21
95254.39156078896
 31
0.0
  0
LINE
  5
68CC4
330
1F
100
AcDbEntity
  8
freecads.com
100
AcDbLine
 10
104467.0003309788
 20
95254.39156078896
 30
0.0
 11
104467.0003256528
 21
95254.393271591
 31
0.0
  0
LINE
  5
68CC5
330
1F
100
AcDbEntity
  8
freecads.com
100
AcDbLine
 10
104467.0003256528
 20
95254.393271591
 30
0.0
 11
104467.0001952817
 21
95254.39748260005
 31
0.0
  0
LINE
  5
68CC6
330
1F
100
AcDbEntity
  8
freecads.com
100
AcDbLine
 10
104467.0001952817
 20
95254.39748260005
 30
0.0
 11
104466.9998206096
 21
95254.4013334098
 31
0.0
  0
LINE
  5
68CC7
330
1F
100
AcDbEntity
  8
freecads.com
100
AcDbLine
 10
104466.9998206096
 20
95254.4013334098
 30
0.0
 11
104466.9991942263
 21
95254.4032288849
 31
0.0
  0
LINE
  5
68CC8
330
1F
100
AcDbEntity
  8
freecads.com
100
AcDbLine
 10
104466.9991942263
 20
95254.4032288849
 30
0.0
 11
104466.9987346857
 21
95254.40468531281
 31
0.0
  0
LINE
  5
68CC9
330
1F
100
AcDbEntity
  8
freecads.com
100
AcDbLine
 10
104466.9987346857
 20
95254.40468531281
 30
0.0
 11
104466.9985602014
 21
95254.40700918311
 31
0.0
  0
LINE
  5
68CCA
330
1F
100
AcDbEntity
  8
freecads.com
100
AcDbLine
 10
104466.9985602014
 20
95254.40700918311
 30
0.0
 11
104466.9982040545
 21
95254.40929658193
 31
0.0
  0
LINE
  5
68CCB
330
1F
100
AcDbEntity
  8
freecads.com
100
AcDbLine
 10
104466.9982040545
 20
95254.40929658193
 30
0.0
 11
104466.9975695665
 21
95254.41127298899
 31
0.0
  0
LINE
  5
68CCC
330
1F
100
AcDbEntity
  8
freecads.com
100
AcDbLine
 10
104466.9975695665
 20
95254.41127298899
 30
0.0
 11
104466.9972664479
 21
95254.41465360605
 31
0.0
  0
LINE
  5
68CCD
330
1F
100
AcDbEntity
  8
freecads.com
100
AcDbLine
 10
104466.9972664479
 20
95254.41465360605
 30
0.0
 11
104466.9972628587
 21
95254.42588879128
 31
0.0
  0
LINE
  5
68CCE
330
1F
100
AcDbEntity
  8
freecads.com
100
AcDbLine
 10
104466.9972628587
 20
95254.42588879128
 30
0.0
 11
104466.9970763331
 21
95254.42966538445
 31
0.0
  0
LINE
  5
68CCF
330
1F
100
AcDbEntity
  8
freecads.com
100
AcDbLine
 10
104466.9970763331
 20
95254.42966538445
 30
0.0
 11
104466.9968005392
 21
95254.43205189308
 31
0.0
  0
LINE
  5
68CD0
330
1F
100
AcDbEntity
  8
freecads.com
100
AcDbLine
 10
104466.9968005392
 20
95254.43205189308
 30
0.0
 11
104466.9967291014
 21
95254.43275747155
 31
0.0
  0
LINE
  5
68CD1
330
1F
100
AcDbEntity
  8
freecads.com
100
AcDbLine
 10
104466.9967291014
 20
95254.43275747155
 30
0.0
 11
104466.9987463797
 21
95254.43682178421
 31
0.0
  0
LINE
  5
68CD2
330
1F
100
AcDbEntity
  8
freecads.com
100
AcDbLine
 10
104466.9987463797
 20
95254.43682178421
 30
0.0
 11
104466.9993902461
 21
95254.43762137806
 31
0.0
  0
LINE
  5
68CD3
330
1F
100
AcDbEntity
  8
freecads.com
100
AcDbLine
 10
104466.9993902461
 20
95254.43762137806
 30
0.0
 11
104467.0091813921
 21
95254.43862694896
 31
0.0
  0
LINE
  5
68CD4
330
1F
100
AcDbEntity
  8
freecads.com
100
AcDbLine
 10
104467.0091813921
 20
95254.43862694896
 30
0.0
 11
104467.0108931204
 21
95254.43877572946
 31
0.0
  0
LINE
  5
68CD5
330
1F
100
AcDbEntity
  8
freecads.com
100
AcDbLine
 10
104467.0108931204
 20
95254.43877572946
 30
0.0
 11
104467.0127092845
 21
95254.43900092641
 31
0.0
  0
LINE
  5
68CD6
330
1F
100
AcDbEntity
  8
freecads.com
100
AcDbLine
 10
104467.0127092845
 20
95254.43900092641
 30
0.0
 11
104467.0151987238
 21
95254.44071578082
 31
0.0
  0
LINE
  5
68CD7
330
1F
100
AcDbEntity
  8
freecads.com
100
AcDbLine
 10
104467.0151987238
 20
95254.44071578082
 30
0.0
 11
104467.0167125798
 21
95254.44501339519
 31
0.0
  0
LINE
  5
68CD8
330
1F
100
AcDbEntity
  8
freecads.com
100
AcDbLine
 10
104467.0167125798
 20
95254.44501339519
 30
0.0
 11
104467.017330974
 21
95254.44964770503
 31
0.0
  0
LINE
  5
68CD9
330
1F
100
AcDbEntity
  8
freecads.com
100
AcDbLine
 10
104467.017330974
 20
95254.44964770503
 30
0.0
 11
104467.0175024479
 21
95254.45459624853
 31
0.0
  0
LINE
  5
68CDA
330
1F
100
AcDbEntity
  8
freecads.com
100
AcDbLine
 10
104467.0175024479
 20
95254.45459624853
 30
0.0
 11
104467.0176826055
 21
95254.4601355143
 31
0.0
  0
LINE
  5
68CDB
330
1F
100
AcDbEntity
  8
freecads.com
100
AcDbLine
 10
104467.0176826055
 20
95254.4601355143
 30
0.0
 11
104467.0184107616
 21
95254.46361500961
 31
0.0
  0
LINE
  5
68CDC
330
1F
100
AcDbEntity
  8
freecads.com
100
AcDbLine
 10
104467.0184107616
 20
95254.46361500961
 30
0.0
 11
104467.0175026795
 21
95254.46809092901
 31
0.0
  0
LINE
  5
68CDD
330
1F
100
AcDbEntity
  8
freecads.com
100
AcDbLine
 10
104467.0175026795
 20
95254.46809092901
 30
0.0
 11
104467.0131909397
 21
95254.47627895072
 31
0.0
  0
LINE
  5
68CDE
330
1F
100
AcDbEntity
  8
freecads.com
100
AcDbLine
 10
104467.0131909397
 20
95254.47627895072
 30
0.0
 11
104467.0063928867
 21
95254.48664657776
 31
0.0
  0
LINE
  5
68CDF
330
1F
100
AcDbEntity
  8
freecads.com
100
AcDbLine
 10
104467.0063928867
 20
95254.48664657776
 30
0.0
 11
104467.0050983227
 21
95254.48959961011
 31
0.0
  0
LINE
  5
68CE0
330
1F
100
AcDbEntity
  8
freecads.com
100
AcDbLine
 10
104467.0050983227
 20
95254.48959961011
 30
0.0
 11
104467.0029666513
 21
95254.49279682772
 31
0.0
  0
LINE
  5
68CE1
330
1F
100
AcDbEntity
  8
freecads.com
100
AcDbLine
 10
104467.0029666513
 20
95254.49279682772
 30
0.0
 11
104467.0028548055
 21
95254.49331495433
 31
0.0
  0
LINE
  5
68CE2
330
1F
100
AcDbEntity
  8
freecads.com
100
AcDbLine
 10
104467.0028548055
 20
95254.49331495433
 30
0.0
 11
104467.0071572827
 21
95254.48918105642
 31
0.0
  0
LINE
  5
68CE3
330
1F
100
AcDbEntity
  8
freecads.com
100
AcDbLine
 10
104467.0071572827
 20
95254.48918105642
 30
0.0
 11
104467.0127708808
 21
95254.48413942379
 31
0.0
  0
LINE
  5
68CE4
330
1F
100
AcDbEntity
  8
freecads.com
100
AcDbLine
 10
104467.0127708808
 20
95254.48413942379
 30
0.0
 11
104467.0176724166
 21
95254.47971190146
 31
0.0
  0
LINE
  5
68CE5
330
1F
100
AcDbEntity
  8
freecads.com
100
AcDbLine
 10
104467.0176724166
 20
95254.47971190146
 30
0.0
 11
104467.0209492926
 21
95254.47659144766
 31
0.0
  0
LINE
  5
68CE6
330
1F
100
AcDbEntity
  8
freecads.com
100
AcDbLine
 10
104467.0209492926
 20
95254.47659144766
 30
0.0
 11
104467.024061989
 21
95254.4741000401
 31
0.0
  0
LINE
  5
68CE7
330
1F
100
AcDbEntity
  8
freecads.com
100
AcDbLine
 10
104467.024061989
 20
95254.4741000401
 30
0.0
 11
104467.027186032
 21
95254.47226488767
 31
0.0
  0
LINE
  5
68CE8
330
1F
100
AcDbEntity
  8
freecads.com
100
AcDbLine
 10
104467.027186032
 20
95254.47226488767
 30
0.0
 11
104467.0296076228
 21
95254.4707718725
 31
0.0
  0
LINE
  5
68CE9
330
1F
100
AcDbEntity
  8
freecads.com
100
AcDbLine
 10
104467.0296076228
 20
95254.4707718725
 30
0.0
 11
104467.0314479854
 21
95254.46906327033
 31
0.0
  0
LINE
  5
68CEA
330
1F
100
AcDbEntity
  8
freecads.com
100
AcDbLine
 10
104467.0314479854
 20
95254.46906327033
 30
0.0
 11
104467.0362669683
 21
95254.46777403232
 31
0.0
  0
LINE
  5
68CEB
330
1F
100
AcDbEntity
  8
freecads.com
100
AcDbLine
 10
104467.0362669683
 20
95254.46777403232
 30
0.0
 11
104467.0431789512
 21
95254.46704853926
 31
0.0
  0
LINE
  5
68CEC
330
1F
100
AcDbEntity
  8
freecads.com
100
AcDbLine
 10
104467.0431789512
 20
95254.46704853926
 30
0.0
 11
104467.0465798303
 21
95254.46651455045
 31
0.0
  0
LINE
  5
68CED
330
1F
100
AcDbEntity
  8
freecads.com
100
AcDbLine
 10
104467.0465798303
 20
95254.46651455045
 30
0.0
 11
104467.0490006105
 21
95254.46688945413
 31
0.0
  0
LINE
  5
68CEE
330
1F
100
AcDbEntity
  8
freecads.com
100
AcDbLine
 10
104467.0490006105
 20
95254.46688945413
 30
0.0
 11
104467.0518759528
 21
95254.46772378273
 31
0.0
  0
LINE
  5
68CEF
330
1F
100
AcDbEntity
  8
freecads.com
100
AcDbLine
 10
104467.0518759528
 20
95254.46772378273
 30
0.0
 11
104467.0535635983
 21
95254.46878087684
 31
0.0
  0
LINE
  5
68CF0
330
1F
100
AcDbEntity
  8
freecads.com
100
AcDbLine
 10
104467.0535635983
 20
95254.46878087684
 30
0.0
 11
104467.0531889262
 21
95254.47221672214
 31
0.0
  0
LINE
  5
68CF1
330
1F
100
AcDbEntity
  8
freecads.com
100
AcDbLine
 10
104467.0531889262
 20
95254.47221672214
 30
0.0
 11
104467.0504121148
 21
95254.47942094009
 31
0.0
  0
LINE
  5
68CF2
330
1F
100
AcDbEntity
  8
freecads.com
100
AcDbLine
 10
104467.0504121148
 20
95254.47942094009
 30
0.0
 11
104467.0467185377
 21
95254.4880532192
 31
0.0
  0
LINE
  5
68CF3
330
1F
100
AcDbEntity
  8
freecads.com
100
AcDbLine
 10
104467.0467185377
 20
95254.4880532192
 30
0.0
 11
104467.0438858033
 21
95254.49459481396
 31
0.0
  0
LINE
  5
68CF4
330
1F
100
AcDbEntity
  8
freecads.com
100
AcDbLine
 10
104467.0438858033
 20
95254.49459481396
 30
0.0
 11
104467.0420489142
 21
95254.49805254215
 31
0.0
  0
LINE
  5
68CF5
330
1F
100
AcDbEntity
  8
freecads.com
100
AcDbLine
 10
104467.0420489142
 20
95254.49805254215
 30
0.0
 11
104467.0403513113
 21
95254.50095937728
 31
0.0
  0
LINE
  5
68CF6
330
1F
100
AcDbEntity
  8
freecads.com
100
AcDbLine
 10
104467.0403513113
 20
95254.50095937728
 30
0.0
 11
104467.0389305444
 21
95254.50537682653
 31
0.0
  0
LINE
  5
68CF7
330
1F
100
AcDbEntity
  8
freecads.com
100
AcDbLine
 10
104467.0389305444
 20
95254.50537682653
 30
0.0
 11
104467.0378999645
 21
95254.51094098553
 31
0.0
  0
LINE
  5
68CF8
330
1F
100
AcDbEntity
  8
freecads.com
100
AcDbLine
 10
104467.0378999645
 20
95254.51094098553
 30
0.0
 11
104467.037310979
 21
95254.51521208569
 31
0.0
  0
LINE
  5
68CF9
330
1F
100
AcDbEntity
  8
freecads.com
100
AcDbLine
 10
104467.037310979
 20
95254.51521208569
 30
0.0
 11
104467.0371493467
 21
95254.51667673415
 31
0.0
  0
LINE
  5
68CFA
330
1F
100
AcDbEntity
  8
freecads.com
100
AcDbLine
 10
104467.0371493467
 20
95254.51667673415
 30
0.0
 11
104467.0371493467
 21
95254.52010933756
 31
0.0
  0
LINE
  5
68CFB
330
1F
100
AcDbEntity
  8
freecads.com
100
AcDbLine
 10
104467.0371493467
 20
95254.52010933756
 30
0.0
 11
104467.037087403
 21
95254.52094517133
 31
0.0
  0
LINE
  5
68CFC
330
1F
100
AcDbEntity
  8
freecads.com
100
AcDbLine
 10
104467.037087403
 20
95254.52094517133
 30
0.0
 11
104467.0360568231
 21
95254.52175286996
 31
0.0
  0
LINE
  5
68CFD
330
1F
100
AcDbEntity
  8
freecads.com
100
AcDbLine
 10
104467.0360568231
 20
95254.52175286996
 30
0.0
 11
104467.0380970263
 21
95254.52099078963
 31
0.0
  0
LINE
  5
68CFE
330
1F
100
AcDbEntity
  8
freecads.com
100
AcDbLine
 10
104467.0380970263
 20
95254.52099078963
 30
0.0
 11
104467.0482480243
 21
95254.51559243117
 31
0.0
  0
LINE
  5
68CFF
330
1F
100
AcDbEntity
  8
freecads.com
100
AcDbLine
 10
104467.0482480243
 20
95254.51559243117
 30
0.0
 11
104467.0553968982
 21
95254.51170121332
 31
0.0
  0
LINE
  5
68D00
330
1F
100
AcDbEntity
  8
freecads.com
100
AcDbLine
 10
104467.0553968982
 20
95254.51170121332
 30
0.0
 11
104467.0588354065
 21
95254.50966564143
 31
0.0
  0
LINE
  5
68D01
330
1F
100
AcDbEntity
  8
freecads.com
100
AcDbLine
 10
104467.0588354065
 20
95254.50966564143
 30
0.0
 11
104467.0640199147
 21
95254.50616599997
 31
0.0
  0
LINE
  5
68D02
330
1F
100
AcDbEntity
  8
freecads.com
100
AcDbLine
 10
104467.0640199147
 20
95254.50616599997
 30
0.0
 11
104467.0657685776
 21
95254.50328347915
 31
0.0
  0
LINE
  5
68D03
330
1F
100
AcDbEntity
  8
freecads.com
100
AcDbLine
 10
104467.0657685776
 20
95254.50328347915
 30
0.0
 11
104467.0668836788
 21
95254.50248018026
 31
0.0
  0
LINE
  5
68D04
330
1F
100
AcDbEntity
  8
freecads.com
100
AcDbLine
 10
104467.0668836788
 20
95254.50248018026
 30
0.0
 11
104467.0729831002
 21
95254.50384340325
 31
0.0
  0
LINE
  5
68D05
330
1F
100
AcDbEntity
  8
freecads.com
100
AcDbLine
 10
104467.0729831002
 20
95254.50384340325
 30
0.0
 11
104467.0778246607
 21
95254.50530179949
 31
0.0
  0
LINE
  5
68D06
330
1F
100
AcDbEntity
  8
freecads.com
100
AcDbLine
 10
104467.0778246607
 20
95254.50530179949
 30
0.0
 11
104467.0797964365
 21
95254.50613358085
 31
0.0
  0
LINE
  5
68D07
330
1F
100
AcDbEntity
  8
freecads.com
100
AcDbLine
 10
104467.0797964365
 20
95254.50613358085
 30
0.0
 11
104467.0798836207
 21
95254.5066782217
 31
0.0
  0
LINE
  5
68D08
330
1F
100
AcDbEntity
  8
freecads.com
100
AcDbLine
 10
104467.0798836207
 20
95254.5066782217
 30
0.0
 11
104467.0788458622
 21
95254.50993842497
 31
0.0
  0
LINE
  5
68D09
330
1F
100
AcDbEntity
  8
freecads.com
100
AcDbLine
 10
104467.0788458622
 20
95254.50993842497
 30
0.0
 11
104467.0777688535
 21
95254.51455119926
 31
0.0
  0
LINE
  5
68D0A
330
1F
100
AcDbEntity
  8
freecads.com
100
AcDbLine
 10
104467.0777688535
 20
95254.51455119926
 30
0.0
 11
104467.0774409575
 21
95254.51856711484
 31
0.0
  0
LINE
  5
68D0B
330
1F
100
AcDbEntity
  8
freecads.com
100
AcDbLine
 10
104467.0774409575
 20
95254.51856711484
 30
0.0
 11
104467.0766531735
 21
95254.52212638427
 31
0.0
  0
LINE
  5
68D0C
330
1F
100
AcDbEntity
  8
freecads.com
100
AcDbLine
 10
104467.0766531735
 20
95254.52212638427
 30
0.0
 11
104467.0758891249
 21
95254.52435913376
 31
0.0
  0
LINE
  5
68D0D
330
1F
100
AcDbEntity
  8
freecads.com
100
AcDbLine
 10
104467.0758891249
 20
95254.52435913376
 30
0.0
 11
104467.0768847385
 21
95254.52469166106
 31
0.0
  0
LINE
  5
68D0E
330
1F
100
AcDbEntity
  8
freecads.com
100
AcDbLine
 10
104467.0768847385
 20
95254.52469166106
 30
0.0
 11
104467.0869087231
 21
95254.52524764856
 31
0.0
  0
LINE
  5
68D0F
330
1F
100
AcDbEntity
  8
freecads.com
100
AcDbLine
 10
104467.0869087231
 20
95254.52524764856
 30
0.0
 11
104467.0887799997
 21
95254.52379700977
 31
0.0
  0
LINE
  5
68D10
330
1F
100
AcDbEntity
  8
freecads.com
100
AcDbLine
 10
104467.0887799997
 20
95254.52379700977
 30
0.0
 11
104467.0987016326
 21
95254.51282326143
 31
0.0
  0
LINE
  5
68D11
330
1F
100
AcDbEntity
  8
freecads.com
100
AcDbLine
 10
104467.0987016326
 20
95254.51282326143
 30
0.0
 11
104467.0996689952
 21
95254.51164204849
 31
0.0
  0
LINE
  5
68D12
330
1F
100
AcDbEntity
  8
freecads.com
100
AcDbLine
 10
104467.0996689952
 20
95254.51164204849
 30
0.0
 11
104467.1017790153
 21
95254.50982461078
 31
0.0
  0
LINE
  5
68D13
330
1F
100
AcDbEntity
  8
freecads.com
100
AcDbLine
 10
104467.1017790153
 20
95254.50982461078
 30
0.0
 11
104467.1037036676
 21
95254.51106823046
 31
0.0
  0
LINE
  5
68D14
330
1F
100
AcDbEntity
  8
freecads.com
100
AcDbLine
 10
104467.1037036676
 20
95254.51106823046
 30
0.0
 11
104467.1051451595
 21
95254.51662416891
 31
0.0
  0
LINE
  5
68D15
330
1F
100
AcDbEntity
  8
freecads.com
100
AcDbLine
 10
104467.1051451595
 20
95254.51662416891
 30
0.0
 11
104467.1067783873
 21
95254.52234590787
 31
0.0
  0
LINE
  5
68D16
330
1F
100
AcDbEntity
  8
freecads.com
100
AcDbLine
 10
104467.1067783873
 20
95254.52234590787
 30
0.0
 11
104467.1041490828
 21
95254.53052848781
 31
0.0
  0
LINE
  5
68D17
330
1F
100
AcDbEntity
  8
freecads.com
100
AcDbLine
 10
104467.1041490828
 20
95254.53052848781
 30
0.0
 11
104467.0974071844
 21
95254.53889736178
 31
0.0
  0
LINE
  5
68D18
330
1F
100
AcDbEntity
  8
freecads.com
100
AcDbLine
 10
104467.0974071844
 20
95254.53889736178
 30
0.0
 11
104467.0935342602
 21
95254.54239434024
 31
0.0
  0
LINE
  5
68D19
330
1F
100
AcDbEntity
  8
freecads.com
100
AcDbLine
 10
104467.0935342602
 20
95254.54239434024
 30
0.0
 11
104467.0913450449
 21
95254.54695744386
 31
0.0
  0
LINE
  5
68D1A
330
1F
100
AcDbEntity
  8
freecads.com
100
AcDbLine
 10
104467.0913450449
 20
95254.54695744386
 30
0.0
 11
104467.0885115001
 21
95254.55535838956
 31
0.0
  0
LINE
  5
68D1B
330
1F
100
AcDbEntity
  8
freecads.com
100
AcDbLine
 10
104467.0885115001
 20
95254.55535838956
 30
0.0
 11
104467.0857576136
 21
95254.56145271657
 31
0.0
  0
LINE
  5
68D1C
330
1F
100
AcDbEntity
  8
freecads.com
100
AcDbLine
 10
104467.0857576136
 20
95254.56145271657
 30
0.0
 11
104467.0875645151
 21
95254.55954821044
 31
0.0
  0
LINE
  5
68D1D
330
1F
100
AcDbEntity
  8
freecads.com
100
AcDbLine
 10
104467.0875645151
 20
95254.55954821044
 30
0.0
 11
104467.0920530548
 21
95254.55361053714
 31
0.0
  0
LINE
  5
68D1E
330
1F
100
AcDbEntity
  8
freecads.com
100
AcDbLine
 10
104467.0920530548
 20
95254.55361053714
 30
0.0
 11
104467.0951700351
 21
95254.55010313827
 31
0.0
  0
LINE
  5
68D1F
330
1F
100
AcDbEntity
  8
freecads.com
100
AcDbLine
 10
104467.0951700351
 20
95254.55010313827
 30
0.0
 11
104467.1013664823
 21
95254.54252772167
 31
0.0
  0
LINE
  5
68D20
330
1F
100
AcDbEntity
  8
freecads.com
100
AcDbLine
 10
104467.1013664823
 20
95254.54252772167
 30
0.0
 11
104467.1102960909
 21
95254.52929725684
 31
0.0
  0
LINE
  5
68D21
330
1F
100
AcDbEntity
  8
freecads.com
100
AcDbLine
 10
104467.1102960909
 20
95254.52929725684
 30
0.0
 11
104467.1168958084
 21
95254.51728690786
 31
0.0
  0
LINE
  5
68D22
330
1F
100
AcDbEntity
  8
freecads.com
100
AcDbLine
 10
104467.1168958084
 20
95254.51728690786
 30
0.0
 11
104467.119305242
 21
95254.51240204473
 31
0.0
  0
LINE
  5
68D23
330
1F
100
AcDbEntity
  8
freecads.com
100
AcDbLine
 10
104467.119305242
 20
95254.51240204473
 30
0.0
 11
104467.1294817121
 21
95254.50920077473
 31
0.0
  0
LINE
  5
68D24
330
1F
100
AcDbEntity
  8
freecads.com
100
AcDbLine
 10
104467.1294817121
 20
95254.50920077473
 30
0.0
 11
104467.130434602
 21
95254.51761190931
 31
0.0
  0
LINE
  5
68D25
330
1F
100
AcDbEntity
  8
freecads.com
100
AcDbLine
 10
104467.130434602
 20
95254.51761190931
 30
0.0
 11
104467.1310285662
 21
95254.52583698143
 31
0.0
  0
LINE
  5
68D26
330
1F
100
AcDbEntity
  8
freecads.com
100
AcDbLine
 10
104467.1310285662
 20
95254.52583698143
 30
0.0
 11
104467.1314442253
 21
95254.53100713262
 31
0.0
  0
LINE
  5
68D27
330
1F
100
AcDbEntity
  8
freecads.com
100
AcDbLine
 10
104467.1314442253
 20
95254.53100713262
 30
0.0
 11
104467.1315544502
 21
95254.53812150335
 31
0.0
  0
LINE
  5
68D28
330
1F
100
AcDbEntity
  8
freecads.com
100
AcDbLine
 10
104467.1315544502
 20
95254.53812150335
 30
0.0
 11
104467.1313211485
 21
95254.54312446461
 31
0.0
  0
LINE
  5
68D29
330
1F
100
AcDbEntity
  8
freecads.com
100
AcDbLine
 10
104467.1313211485
 20
95254.54312446461
 30
0.0
 11
104467.1301683023
 21
95254.54780230866
 31
0.0
  0
LINE
  5
68D2A
330
1F
100
AcDbEntity
  8
freecads.com
100
AcDbLine
 10
104467.1301683023
 20
95254.54780230866
 30
0.0
 11
104467.1276313922
 21
95254.55711168378
 31
0.0
  0
LINE
  5
68D2B
330
1F
100
AcDbEntity
  8
freecads.com
100
AcDbLine
 10
104467.1276313922
 20
95254.55711168378
 30
0.0
 11
104467.1261995102
 21
95254.56218793538
 31
0.0
  0
LINE
  5
68D2C
330
1F
100
AcDbEntity
  8
freecads.com
100
AcDbLine
 10
104467.1261995102
 20
95254.56218793538
 30
0.0
 11
104467.1243807989
 21
95254.56670588381
 31
0.0
  0
LINE
  5
68D2D
330
1F
100
AcDbEntity
  8
freecads.com
100
AcDbLine
 10
104467.1243807989
 20
95254.56670588381
 30
0.0
 11
104467.1199602235
 21
95254.57833658201
 31
0.0
  0
LINE
  5
68D2E
330
1F
100
AcDbEntity
  8
freecads.com
100
AcDbLine
 10
104467.1199602235
 20
95254.57833658201
 30
0.0
 11
104467.1174791206
 21
95254.58561026942
 31
0.0
  0
LINE
  5
68D2F
330
1F
100
AcDbEntity
  8
freecads.com
100
AcDbLine
 10
104467.1174791206
 20
95254.58561026942
 30
0.0
 11
104467.1167148404
 21
95254.58925741778
 31
0.0
  0
LINE
  5
68D30
330
1F
100
AcDbEntity
  8
freecads.com
100
AcDbLine
 10
104467.1167148404
 20
95254.58925741778
 30
0.0
 11
104467.1157127429
 21
95254.59476356974
 31
0.0
  0
LINE
  5
68D31
330
1F
100
AcDbEntity
  8
freecads.com
100
AcDbLine
 10
104467.1157127429
 20
95254.59476356974
 30
0.0
 11
104467.1148493529
 21
95254.60084712898
 31
0.0
  0
LINE
  5
68D32
330
1F
100
AcDbEntity
  8
freecads.com
100
AcDbLine
 10
104467.1148493529
 20
95254.60084712898
 30
0.0
 11
104467.1144377462
 21
95254.60489905292
 31
0.0
  0
LINE
  5
68D33
330
1F
100
AcDbEntity
  8
freecads.com
100
AcDbLine
 10
104467.1144377462
 20
95254.60489905292
 30
0.0
 11
104467.1174692791
 21
95254.60253326933
 31
0.0
  0
LINE
  5
68D34
330
1F
100
AcDbEntity
  8
freecads.com
100
AcDbLine
 10
104467.1174692791
 20
95254.60253326933
 30
0.0
 11
104467.1221532596
 21
95254.59836868906
 31
0.0
  0
LINE
  5
68D35
330
1F
100
AcDbEntity
  8
freecads.com
100
AcDbLine
 10
104467.1221532596
 20
95254.59836868906
 30
0.0
 11
104467.1244924132
 21
95254.59653978888
 31
0.0
  0
LINE
  5
68D36
330
1F
100
AcDbEntity
  8
freecads.com
100
AcDbLine
 10
104467.1244924132
 20
95254.59653978888
 30
0.0
 11
104467.1246183845
 21
95254.5964325743
 31
0.0
  0
LINE
  5
68D37
330
1F
100
AcDbEntity
  8
freecads.com
100
AcDbLine
 10
104467.1246183845
 20
95254.5964325743
 30
0.0
 11
104467.124505844
 21
95254.5961278348
 31
0.0
  0
LINE
  5
68D38
330
1F
100
AcDbEntity
  8
freecads.com
100
AcDbLine
 10
104467.124505844
 20
95254.5961278348
 30
0.0
 11
104467.1262594855
 21
95254.59352539183
 31
0.0
  0
LINE
  5
68D39
330
1F
100
AcDbEntity
  8
freecads.com
100
AcDbLine
 10
104467.1262594855
 20
95254.59352539183
 30
0.0
 11
104467.1301849749
 21
95254.58852011491
 31
0.0
  0
LINE
  5
68D3A
330
1F
100
AcDbEntity
  8
freecads.com
100
AcDbLine
 10
104467.1301849749
 20
95254.58852011491
 30
0.0
 11
104467.1321806019
 21
95254.58610303969
 31
0.0
  0
LINE
  5
68D3B
330
1F
100
AcDbEntity
  8
freecads.com
100
AcDbLine
 10
104467.1321806019
 20
95254.58610303969
 30
0.0
 11
104467.1348567983
 21
95254.58363837788
 31
0.0
  0
LINE
  5
68D3C
330
1F
100
AcDbEntity
  8
freecads.com
100
AcDbLine
 10
104467.1348567983
 20
95254.58363837788
 30
0.0
 11
104467.1398867369
 21
95254.57893922986
 31
0.0
  0
LINE
  5
68D3D
330
1F
100
AcDbEntity
  8
freecads.com
100
AcDbLine
 10
104467.1398867369
 20
95254.57893922986
 30
0.0
 11
104467.143702233
 21
95254.574807416
 31
0.0
  0
LINE
  5
68D3E
330
1F
100
AcDbEntity
  8
freecads.com
100
AcDbLine
 10
104467.143702233
 20
95254.574807416
 30
0.0
 11
104467.14553067
 21
95254.57260639093
 31
0.0
  0
LINE
  5
68D3F
330
1F
100
AcDbEntity
  8
freecads.com
100
AcDbLine
 10
104467.14553067
 20
95254.57260639093
 30
0.0
 11
104467.1433699373
 21
95254.58047855803
 31
0.0
  0
LINE
  5
68D40
330
1F
100
AcDbEntity
  8
freecads.com
100
AcDbLine
 10
104467.1433699373
 20
95254.58047855803
 30
0.0
 11
104467.140719213
 21
95254.58981085808
 31
0.0
  0
LINE
  5
68D41
330
1F
100
AcDbEntity
  8
freecads.com
100
AcDbLine
 10
104467.140719213
 20
95254.58981085808
 30
0.0
 11
104467.1390558818
 21
95254.59572618535
 31
0.0
  0
LINE
  5
68D42
330
1F
100
AcDbEntity
  8
freecads.com
100
AcDbLine
 10
104467.1390558818
 20
95254.59572618535
 30
0.0
 11
104467.1382128695
 21
95254.60080811027
 31
0.0
  0
LINE
  5
68D43
330
1F
100
AcDbEntity
  8
freecads.com
100
AcDbLine
 10
104467.1382128695
 20
95254.60080811027
 30
0.0
 11
104467.1371203459
 21
95254.60958627535
 31
0.0
  0
LINE
  5
68D44
330
1F
100
AcDbEntity
  8
freecads.com
100
AcDbLine
 10
104467.1371203459
 20
95254.60958627535
 30
0.0
 11
104467.1364657117
 21
95254.61517081206
 31
0.0
  0
LINE
  5
68D45
330
1F
100
AcDbEntity
  8
freecads.com
100
AcDbLine
 10
104467.1364657117
 20
95254.61517081206
 30
0.0
 11
104467.1397677125
 21
95254.61403174395
 31
0.0
  0
LINE
  5
68D46
330
1F
100
AcDbEntity
  8
freecads.com
100
AcDbLine
 10
104467.1397677125
 20
95254.61403174395
 30
0.0
 11
104467.1428265701
 21
95254.61304157211
 31
0.0
  0
LINE
  5
68D47
330
1F
100
AcDbEntity
  8
freecads.com
100
AcDbLine
 10
104467.1428265701
 20
95254.61304157211
 30
0.0
 11
104467.1454162769
 21
95254.61232580477
 31
0.0
  0
LINE
  5
68D48
330
1F
100
AcDbEntity
  8
freecads.com
100
AcDbLine
 10
104467.1454162769
 20
95254.61232580477
 30
0.0
 11
104467.1471293946
 21
95254.61153802073
 31
0.0
  0
LINE
  5
68D49
330
1F
100
AcDbEntity
  8
freecads.com
100
AcDbLine
 10
104467.1471293946
 20
95254.61153802073
 30
0.0
 11
104467.1481463122
 21
95254.611238723
 31
0.0
  0
LINE
  5
68D4A
330
1F
100
AcDbEntity
  8
freecads.com
100
AcDbLine
 10
104467.1481463122
 20
95254.611238723
 30
0.0
 11
104467.1504491101
 21
95254.61285469917
 31
0.0
  0
LINE
  5
68D4B
330
1F
100
AcDbEntity
  8
freecads.com
100
AcDbLine
 10
104467.1504491101
 20
95254.61285469917
 30
0.0
 11
104467.1536492223
 21
95254.61663245017
 31
0.0
  0
LINE
  5
68D4C
330
1F
100
AcDbEntity
  8
freecads.com
100
AcDbLine
 10
104467.1536492223
 20
95254.61663245017
 30
0.0
 11
104467.1560183635
 21
95254.62114565153
 31
0.0
  0
LINE
  5
68D4D
330
1F
100
AcDbEntity
  8
freecads.com
100
AcDbLine
 10
104467.1560183635
 20
95254.62114565153
 30
0.0
 11
104467.1579907182
 21
95254.62536372334
 31
0.0
  0
LINE
  5
68D4E
330
1F
100
AcDbEntity
  8
freecads.com
100
AcDbLine
 10
104467.1579907182
 20
95254.62536372334
 30
0.0
 11
104467.1611225187
 21
95254.63156850683
 31
0.0
  0
LINE
  5
68D4F
330
1F
100
AcDbEntity
  8
freecads.com
100
AcDbLine
 10
104467.1611225187
 20
95254.63156850683
 30
0.0
 11
104467.1625660948
 21
95254.6309960782
 31
0.0
  0
LINE
  5
68D50
330
1F
100
AcDbEntity
  8
freecads.com
100
AcDbLine
 10
104467.1625660948
 20
95254.6309960782
 30
0.0
 11
104467.1680602053
 21
95254.62212019272
 31
0.0
  0
LINE
  5
68D51
330
1F
100
AcDbEntity
  8
freecads.com
100
AcDbLine
 10
104467.1680602053
 20
95254.62212019272
 30
0.0
 11
104467.1697477351
 21
95254.61903296848
 31
0.0
  0
LINE
  5
68D52
330
1F
100
AcDbEntity
  8
freecads.com
100
AcDbLine
 10
104467.1697477351
 20
95254.61903296848
 30
0.0
 11
104467.1726135832
 21
95254.615931503
 31
0.0
  0
LINE
  5
68D53
330
1F
100
AcDbEntity
  8
freecads.com
100
AcDbLine
 10
104467.1726135832
 20
95254.615931503
 30
0.0
 11
104467.1748093981
 21
95254.6136333364
 31
0.0
  0
LINE
  5
68D54
330
1F
100
AcDbEntity
  8
freecads.com
100
AcDbLine
 10
104467.1748093981
 20
95254.6136333364
 30
0.0
 11
104467.1763464106
 21
95254.61239643208
 31
0.0
  0
LINE
  5
68D55
330
1F
100
AcDbEntity
  8
freecads.com
100
AcDbLine
 10
104467.1763464106
 20
95254.61239643208
 30
0.0
 11
104467.1804280906
 21
95254.60967068077
 31
0.0
  0
LINE
  5
68D56
330
1F
100
AcDbEntity
  8
freecads.com
100
AcDbLine
 10
104467.1804280906
 20
95254.60967068077
 30
0.0
 11
104467.1821340298
 21
95254.60805898855
 31
0.0
  0
LINE
  5
68D57
330
1F
100
AcDbEntity
  8
freecads.com
100
AcDbLine
 10
104467.1821340298
 20
95254.60805898855
 30
0.0
 11
104467.1827245205
 21
95254.60759562703
 31
0.0
  0
LINE
  5
68D58
330
1F
100
AcDbEntity
  8
freecads.com
100
AcDbLine
 10
104467.1827245205
 20
95254.60759562703
 30
0.0
 11
104467.1868588816
 21
95254.6064210137
 31
0.0
  0
LINE
  5
68D59
330
1F
100
AcDbEntity
  8
freecads.com
100
AcDbLine
 10
104467.1868588816
 20
95254.6064210137
 30
0.0
 11
104467.1881130375
 21
95254.60639206807
 31
0.0
  0
LINE
  5
68D5A
330
1F
100
AcDbEntity
  8
freecads.com
100
AcDbLine
 10
104467.1881130375
 20
95254.60639206807
 30
0.0
 11
104467.1901276527
 21
95254.60611581106
 31
0.0
  0
LINE
  5
68D5B
330
1F
100
AcDbEntity
  8
freecads.com
100
AcDbLine
 10
104467.1901276527
 20
95254.60611581106
 30
0.0
 11
104467.200159279
 21
95254.60283164083
 31
0.0
  0
LINE
  5
68D5C
330
1F
100
AcDbEntity
  8
freecads.com
100
AcDbLine
 10
104467.200159279
 20
95254.60283164083
 30
0.0
 11
104467.2086560926
 21
95254.59952605078
 31
0.0
  0
LINE
  5
68D5D
330
1F
100
AcDbEntity
  8
freecads.com
100
AcDbLine
 10
104467.2086560926
 20
95254.59952605078
 30
0.0
 11
104467.2117984293
 21
95254.59897573663
 31
0.0
  0
LINE
  5
68D5E
330
1F
100
AcDbEntity
  8
freecads.com
100
AcDbLine
 10
104467.2117984293
 20
95254.59897573663
 30
0.0
 11
104467.2100347147
 21
95254.60232949216
 31
0.0
  0
LINE
  5
68D5F
330
1F
100
AcDbEntity
  8
freecads.com
100
AcDbLine
 10
104467.2100347147
 20
95254.60232949216
 30
0.0
 11
104467.2060720591
 21
95254.60688217535
 31
0.0
  0
LINE
  5
68D60
330
1F
100
AcDbEntity
  8
freecads.com
100
AcDbLine
 10
104467.2060720591
 20
95254.60688217535
 30
0.0
 11
104467.2005889478
 21
95254.61583818231
 31
0.0
  0
LINE
  5
68D61
330
1F
100
AcDbEntity
  8
freecads.com
100
AcDbLine
 10
104467.2005889478
 20
95254.61583818231
 30
0.0
 11
104467.1937648438
 21
95254.63213016767
 31
0.0
  0
LINE
  5
68D62
330
1F
100
AcDbEntity
  8
freecads.com
100
AcDbLine
 10
104467.1937648438
 20
95254.63213016767
 30
0.0
 11
104467.186913994
 21
95254.64627404055
 31
0.0
  0
LINE
  5
68D63
330
1F
100
AcDbEntity
  8
freecads.com
100
AcDbLine
 10
104467.186913994
 20
95254.64627404055
 30
0.0
 11
104467.1824249912
 21
95254.65421706652
 31
0.0
  0
LINE
  5
68D64
330
1F
100
AcDbEntity
  8
freecads.com
100
AcDbLine
 10
104467.1824249912
 20
95254.65421706652
 30
0.0
 11
104467.1816581638
 21
95254.6554818744
 31
0.0
  0
LINE
  5
68D65
330
1F
100
AcDbEntity
  8
freecads.com
100
AcDbLine
 10
104467.1816581638
 20
95254.6554818744
 30
0.0
 11
104467.1807404718
 21
95254.65727395575
 31
0.0
  0
LINE
  5
68D66
330
1F
100
AcDbEntity
  8
freecads.com
100
AcDbLine
 10
104467.1807404718
 20
95254.65727395575
 30
0.0
 11
104467.1796528111
 21
95254.66005748253
 31
0.0
  0
LINE
  5
68D67
330
1F
100
AcDbEntity
  8
freecads.com
100
AcDbLine
 10
104467.1796528111
 20
95254.66005748253
 30
0.0
 11
104467.178821956
 21
95254.66406320925
 31
0.0
  0
LINE
  5
68D68
330
1F
100
AcDbEntity
  8
freecads.com
100
AcDbLine
 10
104467.178821956
 20
95254.66406320925
 30
0.0
 11
104467.1777406633
 21
95254.67065875863
 31
0.0
  0
LINE
  5
68D69
330
1F
100
AcDbEntity
  8
freecads.com
100
AcDbLine
 10
104467.1777406633
 20
95254.67065875863
 30
0.0
 11
104467.1769723307
 21
95254.67556805189
 31
0.0
  0
LINE
  5
68D6A
330
1F
100
AcDbEntity
  8
freecads.com
100
AcDbLine
 10
104467.1769723307
 20
95254.67556805189
 30
0.0
 11
104467.1773693489
 21
95254.6760895362
 31
0.0
  0
LINE
  5
68D6B
330
1F
100
AcDbEntity
  8
freecads.com
100
AcDbLine
 10
104467.1773693489
 20
95254.6760895362
 30
0.0
 11
104467.1804331851
 21
95254.67663707157
 31
0.0
  0
LINE
  5
68D6C
330
1F
100
AcDbEntity
  8
freecads.com
100
AcDbLine
 10
104467.1804331851
 20
95254.67663707157
 30
0.0
 11
104467.1807482292
 21
95254.67615159561
 31
0.0
  0
LINE
  5
68D6D
330
1F
100
AcDbEntity
  8
freecads.com
100
AcDbLine
 10
104467.1807482292
 20
95254.67615159561
 30
0.0
 11
104467.1817062135
 21
95254.67508222856
 31
0.0
  0
LINE
  5
68D6E
330
1F
100
AcDbEntity
  8
freecads.com
100
AcDbLine
 10
104467.1817062135
 20
95254.67508222856
 30
0.0
 11
104467.1832509835
 21
95254.67595129191
 31
0.0
  0
LINE
  5
68D6F
330
1F
100
AcDbEntity
  8
freecads.com
100
AcDbLine
 10
104467.1832509835
 20
95254.67595129191
 30
0.0
 11
104467.1849504388
 21
95254.67984980405
 31
0.0
  0
LINE
  5
68D70
330
1F
100
AcDbEntity
  8
freecads.com
100
AcDbLine
 10
104467.1849504388
 20
95254.67984980405
 30
0.0
 11
104467.1861697442
 21
95254.68374762148
 31
0.0
  0
LINE
  5
68D71
330
1F
100
AcDbEntity
  8
freecads.com
100
AcDbLine
 10
104467.1861697442
 20
95254.68374762148
 30
0.0
 11
104467.1867104484
 21
95254.68581891228
 31
0.0
  0
LINE
  5
68D72
330
1F
100
AcDbEntity
  8
freecads.com
100
AcDbLine
 10
104467.1867104484
 20
95254.68581891228
 30
0.0
 11
104467.1870704162
 21
95254.68867219801
 31
0.0
  0
LINE
  5
68D73
330
1F
100
AcDbEntity
  8
freecads.com
100
AcDbLine
 10
104467.1870704162
 20
95254.68867219801
 30
0.0
 11
104467.1882254623
 21
95254.69509036863
 31
0.0
  0
LINE
  5
68D74
330
1F
100
AcDbEntity
  8
freecads.com
100
AcDbLine
 10
104467.1882254623
 20
95254.69509036863
 30
0.0
 11
104467.1899359169
 21
95254.69790156742
 31
0.0
  0
LINE
  5
68D75
330
1F
100
AcDbEntity
  8
freecads.com
100
AcDbLine
 10
104467.1899359169
 20
95254.69790156742
 30
0.0
 11
104467.1906743776
 21
95254.6967077342
 31
0.0
  0
LINE
  5
68D76
330
1F
100
AcDbEntity
  8
freecads.com
100
AcDbLine
 10
104467.1906743776
 20
95254.6967077342
 30
0.0
 11
104467.192114596
 21
95254.69379800451
 31
0.0
  0
LINE
  5
68D77
330
1F
100
AcDbEntity
  8
freecads.com
100
AcDbLine
 10
104467.192114596
 20
95254.69379800451
 30
0.0
 11
104467.1954128917
 21
95254.6951626169
 31
0.0
  0
LINE
  5
68D78
330
1F
100
AcDbEntity
  8
freecads.com
100
AcDbLine
 10
104467.1954128917
 20
95254.6951626169
 30
0.0
 11
104467.1989011865
 21
95254.69927613711
 31
0.0
  0
LINE
  5
68D79
330
1F
100
AcDbEntity
  8
freecads.com
100
AcDbLine
 10
104467.1989011865
 20
95254.69927613711
 30
0.0
 11
104467.2008389222
 21
95254.70169350178
 31
0.0
  0
LINE
  5
68D7A
330
1F
100
AcDbEntity
  8
freecads.com
100
AcDbLine
 10
104467.2008389222
 20
95254.70169350178
 30
0.0
 11
104467.2013859945
 21
95254.70241928429
 31
0.0
  0
LINE
  5
68D7B
330
1F
100
AcDbEntity
  8
freecads.com
100
AcDbLine
 10
104467.2013859945
 20
95254.70241928429
 30
0.0
 11
104467.2021280444
 21
95254.70367662423
 31
0.0
  0
LINE
  5
68D7C
330
1F
100
AcDbEntity
  8
freecads.com
100
AcDbLine
 10
104467.2021280444
 20
95254.70367662423
 30
0.0
 11
104467.2039889006
 21
95254.70454337192
 31
0.0
  0
LINE
  5
68D7D
330
1F
100
AcDbEntity
  8
freecads.com
100
AcDbLine
 10
104467.2039889006
 20
95254.70454337192
 30
0.0
 11
104467.2067862054
 21
95254.70161778002
 31
0.0
  0
LINE
  5
68D7E
330
1F
100
AcDbEntity
  8
freecads.com
100
AcDbLine
 10
104467.2067862054
 20
95254.70161778002
 30
0.0
 11
104467.2101235199
 21
95254.69561903147
 31
0.0
  0
LINE
  5
68D7F
330
1F
100
AcDbEntity
  8
freecads.com
100
AcDbLine
 10
104467.2101235199
 20
95254.69561903147
 30
0.0
 11
104467.2168392515
 21
95254.69031885656
 31
0.0
  0
LINE
  5
68D80
330
1F
100
AcDbEntity
  8
freecads.com
100
AcDbLine
 10
104467.2168392515
 20
95254.69031885656
 30
0.0
 11
104467.22328301
 21
95254.67950859304
 31
0.0
  0
LINE
  5
68D81
330
1F
100
AcDbEntity
  8
freecads.com
100
AcDbLine
 10
104467.22328301
 20
95254.67950859304
 30
0.0
 11
104467.2271808275
 21
95254.67120073646
 31
0.0
  0
LINE
  5
68D82
330
1F
100
AcDbEntity
  8
freecads.com
100
AcDbLine
 10
104467.2271808275
 20
95254.67120073646
 30
0.0
 11
104467.2283719977
 21
95254.66869288777
 31
0.0
  0
LINE
  5
68D83
330
1F
100
AcDbEntity
  8
freecads.com
100
AcDbLine
 10
104467.2283719977
 20
95254.66869288777
 30
0.0
 11
104467.2316061499
 21
95254.66757234488
 31
0.0
  0
LINE
  5
68D84
330
1F
100
AcDbEntity
  8
freecads.com
100
AcDbLine
 10
104467.2316061499
 20
95254.66757234488
 30
0.0
 11
104467.2344687561
 21
95254.66621548989
 31
0.0
  0
LINE
  5
68D85
330
1F
100
AcDbEntity
  8
freecads.com
100
AcDbLine
 10
104467.2344687561
 20
95254.66621548989
 30
0.0
 11
104467.2361903259
 21
95254.66591816046
 31
0.0
  0
LINE
  5
68D86
330
1F
100
AcDbEntity
  8
freecads.com
100
AcDbLine
 10
104467.2361903259
 20
95254.66591816046
 30
0.0
 11
104467.2374322089
 21
95254.66798673038
 31
0.0
  0
LINE
  5
68D87
330
1F
100
AcDbEntity
  8
freecads.com
100
AcDbLine
 10
104467.2374322089
 20
95254.66798673038
 30
0.0
 11
104467.2384265489
 21
95254.67176575499
 31
0.0
  0
LINE
  5
68D88
330
1F
100
AcDbEntity
  8
freecads.com
100
AcDbLine
 10
104467.2384265489
 20
95254.67176575499
 30
0.0
 11
104467.2394030584
 21
95254.67646073487
 31
0.0
  0
LINE
  5
68D89
330
1F
100
AcDbEntity
  8
freecads.com
100
AcDbLine
 10
104467.2394030584
 20
95254.67646073487
 30
0.0
 11
104467.2405062339
 21
95254.68091824484
 31
0.0
  0
LINE
  5
68D8A
330
1F
100
AcDbEntity
  8
freecads.com
100
AcDbLine
 10
104467.2405062339
 20
95254.68091824484
 30
0.0
 11
104467.2410888514
 21
95254.68302317046
 31
0.0
  0
LINE
  5
68D8B
330
1F
100
AcDbEntity
  8
freecads.com
100
AcDbLine
 10
104467.2410888514
 20
95254.68302317046
 30
0.0
 11
104467.2412401791
 21
95254.68741485809
 31
0.0
  0
LINE
  5
68D8C
330
1F
100
AcDbEntity
  8
freecads.com
100
AcDbLine
 10
104467.2412401791
 20
95254.68741485809
 30
0.0
 11
104467.241196066
 21
95254.6971321928
 31
0.0
  0
LINE
  5
68D8D
330
1F
100
AcDbEntity
  8
freecads.com
100
AcDbLine
 10
104467.241196066
 20
95254.6971321928
 30
0.0
 11
104467.2409353238
 21
95254.70267921599
 31
0.0
  0
LINE
  5
68D8E
330
1F
100
AcDbEntity
  8
freecads.com
100
AcDbLine
 10
104467.2409353238
 20
95254.70267921599
 30
0.0
 11
104467.2406896334
 21
95254.70609711501
 31
0.0
  0
LINE
  5
68D8F
330
1F
100
AcDbEntity
  8
freecads.com
100
AcDbLine
 10
104467.2406896334
 20
95254.70609711501
 30
0.0
 11
104467.2406528146
 21
95254.71061685808
 31
0.0
  0
LINE
  5
68D90
330
1F
100
AcDbEntity
  8
freecads.com
100
AcDbLine
 10
104467.2406528146
 20
95254.71061685808
 30
0.0
 11
104467.240556252
 21
95254.71486103883
 31
0.0
  0
LINE
  5
68D91
330
1F
100
AcDbEntity
  8
freecads.com
100
AcDbLine
 10
104467.240556252
 20
95254.71486103883
 30
0.0
 11
104467.2402172408
 21
95254.72015021442
 31
0.0
  0
LINE
  5
68D92
330
1F
100
AcDbEntity
  8
freecads.com
100
AcDbLine
 10
104467.2402172408
 20
95254.72015021442
 30
0.0
 11
104467.2399750239
 21
95254.72753013227
 31
0.0
  0
LINE
  5
68D93
330
1F
100
AcDbEntity
  8
freecads.com
100
AcDbLine
 10
104467.2399750239
 20
95254.72753013227
 30
0.0
 11
104467.2409039468
 21
95254.73439603375
 31
0.0
  0
LINE
  5
68D94
330
1F
100
AcDbEntity
  8
freecads.com
100
AcDbLine
 10
104467.2409039468
 20
95254.73439603375
 30
0.0
 11
104467.2418227966
 21
95254.73829894563
 31
0.0
  0
LINE
  5
68D95
330
1F
100
AcDbEntity
  8
freecads.com
100
AcDbLine
 10
104467.2418227966
 20
95254.73829894563
 30
0.0
 11
104467.2420850439
 21
95254.73868247512
 31
0.0
  0
LINE
  5
68D96
330
1F
100
AcDbEntity
  8
freecads.com
100
AcDbLine
 10
104467.2420850439
 20
95254.73868247512
 30
0.0
 11
104467.242884522
 21
95254.73953967075
 31
0.0
  0
LINE
  5
68D97
330
1F
100
AcDbEntity
  8
freecads.com
100
AcDbLine
 10
104467.242884522
 20
95254.73953967075
 30
0.0
 11
104467.2440644613
 21
95254.74154114473
 31
0.0
  0
LINE
  5
68D98
330
1F
100
AcDbEntity
  8
freecads.com
100
AcDbLine
 10
104467.2440644613
 20
95254.74154114473
 30
0.0
 11
104467.2447234953
 21
95254.74465135179
 31
0.0
  0
LINE
  5
68D99
330
1F
100
AcDbEntity
  8
freecads.com
100
AcDbLine
 10
104467.2447234953
 20
95254.74465135179
 30
0.0
 11
104467.2446745193
 21
95254.74710952979
 31
0.0
  0
LINE
  5
68D9A
330
1F
100
AcDbEntity
  8
freecads.com
100
AcDbLine
 10
104467.2446745193
 20
95254.74710952979
 30
0.0
 11
104467.2461833966
 21
95254.74739423891
 31
0.0
  0
LINE
  5
68D9B
330
1F
100
AcDbEntity
  8
freecads.com
100
AcDbLine
 10
104467.2461833966
 20
95254.74739423891
 30
0.0
 11
104467.2498674796
 21
95254.7456305243
 31
0.0
  0
LINE
  5
68D9C
330
1F
100
AcDbEntity
  8
freecads.com
100
AcDbLine
 10
104467.2498674796
 20
95254.7456305243
 30
0.0
 11
104467.2533556586
 21
95254.74442957044
 31
0.0
  0
LINE
  5
68D9D
330
1F
100
AcDbEntity
  8
freecads.com
100
AcDbLine
 10
104467.2533556586
 20
95254.74442957044
 30
0.0
 11
104467.2562862291
 21
95254.74459282374
 31
0.0
  0
LINE
  5
68D9E
330
1F
100
AcDbEntity
  8
freecads.com
100
AcDbLine
 10
104467.2562862291
 20
95254.74459282374
 30
0.0
 11
104467.2583069809
 21
95254.74551242615
 31
0.0
  0
LINE
  5
68D9F
330
1F
100
AcDbEntity
  8
freecads.com
100
AcDbLine
 10
104467.2583069809
 20
95254.74551242615
 30
0.0
 11
104467.2599107999
 21
95254.74586058409
 31
0.0
  0
LINE
  5
68DA0
330
1F
100
AcDbEntity
  8
freecads.com
100
AcDbLine
 10
104467.2599107999
 20
95254.74586058409
 30
0.0
 11
104467.2625433463
 21
95254.7459140756
 31
0.0
  0
LINE
  5
68DA1
330
1F
100
AcDbEntity
  8
freecads.com
100
AcDbLine
 10
104467.2625433463
 20
95254.7459140756
 30
0.0
 11
104467.2652772024
 21
95254.74617342837
 31
0.0
  0
LINE
  5
68DA2
330
1F
100
AcDbEntity
  8
freecads.com
100
AcDbLine
 10
104467.2652772024
 20
95254.74617342837
 30
0.0
 11
104467.2672532621
 21
95254.74645217471
 31
0.0
  0
LINE
  5
68DA3
330
1F
100
AcDbEntity
  8
freecads.com
100
AcDbLine
 10
104467.2672532621
 20
95254.74645217471
 30
0.0
 11
104467.2707878699
 21
95254.74589335054
 31
0.0
  0
LINE
  5
68DA4
330
1F
100
AcDbEntity
  8
freecads.com
100
AcDbLine
 10
104467.2707878699
 20
95254.74589335054
 30
0.0
 11
104467.273459435
 21
95254.74619131676
 31
0.0
  0
LINE
  5
68DA5
330
1F
100
AcDbEntity
  8
freecads.com
100
AcDbLine
 10
104467.273459435
 20
95254.74619131676
 30
0.0
 11
104467.2745994294
 21
95254.74673618914
 31
0.0
  0
LINE
  5
68DA6
330
1F
100
AcDbEntity
  8
freecads.com
100
AcDbLine
 10
104467.2745994294
 20
95254.74673618914
 30
0.0
 11
104467.2785579168
 21
95254.74363142386
 31
0.0
  0
LINE
  5
68DA7
330
1F
100
AcDbEntity
  8
freecads.com
100
AcDbLine
 10
104467.2785579168
 20
95254.74363142386
 30
0.0
 11
104467.2834559792
 21
95254.73955524351
 31
0.0
  0
LINE
  5
68DA8
330
1F
100
AcDbEntity
  8
freecads.com
100
AcDbLine
 10
104467.2834559792
 20
95254.73955524351
 30
0.0
 11
104467.2865869692
 21
95254.73668406938
 31
0.0
  0
LINE
  5
68DA9
330
1F
100
AcDbEntity
  8
freecads.com
100
AcDbLine
 10
104467.2865869692
 20
95254.73668406938
 30
0.0
 11
104467.2886856425
 21
95254.73300479138
 31
0.0
  0
LINE
  5
68DAA
330
1F
100
AcDbEntity
  8
freecads.com
100
AcDbLine
 10
104467.2886856425
 20
95254.73300479138
 30
0.0
 11
104467.2906710807
 21
95254.72949189284
 31
0.0
  0
LINE
  5
68DAB
330
1F
100
AcDbEntity
  8
freecads.com
100
AcDbLine
 10
104467.2906710807
 20
95254.72949189284
 30
0.0
 11
104467.2921090991
 21
95254.72711105756
 31
0.0
  0
LINE
  5
68DAC
330
1F
100
AcDbEntity
  8
freecads.com
100
AcDbLine
 10
104467.2921090991
 20
95254.72711105756
 30
0.0
 11
104467.2982092153
 21
95254.72428011784
 31
0.0
  0
LINE
  5
68DAD
330
1F
100
AcDbEntity
  8
freecads.com
100
AcDbLine
 10
104467.2982092153
 20
95254.72428011784
 30
0.0
 11
104467.3033123284
 21
95254.72189227771
 31
0.0
  0
LINE
  5
68DAE
330
1F
100
AcDbEntity
  8
freecads.com
100
AcDbLine
 10
104467.3033123284
 20
95254.72189227771
 30
0.0
 11
104467.3065832995
 21
95254.71984999041
 31
0.0
  0
LINE
  5
68DAF
330
1F
100
AcDbEntity
  8
freecads.com
100
AcDbLine
 10
104467.3065832995
 20
95254.71984999041
 30
0.0
 11
104467.3086351967
 21
95254.71757266467
 31
0.0
  0
LINE
  5
68DB0
330
1F
100
AcDbEntity
  8
freecads.com
100
AcDbLine
 10
104467.3086351967
 20
95254.71757266467
 30
0.0
 11
104467.3098615648
 21
95254.71600572238
 31
0.0
  0
LINE
  5
68DB1
330
1F
100
AcDbEntity
  8
freecads.com
100
AcDbLine
 10
104467.3098615648
 20
95254.71600572238
 30
0.0
 11
104467.3104048162
 21
95254.71531629557
 31
0.0
  0
LINE
  5
68DB2
330
1F
100
AcDbEntity
  8
freecads.com
100
AcDbLine
 10
104467.3104048162
 20
95254.71531629557
 30
0.0
 11
104467.310658843
 21
95254.71512809113
 31
0.0
  0
LINE
  5
68DB3
330
1F
100
AcDbEntity
  8
freecads.com
100
AcDbLine
 10
104467.310658843
 20
95254.71512809113
 30
0.0
 11
104467.3121258071
 21
95254.71504443828
 31
0.0
  0
LINE
  5
68DB4
330
1F
100
AcDbEntity
  8
freecads.com
100
AcDbLine
 10
104467.3121258071
 20
95254.71504443828
 30
0.0
 11
104467.3135286277
 21
95254.71766708529
 31
0.0
  0
LINE
  5
68DB5
330
1F
100
AcDbEntity
  8
freecads.com
100
AcDbLine
 10
104467.3135286277
 20
95254.71766708529
 30
0.0
 11
104467.3133016941
 21
95254.72490956934
 31
0.0
  0
LINE
  5
68DB6
330
1F
100
AcDbEntity
  8
freecads.com
100
AcDbLine
 10
104467.3133016941
 20
95254.72490956934
 30
0.0
 11
104467.312736444
 21
95254.73006113744
 31
0.0
  0
LINE
  5
68DB7
330
1F
100
AcDbEntity
  8
freecads.com
100
AcDbLine
 10
104467.312736444
 20
95254.73006113744
 30
0.0
 11
104467.3123784445
 21
95254.73222910662
 31
0.0
  0
LINE
  5
68DB8
330
1F
100
AcDbEntity
  8
freecads.com
100
AcDbLine
 10
104467.3123784445
 20
95254.73222910662
 30
0.0
 11
104467.3125429714
 21
95254.73253378823
 31
0.0
  0
LINE
  5
68DB9
330
1F
100
AcDbEntity
  8
freecads.com
100
AcDbLine
 10
104467.3125429714
 20
95254.73253378823
 30
0.0
 11
104467.3140381864
 21
95254.73273183418
 31
0.0
  0
LINE
  5
68DBA
330
1F
100
AcDbEntity
  8
freecads.com
100
AcDbLine
 10
104467.3140381864
 20
95254.73273183418
 30
0.0
 11
104467.3165914219
 21
95254.7320599484
 31
0.0
  0
LINE
  5
68DBB
330
1F
100
AcDbEntity
  8
freecads.com
100
AcDbLine
 10
104467.3165914219
 20
95254.7320599484
 30
0.0
 11
104467.3191575091
 21
95254.73004596992
 31
0.0
  0
LINE
  5
68DBC
330
1F
100
AcDbEntity
  8
freecads.com
100
AcDbLine
 10
104467.3191575091
 20
95254.73004596992
 30
0.0
 11
104467.3201418919
 21
95254.72899617012
 31
0.0
  0
LINE
  5
68DBD
330
1F
100
AcDbEntity
  8
freecads.com
100
AcDbLine
 10
104467.3201418919
 20
95254.72899617012
 30
0.0
 11
104467.3222940567
 21
95254.72874932185
 31
0.0
  0
LINE
  5
68DBE
330
1F
100
AcDbEntity
  8
freecads.com
100
AcDbLine
 10
104467.3222940567
 20
95254.72874932185
 30
0.0
 11
104467.3280379101
 21
95254.72985516039
 31
0.0
  0
LINE
  5
68DBF
330
1F
100
AcDbEntity
  8
freecads.com
100
AcDbLine
 10
104467.3280379101
 20
95254.72985516039
 30
0.0
 11
104467.3347546838
 21
95254.73414374371
 31
0.0
  0
LINE
  5
68DC0
330
1F
100
AcDbEntity
  8
freecads.com
100
AcDbLine
 10
104467.3347546838
 20
95254.73414374371
 30
0.0
 11
104467.3389947543
 21
95254.73770498146
 31
0.0
  0
LINE
  5
68DC1
330
1F
100
AcDbEntity
  8
freecads.com
100
AcDbLine
 10
104467.3389947543
 20
95254.73770498146
 30
0.0
 11
104467.3392571174
 21
95254.73809493687
 31
0.0
  0
LINE
  5
68DC2
330
1F
100
AcDbEntity
  8
freecads.com
100
AcDbLine
 10
104467.3392571174
 20
95254.73809493687
 30
0.0
 11
104467.3395522469
 21
95254.73880815701
 31
0.0
  0
LINE
  5
68DC3
330
1F
100
AcDbEntity
  8
freecads.com
100
AcDbLine
 10
104467.3395522469
 20
95254.73880815701
 30
0.0
 11
104467.341138467
 21
95254.74046008364
 31
0.0
  0
LINE
  5
68DC4
330
1F
100
AcDbEntity
  8
freecads.com
100
AcDbLine
 10
104467.341138467
 20
95254.74046008364
 30
0.0
 11
104467.3437405626
 21
95254.74245733155
 31
0.0
  0
LINE
  5
68DC5
330
1F
100
AcDbEntity
  8
freecads.com
100
AcDbLine
 10
104467.3437405626
 20
95254.74245733155
 30
0.0
 11
104467.3453299088
 21
95254.74410092185
 31
0.0
  0
LINE
  5
68DC6
330
1F
100
AcDbEntity
  8
freecads.com
100
AcDbLine
 10
104467.3453299088
 20
95254.74410092185
 30
0.0
 11
104467.3464749976
 21
95254.74739730716
 31
0.0
  0
LINE
  5
68DC7
330
1F
100
AcDbEntity
  8
freecads.com
100
AcDbLine
 10
104467.3464749976
 20
95254.74739730716
 30
0.0
 11
104467.3473556392
 21
95254.75127063659
 31
0.0
  0
LINE
  5
68DC8
330
1F
100
AcDbEntity
  8
freecads.com
100
AcDbLine
 10
104467.3473556392
 20
95254.75127063659
 30
0.0
 11
104467.3475749313
 21
95254.75221524802
 31
0.0
  0
LINE
  5
68DC9
330
1F
100
AcDbEntity
  8
freecads.com
100
AcDbLine
 10
104467.3475749313
 20
95254.75221524802
 30
0.0
 11
104467.3478632297
 21
95254.75351235922
 31
0.0
  0
LINE
  5
68DCA
330
1F
100
AcDbEntity
  8
freecads.com
100
AcDbLine
 10
104467.3478632297
 20
95254.75351235922
 30
0.0
 11
104467.348469351
 21
95254.75483239537
 31
0.0
  0
LINE
  5
68DCB
330
1F
100
AcDbEntity
  8
freecads.com
100
AcDbLine
 10
104467.348469351
 20
95254.75483239537
 30
0.0
 11
104467.3489226394
 21
95254.75620864391
 31
0.0
  0
LINE
  5
68DCC
330
1F
100
AcDbEntity
  8
freecads.com
100
AcDbLine
 10
104467.3489226394
 20
95254.75620864391
 30
0.0
 11
104467.3491121754
 21
95254.76525316657
 31
0.0
  0
LINE
  5
68DCD
330
1F
100
AcDbEntity
  8
freecads.com
100
AcDbLine
 10
104467.3491121754
 20
95254.76525316657
 30
0.0
 11
104467.3491127543
 21
95254.78394115472
 31
0.0
  0
LINE
  5
68DCE
330
1F
100
AcDbEntity
  8
freecads.com
100
AcDbLine
 10
104467.3491127543
 20
95254.78394115472
 30
0.0
 11
104467.3488410128
 21
95254.78751744419
 31
0.0
  0
LINE
  5
68DCF
330
1F
100
AcDbEntity
  8
freecads.com
100
AcDbLine
 10
104467.3488410128
 20
95254.78751744419
 30
0.0
 11
104467.3485913857
 21
95254.79056947055
 31
0.0
  0
LINE
  5
68DD0
330
1F
100
AcDbEntity
  8
freecads.com
100
AcDbLine
 10
104467.3485913857
 20
95254.79056947055
 30
0.0
 11
104467.3491997069
 21
95254.79468287498
 31
0.0
  0
LINE
  5
68DD1
330
1F
100
AcDbEntity
  8
freecads.com
100
AcDbLine
 10
104467.3491997069
 20
95254.79468287498
 30
0.0
 11
104467.3502233399
 21
95254.7999864076
 31
0.0
  0
LINE
  5
68DD2
330
1F
100
AcDbEntity
  8
freecads.com
100
AcDbLine
 10
104467.3502233399
 20
95254.7999864076
 30
0.0
 11
104467.3507861586
 21
95254.80441178793
 31
0.0
  0
LINE
  5
68DD3
330
1F
100
AcDbEntity
  8
freecads.com
100
AcDbLine
 10
104467.3507861586
 20
95254.80441178793
 30
0.0
 11
104467.3509558957
 21
95254.8059776303
 31
0.0
  0
LINE
  5
68DD4
330
1F
100
AcDbEntity
  8
freecads.com
100
AcDbLine
 10
104467.3509558957
 20
95254.8059776303
 30
0.0
 11
104467.3539846498
 21
95254.80797429928
 31
0.0
  0
LINE
  5
68DD5
330
1F
100
AcDbEntity
  8
freecads.com
100
AcDbLine
 10
104467.3539846498
 20
95254.80797429928
 30
0.0
 11
104467.3547087534
 21
95254.80841745677
 31
0.0
  0
LINE
  5
68DD6
330
1F
100
AcDbEntity
  8
freecads.com
100
AcDbLine
 10
104467.3547087534
 20
95254.80841745677
 30
0.0
 11
104467.3556544648
 21
95254.80779940984
 31
0.0
  0
LINE
  5
68DD7
330
1F
100
AcDbEntity
  8
freecads.com
100
AcDbLine
 10
104467.3556544648
 20
95254.80779940984
 30
0.0
 11
104467.3574635662
 21
95254.80613723646
 31
0.0
  0
LINE
  5
68DD8
330
1F
100
AcDbEntity
  8
freecads.com
100
AcDbLine
 10
104467.3574635662
 20
95254.80613723646
 30
0.0
 11
104467.3594289739
 21
95254.80334369449
 31
0.0
  0
LINE
  5
68DD9
330
1F
100
AcDbEntity
  8
freecads.com
100
AcDbLine
 10
104467.3594289739
 20
95254.80334369449
 30
0.0
 11
104467.3606845192
 21
95254.80091897764
 31
0.0
  0
LINE
  5
68DDA
330
1F
100
AcDbEntity
  8
freecads.com
100
AcDbLine
 10
104467.3606845192
 20
95254.80091897764
 30
0.0
 11
104467.3612946929
 21
95254.79951442029
 31
0.0
  0
LINE
  5
68DDB
330
1F
100
AcDbEntity
  8
freecads.com
100
AcDbLine
 10
104467.3612946929
 20
95254.79951442029
 30
0.0
 11
104467.3616400721
 21
95254.79930120683
 31
0.0
  0
LINE
  5
68DDC
330
1F
100
AcDbEntity
  8
freecads.com
100
AcDbLine
 10
104467.3616400721
 20
95254.79930120683
 30
0.0
 11
104467.3679358606
 21
95254.80142512078
 31
0.0
  0
LINE
  5
68DDD
330
1F
100
AcDbEntity
  8
freecads.com
100
AcDbLine
 10
104467.3679358606
 20
95254.80142512078
 30
0.0
 11
104467.3695278698
 21
95254.80311126115
 31
0.0
  0
LINE
  5
68DDE
330
1F
100
AcDbEntity
  8
freecads.com
100
AcDbLine
 10
104467.3695278698
 20
95254.80311126115
 30
0.0
 11
104467.3775412915
 21
95254.81790467377
 31
0.0
  0
LINE
  5
68DDF
330
1F
100
AcDbEntity
  8
freecads.com
100
AcDbLine
 10
104467.3775412915
 20
95254.81790467377
 30
0.0
 11
104467.391661429
 21
95254.8425655331
 31
0.0
  0
LINE
  5
68DE0
330
1F
100
AcDbEntity
  8
freecads.com
100
AcDbLine
 10
104467.391661429
 20
95254.8425655331
 30
0.0
 11
104467.4073415039
 21
95254.86758433398
 31
0.0
  0
LINE
  5
68DE1
330
1F
100
AcDbEntity
  8
freecads.com
100
AcDbLine
 10
104467.4073415039
 20
95254.86758433398
 30
0.0
 11
104467.420743211
 21
95254.8867261895
 31
0.0
  0
LINE
  5
68DE2
330
1F
100
AcDbEntity
  8
freecads.com
100
AcDbLine
 10
104467.420743211
 20
95254.8867261895
 30
0.0
 11
104467.4293732903
 21
95254.8982033601
 31
0.0
  0
LINE
  5
68DE3
330
1F
100
AcDbEntity
  8
freecads.com
100
AcDbLine
 10
104467.4293732903
 20
95254.8982033601
 30
0.0
 11
104467.4511835848
 21
95254.92949305629
 31
0.0
  0
LINE
  5
68DE4
330
1F
100
AcDbEntity
  8
freecads.com
100
AcDbLine
 10
104467.4511835848
 20
95254.92949305629
 30
0.0
 11
104467.4814571159
 21
95254.96888046387
 31
0.0
  0
LINE
  5
68DE5
330
1F
100
AcDbEntity
  8
freecads.com
100
AcDbLine
 10
104467.4814571159
 20
95254.96888046387
 30
0.0
 11
104467.5106404392
 21
95255.00112027113
 31
0.0
  0
LINE
  5
68DE6
330
1F
100
AcDbEntity
  8
freecads.com
100
AcDbLine
 10
104467.5106404392
 20
95255.00112027113
 30
0.0
 11
104467.5354637414
 21
95255.02304866375
 31
0.0
  0
LINE
  5
68DE7
330
1F
100
AcDbEntity
  8
freecads.com
100
AcDbLine
 10
104467.5354637414
 20
95255.02304866375
 30
0.0
 11
104467.551658701
 21
95255.03586902701
 31
0.0
  0
LINE
  5
68DE8
330
1F
100
AcDbEntity
  8
freecads.com
100
AcDbLine
 10
104467.551658701
 20
95255.03586902701
 30
0.0
 11
104467.5596284728
 21
95255.04351443411
 31
0.0
  0
LINE
  5
68DE9
330
1F
100
AcDbEntity
  8
freecads.com
100
AcDbLine
 10
104467.5596284728
 20
95255.04351443411
 30
0.0
 11
104467.593197984
 21
95255.07277214764
 31
0.0
  0
LINE
  5
68DEA
330
1F
100
AcDbEntity
  8
freecads.com
100
AcDbLine
 10
104467.593197984
 20
95255.07277214764
 30
0.0
 11
104467.6489667031
 21
95255.10938424897
 31
0.0
  0
LINE
  5
68DEB
330
1F
100
AcDbEntity
  8
freecads.com
100
AcDbLine
 10
104467.6489667031
 20
95255.10938424897
 30
0.0
 11
104467.7023470611
 21
95255.12924852931
 31
0.0
  0
LINE
  5
68DEC
330
1F
100
AcDbEntity
  8
freecads.com
100
AcDbLine
 10
104467.7023470611
 20
95255.12924852931
 30
0.0
 11
104467.7517324601
 21
95255.13574103229
 31
0.0
  0
LINE
  5
68DED
330
1F
100
AcDbEntity
  8
freecads.com
100
AcDbLine
 10
104467.7517324601
 20
95255.13574103229
 30
0.0
 11
104467.7815983211
 21
95255.13699142525
 31
0.0
  0
LINE
  5
68DEE
330
1F
100
AcDbEntity
  8
freecads.com
100
AcDbLine
 10
104467.7815983211
 20
95255.13699142525
 30
0.0
 11
104467.7889701921
 21
95255.13710350269
 31
0.0
  0
LINE
  5
68DEF
330
1F
100
AcDbEntity
  8
freecads.com
100
AcDbLine
 10
104467.7889701921
 20
95255.13710350269
 30
0.0
 11
104467.8114560774
 21
95255.13777237813
 31
0.0
  0
LINE
  5
68DF0
330
1F
100
AcDbEntity
  8
freecads.com
100
AcDbLine
 10
104467.8114560774
 20
95255.13777237813
 30
0.0
 11
104467.8443251046
 21
95255.13938146525
 31
0.0
  0
LINE
  5
68DF1
330
1F
100
AcDbEntity
  8
freecads.com
100
AcDbLine
 10
104467.8443251046
 20
95255.13938146525
 30
0.0
 11
104467.8868047729
 21
95255.14253781164
 31
0.0
  0
LINE
  5
68DF2
330
1F
100
AcDbEntity
  8
freecads.com
100
AcDbLine
 10
104467.8868047729
 20
95255.14253781164
 30
0.0
 11
104467.9234529405
 21
95255.14584131757
 31
0.0
  0
LINE
  5
68DF3
330
1F
100
AcDbEntity
  8
freecads.com
100
AcDbLine
 10
104467.9234529405
 20
95255.14584131757
 30
0.0
 11
104467.9399920057
 21
95255.14740137081
 31
0.0
  0
LINE
  5
68DF4
330
1F
100
AcDbEntity
  8
freecads.com
100
AcDbLine
 10
104467.9399920057
 20
95255.14740137081
 30
0.0
 11
104467.9447928108
 21
95255.1487713092
 31
0.0
  0
LINE
  5
68DF5
330
1F
100
AcDbEntity
  8
freecads.com
100
AcDbLine
 10
104467.9447928108
 20
95255.1487713092
 30
0.0
 11
104467.9611697805
 21
95255.15397567412
 31
0.0
  0
LINE
  5
68DF6
330
1F
100
AcDbEntity
  8
freecads.com
100
AcDbLine
 10
104467.9611697805
 20
95255.15397567412
 30
0.0
 11
104467.9845013411
 21
95255.16297139446
 31
0.0
  0
LINE
  5
68DF7
330
1F
100
AcDbEntity
  8
freecads.com
100
AcDbLine
 10
104467.9845013411
 20
95255.16297139446
 30
0.0
 11
104468.027332525
 21
95255.18267004795
 31
0.0
  0
LINE
  5
68DF8
330
1F
100
AcDbEntity
  8
freecads.com
100
AcDbLine
 10
104468.027332525
 20
95255.18267004795
 30
0.0
 11
104468.0772644174
 21
95255.20599361954
 31
0.0
  0
LINE
  5
68DF9
330
1F
100
AcDbEntity
  8
freecads.com
100
AcDbLine
 10
104468.0772644174
 20
95255.20599361954
 30
0.0
 11
104468.1285118304
 21
95255.22806297734
 31
0.0
  0
LINE
  5
68DFA
330
1F
100
AcDbEntity
  8
freecads.com
100
AcDbLine
 10
104468.1285118304
 20
95255.22806297734
 30
0.0
 11
104468.1697908343
 21
95255.24292678571
 31
0.0
  0
LINE
  5
68DFB
330
1F
100
AcDbEntity
  8
freecads.com
100
AcDbLine
 10
104468.1697908343
 20
95255.24292678571
 30
0.0
 11
104468.1992296895
 21
95255.251860794
 31
0.0
  0
LINE
  5
68DFC
330
1F
100
AcDbEntity
  8
freecads.com
100
AcDbLine
 10
104468.1992296895
 20
95255.251860794
 30
0.0
 11
104468.2097605699
 21
95255.25468229744
 31
0.0
  0
LINE
  5
68DFD
330
1F
100
AcDbEntity
  8
freecads.com
100
AcDbLine
 10
104468.2097605699
 20
95255.25468229744
 30
0.0
 11
104468.224954011
 21
95255.26099719009
 31
0.0
  0
LINE
  5
68DFE
330
1F
100
AcDbEntity
  8
freecads.com
100
AcDbLine
 10
104468.224954011
 20
95255.26099719009
 30
0.0
 11
104468.2603596009
 21
95255.27536961758
 31
0.0
  0
LINE
  5
68DFF
330
1F
100
AcDbEntity
  8
freecads.com
100
AcDbLine
 10
104468.2603596009
 20
95255.27536961758
 30
0.0
 11
104468.3029562096
 21
95255.29203639084
 31
0.0
  0
LINE
  5
68E00
330
1F
100
AcDbEntity
  8
freecads.com
100
AcDbLine
 10
104468.3029562096
 20
95255.29203639084
 30
0.0
 11
104468.3251364292
 21
95255.30110389635
 31
0.0
  0
LINE
  5
68E01
330
1F
100
AcDbEntity
  8
freecads.com
100
AcDbLine
 10
104468.3251364292
 20
95255.30110389635
 30
0.0
 11
104468.3463524121
 21
95255.30925324671
 31
0.0
  0
LINE
  5
68E02
330
1F
100
AcDbEntity
  8
freecads.com
100
AcDbLine
 10
104468.3463524121
 20
95255.30925324671
 30
0.0
 11
104468.3662871461
 21
95255.31415605614
 31
0.0
  0
LINE
  5
68E03
330
1F
100
AcDbEntity
  8
freecads.com
100
AcDbLine
 10
104468.3662871461
 20
95255.31415605614
 30
0.0
 11
104468.3920422657
 21
95255.30934251502
 31
0.0
  0
LINE
  5
68E04
330
1F
100
AcDbEntity
  8
freecads.com
100
AcDbLine
 10
104468.3920422657
 20
95255.30934251502
 30
0.0
 11
104468.4162347849
 21
95255.30028137755
 31
0.0
  0
LINE
  5
68E05
330
1F
100
AcDbEntity
  8
freecads.com
100
AcDbLine
 10
104468.4162347849
 20
95255.30028137755
 30
0.0
 11
104468.424286299
 21
95255.29666560625
 31
0.0
  0
LINE
  5
68E06
330
1F
100
AcDbEntity
  8
freecads.com
100
AcDbLine
 10
104468.424286299
 20
95255.29666560625
 30
0.0
 11
104468.5255651773
 21
95255.24568854539
 31
0.0
  0
LINE
  5
68E07
330
1F
100
AcDbEntity
  8
freecads.com
100
AcDbLine
 10
104468.5255651773
 20
95255.24568854539
 30
0.0
 11
104468.5304238736
 21
95255.24290038731
 31
0.0
  0
LINE
  5
68E08
330
1F
100
AcDbEntity
  8
freecads.com
100
AcDbLine
 10
104468.5304238736
 20
95255.24290038731
 30
0.0
 11
104468.5530392037
 21
95255.22591266499
 31
0.0
  0
LINE
  5
68E09
330
1F
100
AcDbEntity
  8
freecads.com
100
AcDbLine
 10
104468.5530392037
 20
95255.22591266499
 30
0.0
 11
104468.5926087951
 21
95255.19050933281
 31
0.0
  0
LINE
  5
68E0A
330
1F
100
AcDbEntity
  8
freecads.com
100
AcDbLine
 10
104468.5926087951
 20
95255.19050933281
 30
0.0
 11
104468.6333827558
 21
95255.14448232062
 31
0.0
  0
LINE
  5
68E0B
330
1F
100
AcDbEntity
  8
freecads.com
100
AcDbLine
 10
104468.6333827558
 20
95255.14448232062
 30
0.0
 11
104468.6653651207
 21
95255.09816023676
 31
0.0
  0
LINE
  5
68E0C
330
1F
100
AcDbEntity
  8
freecads.com
100
AcDbLine
 10
104468.6653651207
 20
95255.09816023676
 30
0.0
 11
104468.6864023355
 21
95255.06400660285
 31
0.0
  0
LINE
  5
68E0D
330
1F
100
AcDbEntity
  8
freecads.com
100
AcDbLine
 10
104468.6864023355
 20
95255.06400660285
 30
0.0
 11
104468.6926675575
 21
95255.05316872525
 31
0.0
  0
LINE
  5
68E0E
330
1F
100
AcDbEntity
  8
freecads.com
100
AcDbLine
 10
104468.6926675575
 20
95255.05316872525
 30
0.0
 11
104468.7124603421
 21
95255.01553530657
 31
0.0
  0
LINE
  5
68E0F
330
1F
100
AcDbEntity
  8
freecads.com
100
AcDbLine
 10
104468.7124603421
 20
95255.01553530657
 30
0.0
 11
104468.7383884408
 21
95254.95640079055
 31
0.0
  0
LINE
  5
68E10
330
1F
100
AcDbEntity
  8
freecads.com
100
AcDbLine
 10
104468.7383884408
 20
95254.95640079055
 30
0.0
 11
104468.7530891116
 21
95254.90440976454
 31
0.0
  0
LINE
  5
68E11
330
1F
100
AcDbEntity
  8
freecads.com
100
AcDbLine
 10
104468.7530891116
 20
95254.90440976454
 30
0.0
 11
104468.7552290036
 21
95254.86655861692
 31
0.0
  0
LINE
  5
68E12
330
1F
100
AcDbEntity
  8
freecads.com
100
AcDbLine
 10
104468.7552290036
 20
95254.86655861692
 30
0.0
 11
104468.7536988222
 21
95254.84380544776
 31
0.0
  0
LINE
  5
68E13
330
1F
100
AcDbEntity
  8
freecads.com
100
AcDbLine
 10
104468.7536988222
 20
95254.84380544776
 30
0.0
 11
104468.7522582565
 21
95254.83138268155
 31
0.0
  0
LINE
  5
68E14
330
1F
100
AcDbEntity
  8
freecads.com
100
AcDbLine
 10
104468.7522582565
 20
95254.83138268155
 30
0.0
 11
104468.7458077826
 21
95254.78093144684
 31
0.0
  0
LINE
  5
68E15
330
1F
100
AcDbEntity
  8
freecads.com
100
AcDbLine
 10
104468.7458077826
 20
95254.78093144684
 30
0.0
 11
104468.7344145542
 21
95254.70859118557
 31
0.0
  0
LINE
  5
68E16
330
1F
100
AcDbEntity
  8
freecads.com
100
AcDbLine
 10
104468.7344145542
 20
95254.70859118557
 30
0.0
 11
104468.7202430093
 21
95254.64148655046
 31
0.0
  0
LINE
  5
68E17
330
1F
100
AcDbEntity
  8
freecads.com
100
AcDbLine
 10
104468.7202430093
 20
95254.64148655046
 30
0.0
 11
104468.7066056849
 21
95254.59153358569
 31
0.0
  0
LINE
  5
68E18
330
1F
100
AcDbEntity
  8
freecads.com
100
AcDbLine
 10
104468.7066056849
 20
95254.59153358569
 30
0.0
 11
104468.6986505017
 21
95254.56633445358
 31
0.0
  0
LINE
  5
68E19
330
1F
100
AcDbEntity
  8
freecads.com
100
AcDbLine
 10
104468.6986505017
 20
95254.56633445358
 30
0.0
 11
104468.694241273
 21
95254.55572426222
 31
0.0
  0
LINE
  5
68E1A
330
1F
100
AcDbEntity
  8
freecads.com
100
AcDbLine
 10
104468.694241273
 20
95254.55572426222
 30
0.0
 11
104468.6785677978
 21
95254.51974207552
 31
0.0
  0
LINE
  5
68E1B
330
1F
100
AcDbEntity
  8
freecads.com
100
AcDbLine
 10
104468.6785677978
 20
95254.51974207552
 30
0.0
 11
104468.6555868265
 21
95254.46904567139
 31
0.0
  0
LINE
  5
68E1C
330
1F
100
AcDbEntity
  8
freecads.com
100
AcDbLine
 10
104468.6555868265
 20
95254.46904567139
 30
0.0
 11
104468.6348920963
 21
95254.42596555507
 31
0.0
  0
LINE
  5
68E1D
330
1F
100
AcDbEntity
  8
freecads.com
100
AcDbLine
 10
104468.6348920963
 20
95254.42596555507
 30
0.0
 11
104468.6179394561
 21
95254.39259935787
 31
0.0
  0
LINE
  5
68E1E
330
1F
100
AcDbEntity
  8
freecads.com
100
AcDbLine
 10
104468.6179394561
 20
95254.39259935787
 30
0.0
 11
104468.6095278584
 21
95254.37655283138
 31
0.0
  0
LINE
  5
68E1F
330
1F
100
AcDbEntity
  8
freecads.com
100
AcDbLine
 10
104468.6095278584
 20
95254.37655283138
 30
0.0
 11
104468.6052448326
 21
95254.35598835645
 31
0.0
  0
LINE
  5
68E20
330
1F
100
AcDbEntity
  8
freecads.com
100
AcDbLine
 10
104468.6052448326
 20
95254.35598835645
 30
0.0
 11
104468.5911084856
 21
95254.29544754635
 31
0.0
  0
LINE
  5
68E21
330
1F
100
AcDbEntity
  8
freecads.com
100
AcDbLine
 10
104468.5911084856
 20
95254.29544754635
 30
0.0
 11
104468.568756908
 21
95254.21864774889
 31
0.0
  0
LINE
  5
68E22
330
1F
100
AcDbEntity
  8
freecads.com
100
AcDbLine
 10
104468.568756908
 20
95254.21864774889
 30
0.0
 11
104468.5467670348
 21
95254.16462757689
 31
0.0
  0
LINE
  5
68E23
330
1F
100
AcDbEntity
  8
freecads.com
100
AcDbLine
 10
104468.5467670348
 20
95254.16462757689
 30
0.0
 11
104468.52662945
 21
95254.12652483394
 31
0.0
  0
LINE
  5
68E24
330
1F
100
AcDbEntity
  8
freecads.com
100
AcDbLine
 10
104468.52662945
 20
95254.12652483394
 30
0.0
 11
104468.5175129685
 21
95254.11150506654
 31
0.0
  0
LINE
  5
68E25
330
1F
100
AcDbEntity
  8
freecads.com
100
AcDbLine
 10
104468.5175129685
 20
95254.11150506654
 30
0.0
 11
104468.5181004488
 21
95254.10180017845
 31
0.0
  0
LINE
  5
68E26
330
1F
100
AcDbEntity
  8
freecads.com
100
AcDbLine
 10
104468.5181004488
 20
95254.10180017845
 30
0.0
 11
104468.5191035883
 21
95254.07737250505
 31
0.0
  0
LINE
  5
68E27
330
1F
100
AcDbEntity
  8
freecads.com
100
AcDbLine
 10
104468.5191035883
 20
95254.07737250505
 30
0.0
 11
104468.5192918506
 21
95254.04680917031
 31
0.0
  0
LINE
  5
68E28
330
1F
100
AcDbEntity
  8
freecads.com
100
AcDbLine
 10
104468.5192918506
 20
95254.04680917031
 30
0.0
 11
104468.5180793764
 21
95254.02486387344
 31
0.0
  0
LINE
  5
68E29
330
1F
100
AcDbEntity
  8
freecads.com
100
AcDbLine
 10
104468.5180793764
 20
95254.02486387344
 30
0.0
 11
104468.5163132303
 21
95254.0081407141
 31
0.0
  0
LINE
  5
68E2A
330
1F
100
AcDbEntity
  8
freecads.com
100
AcDbLine
 10
104468.5163132303
 20
95254.0081407141
 30
0.0
 11
104468.5155423505
 21
95254.00226243721
 31
0.0
  0
LINE
  5
68E2B
330
1F
100
AcDbEntity
  8
freecads.com
100
AcDbLine
 10
104468.5155423505
 20
95254.00226243721
 30
0.0
 11
104468.5156157566
 21
95253.99393420292
 31
0.0
  0
LINE
  5
68E2C
330
1F
100
AcDbEntity
  8
freecads.com
100
AcDbLine
 10
104468.5156157566
 20
95253.99393420292
 30
0.0
 11
104468.5149247667
 21
95253.97651090685
 31
0.0
  0
LINE
  5
68E2D
330
1F
100
AcDbEntity
  8
freecads.com
100
AcDbLine
 10
104468.5149247667
 20
95253.97651090685
 30
0.0
 11
104468.512423865
 21
95253.95723393319
 31
0.0
  0
LINE
  5
68E2E
330
1F
100
AcDbEntity
  8
freecads.com
100
AcDbLine
 10
104468.512423865
 20
95253.95723393319
 30
0.0
 11
104468.5084803135
 21
95253.94428099899
 31
0.0
  0
LINE
  5
68E2F
330
1F
100
AcDbEntity
  8
freecads.com
100
AcDbLine
 10
104468.5084803135
 20
95253.94428099899
 30
0.0
 11
104468.5045951164
 21
95253.9355241379
 31
0.0
  0
LINE
  5
68E30
330
1F
100
AcDbEntity
  8
freecads.com
100
AcDbLine
 10
104468.5045951164
 20
95253.9355241379
 30
0.0
 11
104468.5034335864
 21
95253.93258002083
 31
0.0
  0
LINE
  5
68E31
330
1F
100
AcDbEntity
  8
freecads.com
100
AcDbLine
 10
104468.5034335864
 20
95253.93258002083
 30
0.0
 11
104468.5051698606
 21
95253.91740290503
 31
0.0
  0
LINE
  5
68E32
330
1F
100
AcDbEntity
  8
freecads.com
100
AcDbLine
 10
104468.5051698606
 20
95253.91740290503
 30
0.0
 11
104468.5078819496
 21
95253.88601786199
 31
0.0
  0
LINE
  5
68E33
330
1F
100
AcDbEntity
  8
freecads.com
100
AcDbLine
 10
104468.5078819496
 20
95253.88601786199
 30
0.0
 11
104468.5100320304
 21
95253.83946068178
 31
0.0
  0
LINE
  5
68E34
330
1F
100
AcDbEntity
  8
freecads.com
100
AcDbLine
 10
104468.5100320304
 20
95253.83946068178
 30
0.0
 11
104468.5111222383
 21
95253.77955088622
 31
0.0
  0
LINE
  5
68E35
330
1F
100
AcDbEntity
  8
freecads.com
100
AcDbLine
 10
104468.5111222383
 20
95253.77955088622
 30
0.0
 11
104468.5113132794
 21
95253.73618027163
 31
0.0
  0
LINE
  5
68E36
330
1F
100
AcDbEntity
  8
freecads.com
100
AcDbLine
 10
104468.5113132794
 20
95253.73618027163
 30
0.0
 11
104468.5116161664
 21
95253.72532728439
 31
0.0
  0
LINE
  5
68E37
330
1F
100
AcDbEntity
  8
freecads.com
100
AcDbLine
 10
104468.5116161664
 20
95253.72532728439
 30
0.0
 11
104468.5148652545
 21
95253.71072526024
 31
0.0
  0
LINE
  5
68E38
330
1F
100
AcDbEntity
  8
freecads.com
100
AcDbLine
 10
104468.5148652545
 20
95253.71072526024
 30
0.0
 11
104468.5184251029
 21
95253.68605895913
 31
0.0
  0
LINE
  5
68E39
330
1F
100
AcDbEntity
  8
freecads.com
100
AcDbLine
 10
104468.5184251029
 20
95253.68605895913
 30
0.0
 11
104468.5183880525
 21
95253.65767048262
 31
0.0
  0
LINE
  5
68E3A
330
1F
100
AcDbEntity
  8
freecads.com
100
AcDbLine
 10
104468.5183880525
 20
95253.65767048262
 30
0.0
 11
104468.5143317289
 21
95253.63155111131
 31
0.0
  0
LINE
  5
68E3B
330
1F
100
AcDbEntity
  8
freecads.com
100
AcDbLine
 10
104468.5143317289
 20
95253.63155111131
 30
0.0
 11
104468.5102135773
 21
95253.61559883176
 31
0.0
  0
LINE
  5
68E3C
330
1F
100
AcDbEntity
  8
freecads.com
100
AcDbLine
 10
104468.5102135773
 20
95253.61559883176
 30
0.0
 11
104468.5092157639
 21
95253.61258107702
 31
0.0
  0
LINE
  5
68E3D
330
1F
100
AcDbEntity
  8
freecads.com
100
AcDbLine
 10
104468.5092157639
 20
95253.61258107702
 30
0.0
 11
104468.5072805754
 21
95253.60834575362
 31
0.0
  0
LINE
  5
68E3E
330
1F
100
AcDbEntity
  8
freecads.com
100
AcDbLine
 10
104468.5072805754
 20
95253.60834575362
 30
0.0
 11
104468.503481752
 21
95253.60202449295
 31
0.0
  0
LINE
  5
68E3F
330
1F
100
AcDbEntity
  8
freecads.com
100
AcDbLine
 10
104468.503481752
 20
95253.60202449295
 30
0.0
 11
104468.4981622413
 21
95253.59604687469
 31
0.0
  0
LINE
  5
68E40
330
1F
100
AcDbEntity
  8
freecads.com
100
AcDbLine
 10
104468.4981622413
 20
95253.59604687469
 30
0.0
 11
104468.4926093133
 21
95253.59172726165
 31
0.0
  0
LINE
  5
68E41
330
1F
100
AcDbEntity
  8
freecads.com
100
AcDbLine
 10
104468.4926093133
 20
95253.59172726165
 30
0.0
 11
104468.4889843952
 21
95253.58947621853
 31
0.0
  0
LINE
  5
68E42
330
1F
100
AcDbEntity
  8
freecads.com
100
AcDbLine
 10
104468.4889843952
 20
95253.58947621853
 30
0.0
 11
104468.4879733825
 21
95253.58604650969
 31
0.0
  0
LINE
  5
68E43
330
1F
100
AcDbEntity
  8
freecads.com
100
AcDbLine
 10
104468.4879733825
 20
95253.58604650969
 30
0.0
 11
104468.4853189532
 21
95253.57026813544
 31
0.0
  0
LINE
  5
68E44
330
1F
100
AcDbEntity
  8
freecads.com
100
AcDbLine
 10
104468.4853189532
 20
95253.57026813544
 30
0.0
 11
104468.4829637058
 21
95253.54936592302
 31
0.0
  0
LINE
  5
68E45
330
1F
100
AcDbEntity
  8
freecads.com
100
AcDbLine
 10
104468.4829637058
 20
95253.54936592302
 30
0.0
 11
104468.4833657026
 21
95253.53456498452
 31
0.0
  0
LINE
  5
68E46
330
1F
100
AcDbEntity
  8
freecads.com
100
AcDbLine
 10
104468.4833657026
 20
95253.53456498452
 30
0.0
 11
104468.4858425216
 21
95253.5268404401
 31
0.0
  0
LINE
  5
68E47
330
1F
100
AcDbEntity
  8
freecads.com
100
AcDbLine
 10
104468.4858425216
 20
95253.5268404401
 30
0.0
 11
104468.487850653
 21
95253.52382268536
 31
0.0
  0
LINE
  5
68E48
330
1F
100
AcDbEntity
  8
freecads.com
100
AcDbLine
 10
104468.487850653
 20
95253.52382268536
 30
0.0
 11
104468.4891205553
 21
95253.5196908715
 31
0.0
  0
LINE
  5
68E49
330
1F
100
AcDbEntity
  8
freecads.com
100
AcDbLine
 10
104468.4891205553
 20
95253.5196908715
 30
0.0
 11
104468.4923823796
 21
95253.50514766484
 31
0.0
  0
LINE
  5
68E4A
330
1F
100
AcDbEntity
  8
freecads.com
100
AcDbLine
 10
104468.4923823796
 20
95253.50514766484
 30
0.0
 11
104468.493866248
 21
95253.48775134611
 31
0.0
  0
LINE
  5
68E4B
330
1F
100
AcDbEntity
  8
freecads.com
100
AcDbLine
 10
104468.493866248
 20
95253.48775134611
 30
0.0
 11
104468.4903334927
 21
95253.47598228783
 31
0.0
  0
LINE
  5
68E4C
330
1F
100
AcDbEntity
  8
freecads.com
100
AcDbLine
 10
104468.4903334927
 20
95253.47598228783
 30
0.0
 11
104468.4841185203
 21
95253.4702723587
 31
0.0
  0
LINE
  5
68E4D
330
1F
100
AcDbEntity
  8
freecads.com
100
AcDbLine
 10
104468.4841185203
 20
95253.4702723587
 30
0.0
 11
104468.4801629274
 21
95253.46856340918
 31
0.0
  0
LINE
  5
68E4E
330
1F
100
AcDbEntity
  8
freecads.com
100
AcDbLine
 10
104468.4801629274
 20
95253.46856340918
 30
0.0
 11
104468.4783856663
 21
95253.46820402035
 31
0.0
  0
LINE
  5
68E4F
330
1F
100
AcDbEntity
  8
freecads.com
100
AcDbLine
 10
104468.4783856663
 20
95253.46820402035
 30
0.0
 11
104468.4733079095
 21
95253.46705036364
 31
0.0
  0
LINE
  5
68E50
330
1F
100
AcDbEntity
  8
freecads.com
100
AcDbLine
 10
104468.4733079095
 20
95253.46705036364
 30
0.0
 11
104468.46698387
 21
95253.46525666135
 31
0.0
  0
LINE
  5
68E51
330
1F
100
AcDbEntity
  8
freecads.com
100
AcDbLine
 10
104468.46698387
 20
95253.46525666135
 30
0.0
 11
104468.4620151804
 21
95253.46345693836
 31
0.0
  0
LINE
  5
68E52
330
1F
100
AcDbEntity
  8
freecads.com
100
AcDbLine
 10
104468.4620151804
 20
95253.46345693836
 30
0.0
 11
104468.458661888
 21
95253.46187859149
 31
0.0
  0
LINE
  5
68E53
330
1F
100
AcDbEntity
  8
freecads.com
100
AcDbLine
 10
104468.458661888
 20
95253.46187859149
 30
0.0
 11
104468.4573783233
 21
95253.46116930798
 31
0.0
  0
LINE
  5
68E54
330
1F
100
AcDbEntity
  8
freecads.com
100
AcDbLine
 10
104468.4573783233
 20
95253.46116930798
 30
0.0
 11
104468.4598493532
 21
95253.45415821524
 31
0.0
  0
LINE
  5
68E55
330
1F
100
AcDbEntity
  8
freecads.com
100
AcDbLine
 10
104468.4598493532
 20
95253.45415821524
 30
0.0
 11
104468.4649734229
 21
95253.43662064187
 31
0.0
  0
LINE
  5
68E56
330
1F
100
AcDbEntity
  8
freecads.com
100
AcDbLine
 10
104468.4649734229
 20
95253.43662064187
 30
0.0
 11
104468.4687268596
 21
95253.41542364722
 31
0.0
  0
LINE
  5
68E57
330
1F
100
AcDbEntity
  8
freecads.com
100
AcDbLine
 10
104468.4687268596
 20
95253.41542364722
 30
0.0
 11
104468.468003219
 21
95253.4000861727
 31
0.0
  0
LINE
  5
68E58
330
1F
100
AcDbEntity
  8
freecads.com
100
AcDbLine
 10
104468.468003219
 20
95253.4000861727
 30
0.0
 11
104468.4654110807
 21
95253.38937305072
 31
0.0
  0
LINE
  5
68E59
330
1F
100
AcDbEntity
  8
freecads.com
100
AcDbLine
 10
104468.4654110807
 20
95253.38937305072
 30
0.0
 11
104468.4640918551
 21
95253.38576179493
 31
0.0
  0
LINE
  5
68E5A
330
1F
100
AcDbEntity
  8
freecads.com
100
AcDbLine
 10
104468.4640918551
 20
95253.38576179493
 30
0.0
 11
104468.4633168071
 21
95253.38210075268
 31
0.0
  0
LINE
  5
68E5B
330
1F
100
AcDbEntity
  8
freecads.com
100
AcDbLine
 10
104468.4633168071
 20
95253.38210075268
 30
0.0
 11
104468.4602068895
 21
95253.37553148592
 31
0.0
  0
LINE
  5
68E5C
330
1F
100
AcDbEntity
  8
freecads.com
100
AcDbLine
 10
104468.4602068895
 20
95253.37553148592
 30
0.0
 11
104468.4527391506
 21
95253.37028491829
 31
0.0
  0
LINE
  5
68E5D
330
1F
100
AcDbEntity
  8
freecads.com
100
AcDbLine
 10
104468.4527391506
 20
95253.37028491829
 30
0.0
 11
104468.4369244207
 21
95253.3675140118
 31
0.0
  0
LINE
  5
68E5E
330
1F
100
AcDbEntity
  8
freecads.com
100
AcDbLine
 10
104468.4369244207
 20
95253.3675140118
 30
0.0
 11
104468.4184536405
 21
95253.36628440179
 31
0.0
  0
LINE
  5
68E5F
330
1F
100
AcDbEntity
  8
freecads.com
100
AcDbLine
 10
104468.4184536405
 20
95253.36628440179
 30
0.0
 11
104468.4003825414
 21
95253.3639201234
 31
0.0
  0
LINE
  5
68E60
330
1F
100
AcDbEntity
  8
freecads.com
100
AcDbLine
 10
104468.4003825414
 20
95253.3639201234
 30
0.0
 11
104468.3827210808
 21
95253.36380526717
 31
0.0
  0
LINE
  5
68E61
330
1F
100
AcDbEntity
  8
freecads.com
100
AcDbLine
 10
104468.3827210808
 20
95253.36380526717
 30
0.0
 11
104468.3707834432
 21
95253.36594122247
 31
0.0
  0
LINE
  5
68E62
330
1F
100
AcDbEntity
  8
freecads.com
100
AcDbLine
 10
104468.3707834432
 20
95253.36594122247
 30
0.0
 11
104468.3673585972
 21
95253.36672205957
 31
0.0
  0
LINE
  5
68E63
330
1F
100
AcDbEntity
  8
freecads.com
100
AcDbLine
 10
104468.3673585972
 20
95253.36672205957
 30
0.0
 11
104468.3596280321
 21
95253.3667331747
 31
0.0
  0
LINE
  5
68E64
330
1F
100
AcDbEntity
  8
freecads.com
100
AcDbLine
 10
104468.3596280321
 20
95253.3667331747
 30
0.0
 11
104468.3482781065
 21
95253.37068598881
 31
0.0
  0
LINE
  5
68E65
330
1F
100
AcDbEntity
  8
freecads.com
100
AcDbLine
 10
104468.3482781065
 20
95253.37068598881
 30
0.0
 11
104468.340671197
 21
95253.38328219717
 31
0.0
  0
LINE
  5
68E66
330
1F
100
AcDbEntity
  8
freecads.com
100
AcDbLine
 10
104468.340671197
 20
95253.38328219717
 30
0.0
 11
104468.3396763939
 21
95253.40323198289
 31
0.0
  0
LINE
  5
68E67
330
1F
100
AcDbEntity
  8
freecads.com
100
AcDbLine
 10
104468.3396763939
 20
95253.40323198289
 30
0.0
 11
104468.3415416498
 21
95253.41970296796
 31
0.0
  0
LINE
  5
68E68
330
1F
100
AcDbEntity
  8
freecads.com
100
AcDbLine
 10
104468.3415416498
 20
95253.41970296796
 30
0.0
 11
104468.3421566864
 21
95253.42373080912
 31
0.0
  0
LINE
  5
68E69
330
1F
100
AcDbEntity
  8
freecads.com
100
AcDbLine
 10
104468.3421566864
 20
95253.42373080912
 30
0.0
 11
104468.3422643641
 21
95253.42917906984
 31
0.0
  0
LINE
  5
68E6A
330
1F
100
AcDbEntity
  8
freecads.com
100
AcDbLine
 10
104468.3422643641
 20
95253.42917906984
 30
0.0
 11
104468.3428310036
 21
95253.43840160811
 31
0.0
  0
LINE
  5
68E6B
330
1F
100
AcDbEntity
  8
freecads.com
100
AcDbLine
 10
104468.3428310036
 20
95253.43840160811
 30
0.0
 11
104468.3440233316
 21
95253.44741342223
 31
0.0
  0
LINE
  5
68E6C
330
1F
100
AcDbEntity
  8
freecads.com
100
AcDbLine
 10
104468.3440233316
 20
95253.44741342223
 30
0.0
 11
104468.3456132567
 21
95253.45427469243
 31
0.0
  0
LINE
  5
68E6D
330
1F
100
AcDbEntity
  8
freecads.com
100
AcDbLine
 10
104468.3456132567
 20
95253.45427469243
 30
0.0
 11
104468.3468715808
 21
95253.45870198316
 31
0.0
  0
LINE
  5
68E6E
330
1F
100
AcDbEntity
  8
freecads.com
100
AcDbLine
 10
104468.3468715808
 20
95253.45870198316
 30
0.0
 11
104468.3464422593
 21
95253.45972827913
 31
0.0
  0
LINE
  5
68E6F
330
1F
100
AcDbEntity
  8
freecads.com
100
AcDbLine
 10
104468.3464422593
 20
95253.45972827913
 30
0.0
 11
104468.343368929
 21
95253.46274371823
 31
0.0
  0
LINE
  5
68E70
330
1F
100
AcDbEntity
  8
freecads.com
100
AcDbLine
 10
104468.343368929
 20
95253.46274371823
 30
0.0
 11
104468.3410396169
 21
95253.46843512219
 31
0.0
  0
LINE
  5
68E71
330
1F
100
AcDbEntity
  8
freecads.com
100
AcDbLine
 10
104468.3410396169
 20
95253.46843512219
 30
0.0
 11
104468.3436535223
 21
95253.47980588872
 31
0.0
  0
LINE
  5
68E72
330
1F
100
AcDbEntity
  8
freecads.com
100
AcDbLine
 10
104468.3436535223
 20
95253.47980588872
 30
0.0
 11
104468.3501549406
 21
95253.49385493571
 31
0.0
  0
LINE
  5
68E73
330
1F
100
AcDbEntity
  8
freecads.com
100
AcDbLine
 10
104468.3501549406
 20
95253.49385493571
 30
0.0
 11
104468.3551900894
 21
95253.50269423393
 31
0.0
  0
LINE
  5
68E74
330
1F
100
AcDbEntity
  8
freecads.com
100
AcDbLine
 10
104468.3551900894
 20
95253.50269423393
 30
0.0
 11
104468.3562068912
 21
95253.50433718742
 31
0.0
  0
LINE
  5
68E75
330
1F
100
AcDbEntity
  8
freecads.com
100
AcDbLine
 10
104468.3562068912
 20
95253.50433718742
 30
0.0
 11
104468.3585355086
 21
95253.50904374553
 31
0.0
  0
LINE
  5
68E76
330
1F
100
AcDbEntity
  8
freecads.com
100
AcDbLine
 10
104468.3585355086
 20
95253.50904374553
 30
0.0
 11
104468.3614587848
 21
95253.51769663394
 31
0.0
  0
LINE
  5
68E77
330
1F
100
AcDbEntity
  8
freecads.com
100
AcDbLine
 10
104468.3614587848
 20
95253.51769663394
 30
0.0
 11
104468.3632559606
 21
95253.52901020392
 31
0.0
  0
LINE
  5
68E78
330
1F
100
AcDbEntity
  8
freecads.com
100
AcDbLine
 10
104468.3632559606
 20
95253.52901020392
 30
0.0
 11
104468.3636753247
 21
95253.54141328708
 31
0.0
  0
LINE
  5
68E79
330
1F
100
AcDbEntity
  8
freecads.com
100
AcDbLine
 10
104468.3636753247
 20
95253.54141328708
 30
0.0
 11
104468.3643521892
 21
95253.55394813074
 31
0.0
  0
LINE
  5
68E7A
330
1F
100
AcDbEntity
  8
freecads.com
100
AcDbLine
 10
104468.3643521892
 20
95253.55394813074
 30
0.0
 11
104468.3669635474
 21
95253.56751042817
 31
0.0
  0
LINE
  5
68E7B
330
1F
100
AcDbEntity
  8
freecads.com
100
AcDbLine
 10
104468.3669635474
 20
95253.56751042817
 30
0.0
 11
104468.3702487597
 21
95253.57815755413
 31
0.0
  0
LINE
  5
68E7C
330
1F
100
AcDbEntity
  8
freecads.com
100
AcDbLine
 10
104468.3702487597
 20
95253.57815755413
 30
0.0
 11
104468.3721570867
 21
95253.58306302656
 31
0.0
  0
LINE
  5
68E7D
330
1F
100
AcDbEntity
  8
freecads.com
100
AcDbLine
 10
104468.3721570867
 20
95253.58306302656
 30
0.0
 11
104468.373983208
 21
95253.58885076153
 31
0.0
  0
LINE
  5
68E7E
330
1F
100
AcDbEntity
  8
freecads.com
100
AcDbLine
 10
104468.373983208
 20
95253.58885076153
 30
0.0
 11
104468.3792170396
 21
95253.60719811761
 31
0.0
  0
LINE
  5
68E7F
330
1F
100
AcDbEntity
  8
freecads.com
100
AcDbLine
 10
104468.3792170396
 20
95253.60719811761
 30
0.0
 11
104468.38518609
 21
95253.63243221603
 31
0.0
  0
LINE
  5
68E80
330
1F
100
AcDbEntity
  8
freecads.com
100
AcDbLine
 10
104468.38518609
 20
95253.63243221603
 30
0.0
 11
104468.3888904349
 21
95253.6554002196
 31
0.0
  0
LINE
  5
68E81
330
1F
100
AcDbEntity
  8
freecads.com
100
AcDbLine
 10
104468.3888904349
 20
95253.6554002196
 30
0.0
 11
104468.3906403714
 21
95253.67345626694
 31
0.0
  0
LINE
  5
68E82
330
1F
100
AcDbEntity
  8
freecads.com
100
AcDbLine
 10
104468.3906403714
 20
95253.67345626694
 30
0.0
 11
104468.3911072064
 21
95253.68120419942
 31
0.0
  0
LINE
  5
68E83
330
1F
100
AcDbEntity
  8
freecads.com
100
AcDbLine
 10
104468.3911072064
 20
95253.68120419942
 30
0.0
 11
104468.3933332405
 21
95253.69635225381
 31
0.0
  0
LINE
  5
68E84
330
1F
100
AcDbEntity
  8
freecads.com
100
AcDbLine
 10
104468.3933332405
 20
95253.69635225381
 30
0.0
 11
104468.398558041
 21
95253.73672097586
 31
0.0
  0
LINE
  5
68E85
330
1F
100
AcDbEntity
  8
freecads.com
100
AcDbLine
 10
104468.398558041
 20
95253.73672097586
 30
0.0
 11
104468.4039305799
 21
95253.79036161284
 31
0.0
  0
LINE
  5
68E86
330
1F
100
AcDbEntity
  8
freecads.com
100
AcDbLine
 10
104468.4039305799
 20
95253.79036161284
 30
0.0
 11
104468.4072220445
 21
95253.84351885795
 31
0.0
  0
LINE
  5
68E87
330
1F
100
AcDbEntity
  8
freecads.com
100
AcDbLine
 10
104468.4072220445
 20
95253.84351885795
 30
0.0
 11
104468.4086540423
 21
95253.8842081817
 31
0.0
  0
LINE
  5
68E88
330
1F
100
AcDbEntity
  8
freecads.com
100
AcDbLine
 10
104468.4086540423
 20
95253.8842081817
 30
0.0
 11
104468.408930994
 21
95253.89885837139
 31
0.0
  0
LINE
  5
68E89
330
1F
100
AcDbEntity
  8
freecads.com
100
AcDbLine
 10
104468.408930994
 20
95253.89885837139
 30
0.0
 11
104468.4065102138
 21
95253.9076658294
 31
0.0
  0
LINE
  5
68E8A
330
1F
100
AcDbEntity
  8
freecads.com
100
AcDbLine
 10
104468.4065102138
 20
95253.9076658294
 30
0.0
 11
104468.4019645933
 21
95253.92603784714
 31
0.0
  0
LINE
  5
68E8B
330
1F
100
AcDbEntity
  8
freecads.com
100
AcDbLine
 10
104468.4019645933
 20
95253.92603784714
 30
0.0
 11
104468.3978964598
 21
95253.94754455996
 31
0.0
  0
LINE
  5
68E8C
330
1F
100
AcDbEntity
  8
freecads.com
100
AcDbLine
 10
104468.3978964598
 20
95253.94754455996
 30
0.0
 11
104468.3949405329
 21
95253.97288158901
 31
0.0
  0
LINE
  5
68E8D
330
1F
100
AcDbEntity
  8
freecads.com
100
AcDbLine
 10
104468.3949405329
 20
95253.97288158901
 30
0.0
 11
104468.393794981
 21
95253.9902139958
 31
0.0
  0
LINE
  5
68E8E
330
1F
100
AcDbEntity
  8
freecads.com
100
AcDbLine
 10
104468.393794981
 20
95253.9902139958
 30
0.0
 11
104468.3935759205
 21
95253.99543381768
 31
0.0
  0
LINE
  5
68E8F
330
1F
100
AcDbEntity
  8
freecads.com
100
AcDbLine
 10
104468.3935759205
 20
95253.99543381768
 30
0.0
 11
104468.3920207302
 21
95254.00629745689
 31
0.0
  0
LINE
  5
68E90
330
1F
100
AcDbEntity
  8
freecads.com
100
AcDbLine
 10
104468.3920207302
 20
95254.00629745689
 30
0.0
 11
104468.388418737
 21
95254.02830851822
 31
0.0
  0
LINE
  5
68E91
330
1F
100
AcDbEntity
  8
freecads.com
100
AcDbLine
 10
104468.388418737
 20
95254.02830851822
 30
0.0
 11
104468.38299618
 21
95254.05600403654
 31
0.0
  0
LINE
  5
68E92
330
1F
100
AcDbEntity
  8
freecads.com
100
AcDbLine
 10
104468.38299618
 20
95254.05600403654
 30
0.0
 11
104468.3767768079
 21
95254.08313071551
 31
0.0
  0
LINE
  5
68E93
330
1F
100
AcDbEntity
  8
freecads.com
100
AcDbLine
 10
104468.3767768079
 20
95254.08313071551
 30
0.0
 11
104468.3720350519
 21
95254.1022738446
 31
0.0
  0
LINE
  5
68E94
330
1F
100
AcDbEntity
  8
freecads.com
100
AcDbLine
 10
104468.3720350519
 20
95254.1022738446
 30
0.0
 11
104468.370518996
 21
95254.1075974076
 31
0.0
  0
LINE
  5
68E95
330
1F
100
AcDbEntity
  8
freecads.com
100
AcDbLine
 10
104468.370518996
 20
95254.1075974076
 30
0.0
 11
104468.3651075541
 21
95254.11952184596
 31
0.0
  0
LINE
  5
68E96
330
1F
100
AcDbEntity
  8
freecads.com
100
AcDbLine
 10
104468.3651075541
 20
95254.11952184596
 30
0.0
 11
104468.3546234499
 21
95254.13890232917
 31
0.0
  0
LINE
  5
68E97
330
1F
100
AcDbEntity
  8
freecads.com
100
AcDbLine
 10
104468.3546234499
 20
95254.13890232917
 30
0.0
 11
104468.3411732299
 21
95254.15759483284
 31
0.0
  0
LINE
  5
68E98
330
1F
100
AcDbEntity
  8
freecads.com
100
AcDbLine
 10
104468.3411732299
 20
95254.15759483284
 30
0.0
 11
104468.3265966779
 21
95254.17374938438
 31
0.0
  0
LINE
  5
68E99
330
1F
100
AcDbEntity
  8
freecads.com
100
AcDbLine
 10
104468.3265966779
 20
95254.17374938438
 30
0.0
 11
104468.3118670614
 21
95254.18893495229
 31
0.0
  0
LINE
  5
68E9A
330
1F
100
AcDbEntity
  8
freecads.com
100
AcDbLine
 10
104468.3118670614
 20
95254.18893495229
 30
0.0
 11
104468.2979960878
 21
95254.204022684
 31
0.0
  0
LINE
  5
68E9B
330
1F
100
AcDbEntity
  8
freecads.com
100
AcDbLine
 10
104468.2979960878
 20
95254.204022684
 30
0.0
 11
104468.2867147054
 21
95254.21750370213
 31
0.0
  0
LINE
  5
68E9C
330
1F
100
AcDbEntity
  8
freecads.com
100
AcDbLine
 10
104468.2867147054
 20
95254.21750370213
 30
0.0
 11
104468.2804147487
 21
95254.22559875051
 31
0.0
  0
LINE
  5
68E9D
330
1F
100
AcDbEntity
  8
freecads.com
100
AcDbLine
 10
104468.2804147487
 20
95254.22559875051
 30
0.0
 11
104468.2762715882
 21
95254.22518934364
 31
0.0
  0
LINE
  5
68E9E
330
1F
100
AcDbEntity
  8
freecads.com
100
AcDbLine
 10
104468.2762715882
 20
95254.22518934364
 30
0.0
 11
104468.2533735173
 21
95254.2160699676
 31
0.0
  0
LINE
  5
68E9F
330
1F
100
AcDbEntity
  8
freecads.com
100
AcDbLine
 10
104468.2533735173
 20
95254.2160699676
 30
0.0
 11
104468.2144483713
 21
95254.20410570005
 31
0.0
  0
LINE
  5
68EA0
330
1F
100
AcDbEntity
  8
freecads.com
100
AcDbLine
 10
104468.2144483713
 20
95254.20410570005
 30
0.0
 11
104468.1601551842
 21
95254.19420386596
 31
0.0
  0
LINE
  5
68EA1
330
1F
100
AcDbEntity
  8
freecads.com
100
AcDbLine
 10
104468.1601551842
 20
95254.19420386596
 30
0.0
 11
104468.1045957998
 21
95254.18846475961
 31
0.0
  0
LINE
  5
68EA2
330
1F
100
AcDbEntity
  8
freecads.com
100
AcDbLine
 10
104468.1045957998
 20
95254.18846475961
 30
0.0
 11
104468.0711013156
 21
95254.18638692709
 31
0.0
  0
LINE
  5
68EA3
330
1F
100
AcDbEntity
  8
freecads.com
100
AcDbLine
 10
104468.0711013156
 20
95254.18638692709
 30
0.0
 11
104468.0689139528
 21
95254.18182926525
 31
0.0
  0
LINE
  5
68EA4
330
1F
100
AcDbEntity
  8
freecads.com
100
AcDbLine
 10
104468.0689139528
 20
95254.18182926525
 30
0.0
 11
104468.0724379086
 21
95254.16004374823
 31
0.0
  0
LINE
  5
68EA5
330
1F
100
AcDbEntity
  8
freecads.com
100
AcDbLine
 10
104468.0724379086
 20
95254.16004374823
 30
0.0
 11
104468.0768684413
 21
95254.12604862056
 31
0.0
  0
LINE
  5
68EA6
330
1F
100
AcDbEntity
  8
freecads.com
100
AcDbLine
 10
104468.0768684413
 20
95254.12604862056
 30
0.0
 11
104468.0798702181
 21
95254.09035195345
 31
0.0
  0
LINE
  5
68EA7
330
1F
100
AcDbEntity
  8
freecads.com
100
AcDbLine
 10
104468.0798702181
 20
95254.09035195345
 30
0.0
 11
104468.0812227891
 21
95254.05969483488
 31
0.0
  0
LINE
  5
68EA8
330
1F
100
AcDbEntity
  8
freecads.com
100
AcDbLine
 10
104468.0812227891
 20
95254.05969483488
 30
0.0
 11
104468.0816097341
 21
95254.04302563019
 31
0.0
  0
LINE
  5
68EA9
330
1F
100
AcDbEntity
  8
freecads.com
100
AcDbLine
 10
104468.0816097341
 20
95254.04302563019
 30
0.0
 11
104468.0823160073
 21
95254.03045477819
 31
0.0
  0
LINE
  5
68EAA
330
1F
100
AcDbEntity
  8
freecads.com
100
AcDbLine
 10
104468.0823160073
 20
95254.03045477819
 30
0.0
 11
104468.0852909225
 21
95253.98841959882
 31
0.0
  0
LINE
  5
68EAB
330
1F
100
AcDbEntity
  8
freecads.com
100
AcDbLine
 10
104468.0852909225
 20
95253.98841959882
 30
0.0
 11
104468.0905048395
 21
95253.93300795288
 31
0.0
  0
LINE
  5
68EAC
330
1F
100
AcDbEntity
  8
freecads.com
100
AcDbLine
 10
104468.0905048395
 20
95253.93300795288
 30
0.0
 11
104468.0960253485
 21
95253.89340571093
 31
0.0
  0
LINE
  5
68EAD
330
1F
100
AcDbEntity
  8
freecads.com
100
AcDbLine
 10
104468.0960253485
 20
95253.89340571093
 30
0.0
 11
104468.1014279909
 21
95253.86582759605
 31
0.0
  0
LINE
  5
68EAE
330
1F
100
AcDbEntity
  8
freecads.com
100
AcDbLine
 10
104468.1014279909
 20
95253.86582759605
 30
0.0
 11
104468.1042776295
 21
95253.85357074615
 31
0.0
  0
LINE
  5
68EAF
330
1F
100
AcDbEntity
  8
freecads.com
100
AcDbLine
 10
104468.1042776295
 20
95253.85357074615
 30
0.0
 11
104468.1068794936
 21
95253.83908635699
 31
0.0
  0
LINE
  5
68EB0
330
1F
100
AcDbEntity
  8
freecads.com
100
AcDbLine
 10
104468.1068794936
 20
95253.83908635699
 30
0.0
 11
104468.1132579508
 21
95253.79880910312
 31
0.0
  0
LINE
  5
68EB1
330
1F
100
AcDbEntity
  8
freecads.com
100
AcDbLine
 10
104468.1132579508
 20
95253.79880910312
 30
0.0
 11
104468.1189611646
 21
95253.74991508497
 31
0.0
  0
LINE
  5
68EB2
330
1F
100
AcDbEntity
  8
freecads.com
100
AcDbLine
 10
104468.1189611646
 20
95253.74991508497
 30
0.0
 11
104468.1195169205
 21
95253.72167365224
 31
0.0
  0
LINE
  5
68EB3
330
1F
100
AcDbEntity
  8
freecads.com
100
AcDbLine
 10
104468.1195169205
 20
95253.72167365224
 30
0.0
 11
104468.117731323
 21
95253.70247714739
 31
0.0
  0
LINE
  5
68EB4
330
1F
100
AcDbEntity
  8
freecads.com
100
AcDbLine
 10
104468.117731323
 20
95253.70247714739
 30
0.0
 11
104468.1165225538
 21
95253.69530650639
 31
0.0
  0
LINE
  5
68EB5
330
1F
100
AcDbEntity
  8
freecads.com
100
AcDbLine
 10
104468.1165225538
 20
95253.69530650639
 30
0.0
 11
104468.1187675762
 21
95253.68329777837
 31
0.0
  0
LINE
  5
68EB6
330
1F
100
AcDbEntity
  8
freecads.com
100
AcDbLine
 10
104468.1187675762
 20
95253.68329777837
 30
0.0
 11
104468.1251414022
 21
95253.65354260539
 31
0.0
  0
LINE
  5
68EB7
330
1F
100
AcDbEntity
  8
freecads.com
100
AcDbLine
 10
104468.1251414022
 20
95253.65354260539
 30
0.0
 11
104468.1348967714
 21
95253.61589755059
 31
0.0
  0
LINE
  5
68EB8
330
1F
100
AcDbEntity
  8
freecads.com
100
AcDbLine
 10
104468.1348967714
 20
95253.61589755059
 30
0.0
 11
104468.143639507
 21
95253.58997385167
 31
0.0
  0
LINE
  5
68EB9
330
1F
100
AcDbEntity
  8
freecads.com
100
AcDbLine
 10
104468.143639507
 20
95253.58997385167
 30
0.0
 11
104468.1520494838
 21
95253.56813611672
 31
0.0
  0
LINE
  5
68EBA
330
1F
100
AcDbEntity
  8
freecads.com
100
AcDbLine
 10
104468.1520494838
 20
95253.56813611672
 30
0.0
 11
104468.1553462743
 21
95253.56016009276
 31
0.0
  0
LINE
  5
68EBB
330
1F
100
AcDbEntity
  8
freecads.com
100
AcDbLine
 10
104468.1553462743
 20
95253.56016009276
 30
0.0
 11
104468.1657187642
 21
95253.54066741629
 31
0.0
  0
LINE
  5
68EBC
330
1F
100
AcDbEntity
  8
freecads.com
100
AcDbLine
 10
104468.1657187642
 20
95253.54066741629
 30
0.0
 11
104468.1844169413
 21
95253.50245525887
 31
0.0
  0
LINE
  5
68EBD
330
1F
100
AcDbEntity
  8
freecads.com
100
AcDbLine
 10
104468.1844169413
 20
95253.50245525887
 30
0.0
 11
104468.1993540399
 21
95253.46549633109
 31
0.0
  0
LINE
  5
68EBE
330
1F
100
AcDbEntity
  8
freecads.com
100
AcDbLine
 10
104468.1993540399
 20
95253.46549633109
 30
0.0
 11
104468.2020031433
 21
95253.44775984342
 31
0.0
  0
LINE
  5
68EBF
330
1F
100
AcDbEntity
  8
freecads.com
100
AcDbLine
 10
104468.2020031433
 20
95253.44775984342
 30
0.0
 11
104468.2015747481
 21
95253.43467109635
 31
0.0
  0
LINE
  5
68EC0
330
1F
100
AcDbEntity
  8
freecads.com
100
AcDbLine
 10
104468.2015747481
 20
95253.43467109635
 30
0.0
 11
104468.2011472791
 21
95253.43075880613
 31
0.0
  0
LINE
  5
68EC1
330
1F
100
AcDbEntity
  8
freecads.com
100
AcDbLine
 10
104468.2011472791
 20
95253.43075880613
 30
0.0
 11
104468.2014415982
 21
95253.4227795402
 31
0.0
  0
LINE
  5
68EC2
330
1F
100
AcDbEntity
  8
freecads.com
100
AcDbLine
 10
104468.2014415982
 20
95253.4227795402
 30
0.0
 11
104468.2015015735
 21
95253.40752566064
 31
0.0
  0
LINE
  5
68EC3
330
1F
100
AcDbEntity
  8
freecads.com
100
AcDbLine
 10
104468.2015015735
 20
95253.40752566064
 30
0.0
 11
104468.2007431982
 21
95253.39128323018
 31
0.0
  0
LINE
  5
68EC4
330
1F
100
AcDbEntity
  8
freecads.com
100
AcDbLine
 10
104468.2007431982
 20
95253.39128323018
 30
0.0
 11
104468.1992806339
 21
95253.37906563056
 31
0.0
  0
LINE
  5
68EC5
330
1F
100
AcDbEntity
  8
freecads.com
100
AcDbLine
 10
104468.1992806339
 20
95253.37906563056
 30
0.0
 11
104468.1978618353
 21
95253.36989148939
 31
0.0
  0
LINE
  5
68EC6
330
1F
100
AcDbEntity
  8
freecads.com
100
AcDbLine
 10
104468.1978618353
 20
95253.36989148939
 30
0.0
 11
104468.1977428108
 21
95253.36603616413
 31
0.0
  0
LINE
  5
68EC7
330
1F
100
AcDbEntity
  8
freecads.com
100
AcDbLine
 10
104468.1977428108
 20
95253.36603616413
 30
0.0
 11
104468.2003330967
 21
95253.34711985291
 31
0.0
  0
LINE
  5
68EC8
330
1F
100
AcDbEntity
  8
freecads.com
100
AcDbLine
 10
104468.2003330967
 20
95253.34711985291
 30
0.0
 11
104468.2057781155
 21
95253.31881404509
 31
0.0
  0
LINE
  5
68EC9
330
1F
100
AcDbEntity
  8
freecads.com
100
AcDbLine
 10
104468.2057781155
 20
95253.31881404509
 30
0.0
 11
104468.2121294796
 21
95253.29946864399
 31
0.0
  0
LINE
  5
68ECA
330
1F
100
AcDbEntity
  8
freecads.com
100
AcDbLine
 10
104468.2121294796
 20
95253.29946864399
 30
0.0
 11
104468.2186964307
 21
95253.29221903932
 31
0.0
  0
LINE
  5
68ECB
330
1F
100
AcDbEntity
  8
freecads.com
100
AcDbLine
 10
104468.2186964307
 20
95253.29221903932
 30
0.0
 11
104468.2241162089
 21
95253.28875228009
 31
0.0
  0
LINE
  5
68ECC
330
1F
100
AcDbEntity
  8
freecads.com
100
AcDbLine
 10
104468.2241162089
 20
95253.28875228009
 30
0.0
 11
104468.2257158598
 21
95253.28776257138
 31
0.0
  0
LINE
  5
68ECD
330
1F
100
AcDbEntity
  8
freecads.com
100
AcDbLine
 10
104468.2257158598
 20
95253.28776257138
 30
0.0
 11
104468.2298791665
 21
95253.28293073663
 31
0.0
  0
LINE
  5
68ECE
330
1F
100
AcDbEntity
  8
freecads.com
100
AcDbLine
 10
104468.2298791665
 20
95253.28293073663
 30
0.0
 11
104468.2342369877
 21
95253.27258881329
 31
0.0
  0
LINE
  5
68ECF
330
1F
100
AcDbEntity
  8
freecads.com
100
AcDbLine
 10
104468.2342369877
 20
95253.27258881329
 30
0.0
 11
104468.2348385935
 21
95253.25818801908
 31
0.0
  0
LINE
  5
68ED0
330
1F
100
AcDbEntity
  8
freecads.com
100
AcDbLine
 10
104468.2348385935
 20
95253.25818801908
 30
0.0
 11
104468.2319185592
 21
95253.24274124589
 31
0.0
  0
LINE
  5
68ED1
330
1F
100
AcDbEntity
  8
freecads.com
100
AcDbLine
 10
104468.2319185592
 20
95253.24274124589
 30
0.0
 11
104468.2290591949
 21
95253.23230831752
 31
0.0
  0
LINE
  5
68ED2
330
1F
100
AcDbEntity
  8
freecads.com
100
AcDbLine
 10
104468.2290591949
 20
95253.23230831752
 30
0.0
 11
104468.2281639647
 21
95253.22941143969
 31
0.0
  0
LINE
  5
68ED3
330
1F
100
AcDbEntity
  8
freecads.com
100
AcDbLine
 10
104468.2281639647
 20
95253.22941143969
 30
0.0
 11
104468.224176879
 21
95253.22106491174
 31
0.0
  0
LINE
  5
68ED4
330
1F
100
AcDbEntity
  8
freecads.com
100
AcDbLine
 10
104468.224176879
 20
95253.22106491174
 30
0.0
 11
104468.215097911
 21
95253.21087026371
 31
0.0
  0
LINE
  5
68ED5
330
1F
100
AcDbEntity
  8
freecads.com
100
AcDbLine
 10
104468.215097911
 20
95253.21087026371
 30
0.0
 11
104468.2015351504
 21
95253.20469373115
 31
0.0
  0
LINE
  5
68ED6
330
1F
100
AcDbEntity
  8
freecads.com
100
AcDbLine
 10
104468.2015351504
 20
95253.20469373115
 30
0.0
 11
104468.1867782093
 21
95253.20268861003
 31
0.0
  0
LINE
  5
68ED7
330
1F
100
AcDbEntity
  8
freecads.com
100
AcDbLine
 10
104468.1867782093
 20
95253.20268861003
 30
0.0
 11
104468.177738839
 21
95253.20252211482
 31
0.0
  0
LINE
  5
68ED8
330
1F
100
AcDbEntity
  8
freecads.com
100
AcDbLine
 10
104468.177738839
 20
95253.20252211482
 30
0.0
 11
104468.1665605029
 21
95253.20260408882
 31
0.0
  0
LINE
  5
68ED9
330
1F
100
AcDbEntity
  8
freecads.com
100
AcDbLine
 10
104468.1665605029
 20
95253.20260408882
 30
0.0
 11
104468.1312558753
 21
95253.20476968447
 31
0.0
  0
LINE
  5
68EDA
330
1F
100
AcDbEntity
  8
freecads.com
100
AcDbLine
 10
104468.1312558753
 20
95253.20476968447
 30
0.0
 11
104468.0940788133
 21
95253.21265493499
 31
0.0
  0
LINE
  5
68EDB
330
1F
100
AcDbEntity
  8
freecads.com
100
AcDbLine
 10
104468.0940788133
 20
95253.21265493499
 30
0.0
 11
104468.0849634897
 21
95253.22371679381
 31
0.0
  0
LINE
  5
68EDC
330
1F
100
AcDbEntity
  8
freecads.com
100
AcDbLine
 10
104468.0849634897
 20
95253.22371679381
 30
0.0
 11
104468.0881776115
 21
95253.23901467075
 31
0.0
  0
LINE
  5
68EDD
330
1F
100
AcDbEntity
  8
freecads.com
100
AcDbLine
 10
104468.0881776115
 20
95253.23901467075
 30
0.0
 11
104468.0919511943
 21
95253.24832196178
 31
0.0
  0
LINE
  5
68EDE
330
1F
100
AcDbEntity
  8
freecads.com
100
AcDbLine
 10
104468.0919511943
 20
95253.24832196178
 30
0.0
 11
104468.0928177105
 21
95253.25075941468
 31
0.0
  0
LINE
  5
68EDF
330
1F
100
AcDbEntity
  8
freecads.com
100
AcDbLine
 10
104468.0928177105
 20
95253.25075941468
 30
0.0
 11
104468.0946581889
 21
95253.25740903451
 31
0.0
  0
LINE
  5
68EE0
330
1F
100
AcDbEntity
  8
freecads.com
100
AcDbLine
 10
104468.0946581889
 20
95253.25740903451
 30
0.0
 11
104468.0958224976
 21
95253.26577130886
 31
0.0
  0
LINE
  5
68EE1
330
1F
100
AcDbEntity
  8
freecads.com
100
AcDbLine
 10
104468.0958224976
 20
95253.26577130886
 30
0.0
 11
104468.0952736886
 21
95253.27362992943
 31
0.0
  0
LINE
  5
68EE2
330
1F
100
AcDbEntity
  8
freecads.com
100
AcDbLine
 10
104468.0952736886
 20
95253.27362992943
 30
0.0
 11
104468.0939609468
 21
95253.28107867995
 31
0.0
  0
LINE
  5
68EE3
330
1F
100
AcDbEntity
  8
freecads.com
100
AcDbLine
 10
104468.0939609468
 20
95253.28107867995
 30
0.0
 11
104468.0936941839
 21
95253.28885370553
 31
0.0
  0
LINE
  5
68EE4
330
1F
100
AcDbEntity
  8
freecads.com
100
AcDbLine
 10
104468.0936941839
 20
95253.28885370553
 30
0.0
 11
104468.0955036326
 21
95253.2996490331
 31
0.0
  0
LINE
  5
68EE5
330
1F
100
AcDbEntity
  8
freecads.com
100
AcDbLine
 10
104468.0955036326
 20
95253.2996490331
 30
0.0
 11
104468.0973422585
 21
95253.30558195932
 31
0.0
  0
LINE
  5
68EE6
330
1F
100
AcDbEntity
  8
freecads.com
100
AcDbLine
 10
104468.0973422585
 20
95253.30558195932
 30
0.0
 11
104468.0981309688
 21
95253.3073010977
 31
0.0
  0
LINE
  5
68EE7
330
1F
100
AcDbEntity
  8
freecads.com
100
AcDbLine
 10
104468.0981309688
 20
95253.3073010977
 30
0.0
 11
104468.1014351694
 21
95253.31301334249
 31
0.0
  0
LINE
  5
68EE8
330
1F
100
AcDbEntity
  8
freecads.com
100
AcDbLine
 10
104468.1014351694
 20
95253.31301334249
 30
0.0
 11
104468.1075355171
 21
95253.3270438643
 31
0.0
  0
LINE
  5
68EE9
330
1F
100
AcDbEntity
  8
freecads.com
100
AcDbLine
 10
104468.1075355171
 20
95253.3270438643
 30
0.0
 11
104468.1120285724
 21
95253.34685795293
 31
0.0
  0
LINE
  5
68EEA
330
1F
100
AcDbEntity
  8
freecads.com
100
AcDbLine
 10
104468.1120285724
 20
95253.34685795293
 30
0.0
 11
104468.1123851824
 21
95253.36972893077
 31
0.0
  0
LINE
  5
68EEB
330
1F
100
AcDbEntity
  8
freecads.com
100
AcDbLine
 10
104468.1123851824
 20
95253.36972893077
 30
0.0
 11
104468.1106734541
 21
95253.38752400438
 31
0.0
  0
LINE
  5
68EEC
330
1F
100
AcDbEntity
  8
freecads.com
100
AcDbLine
 10
104468.1106734541
 20
95253.38752400438
 30
0.0
 11
104468.1097464995
 21
95253.3931653903
 31
0.0
  0
LINE
  5
68EED
330
1F
100
AcDbEntity
  8
freecads.com
100
AcDbLine
 10
104468.1097464995
 20
95253.3931653903
 30
0.0
 11
104468.1072328617
 21
95253.39627391852
 31
0.0
  0
LINE
  5
68EEE
330
1F
100
AcDbEntity
  8
freecads.com
100
AcDbLine
 10
104468.1072328617
 20
95253.39627391852
 30
0.0
 11
104468.1029778553
 21
95253.40303793143
 31
0.0
  0
LINE
  5
68EEF
330
1F
100
AcDbEntity
  8
freecads.com
100
AcDbLine
 10
104468.1029778553
 20
95253.40303793143
 30
0.0
 11
104468.0990275884
 21
95253.41369941443
 31
0.0
  0
LINE
  5
68EF0
330
1F
100
AcDbEntity
  8
freecads.com
100
AcDbLine
 10
104468.0990275884
 20
95253.41369941443
 30
0.0
 11
104468.0957379764
 21
95253.42963038999
 31
0.0
  0
LINE
  5
68EF1
330
1F
100
AcDbEntity
  8
freecads.com
100
AcDbLine
 10
104468.0957379764
 20
95253.42963038999
 30
0.0
 11
104468.094136473
 21
95253.44164583341
 31
0.0
  0
LINE
  5
68EF2
330
1F
100
AcDbEntity
  8
freecads.com
100
AcDbLine
 10
104468.094136473
 20
95253.44164583341
 30
0.0
 11
104468.0938986558
 21
95253.44530317061
 31
0.0
  0
LINE
  5
68EF3
330
1F
100
AcDbEntity
  8
freecads.com
100
AcDbLine
 10
104468.0938986558
 20
95253.44530317061
 30
0.0
 11
104468.09432543
 21
95253.45534452261
 31
0.0
  0
LINE
  5
68EF4
330
1F
100
AcDbEntity
  8
freecads.com
100
AcDbLine
 10
104468.09432543
 20
95253.45534452261
 30
0.0
 11
104468.0937937568
 21
95253.47308772564
 31
0.0
  0
LINE
  5
68EF5
330
1F
100
AcDbEntity
  8
freecads.com
100
AcDbLine
 10
104468.0937937568
 20
95253.47308772564
 30
0.0
 11
104468.0907380254
 21
95253.49229974535
 31
0.0
  0
LINE
  5
68EF6
330
1F
100
AcDbEntity
  8
freecads.com
100
AcDbLine
 10
104468.0907380254
 20
95253.49229974535
 30
0.0
 11
104468.0856019143
 21
95253.50789981455
 31
0.0
  0
LINE
  5
68EF7
330
1F
100
AcDbEntity
  8
freecads.com
100
AcDbLine
 10
104468.0856019143
 20
95253.50789981455
 30
0.0
 11
104468.0812517347
 21
95253.51766398328
 31
0.0
  0
LINE
  5
68EF8
330
1F
100
AcDbEntity
  8
freecads.com
100
AcDbLine
 10
104468.0812517347
 20
95253.51766398328
 30
0.0
 11
104468.0789865661
 21
95253.52496291128
 31
0.0
  0
LINE
  5
68EF9
330
1F
100
AcDbEntity
  8
freecads.com
100
AcDbLine
 10
104468.0789865661
 20
95253.52496291128
 30
0.0
 11
104468.0671721211
 21
95253.57028990256
 31
0.0
  0
LINE
  5
68EFA
330
1F
100
AcDbEntity
  8
freecads.com
100
AcDbLine
 10
104468.0671721211
 20
95253.57028990256
 30
0.0
 11
104468.0488060083
 21
95253.63411546182
 31
0.0
  0
LINE
  5
68EFB
330
1F
100
AcDbEntity
  8
freecads.com
100
AcDbLine
 10
104468.0488060083
 20
95253.63411546182
 30
0.0
 11
104468.0352379217
 21
95253.67146712381
 31
0.0
  0
LINE
  5
68EFC
330
1F
100
AcDbEntity
  8
freecads.com
100
AcDbLine
 10
104468.0352379217
 20
95253.67146712381
 30
0.0
 11
104468.0255432225
 21
95253.68455934435
 31
0.0
  0
LINE
  5
68EFD
330
1F
100
AcDbEntity
  8
freecads.com
100
AcDbLine
 10
104468.0255432225
 20
95253.68455934435
 30
0.0
 11
104468.0182019181
 21
95253.69146136998
 31
0.0
  0
LINE
  5
68EFE
330
1F
100
AcDbEntity
  8
freecads.com
100
AcDbLine
 10
104468.0182019181
 20
95253.69146136998
 30
0.0
 11
104468.0149222633
 21
95253.69489385761
 31
0.0
  0
LINE
  5
68EFF
330
1F
100
AcDbEntity
  8
freecads.com
100
AcDbLine
 10
104468.0149222633
 20
95253.69489385761
 30
0.0
 11
104468.00270559
 21
95253.71239785405
 31
0.0
  0
LINE
  5
68F00
330
1F
100
AcDbEntity
  8
freecads.com
100
AcDbLine
 10
104468.00270559
 20
95253.71239785405
 30
0.0
 11
104467.9876742443
 21
95253.74450711655
 31
0.0
  0
LINE
  5
68F01
330
1F
100
AcDbEntity
  8
freecads.com
100
AcDbLine
 10
104467.9876742443
 20
95253.74450711655
 30
0.0
 11
104467.9784111822
 21
95253.78768900569
 31
0.0
  0
LINE
  5
68F02
330
1F
100
AcDbEntity
  8
freecads.com
100
AcDbLine
 10
104467.9784111822
 20
95253.78768900569
 30
0.0
 11
104467.9761318882
 21
95253.83103542173
 31
0.0
  0
LINE
  5
68F03
330
1F
100
AcDbEntity
  8
freecads.com
100
AcDbLine
 10
104467.9761318882
 20
95253.83103542173
 30
0.0
 11
104467.9767124216
 21
95253.85750943481
 31
0.0
  0
LINE
  5
68F04
330
1F
100
AcDbEntity
  8
freecads.com
100
AcDbLine
 10
104467.9767124216
 20
95253.85750943481
 30
0.0
 11
104467.9768997576
 21
95253.86168408818
 31
0.0
  0
LINE
  5
68F05
330
1F
100
AcDbEntity
  8
freecads.com
100
AcDbLine
 10
104467.9768997576
 20
95253.86168408818
 30
0.0
 11
104467.9765570415
 21
95253.8721041647
 31
0.0
  0
LINE
  5
68F06
330
1F
100
AcDbEntity
  8
freecads.com
100
AcDbLine
 10
104467.9765570415
 20
95253.8721041647
 30
0.0
 11
104467.974302988
 21
95253.88980279148
 31
0.0
  0
LINE
  5
68F07
330
1F
100
AcDbEntity
  8
freecads.com
100
AcDbLine
 10
104467.974302988
 20
95253.88980279148
 30
0.0
 11
104467.9673940154
 21
95253.91967559947
 31
0.0
  0
LINE
  5
68F08
330
1F
100
AcDbEntity
  8
freecads.com
100
AcDbLine
 10
104467.9673940154
 20
95253.91967559947
 30
0.0
 11
104467.9567999178
 21
95253.95835030794
 31
0.0
  0
LINE
  5
68F09
330
1F
100
AcDbEntity
  8
freecads.com
100
AcDbLine
 10
104467.9567999178
 20
95253.95835030794
 30
0.0
 11
104467.9450262282
 21
95254.00060176901
 31
0.0
  0
LINE
  5
68F0A
330
1F
100
AcDbEntity
  8
freecads.com
100
AcDbLine
 10
104467.9450262282
 20
95254.00060176901
 30
0.0
 11
104467.9308498205
 21
95254.04981499947
 31
0.0
  0
LINE
  5
68F0B
330
1F
100
AcDbEntity
  8
freecads.com
100
AcDbLine
 10
104467.9308498205
 20
95254.04981499947
 30
0.0
 11
104467.9164733406
 21
95254.0933697082
 31
0.0
  0
LINE
  5
68F0C
330
1F
100
AcDbEntity
  8
freecads.com
100
AcDbLine
 10
104467.9164733406
 20
95254.0933697082
 30
0.0
 11
104467.9088937559
 21
95254.11477487976
 31
0.0
  0
LINE
  5
68F0D
330
1F
100
AcDbEntity
  8
freecads.com
100
AcDbLine
 10
104467.9088937559
 20
95254.11477487976
 30
0.0
 11
104467.9069043812
 21
95254.11834155928
 31
0.0
  0
LINE
  5
68F0E
330
1F
100
AcDbEntity
  8
freecads.com
100
AcDbLine
 10
104467.9069043812
 20
95254.11834155928
 30
0.0
 11
104467.9001915441
 21
95254.12675466217
 31
0.0
  0
LINE
  5
68F0F
330
1F
100
AcDbEntity
  8
freecads.com
100
AcDbLine
 10
104467.9001915441
 20
95254.12675466217
 30
0.0
 11
104467.8887429718
 21
95254.13474967448
 31
0.0
  0
LINE
  5
68F10
330
1F
100
AcDbEntity
  8
freecads.com
100
AcDbLine
 10
104467.8887429718
 20
95254.13474967448
 30
0.0
 11
104467.8711581592
 21
95254.13875713793
 31
0.0
  0
LINE
  5
68F11
330
1F
100
AcDbEntity
  8
freecads.com
100
AcDbLine
 10
104467.8711581592
 20
95254.13875713793
 30
0.0
 11
104467.8551484515
 21
95254.13905620409
 31
0.0
  0
LINE
  5
68F12
330
1F
100
AcDbEntity
  8
freecads.com
100
AcDbLine
 10
104467.8551484515
 20
95254.13905620409
 30
0.0
 11
104467.8480637211
 21
95254.13848643847
 31
0.0
  0
LINE
  5
68F13
330
1F
100
AcDbEntity
  8
freecads.com
100
AcDbLine
 10
104467.8480637211
 20
95254.13848643847
 30
0.0
 11
104467.8406781878
 21
95254.13697605593
 31
0.0
  0
LINE
  5
68F14
330
1F
100
AcDbEntity
  8
freecads.com
100
AcDbLine
 10
104467.8406781878
 20
95254.13697605593
 30
0.0
 11
104467.8218010111
 21
95254.13369790637
 31
0.0
  0
LINE
  5
68F15
330
1F
100
AcDbEntity
  8
freecads.com
100
AcDbLine
 10
104467.8218010111
 20
95254.13369790637
 30
0.0
 11
104467.7972185365
 21
95254.13070458172
 31
0.0
  0
LINE
  5
68F16
330
1F
100
AcDbEntity
  8
freecads.com
100
AcDbLine
 10
104467.7972185365
 20
95254.13070458172
 30
0.0
 11
104467.7747023162
 21
95254.12963336215
 31
0.0
  0
LINE
  5
68F17
330
1F
100
AcDbEntity
  8
freecads.com
100
AcDbLine
 10
104467.7747023162
 20
95254.12963336215
 30
0.0
 11
104467.7518417588
 21
95254.12973872422
 31
0.0
  0
LINE
  5
68F18
330
1F
100
AcDbEntity
  8
freecads.com
100
AcDbLine
 10
104467.7518417588
 20
95254.12973872422
 30
0.0
 11
104467.7540430154
 21
95254.11490455615
 31
0.0
  0
LINE
  5
68F19
330
1F
100
AcDbEntity
  8
freecads.com
100
AcDbLine
 10
104467.7540430154
 20
95254.11490455615
 30
0.0
 11
104467.7579752202
 21
95254.08359326654
 31
0.0
  0
LINE
  5
68F1A
330
1F
100
AcDbEntity
  8
freecads.com
100
AcDbLine
 10
104467.7579752202
 20
95254.08359326654
 30
0.0
 11
104467.7609508302
 21
95254.04863135509
 31
0.0
  0
LINE
  5
68F1B
330
1F
100
AcDbEntity
  8
freecads.com
100
AcDbLine
 10
104467.7609508302
 20
95254.04863135509
 30
0.0
 11
104467.7610717071
 21
95254.02550183494
 31
0.0
  0
LINE
  5
68F1C
330
1F
100
AcDbEntity
  8
freecads.com
100
AcDbLine
 10
104467.7610717071
 20
95254.02550183494
 30
0.0
 11
104467.7601855079
 21
95254.00887245943
 31
0.0
  0
LINE
  5
68F1D
330
1F
100
AcDbEntity
  8
freecads.com
100
AcDbLine
 10
104467.7601855079
 20
95254.00887245943
 30
0.0
 11
104467.7597946262
 21
95254.00342246197
 31
0.0
  0
LINE
  5
68F1E
330
1F
100
AcDbEntity
  8
freecads.com
100
AcDbLine
 10
104467.7597946262
 20
95254.00342246197
 30
0.0
 11
104467.7600259596
 21
95253.98341490079
 31
0.0
  0
LINE
  5
68F1F
330
1F
100
AcDbEntity
  8
freecads.com
100
AcDbLine
 10
104467.7600259596
 20
95253.98341490079
 30
0.0
 11
104467.7611694275
 21
95253.94648422395
 31
0.0
  0
LINE
  5
68F20
330
1F
100
AcDbEntity
  8
freecads.com
100
AcDbLine
 10
104467.7611694275
 20
95253.94648422395
 30
0.0
 11
104467.763689086
 21
95253.90846507592
 31
0.0
  0
LINE
  5
68F21
330
1F
100
AcDbEntity
  8
freecads.com
100
AcDbLine
 10
104467.763689086
 20
95253.90846507592
 30
0.0
 11
104467.7670970277
 21
95253.88228503457
 31
0.0
  0
LINE
  5
68F22
330
1F
100
AcDbEntity
  8
freecads.com
100
AcDbLine
 10
104467.7670970277
 20
95253.88228503457
 30
0.0
 11
104467.7701217294
 21
95253.86547978545
 31
0.0
  0
LINE
  5
68F23
330
1F
100
AcDbEntity
  8
freecads.com
100
AcDbLine
 10
104467.7701217294
 20
95253.86547978545
 30
0.0
 11
104467.7710653567
 21
95253.85947113749
 31
0.0
  0
LINE
  5
68F24
330
1F
100
AcDbEntity
  8
freecads.com
100
AcDbLine
 10
104467.7710653567
 20
95253.85947113749
 30
0.0
 11
104467.7733182523
 21
95253.83040591234
 31
0.0
  0
LINE
  5
68F25
330
1F
100
AcDbEntity
  8
freecads.com
100
AcDbLine
 10
104467.7733182523
 20
95253.83040591234
 30
0.0
 11
104467.7762642219
 21
95253.7825828822
 31
0.0
  0
LINE
  5
68F26
330
1F
100
AcDbEntity
  8
freecads.com
100
AcDbLine
 10
104467.7762642219
 20
95253.7825828822
 30
0.0
 11
104467.7775271773
 21
95253.74058950031
 31
0.0
  0
LINE
  5
68F27
330
1F
100
AcDbEntity
  8
freecads.com
100
AcDbLine
 10
104467.7775271773
 20
95253.74058950031
 30
0.0
 11
104467.7766166638
 21
95253.71477614211
 31
0.0
  0
LINE
  5
68F28
330
1F
100
AcDbEntity
  8
freecads.com
100
AcDbLine
 10
104467.7766166638
 20
95253.71477614211
 30
0.0
 11
104467.7753694549
 21
95253.69892308816
 31
0.0
  0
LINE
  5
68F29
330
1F
100
AcDbEntity
  8
freecads.com
100
AcDbLine
 10
104467.7753694549
 20
95253.69892308816
 30
0.0
 11
104467.7752409363
 21
95253.69258469167
 31
0.0
  0
LINE
  5
68F2A
330
1F
100
AcDbEntity
  8
freecads.com
100
AcDbLine
 10
104467.7752409363
 20
95253.69258469167
 30
0.0
 11
104467.7763343861
 21
95253.66370066613
 31
0.0
  0
LINE
  5
68F2B
330
1F
100
AcDbEntity
  8
freecads.com
100
AcDbLine
 10
104467.7763343861
 20
95253.66370066613
 30
0.0
 11
104467.7787482194
 21
95253.61750368524
 31
0.0
  0
LINE
  5
68F2C
330
1F
100
AcDbEntity
  8
freecads.com
100
AcDbLine
 10
104467.7787482194
 20
95253.61750368524
 30
0.0
 11
104467.7825331489
 21
95253.56827667668
 31
0.0
  0
LINE
  5
68F2D
330
1F
100
AcDbEntity
  8
freecads.com
100
AcDbLine
 10
104467.7825331489
 20
95253.56827667668
 30
0.0
 11
104467.7867603675
 21
95253.52720909154
 31
0.0
  0
LINE
  5
68F2E
330
1F
100
AcDbEntity
  8
freecads.com
100
AcDbLine
 10
104467.7867603675
 20
95253.52720909154
 30
0.0
 11
104467.7895947228
 21
95253.50338128721
 31
0.0
  0
LINE
  5
68F2F
330
1F
100
AcDbEntity
  8
freecads.com
100
AcDbLine
 10
104467.7895947228
 20
95253.50338128721
 30
0.0
 11
104467.7898042891
 21
95253.49953568767
 31
0.0
  0
LINE
  5
68F30
330
1F
100
AcDbEntity
  8
freecads.com
100
AcDbLine
 10
104467.7898042891
 20
95253.49953568767
 30
0.0
 11
104467.7897144419
 21
95253.49148579447
 31
0.0
  0
LINE
  5
68F31
330
1F
100
AcDbEntity
  8
freecads.com
100
AcDbLine
 10
104467.7897144419
 20
95253.49148579447
 30
0.0
 11
104467.7907013719
 21
95253.47799991346
 31
0.0
  0
LINE
  5
68F32
330
1F
100
AcDbEntity
  8
freecads.com
100
AcDbLine
 10
104467.7907013719
 20
95253.47799991346
 30
0.0
 11
104467.7935301696
 21
95253.46244036812
 31
0.0
  0
LINE
  5
68F33
330
1F
100
AcDbEntity
  8
freecads.com
100
AcDbLine
 10
104467.7935301696
 20
95253.46244036812
 30
0.0
 11
104467.797339645
 21
95253.4463299297
 31
0.0
  0
LINE
  5
68F34
330
1F
100
AcDbEntity
  8
freecads.com
100
AcDbLine
 10
104467.797339645
 20
95253.4463299297
 30
0.0
 11
104467.8001133303
 21
95253.43072360824
 31
0.0
  0
LINE
  5
68F35
330
1F
100
AcDbEntity
  8
freecads.com
100
AcDbLine
 10
104467.8001133303
 20
95253.43072360824
 30
0.0
 11
104467.7997259221
 21
95253.41691191533
 31
0.0
  0
LINE
  5
68F36
330
1F
100
AcDbEntity
  8
freecads.com
100
AcDbLine
 10
104467.7997259221
 20
95253.41691191533
 30
0.0
 11
104467.7966613912
 21
95253.4066855429
 31
0.0
  0
LINE
  5
68F37
330
1F
100
AcDbEntity
  8
freecads.com
100
AcDbLine
 10
104467.7966613912
 20
95253.4066855429
 30
0.0
 11
104467.7942514945
 21
95253.40187130709
 31
0.0
  0
LINE
  5
68F38
330
1F
100
AcDbEntity
  8
freecads.com
100
AcDbLine
 10
104467.7942514945
 20
95253.40187130709
 30
0.0
 11
104467.7932884158
 21
95253.39813384841
 31
0.0
  0
LINE
  5
68F39
330
1F
100
AcDbEntity
  8
freecads.com
100
AcDbLine
 10
104467.7932884158
 20
95253.39813384841
 30
0.0
 11
104467.7897693228
 21
95253.38605333523
 31
0.0
  0
LINE
  5
68F3A
330
1F
100
AcDbEntity
  8
freecads.com
100
AcDbLine
 10
104467.7897693228
 20
95253.38605333523
 30
0.0
 11
104467.7836462818
 21
95253.37029973844
 31
0.0
  0
LINE
  5
68F3B
330
1F
100
AcDbEntity
  8
freecads.com
100
AcDbLine
 10
104467.7836462818
 20
95253.37029973844
 30
0.0
 11
104467.7755422023
 21
95253.35615574979
 31
0.0
  0
LINE
  5
68F3C
330
1F
100
AcDbEntity
  8
freecads.com
100
AcDbLine
 10
104467.7755422023
 20
95253.35615574979
 30
0.0
 11
104467.7678956953
 21
95253.34597545882
 31
0.0
  0
LINE
  5
68F3D
330
1F
100
AcDbEntity
  8
freecads.com
100
AcDbLine
 10
104467.7678956953
 20
95253.34597545882
 30
0.0
 11
104467.7641360064
 21
95253.34167043435
 31
0.0
  0
LINE
  5
68F3E
330
1F
100
AcDbEntity
  8
freecads.com
100
AcDbLine
 10
104467.7641360064
 20
95253.34167043435
 30
0.0
 11
104467.7588199693
 21
95253.33665589483
 31
0.0
  0
LINE
  5
68F3F
330
1F
100
AcDbEntity
  8
freecads.com
100
AcDbLine
 10
104467.7588199693
 20
95253.33665589483
 30
0.0
 11
104467.746026236
 21
95253.32253760989
 31
0.0
  0
LINE
  5
68F40
330
1F
100
AcDbEntity
  8
freecads.com
100
AcDbLine
 10
104467.746026236
 20
95253.32253760989
 30
0.0
 11
104467.7341400058
 21
95253.30386096843
 31
0.0
  0
LINE
  5
68F41
330
1F
100
AcDbEntity
  8
freecads.com
100
AcDbLine
 10
104467.7341400058
 20
95253.30386096843
 30
0.0
 11
104467.7327584892
 21
95253.29239294462
 31
0.0
  0
LINE
  5
68F42
330
1F
100
AcDbEntity
  8
freecads.com
100
AcDbLine
 10
104467.7327584892
 20
95253.29239294462
 30
0.0
 11
104467.7349632193
 21
95253.28179166852
 31
0.0
  0
LINE
  5
68F43
330
1F
100
AcDbEntity
  8
freecads.com
100
AcDbLine
 10
104467.7349632193
 20
95253.28179166852
 30
0.0
 11
104467.7365140099
 21
95253.27728749818
 31
0.0
  0
LINE
  5
68F44
330
1F
100
AcDbEntity
  8
freecads.com
100
AcDbLine
 10
104467.7365140099
 20
95253.27728749818
 30
0.0
 11
104467.7395509846
 21
95253.2689729262
 31
0.0
  0
LINE
  5
68F45
330
1F
100
AcDbEntity
  8
freecads.com
100
AcDbLine
 10
104467.7395509846
 20
95253.2689729262
 30
0.0
 11
104467.7440799324
 21
95253.249846354
 31
0.0
  0
LINE
  5
68F46
330
1F
100
AcDbEntity
  8
freecads.com
100
AcDbLine
 10
104467.7440799324
 20
95253.249846354
 30
0.0
 11
104467.7441815894
 21
95253.22756100397
 31
0.0
  0
LINE
  5
68F47
330
1F
100
AcDbEntity
  8
freecads.com
100
AcDbLine
 10
104467.7441815894
 20
95253.22756100397
 30
0.0
 11
104467.7376065335
 21
95253.21341493123
 31
0.0
  0
LINE
  5
68F48
330
1F
100
AcDbEntity
  8
freecads.com
100
AcDbLine
 10
104467.7376065335
 20
95253.21341493123
 30
0.0
 11
104467.7289163631
 21
95253.2027800782
 31
0.0
  0
LINE
  5
68F49
330
1F
100
AcDbEntity
  8
freecads.com
100
AcDbLine
 10
104467.7289163631
 20
95253.2027800782
 30
0.0
 11
104467.7252879715
 21
95253.19926121683
 31
0.0
  0
LINE
  5
68F4A
330
1F
100
AcDbEntity
  8
freecads.com
100
AcDbLine
 10
104467.7252879715
 20
95253.19926121683
 30
0.0
 11
104467.7155946617
 21
95253.19359713757
 31
0.0
  0
LINE
  5
68F4B
330
1F
100
AcDbEntity
  8
freecads.com
100
AcDbLine
 10
104467.7155946617
 20
95253.19359713757
 30
0.0
 11
104467.6958956609
 21
95253.18420300967
 31
0.0
  0
LINE
  5
68F4C
330
1F
100
AcDbEntity
  8
freecads.com
100
AcDbLine
 10
104467.6958956609
 20
95253.18420300967
 30
0.0
 11
104467.6720768876
 21
95253.17734150791
 31
0.0
  0
LINE
  5
68F4D
330
1F
100
AcDbEntity
  8
freecads.com
100
AcDbLine
 10
104467.6720768876
 20
95253.17734150791
 30
0.0
 11
104467.649276537
 21
95253.17616052653
 31
0.0
  0
LINE
  5
68F4E
330
1F
100
AcDbEntity
  8
freecads.com
100
AcDbLine
 10
104467.649276537
 20
95253.17616052653
 30
0.0
 11
104467.6336639633
 21
95253.17782385775
 31
0.0
  0
LINE
  5
68F4F
330
1F
100
AcDbEntity
  8
freecads.com
100
AcDbLine
 10
104467.6336639633
 20
95253.17782385775
 30
0.0
 11
104467.6283238434
 21
95253.17869546832
 31
0.0
  0
LINE
  5
68F50
330
1F
100
AcDbEntity
  8
freecads.com
100
AcDbLine
 10
104467.6283238434
 20
95253.17869546832
 30
0.0
 11
104467.6052910016
 21
95253.18146730107
 31
0.0
  0
LINE
  5
68F51
330
1F
100
AcDbEntity
  8
freecads.com
100
AcDbLine
 10
104467.6052910016
 20
95253.18146730107
 30
0.0
 11
104467.5719894111
 21
95253.18952460436
 31
0.0
  0
LINE
  5
68F52
330
1F
100
AcDbEntity
  8
freecads.com
100
AcDbLine
 10
104467.5719894111
 20
95253.18952460436
 30
0.0
 11
104467.5533064016
 21
95253.20276062673
 31
0.0
  0
LINE
  5
68F53
330
1F
100
AcDbEntity
  8
freecads.com
100
AcDbLine
 10
104467.5533064016
 20
95253.20276062673
 30
0.0
 11
104467.5580936601
 21
95253.21829678402
 31
0.0
  0
LINE
  5
68F54
330
1F
100
AcDbEntity
  8
freecads.com
100
AcDbLine
 10
104467.5580936601
 20
95253.21829678402
 30
0.0
 11
104467.5683302213
 21
95253.23160528625
 31
0.0
  0
LINE
  5
68F55
330
1F
100
AcDbEntity
  8
freecads.com
100
AcDbLine
 10
104467.5683302213
 20
95253.23160528625
 30
0.0
 11
104467.5714362024
 21
95253.23515749295
 31
0.0
  0
LINE
  5
68F56
330
1F
100
AcDbEntity
  8
freecads.com
100
AcDbLine
 10
104467.5714362024
 20
95253.23515749295
 30
0.0
 11
104467.575929026
 21
95253.24222995042
 31
0.0
  0
LINE
  5
68F57
330
1F
100
AcDbEntity
  8
freecads.com
100
AcDbLine
 10
104467.575929026
 20
95253.24222995042
 30
0.0
 11
104467.5840571882
 21
95253.25440170018
 31
0.0
  0
LINE
  5
68F58
330
1F
100
AcDbEntity
  8
freecads.com
100
AcDbLine
 10
104467.5840571882
 20
95253.25440170018
 30
0.0
 11
104467.594106645
 21
95253.26834584827
 31
0.0
  0
LINE
  5
68F59
330
1F
100
AcDbEntity
  8
freecads.com
100
AcDbLine
 10
104467.594106645
 20
95253.26834584827
 30
0.0
 11
104467.6037582731
 21
95253.28075726777
 31
0.0
  0
LINE
  5
68F5A
330
1F
100
AcDbEntity
  8
freecads.com
100
AcDbLine
 10
104467.6037582731
 20
95253.28075726777
 30
0.0
 11
104467.6100387783
 21
95253.28850242148
 31
0.0
  0
LINE
  5
68F5B
330
1F
100
AcDbEntity
  8
freecads.com
100
AcDbLine
 10
104467.6100387783
 20
95253.28850242148
 30
0.0
 11
104467.6107186531
 21
95253.29034776277
 31
0.0
  0
LINE
  5
68F5C
330
1F
100
AcDbEntity
  8
freecads.com
100
AcDbLine
 10
104467.6107186531
 20
95253.29034776277
 30
0.0
 11
104467.6103483807
 21
95253.29554685958
 31
0.0
  0
LINE
  5
68F5D
330
1F
100
AcDbEntity
  8
freecads.com
100
AcDbLine
 10
104467.6103483807
 20
95253.29554685958
 30
0.0
 11
104467.6118463745
 21
95253.3037870992
 31
0.0
  0
LINE
  5
68F5E
330
1F
100
AcDbEntity
  8
freecads.com
100
AcDbLine
 10
104467.6118463745
 20
95253.3037870992
 30
0.0
 11
104467.6162857067
 21
95253.31122797654
 31
0.0
  0
LINE
  5
68F5F
330
1F
100
AcDbEntity
  8
freecads.com
100
AcDbLine
 10
104467.6162857067
 20
95253.31122797654
 30
0.0
 11
104467.6227773992
 21
95253.3170177956
 31
0.0
  0
LINE
  5
68F60
330
1F
100
AcDbEntity
  8
freecads.com
100
AcDbLine
 10
104467.6227773992
 20
95253.3170177956
 30
0.0
 11
104467.6275951085
 21
95253.32049821717
 31
0.0
  0
LINE
  5
68F61
330
1F
100
AcDbEntity
  8
freecads.com
100
AcDbLine
 10
104467.6275951085
 20
95253.32049821717
 30
0.0
 11
104467.6314031945
 21
95253.32337819074
 31
0.0
  0
LINE
  5
68F62
330
1F
100
AcDbEntity
  8
freecads.com
100
AcDbLine
 10
104467.6314031945
 20
95253.32337819074
 30
0.0
 11
104467.6458780895
 21
95253.3361489991
 31
0.0
  0
LINE
  5
68F63
330
1F
100
AcDbEntity
  8
freecads.com
100
AcDbLine
 10
104467.6458780895
 20
95253.3361489991
 30
0.0
 11
104467.6643741103
 21
95253.35719130836
 31
0.0
  0
LINE
  5
68F64
330
1F
100
AcDbEntity
  8
freecads.com
100
AcDbLine
 10
104467.6643741103
 20
95253.35719130836
 30
0.0
 11
104467.6748563619
 21
95253.37652304713
 31
0.0
  0
LINE
  5
68F65
330
1F
100
AcDbEntity
  8
freecads.com
100
AcDbLine
 10
104467.6748563619
 20
95253.37652304713
 30
0.0
 11
104467.679901005
 21
95253.39498826978
 31
0.0
  0
LINE
  5
68F66
330
1F
100
AcDbEntity
  8
freecads.com
100
AcDbLine
 10
104467.679901005
 20
95253.39498826978
 30
0.0
 11
104467.6819234934
 21
95253.40609806256
 31
0.0
  0
LINE
  5
68F67
330
1F
100
AcDbEntity
  8
freecads.com
100
AcDbLine
 10
104467.6819234934
 20
95253.40609806256
 30
0.0
 11
104467.6816189855
 21
95253.40875851256
 31
0.0
  0
LINE
  5
68F68
330
1F
100
AcDbEntity
  8
freecads.com
100
AcDbLine
 10
104467.6816189855
 20
95253.40875851256
 30
0.0
 11
104467.6808140656
 21
95253.41728450335
 31
0.0
  0
LINE
  5
68F69
330
1F
100
AcDbEntity
  8
freecads.com
100
AcDbLine
 10
104467.6808140656
 20
95253.41728450335
 30
0.0
 11
104467.6809976967
 21
95253.43090816551
 31
0.0
  0
LINE
  5
68F6A
330
1F
100
AcDbEntity
  8
freecads.com
100
AcDbLine
 10
104467.6809976967
 20
95253.43090816551
 30
0.0
 11
104467.6835092504
 21
95253.45019197034
 31
0.0
  0
LINE
  5
68F6B
330
1F
100
AcDbEntity
  8
freecads.com
100
AcDbLine
 10
104467.6835092504
 20
95253.45019197034
 30
0.0
 11
104467.6868461017
 21
95253.46787056678
 31
0.0
  0
LINE
  5
68F6C
330
1F
100
AcDbEntity
  8
freecads.com
100
AcDbLine
 10
104467.6868461017
 20
95253.46787056678
 30
0.0
 11
104467.6887136732
 21
95253.47643314486
 31
0.0
  0
LINE
  5
68F6D
330
1F
100
AcDbEntity
  8
freecads.com
100
AcDbLine
 10
104467.6887136732
 20
95253.47643314486
 30
0.0
 11
104467.6883445586
 21
95253.49893547126
 31
0.0
  0
LINE
  5
68F6E
330
1F
100
AcDbEntity
  8
freecads.com
100
AcDbLine
 10
104467.6883445586
 20
95253.49893547126
 30
0.0
 11
104467.6857811343
 21
95253.56164650832
 31
0.0
  0
LINE
  5
68F6F
330
1F
100
AcDbEntity
  8
freecads.com
100
AcDbLine
 10
104467.6857811343
 20
95253.56164650832
 30
0.0
 11
104467.6790131848
 21
95253.64039110421
 31
0.0
  0
LINE
  5
68F70
330
1F
100
AcDbEntity
  8
freecads.com
100
AcDbLine
 10
104467.6790131848
 20
95253.64039110421
 30
0.0
 11
104467.6697077463
 21
95253.69341878873
 31
0.0
  0
LINE
  5
68F71
330
1F
100
AcDbEntity
  8
freecads.com
100
AcDbLine
 10
104467.6697077463
 20
95253.69341878873
 30
0.0
 11
104467.6596103556
 21
95253.73174614971
 31
0.0
  0
LINE
  5
68F72
330
1F
100
AcDbEntity
  8
freecads.com
100
AcDbLine
 10
104467.6596103556
 20
95253.73174614971
 30
0.0
 11
104467.6550026757
 21
95253.746233665
 31
0.0
  0
LINE
  5
68F73
330
1F
100
AcDbEntity
  8
freecads.com
100
AcDbLine
 10
104467.6550026757
 20
95253.746233665
 30
0.0
 11
104467.6518188889
 21
95253.75383026979
 31
0.0
  0
LINE
  5
68F74
330
1F
100
AcDbEntity
  8
freecads.com
100
AcDbLine
 10
104467.6518188889
 20
95253.75383026979
 30
0.0
 11
104467.645756981
 21
95253.77239205502
 31
0.0
  0
LINE
  5
68F75
330
1F
100
AcDbEntity
  8
freecads.com
100
AcDbLine
 10
104467.645756981
 20
95253.77239205502
 30
0.0
 11
104467.6415612552
 21
95253.79618026175
 31
0.0
  0
LINE
  5
68F76
330
1F
100
AcDbEntity
  8
freecads.com
100
AcDbLine
 10
104467.6415612552
 20
95253.79618026175
 30
0.0
 11
104467.6424159615
 21
95253.81670143401
 31
0.0
  0
LINE
  5
68F77
330
1F
100
AcDbEntity
  8
freecads.com
100
AcDbLine
 10
104467.6424159615
 20
95253.81670143401
 30
0.0
 11
104467.6451711216
 21
95253.83402006269
 31
0.0
  0
LINE
  5
68F78
330
1F
100
AcDbEntity
  8
freecads.com
100
AcDbLine
 10
104467.6451711216
 20
95253.83402006269
 30
0.0
 11
104467.6463465454
 21
95253.84073660477
 31
0.0
  0
LINE
  5
68F79
330
1F
100
AcDbEntity
  8
freecads.com
100
AcDbLine
 10
104467.6463465454
 20
95253.84073660477
 30
0.0
 11
104467.6404620163
 21
95253.88082594368
 31
0.0
  0
LINE
  5
68F7A
330
1F
100
AcDbEntity
  8
freecads.com
100
AcDbLine
 10
104467.6404620163
 20
95253.88082594368
 30
0.0
 11
104467.6246301505
 21
95253.9618829474
 31
0.0
  0
LINE
  5
68F7B
330
1F
100
AcDbEntity
  8
freecads.com
100
AcDbLine
 10
104467.6246301505
 20
95253.9618829474
 30
0.0
 11
104467.5989535314
 21
95254.05251933102
 31
0.0
  0
LINE
  5
68F7C
330
1F
100
AcDbEntity
  8
freecads.com
100
AcDbLine
 10
104467.5989535314
 20
95254.05251933102
 30
0.0
 11
104467.5696158701
 21
95254.12029399937
 31
0.0
  0
LINE
  5
68F7D
330
1F
100
AcDbEntity
  8
freecads.com
100
AcDbLine
 10
104467.5696158701
 20
95254.12029399937
 30
0.0
 11
104467.5448381862
 21
95254.16576919223
 31
0.0
  0
LINE
  5
68F7E
330
1F
100
AcDbEntity
  8
freecads.com
100
AcDbLine
 10
104467.5448381862
 20
95254.16576919223
 30
0.0
 11
104467.5376454308
 21
95254.17756893286
 31
0.0
  0
LINE
  5
68F7F
330
1F
100
AcDbEntity
  8
freecads.com
100
AcDbLine
 10
104467.5376454308
 20
95254.17756893286
 30
0.0
 11
104467.5323435191
 21
95254.18566953879
 31
0.0
  0
LINE
  5
68F80
330
1F
100
AcDbEntity
  8
freecads.com
100
AcDbLine
 10
104467.5323435191
 20
95254.18566953879
 30
0.0
 11
104467.5217531266
 21
95254.19719348555
 31
0.0
  0
LINE
  5
68F81
330
1F
100
AcDbEntity
  8
freecads.com
100
AcDbLine
 10
104467.5217531266
 20
95254.19719348555
 30
0.0
 11
104467.5101152499
 21
95254.20284679707
 31
0.0
  0
LINE
  5
68F82
330
1F
100
AcDbEntity
  8
freecads.com
100
AcDbLine
 10
104467.5101152499
 20
95254.20284679707
 30
0.0
 11
104467.5002839273
 21
95254.1996267703
 31
0.0
  0
LINE
  5
68F83
330
1F
100
AcDbEntity
  8
freecads.com
100
AcDbLine
 10
104467.5002839273
 20
95254.1996267703
 30
0.0
 11
104467.491951409
 21
95254.19484171166
 31
0.0
  0
LINE
  5
68F84
330
1F
100
AcDbEntity
  8
freecads.com
100
AcDbLine
 10
104467.491951409
 20
95254.19484171166
 30
0.0
 11
104467.4870624935
 21
95254.19177741236
 31
0.0
  0
LINE
  5
68F85
330
1F
100
AcDbEntity
  8
freecads.com
100
AcDbLine
 10
104467.4870624935
 20
95254.19177741236
 30
0.0
 11
104467.4565271781
 21
95254.17251224851
 31
0.0
  0
LINE
  5
68F86
330
1F
100
AcDbEntity
  8
freecads.com
100
AcDbLine
 10
104467.4565271781
 20
95254.17251224851
 30
0.0
 11
104467.4055884412
 21
95254.13754813719
 31
0.0
  0
LINE
  5
68F87
330
1F
100
AcDbEntity
  8
freecads.com
100
AcDbLine
 10
104467.4055884412
 20
95254.13754813719
 30
0.0
 11
104467.3463782035
 21
95254.09133228377
 31
0.0
  0
LINE
  5
68F88
330
1F
100
AcDbEntity
  8
freecads.com
100
AcDbLine
 10
104467.3463782035
 20
95254.09133228377
 30
0.0
 11
104467.2713062281
 21
95254.02719746947
 31
0.0
  0
LINE
  5
68F89
330
1F
100
AcDbEntity
  8
freecads.com
100
AcDbLine
 10
104467.2713062281
 20
95254.02719746947
 30
0.0
 11
104467.2006798371
 21
95253.96241612577
 31
0.0
  0
LINE
  5
68F8A
330
1F
100
AcDbEntity
  8
freecads.com
100
AcDbLine
 10
104467.2006798371
 20
95253.96241612577
 30
0.0
 11
104467.1597048779
 21
95253.9181747111
 31
0.0
  0
LINE
  5
68F8B
330
1F
100
AcDbEntity
  8
freecads.com
100
AcDbLine
 10
104467.1597048779
 20
95253.9181747111
 30
0.0
 11
104467.1354660458
 21
95253.88326988041
 31
0.0
  0
LINE
  5
68F8C
330
1F
100
AcDbEntity
  8
freecads.com
100
AcDbLine
 10
104467.1354660458
 20
95253.88326988041
 30
0.0
 11
104467.1229593373
 21
95253.86148239508
 31
0.0
  0
LINE
  5
68F8D
330
1F
100
AcDbEntity
  8
freecads.com
100
AcDbLine
 10
104467.1229593373
 20
95253.86148239508
 30
0.0
 11
104467.119846062
 21
95253.85616716842
 31
0.0
  0
LINE
  5
68F8E
330
1F
100
AcDbEntity
  8
freecads.com
100
AcDbLine
 10
104467.119846062
 20
95253.85616716842
 30
0.0
 11
104467.1102321789
 21
95253.8408601447
 31
0.0
  0
LINE
  5
68F8F
330
1F
100
AcDbEntity
  8
freecads.com
100
AcDbLine
 10
104467.1102321789
 20
95253.8408601447
 30
0.0
 11
104467.0971506103
 21
95253.81863384374
 31
0.0
  0
LINE
  5
68F90
330
1F
100
AcDbEntity
  8
freecads.com
100
AcDbLine
 10
104467.0971506103
 20
95253.81863384374
 30
0.0
 11
104467.0882414953
 21
95253.80119271719
 31
0.0
  0
LINE
  5
68F91
330
1F
100
AcDbEntity
  8
freecads.com
100
AcDbLine
 10
104467.0882414953
 20
95253.80119271719
 30
0.0
 11
104467.0834766986
 21
95253.78920228281
 31
0.0
  0
LINE
  5
68F92
330
1F
100
AcDbEntity
  8
freecads.com
100
AcDbLine
 10
104467.0834766986
 20
95253.78920228281
 30
0.0
 11
104467.0813412064
 21
95253.78273119958
 31
0.0
  0
LINE
  5
68F93
330
1F
100
AcDbEntity
  8
freecads.com
100
AcDbLine
 10
104467.0813412064
 20
95253.78273119958
 30
0.0
 11
104467.0841023872
 21
95253.77466683355
 31
0.0
  0
LINE
  5
68F94
330
1F
100
AcDbEntity
  8
freecads.com
100
AcDbLine
 10
104467.0841023872
 20
95253.77466683355
 30
0.0
 11
104467.0939621922
 21
95253.74274502288
 31
0.0
  0
LINE
  5
68F95
330
1F
100
AcDbEntity
  8
freecads.com
100
AcDbLine
 10
104467.0939621922
 20
95253.74274502288
 30
0.0
 11
104467.1028262679
 21
95253.69613296179
 31
0.0
  0
LINE
  5
68F96
330
1F
100
AcDbEntity
  8
freecads.com
100
AcDbLine
 10
104467.1028262679
 20
95253.69613296179
 30
0.0
 11
104467.1029861635
 21
95253.64984451273
 31
0.0
  0
LINE
  5
68F97
330
1F
100
AcDbEntity
  8
freecads.com
100
AcDbLine
 10
104467.1029861635
 20
95253.64984451273
 30
0.0
 11
104467.0971031395
 21
95253.61219390038
 31
0.0
  0
LINE
  5
68F98
330
1F
100
AcDbEntity
  8
freecads.com
100
AcDbLine
 10
104467.0971031395
 20
95253.61219390038
 30
0.0
 11
104467.0924785554
 21
95253.59344964194
 31
0.0
  0
LINE
  5
68F99
330
1F
100
AcDbEntity
  8
freecads.com
100
AcDbLine
 10
104467.0924785554
 20
95253.59344964194
 30
0.0
 11
104467.0912322727
 21
95253.5902116689
 31
0.0
  0
LINE
  5
68F9A
330
1F
100
AcDbEntity
  8
freecads.com
100
AcDbLine
 10
104467.0912322727
 20
95253.5902116689
 30
0.0
 11
104467.0867712893
 21
95253.58142285185
 31
0.0
  0
LINE
  5
68F9B
330
1F
100
AcDbEntity
  8
freecads.com
100
AcDbLine
 10
104467.0867712893
 20
95253.58142285185
 30
0.0
 11
104467.0786087397
 21
95253.56993769223
 31
0.0
  0
LINE
  5
68F9C
330
1F
100
AcDbEntity
  8
freecads.com
100
AcDbLine
 10
104467.0786087397
 20
95253.56993769223
 30
0.0
 11
104467.060218081
 21
95253.55130319558
 31
0.0
  0
LINE
  5
68F9D
330
1F
100
AcDbEntity
  8
freecads.com
100
AcDbLine
 10
104467.060218081
 20
95253.55130319558
 30
0.0
 11
104467.0375662794
 21
95253.52965071263
 31
0.0
  0
LINE
  5
68F9E
330
1F
100
AcDbEntity
  8
freecads.com
100
AcDbLine
 10
104467.0375662794
 20
95253.52965071263
 30
0.0
 11
104467.0157734681
 21
95253.5063386035
 31
0.0
  0
LINE
  5
68F9F
330
1F
100
AcDbEntity
  8
freecads.com
100
AcDbLine
 10
104467.0157734681
 20
95253.5063386035
 30
0.0
 11
104467.0011106581
 21
95253.48680957137
 31
0.0
  0
LINE
  5
68FA0
330
1F
100
AcDbEntity
  8
freecads.com
100
AcDbLine
 10
104467.0011106581
 20
95253.48680957137
 30
0.0
 11
104466.9903887366
 21
95253.4703953197
 31
0.0
  0
LINE
  5
68FA1
330
1F
100
AcDbEntity
  8
freecads.com
100
AcDbLine
 10
104466.9903887366
 20
95253.4703953197
 30
0.0
 11
104466.9862502074
 21
95253.46355303783
 31
0.0
  0
LINE
  5
68FA2
330
1F
100
AcDbEntity
  8
freecads.com
100
AcDbLine
 10
104466.9862502074
 20
95253.46355303783
 30
0.0
 11
104466.9788829677
 21
95253.45398917281
 31
0.0
  0
LINE
  5
68FA3
330
1F
100
AcDbEntity
  8
freecads.com
100
AcDbLine
 10
104466.9788829677
 20
95253.45398917281
 30
0.0
 11
104466.9608639708
 21
95253.43152644401
 31
0.0
  0
LINE
  5
68FA4
330
1F
100
AcDbEntity
  8
freecads.com
100
AcDbLine
 10
104466.9608639708
 20
95253.43152644401
 30
0.0
 11
104466.9380582943
 21
95253.40510951169
 31
0.0
  0
LINE
  5
68FA5
330
1F
100
AcDbEntity
  8
freecads.com
100
AcDbLine
 10
104466.9380582943
 20
95253.40510951169
 30
0.0
 11
104466.9192207151
 21
95253.38579606655
 31
0.0
  0
LINE
  5
68FA6
330
1F
100
AcDbEntity
  8
freecads.com
100
AcDbLine
 10
104466.9192207151
 20
95253.38579606655
 30
0.0
 11
104466.9050964095
 21
95253.37266239588
 31
0.0
  0
LINE
  5
68FA7
330
1F
100
AcDbEntity
  8
freecads.com
100
AcDbLine
 10
104466.9050964095
 20
95253.37266239588
 30
0.0
 11
104466.9002307663
 21
95253.36839581122
 31
0.0
  0
LINE
  5
68FA8
330
1F
100
AcDbEntity
  8
freecads.com
100
AcDbLine
 10
104466.9002307663
 20
95253.36839581122
 30
0.0
 11
104466.8870976745
 21
95253.35696530094
 31
0.0
  0
LINE
  5
68FA9
330
1F
100
AcDbEntity
  8
freecads.com
100
AcDbLine
 10
104466.8870976745
 20
95253.35696530094
 30
0.0
 11
104466.8606104622
 21
95253.33467323553
 31
0.0
  0
LINE
  5
68FAA
330
1F
100
AcDbEntity
  8
freecads.com
100
AcDbLine
 10
104466.8606104622
 20
95253.33467323553
 30
0.0
 11
104466.8327031777
 21
95253.31265210112
 31
0.0
  0
LINE
  5
68FAB
330
1F
100
AcDbEntity
  8
freecads.com
100
AcDbLine
 10
104466.8327031777
 20
95253.31265210112
 30
0.0
 11
104466.8159260637
 21
95253.30126142003
 31
0.0
  0
LINE
  5
68FAC
330
1F
100
AcDbEntity
  8
freecads.com
100
AcDbLine
 10
104466.8159260637
 20
95253.30126142003
 30
0.0
 11
104466.8042084129
 21
95253.29429316681
 31
0.0
  0
LINE
  5
68FAD
330
1F
100
AcDbEntity
  8
freecads.com
100
AcDbLine
 10
104466.8042084129
 20
95253.29429316681
 30
0.0
 11
104466.8014206022
 21
95253.29229591891
 31
0.0
  0
LINE
  5
68FAE
330
1F
100
AcDbEntity
  8
freecads.com
100
AcDbLine
 10
104466.8014206022
 20
95253.29229591891
 30
0.0
 11
104466.8054472855
 21
95253.28566968715
 31
0.0
  0
LINE
  5
68FAF
330
1F
100
AcDbEntity
  8
freecads.com
100
AcDbLine
 10
104466.8054472855
 20
95253.28566968715
 30
0.0
 11
104466.8093429031
 21
95253.27315221089
 31
0.0
  0
LINE
  5
68FB0
330
1F
100
AcDbEntity
  8
freecads.com
100
AcDbLine
 10
104466.8093429031
 20
95253.27315221089
 30
0.0
 11
104466.8068715259
 21
95253.25906055591
 31
0.0
  0
LINE
  5
68FB1
330
1F
100
AcDbEntity
  8
freecads.com
100
AcDbLine
 10
104466.8068715259
 20
95253.25906055591
 30
0.0
 11
104466.7972040355
 21
95253.2474702658
 31
0.0
  0
LINE
  5
68FB2
330
1F
100
AcDbEntity
  8
freecads.com
100
AcDbLine
 10
104466.7972040355
 20
95253.2474702658
 30
0.0
 11
104466.787488727
 21
95253.2396232235
 31
0.0
  0
LINE
  5
68FB3
330
1F
100
AcDbEntity
  8
freecads.com
100
AcDbLine
 10
104466.787488727
 20
95253.2396232235
 30
0.0
 11
104466.7838994699
 21
95253.23696948889
 31
0.0
  0
LINE
  5
68FB4
330
1F
100
AcDbEntity
  8
freecads.com
100
AcDbLine
 10
104466.7838994699
 20
95253.23696948889
 30
0.0
 11
104466.7702110854
 21
95253.22659792523
 31
0.0
  0
LINE
  5
68FB5
330
1F
100
AcDbEntity
  8
freecads.com
100
AcDbLine
 10
104466.7702110854
 20
95253.22659792523
 30
0.0
 11
104466.74644453
 21
95253.21180462841
 31
0.0
  0
LINE
  5
68FB6
330
1F
100
AcDbEntity
  8
freecads.com
100
AcDbLine
 10
104466.74644453
 20
95253.21180462841
 30
0.0
 11
104466.7213646538
 21
95253.20163429471
 31
0.0
  0
LINE
  5
68FB7
330
1F
100
AcDbEntity
  8
freecads.com
100
AcDbLine
 10
104466.7213646538
 20
95253.20163429471
 30
0.0
 11
104466.7009720001
 21
95253.19892544764
 31
0.0
  0
LINE
  5
68FB8
330
1F
100
AcDbEntity
  8
freecads.com
100
AcDbLine
 10
104466.7009720001
 20
95253.19892544764
 30
0.0
 11
104466.6878312667
 21
95253.19920610439
 31
0.0
  0
LINE
  5
68FB9
330
1F
100
AcDbEntity
  8
freecads.com
100
AcDbLine
 10
104466.6878312667
 20
95253.19920610439
 30
0.0
 11
104466.6848195326
 21
95253.19962292133
 31
0.0
  0
LINE
  5
68FBA
330
1F
100
AcDbEntity
  8
freecads.com
100
AcDbLine
 10
104466.6848195326
 20
95253.19962292133
 30
0.0
 11
104466.6777931566
 21
95253.20161623263
 31
0.0
  0
LINE
  5
68FBB
330
1F
100
AcDbEntity
  8
freecads.com
100
AcDbLine
 10
104466.6777931566
 20
95253.20161623263
 30
0.0
 11
104466.6681558855
 21
95253.20614008599
 31
0.0
  0
LINE
  5
68FBC
330
1F
100
AcDbEntity
  8
freecads.com
100
AcDbLine
 10
104466.6681558855
 20
95253.20614008599
 30
0.0
 11
104466.6603088432
 21
95253.21361268771
 31
0.0
  0
LINE
  5
68FBD
330
1F
100
AcDbEntity
  8
freecads.com
100
AcDbLine
 10
104466.6603088432
 20
95253.21361268771
 30
0.0
 11
104466.6558761107
 21
95253.22208703952
 31
0.0
  0
LINE
  5
68FBE
330
1F
100
AcDbEntity
  8
freecads.com
100
AcDbLine
 10
104466.6558761107
 20
95253.22208703952
 30
0.0
 11
104466.6541377524
 21
95253.22766682917
 31
0.0
  0
LINE
  5
68FBF
330
1F
100
AcDbEntity
  8
freecads.com
100
AcDbLine
 10
104466.6541377524
 20
95253.22766682917
 30
0.0
 11
104466.6533882924
 21
95253.22517958976
 31
0.0
  0
LINE
  5
68FC0
330
1F
100
AcDbEntity
  8
freecads.com
100
AcDbLine
 10
104466.6533882924
 20
95253.22517958976
 30
0.0
 11
104466.6500693874
 21
95253.21098303587
 31
0.0
  0
LINE
  5
68FC1
330
1F
100
AcDbEntity
  8
freecads.com
100
AcDbLine
 10
104466.6500693874
 20
95253.21098303587
 30
0.0
 11
104466.6444713041
 21
95253.19130973874
 31
0.0
  0
LINE
  5
68FC2
330
1F
100
AcDbEntity
  8
freecads.com
100
AcDbLine
 10
104466.6444713041
 20
95253.19130973874
 30
0.0
 11
104466.6387448181
 21
95253.1766354663
 31
0.0
  0
LINE
  5
68FC3
330
1F
100
AcDbEntity
  8
freecads.com
100
AcDbLine
 10
104466.6387448181
 20
95253.1766354663
 30
0.0
 11
104466.6334060876
 21
95253.16703756123
 31
0.0
  0
LINE
  5
68FC4
330
1F
100
AcDbEntity
  8
freecads.com
100
AcDbLine
 10
104466.6334060876
 20
95253.16703756123
 30
0.0
 11
104466.6302405944
 21
95253.1623191933
 31
0.0
  0
LINE
  5
68FC5
330
1F
100
AcDbEntity
  8
freecads.com
100
AcDbLine
 10
104466.6302405944
 20
95253.1623191933
 30
0.0
 11
104466.6256923109
 21
95253.16024344487
 31
0.0
  0
LINE
  5
68FC6
330
1F
100
AcDbEntity
  8
freecads.com
100
AcDbLine
 10
104466.6256923109
 20
95253.16024344487
 30
0.0
 11
104466.6099086107
 21
95253.1563670472
 31
0.0
  0
LINE
  5
68FC7
330
1F
100
AcDbEntity
  8
freecads.com
100
AcDbLine
 10
104466.6099086107
 20
95253.1563670472
 30
0.0
 11
104466.5892775608
 21
95253.15871187412
 31
0.0
  0
LINE
  5
68FC8
330
1F
100
AcDbEntity
  8
freecads.com
100
AcDbLine
 10
104466.5892775608
 20
95253.15871187412
 30
0.0
 11
104466.5738793005
 21
95253.17204677477
 31
0.0
  0
LINE
  5
68FC9
330
1F
100
AcDbEntity
  8
freecads.com
100
AcDbLine
 10
104466.5738793005
 20
95253.17204677477
 30
0.0
 11
104466.5635313565
 21
95253.19070465947
 31
0.0
  0
LINE
  5
68FCA
330
1F
100
AcDbEntity
  8
freecads.com
100
AcDbLine
 10
104466.5635313565
 20
95253.19070465947
 30
0.0
 11
104466.5590726887
 21
95253.2017144162
 31
0.0
  0
LINE
  5
68FCB
330
1F
100
AcDbEntity
  8
freecads.com
100
AcDbLine
 10
104466.5590726887
 20
95253.2017144162
 30
0.0
 11
104466.5501002406
 21
95253.2139433625
 31
0.0
  0
LINE
  5
68FCC
330
1F
100
AcDbEntity
  8
freecads.com
100
AcDbLine
 10
104466.5501002406
 20
95253.2139433625
 30
0.0
 11
104466.526085216
 21
95253.24972895056
 31
0.0
  0
LINE
  5
68FCD
330
1F
100
AcDbEntity
  8
freecads.com
100
AcDbLine
 10
104466.526085216
 20
95253.24972895056
 30
0.0
 11
104466.5002661844
 21
95253.29687002185
 31
0.0
  0
LINE
  5
68FCE
330
1F
100
AcDbEntity
  8
freecads.com
100
AcDbLine
 10
104466.5002661844
 20
95253.29687002185
 30
0.0
 11
104466.4906523014
 21
95253.32759267328
 31
0.0
  0
LINE
  5
68FCF
330
1F
100
AcDbEntity
  8
freecads.com
100
AcDbLine
 10
104466.4906523014
 20
95253.32759267328
 30
0.0
 11
104466.487619958
 21
95253.35293931229
 31
0.0
  0
LINE
  5
68FD0
330
1F
100
AcDbEntity
  8
freecads.com
100
AcDbLine
 10
104466.487619958
 20
95253.35293931229
 30
0.0
 11
104466.4873376803
 21
95253.36371125177
 31
0.0
  0
LINE
  5
68FD1
330
1F
100
AcDbEntity
  8
freecads.com
100
AcDbLine
 10
104466.4873376803
 20
95253.36371125177
 30
0.0
 11
104466.4871381871
 21
95253.37777650834
 31
0.0
  0
LINE
  5
68FD2
330
1F
100
AcDbEntity
  8
freecads.com
100
AcDbLine
 10
104466.4871381871
 20
95253.37777650834
 30
0.0
 11
104466.4891165624
 21
95253.41485793399
 31
0.0
  0
LINE
  5
68FD3
330
1F
100
AcDbEntity
  8
freecads.com
100
AcDbLine
 10
104466.4891165624
 20
95253.41485793399
 30
0.0
 11
104466.497034811
 21
95253.4668185671
 31
0.0
  0
LINE
  5
68FD4
330
1F
100
AcDbEntity
  8
freecads.com
100
AcDbLine
 10
104466.497034811
 20
95253.4668185671
 30
0.0
 11
104466.5108243894
 21
95253.51776262995
 31
0.0
  0
LINE
  5
68FD5
330
1F
100
AcDbEntity
  8
freecads.com
100
AcDbLine
 10
104466.5108243894
 20
95253.51776262995
 30
0.0
 11
104466.5248597741
 21
95253.55894738696
 31
0.0
  0
LINE
  5
68FD6
330
1F
100
AcDbEntity
  8
freecads.com
100
AcDbLine
 10
104466.5248597741
 20
95253.55894738696
 30
0.0
 11
104466.5344202815
 21
95253.58431857185
 31
0.0
  0
LINE
  5
68FD7
330
1F
100
AcDbEntity
  8
freecads.com
100
AcDbLine
 10
104466.5344202815
 20
95253.58431857185
 30
0.0
 11
104466.5431919627
 21
95253.6091147809
 31
0.0
  0
LINE
  5
68FD8
330
1F
100
AcDbEntity
  8
freecads.com
100
AcDbLine
 10
104466.5431919627
 20
95253.6091147809
 30
0.0
 11
104466.5550805085
 21
95253.6464465283
 31
0.0
  0
LINE
  5
68FD9
330
1F
100
AcDbEntity
  8
freecads.com
100
AcDbLine
 10
104466.5550805085
 20
95253.6464465283
 30
0.0
 11
104466.5713457481
 21
95253.70198854531
 31
0.0
  0
LINE
  5
68FDA
330
1F
100
AcDbEntity
  8
freecads.com
100
AcDbLine
 10
104466.5713457481
 20
95253.70198854531
 30
0.0
 11
104466.5833453293
 21
95253.74472884003
 31
0.0
  0
LINE
  5
68FDB
330
1F
100
AcDbEntity
  8
freecads.com
100
AcDbLine
 10
104466.5833453293
 20
95253.74472884003
 30
0.0
 11
104466.5866482563
 21
95253.75786829981
 31
0.0
  0
LINE
  5
68FDC
330
1F
100
AcDbEntity
  8
freecads.com
100
AcDbLine
 10
104466.5866482563
 20
95253.75786829981
 30
0.0
 11
104466.5877302437
 21
95253.78345472434
 31
0.0
  0
LINE
  5
68FDD
330
1F
100
AcDbEntity
  8
freecads.com
100
AcDbLine
 10
104466.5877302437
 20
95253.78345472434
 30
0.0
 11
104466.5917313391
 21
95253.83044805717
 31
0.0
  0
LINE
  5
68FDE
330
1F
100
AcDbEntity
  8
freecads.com
100
AcDbLine
 10
104466.5917313391
 20
95253.83044805717
 30
0.0
 11
104466.5998403971
 21
95253.880055527
 31
0.0
  0
LINE
  5
68FDF
330
1F
100
AcDbEntity
  8
freecads.com
100
AcDbLine
 10
104466.5998403971
 20
95253.880055527
 30
0.0
 11
104466.6105073219
 21
95253.91669605294
 31
0.0
  0
LINE
  5
68FE0
330
1F
100
AcDbEntity
  8
freecads.com
100
AcDbLine
 10
104466.6105073219
 20
95253.91669605294
 30
0.0
 11
104466.6194715494
 21
95253.94011827122
 31
0.0
  0
LINE
  5
68FE1
330
1F
100
AcDbEntity
  8
freecads.com
100
AcDbLine
 10
104466.6194715494
 20
95253.94011827122
 30
0.0
 11
104466.6224373179
 21
95253.94668985363
 31
0.0
  0
LINE
  5
68FE2
330
1F
100
AcDbEntity
  8
freecads.com
100
AcDbLine
 10
104466.6224373179
 20
95253.94668985363
 30
0.0
 11
104466.633230214
 21
95253.96755605774
 31
0.0
  0
LINE
  5
68FE3
330
1F
100
AcDbEntity
  8
freecads.com
100
AcDbLine
 10
104466.633230214
 20
95253.96755605774
 30
0.0
 11
104466.6538491067
 21
95254.00345974393
 31
0.0
  0
LINE
  5
68FE4
330
1F
100
AcDbEntity
  8
freecads.com
100
AcDbLine
 10
104466.6538491067
 20
95254.00345974393
 30
0.0
 11
104466.6783859629
 21
95254.04002697955
 31
0.0
  0
LINE
  5
68FE5
330
1F
100
AcDbEntity
  8
freecads.com
100
AcDbLine
 10
104466.6783859629
 20
95254.04002697955
 30
0.0
 11
104466.7011394216
 21
95254.06816744997
 31
0.0
  0
LINE
  5
68FE6
330
1F
100
AcDbEntity
  8
freecads.com
100
AcDbLine
 10
104466.7011394216
 20
95254.06816744997
 30
0.0
 11
104466.7171089527
 21
95254.08611547224
 31
0.0
  0
LINE
  5
68FE7
330
1F
100
AcDbEntity
  8
freecads.com
100
AcDbLine
 10
104466.7171089527
 20
95254.08611547224
 30
0.0
 11
104466.7191055059
 21
95254.08993641011
 31
0.0
  0
LINE
  5
68FE8
330
1F
100
AcDbEntity
  8
freecads.com
100
AcDbLine
 10
104466.7191055059
 20
95254.08993641011
 30
0.0
 11
104466.7147729252
 21
95254.09797484085
 31
0.0
  0
LINE
  5
68FE9
330
1F
100
AcDbEntity
  8
freecads.com
100
AcDbLine
 10
104466.7147729252
 20
95254.09797484085
 30
0.0
 11
104466.7051930822
 21
95254.11058656407
 31
0.0
  0
LINE
  5
68FEA
330
1F
100
AcDbEntity
  8
freecads.com
100
AcDbLine
 10
104466.7051930822
 20
95254.11058656407
 30
0.0
 11
104466.6857704542
 21
95254.12755738214
 31
0.0
  0
LINE
  5
68FEB
330
1F
100
AcDbEntity
  8
freecads.com
100
AcDbLine
 10
104466.6857704542
 20
95254.12755738214
 30
0.0
 11
104466.6578615488
 21
95254.14855511515
 31
0.0
  0
LINE
  5
68FEC
330
1F
100
AcDbEntity
  8
freecads.com
100
AcDbLine
 10
104466.6578615488
 20
95254.14855511515
 30
0.0
 11
104466.6299030884
 21
95254.17118711795
 31
0.0
  0
LINE
  5
68FED
330
1F
100
AcDbEntity
  8
freecads.com
100
AcDbLine
 10
104466.6299030884
 20
95254.17118711795
 30
0.0
 11
104466.6087593537
 21
95254.1934702681
 31
0.0
  0
LINE
  5
68FEE
330
1F
100
AcDbEntity
  8
freecads.com
100
AcDbLine
 10
104466.6087593537
 20
95254.1934702681
 30
0.0
 11
104466.5948930115
 21
95254.21258340955
 31
0.0
  0
LINE
  5
68FEF
330
1F
100
AcDbEntity
  8
freecads.com
100
AcDbLine
 10
104466.5948930115
 20
95254.21258340955
 30
0.0
 11
104466.5882450126
 21
95254.22353353828
 31
0.0
  0
LINE
  5
68FF0
330
1F
100
AcDbEntity
  8
freecads.com
100
AcDbLine
 10
104466.5882450126
 20
95254.22353353828
 30
0.0
 11
104466.5856252023
 21
95254.22772648528
 31
0.0
  0
LINE
  5
68FF1
330
1F
100
AcDbEntity
  8
freecads.com
100
AcDbLine
 10
104466.5856252023
 20
95254.22772648528
 30
0.0
 11
104466.5750339992
 21
95254.24232943571
 31
0.0
  0
LINE
  5
68FF2
330
1F
100
AcDbEntity
  8
freecads.com
100
AcDbLine
 10
104466.5750339992
 20
95254.24232943571
 30
0.0
 11
104466.5567489341
 21
95254.26312709658
 31
0.0
  0
LINE
  5
68FF3
330
1F
100
AcDbEntity
  8
freecads.com
100
AcDbLine
 10
104466.5567489341
 20
95254.26312709658
 30
0.0
 11
104466.5349761532
 21
95254.28213614956
 31
0.0
  0
LINE
  5
68FF4
330
1F
100
AcDbEntity
  8
freecads.com
100
AcDbLine
 10
104466.5349761532
 20
95254.28213614956
 30
0.0
 11
104466.5128179323
 21
95254.2983436137
 31
0.0
  0
LINE
  5
68FF5
330
1F
100
AcDbEntity
  8
freecads.com
100
AcDbLine
 10
104466.5128179323
 20
95254.2983436137
 30
0.0
 11
104466.4953668485
 21
95254.31211443539
 31
0.0
  0
LINE
  5
68FF6
330
1F
100
AcDbEntity
  8
freecads.com
100
AcDbLine
 10
104466.4953668485
 20
95254.31211443539
 30
0.0
 11
104466.4907941349
 21
95254.31962709786
 31
0.0
  0
LINE
  5
68FF7
330
1F
100
AcDbEntity
  8
freecads.com
100
AcDbLine
 10
104466.4907941349
 20
95254.31962709786
 30
0.0
 11
104466.4915048078
 21
95254.32580004119
 31
0.0
  0
LINE
  5
68FF8
330
1F
100
AcDbEntity
  8
freecads.com
100
AcDbLine
 10
104466.4915048078
 20
95254.32580004119
 30
0.0
 11
104466.4927980982
 21
95254.32904264553
 31
0.0
  0
LINE
  5
68FF9
330
1F
100
AcDbEntity
  8
freecads.com
100
AcDbLine
 10
104466.4927980982
 20
95254.32904264553
 30
0.0
 11
104466.4970943232
 21
95254.33070319797
 31
0.0
  0
LINE
  5
68FFA
330
1F
100
AcDbEntity
  8
freecads.com
100
AcDbLine
 10
104466.4970943232
 20
95254.33070319797
 30
0.0
 11
104466.5133660466
 21
95254.33264521762
 31
0.0
  0
LINE
  5
68FFB
330
1F
100
AcDbEntity
  8
freecads.com
100
AcDbLine
 10
104466.5133660466
 20
95254.33264521762
 30
0.0
 11
104466.5429449986
 21
95254.32822649477
 31
0.0
  0
LINE
  5
68FFC
330
1F
100
AcDbEntity
  8
freecads.com
100
AcDbLine
 10
104466.5429449986
 20
95254.32822649477
 30
0.0
 11
104466.574617877
 21
95254.3160296202
 31
0.0
  0
LINE
  5
68FFD
330
1F
100
AcDbEntity
  8
freecads.com
100
AcDbLine
 10
104466.574617877
 20
95254.3160296202
 30
0.0
 11
104466.6065555499
 21
95254.30028783324
 31
0.0
  0
LINE
  5
68FFE
330
1F
100
AcDbEntity
  8
freecads.com
100
AcDbLine
 10
104466.6065555499
 20
95254.30028783324
 30
0.0
 11
104466.6215119842
 21
95254.29231493538
 31
0.0
  0
LINE
  5
68FFF
330
1F
100
AcDbEntity
  8
freecads.com
100
AcDbLine
 10
104466.6215119842
 20
95254.29231493538
 30
0.0
 11
104466.6381802627
 21
95254.28124450863
 31
0.0
  0
LINE
  5
69000
330
1F
100
AcDbEntity
  8
freecads.com
100
AcDbLine
 10
104466.6381802627
 20
95254.28124450863
 30
0.0
 11
104466.6798044142
 21
95254.25371479084
 31
0.0
  0
LINE
  5
69001
330
1F
100
AcDbEntity
  8
freecads.com
100
AcDbLine
 10
104466.6798044142
 20
95254.25371479084
 30
0.0
 11
104466.7319665088
 21
95254.21947686728
 31
0.0
  0
LINE
  5
69002
330
1F
100
AcDbEntity
  8
freecads.com
100
AcDbLine
 10
104466.7319665088
 20
95254.21947686728
 30
0.0
 11
104466.7732422709
 21
95254.1927840253
 31
0.0
  0
LINE
  5
69003
330
1F
100
AcDbEntity
  8
freecads.com
100
AcDbLine
 10
104466.7732422709
 20
95254.1927840253
 30
0.0
 11
104466.8037221264
 21
95254.17324503587
 31
0.0
  0
LINE
  5
69004
330
1F
100
AcDbEntity
  8
freecads.com
100
AcDbLine
 10
104466.8037221264
 20
95254.17324503587
 30
0.0
 11
104466.8140323254
 21
95254.16675137508
 31
0.0
  0
LINE
  5
69005
330
1F
100
AcDbEntity
  8
freecads.com
100
AcDbLine
 10
104466.8140323254
 20
95254.16675137508
 30
0.0
 11
104466.8162979571
 21
95254.1719760598
 31
0.0
  0
LINE
  5
69006
330
1F
100
AcDbEntity
  8
freecads.com
100
AcDbLine
 10
104466.8162979571
 20
95254.1719760598
 30
0.0
 11
104466.8197277817
 21
95254.1825801147
 31
0.0
  0
LINE
  5
69007
330
1F
100
AcDbEntity
  8
freecads.com
100
AcDbLine
 10
104466.8197277817
 20
95254.1825801147
 30
0.0
 11
104466.8208941745
 21
95254.19384007737
 31
0.0
  0
LINE
  5
69008
330
1F
100
AcDbEntity
  8
freecads.com
100
AcDbLine
 10
104466.8208941745
 20
95254.19384007737
 30
0.0
 11
104466.8182497025
 21
95254.20100701333
 31
0.0
  0
LINE
  5
69009
330
1F
100
AcDbEntity
  8
freecads.com
100
AcDbLine
 10
104466.8182497025
 20
95254.20100701333
 30
0.0
 11
104466.814616448
 21
95254.20538521231
 31
0.0
  0
LINE
  5
6900A
330
1F
100
AcDbEntity
  8
freecads.com
100
AcDbLine
 10
104466.814616448
 20
95254.20538521231
 30
0.0
 11
104466.8127872005
 21
95254.2069859052
 31
0.0
  0
LINE
  5
6900B
330
1F
100
AcDbEntity
  8
freecads.com
100
AcDbLine
 10
104466.8127872005
 20
95254.2069859052
 30
0.0
 11
104466.7866782496
 21
95254.2306744232
 31
0.0
  0
LINE
  5
6900C
330
1F
100
AcDbEntity
  8
freecads.com
100
AcDbLine
 10
104466.7866782496
 20
95254.2306744232
 30
0.0
 11
104466.782583023
 21
95254.23491275693
 31
0.0
  0
LINE
  5
6900D
330
1F
100
AcDbEntity
  8
freecads.com
100
AcDbLine
 10
104466.782583023
 20
95254.23491275693
 30
0.0
 11
104466.7945848041
 21
95254.2395501929
 31
0.0
  0
LINE
  5
6900E
330
1F
100
AcDbEntity
  8
freecads.com
100
AcDbLine
 10
104466.7945848041
 20
95254.2395501929
 30
0.0
 11
104466.7966360067
 21
95254.24077019296
 31
0.0
  0
LINE
  5
6900F
330
1F
100
AcDbEntity
  8
freecads.com
100
AcDbLine
 10
104466.7966360067
 20
95254.24077019296
 30
0.0
 11
104466.8034410066
 21
95254.2523186856
 31
0.0
  0
LINE
  5
69010
330
1F
100
AcDbEntity
  8
freecads.com
100
AcDbLine
 10
104466.8034410066
 20
95254.2523186856
 30
0.0
 11
104466.8050071963
 21
95254.2538478249
 31
0.0
  0
LINE
  5
69011
330
1F
100
AcDbEntity
  8
freecads.com
100
AcDbLine
 10
104466.8050071963
 20
95254.2538478249
 30
0.0
 11
104466.8111333635
 21
95254.25493247524
 31
0.0
  0
LINE
  5
69012
330
1F
100
AcDbEntity
  8
freecads.com
100
AcDbLine
 10
104466.8111333635
 20
95254.25493247524
 30
0.0
 11
104466.8189968469
 21
95254.25548302097
 31
0.0
  0
LINE
  5
69013
330
1F
100
AcDbEntity
  8
freecads.com
100
AcDbLine
 10
104466.8189968469
 20
95254.25548302097
 30
0.0
 11
104466.823781095
 21
95254.25564523224
 31
0.0
  0
LINE
  5
69014
330
1F
100
AcDbEntity
  8
freecads.com
100
AcDbLine
 10
104466.823781095
 20
95254.25564523224
 30
0.0
 11
104466.8257839005
 21
95254.26359439469
 31
0.0
  0
LINE
  5
69015
330
1F
100
AcDbEntity
  8
freecads.com
100
AcDbLine
 10
104466.8257839005
 20
95254.26359439469
 30
0.0
 11
104466.8262948486
 21
95254.2720382957
 31
0.0
  0
LINE
  5
69016
330
1F
100
AcDbEntity
  8
freecads.com
100
AcDbLine
 10
104466.8262948486
 20
95254.2720382957
 30
0.0
 11
104466.8272726317
 21
95254.2734499158
 31
0.0
  0
LINE
  5
69017
330
1F
100
AcDbEntity
  8
freecads.com
100
AcDbLine
 10
104466.8272726317
 20
95254.2734499158
 30
0.0
 11
104466.8323741239
 21
95254.27398703076
 31
0.0
  0
LINE
  5
69018
330
1F
100
AcDbEntity
  8
freecads.com
100
AcDbLine
 10
104466.8323741239
 20
95254.27398703076
 30
0.0
 11
104466.8382058562
 21
95254.27447980103
 31
0.0
  0
LINE
  5
69019
330
1F
100
AcDbEntity
  8
freecads.com
100
AcDbLine
 10
104466.8382058562
 20
95254.27447980103
 30
0.0
 11
104466.8422633377
 21
95254.27417124069
 31
0.0
  0
LINE
  5
6901A
330
1F
100
AcDbEntity
  8
freecads.com
100
AcDbLine
 10
104466.8422633377
 20
95254.27417124069
 30
0.0
 11
104466.8475420928
 21
95254.27306493902
 31
0.0
  0
LINE
  5
6901B
330
1F
100
AcDbEntity
  8
freecads.com
100
AcDbLine
 10
104466.8475420928
 20
95254.27306493902
 30
0.0
 11
104466.8514946754
 21
95254.27357056114
 31
0.0
  0
LINE
  5
6901C
330
1F
100
AcDbEntity
  8
freecads.com
100
AcDbLine
 10
104466.8514946754
 20
95254.27357056114
 30
0.0
 11
104466.8521564881
 21
95254.27719327939
 31
0.0
  0
LINE
  5
6901D
330
1F
100
AcDbEntity
  8
freecads.com
100
AcDbLine
 10
104466.8521564881
 20
95254.27719327939
 30
0.0
 11
104466.8518539485
 21
95254.28089704538
 31
0.0
  0
LINE
  5
6901E
330
1F
100
AcDbEntity
  8
freecads.com
100
AcDbLine
 10
104466.8518539485
 20
95254.28089704538
 30
0.0
 11
104466.8514668876
 21
95254.28301933837
 31
0.0
  0
CIRCLE
  5
6B24B
330
1F
100
AcDbEntity
  8
freecads.com
100
AcDbCircle
 10
104466.682177449
 20
95253.78497284988
 30
0.0
 40
0.0431756761030096
  0
ENDSEC
  0
SECTION
  2
OBJECTS
  0
DICTIONARY
  5
C
330
0
100
AcDbDictionary
281
     1
  3
ACAD_ASSOCPERSSUBENTMANAGER
350
2C1D4
  3
ACAD_CIP_PREVIOUS_PRODUCT_INFO
350
1A5
  3
ACAD_COLOR
350
73
  3
ACAD_DETAILVIEWSTYLE
350
1AB
  3
ACAD_GROUP
350
D
  3
ACAD_LAYOUT
350
1A
  3
ACAD_MATERIAL
350
72
  3
ACAD_MLEADERSTYLE
350
D7
  3
ACAD_MLINESTYLE
350
17
  3
ACAD_PLOTSETTINGS
350
19
  3
ACAD_PLOTSTYLENAME
350
E
  3
ACAD_SCALELIST
350
B6
  3
ACAD_SECTIONVIEWSTYLE
350
1A8
  3
ACAD_TABLESTYLE
350
86
  3
ACAD_VISUALSTYLE
350
99
  3
ACDB_RECOMPOSE_DATA
350
6B28A
  3
ACDBVARIABLEDICTIONARY
350
4A0D5
  3
AEC_PROPERTY_SET_DEFS
350
22D1
  0
DICTIONARY
  5
18E
330
2
100
AcDbDictionary
280
     1
281
     1
  3
ACAD_LAYERSTATES
360
18F
  0
DICTIONARY
  5
E6
330
10
100
AcDbDictionary
280
     1
281
     1
  0
DICTIONARY
  5
15D
330
1F
100
AcDbDictionary
280
     1
281
     1
  3
ACAD_SORTENTS
360
28E
  0
ACDBASSOCPERSSUBENTMANAGER
  5
2C1D4
102
{ACAD_REACTORS
330
C
102
}
330
C
100
AcDbAssocPersSubentManager
 90
        2
 90
        3
 90
        0
 90
        2
 90
     1260
 90
        0
 90
     1260
 90
        1
 90
        2
 90
        3
 90
        4
 90
        5
 90
        6
 90
        7
 90
        8
 90
        9
 90
       10
 90
       11
 90
       12
 90
       13
 90
       14
 90
       15
 90
       16
 90
       17
 90
       18
 90
       19
 90
       20
 90
       21
 90
       22
 90
       23
 90
       24
 90
       25
 90
       26
 90
       27
 90
       28
 90
       29
 90
       30
 90
       31
 90
       32
 90
       33
 90
       34
 90
       35
 90
       36
 90
       37
 90
       38
 90
       39
 90
       40
 90
       41
 90
       42
 90
       43
 90
       44
 90
       45
 90
       46
 90
       47
 90
       48
 90
       49
 90
       50
 90
       51
 90
       52
 90
       53
 90
       54
 90
       55
 90
       56
 90
       57
 90
       58
 90
       59
 90
       60
 90
       61
 90
       62
 90
       63
 90
       64
 90
       65
 90
       66
 90
       67
 90
       68
 90
       69
 90
       70
 90
       71
 90
       72
 90
       73
 90
       74
 90
       75
 90
       76
 90
       77
 90
       78
 90
       79
 90
       80
 90
       81
 90
       82
 90
       83
 90
       84
 90
       85
 90
       86
 90
       87
 90
       88
 90
       89
 90
       90
 90
       91
 90
       92
 90
       93
 90
       94
 90
       95
 90
       96
 90
       97
 90
       98
 90
       99
 90
      100
 90
      101
 90
      102
 90
      103
 90
      104
 90
      105
 90
      106
 90
      107
 90
      108
 90
      109
 90
      110
 90
      111
 90
      112
 90
      113
 90
      114
 90
      115
 90
      116
 90
      117
 90
      118
 90
      119
 90
      120
 90
      121
 90
      122
 90
      123
 90
      124
 90
      125
 90
      126
 90
      127
 90
      128
 90
      129
 90
      130
 90
      131
 90
      132
 90
      133
 90
      134
 90
      135
 90
      136
 90
      137
 90
      138
 90
      139
 90
      140
 90
      141
 90
      142
 90
      143
 90
      144
 90
      145
 90
      146
 90
      147
 90
      148
 90
      149
 90
      150
 90
      151
 90
      152
 90
      153
 90
      154
 90
      155
 90
      156
 90
      157
 90
      158
 90
      159
 90
      160
 90
      161
 90
      162
 90
      163
 90
      164
 90
      165
 90
      166
 90
      167
 90
      168
 90
      169
 90
      170
 90
      171
 90
      172
 90
      173
 90
      174
 90
      175
 90
      176
 90
      177
 90
      178
 90
      179
 90
      180
 90
      181
 90
      182
 90
      183
 90
      184
 90
      185
 90
      186
 90
      187
 90
      188
 90
      189
 90
      190
 90
      191
 90
      192
 90
      193
 90
      194
 90
      195
 90
      196
 90
      197
 90
      198
 90
      199
 90
      200
 90
      201
 90
      202
 90
      203
 90
      204
 90
      205
 90
      206
 90
      207
 90
      208
 90
      209
 90
      210
 90
      211
 90
      212
 90
      213
 90
      214
 90
      215
 90
      216
 90
      217
 90
      218
 90
      219
 90
      220
 90
      221
 90
      222
 90
      223
 90
      224
 90
      225
 90
      226
 90
      227
 90
      228
 90
      229
 90
      230
 90
      231
 90
      232
 90
      233
 90
      234
 90
      235
 90
      236
 90
      237
 90
      238
 90
      239
 90
      240
 90
      241
 90
      242
 90
      243
 90
      244
 90
      245
 90
      246
 90
      247
 90
      248
 90
      249
 90
      250
 90
      251
 90
      252
 90
      253
 90
      254
 90
      255
 90
      256
 90
      257
 90
      258
 90
      259
 90
      260
 90
      261
 90
      262
 90
      263
 90
      264
 90
      265
 90
      266
 90
      267
 90
      268
 90
      269
 90
      270
 90
      271
 90
      272
 90
      273
 90
      274
 90
      275
 90
      276
 90
      277
 90
      278
 90
      279
 90
      280
 90
      281
 90
      282
 90
      283
 90
      284
 90
      285
 90
      286
 90
      287
 90
      288
 90
      289
 90
      290
 90
      291
 90
      292
 90
      293
 90
      294
 90
      295
 90
      296
 90
      297
 90
      298
 90
      299
 90
      300
 90
      301
 90
      302
 90
      303
 90
      304
 90
      305
 90
      306
 90
      307
 90
      308
 90
      309
 90
      310
 90
      311
 90
      312
 90
      313
 90
      314
 90
      315
 90
      316
 90
      317
 90
      318
 90
      319
 90
      320
 90
      321
 90
      322
 90
      323
 90
      324
 90
      325
 90
      326
 90
      327
 90
      328
 90
      329
 90
      330
 90
      331
 90
      332
 90
      333
 90
      334
 90
      335
 90
      336
 90
      337
 90
      338
 90
      339
 90
      340
 90
      341
 90
      342
 90
      343
 90
      344
 90
      345
 90
      346
 90
      347
 90
      348
 90
      349
 90
      350
 90
      351
 90
      352
 90
      353
 90
      354
 90
      355
 90
      356
 90
      357
 90
      358
 90
      359
 90
      360
 90
      361
 90
      362
 90
      363
 90
      364
 90
      365
 90
      366
 90
      367
 90
      368
 90
      369
 90
      370
 90
      371
 90
      372
 90
      373
 90
      374
 90
      375
 90
      376
 90
      377
 90
      378
 90
      379
 90
      380
 90
      381
 90
      382
 90
      383
 90
      384
 90
      385
 90
      386
 90
      387
 90
      388
 90
      389
 90
      390
 90
      391
 90
      392
 90
      393
 90
      394
 90
      395
 90
      396
 90
      397
 90
      398
 90
      399
 90
      400
 90
      401
 90
      402
 90
      403
 90
      404
 90
      405
 90
      406
 90
      407
 90
      408
 90
      409
 90
      410
 90
      411
 90
      412
 90
      413
 90
      414
 90
      415
 90
      416
 90
      417
 90
      418
 90
      419
 90
      420
 90
      421
 90
      422
 90
      423
 90
      424
 90
      425
 90
      426
 90
      427
 90
      428
 90
      429
 90
      430
 90
      431
 90
      432
 90
      433
 90
      434
 90
      435
 90
      436
 90
      437
 90
      438
 90
      439
 90
      440
 90
      441
 90
      442
 90
      443
 90
      444
 90
      445
 90
      446
 90
      447
 90
      448
 90
      449
 90
      450
 90
      451
 90
      452
 90
      453
 90
      454
 90
      455
 90
      456
 90
      457
 90
      458
 90
      459
 90
      460
 90
      461
 90
      462
 90
      463
 90
      464
 90
      465
 90
      466
 90
      467
 90
      468
 90
      469
 90
      470
 90
      471
 90
      472
 90
      473
 90
      474
 90
      475
 90
      476
 90
      477
 90
      478
 90
      479
 90
      480
 90
      481
 90
      482
 90
      483
 90
      484
 90
      485
 90
      486
 90
      487
 90
      488
 90
      489
 90
      490
 90
      491
 90
      492
 90
      493
 90
      494
 90
      495
 90
      496
 90
      497
 90
      498
 90
      499
 90
      500
 90
      501
 90
      502
 90
      503
 90
      504
 90
      505
 90
      506
 90
      507
 90
      508
 90
      509
 90
      510
 90
      511
 90
      512
 90
      513
 90
      514
 90
      515
 90
      516
 90
      517
 90
      518
 90
      519
 90
      520
 90
      521
 90
      522
 90
      523
 90
      524
 90
      525
 90
      526
 90
      527
 90
      528
 90
      529
 90
      530
 90
      531
 90
      532
 90
      533
 90
      534
 90
      535
 90
      536
 90
      537
 90
      538
 90
      539
 90
      540
 90
      541
 90
      542
 90
      543
 90
      544
 90
      545
 90
      546
 90
      547
 90
      548
 90
      549
 90
      550
 90
      551
 90
      552
 90
      553
 90
      554
 90
      555
 90
      556
 90
      557
 90
      558
 90
      559
 90
      560
 90
      561
 90
      562
 90
      563
 90
      564
 90
      565
 90
      566
 90
      567
 90
      568
 90
      569
 90
      570
 90
      571
 90
      572
 90
      573
 90
      574
 90
      575
 90
      576
 90
      577
 90
      578
 90
      579
 90
      580
 90
      581
 90
      582
 90
      583
 90
      584
 90
      585
 90
      586
 90
      587
 90
      588
 90
      589
 90
      590
 90
      591
 90
      592
 90
      593
 90
      594
 90
      595
 90
      596
 90
      597
 90
      598
 90
      599
 90
      600
 90
      601
 90
      602
 90
      603
 90
      604
 90
      605
 90
      606
 90
      607
 90
      608
 90
      609
 90
      610
 90
      611
 90
      612
 90
      613
 90
      614
 90
      615
 90
      616
 90
      617
 90
      618
 90
      619
 90
      620
 90
      621
 90
      622
 90
      623
 90
      624
 90
      625
 90
      626
 90
      627
 90
      628
 90
      629
 90
      630
 90
      631
 90
      632
 90
      633
 90
      634
 90
      635
 90
      636
 90
      637
 90
      638
 90
      639
 90
      640
 90
      641
 90
      642
 90
      643
 90
      644
 90
      645
 90
      646
 90
      647
 90
      648
 90
      649
 90
      650
 90
      651
 90
      652
 90
      653
 90
      654
 90
      655
 90
      656
 90
      657
 90
      658
 90
      659
 90
      660
 90
      661
 90
      662
 90
      663
 90
      664
 90
      665
 90
      666
 90
      667
 90
      668
 90
      669
 90
      670
 90
      671
 90
      672
 90
      673
 90
      674
 90
      675
 90
      676
 90
      677
 90
      678
 90
      679
 90
      680
 90
      681
 90
      682
 90
      683
 90
      684
 90
      685
 90
      686
 90
      687
 90
      688
 90
      689
 90
      690
 90
      691
 90
      692
 90
      693
 90
      694
 90
      695
 90
      696
 90
      697
 90
      698
 90
      699
 90
      700
 90
      701
 90
      702
 90
      703
 90
      704
 90
      705
 90
      706
 90
      707
 90
      708
 90
      709
 90
      710
 90
      711
 90
      712
 90
      713
 90
      714
 90
      715
 90
      716
 90
      717
 90
      718
 90
      719
 90
      720
 90
      721
 90
      722
 90
      723
 90
      724
 90
      725
 90
      726
 90
      727
 90
      728
 90
      729
 90
      730
 90
      731
 90
      732
 90
      733
 90
      734
 90
      735
 90
      736
 90
      737
 90
      738
 90
      739
 90
      740
 90
      741
 90
      742
 90
      743
 90
      744
 90
      745
 90
      746
 90
      747
 90
      748
 90
      749
 90
      750
 90
      751
 90
      752
 90
      753
 90
      754
 90
      755
 90
      756
 90
      757
 90
      758
 90
      759
 90
      760
 90
      761
 90
      762
 90
      763
 90
      764
 90
      765
 90
      766
 90
      767
 90
      768
 90
      769
 90
      770
 90
      771
 90
      772
 90
      773
 90
      774
 90
      775
 90
      776
 90
      777
 90
      778
 90
      779
 90
      780
 90
      781
 90
      782
 90
      783
 90
      784
 90
      785
 90
      786
 90
      787
 90
      788
 90
      789
 90
      790
 90
      791
 90
      792
 90
      793
 90
      794
 90
      795
 90
      796
 90
      797
 90
      798
 90
      799
 90
      800
 90
      801
 90
      802
 90
      803
 90
      804
 90
      805
 90
      806
 90
      807
 90
      808
 90
      809
 90
      810
 90
      811
 90
      812
 90
      813
 90
      814
 90
      815
 90
      816
 90
      817
 90
      818
 90
      819
 90
      820
 90
      821
 90
      822
 90
      823
 90
      824
 90
      825
 90
      826
 90
      827
 90
      828
 90
      829
 90
      830
 90
      831
 90
      832
 90
      833
 90
      834
 90
      835
 90
      836
 90
      837
 90
      838
 90
      839
 90
      840
 90
      841
 90
      842
 90
      843
 90
      844
 90
      845
 90
      846
 90
      847
 90
      848
 90
      849
 90
      850
 90
      851
 90
      852
 90
      853
 90
      854
 90
      855
 90
      856
 90
      857
 90
      858
 90
      859
 90
      860
 90
      861
 90
      862
 90
      863
 90
      864
 90
      865
 90
      866
 90
      867
 90
      868
 90
      869
 90
      870
 90
      871
 90
      872
 90
      873
 90
      874
 90
      875
 90
      876
 90
      877
 90
      878
 90
      879
 90
      880
 90
      881
 90
      882
 90
      883
 90
      884
 90
      885
 90
      886
 90
      887
 90
      888
 90
      889
 90
      890
 90
      891
 90
      892
 90
      893
 90
      894
 90
      895
 90
      896
 90
      897
 90
      898
 90
      899
 90
      900
 90
      901
 90
      902
 90
      903
 90
      904
 90
      905
 90
      906
 90
      907
 90
      908
 90
      909
 90
      910
 90
      911
 90
      912
 90
      913
 90
      914
 90
      915
 90
      916
 90
      917
 90
      918
 90
      919
 90
      920
 90
      921
 90
      922
 90
      923
 90
      924
 90
      925
 90
      926
 90
      927
 90
      928
 90
      929
 90
      930
 90
      931
 90
      932
 90
      933
 90
      934
 90
      935
 90
      936
 90
      937
 90
      938
 90
      939
 90
      940
 90
      941
 90
      942
 90
      943
 90
      944
 90
      945
 90
      946
 90
      947
 90
      948
 90
      949
 90
      950
 90
      951
 90
      952
 90
      953
 90
      954
 90
      955
 90
      956
 90
      957
 90
      958
 90
      959
 90
      960
 90
      961
 90
      962
 90
      963
 90
      964
 90
      965
 90
      966
 90
      967
 90
      968
 90
      969
 90
      970
 90
      971
 90
      972
 90
      973
 90
      974
 90
      975
 90
      976
 90
      977
 90
      978
 90
      979
 90
      980
 90
      981
 90
      982
 90
      983
 90
      984
 90
      985
 90
      986
 90
      987
 90
      988
 90
      989
 90
      990
 90
      991
 90
      992
 90
      993
 90
      994
 90
      995
 90
      996
 90
      997
 90
      998
 90
      999
 90
     1000
 90
     1001
 90
     1002
 90
     1003
 90
     1004
 90
     1005
 90
     1006
 90
     1007
 90
     1008
 90
     1009
 90
     1010
 90
     1011
 90
     1012
 90
     1013
 90
     1014
 90
     1015
 90
     1016
 90
     1017
 90
     1018
 90
     1019
 90
     1020
 90
     1021
 90
     1022
 90
     1023
 90
     1024
 90
     1025
 90
     1026
 90
     1027
 90
     1028
 90
     1029
 90
     1030
 90
     1031
 90
     1032
 90
     1033
 90
     1034
 90
     1035
 90
     1036
 90
     1037
 90
     1038
 90
     1039
 90
     1040
 90
     1041
 90
     1042
 90
     1043
 90
     1044
 90
     1045
 90
     1046
 90
     1047
 90
     1048
 90
     1049
 90
     1050
 90
     1051
 90
     1052
 90
     1053
 90
     1054
 90
     1055
 90
     1056
 90
     1057
 90
     1058
 90
     1059
 90
     1060
 90
     1061
 90
     1062
 90
     1063
 90
     1064
 90
     1065
 90
     1066
 90
     1067
 90
     1068
 90
     1069
 90
     1070
 90
     1071
 90
     1072
 90
     1073
 90
     1074
 90
     1075
 90
     1076
 90
     1077
 90
     1078
 90
     1079
 90
     1080
 90
     1081
 90
     1082
 90
     1083
 90
     1084
 90
     1085
 90
     1086
 90
     1087
 90
     1088
 90
     1089
 90
     1090
 90
     1091
 90
     1092
 90
     1093
 90
     1094
 90
     1095
 90
     1096
 90
     1097
 90
     1098
 90
     1099
 90
     1100
 90
     1101
 90
     1102
 90
     1103
 90
     1104
 90
     1105
 90
     1106
 90
     1107
 90
     1108
 90
     1109
 90
     1110
 90
     1111
 90
     1112
 90
     1113
 90
     1114
 90
     1115
 90
     1116
 90
     1117
 90
     1118
 90
     1119
 90
     1120
 90
     1121
 90
     1122
 90
     1123
 90
     1124
 90
     1125
 90
     1126
 90
     1127
 90
     1128
 90
     1129
 90
     1130
 90
     1131
 90
     1132
 90
     1133
 90
     1134
 90
     1135
 90
     1136
 90
     1137
 90
     1138
 90
     1139
 90
     1140
 90
     1141
 90
     1142
 90
     1143
 90
     1144
 90
     1145
 90
     1146
 90
     1147
 90
     1148
 90
     1149
 90
     1150
 90
     1151
 90
     1152
 90
     1153
 90
     1154
 90
     1155
 90
     1156
 90
     1157
 90
     1158
 90
     1159
 90
     1160
 90
     1161
 90
     1162
 90
     1163
 90
     1164
 90
     1165
 90
     1166
 90
     1167
 90
     1168
 90
     1169
 90
     1170
 90
     1171
 90
     1172
 90
     1173
 90
     1174
 90
     1175
 90
     1176
 90
     1177
 90
     1178
 90
     1179
 90
     1180
 90
     1181
 90
     1182
 90
     1183
 90
     1184
 90
     1185
 90
     1186
 90
     1187
 90
     1188
 90
     1189
 90
     1190
 90
     1191
 90
     1192
 90
     1193
 90
     1194
 90
     1195
 90
     1196
 90
     1197
 90
     1198
 90
     1199
 90
     1200
 90
     1201
 90
     1202
 90
     1203
 90
     1204
 90
     1205
 90
     1206
 90
     1207
 90
     1208
 90
     1209
 90
     1210
 90
     1211
 90
     1212
 90
     1213
 90
     1214
 90
     1215
 90
     1216
 90
     1217
 90
     1218
 90
     1219
 90
     1220
 90
     1221
 90
     1222
 90
     1223
 90
     1224
 90
     1225
 90
     1226
 90
     1227
 90
     1228
 90
     1229
 90
     1230
 90
     1231
 90
     1232
 90
     1233
 90
     1234
 90
     1235
 90
     1236
 90
     1237
 90
     1238
 90
     1239
 90
     1240
 90
     1241
 90
     1242
 90
     1243
 90
     1244
 90
     1245
 90
     1246
 90
     1247
 90
     1248
 90
     1249
 90
     1250
 90
     1251
 90
     1252
 90
     1253
 90
     1254
 90
     1255
 90
     1256
 90
     1257
 90
     1258
 90
     1259
 90
     1260
 90
        0
 90
        0
290
     0
  0
XRECORD
  5
1A5
102
{ACAD_REACTORS
330
C
102
}
330
C
100
AcDbXrecord
280
     1
300
ACD
300
2022
300

  0
DICTIONARY
  5
73
102
{ACAD_REACTORS
330
C
102
}
330
C
100
AcDbDictionary
281
     1
  0
DICTIONARY
  5
1AB
102
{ACAD_REACTORS
330
C
102
}
330
C
100
AcDbDictionary
281
     1
  3
Imperial24
350
1AC
  3
Metric50
350
224
  0
DICTIONARY
  5
D
102
{ACAD_REACTORS
330
C
102
}
330
C
100
AcDbDictionary
281
     1
  0
DICTIONARY
  5
1A
102
{ACAD_REACTORS
330
C
102
}
330
C
100
AcDbDictionary
281
     1
  3
Layout1
350
59
  3
Layout2
350
5E
  3
Model
350
22
  0
DICTIONARY
  5
72
102
{ACAD_REACTORS
330
C
102
}
330
C
100
AcDbDictionary
281
     1
  3
ByBlock
350
97
  3
ByLayer
350
96
  3
Global
350
98
  0
DICTIONARY
  5
D7
102
{ACAD_REACTORS
330
C
102
}
330
C
100
AcDbDictionary
281
     1
  3
Standard
350
D8
  0
DICTIONARY
  5
17
102
{ACAD_REACTORS
330
C
102
}
330
C
100
AcDbDictionary
281
     1
  3
Standard
350
18
  0
DICTIONARY
  5
19
102
{ACAD_REACTORS
330
C
102
}
330
C
100
AcDbDictionary
281
     1
  0
ACDBDICTIONARYWDFLT
  5
E
102
{ACAD_REACTORS
330
C
102
}
330
C
100
AcDbDictionary
281
     1
  3
Normal
350
F
100
AcDbDictionaryWithDefault
340
F
  0
DICTIONARY
  5
B6
102
{ACAD_REACTORS
330
C
102
}
330
C
100
AcDbDictionary
281
     1
  3
*A1
350
2283
  3
A0
350
B7
  3
A1
350
124
  3
A2
350
125
  3
A3
350
126
  3
A4
350
127
  3
A5
350
128
  3
A6
350
129
  3
A7
350
12A
  3
A8
350
12B
  3
A9
350
12C
  3
B0
350
12D
  3
B1
350
12E
  3
B2
350
12F
  3
B3
350
130
  3
B4
350
131
  3
B5
350
132
  3
B6
350
133
  3
B7
350
134
  3
B8
350
135
  3
B9
350
136
  3
C0
350
137
  3
C1
350
138
  3
C2
350
139
  3
C3
350
13A
  3
C4
350
13B
  3
C5
350
13C
  3
C6
350
13D
  3
C7
350
13E
  3
C8
350
13F
  3
C9
350
140
  3
D0
350
141
  3
D1
350
142
  3
D2
350
143
  0
DICTIONARY
  5
1A8
102
{ACAD_REACTORS
330
C
102
}
330
C
100
AcDbDictionary
281
     1
  3
Imperial24
350
1AA
  3
Metric50
350
223
  0
DICTIONARY
  5
86
102
{ACAD_REACTORS
330
C
102
}
330
C
100
AcDbDictionary
281
     1
  3
Standard
350
87
  0
DICTIONARY
  5
99
102
{ACAD_REACTORS
330
C
102
}
330
C
100
AcDbDictionary
281
     1
  3
2dWireframe
350
9F
  3
3dWireframe
350
22946
  3
Basic
350
9E
  3
Brighten
350
A5
  3
ColorChange
350
A9
  3
Conceptual
350
A2
  3
Dim
350
A4
  3
EdgeColorOff
350
175
  3
Facepattern
350
A8
  3
Flat
350
9A
  3
FlatWithEdges
350
9B
  3
Gouraud
350
9C
  3
GouraudWithEdges
350
9D
  3
Hidden
350
A1
  3
JitterOff
350
173
  3
Linepattern
350
A7
  3
OverhangOff
350
174
  3
Realistic
350
A3
  3
Shaded
350
182
  3
Shaded with edges
350
181
  3
Shades of Gray
350
17E
  3
Sketchy
350
17F
  3
Thicken
350
A6
  3
Wireframe
350
A0
  3
X-Ray
350
180
  0
XRECORD
  5
6B28A
102
{ACAD_REACTORS
330
C
102
}
330
C
100
AcDbXrecord
280
     1
 90
        1
330
87
  0
DICTIONARY
  5
4A0D5
102
{ACAD_REACTORS
330
C
102
}
330
C
100
AcDbDictionary
281
     2
  3
#COMPAREDIFFTOTAL
350
4A0D6
  3
#REVCLOUDAPPROXARCLEN
350
4A0D7
  3
ANNOALLVISIBLE
350
4A0D8
  3
CANNOSCALE
350
4A0D9
  3
CMLEADERSTYLE
350
4A0DA
  3
CTABLESTYLE
350
4A0DB
  3
CVIEWDETAILSTYLE
350
4A0DC
  3
CVIEWSECTIONSTYLE
350
4A0DD
  3
DIMADEC
350
4A0DE
  3
DIMASSOC
350
4A0DF
  3
DWFFRAME
350
4A0E0
  3
HIDETEXT
350
4A0E1
  3
HPCOLOR
350
4A0E2
  3
HPLAYER
350
4A0E3
  3
HPTRANSPARENCY
350
4A0E4
  3
INDEXCTL
350
4A0E5
  3
LAYEREVAL
350
4A0E6
  3
LAYERNOTIFY
350
4A0E7
  3
LIGHTINGUNITS
350
4A0E8
  3
MLEADERSCALE
350
4A0E9
  3
MSLTSCALE
350
4A0EA
  3
MSOLESCALE
350
4A0EB
  3
PDFFRAME
350
4A0EC
  3
POINTCLOUDCLIPFRAME
350
4A0ED
  3
PROJECTNAME
350
4A0EE
  3
SOLIDHIST
350
4A0EF
  3
SORTENTS
350
4A0F0
  0
DICTIONARY
  5
22D1
102
{ACAD_REACTORS
330
C
102
}
330
C
100
AcDbDictionary
281
     1
  0
DICTIONARY
  5
18F
102
{ACAD_REACTORS
330
18E
102
}
330
18E
100
AcDbDictionary
281
     1
  0
SORTENTSTABLE
  5
28E
102
{ACAD_REACTORS
330
15D
102
}
330
15D
100
AcDbSortentsTable
330
1F
  0
ACDBDETAILVIEWSTYLE
  5
1AC
102
{ACAD_REACTORS
330
1AB
102
}
330
1AB
100
AcDbModelDocViewStyle
 70
     0
  3
Imperial24
290
     0
300
Imperial24
 90
        0
100
AcDbDetailViewStyle
 70
     0
 71
     0
 90
        3
 71
     1
340
11
 62
   256
 40
0.24
340
0
 62
   256
 40
0.24
300

 40
0.36
280
     3
 71
     2
340
16
 90
       25
 62
   256
 71
     3
340
11
 62
   256
 40
0.24
 90
        1
 40
0.75
 90
        1
300
%<\AcVar ViewType \f "%tc1">% %<\AcVar ViewDetailId>%\PSCALE %<\AcVar ViewScale \f "%sn">%
 71
     4
340
16
 90
       25
 62
   256
340
16
 90
       25
 62
   256
280
     0
  0
ACDBDETAILVIEWSTYLE
  5
224
102
{ACAD_REACTORS
330
1AB
102
}
330
1AB
100
AcDbModelDocViewStyle
 70
     0
  3
Metric50
290
     0
300
Metric50
 90
        0
100
AcDbDetailViewStyle
 70
     0
 71
     0
 90
        3
 71
     1
340
11
 62
   256
 40
5.0
340
0
 62
   256
 40
5.0
300

 40
0.0
280
     1
 71
     2
340
16
 90
       25
 62
   256
 71
     3
340
11
 62
   256
 40
5.0
 90
        0
 40
15.0
 90
        1
300
%<\AcVar ViewDetailId>% (%<\AcVar ViewScale \f "%sn">%)
 71
     4
340
16
 90
       25
 62
   256
340
16
 90
       25
 62
   256
280
     0
  0
LAYOUT
  5
59
102
{ACAD_REACTORS
330
1A
102
}
330
1A
100
AcDbPlotSettings
  1

  2
None
  4

  6

 40
0.0
 41
0.0
 42
0.0
 43
0.0
 44
0.0
 45
0.0
 46
0.0
 47
0.0
 48
0.0
 49
0.0
140
0.0
141
0.0
142
1.0
143
1.0
 70
   688
 72
     0
 73
     0
 74
     5
  7

 75
    16
147
1.0
 76
     0
 77
     2
 78
   300
148
0.0
149
0.0
100
AcDbLayout
  1
Layout1
 70
     1
 71
     1
 10
0.0
 20
0.0
 11
12.0
 21
9.0
 12
0.0
 22
0.0
 32
0.0
 14
0.0
 24
0.0
 34
0.0
 15
0.0
 25
0.0
 35
0.0
146
0.0
 13
0.0
 23
0.0
 33
0.0
 16
1.0
 26
0.0
 36
0.0
 17
0.0
 27
1.0
 37
0.0
 76
     0
330
58
  0
LAYOUT
  5
5E
102
{ACAD_REACTORS
330
1A
102
}
330
1A
100
AcDbPlotSettings
  1

  2
None
  4

  6

 40
0.0
 41
0.0
 42
0.0
 43
0.0
 44
0.0
 45
0.0
 46
0.0
 47
0.0
 48
0.0
 49
0.0
140
0.0
141
0.0
142
1.0
143
1.0
 70
   688
 72
     0
 73
     0
 74
     5
  7

 75
    16
147
1.0
 76
     0
 77
     2
 78
   300
148
0.0
149
0.0
100
AcDbLayout
  1
Layout2
 70
     1
 71
     2
 10
0.0
 20
0.0
 11
12.0
 21
9.0
 12
0.0
 22
0.0
 32
0.0
 14
0.0
 24
0.0
 34
0.0
 15
0.0
 25
0.0
 35
0.0
146
0.0
 13
0.0
 23
0.0
 33
0.0
 16
1.0
 26
0.0
 36
0.0
 17
0.0
 27
1.0
 37
0.0
 76
     0
330
5D
  0
LAYOUT
  5
22
102
{ACAD_XDICTIONARY
360
194
102
}
102
{ACAD_REACTORS
330
1A
102
}
330
1A
100
AcDbPlotSettings
  1

  2
none_device
  4
ANSI_A_(8.50_x_11.00_Inches)
  6

 40
6.349999904632568
 41
19.04999923706055
 42
6.350006103515625
 43
19.04998779296875
 44
215.8999938964844
 45
279.3999938964844
 46
0.0
 47
0.0
 48
0.0
 49
0.0
140
0.0
141
0.0
142
1.0
143
2.584895464708373
 70
 11952
 72
     0
 73
     1
 74
     0
  7

 75
     0
147
0.3868628397755418
 76
     0
 77
     2
 78
   300
148
0.0
149
0.0
100
AcDbLayout
  1
Model
 70
     1
 71
     0
 10
0.0
 20
0.0
 11
12.0
 21
9.0
 12
0.0
 22
0.0
 32
0.0
 14
0.0
 24
0.0
 34
0.0
 15
0.0
 25
0.0
 35
0.0
146
0.0
 13
0.0
 23
0.0
 33
0.0
 16
1.0
 26
0.0
 36
0.0
 17
0.0
 27
1.0
 37
0.0
 76
     0
330
1F
331
94
  0
MATERIAL
  5
97
102
{ACAD_XDICTIONARY
360
188
102
}
102
{ACAD_REACTORS
330
72
102
}
330
72
100
AcDbMaterial
  1
ByBlock
 94
       63
  0
MATERIAL
  5
96
102
{ACAD_XDICTIONARY
360
186
102
}
102
{ACAD_REACTORS
330
72
102
}
330
72
100
AcDbMaterial
  1
ByLayer
 94
       63
  0
MATERIAL
  5
98
102
{ACAD_XDICTIONARY
360
110
102
}
102
{ACAD_REACTORS
330
72
102
}
330
72
100
AcDbMaterial
  1
Global
 43
0.0208000000566244
 43
0.0
 43
0.0
 43
0.0
 43
0.0
 43
0.0208000000566244
 43
0.0
 43
0.0
 43
0.0
 43
0.0
 43
1.0
 43
0.0
 43
0.0
 43
0.0
 43
0.0
 43
1.0
 49
0.0208000000566244
 49
0.0
 49
0.0
 49
0.0
 49
0.0
 49
0.0208000000566244
 49
0.0
 49
0.0
 49
0.0
 49
0.0
 49
1.0
 49
0.0
 49
0.0
 49
0.0
 49
0.0
 49
1.0
142
0.0208000000566244
142
0.0
142
0.0
142
0.0
142
0.0
142
0.0208000000566244
142
0.0
142
0.0
142
0.0
142
0.0
142
1.0
142
0.0
142
0.0
142
0.0
142
0.0
142
1.0
144
0.0208000000566244
144
0.0
144
0.0
144
0.0
144
0.0
144
0.0208000000566244
144
0.0
144
0.0
144
0.0
144
0.0
144
1.0
144
0.0
144
0.0
144
0.0
144
0.0
144
1.0
 94
       63
1001
ACAD
1070
    -1
1070
     3
1070
     0
1000

1071
        0
1070
     0
  0
MLEADERSTYLE
  5
D8
102
{ACAD_REACTORS
330
D7
102
}
330
D7
100
AcDbMLeaderStyle
179
     2
170
     2
171
     1
172
     0
 90
        2
 40
0.0
 41
0.0
173
     1
 91
-1056964608
340
14
 92
       -2
290
     1
 42
0.09
291
     1
 43
0.36
  3
Standard
 44
0.18
300

342
11
174
     1
178
     1
175
     1
176
     0
 93
-1056964608
 45
0.18
292
     0
297
     0
 46
0.18
 94
-1056964608
 47
1.0
 49
1.0
140
1.0
293
     1
141
0.0
294
     1
177
     0
142
1.0
295
     0
296
     0
143
0.125
271
     0
272
     9
273
     9
298
     0
  0
MLINESTYLE
  5
18
102
{ACAD_REACTORS
330
17
102
}
330
17
100
AcDbMlineStyle
  2
STANDARD
 70
     0
  3

 62
   256
 51
90.0
 52
90.0
 71
     2
 49
0.5
 62
   256
  6
BYLAYER
 49
-0.5
 62
   256
  6
BYLAYER
  0
ACDBPLACEHOLDER
  5
F
102
{ACAD_REACTORS
330
E
102
}
330
E
  0
SCALE
  5
2283
102
{ACAD_REACTORS
330
B6
102
}
330
B6
100
AcDbScale
 70
     0
300
1:75
140
1.0
141
75.0
290
     0
  0
SCALE
  5
B7
102
{ACAD_REACTORS
330
B6
102
}
330
B6
100
AcDbScale
 70
     0
300
1:1
140
1.0
141
1.0
290
     1
  0
SCALE
  5
124
102
{ACAD_REACTORS
330
B6
102
}
330
B6
100
AcDbScale
 70
     0
300
1:2
140
1.0
141
2.0
290
     0
  0
SCALE
  5
125
102
{ACAD_REACTORS
330
B6
102
}
330
B6
100
AcDbScale
 70
     0
300
1:4
140
1.0
141
4.0
290
     0
  0
SCALE
  5
126
102
{ACAD_REACTORS
330
B6
102
}
330
B6
100
AcDbScale
 70
     0
300
1:5
140
1.0
141
5.0
290
     0
  0
SCALE
  5
127
102
{ACAD_REACTORS
330
B6
102
}
330
B6
100
AcDbScale
 70
     0
300
1:8
140
1.0
141
8.0
290
     0
  0
SCALE
  5
128
102
{ACAD_REACTORS
330
B6
102
}
330
B6
100
AcDbScale
 70
     0
300
1:10
140
1.0
141
10.0
290
     0
  0
SCALE
  5
129
102
{ACAD_REACTORS
330
B6
102
}
330
B6
100
AcDbScale
 70
     0
300
1:16
140
1.0
141
16.0
290
     0
  0
SCALE
  5
12A
102
{ACAD_REACTORS
330
B6
102
}
330
B6
100
AcDbScale
 70
     0
300
1:20
140
1.0
141
20.0
290
     0
  0
SCALE
  5
12B
102
{ACAD_REACTORS
330
B6
102
}
330
B6
100
AcDbScale
 70
     0
300
1:30
140
1.0
141
30.0
290
     0
  0
SCALE
  5
12C
102
{ACAD_REACTORS
330
B6
102
}
330
B6
100
AcDbScale
 70
     0
300
1:40
140
1.0
141
40.0
290
     0
  0
SCALE
  5
12D
102
{ACAD_REACTORS
330
B6
102
}
330
B6
100
AcDbScale
 70
     0
300
1:50
140
1.0
141
50.0
290
     0
  0
SCALE
  5
12E
102
{ACAD_REACTORS
330
B6
102
}
330
B6
100
AcDbScale
 70
     0
300
1:100
140
1.0
141
100.0
290
     0
  0
SCALE
  5
12F
102
{ACAD_REACTORS
330
B6
102
}
330
B6
100
AcDbScale
 70
     0
300
2:1
140
2.0
141
1.0
290
     0
  0
SCALE
  5
130
102
{ACAD_REACTORS
330
B6
102
}
330
B6
100
AcDbScale
 70
     0
300
4:1
140
4.0
141
1.0
290
     0
  0
SCALE
  5
131
102
{ACAD_REACTORS
330
B6
102
}
330
B6
100
AcDbScale
 70
     0
300
8:1
140
8.0
141
1.0
290
     0
  0
SCALE
  5
132
102
{ACAD_REACTORS
330
B6
102
}
330
B6
100
AcDbScale
 70
     0
300
10:1
140
10.0
141
1.0
290
     0
  0
SCALE
  5
133
102
{ACAD_REACTORS
330
B6
102
}
330
B6
100
AcDbScale
 70
     0
300
100:1
140
100.0
141
1.0
290
     0
  0
SCALE
  5
134
102
{ACAD_REACTORS
330
B6
102
}
330
B6
100
AcDbScale
 70
     0
300
1/128" = 1'-0"
140
0.0078125
141
12.0
290
     0
  0
SCALE
  5
135
102
{ACAD_REACTORS
330
B6
102
}
330
B6
100
AcDbScale
 70
     0
300
1/64" = 1'-0"
140
0.015625
141
12.0
290
     0
  0
SCALE
  5
136
102
{ACAD_REACTORS
330
B6
102
}
330
B6
100
AcDbScale
 70
     0
300
1/32" = 1'-0"
140
0.03125
141
12.0
290
     0
  0
SCALE
  5
137
102
{ACAD_REACTORS
330
B6
102
}
330
B6
100
AcDbScale
 70
     0
300
1/16" = 1'-0"
140
0.0625
141
12.0
290
     0
  0
SCALE
  5
138
102
{ACAD_REACTORS
330
B6
102
}
330
B6
100
AcDbScale
 70
     0
300
3/32" = 1'-0"
140
0.09375
141
12.0
290
     0
  0
SCALE
  5
139
102
{ACAD_REACTORS
330
B6
102
}
330
B6
100
AcDbScale
 70
     0
300
1/8" = 1'-0"
140
0.125
141
12.0
290
     0
  0
SCALE
  5
13A
102
{ACAD_REACTORS
330
B6
102
}
330
B6
100
AcDbScale
 70
     0
300
3/16" = 1'-0"
140
0.1875
141
12.0
290
     0
  0
SCALE
  5
13B
102
{ACAD_REACTORS
330
B6
102
}
330
B6
100
AcDbScale
 70
     0
300
1/4" = 1'-0"
140
0.25
141
12.0
290
     0
  0
SCALE
  5
13C
102
{ACAD_REACTORS
330
B6
102
}
330
B6
100
AcDbScale
 70
     0
300
3/8" = 1'-0"
140
0.375
141
12.0
290
     0
  0
SCALE
  5
13D
102
{ACAD_REACTORS
330
B6
102
}
330
B6
100
AcDbScale
 70
     0
300
1/2" = 1'-0"
140
0.5
141
12.0
290
     0
  0
SCALE
  5
13E
102
{ACAD_REACTORS
330
B6
102
}
330
B6
100
AcDbScale
 70
     0
300
3/4" = 1'-0"
140
0.75
141
12.0
290
     0
  0
SCALE
  5
13F
102
{ACAD_REACTORS
330
B6
102
}
330
B6
100
AcDbScale
 70
     0
300
1" = 1'-0"
140
1.0
141
12.0
290
     0
  0
SCALE
  5
140
102
{ACAD_REACTORS
330
B6
102
}
330
B6
100
AcDbScale
 70
     0
300
1-1/2" = 1'-0"
140
1.5
141
12.0
290
     0
  0
SCALE
  5
141
102
{ACAD_REACTORS
330
B6
102
}
330
B6
100
AcDbScale
 70
     0
300
3" = 1'-0"
140
3.0
141
12.0
290
     0
  0
SCALE
  5
142
102
{ACAD_REACTORS
330
B6
102
}
330
B6
100
AcDbScale
 70
     0
300
6" = 1'-0"
140
6.0
141
12.0
290
     0
  0
SCALE
  5
143
102
{ACAD_REACTORS
330
B6
102
}
330
B6
100
AcDbScale
 70
     0
300
1'-0" = 1'-0"
140
12.0
141
12.0
290
     0
  0
ACDBSECTIONVIEWSTYLE
  5
1AA
102
{ACAD_REACTORS
330
1A8
102
}
330
1A8
100
AcDbModelDocViewStyle
 70
     0
  3
Imperial24
290
     0
300
Imperial24
 90
        0
100
AcDbSectionViewStyle
 70
     0
 71
     0
 90
       78
 71
     1
340
11
 62
   256
 40
0.24
340
0
340
0
 62
   256
 40
0.24
300
I, O, Q, S, X, Z
 40
0.48
 90
        3
 40
0.18
 90
        1
 71
     2
340
16
 90
       25
 62
   256
340
16
 90
       50
 62
   256
 40
0.24
 40
0.0
 40
0.24
 71
     3
340
11
 62
   256
 40
0.24
 90
        1
 40
0.75
 90
        1
300
%<\AcVar ViewType \f "%tc1">% %<\AcVar ViewSectionStartId>%-%<\AcVar ViewSectionEndId>%\PSCALE %<\AcVar ViewScale \f "%sn">%
 71
     4
 62
   256
 62
   257
300
ANSI31
 40
1.0
 90
        0
290
     0
290
     0
 90
        6
 40
0.0
 40
1.570796326794896
 40
0.2617993877991494
 40
1.308996938995747
 40
-0.2617993877991494
 40
1.832595714594046
  0
ACDBSECTIONVIEWSTYLE
  5
223
102
{ACAD_REACTORS
330
1A8
102
}
330
1A8
100
AcDbModelDocViewStyle
 70
     0
  3
Metric50
290
     0
300
Metric50
 90
        0
100
AcDbSectionViewStyle
 70
     0
 71
     0
 90
      102
 71
     1
340
11
 62
   256
 40
5.0
340
0
340
0
 62
   256
 40
5.0
300
I, O, Q, S, X, Z
 40
10.0
 90
        0
 40
2.5
 90
        0
 71
     2
340
16
 90
       25
 62
   256
340
16
 90
       50
 62
   256
 40
5.0
 40
2.5
 40
5.0
 71
     3
340
11
 62
   256
 40
5.0
 90
        0
 40
15.0
 90
        1
300
%<\AcVar ViewSectionStartId>%-%<\AcVar ViewSectionEndId>% (%<\AcVar ViewScale \f "%sn">%)
 71
     4
 62
   256
 62
   257
300
ANSI31
 40
1.0
 90
        0
290
     0
290
     0
 90
        6
 40
0.0
 40
1.570796326794896
 40
0.2617993877991494
 40
1.308996938995747
 40
-0.2617993877991494
 40
1.832595714594046
  0
TABLESTYLE
  5
87
102
{ACAD_XDICTIONARY
360
104
102
}
102
{ACAD_REACTORS
330
86
102
}
330
86
100
AcDbTableStyle
280
     0
  3
Standard
 70
     0
 71
     0
 40
0.06
 41
0.06
280
     0
281
     0
  7
Standard
140
0.18
170
     2
 62
     0
 63
     7
283
     0
 90
      512
 91
        0
  1

274
    -2
284
     1
 64
     0
275
    -2
285
     1
 65
     0
276
    -2
286
     1
 66
     0
277
    -2
287
     1
 67
     0
278
    -2
288
     1
 68
     0
279
    -2
289
     1
 69
     0
  7
Standard
140
0.25
170
     5
 62
     0
 63
     7
283
     0
 90
      512
 91
        0
  1

274
    -2
284
     1
 64
     0
275
    -2
285
     1
 65
     0
276
    -2
286
     1
 66
     0
277
    -2
287
     1
 67
     0
278
    -2
288
     1
 68
     0
279
    -2
289
     1
 69
     0
  7
Standard
140
0.18
170
     5
 62
     0
 63
     7
283
     0
 90
      512
 91
        0
  1

274
    -2
284
     1
 64
     0
275
    -2
285
     1
 65
     0
276
    -2
286
     1
 66
     0
277
    -2
287
     1
 67
     0
278
    -2
288
     1
 68
     0
279
    -2
289
     1
 69
     0
  0
VISUALSTYLE
  5
9F
102
{ACAD_REACTORS
330
99
102
}
330
99
100
AcDbVisualStyle
  2
2dWireframe
 70
     4
177
     3
291
     0
 70
    58
 90
        0
176
     1
 90
        2
176
     1
 90
        1
176
     1
 90
        0
176
     1
 40
0.6
176
     1
 40
30.0
176
     1
 62
     7
420
 16777215
176
     1
 90
        1
176
     1
 90
        4
176
     1
 62
     7
176
     1
 62
   257
176
     1
 90
        1
176
     1
 90
        1
176
     1
 40
1.0
176
     1
 90
        0
176
     1
 62
   257
176
     1
 40
1.0
176
     1
 90
        1
176
     1
 90
        6
176
     1
 90
        2
176
     1
 62
     7
176
     1
 90
        5
176
     1
 90
        0
176
     1
 90
        0
176
     1
290
     0
176
     1
 90
        1
176
     1
 40
0.0
176
     1
 90
        0
176
     1
290
     1
176
     1
290
     1
176
     1
290
     0
176
     1
290
     0
176
     1
290
     0
176
     1
290
     0
176
     1
290
     0
176
     1
290
     0
176
     1
290
     0
176
     1
 90
       50
176
     1
 40
0.0
176
     1
 40
1.0
176
     1
 90
        0
176
     1
 62
    18
420
        0
176
     1
 90
       50
176
     1
 90
        3
176
     1
 62
     5
420
      255
176
     1
290
     0
176
     1
 90
       50
176
     1
 90
       50
176
     1
 90
       50
176
     1
290
     0
176
     1
 90
       50
176
     1
 62
   256
176
     0
 40
1.0
176
     0
 90
        2
176
     1
  1
strokes_ogs.tif
176
     1
290
     0
176
     1
 40
1.0
176
     1
 40
1.0
176
     1
  0
VISUALSTYLE
  5
22946
102
{ACAD_REACTORS
330
99
102
}
330
99
100
AcDbVisualStyle
  2
3dWireframe
 70
     5
177
     3
291
     0
 70
    58
 90
        0
176
     1
 90
        2
176
     1
 90
        0
176
     1
 90
        0
176
     1
 40
0.6
176
     1
 40
30.0
176
     1
 62
     7
176
     1
 90
        1
176
     1
 90
        4
176
     1
 62
     7
176
     1
 62
   257
176
     1
 90
        1
176
     1
 90
        1
176
     1
 40
1.0
176
     1
 90
        0
176
     1
 62
   257
176
     1
 40
1.0
176
     1
 90
        1
176
     1
 90
        6
176
     1
 90
        2
176
     1
 62
     7
176
     1
 90
        5
176
     1
 90
        0
176
     1
 90
        0
176
     1
290
     0
176
     1
 90
        1
176
     1
 40
0.0
176
     1
 90
        0
176
     1
290
     0
176
     1
290
     1
176
     1
290
     1
176
     1
290
     0
176
     1
290
     0
176
     1
290
     0
176
     1
290
     0
176
     1
290
     0
176
     1
290
     0
176
     1
 90
       50
176
     1
 40
0.0
176
     1
 40
1.0
176
     1
 90
        0
176
     1
 62
    18
420
        0
176
     1
 90
       50
176
     1
 90
        3
176
     1
 62
     5
420
      255
176
     1
290
     0
176
     1
 90
       50
176
     1
 90
       50
176
     1
 90
       50
176
     1
290
     0
176
     1
 90
       50
176
     1
 62
   256
176
     0
 40
1.0
176
     0
 90
        2
176
     1
  1
strokes_ogs.tif
176
     1
290
     0
176
     1
 40
1.0
176
     1
 40
1.0
176
     1
  0
VISUALSTYLE
  5
9E
102
{ACAD_REACTORS
330
99
102
}
330
99
100
AcDbVisualStyle
  2
Basic
 70
     7
177
     3
291
     1
 70
    58
 90
        1
176
     1
 90
        0
176
     1
 90
        1
176
     1
 90
        0
176
     1
 40
0.6
176
     1
 40
30.0
176
     1
 62
     7
420
 16777215
176
     1
 90
        0
176
     1
 90
        4
176
     1
 62
     7
176
     1
 62
   257
176
     1
 90
        1
176
     1
 90
        1
176
     1
 40
1.0
176
     1
 90
        8
176
     1
 62
     7
176
     1
 40
1.0
176
     1
 90
        1
176
     1
 90
        6
176
     1
 90
        2
176
     1
 62
     7
176
     1
 90
        5
176
     1
 90
        0
176
     1
 90
        0
176
     1
290
     0
176
     1
 90
        1
176
     1
 40
0.0
176
     1
 90
        0
176
     1
290
     0
176
     1
290
     1
176
     1
290
     1
176
     1
290
     0
176
     1
290
     0
176
     1
290
     0
176
     1
290
     0
176
     1
290
     0
176
     1
290
     0
176
     1
 90
       50
176
     1
 40
0.0
176
     1
 40
1.0
176
     1
 90
        0
176
     1
 62
    18
420
        0
176
     1
 90
       50
176
     1
 90
        3
176
     1
 62
     5
420
      255
176
     1
290
     0
176
     1
 90
       50
176
     1
 90
       50
176
     1
 90
       50
176
     1
290
     0
176
     1
 90
       50
176
     1
 62
   256
176
     0
 40
1.0
176
     0
 90
        2
176
     1
  1
strokes_ogs.tif
176
     1
290
     0
176
     1
 40
1.0
176
     1
 40
1.0
176
     1
  0
VISUALSTYLE
  5
A5
102
{ACAD_REACTORS
330
99
102
}
330
99
100
AcDbVisualStyle
  2
Brighten
 70
    12
177
     3
291
     1
 70
    58
 90
        2
176
     1
 90
        2
176
     1
 90
        1
176
     1
 90
        0
176
     1
 40
0.6
176
     1
 40
30.0
176
     1
 62
     7
420
 16777215
176
     1
 90
        1
176
     1
 90
        4
176
     1
 62
     7
176
     1
 62
   257
176
     1
 90
        1
176
     1
 90
        1
176
     1
 40
1.0
176
     1
 90
        8
176
     1
 62
     7
176
     1
 40
1.0
176
     1
 90
        1
176
     1
 90
        6
176
     1
 90
        2
176
     1
 62
     7
176
     1
 90
        5
176
     1
 90
        0
176
     1
 90
        0
176
     1
290
     0
176
     1
 90
        1
176
     1
 40
50.0
176
     1
 90
        0
176
     1
290
     0
176
     1
290
     1
176
     1
290
     1
176
     1
290
     0
176
     1
290
     0
176
     1
290
     0
176
     1
290
     0
176
     1
290
     0
176
     1
290
     0
176
     1
 90
       50
176
     1
 40
0.0
176
     1
 40
1.0
176
     1
 90
        0
176
     1
 62
    18
420
        0
176
     1
 90
       50
176
     1
 90
        3
176
     1
 62
     5
420
      255
176
     1
290
     0
176
     1
 90
       50
176
     1
 90
       50
176
     1
 90
       50
176
     1
290
     0
176
     1
 90
       50
176
     1
 62
   256
176
     0
 40
1.0
176
     0
 90
        2
176
     1
  1
strokes_ogs.tif
176
     1
290
     0
176
     1
 40
1.0
176
     1
 40
1.0
176
     1
  0
VISUALSTYLE
  5
A9
102
{ACAD_REACTORS
330
99
102
}
330
99
100
AcDbVisualStyle
  2
ColorChange
 70
    16
177
     3
291
     1
 70
    58
 90
        2
176
     1
 90
        2
176
     1
 90
        3
176
     1
 90
        0
176
     1
 40
0.6
176
     1
 40
30.0
176
     1
 62
     8
420
  8421504
176
     1
 90
        1
176
     1
 90
        4
176
     1
 62
     7
176
     1
 62
   257
176
     1
 90
        1
176
     1
 90
        1
176
     1
 40
1.0
176
     1
 90
        8
176
     1
 62
     8
420
  8421504
176
     1
 40
1.0
176
     1
 90
        1
176
     1
 90
        6
176
     1
 90
        2
176
     1
 62
     7
176
     1
 90
        5
176
     1
 90
        0
176
     1
 90
        0
176
     1
290
     0
176
     1
 90
        1
176
     1
 40
0.0
176
     1
 90
        0
176
     1
290
     0
176
     1
290
     1
176
     1
290
     1
176
     1
290
     0
176
     1
290
     0
176
     1
290
     0
176
     1
290
     0
176
     1
290
     0
176
     1
290
     0
176
     1
 90
       50
176
     1
 40
0.0
176
     1
 40
1.0
176
     1
 90
        0
176
     1
 62
    18
420
        0
176
     1
 90
       50
176
     1
 90
        3
176
     1
 62
     5
420
      255
176
     1
290
     0
176
     1
 90
       50
176
     1
 90
       50
176
     1
 90
       50
176
     1
290
     0
176
     1
 90
       50
176
     1
 62
   256
176
     0
 40
1.0
176
     0
 90
        2
176
     1
  1
strokes_ogs.tif
176
     1
290
     0
176
     1
 40
1.0
176
     1
 40
1.0
176
     1
  0
VISUALSTYLE
  5
A2
102
{ACAD_REACTORS
330
99
102
}
330
99
100
AcDbVisualStyle
  2
Conceptual
 70
     9
177
     3
291
     0
 70
    58
 90
        3
176
     1
 90
        2
176
     1
 90
        1
176
     1
 90
        0
176
     1
 40
0.6
176
     1
 40
30.0
176
     1
 62
     7
420
 16777215
176
     1
 90
        2
176
     1
 90
        2
176
     1
 62
     7
176
     1
 62
   257
176
     1
 90
        1
176
     1
 90
        1
176
     1
 40
40.0
176
     1
 90
        8
176
     1
 62
     7
176
     1
 40
1.0
176
     1
 90
        1
176
     1
 90
        6
176
     1
 90
        2
176
     1
 62
     7
176
     1
 90
        3
176
     1
 90
        0
176
     1
 90
        0
176
     1
290
     0
176
     1
 90
        1
176
     1
 40
0.0
176
     1
 90
        0
176
     1
290
     0
176
     1
290
     1
176
     1
290
     1
176
     1
290
     0
176
     1
290
     0
176
     1
290
     0
176
     1
290
     0
176
     1
290
     0
176
     1
290
     0
176
     1
 90
       50
176
     1
 40
0.0
176
     1
 40
1.0
176
     1
 90
        0
176
     1
 62
    18
420
        0
176
     1
 90
       50
176
     1
 90
        3
176
     1
 62
     5
420
      255
176
     1
290
     0
176
     1
 90
       50
176
     1
 90
       50
176
     1
 90
       50
176
     1
290
     0
176
     1
 90
       50
176
     1
 62
   256
176
     0
 40
1.0
176
     0
 90
        2
176
     1
  1
strokes_ogs.tif
176
     1
290
     0
176
     1
 40
1.0
176
     1
 40
1.0
176
     1
  0
VISUALSTYLE
  5
A4
102
{ACAD_REACTORS
330
99
102
}
330
99
100
AcDbVisualStyle
  2
Dim
 70
    11
177
     3
291
     1
 70
    58
 90
        2
176
     1
 90
        2
176
     1
 90
        1
176
     1
 90
        0
176
     1
 40
0.6
176
     1
 40
30.0
176
     1
 62
     7
420
 16777215
176
     1
 90
        1
176
     1
 90
        4
176
     1
 62
     7
176
     1
 62
   257
176
     1
 90
        1
176
     1
 90
        1
176
     1
 40
1.0
176
     1
 90
        8
176
     1
 62
     7
176
     1
 40
1.0
176
     1
 90
        1
176
     1
 90
        6
176
     1
 90
        2
176
     1
 62
     7
176
     1
 90
        5
176
     1
 90
        0
176
     1
 90
        0
176
     1
290
     0
176
     1
 90
        1
176
     1
 40
-50.0
176
     1
 90
        0
176
     1
290
     0
176
     1
290
     1
176
     1
290
     1
176
     1
290
     0
176
     1
290
     0
176
     1
290
     0
176
     1
290
     0
176
     1
290
     0
176
     1
290
     0
176
     1
 90
       50
176
     1
 40
0.0
176
     1
 40
1.0
176
     1
 90
        0
176
     1
 62
    18
420
        0
176
     1
 90
       50
176
     1
 90
        3
176
     1
 62
     5
420
      255
176
     1
290
     0
176
     1
 90
       50
176
     1
 90
       50
176
     1
 90
       50
176
     1
290
     0
176
     1
 90
       50
176
     1
 62
   256
176
     0
 40
1.0
176
     0
 90
        2
176
     1
  1
strokes_ogs.tif
176
     1
290
     0
176
     1
 40
1.0
176
     1
 40
1.0
176
     1
  0
VISUALSTYLE
  5
175
102
{ACAD_REACTORS
330
99
102
}
330
99
100
AcDbVisualStyle
  2
EdgeColorOff
 70
    22
177
     3
291
     1
 70
    58
 90
        2
176
     0
 90
        2
176
     0
 90
        0
176
     0
 90
        0
176
     0
 40
0.6
176
     0
 40
30.0
176
     0
 62
     7
420
 16777215
176
     0
 90
        1
176
     0
 90
        4
176
     0
 62
     7
176
     0
 62
   257
176
     0
 90
        1
176
     0
 90
        1
176
     0
 40
1.0
176
     0
 90
        8
176
     2
 62
     7
176
     0
 40
1.0
176
     0
 90
        1
176
     0
 90
        6
176
     0
 90
        2
176
     0
 62
     7
176
     0
 90
        5
176
     0
 90
        0
176
     0
 90
        0
176
     0
290
     0
176
     0
 90
        1
176
     0
 40
0.0
176
     0
 90
        0
176
     0
290
     0
176
     1
290
     1
176
     1
290
     1
176
     1
290
     0
176
     1
290
     0
176
     1
290
     0
176
     1
290
     0
176
     1
290
     0
176
     1
290
     0
176
     1
 90
       50
176
     1
 40
0.0
176
     1
 40
1.0
176
     1
 90
        0
176
     1
 62
    18
420
        0
176
     1
 90
       50
176
     1
 90
        3
176
     1
 62
     5
420
      255
176
     1
290
     0
176
     1
 90
       50
176
     1
 90
       50
176
     1
 90
       50
176
     1
290
     0
176
     1
 90
       50
176
     1
 62
   256
176
     0
 40
1.0
176
     0
 90
        2
176
     1
  1
strokes_ogs.tif
176
     1
290
     0
176
     1
 40
1.0
176
     1
 40
1.0
176
     1
  0
VISUALSTYLE
  5
A8
102
{ACAD_REACTORS
330
99
102
}
330
99
100
AcDbVisualStyle
  2
Facepattern
 70
    15
177
     3
291
     1
 70
    58
 90
        2
176
     1
 90
        2
176
     1
 90
        1
176
     1
 90
        0
176
     1
 40
0.6
176
     1
 40
30.0
176
     1
 62
     7
420
 16777215
176
     1
 90
        1
176
     1
 90
        4
176
     1
 62
     7
176
     1
 62
   257
176
     1
 90
        1
176
     1
 90
        1
176
     1
 40
1.0
176
     1
 90
        8
176
     1
 62
     7
176
     1
 40
1.0
176
     1
 90
        1
176
     1
 90
        6
176
     1
 90
        2
176
     1
 62
     7
176
     1
 90
        5
176
     1
 90
        0
176
     1
 90
        0
176
     1
290
     0
176
     1
 90
        1
176
     1
 40
0.0
176
     1
 90
        0
176
     1
290
     0
176
     1
290
     1
176
     1
290
     1
176
     1
290
     0
176
     1
290
     0
176
     1
290
     0
176
     1
290
     0
176
     1
290
     0
176
     1
290
     0
176
     1
 90
       50
176
     1
 40
0.0
176
     1
 40
1.0
176
     1
 90
        0
176
     1
 62
    18
420
        0
176
     1
 90
       50
176
     1
 90
        3
176
     1
 62
     5
420
      255
176
     1
290
     0
176
     1
 90
       50
176
     1
 90
       50
176
     1
 90
       50
176
     1
290
     0
176
     1
 90
       50
176
     1
 62
   256
176
     0
 40
1.0
176
     0
 90
        2
176
     1
  1
strokes_ogs.tif
176
     1
290
     0
176
     1
 40
1.0
176
     1
 40
1.0
176
     1
  0
VISUALSTYLE
  5
9A
102
{ACAD_REACTORS
330
99
102
}
330
99
100
AcDbVisualStyle
  2
Flat
 70
     0
177
     3
291
     1
 70
    58
 90
        2
176
     1
 90
        1
176
     1
 90
        1
176
     1
 90
        2
176
     1
 40
0.6
176
     1
 40
30.0
176
     1
 62
     7
420
 16777215
176
     1
 90
        0
176
     1
 90
        0
176
     1
 62
     7
176
     1
 62
   257
176
     1
 90
        1
176
     1
 90
        1
176
     1
 40
1.0
176
     1
 90
        8
176
     1
 62
     7
176
     1
 40
1.0
176
     1
 90
        1
176
     1
 90
        6
176
     1
 90
        2
176
     1
 62
     7
176
     1
 90
        5
176
     1
 90
        0
176
     1
 90
        0
176
     1
290
     0
176
     1
 90
       13
176
     1
 40
0.0
176
     1
 90
        0
176
     1
290
     0
176
     1
290
     1
176
     1
290
     1
176
     1
290
     0
176
     1
290
     0
176
     1
290
     0
176
     1
290
     0
176
     1
290
     0
176
     1
290
     0
176
     1
 90
       50
176
     1
 40
0.0
176
     1
 40
1.0
176
     1
 90
        0
176
     1
 62
    18
420
        0
176
     1
 90
       50
176
     1
 90
        3
176
     1
 62
     5
420
      255
176
     1
290
     0
176
     1
 90
       50
176
     1
 90
       50
176
     1
 90
       50
176
     1
290
     0
176
     1
 90
       50
176
     1
 62
   256
176
     0
 40
1.0
176
     0
 90
        2
176
     1
  1
strokes_ogs.tif
176
     1
290
     0
176
     1
 40
1.0
176
     1
 40
1.0
176
     1
  0
VISUALSTYLE
  5
9B
102
{ACAD_REACTORS
330
99
102
}
330
99
100
AcDbVisualStyle
  2
FlatWithEdges
 70
     1
177
     3
291
     1
 70
    58
 90
        2
176
     1
 90
        1
176
     1
 90
        1
176
     1
 90
        2
176
     1
 40
0.6
176
     1
 40
30.0
176
     1
 62
     7
420
 16777215
176
     1
 90
        1
176
     1
 90
        0
176
     1
 62
     7
176
     1
 62
   257
176
     1
 90
        1
176
     1
 90
        1
176
     1
 40
1.0
176
     1
 90
        0
176
     1
 62
   257
176
     1
 40
1.0
176
     1
 90
        1
176
     1
 90
        6
176
     1
 90
        2
176
     1
 62
     7
176
     1
 90
        5
176
     1
 90
        0
176
     1
 90
        0
176
     1
290
     0
176
     1
 90
       13
176
     1
 40
0.0
176
     1
 90
        0
176
     1
290
     0
176
     1
290
     1
176
     1
290
     1
176
     1
290
     0
176
     1
290
     0
176
     1
290
     0
176
     1
290
     0
176
     1
290
     0
176
     1
290
     0
176
     1
 90
       50
176
     1
 40
0.0
176
     1
 40
1.0
176
     1
 90
        0
176
     1
 62
    18
420
        0
176
     1
 90
       50
176
     1
 90
        3
176
     1
 62
     5
420
      255
176
     1
290
     0
176
     1
 90
       50
176
     1
 90
       50
176
     1
 90
       50
176
     1
290
     0
176
     1
 90
       50
176
     1
 62
   256
176
     0
 40
1.0
176
     0
 90
        2
176
     1
  1
strokes_ogs.tif
176
     1
290
     0
176
     1
 40
1.0
176
     1
 40
1.0
176
     1
  0
VISUALSTYLE
  5
9C
102
{ACAD_REACTORS
330
99
102
}
330
99
100
AcDbVisualStyle
  2
Gouraud
 70
     2
177
     3
291
     1
 70
    58
 90
        2
176
     1
 90
        2
176
     1
 90
        1
176
     1
 90
        2
176
     1
 40
0.6
176
     1
 40
30.0
176
     1
 62
     7
420
 16777215
176
     1
 90
        0
176
     1
 90
        0
176
     1
 62
     7
176
     1
 62
   257
176
     1
 90
        1
176
     1
 90
        1
176
     1
 40
1.0
176
     1
 90
        0
176
     1
 62
     7
176
     1
 40
1.0
176
     1
 90
        1
176
     1
 90
        6
176
     1
 90
        2
176
     1
 62
     7
176
     1
 90
        5
176
     1
 90
        0
176
     1
 90
        0
176
     1
290
     0
176
     1
 90
       13
176
     1
 40
0.0
176
     1
 90
        0
176
     1
290
     0
176
     1
290
     1
176
     1
290
     1
176
     1
290
     0
176
     1
290
     0
176
     1
290
     0
176
     1
290
     0
176
     1
290
     0
176
     1
290
     0
176
     1
 90
       50
176
     1
 40
0.0
176
     1
 40
1.0
176
     1
 90
        0
176
     1
 62
    18
420
        0
176
     1
 90
       50
176
     1
 90
        3
176
     1
 62
     5
420
      255
176
     1
290
     0
176
     1
 90
       50
176
     1
 90
       50
176
     1
 90
       50
176
     1
290
     0
176
     1
 90
       50
176
     1
 62
   256
176
     0
 40
1.0
176
     0
 90
        2
176
     1
  1
strokes_ogs.tif
176
     1
290
     0
176
     1
 40
1.0
176
     1
 40
1.0
176
     1
  0
VISUALSTYLE
  5
9D
102
{ACAD_REACTORS
330
99
102
}
330
99
100
AcDbVisualStyle
  2
GouraudWithEdges
 70
     3
177
     3
291
     1
 70
    58
 90
        2
176
     1
 90
        2
176
     1
 90
        1
176
     1
 90
        2
176
     1
 40
0.6
176
     1
 40
30.0
176
     1
 62
     7
420
 16777215
176
     1
 90
        1
176
     1
 90
        0
176
     1
 62
     7
176
     1
 62
   257
176
     1
 90
        1
176
     1
 90
        1
176
     1
 40
1.0
176
     1
 90
        0
176
     1
 62
   257
176
     1
 40
1.0
176
     1
 90
        1
176
     1
 90
        6
176
     1
 90
        2
176
     1
 62
     7
176
     1
 90
        5
176
     1
 90
        0
176
     1
 90
        0
176
     1
290
     0
176
     1
 90
       13
176
     1
 40
0.0
176
     1
 90
        0
176
     1
290
     0
176
     1
290
     1
176
     1
290
     1
176
     1
290
     0
176
     1
290
     0
176
     1
290
     0
176
     1
290
     0
176
     1
290
     0
176
     1
290
     0
176
     1
 90
       50
176
     1
 40
0.0
176
     1
 40
1.0
176
     1
 90
        0
176
     1
 62
    18
420
        0
176
     1
 90
       50
176
     1
 90
        3
176
     1
 62
     5
420
      255
176
     1
290
     0
176
     1
 90
       50
176
     1
 90
       50
176
     1
 90
       50
176
     1
290
     0
176
     1
 90
       50
176
     1
 62
   256
176
     0
 40
1.0
176
     0
 90
        2
176
     1
  1
strokes_ogs.tif
176
     1
290
     0
176
     1
 40
1.0
176
     1
 40
1.0
176
     1
  0
VISUALSTYLE
  5
A1
102
{ACAD_REACTORS
330
99
102
}
330
99
100
AcDbVisualStyle
  2
Hidden
 70
     6
177
     3
291
     0
 70
    58
 90
        1
176
     1
 90
        2
176
     1
 90
        2
176
     1
 90
        0
176
     1
 40
0.6
176
     1
 40
30.0
176
     1
 62
     7
420
 16777215
176
     1
 90
        2
176
     1
 90
        2
176
     1
 62
     7
176
     1
 62
   257
176
     1
 90
        2
176
     1
 90
        1
176
     1
 40
40.0
176
     1
 90
        0
176
     1
 62
   257
176
     1
 40
1.0
176
     1
 90
        1
176
     1
 90
        6
176
     1
 90
        2
176
     1
 62
     7
176
     1
 90
        3
176
     1
 90
        0
176
     1
 90
        0
176
     1
290
     0
176
     1
 90
        1
176
     1
 40
0.0
176
     1
 90
        0
176
     1
290
     0
176
     1
290
     1
176
     1
290
     1
176
     1
290
     0
176
     1
290
     0
176
     1
290
     0
176
     1
290
     0
176
     1
290
     0
176
     1
290
     0
176
     1
 90
       50
176
     1
 40
0.0
176
     1
 40
1.0
176
     1
 90
        0
176
     1
 62
    18
420
        0
176
     1
 90
       50
176
     1
 90
        3
176
     1
 62
     5
420
      255
176
     1
290
     0
176
     1
 90
       50
176
     1
 90
       50
176
     1
 90
       50
176
     1
290
     0
176
     1
 90
       50
176
     1
 62
   256
176
     0
 40
1.0
176
     0
 90
        2
176
     1
  1
strokes_ogs.tif
176
     1
290
     0
176
     1
 40
1.0
176
     1
 40
1.0
176
     1
  0
VISUALSTYLE
  5
173
102
{ACAD_REACTORS
330
99
102
}
330
99
100
AcDbVisualStyle
  2
JitterOff
 70
    20
177
     3
291
     1
 70
    58
 90
        2
176
     0
 90
        2
176
     0
 90
        0
176
     0
 90
        0
176
     0
 40
0.6
176
     0
 40
30.0
176
     0
 62
     7
420
 16777215
176
     0
 90
        1
176
     0
 90
        4
176
     0
 62
     7
176
     0
 62
   257
176
     0
 90
        1
176
     0
 90
        1
176
     0
 40
1.0
176
     0
 90
       10
176
     2
 62
     7
176
     0
 40
1.0
176
     0
 90
        1
176
     0
 90
        6
176
     0
 90
        2
176
     0
 62
     7
176
     0
 90
        5
176
     0
 90
        0
176
     0
 90
        0
176
     0
290
     0
176
     0
 90
        1
176
     0
 40
0.0
176
     0
 90
        0
176
     0
290
     0
176
     1
290
     1
176
     1
290
     1
176
     1
290
     0
176
     1
290
     0
176
     1
290
     0
176
     1
290
     0
176
     1
290
     0
176
     1
290
     0
176
     1
 90
       50
176
     1
 40
0.0
176
     1
 40
1.0
176
     1
 90
        0
176
     1
 62
    18
420
        0
176
     1
 90
       50
176
     1
 90
        3
176
     1
 62
     5
420
      255
176
     1
290
     0
176
     1
 90
       50
176
     1
 90
       50
176
     1
 90
       50
176
     1
290
     0
176
     1
 90
       50
176
     1
 62
   256
176
     0
 40
1.0
176
     0
 90
        2
176
     1
  1
strokes_ogs.tif
176
     1
290
     0
176
     1
 40
1.0
176
     1
 40
1.0
176
     1
  0
VISUALSTYLE
  5
A7
102
{ACAD_REACTORS
330
99
102
}
330
99
100
AcDbVisualStyle
  2
Linepattern
 70
    14
177
     3
291
     1
 70
    58
 90
        2
176
     1
 90
        2
176
     1
 90
        1
176
     1
 90
        0
176
     1
 40
0.6
176
     1
 40
30.0
176
     1
 62
     7
420
 16777215
176
     1
 90
        1
176
     1
 90
        4
176
     1
 62
     7
176
     1
 62
   257
176
     1
 90
        7
176
     1
 90
        7
176
     1
 40
1.0
176
     1
 90
        8
176
     1
 62
     7
176
     1
 40
1.0
176
     1
 90
        1
176
     1
 90
        6
176
     1
 90
        2
176
     1
 62
     7
176
     1
 90
        5
176
     1
 90
        0
176
     1
 90
        0
176
     1
290
     0
176
     1
 90
        1
176
     1
 40
0.0
176
     1
 90
        0
176
     1
290
     0
176
     1
290
     1
176
     1
290
     1
176
     1
290
     0
176
     1
290
     0
176
     1
290
     0
176
     1
290
     0
176
     1
290
     0
176
     1
290
     0
176
     1
 90
       50
176
     1
 40
0.0
176
     1
 40
1.0
176
     1
 90
        0
176
     1
 62
    18
420
        0
176
     1
 90
       50
176
     1
 90
        3
176
     1
 62
     5
420
      255
176
     1
290
     0
176
     1
 90
       50
176
     1
 90
       50
176
     1
 90
       50
176
     1
290
     0
176
     1
 90
       50
176
     1
 62
   256
176
     0
 40
1.0
176
     0
 90
        2
176
     1
  1
strokes_ogs.tif
176
     1
290
     0
176
     1
 40
1.0
176
     1
 40
1.0
176
     1
  0
VISUALSTYLE
  5
174
102
{ACAD_REACTORS
330
99
102
}
330
99
100
AcDbVisualStyle
  2
OverhangOff
 70
    21
177
     3
291
     1
 70
    58
 90
        2
176
     0
 90
        2
176
     0
 90
        0
176
     0
 90
        0
176
     0
 40
0.6
176
     0
 40
30.0
176
     0
 62
     7
420
 16777215
176
     0
 90
        1
176
     0
 90
        4
176
     0
 62
     7
176
     0
 62
   257
176
     0
 90
        1
176
     0
 90
        1
176
     0
 40
1.0
176
     0
 90
        9
176
     2
 62
     7
176
     0
 40
1.0
176
     0
 90
        1
176
     0
 90
        6
176
     0
 90
        2
176
     0
 62
     7
176
     0
 90
        5
176
     0
 90
        0
176
     0
 90
        0
176
     0
290
     0
176
     0
 90
        1
176
     0
 40
0.0
176
     0
 90
        0
176
     0
290
     0
176
     1
290
     1
176
     1
290
     1
176
     1
290
     0
176
     1
290
     0
176
     1
290
     0
176
     1
290
     0
176
     1
290
     0
176
     1
290
     0
176
     1
 90
       50
176
     1
 40
0.0
176
     1
 40
1.0
176
     1
 90
        0
176
     1
 62
    18
420
        0
176
     1
 90
       50
176
     1
 90
        3
176
     1
 62
     5
420
      255
176
     1
290
     0
176
     1
 90
       50
176
     1
 90
       50
176
     1
 90
       50
176
     1
290
     0
176
     1
 90
       50
176
     1
 62
   256
176
     0
 40
1.0
176
     0
 90
        2
176
     1
  1
strokes_ogs.tif
176
     1
290
     0
176
     1
 40
1.0
176
     1
 40
1.0
176
     1
  0
VISUALSTYLE
  5
A3
102
{ACAD_REACTORS
330
99
102
}
330
99
100
AcDbVisualStyle
  2
Realistic
 70
     8
177
     3
291
     0
 70
    58
 90
        2
176
     1
 90
        2
176
     1
 90
        0
176
     1
 90
        2
176
     1
 40
0.6
176
     1
 40
30.0
176
     1
 62
     7
420
 16777215
176
     1
 90
        0
176
     1
 90
        0
176
     1
 62
     7
176
     1
 62
   257
176
     1
 90
        1
176
     1
 90
        1
176
     1
 40
1.0
176
     1
 90
        8
176
     1
 62
   257
176
     1
 40
1.0
176
     1
 90
        1
176
     1
 90
        6
176
     1
 90
        2
176
     1
 62
     7
176
     1
 90
        3
176
     1
 90
        0
176
     1
 90
        0
176
     1
290
     0
176
     1
 90
       13
176
     1
 40
0.0
176
     1
 90
        0
176
     1
290
     0
176
     1
290
     1
176
     1
290
     1
176
     1
290
     0
176
     1
290
     0
176
     1
290
     0
176
     1
290
     0
176
     1
290
     0
176
     1
290
     0
176
     1
 90
       50
176
     1
 40
0.0
176
     1
 40
1.0
176
     1
 90
        0
176
     1
 62
    18
420
        0
176
     1
 90
       50
176
     1
 90
        3
176
     1
 62
     5
420
      255
176
     1
290
     0
176
     1
 90
       50
176
     1
 90
       50
176
     1
 90
       50
176
     1
290
     0
176
     1
 90
       50
176
     1
 62
   256
176
     0
 40
1.0
176
     0
 90
        2
176
     1
  1
strokes_ogs.tif
176
     1
290
     0
176
     1
 40
1.0
176
     1
 40
1.0
176
     1
  0
VISUALSTYLE
  5
182
102
{ACAD_REACTORS
330
99
102
}
330
99
100
AcDbVisualStyle
  2
Shaded
 70
    27
177
     3
291
     0
 70
    58
 90
        2
176
     1
 90
        2
176
     1
 90
        1
176
     1
 90
        2
176
     1
 40
0.6
176
     1
 40
30.0
176
     1
 62
     7
420
 16777215
176
     1
 90
        0
176
     1
 90
        4
176
     1
 62
     7
176
     1
 62
   257
176
     1
 90
        1
176
     1
 90
        1
176
     1
 40
1.0
176
     1
 90
        8
176
     1
 62
   257
176
     1
 40
1.0
176
     1
 90
        1
176
     1
 90
        6
176
     1
 90
        2
176
     1
 62
     8
420
  7895160
176
     1
 90
        3
176
     1
 90
        0
176
     1
 90
        0
176
     1
290
     0
176
     1
 90
        5
176
     1
 40
0.0
176
     1
 90
        0
176
     1
290
     0
176
     1
290
     1
176
     1
290
     1
176
     1
290
     0
176
     1
290
     0
176
     1
290
     0
176
     1
290
     0
176
     1
290
     0
176
     1
290
     0
176
     1
 90
       50
176
     1
 40
0.0
176
     1
 40
1.0
176
     1
 90
        0
176
     1
 62
    18
420
        0
176
     1
 90
       50
176
     1
 90
        3
176
     1
 62
     5
420
      255
176
     1
290
     0
176
     1
 90
       50
176
     1
 90
       50
176
     1
 90
       50
176
     1
290
     0
176
     1
 90
       50
176
     1
 62
   256
176
     0
 40
1.0
176
     0
 90
        2
176
     1
  1
strokes_ogs.tif
176
     1
290
     0
176
     1
 40
1.0
176
     1
 40
1.0
176
     1
  0
VISUALSTYLE
  5
181
102
{ACAD_REACTORS
330
99
102
}
330
99
100
AcDbVisualStyle
  2
Shaded with edges
 70
    26
177
     3
291
     0
 70
    58
 90
        2
176
     1
 90
        2
176
     1
 90
        1
176
     1
 90
        2
176
     1
 40
0.6
176
     1
 40
30.0
176
     1
 62
     7
420
 16777215
176
     1
 90
        1
176
     1
 90
        2
176
     1
 62
     7
176
     1
 62
   257
176
     1
 90
        2
176
     1
 90
        1
176
     1
 40
1.0
176
     1
 90
        8
176
     1
 62
   257
176
     1
 40
1.0
176
     1
 90
        1
176
     1
 90
        6
176
     1
 90
        2
176
     1
 62
     7
176
     1
 90
        3
176
     1
 90
        0
176
     1
 90
        0
176
     1
290
     0
176
     1
 90
        5
176
     1
 40
0.0
176
     1
 90
        0
176
     1
290
     0
176
     1
290
     1
176
     1
290
     1
176
     1
290
     0
176
     1
290
     0
176
     1
290
     0
176
     1
290
     0
176
     1
290
     0
176
     1
290
     0
176
     1
 90
       50
176
     1
 40
0.0
176
     1
 40
1.0
176
     1
 90
        0
176
     1
 62
    18
420
        0
176
     1
 90
       50
176
     1
 90
        3
176
     1
 62
     5
420
      255
176
     1
290
     0
176
     1
 90
       50
176
     1
 90
       50
176
     1
 90
       50
176
     1
290
     0
176
     1
 90
       50
176
     1
 62
   256
176
     0
 40
1.0
176
     0
 90
        2
176
     1
  1
strokes_ogs.tif
176
     1
290
     0
176
     1
 40
1.0
176
     1
 40
1.0
176
     1
  0
VISUALSTYLE
  5
17E
102
{ACAD_REACTORS
330
99
102
}
330
99
100
AcDbVisualStyle
  2
Shades of Gray
 70
    23
177
     3
291
     0
 70
    58
 90
        2
176
     1
 90
        2
176
     1
 90
        3
176
     1
 90
        0
176
     1
 40
0.6
176
     1
 40
30.0
176
     1
 62
     7
420
 16777215
176
     1
 90
        2
176
     1
 90
        2
176
     1
 62
     7
176
     1
 62
     7
176
     1
 90
        1
176
     1
 90
        1
176
     1
 40
40.0
176
     1
 90
        8
176
     1
 62
     7
176
     1
 40
1.0
176
     1
 90
        1
176
     1
 90
        6
176
     1
 90
        2
176
     1
 62
     7
176
     1
 90
        3
176
     1
 90
        0
176
     1
 90
        0
176
     1
290
     0
176
     1
 90
        1
176
     1
 40
0.0
176
     1
 90
        0
176
     1
290
     0
176
     1
290
     1
176
     1
290
     1
176
     1
290
     0
176
     1
290
     0
176
     1
290
     0
176
     1
290
     0
176
     1
290
     0
176
     1
290
     0
176
     1
 90
       50
176
     1
 40
0.0
176
     1
 40
1.0
176
     1
 90
        0
176
     1
 62
    18
420
        0
176
     1
 90
       50
176
     1
 90
        3
176
     1
 62
     5
420
      255
176
     1
290
     0
176
     1
 90
       50
176
     1
 90
       50
176
     1
 90
       50
176
     1
290
     0
176
     1
 90
       50
176
     1
 62
   256
176
     0
 40
1.0
176
     0
 90
        2
176
     1
  1
strokes_ogs.tif
176
     1
290
     0
176
     1
 40
1.0
176
     1
 40
1.0
176
     1
  0
VISUALSTYLE
  5
17F
102
{ACAD_REACTORS
330
99
102
}
330
99
100
AcDbVisualStyle
  2
Sketchy
 70
    24
177
     3
291
     0
 70
    58
 90
        1
176
     1
 90
        2
176
     1
 90
        2
176
     1
 90
        0
176
     1
 40
0.6
176
     1
 40
30.0
176
     1
 62
     7
420
 16777215
176
     1
 90
        2
176
     1
 90
        2
176
     1
 62
     7
176
     1
 62
     7
176
     1
 90
        1
176
     1
 90
        1
176
     1
 40
40.0
176
     1
 90
       11
176
     1
 62
     7
176
     1
 40
1.0
176
     1
 90
        1
176
     1
 90
        6
176
     1
 90
        2
176
     1
 62
     7
176
     1
 90
        6
176
     1
 90
        0
176
     1
 90
        0
176
     1
290
     0
176
     1
 90
        1
176
     1
 40
0.0
176
     1
 90
        0
176
     1
290
     0
176
     1
290
     1
176
     1
290
     1
176
     1
290
     0
176
     1
290
     0
176
     1
290
     0
176
     1
290
     0
176
     1
290
     0
176
     1
290
     0
176
     1
 90
       50
176
     1
 40
0.0
176
     1
 40
1.0
176
     1
 90
        0
176
     1
 62
    18
420
        0
176
     1
 90
       50
176
     1
 90
        3
176
     1
 62
     5
420
      255
176
     1
290
     0
176
     1
 90
       50
176
     1
 90
       50
176
     1
 90
       50
176
     1
290
     0
176
     1
 90
       50
176
     1
 62
   256
176
     0
 40
1.0
176
     0
 90
        2
176
     1
  1
strokes_ogs.tif
176
     1
290
     0
176
     1
 40
1.0
176
     1
 40
1.0
176
     1
  0
VISUALSTYLE
  5
A6
102
{ACAD_REACTORS
330
99
102
}
330
99
100
AcDbVisualStyle
  2
Thicken
 70
    13
177
     3
291
     1
 70
    58
 90
        2
176
     1
 90
        2
176
     1
 90
        1
176
     1
 90
        0
176
     1
 40
0.6
176
     1
 40
30.0
176
     1
 62
     7
420
 16777215
176
     1
 90
        1
176
     1
 90
        4
176
     1
 62
     7
176
     1
 62
   257
176
     1
 90
        1
176
     1
 90
        1
176
     1
 40
1.0
176
     1
 90
       12
176
     1
 62
     7
176
     1
 40
1.0
176
     1
 90
        1
176
     1
 90
        6
176
     1
 90
        2
176
     1
 62
     7
176
     1
 90
        5
176
     1
 90
        0
176
     1
 90
        0
176
     1
290
     0
176
     1
 90
        1
176
     1
 40
0.0
176
     1
 90
        0
176
     1
290
     0
176
     1
290
     1
176
     1
290
     1
176
     1
290
     0
176
     1
290
     0
176
     1
290
     0
176
     1
290
     0
176
     1
290
     0
176
     1
290
     0
176
     1
 90
       50
176
     1
 40
0.0
176
     1
 40
1.0
176
     1
 90
        0
176
     1
 62
    18
420
        0
176
     1
 90
       50
176
     1
 90
        3
176
     1
 62
     5
420
      255
176
     1
290
     0
176
     1
 90
       50
176
     1
 90
       50
176
     1
 90
       50
176
     1
290
     0
176
     1
 90
       50
176
     1
 62
   256
176
     0
 40
1.0
176
     0
 90
        2
176
     1
  1
strokes_ogs.tif
176
     1
290
     0
176
     1
 40
1.0
176
     1
 40
1.0
176
     1
  0
VISUALSTYLE
  5
A0
102
{ACAD_REACTORS
330
99
102
}
330
99
100
AcDbVisualStyle
  2
Wireframe
 70
     5
177
     3
291
     0
 70
    58
 90
        0
176
     1
 90
        2
176
     1
 90
        0
176
     1
 90
        0
176
     1
 40
0.6
176
     1
 40
30.0
176
     1
 62
     7
420
 16777215
176
     1
 90
        1
176
     1
 90
        4
176
     1
 62
     7
176
     1
 62
   257
176
     1
 90
        1
176
     1
 90
        1
176
     1
 40
1.0
176
     1
 90
        0
176
     1
 62
   257
176
     1
 40
1.0
176
     1
 90
        1
176
     1
 90
        6
176
     1
 90
        2
176
     1
 62
     7
176
     1
 90
        3
176
     1
 90
        0
176
     1
 90
        0
176
     1
290
     0
176
     1
 90
        1
176
     1
 40
0.0
176
     1
 90
        0
176
     1
290
     0
176
     1
290
     1
176
     1
290
     1
176
     1
290
     0
176
     1
290
     0
176
     1
290
     0
176
     1
290
     0
176
     1
290
     0
176
     1
290
     0
176
     1
 90
       50
176
     1
 40
0.0
176
     1
 40
1.0
176
     1
 90
        0
176
     1
 62
    18
420
        0
176
     1
 90
       50
176
     1
 90
        3
176
     1
 62
     5
420
      255
176
     1
290
     0
176
     1
 90
       50
176
     1
 90
       50
176
     1
 90
       50
176
     1
290
     0
176
     1
 90
       50
176
     1
 62
   256
176
     0
 40
1.0
176
     0
 90
        2
176
     1
  1
strokes_ogs.tif
176
     1
290
     0
176
     1
 40
1.0
176
     1
 40
1.0
176
     1
  0
VISUALSTYLE
  5
180
102
{ACAD_REACTORS
330
99
102
}
330
99
100
AcDbVisualStyle
  2
X-Ray
 70
    25
177
     3
291
     0
 70
    58
 90
        2
176
     1
 90
        2
176
     1
 90
        1
176
     1
 90
        1
176
     1
 40
0.5
176
     1
 40
30.0
176
     1
 62
     7
420
 16777215
176
     1
 90
        1
176
     1
 90
        0
176
     1
 62
     7
176
     1
 62
   257
176
     1
 90
        1
176
     1
 90
        1
176
     1
 40
1.0
176
     1
 90
        8
176
     1
 62
     7
176
     1
 40
1.0
176
     1
 90
        1
176
     1
 90
        6
176
     1
 90
        2
176
     1
 62
     7
176
     1
 90
        3
176
     1
 90
        0
176
     1
 90
        0
176
     1
290
     0
176
     1
 90
       13
176
     1
 40
0.0
176
     1
 90
        0
176
     1
290
     0
176
     1
290
     1
176
     1
290
     1
176
     1
290
     0
176
     1
290
     0
176
     1
290
     0
176
     1
290
     0
176
     1
290
     0
176
     1
290
     0
176
     1
 90
       50
176
     1
 40
0.0
176
     1
 40
1.0
176
     1
 90
        0
176
     1
 62
    18
420
        0
176
     1
 90
       50
176
     1
 90
        3
176
     1
 62
     5
420
      255
176
     1
290
     0
176
     1
 90
       50
176
     1
 90
       50
176
     1
 90
       50
176
     1
290
     0
176
     1
 90
       50
176
     1
 62
   256
176
     0
 40
1.0
176
     0
 90
        2
176
     1
  1
strokes_ogs.tif
176
     1
290
     0
176
     1
 40
1.0
176
     1
 40
1.0
176
     1
  0
DICTIONARYVAR
  5
4A0D6
102
{ACAD_REACTORS
330
4A0D5
102
}
330
4A0D5
100
DictionaryVariables
280
     0
  1
2
  0
DICTIONARYVAR
  5
4A0D7
102
{ACAD_REACTORS
330
4A0D5
102
}
330
4A0D5
100
DictionaryVariables
280
     0
  1
400.000000
  0
DICTIONARYVAR
  5
4A0D8
102
{ACAD_REACTORS
330
4A0D5
102
}
330
4A0D5
100
DictionaryVariables
280
     0
  1
1
  0
DICTIONARYVAR
  5
4A0D9
102
{ACAD_REACTORS
330
4A0D5
102
}
330
4A0D5
100
DictionaryVariables
280
     0
  1
1:1
  0
DICTIONARYVAR
  5
4A0DA
102
{ACAD_REACTORS
330
4A0D5
102
}
330
4A0D5
100
DictionaryVariables
280
     0
  1
STANDARD
  0
DICTIONARYVAR
  5
4A0DB
102
{ACAD_REACTORS
330
4A0D5
102
}
330
4A0D5
100
DictionaryVariables
280
     0
  1
STANDARD
  0
DICTIONARYVAR
  5
4A0DC
102
{ACAD_REACTORS
330
4A0D5
102
}
330
4A0D5
100
DictionaryVariables
280
     0
  1
Imperial24
  0
DICTIONARYVAR
  5
4A0DD
102
{ACAD_REACTORS
330
4A0D5
102
}
330
4A0D5
100
DictionaryVariables
280
     0
  1
Imperial24
  0
DICTIONARYVAR
  5
4A0DE
102
{ACAD_REACTORS
330
4A0D5
102
}
330
4A0D5
100
DictionaryVariables
280
     0
  1
-1
  0
DICTIONARYVAR
  5
4A0DF
102
{ACAD_REACTORS
330
4A0D5
102
}
330
4A0D5
100
DictionaryVariables
280
     0
  1
1
  0
DICTIONARYVAR
  5
4A0E0
102
{ACAD_REACTORS
330
4A0D5
102
}
330
4A0D5
100
DictionaryVariables
280
     0
  1
2
  0
DICTIONARYVAR
  5
4A0E1
102
{ACAD_REACTORS
330
4A0D5
102
}
330
4A0D5
100
DictionaryVariables
280
     0
  1
0
  0
DICTIONARYVAR
  5
4A0E2
102
{ACAD_REACTORS
330
4A0D5
102
}
330
4A0D5
100
DictionaryVariables
280
     0
  1
4
  0
DICTIONARYVAR
  5
4A0E3
102
{ACAD_REACTORS
330
4A0D5
102
}
330
4A0D5
100
DictionaryVariables
280
     0
  1
V-Construction
  0
DICTIONARYVAR
  5
4A0E4
102
{ACAD_REACTORS
330
4A0D5
102
}
330
4A0D5
100
DictionaryVariables
280
     0
  1
ByLayer
  0
DICTIONARYVAR
  5
4A0E5
102
{ACAD_REACTORS
330
4A0D5
102
}
330
4A0D5
100
DictionaryVariables
280
     0
  1
0
  0
DICTIONARYVAR
  5
4A0E6
102
{ACAD_REACTORS
330
4A0D5
102
}
330
4A0D5
100
DictionaryVariables
280
     0
  1
0
  0
DICTIONARYVAR
  5
4A0E7
102
{ACAD_REACTORS
330
4A0D5
102
}
330
4A0D5
100
DictionaryVariables
280
     0
  1
0
  0
DICTIONARYVAR
  5
4A0E8
102
{ACAD_REACTORS
330
4A0D5
102
}
330
4A0D5
100
DictionaryVariables
280
     0
  1
2
  0
DICTIONARYVAR
  5
4A0E9
102
{ACAD_REACTORS
330
4A0D5
102
}
330
4A0D5
100
DictionaryVariables
280
     0
  1
1.000000
  0
DICTIONARYVAR
  5
4A0EA
102
{ACAD_REACTORS
330
4A0D5
102
}
330
4A0D5
100
DictionaryVariables
280
     0
  1
1
  0
DICTIONARYVAR
  5
4A0EB
102
{ACAD_REACTORS
330
4A0D5
102
}
330
4A0D5
100
DictionaryVariables
280
     0
  1
1.000000
  0
DICTIONARYVAR
  5
4A0EC
102
{ACAD_REACTORS
330
4A0D5
102
}
330
4A0D5
100
DictionaryVariables
280
     0
  1
1
  0
DICTIONARYVAR
  5
4A0ED
102
{ACAD_REACTORS
330
4A0D5
102
}
330
4A0D5
100
DictionaryVariables
280
     0
  1
0
  0
DICTIONARYVAR
  5
4A0EE
102
{ACAD_REACTORS
330
4A0D5
102
}
330
4A0D5
100
DictionaryVariables
280
     0
  1

  0
DICTIONARYVAR
  5
4A0EF
102
{ACAD_REACTORS
330
4A0D5
102
}
330
4A0D5
100
DictionaryVariables
280
     0
  1
0
  0
DICTIONARYVAR
  5
4A0F0
102
{ACAD_REACTORS
330
4A0D5
102
}
330
4A0D5
100
DictionaryVariables
280
     0
  1
127
  0
DICTIONARY
  5
194
330
22
100
AcDbDictionary
280
     1
281
     1
  0
DICTIONARY
  5
188
330
97
100
AcDbDictionary
280
     1
281
     1
  3
FBXASSET
360
189
  0
DICTIONARY
  5
186
330
96
100
AcDbDictionary
280
     1
281
     1
  3
FBXASSET
360
187
  0
DICTIONARY
  5
110
330
98
100
AcDbDictionary
280
     1
281
     1
  3
BUMPTILE
360
112
  3
DIFFUSETILE
360
111
  3
FBXASSET
360
18A
  3
OPACITYTILE
360
113
  3
REFLECTIONTILE
360
114
  0
DICTIONARY
  5
104
330
87
100
AcDbDictionary
280
     1
281
     1
  3
ACAD_ROUNDTRIP_2008_TABLESTYLE_CELLSTYLEMAP
360
6B289
  0
XRECORD
  5
189
102
{ACAD_REACTORS
330
188
102
}
330
188
100
AcDbXrecord
280
     1
 70
     1
 90
429727718
  1
508B35C9-AEE7-456F-BE74-D52651303AC6
310
504B03040A0000080000B670623B3DEE336E79000000790000001B0000006175746F6465736B2D64657369676E2D7061636B6167652E786D6C3C3F786D6C2076657273696F6E3D22312E302220656E636F64696E673D227574662D3822203F3E3C666F726D6174733E3C666F726D61743E687474703A2F2F736368656D612E
310
6175746F6465736B2E636F6D2F64657369676E2D7061636B6167652F323030393C2F666F726D61743E3C2F666F726D6174733E504B0304140006080800B670623BD486FD9CA0000000F4000000130000005B436F6E74656E745F54797065735D2E786D6C7D8EC10E82300C865F65E91D8A1E8C310C0EEA1BF002731658846E
310
D98AC1B77784ABF1D8FE5FBFBF75BBCE937A534CCEB38643598122B6FEE978D0B0485F9C41B54DDD7D022595594E1A469170414C76A4D9A4D207E29CF43ECE46F218070CC6BECC4078ACAA135ACF422C856C0E68EA1BF5669944DDD7BCDE7B1F8E415D77AECB980613C2E4AC91FC167A2B244592486606FC29C8FD7F045B9A
310
EF7053A7E60B504B0304140006080800B670623B28ED286BEB0000007C01000008000000636F72652E786D6C8D90416EC3201045AF82665B6183218D6D61A254764FD00B204C5C94182C03558F5F9C3852BBEB6A467FFE9B197D71FA9E6FE8CBACC17AD7012D0820E3B41FAD9B3A48F1826B40272956EFE32F1B20A766D3C1
310
268314D3EAD3B24BDABB685CCCAAF3A3D94515828980F42D371D04FD696655A814B3235C8B45E9AB9A4C419F5D8653B2237A1CB163DE672FD6AC209BF3C08E0D1B30EB19C3FC9D72FCC6EB231EFA33EDE96BDD341517E5064B11EDFCBCAF57A3A2194156843498524CAA0FCA5B7268F9E185D42D21A2DCEC7FA0B48CFF8492
310
759155FBBB0F2C80A4F991FB408A72CB22977B50B96EB9C91F504B0304140006080800B670623B55019EA25F0000007C00000007000000636E782E786D6C4DCB3B0E80201045D1AD90E915ED2CF8AC45050C11660C8261F98AB1B07AC9C97D42D718D865D3E909258CFD00CCE24AC6E326A164D74DC0B4128928FF32603847
310
2BA13128B1252AC747C6BAB984FC68F0B87FE8960A5C09FE86CFB69FBA01504B0304140006080800B670623B7BC41AC871010000D40300000C0000006662782F636F72652E786D6CC553ED6E8320147D15C2DF4501B56B6D90A64BBB27D80B50A5CE54C120983EFEAE1F4DD7A56BBA5FF3879273EEE59E7310BE393735EA95
310
ED2AA333CC428A91D2B9292A5D66D8BB63B0C26823B835C67D2BC348CB46657880B1E0A535BE9DA1DC68A7B403549B42CDA0EC3AE530CA6B5864B8CB3F552343E91D5474A7B095F949962A6421D0502778E72C0840D390E18DC5F170E664C205F7BE2A66B62A605A75AC94C522DDEEE3651AEF837817C741F2CE92E02D592D
310
83FD6ECB76EC7595A651C2C9D02CB8AB9A8BBADC2AE954814544691A3016D0E883256BBA58278B17BA5A53CAC9507ED3E4DBE2C9265F691747B3DCA9ADC382819091F8E1162272A8933DE82182932144F88C09DF060D8140C84E1EEA8B8F1340BDCA9DB1093085F157AA97B557309586747CD0EF0B4EA64E983A6E0EAEEFCE
310
889E9EF17847386AA94B30211D2C0FDE0D3AF9A4610EAD5536E8DD1969631B593F67E381C33F5157F17725E5A636F6BF1491F980C8FC7B90E13E8A2F504B0304140006080800B670623B70102A487D0000009D0000000B0000006662782F636E782E786D6C4DCCD10A83201886E15B91FFDC95A5C30335ACCDFB886521330D
310
A76397BF1A1DECE883878F57749FD5A3B74D2F17830472A901D9F088930B8B849267CC01754AA418F3DF0D5018572BE160506249B16C274D761E8BCFBB7A179E27F65CB39A0F14D396184C9921B81F34C3ACA1B4B99ABB6E6F062A25AA5F69DF23ACBE504B0304140006080800B670623B3610CA3329010000120200003100
310
00006662782F42384135303843342D343331462D343546312D424341352D3532343432364645413344462F636F72652E786D6C8D515B6EC32010BC0AE22B55850D0E446E848992B43E412FE000495162B07854397EA176A4F62F3F2C9A9D991D58BEBB8F37F0AD7D30CE76905418026DA553C65E3A98E219B510EC04F7CEC5
310
3F3408EC30EA0E16180A7EF12E4D0B249D8DDAC68C5AA7F4020E21E80881BCE54B0783FCD2E3500D296646B856D320AFC34557A4CAEDCC133C449F0380794839A138B47B86DB2345744D7A44594FD0E1B867883594369BFE63BF7EEF793D0B054FC9A8456E548E63CE46FB674D8A58F068C6477CE9F510B582A2C1F80D1182
310
70F349E816B32D65AFB8DD62CCEB42FF274A937A52948C8DEB66893BCB021484D7734370E5D2E9F608A3EF93F3119479ABA0E50B14B8C298119A43CCC4FCFCECB8A18B6388CEE7EF5D5D4F994BD86CBBA182D76543B9FCAE2FD7B24DF103504B0304140006080800B670623B1B8617914E0100003303000030000000666278
310
2F42384135303843342D343331462D343546312D424341352D3532343432364645413344462F636E782E786D6CD593C16EC32010447F0571AD6CE3D489D20813A9877E410FBD62D82434182CC055F3F75D1292E692438FBD206B7698593D61BEFD1E2DF982108D773D6D6B460938E5B571FB9ECE6957AD29D90A1EBC4F7736
310
4A9C1CA1A759A682EF839FA72269D8C9D92654AD71C72206887E0E0A22CAF926B15E498B01E0AA19451807D01A34B919F16B070157417138917400F2F6FA41FCF0092A45DEE414C19BDC21783E4BD39D891265658C3D8DEA00A3ACE59CBC8678ACB54CB26EEB6BD7839D7E9348BE70AD9C8321B9BCA7F9A4A26C542347DEE0
310
50F09802D22BA6749A800A394DD62899107273365E3C82CFC6A55557BC06C10774B7ABE7AEC3B0F34CF06446280E154026D0542C187BA9DAB6628BF7B6DBB0E5A65B3EB1F58631DE64BBE083F7B65CC218087E22CABB042E51D1F2268F1FE12B3EA24D40D63E9CFE00120194D60B9D5BC67FE6D39CDF37E20AF817881F504B
310
0304140006080800B670623BBFEF2E3B690500003C100000340000006662782F42384135303843342D343331462D343546312D424341352D3532343432364645413344462F6F626A656374732E786D6CAD575D739B3814FD2B0CFB0C98D84E931D4227B6938EA793B6534F3BFB90198F0099B001899144EAECAFDF231018B0
310
D37A3FFC609090EEE7B94757C1FB7D915B2F54C88CB31BDB7727B64559CC938CA53776A576CE956DBD0F03C1B9EA2DB32D460A7A63EB693B0C52C1ABD24C257447AA5C8D66EF177F5832A68CDA569C13296F6C193FD182B8A4523CA1F2D94D88226EBADBBBBEDB2C1C8A4D05299F46424B222853B014F30C52ACC6287F389C
310
D85E1878FA7B18E87FB36AFAF62AAFF667A83F635211161F291B8999FAB3D5DDC5FCDA99CF6653677679E13B8BFBC5CAF1DF4D27CBCBE5F2FAF6EE1A8AA51290642C117467871F101B91C581D77CEA2C36869F3229E68CD1B8F61F1ED6361B89092D294B90C78C4A68EB793D190E7D1D9BDEE7A91E1B95FDE9F3BCEAEFE809
310
6A6D6F9F7D4B79F4275C90E7A04248AA51D5C4C738DAE06F72885AC4796EBE65D22A88A22223B995679120E2D50EB1542F098381188D4EA111AE3DB043FF20AF6F2B4AE3D7D83D65E5AECA730D4D3BAC91BD05FEA992B565D95F549CD6069B90AB2A63EACA38A45E4B6A87D781574F86817E4C2FCCC72690D62E2729520E37
310
9BAF234797BAF6D62B3BFC781FED37BA1E4F2B2F052FA9501A3E80569BB8F6A9A364D4FA67654E6F803383981F82F21591FF84F23D9882BC896C3FDBCF8C162508933B2E0AE4C69DD43F6BD2BE38DDDBF10BF86CB4FA784D37F3AF16075E67EC9030DECA1FC0A55373F5DFF3378C591FA9BDF485C10B0A8C8BA909E5262639
310
A8E72163488806A595734C81CB77D1DE0ED7604A303B76913CEC0272F412782FF88EFF4636D8AA56DF7B322474C4B767303F625997056C7B032C473C592B36CEBD15F3F9FF5233B7ABCDC74D257624A60F8658567497B14CE1EC3C80B76FD02011038F9EE9EB0F2E12387A9C844D3F09855125116D1D731DF8B43D2CF4E0A0
310
79A020C6BE946BCE0B7EA1E1219331CD73C228AF5A2DDD31A4B1DA918CE91350854D40A71723140BFA92E94E62B0626016CEFA5864A50E5977E8753CEDBEE1CBB7F52780D20E17AF0BA0F5F9B02A3AD07DCC732EB6D1EBB661421BE0C39E21BABF0FE16D22EA6929407C8DE596724C88B749B6DB5512BC7B228ADFD7CB7EA6
310
3A22397E690BA8D5D8D4E40CEC8CDA23C2C0B7D5898640101CEC9C6D331CE328CB93CAFBBAC70A642DF70DF95155945B52F08AA973C23469FD69ADEF84F7BB18F983A8F8C90E37F5D35980B2139A1C523540813E824EF83448CF7C72B598CE97D7CEEDDDDD3B6736BFBC771677EF66CE6A7E7139F7A793E9EDF2B2B3A8B624
310
0CDA13AA5F8388264EC4A0129909F3B7F5A16CEDF08128E97D680ACA4B9BE7B7B58BB638F0B00700EF36AE8B32A705658A68F83EE897FC2B41573190D1CCAF0B92D233A47CFEB019D9809933F67DD1A5467F8CF69AD9A5AE859342D45355448C64F968A371DC2D596ADC6E43D93D1B466F877A64E2893E54F23C4B40388995
310
525E5005DA3983ED45412510D3EFCA13737B3863F74BD30F2A12E5B4B5E489A025CE25500DB855B11ACE5BBFA185D35DD48D8DC3CE7DC69F2944DB42AA6F6CF09BCA622ADD08C7A36E7C6AE18000BAB08E040135C2D21C9D75B3A91B77BB746C403F38018DFE6EC939DD92F16B40BC05294B9CDA035AAD6D330AE27FE4786B
310
8E45145EA34A75BE1C263A676A35A8ACC6297337400BF16C54EF515F3F77CB77EB3583889C754FFA29081AA98E2222ADEF05DA3E63D2EDEA8B8756C05A7FB6CABC4A91CBF325398202CC952E70A008A830324BA200D5E5EF8F5F04C75DB4B0EE3340E071C98B823333B83577596BF3849B69F2085AA0FAFA212F26BEFF5877
310
FDE622B28D88A42E49E43326DA82D31E8CB006401E1DA726059ECEC168F97A6599036306A135688F9AD2E61A6EA178F4CD51974A9F2CCB9F36FE5EBD14601068D9C3BF01504B0304140006080000B670623B000000000000000000000000350000006662782F42384135303843342D343331462D343546312D424341352D35
310
32343432364645413344462F76657274696365732E62696E504B0304140006080800B670623BF270F1330600000004000000360000006662782F42384135303843342D343331462D343546312D424341352D3532343432364645413344462F747269616E676C65732E62696E636660600000504B0304140006080000B67062
310
3B000000000000000000000000370000006662782F42384135303843342D343331462D343546312D424341352D3532343432364645413344462F617474726962757465732E62696E504B0304140006080800B670623B08DA0BD19000000041010000360000006662782F42384135303843342D343331462D343546312D4243
310
41352D3532343432364645413344462F6469726563746F72792E786D6C858F410AC3201045AF22B36F53E9A60B35CBEEBAE80D244E44489C6234F4F835464A48035D0DF398FF9F8AF63D0E6CC63039F212F8F9020C7D47C6792B21C5FE7403D62A1188E2E60C98D7234A5830286103A55745067B9D86B8A3CF9C7F90C11DE6
310
07FB144396D7B6A82D282E9A152AD114D5EF2CB866EEE831B8EEA07A7BB5A8D7D61A2BAAEB7FD5F70921FF497D00504B0304140006080800B670623B3B4606F3FE000000A00100003B0000006662782F42384135303843342D343331462D343546312D424341352D3532343432364645413344462F7265736F75726365732F
310
636F72652E786D6C8D504B6E833010BD0A9A6D65B08134808CA354A427E8052C332156828DFCA97AFC9A40A576D7CDCCE87D344F8F9FBEE647F689CE6B6B7A6039850C8DB2A336530F315C4903D94970676DF82583CCC8197B5861107C72362E3BA4AC096842428D1D7107A5F71820538F74F4E0D50D6799CB1892C2DFF345
310
AABB9C306779A2934E701F5C0A906D4FD609C2A1B7D129F4BCD858C163D4E3AED163FAA9AF1A1D88F67CA98E6D35906AA82A52BFB39ABCD5CD915C86331BD86BD3B665CD8BD52C78D0F34F46E550061C419494B6843142CB0F5677F4D0D58717DA7494F26295FF31C565FCA7296A13AA728FBBD93C0896823C09C18BB5AFB4
310
9E65A6BD762BBE01504B010214000A0000080000B670623B3DEE336E79000000790000001B00000000000000000000000000000000006175746F6465736B2D64657369676E2D7061636B6167652E786D6C504B01021400140006080800B670623BD486FD9CA0000000F40000001300000000000000000000000000B2000000
310
5B436F6E74656E745F54797065735D2E786D6C504B01021400140006080800B670623B28ED286BEB0000007C010000080000000000000000000000000083010000636F72652E786D6C504B01021400140006080800B670623B55019EA25F0000007C000000070000000000000000000000000094020000636E782E786D6C50
310
4B01021400140006080800B670623B7BC41AC871010000D40300000C00000000000000000000000000180300006662782F636F72652E786D6C504B01021400140006080800B670623B70102A487D0000009D0000000B00000000000000000000000000B30400006662782F636E782E786D6C504B01021400140006080800B6
310
70623B3610CA3329010000120200003100000000000000000000000000590500006662782F42384135303843342D343331462D343546312D424341352D3532343432364645413344462F636F72652E786D6C504B01021400140006080800B670623B1B8617914E010000330300003000000000000000000000000000D10600
310
006662782F42384135303843342D343331462D343546312D424341352D3532343432364645413344462F636E782E786D6C504B01021400140006080800B670623BBFEF2E3B690500003C10000034000000000000000000000000006D0800006662782F42384135303843342D343331462D343546312D424341352D35323434
310
32364645413344462F6F626A656374732E786D6C504B01021400140006080000B670623B0000000000000000000000003500000000000000000000000000280E00006662782F42384135303843342D343331462D343546312D424341352D3532343432364645413344462F76657274696365732E62696E504B010214001400
310
06080800B670623BF270F133060000000400000036000000000000000000000000007B0E00006662782F42384135303843342D343331462D343546312D424341352D3532343432364645413344462F747269616E676C65732E62696E504B01021400140006080000B670623B00000000000000000000000037000000000000
310
00000000000000D50E00006662782F42384135303843342D343331462D343546312D424341352D3532343432364645413344462F617474726962757465732E62696E504B01021400140006080800B670623B08DA0BD1900000004101000036000000000000000000000000002A0F00006662782F42384135303843342D3433
310
31462D343546312D424341352D3532343432364645413344462F6469726563746F72792E786D6C504B01021400140006080800B670623B3B4606F3FE000000A00100003B000000000000000000000000000E1000006662782F42384135303843342D343331462D343546312D424341352D3532343432364645413344462F72
310
65736F75726365732F636F72652E786D6C504B0506000000000E000E0080040000651100000000
  0
XRECORD
  5
187
102
{ACAD_REACTORS
330
186
102
}
330
186
100
AcDbXrecord
280
     1
 70
     1
 90
429727718
  1
887D55A9-D0DD-414E-B741-A7DCD4DA2B4C
310
504B03040A0000080000B670623B3DEE336E79000000790000001B0000006175746F6465736B2D64657369676E2D7061636B6167652E786D6C3C3F786D6C2076657273696F6E3D22312E302220656E636F64696E673D227574662D3822203F3E3C666F726D6174733E3C666F726D61743E687474703A2F2F736368656D612E
310
6175746F6465736B2E636F6D2F64657369676E2D7061636B6167652F323030393C2F666F726D61743E3C2F666F726D6174733E504B0304140006080800B670623BD486FD9CA0000000F4000000130000005B436F6E74656E745F54797065735D2E786D6C7D8EC10E82300C865F65E91D8A1E8C310C0EEA1BF002731658846E
310
D98AC1B77784ABF1D8FE5FBFBF75BBCE937A534CCEB38643598122B6FEE978D0B0485F9C41B54DDD7D022595594E1A469170414C76A4D9A4D207E29CF43ECE46F218070CC6BECC4078ACAA135ACF422C856C0E68EA1BF5669944DDD7BCDE7B1F8E415D77AECB980613C2E4AC91FC167A2B244592486606FC29C8FD7F045B9A
310
EF7053A7E60B504B0304140006080800B670623BBC1638F5EC0000007C01000008000000636F72652E786D6C8D90416EC3201045AF82665B61836BE2D8C24471DB9CA01740401C94182C03558F5F9C3852BBEB6A467FFE9B197D7EF89E6EE8CB2CC17AD7032D0820E394D7D68D3DA478C67B4007C117EFE32F1B202727D3C3
310
2A83E0E3E2D3BC49CABB685CCCAAF3DA6CA20CC14440EA969B1E82BA98491632C5EC08D76296EA2A4753D06797E194AC468F2356E77DF66CCD02825543D50CACC62D39ED70FDC68EB8FD68F6F8787A6784342D1DDA1D2F5758F068A7E77DB518198D065111D2624A31A93E69DD11D6D5EC85EC3B4278B9DAFF4069D6FF8492
310
75F1B5DADE7D600104CD8FDC0782976B16B9DC83CA75CD4DFC00504B0304140006080800B670623B55019EA25F0000007C00000007000000636E782E786D6C4DCB3B0E80201045D1AD90E915ED2CF8AC45050C11660C8261F98AB1B07AC9C97D42D718D865D3E909258CFD00CCE24AC6E326A164D74DC0B4128928FF326038
310
472BA13128B1252AC747C6BAB984FC68F0B87FE8960A5C09FE86CFB69FBA01504B0304140006080800B670623B3586FFB671010000D40300000C0000006662782F636F72652E786D6CC553ED6E8320147D15C2DF4541A76D6D90A6DDD627D80B50A4CE54C120983EFEAE1F4DD7A55BBA5FF3879273EEE59E7310B6393735EA
310
95ED2AA3731C851423A5A5292A5DE6D8BB63B0C268C39935C67D29C3488B46E578803167A535BE9D2169B453DA01AA4DA16650749D7218C91A1639EEE4876A4428BC838AEE14B6429E44A9C228041AEA38EB9C0501681A32BC313F1ECE8C4C3867DE57C5CC56054CAB8E95B298A7F12E5EEED224C8E87E11242FE936C8DE96
310
AB60BB7F4D295D66D12E5B30323473E6AAE6A24E5A259C2A308F29CD82280A68FC1E256B9AAE93F489AED694323294DF34F9B678B0C957DA3DC7B3DCA9ADC33C022123F1CD2D44E450277AD04338234388F01913BE0D1A0281909D38D4171F27807A259DB1093085F157AA17B557309586747CD0CF0B46A64E983A6E0EAEEF
310
CE881F9EF1FB8E70D44297604238581EBC1B74B249C31C5AAB6CD0BB33D2C636A27ECCC62F0EFF445DC5DF95244D6DEC7F2922F30191F9F720C37DE49F504B0304140006080800B670623B4220A0FF7D0000009D0000000B0000006662782F636E782E786D6C4DCCD10A83201886E15B91FFDCE542CB0335D0EC3E6259C84A
310
C3E9D8E5AF46073BFAE0E1E315DD675BD1DBA5978F41C2FD4600B9F088930F8B849267CC01754AA418F3DF0D50183727E164506249B1EC174D6E1ECB9A0F5D7D785E68DB8151CD286E5A5363CA6B8A39E90D36D40E96B086F55A43A544F52B1D7B86D517504B0304140006080800B670623B2FA3FEDE290100001202000031
310
0000006662782F45374635344235342D363743322D343832342D383044432D4334454645303536354442422F636F72652E786D6C8D515B6EC32010BC0AE22B55850D2E386E848994D7097A0117488A1283C5A3CAF10BB523B57FF961D1ECCCECC0F2ED7DBC816FED8371B687A4C210682B9D32F6D2C314CFA883602BB8772E
310
FEA141608751F7B0C050F08B77695A20E96CD43666D43AA5177008414708E42D5F7A18E4971E876A483133C2B59A06791D2EBA22556E679EE021FA1C00CC43CA09C5717D6274C7286AD7FB06D1AEA1A8C3873DDAD3E3E98859CB0EBB1DAF67A1E02919B5C88DCA71CCD968FFAC49110B1ECDF8882FBD1EA256503418BF2342
310
106E3E08DD60B6A1EC15771B8C795DE8FF4469524F8A92B1F1AD59E2CEB20005E1F5DC105CB9F4797B84D1F7C9F908CABC55D0F2050A5C61CC1AD2F27A26E6E767C7962E8E213A9FBF7775FDCC5CC266DB960A5E970DE5F2BBBE5CCB36C50F504B0304140006080800B670623B1B8617914E01000033030000300000006662
310
782F45374635344235342D363743322D343832342D383044432D4334454645303536354442422F636E782E786D6CD593C16EC32010447F0571AD6CE3D489D20813A9877E410FBD62D82434182CC055F3F75D1292E692438FBD206B7698593D61BEFD1E2DF982108D773D6D6B460938E5B571FB9ECE6957AD29D90A1EBC4F77
310
364A9C1CA1A759A682EF839FA72269D8C9D92654AD71C72206887E0E0A22CAF926B15E498B01E0AA19451807D01A34B919F16B070157417138917400F2F6FA41FCF0092A45DEE414C19BDC21783E4BD39D891265658C3D8DEA00A3ACE59CBC8678ACB54CB26EEB6BD7839D7E9348BE70AD9C8321B9BCA7F9A4A26C542347DE
310
E050F09802D22BA6749A800A394DD62899107273365E3C82CFC6A55557BC06C10774B7ABE7AEC3B0F34CF06446280E154026D0542C187BA9DAB6628BF7B6DBB0E5A65B3EB1F58631DE64BBE083F7B65CC218087E22CABB042E51D1F2268F1FE12B3EA24D40D63E9CFE00120194D60B9D5BC67FE6D39CDF37E20AF817881F50
310
4B0304140006080800B670623B29652116630500003C100000340000006662782F45374635344235342D363743322D343832342D383044432D4334454645303536354442422F6F626A656374732E786D6CAD575D739B3814FD2B0CFB0C989834C90EA1639B24E3E9A6EDD4D3CE3E64C623834CD8006224913AFDF57B040203
310
B65BEF871F0C12D2FD3CF7E8CA7FBFCB33E3957291B2E2D674ED8969D02262715A24B76625B7D6B569BC0F7CCE98EC2D338D82E4F4D654D366E0279C55A59E8AE99654991CCDDECFFF3444440B6A1A514684B83545F44C7362934AB2988A173B2692D8C97667BB76B3702836E1A47C1E092D09A78584A5982F20C5688C7287
310
C389E904BEA3BE07BEFAD7ABA6A75739B53F43FD69212429A20365233153D70BEF2E2E6FAC4BCF9B5ADEBB0BD79ADFCF43CBBD9A4E16EF168B9BD9DD0D140BC921495BC2E9D60C1E101B9E46BED37CEA2CD6861F3329624541A3DA7F7858DBAC25C6B4A4458C3CA654405BCFEBC970E8AAD8F43E4FD558ABEC4F9FE7557F47
310
4F506B7BFBEC5BCA367FC105710E2AB8A00A554D7CB4A30DFE26FBA86D18CBF4B75418399194A72433B274C3097F33032C554B027F2046A1932B842B0FCCC0DDCBEBDB8AD2F835768F59B9ADB24C41D30C6A64AF817F2A456D59FA83F2E3DA60137255A585BCD60EC9B7929AC18DEFD49381AF1ED30BFDB109A4B1CD488294
310
C3CDE6EBC8D185AABD6568061FEE37BB95AAC7E3CA4BCE4ACAA5820FA0D526AE7DAA2869B5EE5999531BE0CC20E6FBA07C41E43FA27CF7A6206F3CDD793B4F6B919C1462CB788EDCD893FA674CDA17AB7B3B7C019F8D561FAEE966FED562DFE98C1D12C6A9FC015C2A35D7FF3D7FC398F591DA4B5FE0BFA2C0189FEA50AE22
310
92817A1ED3020951A03432862970F976B33383259812CC8E5D240BBA801CBCF8CE2BBEE3BF910DB6AAD5F79E05123AE2DB33981FB1ACCB02B69D00CB014FD68AB573A7627EF9BFD4CC2C5C7D58557C4B22FAA88925A4DBB44825CECE3D78FB060D1231F0E885BE7D673C86A3874958F593906B5502D1563157814FDAC3420D
310
F69A070A22EC4B98E23CFF171A1E5311D12C23056555ABA53B8614563B92D17D02AAB009E8F46284624E5F53D5490C560CCCC2591FF1B45421EB0EBD8EA7ED13BE7C5D7E0428CD60FEF60779EB13E6664FF711CB185F6FDED60D139A001FF60CD1FD6D086F1D51474901E26B2CB794A343BC8ED3EDB612E0DD2351FCB65CF4
310
33D511C9E14B5B40ADC6A6263DB0336A8F700DDF56271A024E70B0B3629DE21847591E55DED73D56206AB927E46FAABC5C939C55853C274C93D69FD6FA4E78BF8B11DF898C9ECD60553FAD39283BA6F18984AA23E8884F83F45C5F5F859797B31B2B9C84A1E5B9DE9D35BFF25C6B76152E422F9C5DCC3D847F5801ED09D5AF
310
41441327A25FF15487F9EB725FB666F048A4701E9A827292E6F97569A32DF61DEC01C0BB8DCBBCCC684E0B49147C1FD54BF685A0AB18C868E6973949E819523E3DAC463660E68C7D9F55A9D1EFA3BD7A76A16AE1A810F95CE59B82A4D968A376DC2E8B44BBDD86B27B368CDE0ED548C7137DA860591A83706223A12CA712B4
310
7306DBF39C0A20A6DF95C7FAF670C6EED7A61F946493D1D6926782963813403548A78AE470DEF80D2D9CEAA26E4D1C76F60BFE74219A06527D6B82DF641A51616F703CAAC6A7160E08A00BEB4810A0274592A1B36E3675E36E978A0DE80727A0D6DF2D39A75BD27E0D8837276589537B40ABB56D5A41F48F1C6FCD3188C4EB
310
A6929D2FFB89CE995A4D00AE813BDD032DC48B56BD437DFDDC2DD7AED70C2272D63DE9A72068A45A92F0A4BE17A8A06B9366E16707AD80B1FC649459952097E74BB23805982B55E0401150A165964402AA8BDF9F3E7386BB686EDCA780C0D382E5392BF460A6EFB2C6EA1937D3F809B440D5F5435C4C5CF7A9EEFAF54564BD
310
2182DA24162F98680B4E7930C21A0079709CEAEB99A372305ABE0C0D7D6078105A83F6A0296DAEE1068A47DD1C55A9F4C9B2FC69E3EFD44B81028E963DF81B504B0304140006080000B670623B000000000000000000000000350000006662782F45374635344235342D363743322D343832342D383044432D433445464530
310
3536354442422F76657274696365732E62696E504B0304140006080800B670623BF270F1330600000004000000360000006662782F45374635344235342D363743322D343832342D383044432D4334454645303536354442422F747269616E676C65732E62696E636660600000504B0304140006080000B670623B00000000
310
0000000000000000370000006662782F45374635344235342D363743322D343832342D383044432D4334454645303536354442422F617474726962757465732E62696E504B0304140006080800B670623B08DA0BD19000000041010000360000006662782F45374635344235342D363743322D343832342D383044432D4334
310
454645303536354442422F6469726563746F72792E786D6C858F410AC3201045AF22B36F53E9A60B35CBEEBAE80D244E44489C6234F4F835464A48035D0DF398FF9F8AF63D0E6CC63039F212F8F9020C7D47C6792B21C5FE7403D62A1188E2E60C98D7234A5830286103A55745067B9D86B8A3CF9C7F90C11DE607FB144396
310
D7B6A82D282E9A152AD114D5EF2CB866EEE831B8EEA07A7BB5A8D7D61A2BAAEB7FD5F70921FF497D00504B0304140006080800B670623B6378F24DFF000000A00100003B0000006662782F45374635344235342D363743322D343832342D383044432D4334454645303536354442422F7265736F75726365732F636F72652E
310
786D6C8D504B6E833010BD0A9A6D65B0094E42641C85B639412F6099496225D8C89FAAC7AF09546A77DDCC8CDE47F3F4C4F16B7C149FE88371B603565228D06A37187BED20C50BD9437194C23B177FC9A0B06AC40E6618A4B87A97A615D2CE46B431A3D60DB8822A048C50E8473E3A08FA86A32A558A5911EEE5A4F45D5DB1
310
6465A6B34E8A107D0E502C4FE609D26370C96B0CA25A58295232C3AA3143FE692E063D485EF7F5AEE71BD2D2F39634AFFC44DAF7DD9E9CCE6F9CD25DCBFA762BAAD92C4534E34F46ED51451C40D694B6843142EB0FD61C283F34FC85EE0F948A6A96FF31A569F8A729191B37F51A77B105902C0779125254735F793DCBCC7B
310
EE567E03504B010214000A0000080000B670623B3DEE336E79000000790000001B00000000000000000000000000000000006175746F6465736B2D64657369676E2D7061636B6167652E786D6C504B01021400140006080800B670623BD486FD9CA0000000F40000001300000000000000000000000000B20000005B436F6E
310
74656E745F54797065735D2E786D6C504B01021400140006080800B670623BBC1638F5EC0000007C010000080000000000000000000000000083010000636F72652E786D6C504B01021400140006080800B670623B55019EA25F0000007C000000070000000000000000000000000095020000636E782E786D6C504B010214
310
00140006080800B670623B3586FFB671010000D40300000C00000000000000000000000000190300006662782F636F72652E786D6C504B01021400140006080800B670623B4220A0FF7D0000009D0000000B00000000000000000000000000B40400006662782F636E782E786D6C504B01021400140006080800B670623B2F
310
A3FEDE290100001202000031000000000000000000000000005A0500006662782F45374635344235342D363743322D343832342D383044432D4334454645303536354442422F636F72652E786D6C504B01021400140006080800B670623B1B8617914E010000330300003000000000000000000000000000D2060000666278
310
2F45374635344235342D363743322D343832342D383044432D4334454645303536354442422F636E782E786D6C504B01021400140006080800B670623B29652116630500003C10000034000000000000000000000000006E0800006662782F45374635344235342D363743322D343832342D383044432D4334454645303536
310
354442422F6F626A656374732E786D6C504B01021400140006080000B670623B0000000000000000000000003500000000000000000000000000230E00006662782F45374635344235342D363743322D343832342D383044432D4334454645303536354442422F76657274696365732E62696E504B01021400140006080800
310
B670623BF270F13306000000040000003600000000000000000000000000760E00006662782F45374635344235342D363743322D343832342D383044432D4334454645303536354442422F747269616E676C65732E62696E504B01021400140006080000B670623B0000000000000000000000003700000000000000000000
310
000000D00E00006662782F45374635344235342D363743322D343832342D383044432D4334454645303536354442422F617474726962757465732E62696E504B01021400140006080800B670623B08DA0BD190000000410100003600000000000000000000000000250F00006662782F45374635344235342D363743322D34
310
3832342D383044432D4334454645303536354442422F6469726563746F72792E786D6C504B01021400140006080800B670623B6378F24DFF000000A00100003B00000000000000000000000000091000006662782F45374635344235342D363743322D343832342D383044432D4334454645303536354442422F7265736F75
310
726365732F636F72652E786D6C504B0506000000000E000E0080040000611100000000
  0
XRECORD
  5
112
102
{ACAD_REACTORS
330
110
102
}
330
110
100
AcDbXrecord
280
     1
270
     1
271
     1
  0
XRECORD
  5
111
102
{ACAD_REACTORS
330
110
102
}
330
110
100
AcDbXrecord
280
     1
270
     1
271
     1
  0
XRECORD
  5
18A
102
{ACAD_REACTORS
330
110
102
}
330
110
100
AcDbXrecord
280
     1
 70
     0
 90
1778669749
  1
9BF507EE-FAF7-4A99-A33D-4EE51894BC40
310
504B03040A0000080000B670623B3DEE336E79000000790000001B0000006175746F6465736B2D64657369676E2D7061636B6167652E786D6C3C3F786D6C2076657273696F6E3D22312E302220656E636F64696E673D227574662D3822203F3E3C666F726D6174733E3C666F726D61743E687474703A2F2F736368656D612E
310
6175746F6465736B2E636F6D2F64657369676E2D7061636B6167652F323030393C2F666F726D61743E3C2F666F726D6174733E504B0304140006080800B670623BD486FD9CA0000000F4000000130000005B436F6E74656E745F54797065735D2E786D6C7D8EC10E82300C865F65E91D8A1E8C310C0EEA1BF002731658846E
310
D98AC1B77784ABF1D8FE5FBFBF75BBCE937A534CCEB38643598122B6FEE978D0B0485F9C41B54DDD7D022595594E1A469170414C76A4D9A4D207E29CF43ECE46F218070CC6BECC4078ACAA135ACF422C856C0E68EA1BF5669944DDD7BCDE7B1F8E415D77AECB980613C2E4AC91FC167A2B244592486606FC29C8FD7F045B9A
310
EF7053A7E60B504B0304140006080800B670623BCA089DFFEC0000007C01000008000000636F72652E786D6C8D90416E83301045AF62CDB632D8402020E32882F604BD80653BC44AB011B6AB1EBF262152BBEB6A467FFE9B197D76FA9EEFE84BAFDE38DB03CD08206DA553C64E3DC470C1474027CE56E7C22F1B202B66DDC3
310
260367D3EAE2B24BD2D9A06D48AA754AEFA2F05E0740F29E9A1EBCBCEA59642286E4F0B76C11F226269DD15797E0188D42CF2346A57DE662F40ABCAEC77628C6120F654571D50C04B7F5B9C1E3997CD4F550BE3745C3F20DE62C98F9755FAE5A04AD801784B498524C8A4F5A75E4D055873772EC0861F966FF03C545FD138A
310
C686B2D8DF7D621E384D8F3C069CE55B16A93C824A75CB8DFF00504B0304140006080800B670623B55019EA25F0000007C00000007000000636E782E786D6C4DCB3B0E80201045D1AD90E915ED2CF8AC45050C11660C8261F98AB1B07AC9C97D42D718D865D3E909258CFD00CCE24AC6E326A164D74DC0B4128928FF326038
310
472BA13128B1252AC747C6BAB984FC68F0B87FE8960A5C09FE86CFB69FBA01504B0304140006080800B670623B68FC0B7272010000D40300000C0000006662782F636F72652E786D6CC5535B6E833010BC8AE5DF0A6C1E8124328E22D29EA01770C0A128602363A31CBFCB234A53A555FA553EC09AD9F5CE8C31DB5DDA060D
310
D2F4B556190E7C8A9154852E6B5565D8D993B7C668C799D1DA7E29C3488956667884316795D1AE5BA0422B2B950554E9522EA0E87B69312A1A5864B82F3E642B7CE12C54F467BF13C55954D20F7CA0A18EB3DE1A1080E621E31BF3D3F1C2C88C73E65C5D2E6C5DC2B4FA544B8379921C36797888BC3C8A032F4E73EA6D927D
310
EA1DF6F42D49F2E8350D5346C666CE6CDD5ED515460A2B4BCC434A375E1078347C0FE22D5D6DE3D50B5D6F2965642CBF6B725DF96493AB958DC245EEDCD6631E809089F8E61622B2A81703E8219C913144F84C09DF070D8140C8561C9BAB8F3340832CAC363130A576376A108D933095FA747AD0CF0B46E64E983A6D0EAE1F
310
CE089F9EF1FB8E70D44255604258581E9D1D75B259C3125A278D37D80B52DAB4A279CEC62F0EFF44DDC43F9454E8469BFF5244960322CBEF41C6FBC83F01504B0304140006080800B670623B0F71DDB67E0000009D0000000B0000006662782F636E782E786D6C4DCCD10A83201886E15B91FFDCA54DB73F502386BB8F5816
310
32D3703976F9ABD1C18E3E78F87855FB990379BBFCF2296AE02706C4C5471A7C9C349475A408A4352AA7B4FEDD80C47E761A7606A3A69CCA72D0E0C6BE8475D3E0E3F3409428EA6B27A84079A782899AA2EC1A7AE3ECCC2FD858CB2D544655BFD2B67BD87C01504B0304140006080800B670623BE134B4FB28010000120200
310
00310000006662782F38353834323741342D343835462D343034322D383541392D4331303331363839454531452F636F72652E786D6C8D515B6EC32010BC0AE22B55850D0EA424C24451959EA0172086A42831583CAA1CBF503B52FB971F16CDCECC0EACD8DFC71BF836215AEF7A481A0C817183D7D65D7A98D3197108F652
310
04EFD31F1A044E8DA6871586525C82CFD3020DDE25E352419DD76601558C264130DCCAA58771F832A36A544E8511AFCDA486ABBA988634A55D7852C4144A00300FA927949C71DABD1D28A29C7D208A6987383B6CD13BC16BB2E1DBE3911C453B0BA5C8D9EA456E758963CFD684674DAA588A64C747FC2118958C86B2C3788B
310
0841B8FB247487D98EB257CC77188BB6D2FF89F2A49F1465EBD2BA5BE2CEB2082511EDDC9042FB7CBA3DC298FBE4430275DE2A9AE1054ADC60CC08E3A29D89E5F9C5714317C7987C28DFBBBA9E0A97B0D97643A568EB864AF95D5FA9759BF207504B0304140006080800B670623B1B8617914E010000330300003000000066
310
62782F38353834323741342D343835462D343034322D383541392D4331303331363839454531452F636E782E786D6CD593C16EC32010447F0571AD6CE3D489D20813A9877E410FBD62D82434182CC055F3F75D1292E692438FBD206B7698593D61BEFD1E2DF982108D773D6D6B460938E5B571FB9ECE6957AD29D90A1EBC4F
310
77364A9C1CA1A759A682EF839FA72269D8C9D92654AD71C72206887E0E0A22CAF926B15E498B01E0AA19451807D01A34B919F16B070157417138917400F2F6FA41FCF0092A45DEE414C19BDC21783E4BD39D891265658C3D8DEA00A3ACE59CBC8678ACB54CB26EEB6BD7839D7E9348BE70AD9C8321B9BCA7F9A4A26C542347
310
DEE050F09802D22BA6749A800A394DD62899107273365E3C82CFC6A55557BC06C10774B7ABE7AEC3B0F34CF06446280E154026D0542C187BA9DAB6628BF7B6DBB0E5A65B3EB1F58631DE64BBE083F7B65CC218087E22CABB042E51D1F2268F1FE12B3EA24D40D63E9CFE00120194D60B9D5BC67FE6D39CDF37E20AF817881F
310
504B0304140006080800B670623B5933D422630500003B100000340000006662782F38353834323741342D343835462D343034322D383541392D4331303331363839454531452F6F626A656374732E786D6CAD575B6FA33814FE2B887D0642934E9B156594264D158D3A534DD4D13E548A0C38942D60649B4EBABF7E3F8321
310
40924EF6928780CDF1B97EE762EFF32E4B8D37CA45C2F21BD3B547A641F39045491EDF98A5DC5AD7A6F1D9F73863B243661A39C9E88DA9B64DDF8B392B0BBD15D12D295339D85DDEFE618890E6D434C2940871638AF08566C426A5641115AF764424B1E3EDCE76ED9AB0CF36E6A47819302D08A7B984A6D8CFC1C5A89572FB
310
CB91E9F89EA3BEFB9EFAD754E3D3544E654F5F7E920B49F2F040D880CDD89D2CEE2E2EA7D6E56432B6269F2E5CEB7679BBB0DCABF168FE693E9FCEEEA6102C240727AD09A75BD3BF876F78127A4EFDA9D5582B7E4CA590E5390D2BFB6161A5B3E618D182E611E2985001691DAB47FDA5AB7CD3F93C566B2DB2BB7D9E55DD13
310
1D468DEECDB3AB290BFE8409E21C54704115AA6AFF68436BFC8DF65E0B184BF5B74418199194272435D224E084BF9B3E481589EFF5D828747285706581E9BB7B7E5D5D911ABFC6EE312DB7659A2A689A7E85EC0DF04FA5A8344BFEA2FCB834E8845895492EAFB541F2BDA0A63FF59C6AD3F7D4637CA13FD68E34B629891172
310
98597F1D183A57B9B75A98FE9765B05BAB7C3C2EBCE0ACA05C2AF8005A4DE09AA7F29216EB9E15397500C6F47CBE77CA7778FE2BD277AF0AE2C693DD6437D1522427B9D8329E2136F6A8FA19A3E6C56ADF0E5F50CF06D48734EDCEBF22F69C56D97EC138153F804B85E6FABFC7AFEFB32E523BE1F3BD372418E363EDCA7548
310
52949E8724474014288D94610BB57C1BEC4C7F854A89CA8E5324F55B871CBC78CE1BBEE3BFE68D6A5589EF3C730474506FCFA8FCF0659516D0ED04580EEA6425581B77CAE797FF4BCECC16EB2FEB926F49481F746159D06D922712BD730FDEAE42BD40F42C7AA5EF3F198F60E86110D6DD20645A9480B795CF95E3E3A659A8
310
C55E724F408873315335CFFB8584874484344D494E59D94869DB90C26A5B64F49C802CAC1D3ABE18A098D3B7444D123D8A9E5AE8F5214F0AE5B2B6E9B575DA3E61CBD3EA2B4009FA940524DD1305FB6A1FB294F14DF0BEA90BA109ECE1481FDC3FFAE8D60E75141700BE82725371B4873751B2DD960265F788137FACE6DD40
310
B575E4F0A5C99F46629D92131467A41EE11ABD8D4CCC039CA0AFB37C93A08B232B8F0AEFCA1E0A1015DF13FC83322B362463652ECF71D3A8B1A7D1BE65DE1D62C44F22C317D35F574FEB16153BA2D13E543D10A80E74C4A65E78A6B7CBCBD1D5DD9DB59C2DAFACC96C3AB566E3F1C29ADCDD5DBAD7D3C9ED7C822ED74F80A6
310
41755310DE4443F44A9E68373FADF6596BFA0F440AE7BECE2727AE9F4F2B1B53B1E7E00CF0DD1E5C65454A339A4BA2D0FBA05ED2EF0443458F47BDBFCA484CCFE0F2ED7E3DD0013B679C7B5499467F0ECEEADDB9CA85A34CE44B99053949D2C1416DB85DE4B136BB7165FBAC0B7AB3542BED4F8CA182A549847A1319316519
310
95A83A67147B9E5101C47487F2485F1ECE38FD568F839204296D3479219888530154036E6528FBFBC66F98E0D4107563A2D7D9AFF8D389681A08F58D89F22693900A3B407754734FC51C10C010D6D640809EE4718AC1BA3ED4AEDB53CA37283F68805A7E4B72CEB0A4EDEAD5DD8C14059A76AFAA56BA6901E13F32BC51C720
310
12AF41295B5BF61BAD3195181FB506E6B40F4C10AF5AF40EF9F5B159AE5DD1F43C72D635E94310D45C2D49785C5D0B94D3B54AB3C5A38349C0587D338AB48C11CBF339599C02CCA54A70A008A8D03C0B2201D5F9EFCF8F9CE12A9A19CB0410789EB32C63B95ECCF455D658BFE0621A3DA32C5075FB101723D77DAE867E7D0F
310
D90444509B44E2151B4DC2290B065803200FBAA9BE9D392A0603F2D5C2D00D6302A615680F66D2FA166E2079D4C551A54AB758161FCEFD4E450A14704CECFEDF504B0304140006080000B670623B000000000000000000000000350000006662782F38353834323741342D343835462D343034322D383541392D4331303331
310
363839454531452F76657274696365732E62696E504B0304140006080800B670623BF270F1330600000004000000360000006662782F38353834323741342D343835462D343034322D383541392D4331303331363839454531452F747269616E676C65732E62696E636660600000504B0304140006080000B670623B000000
310
000000000000000000370000006662782F38353834323741342D343835462D343034322D383541392D4331303331363839454531452F617474726962757465732E62696E504B0304140006080800B670623B08DA0BD19000000041010000360000006662782F38353834323741342D343835462D343034322D383541392D43
310
31303331363839454531452F6469726563746F72792E786D6C858F410AC3201045AF22B36F53E9A60B35CBEEBAE80D244E44489C6234F4F835464A48035D0DF398FF9F8AF63D0E6CC63039F212F8F9020C7D47C6792B21C5FE7403D62A1188E2E60C98D7234A5830286103A55745067B9D86B8A3CF9C7F90C11DE607FB1443
310
96D7B6A82D282E9A152AD114D5EF2CB866EEE831B8EEA07A7BB5A8D7D61A2BAAEB7FD5F70921FF497D00504B0304140006080800B670623BD9A3B367FE000000A00100003B0000006662782F38353834323741342D343835462D343034322D383541392D4331303331363839454531452F7265736F75726365732F636F7265
310
2E786D6C8D504B6E833010BD0A9A6D65B01D0201194711694FD00B586642AD043BF2A7EAF16B122AB5BB6E6646EFA3797AE2F8B5DC8A4FF4C1383B002B291468B59B8C9D0748F1420E501CA5F0CEC55F3228AC5A708015062966EFD27D83B4B3116DCCA875136EA00A012314FA968F0182FEC045952AC5AC08D7F2AEF455CD
310
58B232D3592745883E07289E4FD609D26370C96B0CA27AB252A464A64D63A6FCD35C0C7A904D73EE467EE664DCD58CD4ED4849D79C5A723ED1B7A61977AF2D6F45B59AA58866F9C9A83DAA8813484E6947182394BFB3BAA7FBBEDEBFD0434FA9A856F91F53BA4FFF342563E38E6F719FB60092E5200F428A6AED2BAF479979
310
AFDDCA6F504B010214000A0000080000B670623B3DEE336E79000000790000001B00000000000000000000000000000000006175746F6465736B2D64657369676E2D7061636B6167652E786D6C504B01021400140006080800B670623BD486FD9CA0000000F40000001300000000000000000000000000B20000005B436F6E
310
74656E745F54797065735D2E786D6C504B01021400140006080800B670623BCA089DFFEC0000007C010000080000000000000000000000000083010000636F72652E786D6C504B01021400140006080800B670623B55019EA25F0000007C000000070000000000000000000000000095020000636E782E786D6C504B010214
310
00140006080800B670623B68FC0B7272010000D40300000C00000000000000000000000000190300006662782F636F72652E786D6C504B01021400140006080800B670623B0F71DDB67E0000009D0000000B00000000000000000000000000B50400006662782F636E782E786D6C504B01021400140006080800B670623BE1
310
34B4FB280100001202000031000000000000000000000000005C0500006662782F38353834323741342D343835462D343034322D383541392D4331303331363839454531452F636F72652E786D6C504B01021400140006080800B670623B1B8617914E010000330300003000000000000000000000000000D3060000666278
310
2F38353834323741342D343835462D343034322D383541392D4331303331363839454531452F636E782E786D6C504B01021400140006080800B670623B5933D422630500003B10000034000000000000000000000000006F0800006662782F38353834323741342D343835462D343034322D383541392D4331303331363839
310
454531452F6F626A656374732E786D6C504B01021400140006080000B670623B0000000000000000000000003500000000000000000000000000240E00006662782F38353834323741342D343835462D343034322D383541392D4331303331363839454531452F76657274696365732E62696E504B01021400140006080800
310
B670623BF270F13306000000040000003600000000000000000000000000770E00006662782F38353834323741342D343835462D343034322D383541392D4331303331363839454531452F747269616E676C65732E62696E504B01021400140006080000B670623B0000000000000000000000003700000000000000000000
310
000000D10E00006662782F38353834323741342D343835462D343034322D383541392D4331303331363839454531452F617474726962757465732E62696E504B01021400140006080800B670623B08DA0BD190000000410100003600000000000000000000000000260F00006662782F38353834323741342D343835462D34
310
3034322D383541392D4331303331363839454531452F6469726563746F72792E786D6C504B01021400140006080800B670623BD9A3B367FE000000A00100003B000000000000000000000000000A1000006662782F38353834323741342D343835462D343034322D383541392D4331303331363839454531452F7265736F75
310
726365732F636F72652E786D6C504B0506000000000E000E0080040000611100000000
  0
XRECORD
  5
113
102
{ACAD_REACTORS
330
110
102
}
330
110
100
AcDbXrecord
280
     1
270
     1
271
     1
  0
XRECORD
  5
114
102
{ACAD_REACTORS
330
110
102
}
330
110
100
AcDbXrecord
280
     1
270
     1
271
     1
  0
CELLSTYLEMAP
  5
6B289
102
{ACAD_REACTORS
330
104
102
}
330
104
100
AcDbCellStyleMap
 90
        3
300
CELLSTYLE
  1
TABLEFORMAT_BEGIN
 90
        5
170
     1
 91
        0
 92
    32768
 62
   257
 93
        1
300
CONTENTFORMAT
  1
CONTENTFORMAT_BEGIN
 90
        0
 91
        0
 92
      512
 93
        0
300

 40
0.0
140
1.0
 94
        5
 62
     0
340
11
144
0.25
309
CONTENTFORMAT_END
171
     1
301
MARGIN
  1
CELLMARGIN_BEGIN
 40
0.06
 40
0.06
 40
0.06
 40
0.06
 40
0.18
 40
0.18
309
CELLMARGIN_END
 94
        6
 95
        1
302
GRIDFORMAT
  1
GRIDFORMAT_BEGIN
 90
        0
 91
        1
 62
     0
 92
       -2
340
0
 93
        0
 40
0.045
309
GRIDFORMAT_END
 95
        2
302
GRIDFORMAT
  1
GRIDFORMAT_BEGIN
 90
        0
 91
        1
 62
     0
 92
       -2
340
0
 93
        0
 40
0.045
309
GRIDFORMAT_END
 95
        4
302
GRIDFORMAT
  1
GRIDFORMAT_BEGIN
 90
        0
 91
        1
 62
     0
 92
       -2
340
0
 93
        0
 40
0.045
309
GRIDFORMAT_END
 95
        8
302
GRIDFORMAT
  1
GRIDFORMAT_BEGIN
 90
        0
 91
        1
 62
     0
 92
       -2
340
0
 93
        0
 40
0.045
309
GRIDFORMAT_END
 95
       16
302
GRIDFORMAT
  1
GRIDFORMAT_BEGIN
 90
        0
 91
        1
 62
     0
 92
       -2
340
0
 93
        0
 40
0.045
309
GRIDFORMAT_END
 95
       32
302
GRIDFORMAT
  1
GRIDFORMAT_BEGIN
 90
        0
 91
        1
 62
     0
 92
       -2
340
0
 93
        0
 40
0.045
309
GRIDFORMAT_END
309
TABLEFORMAT_END
  1
CELLSTYLE_BEGIN
 90
        1
 91
        1
300
_TITLE
309
CELLSTYLE_END
300
CELLSTYLE
  1
TABLEFORMAT_BEGIN
 90
        5
170
     1
 91
        0
 92
        0
 62
   257
 93
        1
300
CONTENTFORMAT
  1
CONTENTFORMAT_BEGIN
 90
        0
 91
        0
 92
      512
 93
        0
300

 40
0.0
140
1.0
 94
        5
 62
     0
340
11
144
0.18
309
CONTENTFORMAT_END
171
     1
301
MARGIN
  1
CELLMARGIN_BEGIN
 40
0.06
 40
0.06
 40
0.06
 40
0.06
 40
0.18
 40
0.18
309
CELLMARGIN_END
 94
        6
 95
        1
302
GRIDFORMAT
  1
GRIDFORMAT_BEGIN
 90
        0
 91
        1
 62
     0
 92
       -2
340
0
 93
        0
 40
0.045
309
GRIDFORMAT_END
 95
        2
302
GRIDFORMAT
  1
GRIDFORMAT_BEGIN
 90
        0
 91
        1
 62
     0
 92
       -2
340
0
 93
        0
 40
0.045
309
GRIDFORMAT_END
 95
        4
302
GRIDFORMAT
  1
GRIDFORMAT_BEGIN
 90
        0
 91
        1
 62
     0
 92
       -2
340
0
 93
        0
 40
0.045
309
GRIDFORMAT_END
 95
        8
302
GRIDFORMAT
  1
GRIDFORMAT_BEGIN
 90
        0
 91
        1
 62
     0
 92
       -2
340
0
 93
        0
 40
0.045
309
GRIDFORMAT_END
 95
       16
302
GRIDFORMAT
  1
GRIDFORMAT_BEGIN
 90
        0
 91
        1
 62
     0
 92
       -2
340
0
 93
        0
 40
0.045
309
GRIDFORMAT_END
 95
       32
302
GRIDFORMAT
  1
GRIDFORMAT_BEGIN
 90
        0
 91
        1
 62
     0
 92
       -2
340
0
 93
        0
 40
0.045
309
GRIDFORMAT_END
309
TABLEFORMAT_END
  1
CELLSTYLE_BEGIN
 90
        2
 91
        1
300
_HEADER
309
CELLSTYLE_END
300
CELLSTYLE
  1
TABLEFORMAT_BEGIN
 90
        5
170
     1
 91
        0
 92
        0
 62
   257
 93
        1
300
CONTENTFORMAT
  1
CONTENTFORMAT_BEGIN
 90
        0
 91
        0
 92
      512
 93
        0
300

 40
0.0
140
1.0
 94
        2
 62
     0
340
11
144
0.18
309
CONTENTFORMAT_END
171
     1
301
MARGIN
  1
CELLMARGIN_BEGIN
 40
0.06
 40
0.06
 40
0.06
 40
0.06
 40
0.18
 40
0.18
309
CELLMARGIN_END
 94
        6
 95
        1
302
GRIDFORMAT
  1
GRIDFORMAT_BEGIN
 90
        0
 91
        1
 62
     0
 92
       -2
340
0
 93
        0
 40
0.045
309
GRIDFORMAT_END
 95
        2
302
GRIDFORMAT
  1
GRIDFORMAT_BEGIN
 90
        0
 91
        1
 62
     0
 92
       -2
340
0
 93
        0
 40
0.045
309
GRIDFORMAT_END
 95
        4
302
GRIDFORMAT
  1
GRIDFORMAT_BEGIN
 90
        0
 91
        1
 62
     0
 92
       -2
340
0
 93
        0
 40
0.045
309
GRIDFORMAT_END
 95
        8
302
GRIDFORMAT
  1
GRIDFORMAT_BEGIN
 90
        0
 91
        1
 62
     0
 92
       -2
340
0
 93
        0
 40
0.045
309
GRIDFORMAT_END
 95
       16
302
GRIDFORMAT
  1
GRIDFORMAT_BEGIN
 90
        0
 91
        1
 62
     0
 92
       -2
340
0
 93
        0
 40
0.045
309
GRIDFORMAT_END
 95
       32
302
GRIDFORMAT
  1
GRIDFORMAT_BEGIN
 90
        0
 91
        1
 62
     0
 92
       -2
340
0
 93
        0
 40
0.045
309
GRIDFORMAT_END
309
TABLEFORMAT_END
  1
CELLSTYLE_BEGIN
 90
        3
 91
        2
300
_DATA
309
CELLSTYLE_END
  0
ENDSEC
  0
SECTION
  2
ACDSDATA
 70
     2
 71
     8
  0
ACDSSCHEMA
 90
        0
  1
AcDb_Thumbnail_Schema
  2
AcDbDs::ID
280
    10
 91
        8
  2
Thumbnail_Data
280
    15
 91
        0
101
ACDSRECORD
 95
        0
 90
        1
  2
AcDbDs::TreatedAsObjectData
280
     1
291
     1
101
ACDSRECORD
 95
        0
 90
        2
  2
AcDbDs::Legacy
280
     1
291
     1
101
ACDSRECORD
  1
AcDbDs::ID
 90
        3
  2
AcDs:Indexable
280
     1
291
     1
101
ACDSRECORD
  1
AcDbDs::ID
 90
        4
  2
AcDbDs::HandleAttribute
280
     7
282
     1
  0
ACDSSCHEMA
 90
        1
  1
AcDbDs::TreatedAsObjectDataSchema
  2
AcDbDs::TreatedAsObjectData
280
     1
 91
        0
  0
ACDSSCHEMA
 90
        2
  1
AcDbDs::LegacySchema
  2
AcDbDs::Legacy
280
     1
 91
        0
  0
ACDSSCHEMA
 90
        3
  1
AcDbDs::IndexedPropertySchema
  2
AcDs:Indexable
280
     1
 91
        0
  0
ACDSSCHEMA
 90
        4
  1
AcDbDs::HandleAttributeSchema
  2
AcDbDs::HandleAttribute
280
     7
 91
        1
284
     1
  0
ACDSSCHEMA
 90
        5
  1
AcDb3DSolid_ASM_Data
  2
AcDbDs::ID
280
    10
 91
        8
  2
ASM_Data
280
    15
 91
        0
101
ACDSRECORD
 95
        5
 90
        1
  2
AcDbDs::TreatedAsObjectData
280
     1
291
     1
101
ACDSRECORD
 95
        5
 90
        2
  2
AcDbDs::Legacy
280
     1
291
     1
101
ACDSRECORD
  1
AcDbDs::ID
 90
        3
  2
AcDs:Indexable
280
     1
291
     1
101
ACDSRECORD
  1
AcDbDs::ID
 90
        4
  2
AcDbDs::HandleAttribute
280
     7
282
     1
  0
ACDSRECORD
 90
        0
  2
AcDbDs::ID
280
    10
320
22
  2
Thumbnail_Data
280
    15
 94
     1666
310
89504E470D0A1A0A0000000D49484452000001000000006C0803000000B2ED9CC100000300504C5445212830FFFFFF2128300000000000000000000000000000000000000000000000000000330000660000990000CC0000FF0033000033330033660033990033CC0033FF0066000066330066660066990066CC0066FF0099
310
000099330099660099990099CC0099FF00CC0000CC3300CC6600CC9900CCCC00CCFF00FF0000FF3300FF6600FF9900FFCC00FFFF3300003300333300663300993300CC3300FF3333003333333333663333993333CC3333FF3366003366333366663366993366CC3366FF3399003399333399663399993399CC3399FF33CC00
310
33CC3333CC6633CC9933CCCC33CCFF33FF0033FF3333FF6633FF9933FFCC33FFFF6600006600336600666600996600CC6600FF6633006633336633666633996633CC6633FF6666006666336666666666996666CC6666FF6699006699336699666699996699CC6699FF66CC0066CC3366CC6666CC9966CCCC66CCFF66FF0066
310
FF3366FF6666FF9966FFCC66FFFF9900009900339900669900999900CC9900FF9933009933339933669933999933CC9933FF9966009966339966669966999966CC9966FF9999009999339999669999999999CC9999FF99CC0099CC3399CC6699CC9999CCCC99CCFF99FF0099FF3399FF6699FF9999FFCC99FFFFCC0000CC00
310
33CC0066CC0099CC00CCCC00FFCC3300CC3333CC3366CC3399CC33CCCC33FFCC6600CC6633CC6666CC6699CC66CCCC66FFCC9900CC9933CC9966CC9999CC99CCCC99FFCCCC00CCCC33CCCC66CCCC99CCCCCCCCCCFFCCFF00CCFF33CCFF66CCFF99CCFFCCCCFFFFFF0000FF0033FF0066FF0099FF00CCFF00FFFF3300FF3333
310
FF3366FF3399FF33CCFF33FFFF6600FF6633FF6666FF6699FF66CCFF66FFFF9900FF9933FF9966FF9999FF99CCFF99FFFFCC00FFCC33FFCC66FFCC99FFCCCCFFCCFFFFFF00FFFF33FFFF66FFFF99FFFFCCFFFFFF0000000D0D0D1A1A1A2828283535354343435050505D5D5D6B6B6B787878868686939393A1A1A1AEAEAEBB
310
BBBBC9C9C9D6D6D6E4E4E4F1F1F1FFFFFF0000000000000000000000000000000000000000000000000000000000002E4550F1000000CD4944415478DAEDD8CB0E8320100550FFFF7F67DFA6A63E2A4981B48903E7AC5CB8702E3080CB0200000000000000000000DC44444C5BF8CBA4197C961C338CF5D1E59D19C67A7B2A
310
553B6C02F1F31705906BF1B7758A31977CF50C18218075183B47337B0071A8FEF9D05E4EEA000E67BA6B0015132292F780F5DBDF95C71E42755DD9A77FF1D0F78FEDF2DECDBFBF09E40FE074B99B6F06942F3E1306B0B5C3D65D6DA000BE9F8563B823506520FB7DF814CCE83F84A2B045F6B6CADC9D710100000000000000
310
0000003A3D00DEC2F9CA2C8DFA270000000049454E44AE42608271075D0C0A01A03BC4DCEE7D5C4F3801D015C44C5864438B6974A576F4984356F0920613A82600D18B5A7817757455EFE14E828099EA5006923A6E2A63B9B897960044EC54055317D4F453114D5B4FD910C1975C0250074070A4660280E0452C011801F812
310
D1CB77CA0940D614C15ECA16C0434C378F952400715B044BA104E000C04D542D9D04E00300C1462601B80150C4D55149009E009C02AB882400670008AA1A09C01F803DB482842B007804B0C60D91CF2F9E2F7FB1C23DC1579225015C3F890CE05202B8F9242E001C5FF3827301006B5440D9FC87A325E680CBB4BF3A80E341
310
024800126BCED8DCCAFE0BC89323148B0004169DB1773E315BC236EF7D16429C74C0FC8810FAB822E4686C54F4D26BA9A9E2DD7790D975BD451A1FD53D220800A0797E05CB04E203000DE41FA502A8BD05F61574D1160836078CE58FF12DE253CECF072C2F70EA6F011040B1F60060AF8009C658FE140940F746886607B0F5
310
F2D84660BD1618B88A08D2027100640B8C5D0B2DBC0AC45A06BBF6C2581840B855A0358D18E98F251203406F1A612A80B202BAD38891FF580B500000D49D4988F37FAC813E72214627000A3582A5C338FE00598ED82311F33F3A0000000049454E44AE4260820F467818FD4AC64A010000000049454E44AE42608200187F52
310
539FF6AC0FF2D01229B97F7B56AE64E8787DBF9E93B283504D4929EEDB336DE133B927D0B706F146D8FDD54728002424931276690CDE5FFA471401522320E6FA719CDCC9E90D234F422DA512220CD4066298BF969A4028B717C4D481E25C1BC6C59A99842240E2F24B1F92F8AC20F021F00EFE737AFD0FDF7E00E9E9886BC5
310
1247A50000000049454E44AE426082
  0
ENDSEC
  0
EOF
