  0
SECTION
  2
HEADER
  9
$ACADVER
  1
AC1032
  9
$ACADMAINTVER
 90
      197
  9
$DWGCODEPAGE
  3
ANSI_1252
  9
$LASTSAVEDBY
  1
gregb
  9
$REQUIREDVERSIONS
160
                 0
  9
$INSBASE
 10
0.0
 20
0.0
 30
0.0
  9
$EXTMIN
 10
105018.7582350779
 20
95050.76823679546
 30
0.0
  9
$EXTMAX
 10
105022.2582350779
 20
95052.80794719432
 30
0.0
  9
$LIMMIN
 10
0.0
 20
0.0
  9
$LIMMAX
 10
12.0
 20
9.0
  9
$ORTHOMODE
 70
     1
  9
$REGENMODE
 70
     1
  9
$FILLMODE
 70
     1
  9
$QTEXTMODE
 70
     0
  9
$MIRRTEXT
 70
     0
  9
$LTSCALE
 40
1.0
  9
$ATTMODE
 70
     1
  9
$TEXTSIZE
 40
0.2
  9
$TRACEWID
 40
0.05
  9
$TEXTSTYLE
  7
Standard
  9
$CLAYER
  8
freecads.com
  9
$CELTYPE
  6
ByLayer
  9
$CECOLOR
 62
   256
  9
$CELTSCALE
 40
1.0
  9
$DISPSILH
 70
     1
  9
$DIMSCALE
 40
1.0
  9
$DIMASZ
 40
0.18
  9
$DIMEXO
 40
0.0625
  9
$DIMDLI
 40
0.38
  9
$DIMRND
 40
0.0
  9
$DIMDLE
 40
0.0
  9
$DIMEXE
 40
0.18
  9
$DIMTP
 40
0.0
  9
$DIMTM
 40
0.0
  9
$DIMTXT
 40
0.18
  9
$DIMCEN
 40
0.09
  9
$DIMTSZ
 40
0.0
  9
$DIMTOL
 70
     0
  9
$DIMLIM
 70
     0
  9
$DIMTIH
 70
     1
  9
$DIMTOH
 70
     1
  9
$DIMSE1
 70
     0
  9
$DIMSE2
 70
     0
  9
$DIMTAD
 70
     0
  9
$DIMZIN
 70
     0
  9
$DIMBLK
  1

  9
$DIMASO
 70
     1
  9
$DIMSHO
 70
     1
  9
$DIMPOST
  1

  9
$DIMAPOST
  1

  9
$DIMALT
 70
     0
  9
$DIMALTD
 70
     2
  9
$DIMALTF
 40
25.4
  9
$DIMLFAC
 40
1.0
  9
$DIMTOFL
 70
     0
  9
$DIMTVP
 40
0.0
  9
$DIMTIX
 70
     0
  9
$DIMSOXD
 70
     0
  9
$DIMSAH
 70
     0
  9
$DIMBLK1
  1

  9
$DIMBLK2
  1

  9
$DIMSTYLE
  2
Standard
  9
$DIMCLRD
 70
     0
  9
$DIMCLRE
 70
     0
  9
$DIMCLRT
 70
     0
  9
$DIMTFAC
 40
1.0
  9
$DIMGAP
 40
0.09
  9
$DIMJUST
 70
     0
  9
$DIMSD1
 70
     0
  9
$DIMSD2
 70
     0
  9
$DIMTOLJ
 70
     1
  9
$DIMTZIN
 70
     0
  9
$DIMALTZ
 70
     0
  9
$DIMALTTZ
 70
     0
  9
$DIMUPT
 70
     0
  9
$DIMDEC
 70
     4
  9
$DIMTDEC
 70
     4
  9
$DIMALTU
 70
     2
  9
$DIMALTTD
 70
     2
  9
$DIMTXSTY
  7
Standard
  9
$DIMAUNIT
 70
     0
  9
$DIMADEC
 70
     0
  9
$DIMALTRND
 40
0.0
  9
$DIMAZIN
 70
     0
  9
$DIMDSEP
 70
    46
  9
$DIMATFIT
 70
     3
  9
$DIMFRAC
 70
     0
  9
$DIMLDRBLK
  1

  9
$DIMLUNIT
 70
     2
  9
$DIMLWD
 70
    -2
  9
$DIMLWE
 70
    -2
  9
$DIMTMOVE
 70
     0
  9
$DIMFXL
 40
1.0
  9
$DIMFXLON
 70
     0
  9
$DIMJOGANG
 40
0.7853981633974483
  9
$DIMTFILL
 70
     0
  9
$DIMTFILLCLR
 70
     0
  9
$DIMARCSYM
 70
     0
  9
$DIMLTYPE
  6

  9
$DIMLTEX1
  6

  9
$DIMLTEX2
  6

  9
$DIMTXTDIRECTION
 70
     0
  9
$LUNITS
 70
     2
  9
$LUPREC
 70
     4
  9
$SKETCHINC
 40
0.1
  9
$FILLETRAD
 40
0.0
  9
$AUNITS
 70
     0
  9
$AUPREC
 70
     0
  9
$MENU
  1
.
  9
$ELEVATION
 40
0.0
  9
$PELEVATION
 40
0.0
  9
$THICKNESS
 40
0.0
  9
$LIMCHECK
 70
     0
  9
$CHAMFERA
 40
0.0
  9
$CHAMFERB
 40
0.0
  9
$CHAMFERC
 40
0.0
  9
$CHAMFERD
 40
0.0
  9
$SKPOLY
 70
     0
  9
$TDCREATE
 40
2458157.454583334
  9
$TDUCREATE
 40
2458157.287916667
  9
$TDUPDATE
 40
2460668.786701389
  9
$TDUUPDATE
 40
2460668.620034722
  9
$TDINDWG
 40
0.1777893519
  9
$TDUSRTIMER
 40
0.1777893519
  9
$USRTIMER
 70
     1
  9
$ANGBASE
 50
0.0
  9
$ANGDIR
 70
     0
  9
$PDMODE
 70
     0
  9
$PDSIZE
 40
0.0
  9
$PLINEWID
 40
0.0
  9
$SPLFRAME
 70
     0
  9
$SPLINETYPE
 70
     6
  9
$SPLINESEGS
 70
     8
  9
$HANDSEED
  5
4FAA9
  9
$SURFTAB1
 70
     6
  9
$SURFTAB2
 70
     6
  9
$SURFTYPE
 70
     6
  9
$SURFU
 70
     6
  9
$SURFV
 70
     6
  9
$UCSBASE
  2

  9
$UCSNAME
  2

  9
$UCSORG
 10
0.0
 20
0.0
 30
0.0
  9
$UCSXDIR
 10
1.0
 20
0.0
 30
0.0
  9
$UCSYDIR
 10
0.0
 20
1.0
 30
0.0
  9
$UCSORTHOREF
  2

  9
$UCSORTHOVIEW
 70
     0
  9
$UCSORGTOP
 10
0.0
 20
0.0
 30
0.0
  9
$UCSORGBOTTOM
 10
0.0
 20
0.0
 30
0.0
  9
$UCSORGLEFT
 10
0.0
 20
0.0
 30
0.0
  9
$UCSORGRIGHT
 10
0.0
 20
0.0
 30
0.0
  9
$UCSORGFRONT
 10
0.0
 20
0.0
 30
0.0
  9
$UCSORGBACK
 10
0.0
 20
0.0
 30
0.0
  9
$PUCSBASE
  2

  9
$PUCSNAME
  2

  9
$PUCSORG
 10
0.0
 20
0.0
 30
0.0
  9
$PUCSXDIR
 10
1.0
 20
0.0
 30
0.0
  9
$PUCSYDIR
 10
0.0
 20
1.0
 30
0.0
  9
$PUCSORTHOREF
  2

  9
$PUCSORTHOVIEW
 70
     0
  9
$PUCSORGTOP
 10
0.0
 20
0.0
 30
0.0
  9
$PUCSORGBOTTOM
 10
0.0
 20
0.0
 30
0.0
  9
$PUCSORGLEFT
 10
0.0
 20
0.0
 30
0.0
  9
$PUCSORGRIGHT
 10
0.0
 20
0.0
 30
0.0
  9
$PUCSORGFRONT
 10
0.0
 20
0.0
 30
0.0
  9
$PUCSORGBACK
 10
0.0
 20
0.0
 30
0.0
  9
$USERI1
 70
     0
  9
$USERI2
 70
     0
  9
$USERI3
 70
     0
  9
$USERI4
 70
     0
  9
$USERI5
 70
     0
  9
$USERR1
 40
0.0
  9
$USERR2
 40
0.0
  9
$USERR3
 40
0.0
  9
$USERR4
 40
0.0
  9
$USERR5
 40
0.0
  9
$WORLDVIEW
 70
     1
  9
$SHADEDGE
 70
     3
  9
$SHADEDIF
 70
    70
  9
$TILEMODE
 70
     1
  9
$MAXACTVP
 70
    64
  9
$PINSBASE
 10
0.0
 20
0.0
 30
0.0
  9
$PLIMCHECK
 70
     0
  9
$PEXTMIN
 10
0.0
 20
0.0
 30
0.0
  9
$PEXTMAX
 10
0.0
 20
0.0
 30
0.0
  9
$PLIMMIN
 10
0.0
 20
0.0
  9
$PLIMMAX
 10
12.0
 20
9.0
  9
$UNITMODE
 70
     0
  9
$VISRETAIN
 70
     1
  9
$PLINEGEN
 70
     0
  9
$PSLTSCALE
 70
     1
  9
$TREEDEPTH
 70
  3020
  9
$CMLSTYLE
  2
Standard
  9
$CMLJUST
 70
     0
  9
$CMLSCALE
 40
1.0
  9
$PROXYGRAPHICS
 70
     1
  9
$MEASUREMENT
 70
     0
  9
$CELWEIGHT
370
    -1
  9
$ENDCAPS
280
     0
  9
$JOINSTYLE
280
     0
  9
$LWDISPLAY
290
     0
  9
$INSUNITS
 70
     1
  9
$HYPERLINKBASE
  1

  9
$STYLESHEET
  1
monochrome.ctb
  9
$XEDIT
290
     1
  9
$CEPSNTYPE
380
     0
  9
$PSTYLEMODE
290
     1
  9
$FINGERPRINTGUID
  2
{358EB121-6EE0-9143-8A3E-6E8E8869FDA6}
  9
$VERSIONGUID
  2
{5226A7D7-9F94-7E43-8325-EE0E6F98A8DC}
  9
$EXTNAMES
290
     1
  9
$PSVPSCALE
 40
0.0
  9
$OLESTARTUP
290
     0
  9
$SORTENTS
280
   127
  9
$INDEXCTL
280
     0
  9
$HIDETEXT
280
     1
  9
$XCLIPFRAME
280
     2
  9
$HALOGAP
280
     0
  9
$OBSCOLOR
 70
   257
  9
$OBSLTYPE
280
     0
  9
$INTERSECTIONDISPLAY
280
     0
  9
$INTERSECTIONCOLOR
 70
   257
  9
$DIMASSOC
280
     2
  9
$PROJECTNAME
  1

  9
$CAMERADISPLAY
290
     0
  9
$LENSLENGTH
 40
50.0
  9
$CAMERAHEIGHT
 40
0.0
  9
$STEPSPERSEC
 40
2.0
  9
$STEPSIZE
 40
6.0
  9
$3DDWFPREC
 40
2.0
  9
$PSOLWIDTH
 40
0.25
  9
$PSOLHEIGHT
 40
4.0
  9
$LOFTANG1
 40
1.570796326794896
  9
$LOFTANG2
 40
1.570796326794896
  9
$LOFTMAG1
 40
0.0
  9
$LOFTMAG2
 40
0.0
  9
$LOFTPARAM
 70
     7
  9
$LOFTNORMALS
280
     1
  9
$LATITUDE
 40
37.795
  9
$LONGITUDE
 40
-122.394
  9
$NORTHDIRECTION
 40
0.0
  9
$TIMEZONE
 70
 -8000
  9
$LIGHTGLYPHDISPLAY
280
     1
  9
$TILEMODELIGHTSYNCH
280
     1
  9
$CMATERIAL
347
96
  9
$SOLIDHIST
280
     0
  9
$SHOWHIST
280
     1
  9
$DWFFRAME
280
     2
  9
$DGNFRAME
280
     0
  9
$REALWORLDSCALE
290
     1
  9
$INTERFERECOLOR
 62
     1
  9
$INTERFEREOBJVS
345
A3
  9
$INTERFEREVPVS
346
A0
  9
$CSHADOW
280
     0
  9
$SHADOWPLANELOCATION
 40
0.0
  0
ENDSEC
  0
SECTION
  2
CLASSES
  0
CLASS
  1
ACDBDICTIONARYWDFLT
  2
AcDbDictionaryWithDefault
  3
ObjectDBX Classes
 90
        0
 91
        1
280
     0
281
     0
  0
CLASS
  1
DICTIONARYVAR
  2
AcDbDictionaryVar
  3
ObjectDBX Classes
 90
        0
 91
      404
280
     0
281
     0
  0
CLASS
  1
TABLESTYLE
  2
AcDbTableStyle
  3
ObjectDBX Classes
 90
     4095
 91
        1
280
     0
281
     0
  0
CLASS
  1
MATERIAL
  2
AcDbMaterial
  3
ObjectDBX Classes
 90
     1153
 91
        3
280
     0
281
     0
  0
CLASS
  1
VISUALSTYLE
  2
AcDbVisualStyle
  3
ObjectDBX Classes
 90
     4095
 91
       25
280
     0
281
     0
  0
CLASS
  1
SCALE
  2
AcDbScale
  3
ObjectDBX Classes
 90
     1153
 91
       34
280
     0
281
     0
  0
CLASS
  1
MLEADERSTYLE
  2
AcDbMLeaderStyle
  3
ACDB_MLEADERSTYLE_CLASS
 90
     4095
 91
        1
280
     0
281
     0
  0
CLASS
  1
CELLSTYLEMAP
  2
AcDbCellStyleMap
  3
ObjectDBX Classes
 90
     1152
 91
        1
280
     0
281
     0
  0
CLASS
  1
EXACXREFPANELOBJECT
  2
ExAcXREFPanelObject
  3
EXAC_ESW
 90
     1025
 91
        1
280
     0
281
     0
  0
CLASS
  1
NPOCOLLECTION
  2
AcDbImpNonPersistentObjectsCollection
  3
ObjectDBX Classes
 90
     1153
 91
        1
280
     0
281
     0
  0
CLASS
  1
LAYER_INDEX
  2
AcDbLayerIndex
  3
ObjectDBX Classes
 90
        0
 91
        0
280
     0
281
     0
  0
CLASS
  1
SPATIAL_INDEX
  2
AcDbSpatialIndex
  3
ObjectDBX Classes
 90
        0
 91
        0
280
     0
281
     0
  0
CLASS
  1
IDBUFFER
  2
AcDbIdBuffer
  3
ObjectDBX Classes
 90
        0
 91
        0
280
     0
281
     0
  0
CLASS
  1
ACDBSECTIONVIEWSTYLE
  2
AcDbSectionViewStyle
  3
ObjectDBX Classes
 90
     1025
 91
        2
280
     0
281
     0
  0
CLASS
  1
ACDBDETAILVIEWSTYLE
  2
AcDbDetailViewStyle
  3
ObjectDBX Classes
 90
     1025
 91
        2
280
     0
281
     0
  0
CLASS
  1
SORTENTSTABLE
  2
AcDbSortentsTable
  3
ObjectDBX Classes
 90
        0
 91
       31
280
     0
281
     0
  0
CLASS
  1
ACAD_EVALUATION_GRAPH
  2
AcDbEvalGraph
  3
ObjectDBX Classes
 90
     1153
 91
        1
280
     0
281
     0
  0
CLASS
  1
BLOCKLINEARPARAMETER
  2
AcDbBlockLinearParameter
  3
ObjectDBX Classes
 90
     1153
 91
       12
280
     0
281
     0
  0
CLASS
  1
BLOCKLINEARGRIP
  2
AcDbBlockLinearGrip
  3
ObjectDBX Classes
 90
     1153
 91
        0
280
     0
281
     0
  0
CLASS
  1
BLOCKGRIPLOCATIONCOMPONENT
  2
AcDbBlockGripExpr
  3
ObjectDBX Classes
 90
     1153
 91
       14
280
     0
281
     0
  0
CLASS
  1
BLOCKSTRETCHACTION
  2
AcDbBlockStretchAction
  3
ObjectDBX Classes
 90
     1153
 91
        6
280
     0
281
     0
  0
CLASS
  1
ACDB_DYNAMICBLOCKPURGEPREVENTER_VERSION
  2
AcDbDynamicBlockPurgePreventer
  3
ObjectDBX Classes
 90
     1153
 91
        1
280
     0
281
     0
  0
CLASS
  1
BLOCKVISIBILITYPARAMETER
  2
AcDbBlockVisibilityParameter
  3
ObjectDBX Classes
 90
     1153
 91
        1
280
     0
281
     0
  0
CLASS
  1
BLOCKVISIBILITYGRIP
  2
AcDbBlockVisibilityGrip
  3
ObjectDBX Classes
 90
     1153
 91
        1
280
     0
281
     0
  0
CLASS
  1
ACDB_BLOCKREPRESENTATION_DATA
  2
AcDbBlockRepresentationData
  3
ObjectDBX Classes
 90
     1153
 91
       10
280
     0
281
     0
  0
CLASS
  1
SURFACE
  2
AcDbSurface
  3
ObjectDBX Classes
 90
     4095
 91
        0
280
     0
281
     1
  0
CLASS
  1
ACDBASSOCPERSSUBENTMANAGER
  2
AcDbAssocPersSubentManager
  3
ObjectDBX Classes
 90
     1024
 91
        1
280
     0
281
     0
  0
CLASS
  1
BLOCKARRAYACTION
  2
AcDbBlockArrayAction
  3
ObjectDBX Classes
 90
     1153
 91
        6
280
     0
281
     0
  0
CLASS
  1
BLOCKLOOKUPPARAMETER
  2
AcDbBlockLookupParameter
  3
ObjectDBX Classes
 90
     1153
 91
        6
280
     0
281
     0
  0
CLASS
  1
BLOCKLOOKUPGRIP
  2
AcDbBlockLookupGrip
  3
ObjectDBX Classes
 90
     1153
 91
        6
280
     0
281
     0
  0
CLASS
  1
BLOCKLOOKUPACTION
  2
AcDbBlockLookupAction
  3
ObjectDBX Classes
 90
     1153
 91
        6
280
     0
281
     0
  0
ENDSEC
  0
SECTION
  2
TABLES
  0
TABLE
  2
VPORT
  5
8
330
0
100
AcDbSymbolTable
 70
     1
  0
VPORT
  5
94
330
8
100
AcDbSymbolTableRecord
100
AcDbViewportTableRecord
  2
*Active
 70
     0
 10
0.0
 20
0.0
 11
1.0
 21
1.0
 12
105022.0676400097
 22
95052.0937720387
 13
0.0
 23
0.0
 14
0.5
 24
0.5
 15
0.5
 25
0.5
 16
0.0
 26
0.0
 36
1.0
 17
0.0
 27
0.0
 37
0.0
 40
11.96710366981585
 41
2.293369663941871
 42
50.0
 43
0.0
 44
0.0
 50
0.0
 51
0.0
 71
     0
 72
  1000
 73
     1
 74
     3
 75
     0
 76
     0
 77
     0
 78
     0
281
     0
 65
     1
110
0.0
120
0.0
130
0.0
111
1.0
121
0.0
131
0.0
112
0.0
122
1.0
132
0.0
 79
     0
146
0.0
348
9F
 60
     3
 61
     5
292
     1
282
     1
141
0.0
142
0.0
 63
   250
421
  3355443
1001
ACAD_NAV_VCDISPLAY
1070
     3
  0
ENDTAB
  0
TABLE
  2
LTYPE
  5
5
330
0
100
AcDbSymbolTable
 70
     1
  0
LTYPE
  5
14
330
5
100
AcDbSymbolTableRecord
100
AcDbLinetypeTableRecord
  2
ByBlock
 70
     0
  3

 72
    65
 73
     0
 40
0.0
  0
LTYPE
  5
15
330
5
100
AcDbSymbolTableRecord
100
AcDbLinetypeTableRecord
  2
ByLayer
 70
     0
  3

 72
    65
 73
     0
 40
0.0
  0
LTYPE
  5
16
330
5
100
AcDbSymbolTableRecord
100
AcDbLinetypeTableRecord
  2
Continuous
 70
     0
  3
Solid line
 72
    65
 73
     0
 40
0.0
  0
ENDTAB
  0
TABLE
  2
LAYER
  5
2
102
{ACAD_XDICTIONARY
360
18E
102
}
330
0
100
AcDbSymbolTable
 70
     2
  0
LAYER
  5
10
102
{ACAD_XDICTIONARY
360
E6
102
}
330
2
100
AcDbSymbolTableRecord
100
AcDbLayerTableRecord
  2
0
 70
     0
 62
     7
  6
Continuous
370
    -3
390
F
347
98
348
0
  0
LAYER
  5
204
330
2
100
AcDbSymbolTableRecord
100
AcDbLayerTableRecord
  2
freecads.com
 70
     0
 62
     7
  6
Continuous
370
    -3
390
F
347
98
348
0
1001
AcAecLayerStandard
1000

1000

1001
AcCmTransparency
1071
        0
  0
ENDTAB
  0
TABLE
  2
STYLE
  5
3
330
0
100
AcDbSymbolTable
 70
     2
  0
STYLE
  5
11
330
3
100
AcDbSymbolTableRecord
100
AcDbTextStyleTableRecord
  2
Standard
 70
     0
 40
0.0
 41
1.0
 50
0.0
 71
     0
 42
0.2
  3
arial.ttf
  4

1001
ACAD
1000
Arial
1071
       34
  0
ENDTAB
  0
TABLE
  2
VIEW
  5
6
330
0
100
AcDbSymbolTable
 70
     0
  0
ENDTAB
  0
TABLE
  2
UCS
  5
7
330
0
100
AcDbSymbolTable
 70
     0
  0
ENDTAB
  0
TABLE
  2
APPID
  5
9
330
0
100
AcDbSymbolTable
 70
    32
  0
APPID
  5
12
330
9
100
AcDbSymbolTableRecord
100
AcDbRegAppTableRecord
  2
ACAD
 70
     0
  0
APPID
  5
DD
330
9
100
AcDbSymbolTableRecord
100
AcDbRegAppTableRecord
  2
AcadAnnoPO
 70
     0
  0
APPID
  5
DE
330
9
100
AcDbSymbolTableRecord
100
AcDbRegAppTableRecord
  2
AcadAnnotative
 70
     0
  0
APPID
  5
DF
330
9
100
AcDbSymbolTableRecord
100
AcDbRegAppTableRecord
  2
ACAD_DSTYLE_DIMJAG
 70
     0
  0
APPID
  5
E0
330
9
100
AcDbSymbolTableRecord
100
AcDbRegAppTableRecord
  2
ACAD_DSTYLE_DIMTALN
 70
     0
  0
APPID
  5
107
330
9
100
AcDbSymbolTableRecord
100
AcDbRegAppTableRecord
  2
ACAD_MLEADERVER
 70
     0
  0
APPID
  5
1A6
330
9
100
AcDbSymbolTableRecord
100
AcDbRegAppTableRecord
  2
ACAD_NAV_VCDISPLAY
 70
     0
  0
APPID
  5
205
330
9
100
AcDbSymbolTableRecord
100
AcDbRegAppTableRecord
  2
AcAecLayerStandard
 70
     0
  0
APPID
  5
206
330
9
100
AcDbSymbolTableRecord
100
AcDbRegAppTableRecord
  2
AcCmTransparency
 70
     0
  0
APPID
  5
222
330
9
100
AcDbSymbolTableRecord
100
AcDbRegAppTableRecord
  2
ACAD_PSEXT
 70
     0
  0
APPID
  5
2DA
330
9
100
AcDbSymbolTableRecord
100
AcDbRegAppTableRecord
  2
GradientColor1ACI
 70
     0
  0
APPID
  5
2DB
330
9
100
AcDbSymbolTableRecord
100
AcDbRegAppTableRecord
  2
GradientColor2ACI
 70
     0
  0
APPID
  5
2F3
330
9
100
AcDbSymbolTableRecord
100
AcDbRegAppTableRecord
  2
ACAD_EXEMPT_FROM_CAD_STANDARDS
 70
     0
  0
APPID
  5
A1A
330
9
100
AcDbSymbolTableRecord
100
AcDbRegAppTableRecord
  2
AcDbBlockRepETag
 70
     0
  0
APPID
  5
2282
330
9
100
AcDbSymbolTableRecord
100
AcDbRegAppTableRecord
  2
RAK
 70
     0
  0
APPID
  5
39F4
330
9
100
AcDbSymbolTableRecord
100
AcDbRegAppTableRecord
  2
ACAD_DSTYLE_DIMJOGGED_JOGANGLE_SYMBOL
 70
     0
  0
APPID
  5
39F5
330
9
100
AcDbSymbolTableRecord
100
AcDbRegAppTableRecord
  2
AcDbDynamicBlockGUID
 70
     0
  0
APPID
  5
39F6
330
9
100
AcDbSymbolTableRecord
100
AcDbRegAppTableRecord
  2
ACAD_DSTYLE_DIMBREAK
 70
     0
  0
APPID
  5
3B59
330
9
100
AcDbSymbolTableRecord
100
AcDbRegAppTableRecord
  2
AEC_XDATA_BOUND_SPACE
 70
     0
  0
APPID
  5
75C5
330
9
100
AcDbSymbolTableRecord
100
AcDbRegAppTableRecord
  2
AcDbDynamicBlockTrueName
 70
     0
  0
APPID
  5
75C6
330
9
100
AcDbSymbolTableRecord
100
AcDbRegAppTableRecord
  2
AcDbBlockRepBTag
 70
     0
  0
APPID
  5
75C7
330
9
100
AcDbSymbolTableRecord
100
AcDbRegAppTableRecord
  2
ACAUTHENVIRON
 70
     0
  0
APPID
  5
AA90
330
9
100
AcDbSymbolTableRecord
100
AcDbRegAppTableRecord
  2
Acad_TC
 70
     0
  0
APPID
  5
AA9C
330
9
100
AcDbSymbolTableRecord
100
AcDbRegAppTableRecord
  2
AcDbBlockArrayActionTag
 70
     0
  0
APPID
  5
BEE4
330
9
100
AcDbSymbolTableRecord
100
AcDbRegAppTableRecord
  2
ACAD_DSTYLE_DIMTEXT_FILL
 70
     0
  0
APPID
  5
219E5
330
9
100
AcDbSymbolTableRecord
100
AcDbRegAppTableRecord
  2
AECLAY
 70
     0
  0
APPID
  5
26B46
330
9
100
AcDbSymbolTableRecord
100
AcDbRegAppTableRecord
  2
REVIT
 70
     0
  0
APPID
  5
280A5
330
9
100
AcDbSymbolTableRecord
100
AcDbRegAppTableRecord
  2
HATCHBACKGROUNDCOLOR
 70
     0
  0
APPID
  5
29EE0
330
9
100
AcDbSymbolTableRecord
100
AcDbRegAppTableRecord
  2
ACAD_STEPID
 70
     0
  0
APPID
  5
29EE1
330
9
100
AcDbSymbolTableRecord
100
AcDbRegAppTableRecord
  2
AcLayerTools
 70
     0
  0
APPID
  5
4D86C
330
9
100
AcDbSymbolTableRecord
100
AcDbRegAppTableRecord
  2
PE_URL
 70
     0
  0
APPID
  5
4DA7A
330
9
100
AcDbSymbolTableRecord
100
AcDbRegAppTableRecord
  2
PLOTTRANSPARENCY
 70
     0
  0
ENDTAB
  0
TABLE
  2
DIMSTYLE
  5
A
330
0
100
AcDbSymbolTable
 70
     2
100
AcDbDimStyleTable
 71
     1
340
27
  0
DIMSTYLE
105
27
330
A
100
AcDbSymbolTableRecord
100
AcDbDimStyleTableRecord
  2
Standard
 70
     0
340
11
  0
ENDTAB
  0
TABLE
  2
BLOCK_RECORD
  5
1
330
0
100
AcDbSymbolTable
 70
     2
  0
BLOCK_RECORD
  5
1F
102
{ACAD_XDICTIONARY
360
15D
102
}
330
1
100
AcDbSymbolTableRecord
100
AcDbBlockTableRecord
  2
*Model_Space
340
22
 70
     0
280
     1
281
     0
  0
BLOCK_RECORD
  5
58
330
1
100
AcDbSymbolTableRecord
100
AcDbBlockTableRecord
  2
*Paper_Space
340
59
 70
     0
280
     1
281
     0
  0
BLOCK_RECORD
  5
5D
330
1
100
AcDbSymbolTableRecord
100
AcDbBlockTableRecord
  2
*Paper_Space0
340
5E
 70
     0
280
     1
281
     0
  0
ENDTAB
  0
ENDSEC
  0
SECTION
  2
BLOCKS
  0
BLOCK
  5
20
330
1F
100
AcDbEntity
  8
0
100
AcDbBlockBegin
  2
*Model_Space
 70
     0
 10
0.0
 20
0.0
 30
0.0
  3
*Model_Space
  1

  0
ENDBLK
  5
21
330
1F
100
AcDbEntity
  8
0
100
AcDbBlockEnd
  0
BLOCK
  5
5A
330
58
100
AcDbEntity
 67
     1
  8
0
100
AcDbBlockBegin
  2
*Paper_Space
 70
     0
 10
0.0
 20
0.0
 30
0.0
  3
*Paper_Space
  1

  0
ENDBLK
  5
5B
330
58
100
AcDbEntity
 67
     1
  8
0
100
AcDbBlockEnd
  0
BLOCK
  5
5F
330
5D
100
AcDbEntity
 67
     1
  8
0
100
AcDbBlockBegin
  2
*Paper_Space0
 70
     0
 10
0.0
 20
0.0
 30
0.0
  3
*Paper_Space0
  1

  0
ENDBLK
  5
60
330
5D
100
AcDbEntity
 67
     1
  8
0
100
AcDbBlockEnd
  0
ENDSEC
  0
SECTION
  2
ENTITIES
  0
LINE
  5
4F9F7
330
1F
100
AcDbEntity
  8
freecads.com
100
AcDbLine
 10
105019.0136464408
 20
95051.21309199488
 30
0.0
 11
105019.0190840196
 21
95051.04560606771
 31
0.0
  0
SPLINE
  5
4F9F8
330
1F
100
AcDbEntity
  8
freecads.com
100
AcDbSpline
210
0.0
220
0.0
230
1.0
 70
     8
 71
     3
 72
    18
 73
    14
 74
     0
 42
0.000000001
 43
0.0000000001
 40
117.544452272429
 40
117.544452272429
 40
117.544452272429
 40
117.544452272429
 40
121.5782120084558
 40
138.8128471134586
 40
159.7356761485782
 40
185.0258019403773
 40
217.031734495737
 40
240.4054382193022
 40
274.8880694870596
 40
317.0282263848024
 40
367.6883550487834
 40
409.8334730367477
 40
474.4296972636449
 40
474.4296972636449
 40
474.4296972636449
 40
474.4296972636449
 10
105018.9895584878
 20
95050.92961147353
 30
0.0
 10
105018.9892003025
 20
95050.92830562034
 30
0.0
 10
105018.9869801309
 20
95050.92144223368
 30
0.0
 10
105018.9843455977
 20
95050.90771967005
 30
0.0
 10
105018.9827272713
 20
95050.88635889205
 30
0.0
 10
105018.989130604
 20
95050.86087199217
 30
0.0
 10
105019.0016392657
 20
95050.83600373001
 30
0.0
 10
105019.0268024965
 20
95050.81865731847
 30
0.0
 10
105019.0573360821
 20
95050.80541549929
 30
0.0
 10
105019.0976002518
 20
95050.79135491186
 30
0.0
 10
105019.1425299041
 20
95050.7861873597
 30
0.0
 10
105019.1948743275
 20
95050.7830853582
 30
0.0
 10
105019.2304727597
 20
95050.7830957302
 30
0.0
 10
105019.2520157182
 20
95050.78310200699
 30
0.0
  0
SPLINE
  5
4F9F9
330
1F
100
AcDbEntity
  8
freecads.com
100
AcDbSpline
210
0.0
220
0.0
230
1.0
 70
     8
 71
     3
 72
    98
 73
    94
 74
     0
 42
0.000000001
 43
0.0000000001
 40
114.4120633067309
 40
114.4120633067309
 40
114.4120633067309
 40
114.4120633067309
 40
115.313285776192
 40
115.313285776192
 40
117.7748566477773
 40
117.7748566477773
 40
120.2364275193626
 40
120.2364275193626
 40
121.5764322531769
 40
121.5764322531769
 40
125.1629290616186
 40
125.1629290616186
 40
132.0714134550561
 40
132.0714134550561
 40
138.6743689378141
 40
138.6743689378141
 40
142.6406926620967
 40
142.6406926620967
 40
146.6070163863792
 40
146.6070163863792
 40
154.5396638349442
 40
154.5396638349442
 40
159.673548584359
 40
159.673548584359
 40
167.1463235392934
 40
167.1463235392934
 40
174.6190984942278
 40
174.6190984942278
 40
180.2576469558658
 40
180.2576469558658
 40
183.5988372325109
 40
183.5988372325109
 40
186.4614193169528
 40
186.4614193169528
 40
194.3853094132726
 40
194.3853094132726
 40
204.581341962645
 40
204.581341962645
 40
214.7773745120173
 40
214.7773745120173
 40
217.2058118024684
 40
217.2058118024684
 40
219.6342490929195
 40
219.6342490929195
 40
224.4911236738218
 40
224.4911236738218
 40
234.1299422632729
 40
234.1299422632729
 40
239.2278676422874
 40
239.2278676422874
 40
242.1721340347132
 40
242.1721340347132
 40
245.1164004271389
 40
245.1164004271389
 40
251.0049332119904
 40
251.0049332119904
 40
262.7819987816935
 40
262.7819987816935
 40
273.251849682216
 40
273.251849682216
 40
277.263137761276
 40
277.263137761276
 40
281.2744258403359
 40
281.2744258403359
 40
289.2970019984556
 40
289.2970019984556
 40
305.3421543146952
 40
305.3421543146952
 40
316.7210396985118
 40
316.7210396985118
 40
325.3874572347419
 40
325.3874572347419
 40
334.0538747709721
 40
334.0538747709721
 40
351.3867098434323
 40
351.3867098434323
 40
365.4077063558946
 40
365.4077063558946
 40
372.1363343061443
 40
372.1363343061443
 40
378.864962256394
 40
378.864962256394
 40
392.3222181568934
 40
392.3222181568934
 40
406.6676545179282
 40
406.6676545179282
 40
415.4120311423842
 40
415.4120311423842
 40
424.1564077668403
 40
424.1564077668403
 40
441.6451610157523
 40
441.6451610157523
 40
447.1245819130988
 40
447.1245819130988
 40
447.1245819130988
 40
447.1245819130988
 10
105019.0100003873
 20
95050.92961147353
 30
0.0
 10
105019.0099084338
 20
95050.92901590545
 30
0.0
 10
105019.0098065271
 20
95050.9284464454
 30
0.0
 10
105019.0094052395
 20
95050.92641752433
 30
0.0
 10
105019.0090714218
 20
95050.92512378508
 30
0.0
 10
105019.0084436235
 20
95050.92287887354
 30
0.0
 10
105019.0081489141
 20
95050.92192649563
 30
0.0
 10
105019.0077733192
 20
95050.92070243199
 30
0.0
 10
105019.0076557981
 20
95050.92031861639
 30
0.0
 10
105019.0072876989
 20
95050.9190850572
 30
0.0
 10
105019.007036838
 20
95050.91817738277
 30
0.0
 10
105019.0063466043
 20
95050.91548286776
 30
0.0
 10
105019.0059482068
 20
95050.91366140126
 30
0.0
 10
105019.0052559192
 20
95050.90997976425
 30
0.0
 10
105019.0049583118
 20
95050.90812495762
 30
0.0
 10
105019.0045305921
 20
95050.90505545961
 30
0.0
 10
105019.0043852332
 20
95050.90391236997
 30
0.0
 10
105019.0041320907
 20
95050.90166302339
 30
0.0
 10
105019.004023984
 20
95050.90055436889
 30
0.0
 10
105019.003761797
 20
95050.89728354359
 30
0.0
 10
105019.0036703596
 20
95050.89517681179
 30
0.0
 10
105019.0036774238
 20
95050.89185693039
 30
0.0
 10
105019.003720121
 20
95050.89059074013
 30
0.0
 10
105019.0039269802
 20
95050.88758267779
 30
0.0
 10
105019.0041455957
 20
95050.88576997039
 30
0.0
 10
105019.004769583
 20
95050.88206536969
 30
0.0
 10
105019.0051749416
 20
95050.88017563393
 30
0.0
 10
105019.0060410048
 20
95050.87679745843
 30
0.0
 10
105019.0064636476
 20
95050.87532450456
 30
0.0
 10
105019.0072113284
 20
95050.87294978356
 30
0.0
 10
105019.0075059534
 20
95050.872059827
 30
0.0
 10
105019.0080819058
 20
95050.87039648783
 30
0.0
 10
105019.0083601546
 20
95050.86962130237
 30
0.0
 10
105019.0094284674
 20
95050.86674816638
 30
0.0
 10
105019.01026372
 20
95050.86471095143
 30
0.0
 10
105019.012289383
 20
95050.86028605967
 30
0.0
 10
105019.0135131886
 20
95050.85796676501
 30
0.0
 10
105019.0161064366
 20
95050.85376505554
 30
0.0
 10
105019.0174741556
 20
95050.85188413016
 30
0.0
 10
105019.019242299
 20
95050.84984326005
 30
0.0
 10
105019.0195843931
 20
95050.84946529221
 30
0.0
 10
105019.0202822714
 20
95050.84872798084
 30
0.0
 10
105019.0206468065
 20
95050.84835936321
 30
0.0
 10
105019.0217876361
 20
95050.847253723
 30
0.0
 10
105019.022611381
 20
95050.84651686535
 30
0.0
 10
105019.0252532637
 20
95050.8443230853
 30
0.0
 10
105019.0272536956
 20
95050.84287265189
 30
0.0
 10
105019.0306135194
 20
95050.84068476584
 30
0.0
 10
105019.0318303391
 20
95050.83993312618
 30
0.0
 10
105019.0338213898
 20
95050.83875497705
 30
0.0
 10
105019.034566108
 20
95050.83832467887
 30
0.0
 10
105019.0360627196
 20
95050.8374787765
 30
0.0
 10
105019.0368173607
 20
95050.8370616656
 30
0.0
 10
105019.0391002503
 20
95050.83582654753
 30
0.0
 10
105019.0406474891
 20
95050.83502475311
 30
0.0
 10
105019.0453639145
 20
95050.83267395775
 30
0.0
 10
105019.0486081004
 20
95050.83117965812
 30
0.0
 10
105019.054911091
 20
95050.82844213989
 30
0.0
 10
105019.0579503609
 20
95050.8271895012
 30
0.0
 10
105019.0622442107
 20
95050.82547718789
 30
0.0
 10
105019.0634444665
 20
95050.82500418053
 30
0.0
 10
105019.0658361415
 20
95050.82407266135
 30
0.0
 10
105019.0670309102
 20
95050.82361303694
 30
0.0
 10
105019.0706120224
 20
95050.82225458423
 30
0.0
 10
105019.0729951755
 20
95050.82137618874
 30
0.0
 10
105019.080131785
 20
95050.81883843018
 30
0.0
 10
105019.0848723486
 20
95050.8172767377
 30
0.0
 10
105019.0929447464
 20
95050.81489712388
 30
0.0
 10
105019.0962852991
 20
95050.8139949078
 30
0.0
 10
105019.1021551003
 20
95050.81257805295
 30
0.0
 10
105019.1047177376
 20
95050.81201549209
 30
0.0
 10
105019.1099038692
 20
95050.81097610169
 30
0.0
 10
105019.1125250408
 20
95050.81049981889
 30
0.0
 10
105019.1204670745
 20
95050.80918415824
 30
0.0
 10
105019.1258665797
 20
95050.80845826608
 30
0.0
 10
105019.1357903732
 20
95050.80733063262
 30
0.0
 10
105019.1402846492
 20
95050.80689337006
 30
0.0
 10
105019.1470042114
 20
95050.80630396333
 30
0.0
 10
105019.1491938071
 20
95050.80612128839
 30
0.0
 10
105019.153565386
 20
95050.80577351817
 30
0.0
 10
105019.1557509833
 20
95050.80560836843
 30
0.0
 10
105019.1623075858
 20
95050.80513908671
 30
0.0
 10
105019.1666784016
 20
95050.80486112197
 30
0.0
 10
105019.1757101209
 20
95050.80435872592
 30
0.0
 10
105019.180371131
 20
95050.80413903861
 30
0.0
 10
105019.1878767418
 20
95050.80384889444
 30
0.0
 10
105019.1907196281
 20
95050.80375415802
 30
0.0
 10
105019.1964283643
 20
95050.8035895787
 30
0.0
 10
105019.1992915217
 20
95050.80351955795
 30
0.0
 10
105019.207906749
 20
95050.80333630209
 30
0.0
 10
105019.2136845714
 20
95050.80324993182
 30
0.0
 10
105019.2213155745
 20
95050.80314757126
 30
0.0
 10
105019.2231392794
 20
95050.80312397209
 30
0.0
 10
105019.2520157182
 20
95050.8031003328
 30
0.0
  0
SPLINE
  5
4F9FA
330
1F
100
AcDbEntity
  8
freecads.com
100
AcDbSpline
210
0.0
220
0.0
230
1.0
 70
  1064
 71
     3
 72
    12
 73
     8
 74
     6
 42
0.000000001
 43
0.0000000001
 44
0.0000000001
 40
0.0
 40
0.0
 40
0.0
 40
0.0
 40
0.1174035278440026
 40
0.1348386018663816
 40
0.1929056558996302
 40
0.2484756859837645
 40
0.3086044477985594
 40
0.3086044477985594
 40
0.3086044477985594
 40
0.3086044477985594
 10
105019.0190840196
 20
95051.04560606771
 30
0.0
 10
105019.0296977353
 20
95051.00621566432
 30
0.0
 10
105019.0418876465
 20
95050.96097556791
 30
0.0
 10
105019.090648702
 20
95050.91743800807
 30
0.0
 10
105019.1363223698
 20
95050.91094390435
 30
0.0
 10
105019.1931838954
 20
95050.90483909359
 30
0.0
 10
105019.2318966607
 20
95050.90532412079
 30
0.0
 10
105019.2520157182
 20
95050.90557618986
 30
0.0
 11
105019.0190840196
 21
95051.04560606771
 31
0.0
 11
105019.0675228683
 21
95050.93866091216
 31
0.0
 11
105019.0807633576
 21
95050.92731757716
 31
0.0
 11
105019.136562524
 21
95050.91124786055
 31
0.0
 11
105019.1918888141
 21
95050.90604883442
 31
0.0
 11
105019.2520157182
 21
95050.90557618986
 31
0.0
  0
SPLINE
  5
4F9FB
330
1F
100
AcDbEntity
  8
freecads.com
100
AcDbSpline
210
0.0
220
0.0
230
1.0
 70
     8
 71
     3
 72
     8
 73
     4
 74
     0
 42
0.000000001
 43
0.0000000001
 40
464.0075949415173
 40
464.0075949415173
 40
464.0075949415173
 40
464.0075949415173
 40
477.6407544104151
 40
477.6407544104151
 40
477.6407544104151
 40
477.6407544104151
 10
105019.2656556972
 20
95050.7830919949
 30
0.0
 10
105019.2611092528
 20
95050.78309078578
 30
0.0
 10
105019.2565624855
 20
95050.78309639637
 30
0.0
 10
105019.2520157182
 20
95050.78310200699
 30
0.0
  0
SPLINE
  5
4F9FC
330
1F
100
AcDbEntity
  8
freecads.com
100
AcDbSpline
210
0.0
220
0.0
230
1.0
 70
     8
 71
     3
 72
     8
 73
     4
 74
     0
 42
0.000000001
 43
0.0000000001
 40
446.2131013440281
 40
446.2131013440281
 40
446.2131013440281
 40
446.2131013440281
 40
447.1245819130988
 40
447.1245819130988
 40
447.1245819130988
 40
447.1245819130988
 10
105019.2656556972
 20
95050.80311213035
 30
0.0
 10
105019.2618536142
 20
95050.8031081963
 30
0.0
 10
105019.2573533844
 20
95050.8031042651
 30
0.0
 10
105019.2520157182
 20
95050.8031003328
 30
0.0
  0
SPLINE
  5
4F9FD
330
1F
100
AcDbEntity
  8
freecads.com
100
AcDbSpline
210
0.0
220
0.0
230
1.0
 70
     8
 71
     3
 72
     8
 73
     4
 74
     0
 42
0.000000001
 43
0.0000000001
 40
298.2260641464397
 40
298.2260641464397
 40
298.2260641464397
 40
298.2260641464397
 40
311.8156199324941
 40
311.8156199324941
 40
311.8156199324941
 40
311.8156199324941
 10
105019.2656556972
 20
95050.90540507881
 30
0.0
 10
105019.2611106717
 20
95050.90545334937
 30
0.0
 10
105019.256563195
 20
95050.90551476962
 30
0.0
 10
105019.2520157182
 20
95050.90557618986
 30
0.0
  0
SPLINE
  5
4F9FE
330
1F
100
AcDbEntity
  8
freecads.com
100
AcDbSpline
210
0.0
220
0.0
230
1.0
 70
     8
 71
     3
 72
    15
 73
    11
 74
     0
 42
0.000000001
 43
0.0000000001
 40
0.0
 40
0.0
 40
0.0
 40
0.0
 40
0.0079085775364648
 40
0.020905772075348
 40
0.037677713760706
 40
0.0869565061910963
 40
0.1251143189091787
 40
0.1691586984575781
 40
0.2344148683757042
 40
0.2878979645272746
 40
0.2878979645272746
 40
0.2878979645272746
 40
0.2878979645272746
 10
105018.9895584878
 20
95050.92961147353
 30
0.0
 10
105018.9900439507
 20
95050.93219978116
 30
0.0
 10
105018.991327238
 20
95050.93904179156
 30
0.0
 10
105018.9916240206
 20
95050.95183498267
 30
0.0
 10
105018.981945371
 20
95050.97668293538
 30
0.0
 10
105018.9718209091
 20
95051.00967245947
 30
0.0
 10
105018.9595081549
 20
95051.05204696745
 30
0.0
 10
105018.9588089607
 20
95051.10151167155
 30
0.0
 10
105018.9575652453
 20
95051.15559947739
 30
0.0
 10
105018.9569049281
 20
95051.19528952931
 30
0.0
 10
105018.9567541095
 20
95051.21309199488
 30
0.0
  0
SPLINE
  5
4F9FF
330
1F
100
AcDbEntity
  8
freecads.com
100
AcDbSpline
210
0.0
220
0.0
230
1.0
 70
     8
 71
     3
 72
    15
 73
    11
 74
     0
 42
0.000000001
 43
0.0000000001
 40
0.0
 40
0.0
 40
0.0
 40
0.0
 40
7.908577536480597
 40
20.90577207536215
 40
37.67771376074684
 40
86.95650619113989
 40
125.1143189092015
 40
169.1586984575989
 40
234.4148683757257
 40
289.0811501582543
 40
289.0811501582543
 40
289.0811501582543
 40
289.0811501582543
 10
105019.0090383409
 20
95050.92843146695
 30
0.0
 10
105019.0095238038
 20
95050.93101977459
 30
0.0
 10
105019.010807091
 20
95050.937861785
 30
0.0
 10
105019.0111038745
 20
95050.9506549759
 30
0.0
 10
105019.0014252177
 20
95050.97550293058
 30
0.0
 10
105018.991300832
 20
95051.00849243351
 30
0.0
 10
105018.9789878052
 20
95051.05086701725
 30
0.0
 10
105018.9782898921
 20
95051.1003313653
 30
0.0
 10
105018.9770303028
 20
95051.15481420547
 30
0.0
 10
105018.9763818214
 20
95051.19489770653
 30
0.0
 10
105018.9762291811
 20
95051.21309199488
 30
0.0
  0
LINE
  5
4FA00
330
1F
100
AcDbEntity
  8
freecads.com
100
AcDbLine
 10
105019.5176649535
 20
95051.21309199488
 30
0.0
 11
105019.5122273747
 21
95051.04560606771
 31
0.0
  0
SPLINE
  5
4FA01
330
1F
100
AcDbEntity
  8
freecads.com
100
AcDbSpline
210
0.0
220
0.0
230
1.0
 70
     8
 71
     3
 72
    18
 73
    14
 74
     0
 42
0.000000001
 43
0.0000000001
 40
117.544452272429
 40
117.544452272429
 40
117.544452272429
 40
117.544452272429
 40
121.5782120084558
 40
138.8128471134586
 40
159.7356761485782
 40
185.0258019403773
 40
217.031734495737
 40
240.4054382193022
 40
274.8880694870596
 40
317.0282263848024
 40
367.6883550487834
 40
409.8334730367477
 40
474.4296972636449
 40
474.4296972636449
 40
474.4296972636449
 40
474.4296972636449
 10
105019.5417529065
 20
95050.92961147353
 30
0.0
 10
105019.5421110919
 20
95050.92830562034
 30
0.0
 10
105019.5443312634
 20
95050.92144223368
 30
0.0
 10
105019.5469657966
 20
95050.90771967005
 30
0.0
 10
105019.548584123
 20
95050.88635889205
 30
0.0
 10
105019.5421807904
 20
95050.86087199217
 30
0.0
 10
105019.5296721286
 20
95050.83600373001
 30
0.0
 10
105019.5045088978
 20
95050.81865731847
 30
0.0
 10
105019.4739753122
 20
95050.80541549929
 30
0.0
 10
105019.4337111425
 20
95050.79135491186
 30
0.0
 10
105019.3887814902
 20
95050.7861873597
 30
0.0
 10
105019.3364370668
 20
95050.7830853582
 30
0.0
 10
105019.3008386346
 20
95050.7830957302
 30
0.0
 10
105019.2792956761
 20
95050.78310200699
 30
0.0
  0
SPLINE
  5
4FA02
330
1F
100
AcDbEntity
  8
freecads.com
100
AcDbSpline
210
0.0
220
0.0
230
1.0
 70
     8
 71
     3
 72
    98
 73
    94
 74
     0
 42
0.000000001
 43
0.0000000001
 40
114.4120633067309
 40
114.4120633067309
 40
114.4120633067309
 40
114.4120633067309
 40
115.313285776192
 40
115.313285776192
 40
117.7748566477773
 40
117.7748566477773
 40
120.2364275193626
 40
120.2364275193626
 40
121.5764322531769
 40
121.5764322531769
 40
125.1629290616186
 40
125.1629290616186
 40
132.0714134550561
 40
132.0714134550561
 40
138.6743689378141
 40
138.6743689378141
 40
142.6406926620967
 40
142.6406926620967
 40
146.6070163863792
 40
146.6070163863792
 40
154.5396638349442
 40
154.5396638349442
 40
159.673548584359
 40
159.673548584359
 40
167.1463235392934
 40
167.1463235392934
 40
174.6190984942278
 40
174.6190984942278
 40
180.2576469558658
 40
180.2576469558658
 40
183.5988372325109
 40
183.5988372325109
 40
186.4614193169528
 40
186.4614193169528
 40
194.3853094132726
 40
194.3853094132726
 40
204.581341962645
 40
204.581341962645
 40
214.7773745120173
 40
214.7773745120173
 40
217.2058118024684
 40
217.2058118024684
 40
219.6342490929195
 40
219.6342490929195
 40
224.4911236738218
 40
224.4911236738218
 40
234.1299422632729
 40
234.1299422632729
 40
239.2278676422874
 40
239.2278676422874
 40
242.1721340347132
 40
242.1721340347132
 40
245.1164004271389
 40
245.1164004271389
 40
251.0049332119904
 40
251.0049332119904
 40
262.7819987816935
 40
262.7819987816935
 40
273.251849682216
 40
273.251849682216
 40
277.263137761276
 40
277.263137761276
 40
281.2744258403359
 40
281.2744258403359
 40
289.2970019984556
 40
289.2970019984556
 40
305.3421543146952
 40
305.3421543146952
 40
316.7210396985118
 40
316.7210396985118
 40
325.3874572347419
 40
325.3874572347419
 40
334.0538747709721
 40
334.0538747709721
 40
351.3867098434323
 40
351.3867098434323
 40
365.4077063558946
 40
365.4077063558946
 40
372.1363343061443
 40
372.1363343061443
 40
378.864962256394
 40
378.864962256394
 40
392.3222181568934
 40
392.3222181568934
 40
406.6676545179282
 40
406.6676545179282
 40
415.4120311423842
 40
415.4120311423842
 40
424.1564077668403
 40
424.1564077668403
 40
441.6451610157523
 40
441.6451610157523
 40
447.1245819130988
 40
447.1245819130988
 40
447.1245819130988
 40
447.1245819130988
 10
105019.521311007
 20
95050.92961147353
 30
0.0
 10
105019.5214029605
 20
95050.92901590545
 30
0.0
 10
105019.5215048672
 20
95050.9284464454
 30
0.0
 10
105019.5219061548
 20
95050.92641752433
 30
0.0
 10
105019.5222399726
 20
95050.92512378508
 30
0.0
 10
105019.5228677708
 20
95050.92287887354
 30
0.0
 10
105019.5231624802
 20
95050.92192649563
 30
0.0
 10
105019.5235380751
 20
95050.92070243199
 30
0.0
 10
105019.5236555962
 20
95050.92031861639
 30
0.0
 10
105019.5240236954
 20
95050.9190850572
 30
0.0
 10
105019.5242745563
 20
95050.91817738277
 30
0.0
 10
105019.52496479
 20
95050.91548286776
 30
0.0
 10
105019.5253631875
 20
95050.91366140126
 30
0.0
 10
105019.5260554751
 20
95050.90997976425
 30
0.0
 10
105019.5263530826
 20
95050.90812495762
 30
0.0
 10
105019.5267808022
 20
95050.90505545961
 30
0.0
 10
105019.5269261611
 20
95050.90391236997
 30
0.0
 10
105019.5271793036
 20
95050.90166302339
 30
0.0
 10
105019.5272874103
 20
95050.90055436889
 30
0.0
 10
105019.5275495973
 20
95050.89728354359
 30
0.0
 10
105019.5276410347
 20
95050.89517681179
 30
0.0
 10
105019.5276339705
 20
95050.89185693039
 30
0.0
 10
105019.5275912733
 20
95050.89059074013
 30
0.0
 10
105019.5273844141
 20
95050.88758267779
 30
0.0
 10
105019.5271657986
 20
95050.88576997039
 30
0.0
 10
105019.5265418113
 20
95050.88206536969
 30
0.0
 10
105019.5261364527
 20
95050.88017563393
 30
0.0
 10
105019.5252703896
 20
95050.87679745843
 30
0.0
 10
105019.5248477467
 20
95050.87532450456
 30
0.0
 10
105019.5241000659
 20
95050.87294978356
 30
0.0
 10
105019.5238054409
 20
95050.872059827
 30
0.0
 10
105019.5232294885
 20
95050.87039648783
 30
0.0
 10
105019.5229512397
 20
95050.86962130237
 30
0.0
 10
105019.521882927
 20
95050.86674816638
 30
0.0
 10
105019.5210476743
 20
95050.86471095143
 30
0.0
 10
105019.5190220113
 20
95050.86028605967
 30
0.0
 10
105019.5177982057
 20
95050.85796676501
 30
0.0
 10
105019.5152049578
 20
95050.85376505554
 30
0.0
 10
105019.5138372388
 20
95050.85188413016
 30
0.0
 10
105019.5120690953
 20
95050.84984326005
 30
0.0
 10
105019.5117270012
 20
95050.84946529221
 30
0.0
 10
105019.5110291229
 20
95050.84872798084
 30
0.0
 10
105019.5106645878
 20
95050.84835936321
 30
0.0
 10
105019.5095237582
 20
95050.847253723
 30
0.0
 10
105019.5087000133
 20
95050.84651686535
 30
0.0
 10
105019.5060581306
 20
95050.8443230853
 30
0.0
 10
105019.5040576987
 20
95050.84287265189
 30
0.0
 10
105019.5006978749
 20
95050.84068476584
 30
0.0
 10
105019.4994810552
 20
95050.83993312618
 30
0.0
 10
105019.4974900045
 20
95050.83875497705
 30
0.0
 10
105019.4967452863
 20
95050.83832467887
 30
0.0
 10
105019.4952486747
 20
95050.8374787765
 30
0.0
 10
105019.4944940336
 20
95050.8370616656
 30
0.0
 10
105019.492211144
 20
95050.83582654753
 30
0.0
 10
105019.4906639052
 20
95050.83502475311
 30
0.0
 10
105019.4859474798
 20
95050.83267395775
 30
0.0
 10
105019.4827032939
 20
95050.83117965812
 30
0.0
 10
105019.4764003034
 20
95050.82844213989
 30
0.0
 10
105019.4733610334
 20
95050.8271895012
 30
0.0
 10
105019.4690671836
 20
95050.82547718789
 30
0.0
 10
105019.4678669278
 20
95050.82500418053
 30
0.0
 10
105019.4654752528
 20
95050.82407266135
 30
0.0
 10
105019.4642804841
 20
95050.82361303694
 30
0.0
 10
105019.460699372
 20
95050.82225458423
 30
0.0
 10
105019.4583162188
 20
95050.82137618874
 30
0.0
 10
105019.4511796093
 20
95050.81883843018
 30
0.0
 10
105019.4464390457
 20
95050.8172767377
 30
0.0
 10
105019.4383666479
 20
95050.81489712388
 30
0.0
 10
105019.4350260952
 20
95050.8139949078
 30
0.0
 10
105019.429156294
 20
95050.81257805295
 30
0.0
 10
105019.4265936568
 20
95050.81201549209
 30
0.0
 10
105019.4214075252
 20
95050.81097610169
 30
0.0
 10
105019.4187863535
 20
95050.81049981889
 30
0.0
 10
105019.4108443198
 20
95050.80918415824
 30
0.0
 10
105019.4054448147
 20
95050.80845826608
 30
0.0
 10
105019.3955210211
 20
95050.80733063262
 30
0.0
 10
105019.3910267452
 20
95050.80689337006
 30
0.0
 10
105019.3843071829
 20
95050.80630396333
 30
0.0
 10
105019.3821175872
 20
95050.80612128839
 30
0.0
 10
105019.3777460083
 20
95050.80577351817
 30
0.0
 10
105019.375560411
 20
95050.80560836843
 30
0.0
 10
105019.3690038085
 20
95050.80513908671
 30
0.0
 10
105019.3646329927
 20
95050.80486112197
 30
0.0
 10
105019.3556012734
 20
95050.80435872592
 30
0.0
 10
105019.3509402633
 20
95050.80413903861
 30
0.0
 10
105019.3434346525
 20
95050.80384889444
 30
0.0
 10
105019.3405917662
 20
95050.80375415802
 30
0.0
 10
105019.33488303
 20
95050.8035895787
 30
0.0
 10
105019.3320198726
 20
95050.80351955795
 30
0.0
 10
105019.3234046453
 20
95050.80333630209
 30
0.0
 10
105019.3176268229
 20
95050.80324993182
 30
0.0
 10
105019.3099958199
 20
95050.80314757126
 30
0.0
 10
105019.3081721149
 20
95050.80312397209
 30
0.0
 10
105019.2792956761
 20
95050.8031003328
 30
0.0
  0
SPLINE
  5
4FA03
330
1F
100
AcDbEntity
  8
freecads.com
100
AcDbSpline
210
0.0
220
0.0
230
1.0
 70
  1064
 71
     3
 72
    12
 73
     8
 74
     6
 42
0.000000001
 43
0.0000000001
 44
0.0000000001
 40
0.0
 40
0.0
 40
0.0
 40
0.0
 40
0.1174035278440026
 40
0.1348386018663816
 40
0.1929056558996302
 40
0.2484756859692764
 40
0.3086044477986228
 40
0.3086044477986228
 40
0.3086044477986228
 40
0.3086044477986228
 10
105019.5122273747
 20
95051.04560606771
 30
0.0
 10
105019.501613659
 20
95051.00621566432
 30
0.0
 10
105019.4894237478
 20
95050.96097556791
 30
0.0
 10
105019.4406626923
 20
95050.91743800807
 30
0.0
 10
105019.3949890244
 20
95050.91094390435
 30
0.0
 10
105019.3381274989
 20
95050.90483909363
 30
0.0
 10
105019.2994147336
 20
95050.90532412079
 30
0.0
 10
105019.2792956761
 20
95050.90557618986
 30
0.0
 11
105019.5122273747
 21
95051.04560606771
 31
0.0
 11
105019.463788526
 21
95050.93866091216
 31
0.0
 11
105019.4505480367
 21
95050.92731757716
 31
0.0
 11
105019.3947488703
 21
95050.91124786055
 31
0.0
 11
105019.3394225803
 21
95050.90604883442
 31
0.0
 11
105019.2792956761
 21
95050.90557618986
 31
0.0
  0
SPLINE
  5
4FA04
330
1F
100
AcDbEntity
  8
freecads.com
100
AcDbSpline
210
0.0
220
0.0
230
1.0
 70
     8
 71
     3
 72
     8
 73
     4
 74
     0
 42
0.000000001
 43
0.0000000001
 40
464.0075949415173
 40
464.0075949415173
 40
464.0075949415173
 40
464.0075949415173
 40
477.6407544104151
 40
477.6407544104151
 40
477.6407544104151
 40
477.6407544104151
 10
105019.2656556972
 20
95050.7830919949
 30
0.0
 10
105019.2702021415
 20
95050.78309078578
 30
0.0
 10
105019.2747489088
 20
95050.78309639637
 30
0.0
 10
105019.2792956761
 20
95050.78310200699
 30
0.0
  0
SPLINE
  5
4FA05
330
1F
100
AcDbEntity
  8
freecads.com
100
AcDbSpline
210
0.0
220
0.0
230
1.0
 70
     8
 71
     3
 72
     8
 73
     4
 74
     0
 42
0.000000001
 43
0.0000000001
 40
446.2131013440281
 40
446.2131013440281
 40
446.2131013440281
 40
446.2131013440281
 40
447.1245819130988
 40
447.1245819130988
 40
447.1245819130988
 40
447.1245819130988
 10
105019.2656556972
 20
95050.80311213035
 30
0.0
 10
105019.2694577801
 20
95050.8031081963
 30
0.0
 10
105019.2739580099
 20
95050.8031042651
 30
0.0
 10
105019.2792956761
 20
95050.8031003328
 30
0.0
  0
SPLINE
  5
4FA06
330
1F
100
AcDbEntity
  8
freecads.com
100
AcDbSpline
210
0.0
220
0.0
230
1.0
 70
     8
 71
     3
 72
     8
 73
     4
 74
     0
 42
0.000000001
 43
0.0000000001
 40
298.2260641464397
 40
298.2260641464397
 40
298.2260641464397
 40
298.2260641464397
 40
311.8156199324941
 40
311.8156199324941
 40
311.8156199324941
 40
311.8156199324941
 10
105019.2656556972
 20
95050.90540507881
 30
0.0
 10
105019.2702007226
 20
95050.90545334937
 30
0.0
 10
105019.2747481993
 20
95050.90551476962
 30
0.0
 10
105019.2792956761
 20
95050.90557618986
 30
0.0
  0
SPLINE
  5
4FA07
330
1F
100
AcDbEntity
  8
freecads.com
100
AcDbSpline
210
0.0
220
0.0
230
1.0
 70
     8
 71
     3
 72
    15
 73
    11
 74
     0
 42
0.000000001
 43
0.0000000001
 40
0.0
 40
0.0
 40
0.0
 40
0.0
 40
0.0079085775364648
 40
0.020905772075348
 40
0.0376777137607058
 40
0.0869565061910963
 40
0.1251143189091787
 40
0.1691586984575689
 40
0.234414868375695
 40
0.2878979645302115
 40
0.2878979645302115
 40
0.2878979645302115
 40
0.2878979645302115
 10
105019.5417529065
 20
95050.92961147353
 30
0.0
 10
105019.5412674436
 20
95050.93219978116
 30
0.0
 10
105019.5399841563
 20
95050.93904179156
 30
0.0
 10
105019.5396873737
 20
95050.95183498267
 30
0.0
 10
105019.5493660233
 20
95050.97668293538
 30
0.0
 10
105019.5594904852
 20
95051.00967245947
 30
0.0
 10
105019.5718032394
 20
95051.05204696745
 30
0.0
 10
105019.5725024336
 20
95051.10151167155
 30
0.0
 10
105019.573746149
 20
95051.15559947739
 30
0.0
 10
105019.5744064662
 20
95051.19528952931
 30
0.0
 10
105019.5745572849
 20
95051.21309199488
 30
0.0
  0
SPLINE
  5
4FA08
330
1F
100
AcDbEntity
  8
freecads.com
100
AcDbSpline
210
0.0
220
0.0
230
1.0
 70
     8
 71
     3
 72
    15
 73
    11
 74
     0
 42
0.000000001
 43
0.0000000001
 40
0.0
 40
0.0
 40
0.0
 40
0.0
 40
7.908577536480597
 40
20.90577207536215
 40
37.67771376074684
 40
86.95650619113989
 40
125.1143189092015
 40
169.1586984575989
 40
234.4148683757257
 40
289.081150161006
 40
289.081150161006
 40
289.081150161006
 40
289.081150161006
 10
105019.5222730534
 20
95050.92843146695
 30
0.0
 10
105019.5217875905
 20
95050.93101977459
 30
0.0
 10
105019.5205043033
 20
95050.937861785
 30
0.0
 10
105019.5202075198
 20
95050.9506549759
 30
0.0
 10
105019.5298861766
 20
95050.97550293058
 30
0.0
 10
105019.5400105623
 20
95051.00849243351
 30
0.0
 10
105019.5523235891
 20
95051.05086701725
 30
0.0
 10
105019.5530215022
 20
95051.1003313653
 30
0.0
 10
105019.5542810915
 20
95051.15481420547
 30
0.0
 10
105019.554929573
 20
95051.19489770653
 30
0.0
 10
105019.5550822132
 20
95051.21309199488
 30
0.0
  0
LINE
  5
4FA09
330
1F
100
AcDbEntity
  8
freecads.com
100
AcDbLine
 10
105019.2656556972
 20
95050.7830919949
 30
0.0
 11
105019.2656556972
 21
95050.76823679546
 31
0.0
  0
LINE
  5
4FA0A
330
1F
100
AcDbEntity
  8
freecads.com
100
AcDbLine
 10
105019.0136464408
 20
95052.36309199489
 30
0.0
 11
105019.0190840196
 21
95052.53057792206
 31
0.0
  0
SPLINE
  5
4FA0B
330
1F
100
AcDbEntity
  8
freecads.com
100
AcDbSpline
210
0.0
220
0.0
230
1.0
 70
     8
 71
     3
 72
    18
 73
    14
 74
     0
 42
0.000000001
 43
0.0000000001
 40
117.544452272429
 40
117.544452272429
 40
117.544452272429
 40
117.544452272429
 40
121.5782120084558
 40
138.8128471134586
 40
159.7356761485782
 40
185.0258019403773
 40
217.031734495737
 40
240.4054382193022
 40
274.8880694870596
 40
317.0282263848024
 40
367.6883550487834
 40
409.8334730367477
 40
474.4296972636449
 40
474.4296972636449
 40
474.4296972636449
 40
474.4296972636449
 10
105018.9895584878
 20
95052.64657251624
 30
0.0
 10
105018.9892003025
 20
95052.64787836942
 30
0.0
 10
105018.9869801309
 20
95052.65474175608
 30
0.0
 10
105018.9843455977
 20
95052.6684643197
 30
0.0
 10
105018.9827272713
 20
95052.68982509772
 30
0.0
 10
105018.989130604
 20
95052.7153119976
 30
0.0
 10
105019.0016392657
 20
95052.74018025977
 30
0.0
 10
105019.0268024965
 20
95052.75752667129
 30
0.0
 10
105019.0573360821
 20
95052.77076849049
 30
0.0
 10
105019.0976002518
 20
95052.78482907792
 30
0.0
 10
105019.1425299041
 20
95052.78999663007
 30
0.0
 10
105019.1948743275
 20
95052.79309863157
 30
0.0
 10
105019.2304727597
 20
95052.79308825956
 30
0.0
 10
105019.2520157182
 20
95052.79308198279
 30
0.0
  0
SPLINE
  5
4FA0C
330
1F
100
AcDbEntity
  8
freecads.com
100
AcDbSpline
210
0.0
220
0.0
230
1.0
 70
     8
 71
     3
 72
    98
 73
    94
 74
     0
 42
0.000000001
 43
0.0000000001
 40
114.4120633067309
 40
114.4120633067309
 40
114.4120633067309
 40
114.4120633067309
 40
115.313285776192
 40
115.313285776192
 40
117.7748566477773
 40
117.7748566477773
 40
120.2364275193626
 40
120.2364275193626
 40
121.5764322531769
 40
121.5764322531769
 40
125.1629290616186
 40
125.1629290616186
 40
132.0714134550561
 40
132.0714134550561
 40
138.6743689378141
 40
138.6743689378141
 40
142.6406926620967
 40
142.6406926620967
 40
146.6070163863792
 40
146.6070163863792
 40
154.5396638349442
 40
154.5396638349442
 40
159.673548584359
 40
159.673548584359
 40
167.1463235392934
 40
167.1463235392934
 40
174.6190984942278
 40
174.6190984942278
 40
180.2576469558658
 40
180.2576469558658
 40
183.5988372325109
 40
183.5988372325109
 40
186.4614193169528
 40
186.4614193169528
 40
194.3853094132726
 40
194.3853094132726
 40
204.581341962645
 40
204.581341962645
 40
214.7773745120173
 40
214.7773745120173
 40
217.2058118024684
 40
217.2058118024684
 40
219.6342490929195
 40
219.6342490929195
 40
224.4911236738218
 40
224.4911236738218
 40
234.1299422632729
 40
234.1299422632729
 40
239.2278676422874
 40
239.2278676422874
 40
242.1721340347132
 40
242.1721340347132
 40
245.1164004271389
 40
245.1164004271389
 40
251.0049332119904
 40
251.0049332119904
 40
262.7819987816935
 40
262.7819987816935
 40
273.251849682216
 40
273.251849682216
 40
277.263137761276
 40
277.263137761276
 40
281.2744258403359
 40
281.2744258403359
 40
289.2970019984556
 40
289.2970019984556
 40
305.3421543146952
 40
305.3421543146952
 40
316.7210396985118
 40
316.7210396985118
 40
325.3874572347419
 40
325.3874572347419
 40
334.0538747709721
 40
334.0538747709721
 40
351.3867098434323
 40
351.3867098434323
 40
365.4077063558946
 40
365.4077063558946
 40
372.1363343061443
 40
372.1363343061443
 40
378.864962256394
 40
378.864962256394
 40
392.3222181568934
 40
392.3222181568934
 40
406.6676545179282
 40
406.6676545179282
 40
415.4120311423842
 40
415.4120311423842
 40
424.1564077668403
 40
424.1564077668403
 40
441.6451610157523
 40
441.6451610157523
 40
447.1245819130988
 40
447.1245819130988
 40
447.1245819130988
 40
447.1245819130988
 10
105019.0100003873
 20
95052.64657251624
 30
0.0
 10
105019.0099084338
 20
95052.64716808431
 30
0.0
 10
105019.0098065271
 20
95052.64773754438
 30
0.0
 10
105019.0094052395
 20
95052.64976646545
 30
0.0
 10
105019.0090714218
 20
95052.6510602047
 30
0.0
 10
105019.0084436235
 20
95052.65330511624
 30
0.0
 10
105019.0081489141
 20
95052.65425749414
 30
0.0
 10
105019.0077733192
 20
95052.65548155778
 30
0.0
 10
105019.0076557981
 20
95052.65586537337
 30
0.0
 10
105019.0072876989
 20
95052.65709893256
 30
0.0
 10
105019.007036838
 20
95052.658006607
 30
0.0
 10
105019.0063466043
 20
95052.66070112201
 30
0.0
 10
105019.0059482068
 20
95052.6625225885
 30
0.0
 10
105019.0052559192
 20
95052.66620422551
 30
0.0
 10
105019.0049583118
 20
95052.66805903215
 30
0.0
 10
105019.0045305921
 20
95052.67112853017
 30
0.0
 10
105019.0043852332
 20
95052.67227161981
 30
0.0
 10
105019.0041320907
 20
95052.67452096637
 30
0.0
 10
105019.004023984
 20
95052.67562962087
 30
0.0
 10
105019.003761797
 20
95052.67890044615
 30
0.0
 10
105019.0036703596
 20
95052.68100717799
 30
0.0
 10
105019.0036774238
 20
95052.68432705937
 30
0.0
 10
105019.003720121
 20
95052.68559324962
 30
0.0
 10
105019.0039269802
 20
95052.68860131199
 30
0.0
 10
105019.0041455957
 20
95052.69041401938
 30
0.0
 10
105019.004769583
 20
95052.69411862007
 30
0.0
 10
105019.0051749416
 20
95052.69600835584
 30
0.0
 10
105019.0060410048
 20
95052.69938653134
 30
0.0
 10
105019.0064636476
 20
95052.7008594852
 30
0.0
 10
105019.0072113284
 20
95052.70323420621
 30
0.0
 10
105019.0075059534
 20
95052.70412416276
 30
0.0
 10
105019.0080819058
 20
95052.70578750195
 30
0.0
 10
105019.0083601546
 20
95052.7065626874
 30
0.0
 10
105019.0094284674
 20
95052.7094358234
 30
0.0
 10
105019.01026372
 20
95052.71147303833
 30
0.0
 10
105019.012289383
 20
95052.71589793009
 30
0.0
 10
105019.0135131886
 20
95052.71821722475
 30
0.0
 10
105019.0161064366
 20
95052.72241893424
 30
0.0
 10
105019.0174741556
 20
95052.72429985963
 30
0.0
 10
105019.019242299
 20
95052.72634072971
 30
0.0
 10
105019.0195843931
 20
95052.72671869755
 30
0.0
 10
105019.0202822714
 20
95052.7274560089
 30
0.0
 10
105019.0206468065
 20
95052.72782462656
 30
0.0
 10
105019.0217876361
 20
95052.72893026678
 30
0.0
 10
105019.022611381
 20
95052.72966712441
 30
0.0
 10
105019.0252532637
 20
95052.73186090446
 30
0.0
 10
105019.0272536956
 20
95052.73331133787
 30
0.0
 10
105019.0306135194
 20
95052.73549922392
 30
0.0
 10
105019.0318303391
 20
95052.73625086358
 30
0.0
 10
105019.0338213898
 20
95052.73742901271
 30
0.0
 10
105019.034566108
 20
95052.73785931089
 30
0.0
 10
105019.0360627196
 20
95052.73870521326
 30
0.0
 10
105019.0368173607
 20
95052.73912232416
 30
0.0
 10
105019.0391002503
 20
95052.74035744225
 30
0.0
 10
105019.0406474891
 20
95052.74115923665
 30
0.0
 10
105019.0453639145
 20
95052.74351003199
 30
0.0
 10
105019.0486081004
 20
95052.74500433166
 30
0.0
 10
105019.054911091
 20
95052.74774184989
 30
0.0
 10
105019.0579503609
 20
95052.74899448856
 30
0.0
 10
105019.0622442107
 20
95052.75070680189
 30
0.0
 10
105019.0634444665
 20
95052.75117980925
 30
0.0
 10
105019.0658361415
 20
95052.75211132842
 30
0.0
 10
105019.0670309102
 20
95052.75257095284
 30
0.0
 10
105019.0706120224
 20
95052.75392940554
 30
0.0
 10
105019.0729951755
 20
95052.75480780102
 30
0.0
 10
105019.080131785
 20
95052.75734555958
 30
0.0
 10
105019.0848723486
 20
95052.75890725206
 30
0.0
 10
105019.0929447464
 20
95052.76128686588
 30
0.0
 10
105019.0962852991
 20
95052.76218908196
 30
0.0
 10
105019.1021551003
 20
95052.76360593683
 30
0.0
 10
105019.1047177376
 20
95052.76416849769
 30
0.0
 10
105019.1099038692
 20
95052.76520788806
 30
0.0
 10
105019.1125250408
 20
95052.76568417087
 30
0.0
 10
105019.1204670745
 20
95052.76699983154
 30
0.0
 10
105019.1258665797
 20
95052.76772572369
 30
0.0
 10
105019.1357903732
 20
95052.76885335716
 30
0.0
 10
105019.1402846492
 20
95052.7692906197
 30
0.0
 10
105019.1470042114
 20
95052.76988002643
 30
0.0
 10
105019.1491938071
 20
95052.77006270139
 30
0.0
 10
105019.153565386
 20
95052.77041047159
 30
0.0
 10
105019.1557509833
 20
95052.77057562135
 30
0.0
 10
105019.1623075858
 20
95052.77104490303
 30
0.0
 10
105019.1666784016
 20
95052.7713228678
 30
0.0
 10
105019.1757101209
 20
95052.77182526382
 30
0.0
 10
105019.180371131
 20
95052.77204495113
 30
0.0
 10
105019.1878767418
 20
95052.77233509531
 30
0.0
 10
105019.1907196281
 20
95052.77242983174
 30
0.0
 10
105019.1964283643
 20
95052.77259441106
 30
0.0
 10
105019.1992915217
 20
95052.77266443179
 30
0.0
 10
105019.207906749
 20
95052.77284768768
 30
0.0
 10
105019.2136845714
 20
95052.77293405795
 30
0.0
 10
105019.2213155745
 20
95052.7730364185
 30
0.0
 10
105019.2231392794
 20
95052.77306001767
 30
0.0
 10
105019.2520157182
 20
95052.77308365696
 30
0.0
  0
SPLINE
  5
4FA0D
330
1F
100
AcDbEntity
  8
freecads.com
100
AcDbSpline
210
0.0
220
0.0
230
1.0
 70
  1064
 71
     3
 72
    12
 73
     8
 74
     6
 42
0.000000001
 43
0.0000000001
 44
0.0000000001
 40
0.0
 40
0.0
 40
0.0
 40
0.0
 40
0.1174035278572582
 40
0.1348386018796372
 40
0.1929056559088587
 40
0.2484756859943545
 40
0.3086044478091493
 40
0.3086044478091493
 40
0.3086044478091493
 40
0.3086044478091493
 10
105019.0190840196
 20
95052.53057792206
 30
0.0
 10
105019.0296977353
 20
95052.56996832546
 30
0.0
 10
105019.0418876465
 20
95052.61520842191
 30
0.0
 10
105019.090648702
 20
95052.65874598167
 30
0.0
 10
105019.1363223698
 20
95052.6652400854
 30
0.0
 10
105019.1931838954
 20
95052.67134489619
 30
0.0
 10
105019.2318966607
 20
95052.67085986897
 30
0.0
 10
105019.2520157182
 20
95052.6706077999
 30
0.0
 11
105019.0190840196
 21
95052.53057792206
 31
0.0
 11
105019.0675228683
 21
95052.6375230776
 31
0.0
 11
105019.0807633576
 21
95052.64886641262
 31
0.0
 11
105019.136562524
 21
95052.66493612921
 31
0.0
 11
105019.1918888141
 21
95052.67013515537
 31
0.0
 11
105019.2520157182
 21
95052.6706077999
 31
0.0
  0
SPLINE
  5
4FA0E
330
1F
100
AcDbEntity
  8
freecads.com
100
AcDbSpline
210
0.0
220
0.0
230
1.0
 70
     8
 71
     3
 72
     8
 73
     4
 74
     0
 42
0.000000001
 43
0.0000000001
 40
464.0075949415173
 40
464.0075949415173
 40
464.0075949415173
 40
464.0075949415173
 40
477.6407544104151
 40
477.6407544104151
 40
477.6407544104151
 40
477.6407544104151
 10
105019.2656556972
 20
95052.79309199487
 30
0.0
 10
105019.2611092528
 20
95052.79309320398
 30
0.0
 10
105019.2565624855
 20
95052.79308759337
 30
0.0
 10
105019.2520157182
 20
95052.79308198279
 30
0.0
  0
SPLINE
  5
4FA0F
330
1F
100
AcDbEntity
  8
freecads.com
100
AcDbSpline
210
0.0
220
0.0
230
1.0
 70
     8
 71
     3
 72
     8
 73
     4
 74
     0
 42
0.000000001
 43
0.0000000001
 40
446.2131013440281
 40
446.2131013440281
 40
446.2131013440281
 40
446.2131013440281
 40
447.1245819130988
 40
447.1245819130988
 40
447.1245819130988
 40
447.1245819130988
 10
105019.2656556972
 20
95052.77307185943
 30
0.0
 10
105019.2618536142
 20
95052.77307579348
 30
0.0
 10
105019.2573533844
 20
95052.77307972466
 30
0.0
 10
105019.2520157182
 20
95052.77308365696
 30
0.0
  0
SPLINE
  5
4FA10
330
1F
100
AcDbEntity
  8
freecads.com
100
AcDbSpline
210
0.0
220
0.0
230
1.0
 70
     8
 71
     3
 72
     8
 73
     4
 74
     0
 42
0.000000001
 43
0.0000000001
 40
298.2260641464397
 40
298.2260641464397
 40
298.2260641464397
 40
298.2260641464397
 40
311.8156199324941
 40
311.8156199324941
 40
311.8156199324941
 40
311.8156199324941
 10
105019.2656556972
 20
95052.67077891096
 30
0.0
 10
105019.2611106717
 20
95052.67073064038
 30
0.0
 10
105019.256563195
 20
95052.67066922016
 30
0.0
 10
105019.2520157182
 20
95052.6706077999
 30
0.0
  0
SPLINE
  5
4FA11
330
1F
100
AcDbEntity
  8
freecads.com
100
AcDbSpline
210
0.0
220
0.0
230
1.0
 70
     8
 71
     3
 72
    15
 73
    11
 74
     0
 42
0.000000001
 43
0.0000000001
 40
0.0
 40
0.0
 40
0.0
 40
0.0
 40
0.0079085775364648
 40
0.020905772075348
 40
0.0376777137607058
 40
0.0869565061910963
 40
0.1251143189091787
 40
0.1691586984575781
 40
0.2344148683757042
 40
0.2878979645252002
 40
0.2878979645252002
 40
0.2878979645252002
 40
0.2878979645252002
 10
105018.9895584878
 20
95052.64657251624
 30
0.0
 10
105018.9900439507
 20
95052.64398420859
 30
0.0
 10
105018.991327238
 20
95052.63714219822
 30
0.0
 10
105018.9916240206
 20
95052.62434900711
 30
0.0
 10
105018.981945371
 20
95052.5995010544
 30
0.0
 10
105018.9718209091
 20
95052.56651153029
 30
0.0
 10
105018.9595081549
 20
95052.52413702232
 30
0.0
 10
105018.9588089607
 20
95052.4746723182
 30
0.0
 10
105018.9575652453
 20
95052.42058451237
 30
0.0
 10
105018.9569049281
 20
95052.38089446045
 30
0.0
 10
105018.9567541095
 20
95052.36309199489
 30
0.0
  0
SPLINE
  5
4FA12
330
1F
100
AcDbEntity
  8
freecads.com
100
AcDbSpline
210
0.0
220
0.0
230
1.0
 70
     8
 71
     3
 72
    15
 73
    11
 74
     0
 42
0.000000001
 43
0.0000000001
 40
0.0
 40
0.0
 40
0.0
 40
0.0
 40
7.908577536480597
 40
20.90577207536215
 40
37.67771376074684
 40
86.95650619113989
 40
125.1143189092015
 40
169.1586984575989
 40
234.4148683757257
 40
289.0811501559914
 40
289.0811501559914
 40
289.0811501559914
 40
289.0811501559914
 10
105019.0090383409
 20
95052.64775252282
 30
0.0
 10
105019.0095238038
 20
95052.64516421517
 30
0.0
 10
105019.010807091
 20
95052.63832220478
 30
0.0
 10
105019.0111038745
 20
95052.62552901388
 30
0.0
 10
105019.0014252177
 20
95052.60068105918
 30
0.0
 10
105018.991300832
 20
95052.56769155627
 30
0.0
 10
105018.9789878052
 20
95052.52531697252
 30
0.0
 10
105018.9782898921
 20
95052.47585262447
 30
0.0
 10
105018.9770303028
 20
95052.42136978427
 30
0.0
 10
105018.9763818214
 20
95052.38128628326
 30
0.0
 10
105018.9762291811
 20
95052.36309199489
 30
0.0
  0
LINE
  5
4FA13
330
1F
100
AcDbEntity
  8
freecads.com
100
AcDbLine
 10
105019.5176649535
 20
95052.36309199489
 30
0.0
 11
105019.5122273747
 21
95052.53057792206
 31
0.0
  0
SPLINE
  5
4FA14
330
1F
100
AcDbEntity
  8
freecads.com
100
AcDbSpline
210
0.0
220
0.0
230
1.0
 70
     8
 71
     3
 72
    18
 73
    14
 74
     0
 42
0.000000001
 43
0.0000000001
 40
117.544452272429
 40
117.544452272429
 40
117.544452272429
 40
117.544452272429
 40
121.5782120084558
 40
138.8128471134586
 40
159.7356761485782
 40
185.0258019403773
 40
217.031734495737
 40
240.4054382193022
 40
274.8880694870596
 40
317.0282263848024
 40
367.6883550487834
 40
409.8334730367477
 40
474.4296972636449
 40
474.4296972636449
 40
474.4296972636449
 40
474.4296972636449
 10
105019.5417529065
 20
95052.64657251624
 30
0.0
 10
105019.5421110919
 20
95052.64787836942
 30
0.0
 10
105019.5443312634
 20
95052.65474175608
 30
0.0
 10
105019.5469657966
 20
95052.6684643197
 30
0.0
 10
105019.548584123
 20
95052.68982509772
 30
0.0
 10
105019.5421807904
 20
95052.7153119976
 30
0.0
 10
105019.5296721286
 20
95052.74018025977
 30
0.0
 10
105019.5045088978
 20
95052.75752667129
 30
0.0
 10
105019.4739753122
 20
95052.77076849049
 30
0.0
 10
105019.4337111425
 20
95052.78482907792
 30
0.0
 10
105019.3887814902
 20
95052.78999663007
 30
0.0
 10
105019.3364370668
 20
95052.79309863157
 30
0.0
 10
105019.3008386346
 20
95052.79308825956
 30
0.0
 10
105019.2792956761
 20
95052.79308198279
 30
0.0
  0
SPLINE
  5
4FA15
330
1F
100
AcDbEntity
  8
freecads.com
100
AcDbSpline
210
0.0
220
0.0
230
1.0
 70
     8
 71
     3
 72
    98
 73
    94
 74
     0
 42
0.000000001
 43
0.0000000001
 40
114.4120633067309
 40
114.4120633067309
 40
114.4120633067309
 40
114.4120633067309
 40
115.313285776192
 40
115.313285776192
 40
117.7748566477773
 40
117.7748566477773
 40
120.2364275193626
 40
120.2364275193626
 40
121.5764322531769
 40
121.5764322531769
 40
125.1629290616186
 40
125.1629290616186
 40
132.0714134550561
 40
132.0714134550561
 40
138.6743689378141
 40
138.6743689378141
 40
142.6406926620967
 40
142.6406926620967
 40
146.6070163863792
 40
146.6070163863792
 40
154.5396638349442
 40
154.5396638349442
 40
159.673548584359
 40
159.673548584359
 40
167.1463235392934
 40
167.1463235392934
 40
174.6190984942278
 40
174.6190984942278
 40
180.2576469558658
 40
180.2576469558658
 40
183.5988372325109
 40
183.5988372325109
 40
186.4614193169528
 40
186.4614193169528
 40
194.3853094132726
 40
194.3853094132726
 40
204.581341962645
 40
204.581341962645
 40
214.7773745120173
 40
214.7773745120173
 40
217.2058118024684
 40
217.2058118024684
 40
219.6342490929195
 40
219.6342490929195
 40
224.4911236738218
 40
224.4911236738218
 40
234.1299422632729
 40
234.1299422632729
 40
239.2278676422874
 40
239.2278676422874
 40
242.1721340347132
 40
242.1721340347132
 40
245.1164004271389
 40
245.1164004271389
 40
251.0049332119904
 40
251.0049332119904
 40
262.7819987816935
 40
262.7819987816935
 40
273.251849682216
 40
273.251849682216
 40
277.263137761276
 40
277.263137761276
 40
281.2744258403359
 40
281.2744258403359
 40
289.2970019984556
 40
289.2970019984556
 40
305.3421543146952
 40
305.3421543146952
 40
316.7210396985118
 40
316.7210396985118
 40
325.3874572347419
 40
325.3874572347419
 40
334.0538747709721
 40
334.0538747709721
 40
351.3867098434323
 40
351.3867098434323
 40
365.4077063558946
 40
365.4077063558946
 40
372.1363343061443
 40
372.1363343061443
 40
378.864962256394
 40
378.864962256394
 40
392.3222181568934
 40
392.3222181568934
 40
406.6676545179282
 40
406.6676545179282
 40
415.4120311423842
 40
415.4120311423842
 40
424.1564077668403
 40
424.1564077668403
 40
441.6451610157523
 40
441.6451610157523
 40
447.1245819130988
 40
447.1245819130988
 40
447.1245819130988
 40
447.1245819130988
 10
105019.521311007
 20
95052.64657251624
 30
0.0
 10
105019.5214029605
 20
95052.64716808431
 30
0.0
 10
105019.5215048672
 20
95052.64773754438
 30
0.0
 10
105019.5219061548
 20
95052.64976646545
 30
0.0
 10
105019.5222399726
 20
95052.6510602047
 30
0.0
 10
105019.5228677708
 20
95052.65330511624
 30
0.0
 10
105019.5231624802
 20
95052.65425749414
 30
0.0
 10
105019.5235380751
 20
95052.65548155778
 30
0.0
 10
105019.5236555962
 20
95052.65586537337
 30
0.0
 10
105019.5240236954
 20
95052.65709893256
 30
0.0
 10
105019.5242745563
 20
95052.658006607
 30
0.0
 10
105019.52496479
 20
95052.66070112201
 30
0.0
 10
105019.5253631875
 20
95052.6625225885
 30
0.0
 10
105019.5260554751
 20
95052.66620422551
 30
0.0
 10
105019.5263530826
 20
95052.66805903215
 30
0.0
 10
105019.5267808022
 20
95052.67112853017
 30
0.0
 10
105019.5269261611
 20
95052.67227161981
 30
0.0
 10
105019.5271793036
 20
95052.67452096637
 30
0.0
 10
105019.5272874103
 20
95052.67562962087
 30
0.0
 10
105019.5275495973
 20
95052.67890044615
 30
0.0
 10
105019.5276410347
 20
95052.68100717799
 30
0.0
 10
105019.5276339705
 20
95052.68432705937
 30
0.0
 10
105019.5275912733
 20
95052.68559324962
 30
0.0
 10
105019.5273844141
 20
95052.68860131199
 30
0.0
 10
105019.5271657986
 20
95052.69041401938
 30
0.0
 10
105019.5265418113
 20
95052.69411862007
 30
0.0
 10
105019.5261364527
 20
95052.69600835584
 30
0.0
 10
105019.5252703896
 20
95052.69938653134
 30
0.0
 10
105019.5248477467
 20
95052.7008594852
 30
0.0
 10
105019.5241000659
 20
95052.70323420621
 30
0.0
 10
105019.5238054409
 20
95052.70412416276
 30
0.0
 10
105019.5232294885
 20
95052.70578750195
 30
0.0
 10
105019.5229512397
 20
95052.7065626874
 30
0.0
 10
105019.521882927
 20
95052.7094358234
 30
0.0
 10
105019.5210476743
 20
95052.71147303833
 30
0.0
 10
105019.5190220113
 20
95052.71589793009
 30
0.0
 10
105019.5177982057
 20
95052.71821722475
 30
0.0
 10
105019.5152049578
 20
95052.72241893424
 30
0.0
 10
105019.5138372388
 20
95052.72429985963
 30
0.0
 10
105019.5120690953
 20
95052.72634072971
 30
0.0
 10
105019.5117270012
 20
95052.72671869755
 30
0.0
 10
105019.5110291229
 20
95052.7274560089
 30
0.0
 10
105019.5106645878
 20
95052.72782462656
 30
0.0
 10
105019.5095237582
 20
95052.72893026678
 30
0.0
 10
105019.5087000133
 20
95052.72966712441
 30
0.0
 10
105019.5060581306
 20
95052.73186090446
 30
0.0
 10
105019.5040576987
 20
95052.73331133787
 30
0.0
 10
105019.5006978749
 20
95052.73549922392
 30
0.0
 10
105019.4994810552
 20
95052.73625086358
 30
0.0
 10
105019.4974900045
 20
95052.73742901271
 30
0.0
 10
105019.4967452863
 20
95052.73785931089
 30
0.0
 10
105019.4952486747
 20
95052.73870521326
 30
0.0
 10
105019.4944940336
 20
95052.73912232416
 30
0.0
 10
105019.492211144
 20
95052.74035744225
 30
0.0
 10
105019.4906639052
 20
95052.74115923665
 30
0.0
 10
105019.4859474798
 20
95052.74351003199
 30
0.0
 10
105019.4827032939
 20
95052.74500433166
 30
0.0
 10
105019.4764003034
 20
95052.74774184989
 30
0.0
 10
105019.4733610334
 20
95052.74899448856
 30
0.0
 10
105019.4690671836
 20
95052.75070680189
 30
0.0
 10
105019.4678669278
 20
95052.75117980925
 30
0.0
 10
105019.4654752528
 20
95052.75211132842
 30
0.0
 10
105019.4642804841
 20
95052.75257095284
 30
0.0
 10
105019.460699372
 20
95052.75392940554
 30
0.0
 10
105019.4583162188
 20
95052.75480780102
 30
0.0
 10
105019.4511796093
 20
95052.75734555958
 30
0.0
 10
105019.4464390457
 20
95052.75890725206
 30
0.0
 10
105019.4383666479
 20
95052.76128686588
 30
0.0
 10
105019.4350260952
 20
95052.76218908196
 30
0.0
 10
105019.429156294
 20
95052.76360593683
 30
0.0
 10
105019.4265936568
 20
95052.76416849769
 30
0.0
 10
105019.4214075252
 20
95052.76520788806
 30
0.0
 10
105019.4187863535
 20
95052.76568417087
 30
0.0
 10
105019.4108443198
 20
95052.76699983154
 30
0.0
 10
105019.4054448147
 20
95052.76772572369
 30
0.0
 10
105019.3955210211
 20
95052.76885335716
 30
0.0
 10
105019.3910267452
 20
95052.7692906197
 30
0.0
 10
105019.3843071829
 20
95052.76988002643
 30
0.0
 10
105019.3821175872
 20
95052.77006270139
 30
0.0
 10
105019.3777460083
 20
95052.77041047159
 30
0.0
 10
105019.375560411
 20
95052.77057562135
 30
0.0
 10
105019.3690038085
 20
95052.77104490303
 30
0.0
 10
105019.3646329927
 20
95052.7713228678
 30
0.0
 10
105019.3556012734
 20
95052.77182526382
 30
0.0
 10
105019.3509402633
 20
95052.77204495113
 30
0.0
 10
105019.3434346525
 20
95052.77233509531
 30
0.0
 10
105019.3405917662
 20
95052.77242983174
 30
0.0
 10
105019.33488303
 20
95052.77259441106
 30
0.0
 10
105019.3320198726
 20
95052.77266443179
 30
0.0
 10
105019.3234046453
 20
95052.77284768768
 30
0.0
 10
105019.3176268229
 20
95052.77293405795
 30
0.0
 10
105019.3099958199
 20
95052.7730364185
 30
0.0
 10
105019.3081721149
 20
95052.77306001767
 30
0.0
 10
105019.2792956761
 20
95052.77308365696
 30
0.0
  0
SPLINE
  5
4FA16
330
1F
100
AcDbEntity
  8
freecads.com
100
AcDbSpline
210
0.0
220
0.0
230
1.0
 70
  1064
 71
     3
 72
    12
 73
     8
 74
     6
 42
0.000000001
 43
0.0000000001
 44
0.0000000001
 40
0.0
 40
0.0
 40
0.0
 40
0.0
 40
0.1174035278572582
 40
0.1348386018796372
 40
0.1929056559088587
 40
0.2484756859798663
 40
0.3086044478092127
 40
0.3086044478092127
 40
0.3086044478092127
 40
0.3086044478092127
 10
105019.5122273747
 20
95052.53057792206
 30
0.0
 10
105019.501613659
 20
95052.56996832546
 30
0.0
 10
105019.4894237478
 20
95052.61520842191
 30
0.0
 10
105019.4406626923
 20
95052.65874598167
 30
0.0
 10
105019.3949890245
 20
95052.6652400854
 30
0.0
 10
105019.3381274989
 20
95052.67134489617
 30
0.0
 10
105019.2994147336
 20
95052.67085986899
 30
0.0
 10
105019.2792956761
 20
95052.6706077999
 30
0.0
 11
105019.5122273747
 21
95052.53057792206
 31
0.0
 11
105019.463788526
 21
95052.6375230776
 31
0.0
 11
105019.4505480367
 21
95052.64886641262
 31
0.0
 11
105019.3947488703
 21
95052.66493612921
 31
0.0
 11
105019.3394225803
 21
95052.67013515537
 31
0.0
 11
105019.2792956761
 21
95052.6706077999
 31
0.0
  0
SPLINE
  5
4FA17
330
1F
100
AcDbEntity
  8
freecads.com
100
AcDbSpline
210
0.0
220
0.0
230
1.0
 70
     8
 71
     3
 72
     8
 73
     4
 74
     0
 42
0.000000001
 43
0.0000000001
 40
464.0075949415173
 40
464.0075949415173
 40
464.0075949415173
 40
464.0075949415173
 40
477.6407544104151
 40
477.6407544104151
 40
477.6407544104151
 40
477.6407544104151
 10
105019.2656556972
 20
95052.79309199487
 30
0.0
 10
105019.2702021415
 20
95052.79309320398
 30
0.0
 10
105019.2747489088
 20
95052.79308759337
 30
0.0
 10
105019.2792956761
 20
95052.79308198279
 30
0.0
  0
SPLINE
  5
4FA18
330
1F
100
AcDbEntity
  8
freecads.com
100
AcDbSpline
210
0.0
220
0.0
230
1.0
 70
     8
 71
     3
 72
     8
 73
     4
 74
     0
 42
0.000000001
 43
0.0000000001
 40
446.2131013440281
 40
446.2131013440281
 40
446.2131013440281
 40
446.2131013440281
 40
447.1245819130988
 40
447.1245819130988
 40
447.1245819130988
 40
447.1245819130988
 10
105019.2656556972
 20
95052.77307185943
 30
0.0
 10
105019.2694577801
 20
95052.77307579348
 30
0.0
 10
105019.2739580099
 20
95052.77307972466
 30
0.0
 10
105019.2792956761
 20
95052.77308365696
 30
0.0
  0
SPLINE
  5
4FA19
330
1F
100
AcDbEntity
  8
freecads.com
100
AcDbSpline
210
0.0
220
0.0
230
1.0
 70
     8
 71
     3
 72
     8
 73
     4
 74
     0
 42
0.000000001
 43
0.0000000001
 40
298.2260641464397
 40
298.2260641464397
 40
298.2260641464397
 40
298.2260641464397
 40
311.8156199324941
 40
311.8156199324941
 40
311.8156199324941
 40
311.8156199324941
 10
105019.2656556972
 20
95052.67077891096
 30
0.0
 10
105019.2702007226
 20
95052.67073064038
 30
0.0
 10
105019.2747481993
 20
95052.67066922016
 30
0.0
 10
105019.2792956761
 20
95052.6706077999
 30
0.0
  0
SPLINE
  5
4FA1A
330
1F
100
AcDbEntity
  8
freecads.com
100
AcDbSpline
210
0.0
220
0.0
230
1.0
 70
     8
 71
     3
 72
    15
 73
    11
 74
     0
 42
0.000000001
 43
0.0000000001
 40
0.0
 40
0.0
 40
0.0
 40
0.0
 40
0.0079085775364647
 40
0.0209057720753478
 40
0.0376777137607056
 40
0.0869565061910961
 40
0.1251143189091786
 40
0.1691586984575688
 40
0.2344148683756949
 40
0.2878979645222484
 40
0.2878979645222484
 40
0.2878979645222484
 40
0.2878979645222484
 10
105019.5417529065
 20
95052.64657251624
 30
0.0
 10
105019.5412674436
 20
95052.64398420859
 30
0.0
 10
105019.5399841563
 20
95052.63714219822
 30
0.0
 10
105019.5396873737
 20
95052.62434900711
 30
0.0
 10
105019.5493660233
 20
95052.5995010544
 30
0.0
 10
105019.5594904852
 20
95052.56651153029
 30
0.0
 10
105019.5718032394
 20
95052.52413702232
 30
0.0
 10
105019.5725024336
 20
95052.4746723182
 30
0.0
 10
105019.573746149
 20
95052.42058451237
 30
0.0
 10
105019.5744064662
 20
95052.38089446045
 30
0.0
 10
105019.5745572849
 20
95052.36309199489
 30
0.0
  0
SPLINE
  5
4FA1B
330
1F
100
AcDbEntity
  8
freecads.com
100
AcDbSpline
210
0.0
220
0.0
230
1.0
 70
     8
 71
     3
 72
    15
 73
    11
 74
     0
 42
0.000000001
 43
0.0000000001
 40
0.0
 40
0.0
 40
0.0
 40
0.0
 40
7.908577536480597
 40
20.90577207536215
 40
37.67771376074684
 40
86.95650619113989
 40
125.1143189092015
 40
169.1586984575989
 40
234.4148683757257
 40
289.0811501532373
 40
289.0811501532373
 40
289.0811501532373
 40
289.0811501532373
 10
105019.5222730534
 20
95052.64775252282
 30
0.0
 10
105019.5217875905
 20
95052.64516421517
 30
0.0
 10
105019.5205043033
 20
95052.63832220478
 30
0.0
 10
105019.5202075198
 20
95052.62552901388
 30
0.0
 10
105019.5298861766
 20
95052.60068105918
 30
0.0
 10
105019.5400105623
 20
95052.56769155627
 30
0.0
 10
105019.5523235891
 20
95052.52531697252
 30
0.0
 10
105019.5530215022
 20
95052.47585262447
 30
0.0
 10
105019.5542810915
 20
95052.42136978427
 30
0.0
 10
105019.554929573
 20
95052.38128628326
 30
0.0
 10
105019.5550822132
 20
95052.36309199489
 30
0.0
  0
LINE
  5
4FA1C
330
1F
100
AcDbEntity
  8
freecads.com
100
AcDbLine
 10
105019.2656556972
 20
95052.79309199487
 30
0.0
 11
105019.2656556972
 21
95052.80794719432
 31
0.0
  0
LINE
  5
4FA1D
330
1F
100
AcDbEntity
  8
freecads.com
100
AcDbLine
 10
105019.8462876798
 20
95051.21309199488
 30
0.0
 11
105019.8517252587
 21
95051.04560606771
 31
0.0
  0
SPLINE
  5
4FA1E
330
1F
100
AcDbEntity
  8
freecads.com
100
AcDbSpline
210
0.0
220
0.0
230
1.0
 70
     8
 71
     3
 72
    18
 73
    14
 74
     0
 42
0.000000001
 43
0.0000000001
 40
117.544452272429
 40
117.544452272429
 40
117.544452272429
 40
117.544452272429
 40
121.5782120084558
 40
138.8128471134586
 40
159.7356761485782
 40
185.0258019403773
 40
217.031734495737
 40
240.4054382193022
 40
274.8880694870596
 40
317.0282263848024
 40
367.6883550487834
 40
409.8334730367477
 40
474.4296972636449
 40
474.4296972636449
 40
474.4296972636449
 40
474.4296972636449
 10
105019.8221997268
 20
95050.92961147353
 30
0.0
 10
105019.8218415415
 20
95050.92830562034
 30
0.0
 10
105019.81962137
 20
95050.92144223368
 30
0.0
 10
105019.8169868368
 20
95050.90771967005
 30
0.0
 10
105019.8153685104
 20
95050.88635889205
 30
0.0
 10
105019.821771843
 20
95050.86087199217
 30
0.0
 10
105019.8342805048
 20
95050.83600373001
 30
0.0
 10
105019.8594437356
 20
95050.81865731847
 30
0.0
 10
105019.8899773211
 20
95050.80541549929
 30
0.0
 10
105019.9302414909
 20
95050.79135491186
 30
0.0
 10
105019.9751711432
 20
95050.7861873597
 30
0.0
 10
105020.0275155666
 20
95050.7830853582
 30
0.0
 10
105020.0631139988
 20
95050.7830957302
 30
0.0
 10
105020.0846569573
 20
95050.78310200699
 30
0.0
  0
SPLINE
  5
4FA1F
330
1F
100
AcDbEntity
  8
freecads.com
100
AcDbSpline
210
0.0
220
0.0
230
1.0
 70
     8
 71
     3
 72
    98
 73
    94
 74
     0
 42
0.000000001
 43
0.0000000001
 40
114.4120633067309
 40
114.4120633067309
 40
114.4120633067309
 40
114.4120633067309
 40
115.313285776192
 40
115.313285776192
 40
117.7748566477773
 40
117.7748566477773
 40
120.2364275193626
 40
120.2364275193626
 40
121.5764322531769
 40
121.5764322531769
 40
125.1629290616186
 40
125.1629290616186
 40
132.0714134550561
 40
132.0714134550561
 40
138.6743689378141
 40
138.6743689378141
 40
142.6406926620967
 40
142.6406926620967
 40
146.6070163863792
 40
146.6070163863792
 40
154.5396638349442
 40
154.5396638349442
 40
159.673548584359
 40
159.673548584359
 40
167.1463235392934
 40
167.1463235392934
 40
174.6190984942278
 40
174.6190984942278
 40
180.2576469558658
 40
180.2576469558658
 40
183.5988372325109
 40
183.5988372325109
 40
186.4614193169528
 40
186.4614193169528
 40
194.3853094132726
 40
194.3853094132726
 40
204.581341962645
 40
204.581341962645
 40
214.7773745120173
 40
214.7773745120173
 40
217.2058118024684
 40
217.2058118024684
 40
219.6342490929195
 40
219.6342490929195
 40
224.4911236738218
 40
224.4911236738218
 40
234.1299422632729
 40
234.1299422632729
 40
239.2278676422874
 40
239.2278676422874
 40
242.1721340347132
 40
242.1721340347132
 40
245.1164004271389
 40
245.1164004271389
 40
251.0049332119904
 40
251.0049332119904
 40
262.7819987816935
 40
262.7819987816935
 40
273.251849682216
 40
273.251849682216
 40
277.263137761276
 40
277.263137761276
 40
281.2744258403359
 40
281.2744258403359
 40
289.2970019984556
 40
289.2970019984556
 40
305.3421543146952
 40
305.3421543146952
 40
316.7210396985118
 40
316.7210396985118
 40
325.3874572347419
 40
325.3874572347419
 40
334.0538747709721
 40
334.0538747709721
 40
351.3867098434323
 40
351.3867098434323
 40
365.4077063558946
 40
365.4077063558946
 40
372.1363343061443
 40
372.1363343061443
 40
378.864962256394
 40
378.864962256394
 40
392.3222181568934
 40
392.3222181568934
 40
406.6676545179282
 40
406.6676545179282
 40
415.4120311423842
 40
415.4120311423842
 40
424.1564077668403
 40
424.1564077668403
 40
441.6451610157523
 40
441.6451610157523
 40
447.1245819130988
 40
447.1245819130988
 40
447.1245819130988
 40
447.1245819130988
 10
105019.8426416264
 20
95050.92961147353
 30
0.0
 10
105019.8425496729
 20
95050.92901590545
 30
0.0
 10
105019.8424477661
 20
95050.9284464454
 30
0.0
 10
105019.8420464785
 20
95050.92641752433
 30
0.0
 10
105019.8417126608
 20
95050.92512378508
 30
0.0
 10
105019.8410848625
 20
95050.92287887354
 30
0.0
 10
105019.8407901532
 20
95050.92192649563
 30
0.0
 10
105019.8404145582
 20
95050.92070243199
 30
0.0
 10
105019.8402970372
 20
95050.92031861639
 30
0.0
 10
105019.8399289379
 20
95050.9190850572
 30
0.0
 10
105019.839678077
 20
95050.91817738277
 30
0.0
 10
105019.8389878434
 20
95050.91548286776
 30
0.0
 10
105019.8385894459
 20
95050.91366140126
 30
0.0
 10
105019.8378971582
 20
95050.90997976425
 30
0.0
 10
105019.8375995508
 20
95050.90812495762
 30
0.0
 10
105019.8371718312
 20
95050.90505545961
 30
0.0
 10
105019.8370264722
 20
95050.90391236997
 30
0.0
 10
105019.8367733297
 20
95050.90166302339
 30
0.0
 10
105019.836665223
 20
95050.90055436889
 30
0.0
 10
105019.8364030361
 20
95050.89728354359
 30
0.0
 10
105019.8363115987
 20
95050.89517681179
 30
0.0
 10
105019.8363186628
 20
95050.89185693039
 30
0.0
 10
105019.8363613601
 20
95050.89059074013
 30
0.0
 10
105019.8365682193
 20
95050.88758267779
 30
0.0
 10
105019.8367868347
 20
95050.88576997039
 30
0.0
 10
105019.837410822
 20
95050.88206536969
 30
0.0
 10
105019.8378161807
 20
95050.88017563393
 30
0.0
 10
105019.8386822438
 20
95050.87679745843
 30
0.0
 10
105019.8391048866
 20
95050.87532450456
 30
0.0
 10
105019.8398525674
 20
95050.87294978356
 30
0.0
 10
105019.8401471925
 20
95050.872059827
 30
0.0
 10
105019.8407231448
 20
95050.87039648783
 30
0.0
 10
105019.8410013936
 20
95050.86962130237
 30
0.0
 10
105019.8420697064
 20
95050.86674816638
 30
0.0
 10
105019.842904959
 20
95050.86471095143
 30
0.0
 10
105019.8449306221
 20
95050.86028605967
 30
0.0
 10
105019.8461544277
 20
95050.85796676501
 30
0.0
 10
105019.8487476756
 20
95050.85376505554
 30
0.0
 10
105019.8501153946
 20
95050.85188413016
 30
0.0
 10
105019.8518835381
 20
95050.84984326005
 30
0.0
 10
105019.8522256321
 20
95050.84946529221
 30
0.0
 10
105019.8529235104
 20
95050.84872798084
 30
0.0
 10
105019.8532880456
 20
95050.84835936321
 30
0.0
 10
105019.8544288752
 20
95050.847253723
 30
0.0
 10
105019.8552526201
 20
95050.84651686535
 30
0.0
 10
105019.8578945028
 20
95050.8443230853
 30
0.0
 10
105019.8598949346
 20
95050.84287265189
 30
0.0
 10
105019.8632547585
 20
95050.84068476584
 30
0.0
 10
105019.8644715781
 20
95050.83993312618
 30
0.0
 10
105019.8664626289
 20
95050.83875497705
 30
0.0
 10
105019.8672073471
 20
95050.83832467887
 30
0.0
 10
105019.8687039586
 20
95050.8374787765
 30
0.0
 10
105019.8694585997
 20
95050.8370616656
 30
0.0
 10
105019.8717414893
 20
95050.83582654753
 30
0.0
 10
105019.8732887282
 20
95050.83502475311
 30
0.0
 10
105019.8780051536
 20
95050.83267395775
 30
0.0
 10
105019.8812493394
 20
95050.83117965812
 30
0.0
 10
105019.88755233
 20
95050.82844213989
 30
0.0
 10
105019.8905916
 20
95050.8271895012
 30
0.0
 10
105019.8948854498
 20
95050.82547718789
 30
0.0
 10
105019.8960857055
 20
95050.82500418053
 30
0.0
 10
105019.8984773805
 20
95050.82407266135
 30
0.0
 10
105019.8996721493
 20
95050.82361303694
 30
0.0
 10
105019.9032532614
 20
95050.82225458423
 30
0.0
 10
105019.9056364145
 20
95050.82137618874
 30
0.0
 10
105019.9127730241
 20
95050.81883843018
 30
0.0
 10
105019.9175135876
 20
95050.8172767377
 30
0.0
 10
105019.9255859854
 20
95050.81489712388
 30
0.0
 10
105019.9289265381
 20
95050.8139949078
 30
0.0
 10
105019.9347963393
 20
95050.81257805295
 30
0.0
 10
105019.9373589766
 20
95050.81201549209
 30
0.0
 10
105019.9425451082
 20
95050.81097610169
 30
0.0
 10
105019.9451662798
 20
95050.81049981889
 30
0.0
 10
105019.9531083136
 20
95050.80918415824
 30
0.0
 10
105019.9585078187
 20
95050.80845826608
 30
0.0
 10
105019.9684316122
 20
95050.80733063262
 30
0.0
 10
105019.9729258882
 20
95050.80689337006
 30
0.0
 10
105019.9796454504
 20
95050.80630396333
 30
0.0
 10
105019.9818350461
 20
95050.80612128839
 30
0.0
 10
105019.9862066251
 20
95050.80577351817
 30
0.0
 10
105019.9883922224
 20
95050.80560836843
 30
0.0
 10
105019.9949488249
 20
95050.80513908671
 30
0.0
 10
105019.9993196406
 20
95050.80486112197
 30
0.0
 10
105020.0083513599
 20
95050.80435872592
 30
0.0
 10
105020.01301237
 20
95050.80413903861
 30
0.0
 10
105020.0205179809
 20
95050.80384889444
 30
0.0
 10
105020.0233608672
 20
95050.80375415802
 30
0.0
 10
105020.0290696034
 20
95050.8035895787
 30
0.0
 10
105020.0319327607
 20
95050.80351955795
 30
0.0
 10
105020.0405479881
 20
95050.80333630209
 30
0.0
 10
105020.0463258105
 20
95050.80324993182
 30
0.0
 10
105020.0539568135
 20
95050.80314757126
 30
0.0
 10
105020.0557805185
 20
95050.80312397209
 30
0.0
 10
105020.0846569573
 20
95050.8031003328
 30
0.0
  0
SPLINE
  5
4FA20
330
1F
100
AcDbEntity
  8
freecads.com
100
AcDbSpline
210
0.0
220
0.0
230
1.0
 70
  1064
 71
     3
 72
    12
 73
     8
 74
     6
 42
0.000000001
 43
0.0000000001
 44
0.0000000001
 40
0.0
 40
0.0
 40
0.0
 40
0.0
 40
0.1174035278440026
 40
0.1348386018663816
 40
0.1929056558996302
 40
0.2484756859692764
 40
0.3086044477840713
 40
0.3086044477840713
 40
0.3086044477840713
 40
0.3086044477840713
 10
105019.8517252587
 20
95051.04560606771
 30
0.0
 10
105019.8623389744
 20
95051.00621566432
 30
0.0
 10
105019.8745288857
 20
95050.96097556791
 30
0.0
 10
105019.923289941
 20
95050.91743800807
 30
0.0
 10
105019.9689636089
 20
95050.91094390436
 30
0.0
 10
105020.0258251344
 20
95050.90483909363
 30
0.0
 10
105020.0645378998
 20
95050.90532412079
 30
0.0
 10
105020.0846569573
 20
95050.90557618986
 30
0.0
 11
105019.8517252587
 21
95051.04560606771
 31
0.0
 11
105019.9001641074
 21
95050.93866091216
 31
0.0
 11
105019.9134045967
 21
95050.92731757716
 31
0.0
 11
105019.9692037631
 21
95050.91124786055
 31
0.0
 11
105020.0245300531
 21
95050.90604883442
 31
0.0
 11
105020.0846569573
 21
95050.90557618986
 31
0.0
  0
SPLINE
  5
4FA21
330
1F
100
AcDbEntity
  8
freecads.com
100
AcDbSpline
210
0.0
220
0.0
230
1.0
 70
     8
 71
     3
 72
     8
 73
     4
 74
     0
 42
0.000000001
 43
0.0000000001
 40
464.0075949415173
 40
464.0075949415173
 40
464.0075949415173
 40
464.0075949415173
 40
477.6407544104151
 40
477.6407544104151
 40
477.6407544104151
 40
477.6407544104151
 10
105020.0982969362
 20
95050.7830919949
 30
0.0
 10
105020.0937504919
 20
95050.78309078578
 30
0.0
 10
105020.0892037246
 20
95050.78309639637
 30
0.0
 10
105020.0846569573
 20
95050.78310200699
 30
0.0
  0
SPLINE
  5
4FA22
330
1F
100
AcDbEntity
  8
freecads.com
100
AcDbSpline
210
0.0
220
0.0
230
1.0
 70
     8
 71
     3
 72
     8
 73
     4
 74
     0
 42
0.000000001
 43
0.0000000001
 40
446.2131013440281
 40
446.2131013440281
 40
446.2131013440281
 40
446.2131013440281
 40
447.1245819130988
 40
447.1245819130988
 40
447.1245819130988
 40
447.1245819130988
 10
105020.0982969362
 20
95050.80311213035
 30
0.0
 10
105020.0944948532
 20
95050.8031081963
 30
0.0
 10
105020.0899946235
 20
95050.8031042651
 30
0.0
 10
105020.0846569573
 20
95050.8031003328
 30
0.0
  0
SPLINE
  5
4FA23
330
1F
100
AcDbEntity
  8
freecads.com
100
AcDbSpline
210
0.0
220
0.0
230
1.0
 70
     8
 71
     3
 72
     8
 73
     4
 74
     0
 42
0.000000001
 43
0.0000000001
 40
298.2260641464397
 40
298.2260641464397
 40
298.2260641464397
 40
298.2260641464397
 40
311.8156199324941
 40
311.8156199324941
 40
311.8156199324941
 40
311.8156199324941
 10
105020.0982969362
 20
95050.90540507881
 30
0.0
 10
105020.0937519108
 20
95050.90545334937
 30
0.0
 10
105020.089204434
 20
95050.90551476962
 30
0.0
 10
105020.0846569573
 20
95050.90557618986
 30
0.0
  0
SPLINE
  5
4FA24
330
1F
100
AcDbEntity
  8
freecads.com
100
AcDbSpline
210
0.0
220
0.0
230
1.0
 70
     8
 71
     3
 72
    15
 73
    11
 74
     0
 42
0.000000001
 43
0.0000000001
 40
0.0
 40
0.0
 40
0.0
 40
0.0
 40
0.0079085775364648
 40
0.020905772075348
 40
0.037677713760706
 40
0.0869565061910963
 40
0.1251143189091787
 40
0.1691586984575781
 40
0.2344148683757042
 40
0.2878979645312396
 40
0.2878979645312396
 40
0.2878979645312396
 40
0.2878979645312396
 10
105019.8221997268
 20
95050.92961147353
 30
0.0
 10
105019.8226851898
 20
95050.93219978116
 30
0.0
 10
105019.823968477
 20
95050.93904179156
 30
0.0
 10
105019.8242652597
 20
95050.95183498267
 30
0.0
 10
105019.81458661
 20
95050.97668293538
 30
0.0
 10
105019.8044621482
 20
95051.00967245947
 30
0.0
 10
105019.7921493939
 20
95051.05204696745
 30
0.0
 10
105019.7914501998
 20
95051.10151167155
 30
0.0
 10
105019.7902064844
 20
95051.15559947739
 30
0.0
 10
105019.7895461672
 20
95051.19528952931
 30
0.0
 10
105019.7893953485
 20
95051.21309199488
 30
0.0
  0
SPLINE
  5
4FA25
330
1F
100
AcDbEntity
  8
freecads.com
100
AcDbSpline
210
0.0
220
0.0
230
1.0
 70
     8
 71
     3
 72
    15
 73
    11
 74
     0
 42
0.000000001
 43
0.0000000001
 40
0.0
 40
0.0
 40
0.0
 40
0.0
 40
7.908577536480597
 40
20.90577207536215
 40
37.67771376074684
 40
86.95650619113989
 40
125.1143189092015
 40
169.1586984575989
 40
234.4148683757257
 40
289.0811501622181
 40
289.0811501622181
 40
289.0811501622181
 40
289.0811501622181
 10
105019.84167958
 20
95050.92843146695
 30
0.0
 10
105019.8421650428
 20
95050.93101977459
 30
0.0
 10
105019.84344833
 20
95050.937861785
 30
0.0
 10
105019.8437451135
 20
95050.9506549759
 30
0.0
 10
105019.8340664567
 20
95050.97550293058
 30
0.0
 10
105019.823942071
 20
95051.00849243351
 30
0.0
 10
105019.8116290443
 20
95051.05086701725
 30
0.0
 10
105019.8109311311
 20
95051.1003313653
 30
0.0
 10
105019.8096715418
 20
95051.15481420547
 30
0.0
 10
105019.8090230604
 20
95051.19489770653
 30
0.0
 10
105019.8088704202
 20
95051.21309199488
 30
0.0
  0
LINE
  5
4FA26
330
1F
100
AcDbEntity
  8
freecads.com
100
AcDbLine
 10
105020.3503061926
 20
95051.21309199489
 30
0.0
 11
105020.3448686137
 21
95051.04560606771
 31
0.0
  0
SPLINE
  5
4FA27
330
1F
100
AcDbEntity
  8
freecads.com
100
AcDbSpline
210
0.0
220
0.0
230
1.0
 70
     8
 71
     3
 72
    18
 73
    14
 74
     0
 42
0.000000001
 43
0.0000000001
 40
117.544452272429
 40
117.544452272429
 40
117.544452272429
 40
117.544452272429
 40
121.5782120084558
 40
138.8128471134586
 40
159.7356761485782
 40
185.0258019403773
 40
217.031734495737
 40
240.4054382193022
 40
274.8880694870596
 40
317.0282263848024
 40
367.6883550487834
 40
409.8334730367477
 40
474.4296972636449
 40
474.4296972636449
 40
474.4296972636449
 40
474.4296972636449
 10
105020.3743941456
 20
95050.92961147353
 30
0.0
 10
105020.3747523309
 20
95050.92830562034
 30
0.0
 10
105020.3769725024
 20
95050.92144223368
 30
0.0
 10
105020.3796070356
 20
95050.90771967005
 30
0.0
 10
105020.381225362
 20
95050.88635889205
 30
0.0
 10
105020.3748220294
 20
95050.86087199217
 30
0.0
 10
105020.3623133676
 20
95050.83600373001
 30
0.0
 10
105020.3371501368
 20
95050.81865731847
 30
0.0
 10
105020.3066165513
 20
95050.80541549929
 30
0.0
 10
105020.2663523815
 20
95050.79135491186
 30
0.0
 10
105020.2214227293
 20
95050.7861873597
 30
0.0
 10
105020.1690783058
 20
95050.7830853582
 30
0.0
 10
105020.1334798737
 20
95050.7830957302
 30
0.0
 10
105020.1119369151
 20
95050.78310200699
 30
0.0
  0
SPLINE
  5
4FA28
330
1F
100
AcDbEntity
  8
freecads.com
100
AcDbSpline
210
0.0
220
0.0
230
1.0
 70
     8
 71
     3
 72
    98
 73
    94
 74
     0
 42
0.000000001
 43
0.0000000001
 40
114.4120633067309
 40
114.4120633067309
 40
114.4120633067309
 40
114.4120633067309
 40
115.313285776192
 40
115.313285776192
 40
117.7748566477773
 40
117.7748566477773
 40
120.2364275193626
 40
120.2364275193626
 40
121.5764322531769
 40
121.5764322531769
 40
125.1629290616186
 40
125.1629290616186
 40
132.0714134550561
 40
132.0714134550561
 40
138.6743689378141
 40
138.6743689378141
 40
142.6406926620967
 40
142.6406926620967
 40
146.6070163863792
 40
146.6070163863792
 40
154.5396638349442
 40
154.5396638349442
 40
159.673548584359
 40
159.673548584359
 40
167.1463235392934
 40
167.1463235392934
 40
174.6190984942278
 40
174.6190984942278
 40
180.2576469558658
 40
180.2576469558658
 40
183.5988372325109
 40
183.5988372325109
 40
186.4614193169528
 40
186.4614193169528
 40
194.3853094132726
 40
194.3853094132726
 40
204.581341962645
 40
204.581341962645
 40
214.7773745120173
 40
214.7773745120173
 40
217.2058118024684
 40
217.2058118024684
 40
219.6342490929195
 40
219.6342490929195
 40
224.4911236738218
 40
224.4911236738218
 40
234.1299422632729
 40
234.1299422632729
 40
239.2278676422874
 40
239.2278676422874
 40
242.1721340347132
 40
242.1721340347132
 40
245.1164004271389
 40
245.1164004271389
 40
251.0049332119904
 40
251.0049332119904
 40
262.7819987816935
 40
262.7819987816935
 40
273.251849682216
 40
273.251849682216
 40
277.263137761276
 40
277.263137761276
 40
281.2744258403359
 40
281.2744258403359
 40
289.2970019984556
 40
289.2970019984556
 40
305.3421543146952
 40
305.3421543146952
 40
316.7210396985118
 40
316.7210396985118
 40
325.3874572347419
 40
325.3874572347419
 40
334.0538747709721
 40
334.0538747709721
 40
351.3867098434323
 40
351.3867098434323
 40
365.4077063558946
 40
365.4077063558946
 40
372.1363343061443
 40
372.1363343061443
 40
378.864962256394
 40
378.864962256394
 40
392.3222181568934
 40
392.3222181568934
 40
406.6676545179282
 40
406.6676545179282
 40
415.4120311423842
 40
415.4120311423842
 40
424.1564077668403
 40
424.1564077668403
 40
441.6451610157523
 40
441.6451610157523
 40
447.1245819130988
 40
447.1245819130988
 40
447.1245819130988
 40
447.1245819130988
 10
105020.353952246
 20
95050.92961147353
 30
0.0
 10
105020.3540441995
 20
95050.92901590545
 30
0.0
 10
105020.3541461063
 20
95050.9284464454
 30
0.0
 10
105020.3545473939
 20
95050.92641752433
 30
0.0
 10
105020.3548812116
 20
95050.92512378508
 30
0.0
 10
105020.3555090099
 20
95050.92287887354
 30
0.0
 10
105020.3558037192
 20
95050.92192649563
 30
0.0
 10
105020.3561793142
 20
95050.92070243199
 30
0.0
 10
105020.3562968352
 20
95050.92031861639
 30
0.0
 10
105020.3566649345
 20
95050.9190850572
 30
0.0
 10
105020.3569157954
 20
95050.91817738277
 30
0.0
 10
105020.357606029
 20
95050.91548286776
 30
0.0
 10
105020.3580044265
 20
95050.91366140126
 30
0.0
 10
105020.3586967142
 20
95050.90997976425
 30
0.0
 10
105020.3589943216
 20
95050.90812495762
 30
0.0
 10
105020.3594220412
 20
95050.90505545961
 30
0.0
 10
105020.3595674002
 20
95050.90391236997
 30
0.0
 10
105020.3598205427
 20
95050.90166302339
 30
0.0
 10
105020.3599286494
 20
95050.90055436889
 30
0.0
 10
105020.3601908363
 20
95050.89728354359
 30
0.0
 10
105020.3602822738
 20
95050.89517681179
 30
0.0
 10
105020.3602752096
 20
95050.89185693039
 30
0.0
 10
105020.3602325123
 20
95050.89059074013
 30
0.0
 10
105020.3600256531
 20
95050.88758267779
 30
0.0
 10
105020.3598070377
 20
95050.88576997039
 30
0.0
 10
105020.3591830504
 20
95050.88206536969
 30
0.0
 10
105020.3587776917
 20
95050.88017563393
 30
0.0
 10
105020.3579116286
 20
95050.87679745843
 30
0.0
 10
105020.3574889858
 20
95050.87532450456
 30
0.0
 10
105020.356741305
 20
95050.87294978356
 30
0.0
 10
105020.3564466799
 20
95050.872059827
 30
0.0
 10
105020.3558707275
 20
95050.87039648783
 30
0.0
 10
105020.3555924788
 20
95050.86962130237
 30
0.0
 10
105020.354524166
 20
95050.86674816638
 30
0.0
 10
105020.3536889134
 20
95050.86471095143
 30
0.0
 10
105020.3516632504
 20
95050.86028605967
 30
0.0
 10
105020.3504394447
 20
95050.85796676501
 30
0.0
 10
105020.3478461968
 20
95050.85376505554
 30
0.0
 10
105020.3464784778
 20
95050.85188413016
 30
0.0
 10
105020.3447103343
 20
95050.84984326005
 30
0.0
 10
105020.3443682403
 20
95050.84946529221
 30
0.0
 10
105020.343670362
 20
95050.84872798084
 30
0.0
 10
105020.3433058269
 20
95050.84835936321
 30
0.0
 10
105020.3421649973
 20
95050.847253723
 30
0.0
 10
105020.3413412523
 20
95050.84651686535
 30
0.0
 10
105020.3386993696
 20
95050.8443230853
 30
0.0
 10
105020.3366989378
 20
95050.84287265189
 30
0.0
 10
105020.3333391139
 20
95050.84068476584
 30
0.0
 10
105020.3321222943
 20
95050.83993312618
 30
0.0
 10
105020.3301312436
 20
95050.83875497705
 30
0.0
 10
105020.3293865253
 20
95050.83832467887
 30
0.0
 10
105020.3278899138
 20
95050.8374787765
 30
0.0
 10
105020.3271352727
 20
95050.8370616656
 30
0.0
 10
105020.3248523831
 20
95050.83582654753
 30
0.0
 10
105020.3233051442
 20
95050.83502475311
 30
0.0
 10
105020.3185887188
 20
95050.83267395775
 30
0.0
 10
105020.315344533
 20
95050.83117965812
 30
0.0
 10
105020.3090415424
 20
95050.82844213989
 30
0.0
 10
105020.3060022724
 20
95050.8271895012
 30
0.0
 10
105020.3017084226
 20
95050.82547718789
 30
0.0
 10
105020.3005081669
 20
95050.82500418053
 30
0.0
 10
105020.2981164919
 20
95050.82407266135
 30
0.0
 10
105020.2969217232
 20
95050.82361303694
 30
0.0
 10
105020.293340611
 20
95050.82225458423
 30
0.0
 10
105020.2909574579
 20
95050.82137618874
 30
0.0
 10
105020.2838208483
 20
95050.81883843018
 30
0.0
 10
105020.2790802848
 20
95050.8172767377
 30
0.0
 10
105020.271007887
 20
95050.81489712388
 30
0.0
 10
105020.2676673343
 20
95050.8139949078
 30
0.0
 10
105020.2617975331
 20
95050.81257805295
 30
0.0
 10
105020.2592348958
 20
95050.81201549209
 30
0.0
 10
105020.2540487642
 20
95050.81097610169
 30
0.0
 10
105020.2514275926
 20
95050.81049981889
 30
0.0
 10
105020.2434855588
 20
95050.80918415824
 30
0.0
 10
105020.2380860537
 20
95050.80845826608
 30
0.0
 10
105020.2281622602
 20
95050.80733063262
 30
0.0
 10
105020.2236679842
 20
95050.80689337006
 30
0.0
 10
105020.216948422
 20
95050.80630396333
 30
0.0
 10
105020.2147588263
 20
95050.80612128839
 30
0.0
 10
105020.2103872473
 20
95050.80577351817
 30
0.0
 10
105020.2082016501
 20
95050.80560836843
 30
0.0
 10
105020.2016450476
 20
95050.80513908671
 30
0.0
 10
105020.1972742318
 20
95050.80486112197
 30
0.0
 10
105020.1882425125
 20
95050.80435872592
 30
0.0
 10
105020.1835815024
 20
95050.80413903861
 30
0.0
 10
105020.1760758915
 20
95050.80384889444
 30
0.0
 10
105020.1732330052
 20
95050.80375415802
 30
0.0
 10
105020.1675242691
 20
95050.8035895787
 30
0.0
 10
105020.1646611117
 20
95050.80351955795
 30
0.0
 10
105020.1560458844
 20
95050.80333630209
 30
0.0
 10
105020.150268062
 20
95050.80324993182
 30
0.0
 10
105020.1426370589
 20
95050.80314757126
 30
0.0
 10
105020.1408133539
 20
95050.80312397209
 30
0.0
 10
105020.1119369151
 20
95050.8031003328
 30
0.0
  0
SPLINE
  5
4FA29
330
1F
100
AcDbEntity
  8
freecads.com
100
AcDbSpline
210
0.0
220
0.0
230
1.0
 70
  1064
 71
     3
 72
    12
 73
     8
 74
     6
 42
0.000000001
 43
0.0000000001
 44
0.0000000001
 40
0.0
 40
0.0
 40
0.0
 40
0.0
 40
0.1174035278440026
 40
0.1348386018663816
 40
0.1929056558996302
 40
0.2484756859837645
 40
0.3086044477985594
 40
0.3086044477985594
 40
0.3086044477985594
 40
0.3086044477985594
 10
105020.3448686137
 20
95051.04560606771
 30
0.0
 10
105020.3342548981
 20
95051.00621566432
 30
0.0
 10
105020.3220649869
 20
95050.96097556791
 30
0.0
 10
105020.2733039314
 20
95050.91743800807
 30
0.0
 10
105020.2276302635
 20
95050.91094390435
 30
0.0
 10
105020.1707687379
 20
95050.90483909359
 30
0.0
 10
105020.1320559726
 20
95050.90532412079
 30
0.0
 10
105020.1119369151
 20
95050.90557618986
 30
0.0
 11
105020.3448686137
 21
95051.04560606771
 31
0.0
 11
105020.2964297651
 21
95050.93866091216
 31
0.0
 11
105020.2831892758
 21
95050.92731757716
 31
0.0
 11
105020.2273901094
 21
95050.91124786055
 31
0.0
 11
105020.1720638193
 21
95050.90604883442
 31
0.0
 11
105020.1119369151
 21
95050.90557618986
 31
0.0
  0
SPLINE
  5
4FA2A
330
1F
100
AcDbEntity
  8
freecads.com
100
AcDbSpline
210
0.0
220
0.0
230
1.0
 70
     8
 71
     3
 72
     8
 73
     4
 74
     0
 42
0.000000001
 43
0.0000000001
 40
464.0075949415173
 40
464.0075949415173
 40
464.0075949415173
 40
464.0075949415173
 40
477.6407544104151
 40
477.6407544104151
 40
477.6407544104151
 40
477.6407544104151
 10
105020.0982969362
 20
95050.7830919949
 30
0.0
 10
105020.1028433806
 20
95050.78309078578
 30
0.0
 10
105020.1073901479
 20
95050.78309639637
 30
0.0
 10
105020.1119369151
 20
95050.78310200699
 30
0.0
  0
SPLINE
  5
4FA2B
330
1F
100
AcDbEntity
  8
freecads.com
100
AcDbSpline
210
0.0
220
0.0
230
1.0
 70
     8
 71
     3
 72
     8
 73
     4
 74
     0
 42
0.000000001
 43
0.0000000001
 40
446.2131013440281
 40
446.2131013440281
 40
446.2131013440281
 40
446.2131013440281
 40
447.1245819130988
 40
447.1245819130988
 40
447.1245819130988
 40
447.1245819130988
 10
105020.0982969362
 20
95050.80311213035
 30
0.0
 10
105020.1020990191
 20
95050.8031081963
 30
0.0
 10
105020.106599249
 20
95050.8031042651
 30
0.0
 10
105020.1119369151
 20
95050.8031003328
 30
0.0
  0
SPLINE
  5
4FA2C
330
1F
100
AcDbEntity
  8
freecads.com
100
AcDbSpline
210
0.0
220
0.0
230
1.0
 70
     8
 71
     3
 72
     8
 73
     4
 74
     0
 42
0.000000001
 43
0.0000000001
 40
298.2260641464397
 40
298.2260641464397
 40
298.2260641464397
 40
298.2260641464397
 40
311.8156199324941
 40
311.8156199324941
 40
311.8156199324941
 40
311.8156199324941
 10
105020.0982969362
 20
95050.90540507881
 30
0.0
 10
105020.1028419617
 20
95050.90545334937
 30
0.0
 10
105020.1073894384
 20
95050.90551476962
 30
0.0
 10
105020.1119369151
 20
95050.90557618986
 30
0.0
  0
SPLINE
  5
4FA2D
330
1F
100
AcDbEntity
  8
freecads.com
100
AcDbSpline
210
0.0
220
0.0
230
1.0
 70
     8
 71
     3
 72
    15
 73
    11
 74
     0
 42
0.000000001
 43
0.0000000001
 40
0.0
 40
0.0
 40
0.0
 40
0.0
 40
0.0079085775364648
 40
0.020905772075348
 40
0.0376777137607058
 40
0.0869565061910963
 40
0.1251143189091787
 40
0.1691586984575689
 40
0.234414868375695
 40
0.2878979645341678
 40
0.2878979645341678
 40
0.2878979645341678
 40
0.2878979645341678
 10
105020.3743941456
 20
95050.92961147353
 30
0.0
 10
105020.3739086827
 20
95050.93219978116
 30
0.0
 10
105020.3726253954
 20
95050.93904179156
 30
0.0
 10
105020.3723286127
 20
95050.95183498267
 30
0.0
 10
105020.3820072624
 20
95050.97668293538
 30
0.0
 10
105020.3921317242
 20
95051.00967245947
 30
0.0
 10
105020.4044444785
 20
95051.05204696745
 30
0.0
 10
105020.4051436726
 20
95051.10151167155
 30
0.0
 10
105020.406387388
 20
95051.15559947739
 30
0.0
 10
105020.4070477052
 20
95051.19528952931
 30
0.0
 10
105020.4071985239
 20
95051.21309199489
 30
0.0
  0
SPLINE
  5
4FA2E
330
1F
100
AcDbEntity
  8
freecads.com
100
AcDbSpline
210
0.0
220
0.0
230
1.0
 70
     8
 71
     3
 72
    15
 73
    11
 74
     0
 42
0.000000001
 43
0.0000000001
 40
0.0
 40
0.0
 40
0.0
 40
0.0
 40
7.908577536480597
 40
20.90577207536215
 40
37.67771376074684
 40
86.95650619113989
 40
125.1143189092015
 40
169.1586984575989
 40
234.4148683757257
 40
289.0811501649681
 40
289.0811501649681
 40
289.0811501649681
 40
289.0811501649681
 10
105020.3549142925
 20
95050.92843146695
 30
0.0
 10
105020.3544288296
 20
95050.93101977459
 30
0.0
 10
105020.3531455424
 20
95050.937861785
 30
0.0
 10
105020.3528487589
 20
95050.9506549759
 30
0.0
 10
105020.3625274157
 20
95050.97550293058
 30
0.0
 10
105020.3726518014
 20
95051.00849243351
 30
0.0
 10
105020.3849648281
 20
95051.05086701725
 30
0.0
 10
105020.3856627413
 20
95051.1003313653
 30
0.0
 10
105020.3869223306
 20
95051.15481420547
 30
0.0
 10
105020.387570812
 20
95051.19489770653
 30
0.0
 10
105020.3877234522
 20
95051.21309199489
 30
0.0
  0
LINE
  5
4FA2F
330
1F
100
AcDbEntity
  8
freecads.com
100
AcDbLine
 10
105020.0982969362
 20
95050.7830919949
 30
0.0
 11
105020.0982969362
 21
95050.76823679546
 31
0.0
  0
SPLINE
  5
4FA30
330
1F
100
AcDbEntity
  8
freecads.com
100
AcDbSpline
210
0.0
220
0.0
230
1.0
 70
     8
 71
     3
 72
    18
 73
    14
 74
     0
 42
0.000000001
 43
0.0000000001
 40
117.544452272429
 40
117.544452272429
 40
117.544452272429
 40
117.544452272429
 40
121.5782120084558
 40
138.8128471134586
 40
159.7356761485782
 40
185.0258019403773
 40
217.031734495737
 40
240.4054382193022
 40
274.8880694870596
 40
317.0282263848024
 40
367.6883550487834
 40
409.8334730367477
 40
474.4296972636449
 40
474.4296972636449
 40
474.4296972636449
 40
474.4296972636449
 10
105019.8221997268
 20
95052.64657251624
 30
0.0
 10
105019.8218415415
 20
95052.64787836942
 30
0.0
 10
105019.81962137
 20
95052.65474175608
 30
0.0
 10
105019.8169868368
 20
95052.6684643197
 30
0.0
 10
105019.8153685104
 20
95052.68982509772
 30
0.0
 10
105019.821771843
 20
95052.7153119976
 30
0.0
 10
105019.8342805048
 20
95052.74018025977
 30
0.0
 10
105019.8594437356
 20
95052.75752667129
 30
0.0
 10
105019.8899773211
 20
95052.77076849049
 30
0.0
 10
105019.9302414909
 20
95052.78482907792
 30
0.0
 10
105019.9751711432
 20
95052.78999663007
 30
0.0
 10
105020.0275155666
 20
95052.79309863157
 30
0.0
 10
105020.0631139988
 20
95052.79308825956
 30
0.0
 10
105020.0846569573
 20
95052.79308198279
 30
0.0
  0
SPLINE
  5
4FA31
330
1F
100
AcDbEntity
  8
freecads.com
100
AcDbSpline
210
0.0
220
0.0
230
1.0
 70
     8
 71
     3
 72
    98
 73
    94
 74
     0
 42
0.000000001
 43
0.0000000001
 40
114.4120633067309
 40
114.4120633067309
 40
114.4120633067309
 40
114.4120633067309
 40
115.313285776192
 40
115.313285776192
 40
117.7748566477773
 40
117.7748566477773
 40
120.2364275193626
 40
120.2364275193626
 40
121.5764322531769
 40
121.5764322531769
 40
125.1629290616186
 40
125.1629290616186
 40
132.0714134550561
 40
132.0714134550561
 40
138.6743689378141
 40
138.6743689378141
 40
142.6406926620967
 40
142.6406926620967
 40
146.6070163863792
 40
146.6070163863792
 40
154.5396638349442
 40
154.5396638349442
 40
159.673548584359
 40
159.673548584359
 40
167.1463235392934
 40
167.1463235392934
 40
174.6190984942278
 40
174.6190984942278
 40
180.2576469558658
 40
180.2576469558658
 40
183.5988372325109
 40
183.5988372325109
 40
186.4614193169528
 40
186.4614193169528
 40
194.3853094132726
 40
194.3853094132726
 40
204.581341962645
 40
204.581341962645
 40
214.7773745120173
 40
214.7773745120173
 40
217.2058118024684
 40
217.2058118024684
 40
219.6342490929195
 40
219.6342490929195
 40
224.4911236738218
 40
224.4911236738218
 40
234.1299422632729
 40
234.1299422632729
 40
239.2278676422874
 40
239.2278676422874
 40
242.1721340347132
 40
242.1721340347132
 40
245.1164004271389
 40
245.1164004271389
 40
251.0049332119904
 40
251.0049332119904
 40
262.7819987816935
 40
262.7819987816935
 40
273.251849682216
 40
273.251849682216
 40
277.263137761276
 40
277.263137761276
 40
281.2744258403359
 40
281.2744258403359
 40
289.2970019984556
 40
289.2970019984556
 40
305.3421543146952
 40
305.3421543146952
 40
316.7210396985118
 40
316.7210396985118
 40
325.3874572347419
 40
325.3874572347419
 40
334.0538747709721
 40
334.0538747709721
 40
351.3867098434323
 40
351.3867098434323
 40
365.4077063558946
 40
365.4077063558946
 40
372.1363343061443
 40
372.1363343061443
 40
378.864962256394
 40
378.864962256394
 40
392.3222181568934
 40
392.3222181568934
 40
406.6676545179282
 40
406.6676545179282
 40
415.4120311423842
 40
415.4120311423842
 40
424.1564077668403
 40
424.1564077668403
 40
441.6451610157523
 40
441.6451610157523
 40
447.1245819130988
 40
447.1245819130988
 40
447.1245819130988
 40
447.1245819130988
 10
105019.8426416264
 20
95052.64657251624
 30
0.0
 10
105019.8425496729
 20
95052.64716808431
 30
0.0
 10
105019.8424477661
 20
95052.64773754438
 30
0.0
 10
105019.8420464785
 20
95052.64976646545
 30
0.0
 10
105019.8417126608
 20
95052.6510602047
 30
0.0
 10
105019.8410848625
 20
95052.65330511624
 30
0.0
 10
105019.8407901532
 20
95052.65425749414
 30
0.0
 10
105019.8404145582
 20
95052.65548155778
 30
0.0
 10
105019.8402970372
 20
95052.65586537337
 30
0.0
 10
105019.8399289379
 20
95052.65709893256
 30
0.0
 10
105019.839678077
 20
95052.658006607
 30
0.0
 10
105019.8389878434
 20
95052.66070112201
 30
0.0
 10
105019.8385894459
 20
95052.6625225885
 30
0.0
 10
105019.8378971582
 20
95052.66620422551
 30
0.0
 10
105019.8375995508
 20
95052.66805903215
 30
0.0
 10
105019.8371718312
 20
95052.67112853017
 30
0.0
 10
105019.8370264722
 20
95052.67227161981
 30
0.0
 10
105019.8367733297
 20
95052.67452096637
 30
0.0
 10
105019.836665223
 20
95052.67562962087
 30
0.0
 10
105019.8364030361
 20
95052.67890044615
 30
0.0
 10
105019.8363115987
 20
95052.68100717799
 30
0.0
 10
105019.8363186628
 20
95052.68432705937
 30
0.0
 10
105019.8363613601
 20
95052.68559324962
 30
0.0
 10
105019.8365682193
 20
95052.68860131199
 30
0.0
 10
105019.8367868347
 20
95052.69041401938
 30
0.0
 10
105019.837410822
 20
95052.69411862007
 30
0.0
 10
105019.8378161807
 20
95052.69600835584
 30
0.0
 10
105019.8386822438
 20
95052.69938653134
 30
0.0
 10
105019.8391048866
 20
95052.7008594852
 30
0.0
 10
105019.8398525674
 20
95052.70323420621
 30
0.0
 10
105019.8401471925
 20
95052.70412416276
 30
0.0
 10
105019.8407231448
 20
95052.70578750195
 30
0.0
 10
105019.8410013936
 20
95052.7065626874
 30
0.0
 10
105019.8420697064
 20
95052.7094358234
 30
0.0
 10
105019.842904959
 20
95052.71147303833
 30
0.0
 10
105019.8449306221
 20
95052.71589793009
 30
0.0
 10
105019.8461544277
 20
95052.71821722475
 30
0.0
 10
105019.8487476756
 20
95052.72241893424
 30
0.0
 10
105019.8501153946
 20
95052.72429985963
 30
0.0
 10
105019.8518835381
 20
95052.72634072971
 30
0.0
 10
105019.8522256321
 20
95052.72671869755
 30
0.0
 10
105019.8529235104
 20
95052.7274560089
 30
0.0
 10
105019.8532880456
 20
95052.72782462656
 30
0.0
 10
105019.8544288752
 20
95052.72893026678
 30
0.0
 10
105019.8552526201
 20
95052.72966712441
 30
0.0
 10
105019.8578945028
 20
95052.73186090446
 30
0.0
 10
105019.8598949346
 20
95052.73331133787
 30
0.0
 10
105019.8632547585
 20
95052.73549922392
 30
0.0
 10
105019.8644715781
 20
95052.73625086358
 30
0.0
 10
105019.8664626289
 20
95052.73742901271
 30
0.0
 10
105019.8672073471
 20
95052.73785931089
 30
0.0
 10
105019.8687039586
 20
95052.73870521326
 30
0.0
 10
105019.8694585997
 20
95052.73912232416
 30
0.0
 10
105019.8717414893
 20
95052.74035744225
 30
0.0
 10
105019.8732887282
 20
95052.74115923665
 30
0.0
 10
105019.8780051536
 20
95052.74351003199
 30
0.0
 10
105019.8812493394
 20
95052.74500433166
 30
0.0
 10
105019.88755233
 20
95052.74774184989
 30
0.0
 10
105019.8905916
 20
95052.74899448856
 30
0.0
 10
105019.8948854498
 20
95052.75070680189
 30
0.0
 10
105019.8960857055
 20
95052.75117980925
 30
0.0
 10
105019.8984773805
 20
95052.75211132842
 30
0.0
 10
105019.8996721493
 20
95052.75257095284
 30
0.0
 10
105019.9032532614
 20
95052.75392940554
 30
0.0
 10
105019.9056364145
 20
95052.75480780102
 30
0.0
 10
105019.9127730241
 20
95052.75734555958
 30
0.0
 10
105019.9175135876
 20
95052.75890725206
 30
0.0
 10
105019.9255859854
 20
95052.76128686588
 30
0.0
 10
105019.9289265381
 20
95052.76218908196
 30
0.0
 10
105019.9347963393
 20
95052.76360593683
 30
0.0
 10
105019.9373589766
 20
95052.76416849769
 30
0.0
 10
105019.9425451082
 20
95052.76520788806
 30
0.0
 10
105019.9451662798
 20
95052.76568417087
 30
0.0
 10
105019.9531083136
 20
95052.76699983154
 30
0.0
 10
105019.9585078187
 20
95052.76772572369
 30
0.0
 10
105019.9684316122
 20
95052.76885335716
 30
0.0
 10
105019.9729258882
 20
95052.7692906197
 30
0.0
 10
105019.9796454504
 20
95052.76988002643
 30
0.0
 10
105019.9818350461
 20
95052.77006270139
 30
0.0
 10
105019.9862066251
 20
95052.77041047159
 30
0.0
 10
105019.9883922224
 20
95052.77057562135
 30
0.0
 10
105019.9949488249
 20
95052.77104490303
 30
0.0
 10
105019.9993196406
 20
95052.7713228678
 30
0.0
 10
105020.0083513599
 20
95052.77182526382
 30
0.0
 10
105020.01301237
 20
95052.77204495113
 30
0.0
 10
105020.0205179809
 20
95052.77233509531
 30
0.0
 10
105020.0233608672
 20
95052.77242983174
 30
0.0
 10
105020.0290696034
 20
95052.77259441106
 30
0.0
 10
105020.0319327607
 20
95052.77266443179
 30
0.0
 10
105020.0405479881
 20
95052.77284768768
 30
0.0
 10
105020.0463258105
 20
95052.77293405795
 30
0.0
 10
105020.0539568135
 20
95052.7730364185
 30
0.0
 10
105020.0557805185
 20
95052.77306001767
 30
0.0
 10
105020.0846569573
 20
95052.77308365696
 30
0.0
  0
SPLINE
  5
4FA32
330
1F
100
AcDbEntity
  8
freecads.com
100
AcDbSpline
210
0.0
220
0.0
230
1.0
 70
  1064
 71
     3
 72
    12
 73
     8
 74
     6
 42
0.000000001
 43
0.0000000001
 44
0.0000000001
 40
0.0
 40
0.0
 40
0.0
 40
0.0
 40
0.1174035278572582
 40
0.1348386018796372
 40
0.1929056559088587
 40
0.2484756859798663
 40
0.3086044477946612
 40
0.3086044477946612
 40
0.3086044477946612
 40
0.3086044477946612
 10
105019.8517252587
 20
95052.53057792206
 30
0.0
 10
105019.8623389744
 20
95052.56996832546
 30
0.0
 10
105019.8745288856
 20
95052.61520842191
 30
0.0
 10
105019.923289941
 20
95052.65874598167
 30
0.0
 10
105019.9689636089
 20
95052.6652400854
 30
0.0
 10
105020.0258251345
 20
95052.67134489617
 30
0.0
 10
105020.0645378998
 20
95052.67085986899
 30
0.0
 10
105020.0846569573
 20
95052.6706077999
 30
0.0
 11
105019.8517252587
 21
95052.53057792206
 31
0.0
 11
105019.9001641074
 21
95052.6375230776
 31
0.0
 11
105019.9134045967
 21
95052.64886641262
 31
0.0
 11
105019.9692037631
 21
95052.66493612921
 31
0.0
 11
105020.0245300531
 21
95052.67013515537
 31
0.0
 11
105020.0846569573
 21
95052.6706077999
 31
0.0
  0
SPLINE
  5
4FA33
330
1F
100
AcDbEntity
  8
freecads.com
100
AcDbSpline
210
0.0
220
0.0
230
1.0
 70
     8
 71
     3
 72
     8
 73
     4
 74
     0
 42
0.000000001
 43
0.0000000001
 40
464.0075949415173
 40
464.0075949415173
 40
464.0075949415173
 40
464.0075949415173
 40
477.6407544104151
 40
477.6407544104151
 40
477.6407544104151
 40
477.6407544104151
 10
105020.0982969362
 20
95052.79309199487
 30
0.0
 10
105020.0937504919
 20
95052.79309320398
 30
0.0
 10
105020.0892037246
 20
95052.79308759337
 30
0.0
 10
105020.0846569573
 20
95052.79308198279
 30
0.0
  0
SPLINE
  5
4FA34
330
1F
100
AcDbEntity
  8
freecads.com
100
AcDbSpline
210
0.0
220
0.0
230
1.0
 70
     8
 71
     3
 72
     8
 73
     4
 74
     0
 42
0.000000001
 43
0.0000000001
 40
446.2131013440281
 40
446.2131013440281
 40
446.2131013440281
 40
446.2131013440281
 40
447.1245819130988
 40
447.1245819130988
 40
447.1245819130988
 40
447.1245819130988
 10
105020.0982969362
 20
95052.77307185943
 30
0.0
 10
105020.0944948532
 20
95052.77307579348
 30
0.0
 10
105020.0899946235
 20
95052.77307972466
 30
0.0
 10
105020.0846569573
 20
95052.77308365696
 30
0.0
  0
SPLINE
  5
4FA35
330
1F
100
AcDbEntity
  8
freecads.com
100
AcDbSpline
210
0.0
220
0.0
230
1.0
 70
     8
 71
     3
 72
     8
 73
     4
 74
     0
 42
0.000000001
 43
0.0000000001
 40
298.2260641464397
 40
298.2260641464397
 40
298.2260641464397
 40
298.2260641464397
 40
311.8156199324941
 40
311.8156199324941
 40
311.8156199324941
 40
311.8156199324941
 10
105020.0982969362
 20
95052.67077891096
 30
0.0
 10
105020.0937519108
 20
95052.67073064038
 30
0.0
 10
105020.089204434
 20
95052.67066922016
 30
0.0
 10
105020.0846569573
 20
95052.6706077999
 30
0.0
  0
LINE
  5
4FA36
330
1F
100
AcDbEntity
  8
freecads.com
100
AcDbLine
 10
105019.8462876798
 20
95052.36309199489
 30
0.0
 11
105019.8517252587
 21
95052.53057792206
 31
0.0
  0
SPLINE
  5
4FA37
330
1F
100
AcDbEntity
  8
freecads.com
100
AcDbSpline
210
0.0
220
0.0
230
1.0
 70
     8
 71
     3
 72
    15
 73
    11
 74
     0
 42
0.000000001
 43
0.0000000001
 40
0.0
 40
0.0
 40
0.0
 40
0.0
 40
0.0079085775364648
 40
0.020905772075348
 40
0.0376777137607058
 40
0.0869565061910963
 40
0.1251143189091787
 40
0.1691586984575781
 40
0.2344148683757042
 40
0.2878979645212399
 40
0.2878979645212399
 40
0.2878979645212399
 40
0.2878979645212399
 10
105019.8221997268
 20
95052.64657251624
 30
0.0
 10
105019.8226851898
 20
95052.64398420859
 30
0.0
 10
105019.823968477
 20
95052.63714219822
 30
0.0
 10
105019.8242652597
 20
95052.62434900711
 30
0.0
 10
105019.81458661
 20
95052.5995010544
 30
0.0
 10
105019.8044621482
 20
95052.56651153029
 30
0.0
 10
105019.7921493939
 20
95052.52413702232
 30
0.0
 10
105019.7914501998
 20
95052.4746723182
 30
0.0
 10
105019.7902064844
 20
95052.42058451237
 30
0.0
 10
105019.7895461672
 20
95052.38089446045
 30
0.0
 10
105019.7893953485
 20
95052.36309199489
 30
0.0
  0
SPLINE
  5
4FA38
330
1F
100
AcDbEntity
  8
freecads.com
100
AcDbSpline
210
0.0
220
0.0
230
1.0
 70
     8
 71
     3
 72
    15
 73
    11
 74
     0
 42
0.000000001
 43
0.0000000001
 40
0.0
 40
0.0
 40
0.0
 40
0.0
 40
7.908577536480597
 40
20.90577207536215
 40
37.67771376074684
 40
86.95650619113989
 40
125.1143189092015
 40
169.1586984575989
 40
234.4148683757257
 40
289.0811501520276
 40
289.0811501520276
 40
289.0811501520276
 40
289.0811501520276
 10
105019.84167958
 20
95052.64775252282
 30
0.0
 10
105019.8421650428
 20
95052.64516421517
 30
0.0
 10
105019.84344833
 20
95052.63832220478
 30
0.0
 10
105019.8437451135
 20
95052.62552901388
 30
0.0
 10
105019.8340664567
 20
95052.60068105918
 30
0.0
 10
105019.823942071
 20
95052.56769155627
 30
0.0
 10
105019.8116290443
 20
95052.52531697252
 30
0.0
 10
105019.8109311311
 20
95052.47585262447
 30
0.0
 10
105019.8096715418
 20
95052.42136978427
 30
0.0
 10
105019.8090230604
 20
95052.38128628326
 30
0.0
 10
105019.8088704202
 20
95052.36309199489
 30
0.0
  0
SPLINE
  5
4FA39
330
1F
100
AcDbEntity
  8
freecads.com
100
AcDbSpline
210
0.0
220
0.0
230
1.0
 70
     8
 71
     3
 72
    18
 73
    14
 74
     0
 42
0.000000001
 43
0.0000000001
 40
117.544452272429
 40
117.544452272429
 40
117.544452272429
 40
117.544452272429
 40
121.5782120084558
 40
138.8128471134586
 40
159.7356761485782
 40
185.0258019403773
 40
217.031734495737
 40
240.4054382193022
 40
274.8880694870596
 40
317.0282263848024
 40
367.6883550487834
 40
409.8334730367477
 40
474.4296972636449
 40
474.4296972636449
 40
474.4296972636449
 40
474.4296972636449
 10
105020.3743941456
 20
95052.64657251624
 30
0.0
 10
105020.3747523309
 20
95052.64787836942
 30
0.0
 10
105020.3769725024
 20
95052.65474175608
 30
0.0
 10
105020.3796070356
 20
95052.6684643197
 30
0.0
 10
105020.381225362
 20
95052.68982509772
 30
0.0
 10
105020.3748220294
 20
95052.7153119976
 30
0.0
 10
105020.3623133676
 20
95052.74018025977
 30
0.0
 10
105020.3371501368
 20
95052.75752667129
 30
0.0
 10
105020.3066165513
 20
95052.77076849049
 30
0.0
 10
105020.2663523815
 20
95052.78482907792
 30
0.0
 10
105020.2214227293
 20
95052.78999663007
 30
0.0
 10
105020.1690783058
 20
95052.79309863157
 30
0.0
 10
105020.1334798737
 20
95052.79308825956
 30
0.0
 10
105020.1119369151
 20
95052.79308198279
 30
0.0
  0
SPLINE
  5
4FA3A
330
1F
100
AcDbEntity
  8
freecads.com
100
AcDbSpline
210
0.0
220
0.0
230
1.0
 70
     8
 71
     3
 72
    98
 73
    94
 74
     0
 42
0.000000001
 43
0.0000000001
 40
114.4120633067309
 40
114.4120633067309
 40
114.4120633067309
 40
114.4120633067309
 40
115.313285776192
 40
115.313285776192
 40
117.7748566477773
 40
117.7748566477773
 40
120.2364275193626
 40
120.2364275193626
 40
121.5764322531769
 40
121.5764322531769
 40
125.1629290616186
 40
125.1629290616186
 40
132.0714134550561
 40
132.0714134550561
 40
138.6743689378141
 40
138.6743689378141
 40
142.6406926620967
 40
142.6406926620967
 40
146.6070163863792
 40
146.6070163863792
 40
154.5396638349442
 40
154.5396638349442
 40
159.673548584359
 40
159.673548584359
 40
167.1463235392934
 40
167.1463235392934
 40
174.6190984942278
 40
174.6190984942278
 40
180.2576469558658
 40
180.2576469558658
 40
183.5988372325109
 40
183.5988372325109
 40
186.4614193169528
 40
186.4614193169528
 40
194.3853094132726
 40
194.3853094132726
 40
204.581341962645
 40
204.581341962645
 40
214.7773745120173
 40
214.7773745120173
 40
217.2058118024684
 40
217.2058118024684
 40
219.6342490929195
 40
219.6342490929195
 40
224.4911236738218
 40
224.4911236738218
 40
234.1299422632729
 40
234.1299422632729
 40
239.2278676422874
 40
239.2278676422874
 40
242.1721340347132
 40
242.1721340347132
 40
245.1164004271389
 40
245.1164004271389
 40
251.0049332119904
 40
251.0049332119904
 40
262.7819987816935
 40
262.7819987816935
 40
273.251849682216
 40
273.251849682216
 40
277.263137761276
 40
277.263137761276
 40
281.2744258403359
 40
281.2744258403359
 40
289.2970019984556
 40
289.2970019984556
 40
305.3421543146952
 40
305.3421543146952
 40
316.7210396985118
 40
316.7210396985118
 40
325.3874572347419
 40
325.3874572347419
 40
334.0538747709721
 40
334.0538747709721
 40
351.3867098434323
 40
351.3867098434323
 40
365.4077063558946
 40
365.4077063558946
 40
372.1363343061443
 40
372.1363343061443
 40
378.864962256394
 40
378.864962256394
 40
392.3222181568934
 40
392.3222181568934
 40
406.6676545179282
 40
406.6676545179282
 40
415.4120311423842
 40
415.4120311423842
 40
424.1564077668403
 40
424.1564077668403
 40
441.6451610157523
 40
441.6451610157523
 40
447.1245819130988
 40
447.1245819130988
 40
447.1245819130988
 40
447.1245819130988
 10
105020.353952246
 20
95052.64657251624
 30
0.0
 10
105020.3540441995
 20
95052.64716808431
 30
0.0
 10
105020.3541461063
 20
95052.64773754438
 30
0.0
 10
105020.3545473939
 20
95052.64976646545
 30
0.0
 10
105020.3548812116
 20
95052.6510602047
 30
0.0
 10
105020.3555090099
 20
95052.65330511624
 30
0.0
 10
105020.3558037192
 20
95052.65425749414
 30
0.0
 10
105020.3561793142
 20
95052.65548155778
 30
0.0
 10
105020.3562968352
 20
95052.65586537337
 30
0.0
 10
105020.3566649345
 20
95052.65709893256
 30
0.0
 10
105020.3569157954
 20
95052.658006607
 30
0.0
 10
105020.357606029
 20
95052.66070112201
 30
0.0
 10
105020.3580044265
 20
95052.6625225885
 30
0.0
 10
105020.3586967142
 20
95052.66620422551
 30
0.0
 10
105020.3589943216
 20
95052.66805903215
 30
0.0
 10
105020.3594220412
 20
95052.67112853017
 30
0.0
 10
105020.3595674002
 20
95052.67227161981
 30
0.0
 10
105020.3598205427
 20
95052.67452096637
 30
0.0
 10
105020.3599286494
 20
95052.67562962087
 30
0.0
 10
105020.3601908363
 20
95052.67890044615
 30
0.0
 10
105020.3602822738
 20
95052.68100717799
 30
0.0
 10
105020.3602752096
 20
95052.68432705937
 30
0.0
 10
105020.3602325123
 20
95052.68559324962
 30
0.0
 10
105020.3600256531
 20
95052.68860131199
 30
0.0
 10
105020.3598070377
 20
95052.69041401938
 30
0.0
 10
105020.3591830504
 20
95052.69411862007
 30
0.0
 10
105020.3587776917
 20
95052.69600835584
 30
0.0
 10
105020.3579116286
 20
95052.69938653134
 30
0.0
 10
105020.3574889858
 20
95052.7008594852
 30
0.0
 10
105020.356741305
 20
95052.70323420621
 30
0.0
 10
105020.3564466799
 20
95052.70412416276
 30
0.0
 10
105020.3558707275
 20
95052.70578750195
 30
0.0
 10
105020.3555924788
 20
95052.7065626874
 30
0.0
 10
105020.354524166
 20
95052.7094358234
 30
0.0
 10
105020.3536889134
 20
95052.71147303833
 30
0.0
 10
105020.3516632504
 20
95052.71589793009
 30
0.0
 10
105020.3504394447
 20
95052.71821722475
 30
0.0
 10
105020.3478461968
 20
95052.72241893424
 30
0.0
 10
105020.3464784778
 20
95052.72429985963
 30
0.0
 10
105020.3447103343
 20
95052.72634072971
 30
0.0
 10
105020.3443682403
 20
95052.72671869755
 30
0.0
 10
105020.343670362
 20
95052.7274560089
 30
0.0
 10
105020.3433058269
 20
95052.72782462656
 30
0.0
 10
105020.3421649973
 20
95052.72893026678
 30
0.0
 10
105020.3413412523
 20
95052.72966712441
 30
0.0
 10
105020.3386993696
 20
95052.73186090446
 30
0.0
 10
105020.3366989378
 20
95052.73331133787
 30
0.0
 10
105020.3333391139
 20
95052.73549922392
 30
0.0
 10
105020.3321222943
 20
95052.73625086358
 30
0.0
 10
105020.3301312436
 20
95052.73742901271
 30
0.0
 10
105020.3293865253
 20
95052.73785931089
 30
0.0
 10
105020.3278899138
 20
95052.73870521326
 30
0.0
 10
105020.3271352727
 20
95052.73912232416
 30
0.0
 10
105020.3248523831
 20
95052.74035744225
 30
0.0
 10
105020.3233051442
 20
95052.74115923665
 30
0.0
 10
105020.3185887188
 20
95052.74351003199
 30
0.0
 10
105020.315344533
 20
95052.74500433166
 30
0.0
 10
105020.3090415424
 20
95052.74774184989
 30
0.0
 10
105020.3060022724
 20
95052.74899448856
 30
0.0
 10
105020.3017084226
 20
95052.75070680189
 30
0.0
 10
105020.3005081669
 20
95052.75117980925
 30
0.0
 10
105020.2981164919
 20
95052.75211132842
 30
0.0
 10
105020.2969217232
 20
95052.75257095284
 30
0.0
 10
105020.293340611
 20
95052.75392940554
 30
0.0
 10
105020.2909574579
 20
95052.75480780102
 30
0.0
 10
105020.2838208483
 20
95052.75734555958
 30
0.0
 10
105020.2790802848
 20
95052.75890725206
 30
0.0
 10
105020.271007887
 20
95052.76128686588
 30
0.0
 10
105020.2676673343
 20
95052.76218908196
 30
0.0
 10
105020.2617975331
 20
95052.76360593683
 30
0.0
 10
105020.2592348958
 20
95052.76416849769
 30
0.0
 10
105020.2540487642
 20
95052.76520788806
 30
0.0
 10
105020.2514275926
 20
95052.76568417087
 30
0.0
 10
105020.2434855588
 20
95052.76699983154
 30
0.0
 10
105020.2380860537
 20
95052.76772572369
 30
0.0
 10
105020.2281622602
 20
95052.76885335716
 30
0.0
 10
105020.2236679842
 20
95052.7692906197
 30
0.0
 10
105020.216948422
 20
95052.76988002643
 30
0.0
 10
105020.2147588263
 20
95052.77006270139
 30
0.0
 10
105020.2103872473
 20
95052.77041047159
 30
0.0
 10
105020.2082016501
 20
95052.77057562135
 30
0.0
 10
105020.2016450476
 20
95052.77104490303
 30
0.0
 10
105020.1972742318
 20
95052.7713228678
 30
0.0
 10
105020.1882425125
 20
95052.77182526382
 30
0.0
 10
105020.1835815024
 20
95052.77204495113
 30
0.0
 10
105020.1760758915
 20
95052.77233509531
 30
0.0
 10
105020.1732330052
 20
95052.77242983174
 30
0.0
 10
105020.1675242691
 20
95052.77259441106
 30
0.0
 10
105020.1646611117
 20
95052.77266443179
 30
0.0
 10
105020.1560458844
 20
95052.77284768768
 30
0.0
 10
105020.150268062
 20
95052.77293405795
 30
0.0
 10
105020.1426370589
 20
95052.7730364185
 30
0.0
 10
105020.1408133539
 20
95052.77306001767
 30
0.0
 10
105020.1119369151
 20
95052.77308365696
 30
0.0
  0
SPLINE
  5
4FA3B
330
1F
100
AcDbEntity
  8
freecads.com
100
AcDbSpline
210
0.0
220
0.0
230
1.0
 70
  1064
 71
     3
 72
    12
 73
     8
 74
     6
 42
0.000000001
 43
0.0000000001
 44
0.0000000001
 40
0.0
 40
0.0
 40
0.0
 40
0.0
 40
0.1174035278572582
 40
0.1348386018796372
 40
0.1929056559088587
 40
0.2484756859943545
 40
0.3086044478091493
 40
0.3086044478091493
 40
0.3086044478091493
 40
0.3086044478091493
 10
105020.3448686137
 20
95052.53057792206
 30
0.0
 10
105020.334254898
 20
95052.56996832546
 30
0.0
 10
105020.3220649868
 20
95052.61520842191
 30
0.0
 10
105020.2733039314
 20
95052.65874598167
 30
0.0
 10
105020.2276302635
 20
95052.6652400854
 30
0.0
 10
105020.1707687379
 20
95052.67134489619
 30
0.0
 10
105020.1320559726
 20
95052.67085986897
 30
0.0
 10
105020.1119369151
 20
95052.6706077999
 30
0.0
 11
105020.3448686137
 21
95052.53057792206
 31
0.0
 11
105020.2964297651
 21
95052.6375230776
 31
0.0
 11
105020.2831892758
 21
95052.64886641262
 31
0.0
 11
105020.2273901094
 21
95052.66493612921
 31
0.0
 11
105020.1720638193
 21
95052.67013515537
 31
0.0
 11
105020.1119369151
 21
95052.6706077999
 31
0.0
  0
SPLINE
  5
4FA3C
330
1F
100
AcDbEntity
  8
freecads.com
100
AcDbSpline
210
0.0
220
0.0
230
1.0
 70
     8
 71
     3
 72
     8
 73
     4
 74
     0
 42
0.000000001
 43
0.0000000001
 40
464.0075949415173
 40
464.0075949415173
 40
464.0075949415173
 40
464.0075949415173
 40
477.6407544104151
 40
477.6407544104151
 40
477.6407544104151
 40
477.6407544104151
 10
105020.0982969362
 20
95052.79309199487
 30
0.0
 10
105020.1028433806
 20
95052.79309320398
 30
0.0
 10
105020.1073901479
 20
95052.79308759337
 30
0.0
 10
105020.1119369151
 20
95052.79308198279
 30
0.0
  0
SPLINE
  5
4FA3D
330
1F
100
AcDbEntity
  8
freecads.com
100
AcDbSpline
210
0.0
220
0.0
230
1.0
 70
     8
 71
     3
 72
     8
 73
     4
 74
     0
 42
0.000000001
 43
0.0000000001
 40
446.2131013440281
 40
446.2131013440281
 40
446.2131013440281
 40
446.2131013440281
 40
447.1245819130988
 40
447.1245819130988
 40
447.1245819130988
 40
447.1245819130988
 10
105020.0982969362
 20
95052.77307185943
 30
0.0
 10
105020.1020990191
 20
95052.77307579348
 30
0.0
 10
105020.106599249
 20
95052.77307972466
 30
0.0
 10
105020.1119369151
 20
95052.77308365696
 30
0.0
  0
SPLINE
  5
4FA3E
330
1F
100
AcDbEntity
  8
freecads.com
100
AcDbSpline
210
0.0
220
0.0
230
1.0
 70
     8
 71
     3
 72
     8
 73
     4
 74
     0
 42
0.000000001
 43
0.0000000001
 40
298.2260641464397
 40
298.2260641464397
 40
298.2260641464397
 40
298.2260641464397
 40
311.8156199324941
 40
311.8156199324941
 40
311.8156199324941
 40
311.8156199324941
 10
105020.0982969362
 20
95052.67077891096
 30
0.0
 10
105020.1028419617
 20
95052.67073064038
 30
0.0
 10
105020.1073894384
 20
95052.67066922016
 30
0.0
 10
105020.1119369151
 20
95052.6706077999
 30
0.0
  0
LINE
  5
4FA3F
330
1F
100
AcDbEntity
  8
freecads.com
100
AcDbLine
 10
105020.3503061926
 20
95052.36309199489
 30
0.0
 11
105020.3448686137
 21
95052.53057792206
 31
0.0
  0
SPLINE
  5
4FA40
330
1F
100
AcDbEntity
  8
freecads.com
100
AcDbSpline
210
0.0
220
0.0
230
1.0
 70
     8
 71
     3
 72
    15
 73
    11
 74
     0
 42
0.000000001
 43
0.0000000001
 40
0.0
 40
0.0
 40
0.0
 40
0.0
 40
0.0079085775364647
 40
0.0209057720753478
 40
0.0376777137607056
 40
0.0869565061910961
 40
0.1251143189091786
 40
0.1691586984575688
 40
0.2344148683756949
 40
0.2878979645182862
 40
0.2878979645182862
 40
0.2878979645182862
 40
0.2878979645182862
 10
105020.3743941456
 20
95052.64657251624
 30
0.0
 10
105020.3739086827
 20
95052.64398420859
 30
0.0
 10
105020.3726253954
 20
95052.63714219822
 30
0.0
 10
105020.3723286127
 20
95052.62434900711
 30
0.0
 10
105020.3820072624
 20
95052.5995010544
 30
0.0
 10
105020.3921317242
 20
95052.56651153029
 30
0.0
 10
105020.4044444785
 20
95052.52413702232
 30
0.0
 10
105020.4051436726
 20
95052.4746723182
 30
0.0
 10
105020.406387388
 20
95052.42058451237
 30
0.0
 10
105020.4070477052
 20
95052.38089446045
 30
0.0
 10
105020.4071985239
 20
95052.36309199489
 30
0.0
  0
SPLINE
  5
4FA41
330
1F
100
AcDbEntity
  8
freecads.com
100
AcDbSpline
210
0.0
220
0.0
230
1.0
 70
     8
 71
     3
 72
    15
 73
    11
 74
     0
 42
0.000000001
 43
0.0000000001
 40
0.0
 40
0.0
 40
0.0
 40
0.0
 40
7.908577536480597
 40
20.90577207536215
 40
37.67771376074684
 40
86.95650619113989
 40
125.1143189092015
 40
169.1586984575989
 40
234.4148683757257
 40
289.0811501492665
 40
289.0811501492665
 40
289.0811501492665
 40
289.0811501492665
 10
105020.3549142925
 20
95052.64775252282
 30
0.0
 10
105020.3544288296
 20
95052.64516421517
 30
0.0
 10
105020.3531455424
 20
95052.63832220478
 30
0.0
 10
105020.3528487589
 20
95052.62552901388
 30
0.0
 10
105020.3625274157
 20
95052.60068105918
 30
0.0
 10
105020.3726518014
 20
95052.56769155627
 30
0.0
 10
105020.3849648281
 20
95052.52531697252
 30
0.0
 10
105020.3856627413
 20
95052.47585262447
 30
0.0
 10
105020.3869223306
 20
95052.42136978429
 30
0.0
 10
105020.387570812
 20
95052.38128628326
 30
0.0
 10
105020.3877234522
 20
95052.36309199489
 30
0.0
  0
LINE
  5
4FA42
330
1F
100
AcDbEntity
  8
freecads.com
100
AcDbLine
 10
105020.0982969362
 20
95052.79309199487
 30
0.0
 11
105020.0982969362
 21
95052.80794719432
 31
0.0
  0
SPLINE
  5
4FA43
330
1F
100
AcDbEntity
  8
freecads.com
100
AcDbSpline
210
0.0
220
0.0
230
1.0
 70
     8
 71
     3
 72
    18
 73
    14
 74
     0
 42
0.000000001
 43
0.0000000001
 40
117.544452272429
 40
117.544452272429
 40
117.544452272429
 40
117.544452272429
 40
121.5782120084558
 40
138.8128471134586
 40
159.7356761485782
 40
185.0258019403773
 40
217.031734495737
 40
240.4054382193022
 40
274.8880694870596
 40
317.0282263848024
 40
367.6883550487834
 40
409.8334730367477
 40
474.4296972636449
 40
474.4296972636449
 40
474.4296972636449
 40
474.4296972636449
 10
105020.6463877576
 20
95050.92961147353
 30
0.0
 10
105020.6460295723
 20
95050.92830562034
 30
0.0
 10
105020.6438094008
 20
95050.92144223368
 30
0.0
 10
105020.6411748676
 20
95050.90771967005
 30
0.0
 10
105020.6395565412
 20
95050.88635889205
 30
0.0
 10
105020.6459598738
 20
95050.86087199217
 30
0.0
 10
105020.6584685355
 20
95050.83600373001
 30
0.0
 10
105020.6836317664
 20
95050.81865731847
 30
0.0
 10
105020.7141653519
 20
95050.80541549929
 30
0.0
 10
105020.7544295217
 20
95050.79135491186
 30
0.0
 10
105020.799359174
 20
95050.7861873597
 30
0.0
 10
105020.8517035973
 20
95050.7830853582
 30
0.0
 10
105020.8873020295
 20
95050.7830957302
 30
0.0
 10
105020.9088449881
 20
95050.78310200699
 30
0.0
  0
SPLINE
  5
4FA44
330
1F
100
AcDbEntity
  8
freecads.com
100
AcDbSpline
210
0.0
220
0.0
230
1.0
 70
     8
 71
     3
 72
    98
 73
    94
 74
     0
 42
0.000000001
 43
0.0000000001
 40
114.4120633067309
 40
114.4120633067309
 40
114.4120633067309
 40
114.4120633067309
 40
115.313285776192
 40
115.313285776192
 40
117.7748566477773
 40
117.7748566477773
 40
120.2364275193626
 40
120.2364275193626
 40
121.5764322531769
 40
121.5764322531769
 40
125.1629290616186
 40
125.1629290616186
 40
132.0714134550561
 40
132.0714134550561
 40
138.6743689378141
 40
138.6743689378141
 40
142.6406926620967
 40
142.6406926620967
 40
146.6070163863792
 40
146.6070163863792
 40
154.5396638349442
 40
154.5396638349442
 40
159.673548584359
 40
159.673548584359
 40
167.1463235392934
 40
167.1463235392934
 40
174.6190984942278
 40
174.6190984942278
 40
180.2576469558658
 40
180.2576469558658
 40
183.5988372325109
 40
183.5988372325109
 40
186.4614193169528
 40
186.4614193169528
 40
194.3853094132726
 40
194.3853094132726
 40
204.581341962645
 40
204.581341962645
 40
214.7773745120173
 40
214.7773745120173
 40
217.2058118024684
 40
217.2058118024684
 40
219.6342490929195
 40
219.6342490929195
 40
224.4911236738218
 40
224.4911236738218
 40
234.1299422632729
 40
234.1299422632729
 40
239.2278676422874
 40
239.2278676422874
 40
242.1721340347132
 40
242.1721340347132
 40
245.1164004271389
 40
245.1164004271389
 40
251.0049332119904
 40
251.0049332119904
 40
262.7819987816935
 40
262.7819987816935
 40
273.251849682216
 40
273.251849682216
 40
277.263137761276
 40
277.263137761276
 40
281.2744258403359
 40
281.2744258403359
 40
289.2970019984556
 40
289.2970019984556
 40
305.3421543146952
 40
305.3421543146952
 40
316.7210396985118
 40
316.7210396985118
 40
325.3874572347419
 40
325.3874572347419
 40
334.0538747709721
 40
334.0538747709721
 40
351.3867098434323
 40
351.3867098434323
 40
365.4077063558946
 40
365.4077063558946
 40
372.1363343061443
 40
372.1363343061443
 40
378.864962256394
 40
378.864962256394
 40
392.3222181568934
 40
392.3222181568934
 40
406.6676545179282
 40
406.6676545179282
 40
415.4120311423842
 40
415.4120311423842
 40
424.1564077668403
 40
424.1564077668403
 40
441.6451610157523
 40
441.6451610157523
 40
447.1245819130988
 40
447.1245819130988
 40
447.1245819130988
 40
447.1245819130988
 10
105020.6668296572
 20
95050.92961147353
 30
0.0
 10
105020.6667377037
 20
95050.92901590545
 30
0.0
 10
105020.6666357969
 20
95050.9284464454
 30
0.0
 10
105020.6662345093
 20
95050.92641752433
 30
0.0
 10
105020.6659006916
 20
95050.92512378508
 30
0.0
 10
105020.6652728933
 20
95050.92287887354
 30
0.0
 10
105020.664978184
 20
95050.92192649563
 30
0.0
 10
105020.664602589
 20
95050.92070243199
 30
0.0
 10
105020.664485068
 20
95050.92031861639
 30
0.0
 10
105020.6641169687
 20
95050.9190850572
 30
0.0
 10
105020.6638661078
 20
95050.91817738277
 30
0.0
 10
105020.6631758741
 20
95050.91548286776
 30
0.0
 10
105020.6627774767
 20
95050.91366140126
 30
0.0
 10
105020.662085189
 20
95050.90997976425
 30
0.0
 10
105020.6617875816
 20
95050.90812495762
 30
0.0
 10
105020.661359862
 20
95050.90505545961
 30
0.0
 10
105020.661214503
 20
95050.90391236997
 30
0.0
 10
105020.6609613606
 20
95050.90166302339
 30
0.0
 10
105020.6608532538
 20
95050.90055436889
 30
0.0
 10
105020.6605910669
 20
95050.89728354359
 30
0.0
 10
105020.6604996295
 20
95050.89517681179
 30
0.0
 10
105020.6605066936
 20
95050.89185693039
 30
0.0
 10
105020.6605493908
 20
95050.89059074013
 30
0.0
 10
105020.6607562501
 20
95050.88758267779
 30
0.0
 10
105020.6609748655
 20
95050.88576997039
 30
0.0
 10
105020.6615988528
 20
95050.88206536969
 30
0.0
 10
105020.6620042115
 20
95050.88017563393
 30
0.0
 10
105020.6628702746
 20
95050.87679745843
 30
0.0
 10
105020.6632929174
 20
95050.87532450456
 30
0.0
 10
105020.6640405982
 20
95050.87294978356
 30
0.0
 10
105020.6643352233
 20
95050.872059827
 30
0.0
 10
105020.6649111756
 20
95050.87039648783
 30
0.0
 10
105020.6651894244
 20
95050.86962130237
 30
0.0
 10
105020.6662577372
 20
95050.86674816638
 30
0.0
 10
105020.6670929898
 20
95050.86471095143
 30
0.0
 10
105020.6691186528
 20
95050.86028605967
 30
0.0
 10
105020.6703424585
 20
95050.85796676501
 30
0.0
 10
105020.6729357064
 20
95050.85376505554
 30
0.0
 10
105020.6743034254
 20
95050.85188413016
 30
0.0
 10
105020.6760715689
 20
95050.84984326005
 30
0.0
 10
105020.6764136629
 20
95050.84946529221
 30
0.0
 10
105020.6771115412
 20
95050.84872798084
 30
0.0
 10
105020.6774760763
 20
95050.84835936321
 30
0.0
 10
105020.6786169059
 20
95050.847253723
 30
0.0
 10
105020.6794406509
 20
95050.84651686535
 30
0.0
 10
105020.6820825336
 20
95050.8443230853
 30
0.0
 10
105020.6840829654
 20
95050.84287265189
 30
0.0
 10
105020.6874427893
 20
95050.84068476584
 30
0.0
 10
105020.6886596089
 20
95050.83993312618
 30
0.0
 10
105020.6906506596
 20
95050.83875497705
 30
0.0
 10
105020.6913953779
 20
95050.83832467887
 30
0.0
 10
105020.6928919894
 20
95050.8374787765
 30
0.0
 10
105020.6936466305
 20
95050.8370616656
 30
0.0
 10
105020.6959295201
 20
95050.83582654753
 30
0.0
 10
105020.697476759
 20
95050.83502475311
 30
0.0
 10
105020.7021931844
 20
95050.83267395775
 30
0.0
 10
105020.7054373702
 20
95050.83117965812
 30
0.0
 10
105020.7117403608
 20
95050.82844213989
 30
0.0
 10
105020.7147796308
 20
95050.8271895012
 30
0.0
 10
105020.7190734806
 20
95050.82547718789
 30
0.0
 10
105020.7202737363
 20
95050.82500418053
 30
0.0
 10
105020.7226654113
 20
95050.82407266135
 30
0.0
 10
105020.7238601801
 20
95050.82361303694
 30
0.0
 10
105020.7274412922
 20
95050.82225458423
 30
0.0
 10
105020.7298244453
 20
95050.82137618874
 30
0.0
 10
105020.7369610549
 20
95050.81883843018
 30
0.0
 10
105020.7417016184
 20
95050.8172767377
 30
0.0
 10
105020.7497740162
 20
95050.81489712388
 30
0.0
 10
105020.7531145689
 20
95050.8139949078
 30
0.0
 10
105020.7589843701
 20
95050.81257805295
 30
0.0
 10
105020.7615470074
 20
95050.81201549209
 30
0.0
 10
105020.766733139
 20
95050.81097610169
 30
0.0
 10
105020.7693543106
 20
95050.81049981889
 30
0.0
 10
105020.7772963444
 20
95050.80918415824
 30
0.0
 10
105020.7826958495
 20
95050.80845826608
 30
0.0
 10
105020.792619643
 20
95050.80733063262
 30
0.0
 10
105020.797113919
 20
95050.80689337006
 30
0.0
 10
105020.8038334812
 20
95050.80630396333
 30
0.0
 10
105020.8060230769
 20
95050.80612128839
 30
0.0
 10
105020.8103946559
 20
95050.80577351817
 30
0.0
 10
105020.8125802531
 20
95050.80560836843
 30
0.0
 10
105020.8191368556
 20
95050.80513908671
 30
0.0
 10
105020.8235076714
 20
95050.80486112197
 30
0.0
 10
105020.8325393907
 20
95050.80435872592
 30
0.0
 10
105020.8372004008
 20
95050.80413903861
 30
0.0
 10
105020.8447060117
 20
95050.80384889444
 30
0.0
 10
105020.847548898
 20
95050.80375415802
 30
0.0
 10
105020.8532576341
 20
95050.8035895787
 30
0.0
 10
105020.8561207915
 20
95050.80351955795
 30
0.0
 10
105020.8647360188
 20
95050.80333630209
 30
0.0
 10
105020.8705138413
 20
95050.80324993182
 30
0.0
 10
105020.8781448443
 20
95050.80314757126
 30
0.0
 10
105020.8799685493
 20
95050.80312397209
 30
0.0
 10
105020.9088449881
 20
95050.8031003328
 30
0.0
  0
SPLINE
  5
4FA45
330
1F
100
AcDbEntity
  8
freecads.com
100
AcDbSpline
210
0.0
220
0.0
230
1.0
 70
  1064
 71
     3
 72
    12
 73
     8
 74
     6
 42
0.000000001
 43
0.0000000001
 44
0.0000000001
 40
0.0
 40
0.0
 40
0.0
 40
0.0
 40
0.1174035278379988
 40
0.1348386018603777
 40
0.1929056559076099
 40
0.2484756859772561
 40
0.308604447792051
 40
0.308604447792051
 40
0.308604447792051
 40
0.308604447792051
 10
105020.6759132895
 20
95051.04560606771
 30
0.0
 10
105020.6865270052
 20
95051.00621566434
 30
0.0
 10
105020.6987169164
 20
95050.96097556791
 30
0.0
 10
105020.7474779718
 20
95050.91743800807
 30
0.0
 10
105020.7931516397
 20
95050.91094390435
 30
0.0
 10
105020.8500131653
 20
95050.90483909363
 30
0.0
 10
105020.8887259306
 20
95050.90532412081
 30
0.0
 10
105020.9088449881
 20
95050.90557618986
 30
0.0
 11
105020.6759132895
 21
95051.04560606771
 31
0.0
 11
105020.7243521381
 21
95050.93866091216
 31
0.0
 11
105020.7375926274
 21
95050.92731757716
 31
0.0
 11
105020.7933917939
 21
95050.91124786055
 31
0.0
 11
105020.8487180839
 21
95050.90604883442
 31
0.0
 11
105020.9088449881
 21
95050.90557618986
 31
0.0
  0
SPLINE
  5
4FA46
330
1F
100
AcDbEntity
  8
freecads.com
100
AcDbSpline
210
0.0
220
0.0
230
1.0
 70
     8
 71
     3
 72
     8
 73
     4
 74
     0
 42
0.000000001
 43
0.0000000001
 40
464.0075949415173
 40
464.0075949415173
 40
464.0075949415173
 40
464.0075949415173
 40
477.6407544104151
 40
477.6407544104151
 40
477.6407544104151
 40
477.6407544104151
 10
105020.922484967
 20
95050.7830919949
 30
0.0
 10
105020.9179385226
 20
95050.78309078578
 30
0.0
 10
105020.9133917554
 20
95050.78309639637
 30
0.0
 10
105020.9088449881
 20
95050.78310200699
 30
0.0
  0
SPLINE
  5
4FA47
330
1F
100
AcDbEntity
  8
freecads.com
100
AcDbSpline
210
0.0
220
0.0
230
1.0
 70
     8
 71
     3
 72
     8
 73
     4
 74
     0
 42
0.000000001
 43
0.0000000001
 40
446.2131013440281
 40
446.2131013440281
 40
446.2131013440281
 40
446.2131013440281
 40
447.1245819130988
 40
447.1245819130988
 40
447.1245819130988
 40
447.1245819130988
 10
105020.922484967
 20
95050.80311213035
 30
0.0
 10
105020.9186828841
 20
95050.8031081963
 30
0.0
 10
105020.9141826543
 20
95050.8031042651
 30
0.0
 10
105020.9088449881
 20
95050.8031003328
 30
0.0
  0
SPLINE
  5
4FA48
330
1F
100
AcDbEntity
  8
freecads.com
100
AcDbSpline
210
0.0
220
0.0
230
1.0
 70
     8
 71
     3
 72
     8
 73
     4
 74
     0
 42
0.000000001
 43
0.0000000001
 40
298.2260641464397
 40
298.2260641464397
 40
298.2260641464397
 40
298.2260641464397
 40
311.8156199324941
 40
311.8156199324941
 40
311.8156199324941
 40
311.8156199324941
 10
105020.922484967
 20
95050.90540507881
 30
0.0
 10
105020.9179399415
 20
95050.90545334937
 30
0.0
 10
105020.9133924648
 20
95050.90551476962
 30
0.0
 10
105020.9088449881
 20
95050.90557618986
 30
0.0
  0
LINE
  5
4FA49
330
1F
100
AcDbEntity
  8
freecads.com
100
AcDbLine
 10
105020.6704757106
 20
95051.21309199489
 30
0.0
 11
105020.6759132895
 21
95051.04560606771
 31
0.0
  0
SPLINE
  5
4FA4A
330
1F
100
AcDbEntity
  8
freecads.com
100
AcDbSpline
210
0.0
220
0.0
230
1.0
 70
     8
 71
     3
 72
    15
 73
    11
 74
     0
 42
0.000000001
 43
0.0000000001
 40
0.0
 40
0.0
 40
0.0
 40
0.0
 40
0.0079085775364648
 40
0.020905772075348
 40
0.037677713760706
 40
0.0869565061910963
 40
0.1251143189091787
 40
0.1691586984575781
 40
0.2344148683757042
 40
0.2878979645351599
 40
0.2878979645351599
 40
0.2878979645351599
 40
0.2878979645351599
 10
105020.6463877576
 20
95050.92961147353
 30
0.0
 10
105020.6468732205
 20
95050.93219978116
 30
0.0
 10
105020.6481565078
 20
95050.93904179156
 30
0.0
 10
105020.6484532905
 20
95050.95183498267
 30
0.0
 10
105020.6387746408
 20
95050.97668293538
 30
0.0
 10
105020.628650179
 20
95051.00967245947
 30
0.0
 10
105020.6163374247
 20
95051.05204696745
 30
0.0
 10
105020.6156382306
 20
95051.10151167155
 30
0.0
 10
105020.6143945152
 20
95051.15559947739
 30
0.0
 10
105020.6137341979
 20
95051.19528952931
 30
0.0
 10
105020.6135833793
 20
95051.21309199489
 30
0.0
  0
SPLINE
  5
4FA4B
330
1F
100
AcDbEntity
  8
freecads.com
100
AcDbSpline
210
0.0
220
0.0
230
1.0
 70
     8
 71
     3
 72
    15
 73
    11
 74
     0
 42
0.000000001
 43
0.0000000001
 40
0.0
 40
0.0
 40
0.0
 40
0.0
 40
7.908577536480597
 40
20.90577207536215
 40
37.67771376074684
 40
86.95650619113989
 40
125.1143189092015
 40
169.1586984575989
 40
234.4148683757257
 40
289.0811501661421
 40
289.0811501661421
 40
289.0811501661421
 40
289.0811501661421
 10
105020.6658676107
 20
95050.92843146695
 30
0.0
 10
105020.6663530736
 20
95050.93101977459
 30
0.0
 10
105020.6676363608
 20
95050.937861785
 30
0.0
 10
105020.6679331443
 20
95050.9506549759
 30
0.0
 10
105020.6582544875
 20
95050.97550293058
 30
0.0
 10
105020.6481301018
 20
95051.00849243351
 30
0.0
 10
105020.6358170751
 20
95051.05086701725
 30
0.0
 10
105020.6351191619
 20
95051.1003313653
 30
0.0
 10
105020.6338595726
 20
95051.15481420547
 30
0.0
 10
105020.6332110912
 20
95051.19489770653
 30
0.0
 10
105020.633058451
 20
95051.21309199489
 30
0.0
  0
SPLINE
  5
4FA4C
330
1F
100
AcDbEntity
  8
freecads.com
100
AcDbSpline
210
0.0
220
0.0
230
1.0
 70
     8
 71
     3
 72
    18
 73
    14
 74
     0
 42
0.000000001
 43
0.0000000001
 40
117.544452272429
 40
117.544452272429
 40
117.544452272429
 40
117.544452272429
 40
121.5782120084558
 40
138.8128471134586
 40
159.7356761485782
 40
185.0258019403773
 40
217.031734495737
 40
240.4054382193022
 40
274.8880694870596
 40
317.0282263848024
 40
367.6883550487834
 40
409.8334730367477
 40
474.4296972636449
 40
474.4296972636449
 40
474.4296972636449
 40
474.4296972636449
 10
105021.1985821764
 20
95050.92961147353
 30
0.0
 10
105021.1989403617
 20
95050.92830562034
 30
0.0
 10
105021.2011605332
 20
95050.92144223368
 30
0.0
 10
105021.2037950664
 20
95050.90771967005
 30
0.0
 10
105021.2054133928
 20
95050.88635889205
 30
0.0
 10
105021.1990100602
 20
95050.86087199217
 30
0.0
 10
105021.1865013984
 20
95050.83600373001
 30
0.0
 10
105021.1613381676
 20
95050.81865731847
 30
0.0
 10
105021.1308045821
 20
95050.80541549929
 30
0.0
 10
105021.0905404123
 20
95050.79135491186
 30
0.0
 10
105021.04561076
 20
95050.7861873597
 30
0.0
 10
105020.9932663366
 20
95050.7830853582
 30
0.0
 10
105020.9576679044
 20
95050.7830957302
 30
0.0
 10
105020.9361249459
 20
95050.78310200699
 30
0.0
  0
SPLINE
  5
4FA4D
330
1F
100
AcDbEntity
  8
freecads.com
100
AcDbSpline
210
0.0
220
0.0
230
1.0
 70
     8
 71
     3
 72
    98
 73
    94
 74
     0
 42
0.000000001
 43
0.0000000001
 40
114.4120633067309
 40
114.4120633067309
 40
114.4120633067309
 40
114.4120633067309
 40
115.313285776192
 40
115.313285776192
 40
117.7748566477773
 40
117.7748566477773
 40
120.2364275193626
 40
120.2364275193626
 40
121.5764322531769
 40
121.5764322531769
 40
125.1629290616186
 40
125.1629290616186
 40
132.0714134550561
 40
132.0714134550561
 40
138.6743689378141
 40
138.6743689378141
 40
142.6406926620967
 40
142.6406926620967
 40
146.6070163863792
 40
146.6070163863792
 40
154.5396638349442
 40
154.5396638349442
 40
159.673548584359
 40
159.673548584359
 40
167.1463235392934
 40
167.1463235392934
 40
174.6190984942278
 40
174.6190984942278
 40
180.2576469558658
 40
180.2576469558658
 40
183.5988372325109
 40
183.5988372325109
 40
186.4614193169528
 40
186.4614193169528
 40
194.3853094132726
 40
194.3853094132726
 40
204.581341962645
 40
204.581341962645
 40
214.7773745120173
 40
214.7773745120173
 40
217.2058118024684
 40
217.2058118024684
 40
219.6342490929195
 40
219.6342490929195
 40
224.4911236738218
 40
224.4911236738218
 40
234.1299422632729
 40
234.1299422632729
 40
239.2278676422874
 40
239.2278676422874
 40
242.1721340347132
 40
242.1721340347132
 40
245.1164004271389
 40
245.1164004271389
 40
251.0049332119904
 40
251.0049332119904
 40
262.7819987816935
 40
262.7819987816935
 40
273.251849682216
 40
273.251849682216
 40
277.263137761276
 40
277.263137761276
 40
281.2744258403359
 40
281.2744258403359
 40
289.2970019984556
 40
289.2970019984556
 40
305.3421543146952
 40
305.3421543146952
 40
316.7210396985118
 40
316.7210396985118
 40
325.3874572347419
 40
325.3874572347419
 40
334.0538747709721
 40
334.0538747709721
 40
351.3867098434323
 40
351.3867098434323
 40
365.4077063558946
 40
365.4077063558946
 40
372.1363343061443
 40
372.1363343061443
 40
378.864962256394
 40
378.864962256394
 40
392.3222181568934
 40
392.3222181568934
 40
406.6676545179282
 40
406.6676545179282
 40
415.4120311423842
 40
415.4120311423842
 40
424.1564077668403
 40
424.1564077668403
 40
441.6451610157523
 40
441.6451610157523
 40
447.1245819130988
 40
447.1245819130988
 40
447.1245819130988
 40
447.1245819130988
 10
105021.1781402768
 20
95050.92961147353
 30
0.0
 10
105021.1782322303
 20
95050.92901590545
 30
0.0
 10
105021.1783341371
 20
95050.9284464454
 30
0.0
 10
105021.1787354247
 20
95050.92641752433
 30
0.0
 10
105021.1790692424
 20
95050.92512378508
 30
0.0
 10
105021.1796970407
 20
95050.92287887354
 30
0.0
 10
105021.17999175
 20
95050.92192649563
 30
0.0
 10
105021.180367345
 20
95050.92070243199
 30
0.0
 10
105021.180484866
 20
95050.92031861639
 30
0.0
 10
105021.1808529653
 20
95050.9190850572
 30
0.0
 10
105021.1811038262
 20
95050.91817738277
 30
0.0
 10
105021.1817940598
 20
95050.91548286776
 30
0.0
 10
105021.1821924573
 20
95050.91366140126
 30
0.0
 10
105021.182884745
 20
95050.90997976425
 30
0.0
 10
105021.1831823524
 20
95050.90812495762
 30
0.0
 10
105021.183610072
 20
95050.90505545961
 30
0.0
 10
105021.183755431
 20
95050.90391236997
 30
0.0
 10
105021.1840085735
 20
95050.90166302339
 30
0.0
 10
105021.1841166801
 20
95050.90055436889
 30
0.0
 10
105021.1843788671
 20
95050.89728354359
 30
0.0
 10
105021.1844703045
 20
95050.89517681179
 30
0.0
 10
105021.1844632404
 20
95050.89185693039
 30
0.0
 10
105021.1844205431
 20
95050.89059074013
 30
0.0
 10
105021.1842136839
 20
95050.88758267779
 30
0.0
 10
105021.1839950685
 20
95050.88576997039
 30
0.0
 10
105021.1833710812
 20
95050.88206536969
 30
0.0
 10
105021.1829657225
 20
95050.88017563393
 30
0.0
 10
105021.1820996594
 20
95050.87679745843
 30
0.0
 10
105021.1816770166
 20
95050.87532450456
 30
0.0
 10
105021.1809293358
 20
95050.87294978356
 30
0.0
 10
105021.1806347107
 20
95050.872059827
 30
0.0
 10
105021.1800587584
 20
95050.87039648783
 30
0.0
 10
105021.1797805096
 20
95050.86962130237
 30
0.0
 10
105021.1787121968
 20
95050.86674816638
 30
0.0
 10
105021.1778769442
 20
95050.86471095143
 30
0.0
 10
105021.1758512811
 20
95050.86028605967
 30
0.0
 10
105021.1746274755
 20
95050.85796676501
 30
0.0
 10
105021.1720342276
 20
95050.85376505554
 30
0.0
 10
105021.1706665086
 20
95050.85188413016
 30
0.0
 10
105021.1688983651
 20
95050.84984326005
 30
0.0
 10
105021.1685562711
 20
95050.84946529221
 30
0.0
 10
105021.1678583928
 20
95050.84872798084
 30
0.0
 10
105021.1674938577
 20
95050.84835936321
 30
0.0
 10
105021.166353028
 20
95050.847253723
 30
0.0
 10
105021.1655292831
 20
95050.84651686535
 30
0.0
 10
105021.1628874004
 20
95050.8443230853
 30
0.0
 10
105021.1608869686
 20
95050.84287265189
 30
0.0
 10
105021.1575271447
 20
95050.84068476584
 30
0.0
 10
105021.1563103251
 20
95050.83993312618
 30
0.0
 10
105021.1543192744
 20
95050.83875497705
 30
0.0
 10
105021.1535745561
 20
95050.83832467887
 30
0.0
 10
105021.1520779446
 20
95050.8374787765
 30
0.0
 10
105021.1513233035
 20
95050.8370616656
 30
0.0
 10
105021.1490404139
 20
95050.83582654753
 30
0.0
 10
105021.147493175
 20
95050.83502475311
 30
0.0
 10
105021.1427767496
 20
95050.83267395775
 30
0.0
 10
105021.1395325638
 20
95050.83117965812
 30
0.0
 10
105021.1332295732
 20
95050.82844213989
 30
0.0
 10
105021.1301903032
 20
95050.8271895012
 30
0.0
 10
105021.1258964534
 20
95050.82547718789
 30
0.0
 10
105021.1246961977
 20
95050.82500418053
 30
0.0
 10
105021.1223045227
 20
95050.82407266135
 30
0.0
 10
105021.1211097539
 20
95050.82361303694
 30
0.0
 10
105021.1175286418
 20
95050.82225458423
 30
0.0
 10
105021.1151454886
 20
95050.82137618874
 30
0.0
 10
105021.1080088791
 20
95050.81883843018
 30
0.0
 10
105021.1032683156
 20
95050.8172767377
 30
0.0
 10
105021.0951959178
 20
95050.81489712388
 30
0.0
 10
105021.0918553651
 20
95050.8139949078
 30
0.0
 10
105021.0859855639
 20
95050.81257805295
 30
0.0
 10
105021.0834229266
 20
95050.81201549209
 30
0.0
 10
105021.078236795
 20
95050.81097610169
 30
0.0
 10
105021.0756156234
 20
95050.81049981889
 30
0.0
 10
105021.0676735896
 20
95050.80918415824
 30
0.0
 10
105021.0622740845
 20
95050.80845826608
 30
0.0
 10
105021.052350291
 20
95050.80733063262
 30
0.0
 10
105021.047856015
 20
95050.80689337006
 30
0.0
 10
105021.0411364528
 20
95050.80630396333
 30
0.0
 10
105021.0389468571
 20
95050.80612128839
 30
0.0
 10
105021.0345752781
 20
95050.80577351817
 30
0.0
 10
105021.0323896808
 20
95050.80560836843
 30
0.0
 10
105021.0258330784
 20
95050.80513908671
 30
0.0
 10
105021.0214622626
 20
95050.80486112197
 30
0.0
 10
105021.0124305433
 20
95050.80435872592
 30
0.0
 10
105021.0077695332
 20
95050.80413903861
 30
0.0
 10
105021.0002639223
 20
95050.80384889444
 30
0.0
 10
105020.997421036
 20
95050.80375415802
 30
0.0
 10
105020.9917122998
 20
95050.8035895787
 30
0.0
 10
105020.9888491425
 20
95050.80351955795
 30
0.0
 10
105020.9802339152
 20
95050.80333630209
 30
0.0
 10
105020.9744560927
 20
95050.80324993182
 30
0.0
 10
105020.9668250897
 20
95050.80314757126
 30
0.0
 10
105020.9650013847
 20
95050.80312397209
 30
0.0
 10
105020.9361249459
 20
95050.8031003328
 30
0.0
  0
SPLINE
  5
4FA4E
330
1F
100
AcDbEntity
  8
freecads.com
100
AcDbSpline
210
0.0
220
0.0
230
1.0
 70
  1064
 71
     3
 72
    12
 73
     8
 74
     6
 42
0.000000001
 43
0.0000000001
 44
0.0000000001
 40
0.0
 40
0.0
 40
0.0
 40
0.0
 40
0.1174035278379988
 40
0.1348386018603777
 40
0.1929056559076099
 40
0.2484756859772561
 40
0.308604447792051
 40
0.308604447792051
 40
0.308604447792051
 40
0.308604447792051
 10
105021.1690566445
 20
95051.04560606771
 30
0.0
 10
105021.1584429289
 20
95051.00621566434
 30
0.0
 10
105021.1462530177
 20
95050.96097556791
 30
0.0
 10
105021.0974919622
 20
95050.91743800807
 30
0.0
 10
105021.0518182943
 20
95050.91094390435
 30
0.0
 10
105020.9949567687
 20
95050.90483909363
 30
0.0
 10
105020.9562440034
 20
95050.90532412081
 30
0.0
 10
105020.9361249459
 20
95050.90557618986
 30
0.0
 11
105021.1690566445
 21
95051.04560606771
 31
0.0
 11
105021.1206177959
 21
95050.93866091216
 31
0.0
 11
105021.1073773065
 21
95050.92731757716
 31
0.0
 11
105021.0515781401
 21
95050.91124786055
 31
0.0
 11
105020.9962518501
 21
95050.90604883442
 31
0.0
 11
105020.9361249459
 21
95050.90557618986
 31
0.0
  0
SPLINE
  5
4FA4F
330
1F
100
AcDbEntity
  8
freecads.com
100
AcDbSpline
210
0.0
220
0.0
230
1.0
 70
     8
 71
     3
 72
     8
 73
     4
 74
     0
 42
0.000000001
 43
0.0000000001
 40
464.0075949415173
 40
464.0075949415173
 40
464.0075949415173
 40
464.0075949415173
 40
477.6407544104151
 40
477.6407544104151
 40
477.6407544104151
 40
477.6407544104151
 10
105020.922484967
 20
95050.7830919949
 30
0.0
 10
105020.9270314114
 20
95050.78309078578
 30
0.0
 10
105020.9315781786
 20
95050.78309639637
 30
0.0
 10
105020.9361249459
 20
95050.78310200699
 30
0.0
  0
SPLINE
  5
4FA50
330
1F
100
AcDbEntity
  8
freecads.com
100
AcDbSpline
210
0.0
220
0.0
230
1.0
 70
     8
 71
     3
 72
     8
 73
     4
 74
     0
 42
0.000000001
 43
0.0000000001
 40
446.2131013440281
 40
446.2131013440281
 40
446.2131013440281
 40
446.2131013440281
 40
447.1245819130988
 40
447.1245819130988
 40
447.1245819130988
 40
447.1245819130988
 10
105020.922484967
 20
95050.80311213035
 30
0.0
 10
105020.9262870499
 20
95050.8031081963
 30
0.0
 10
105020.9307872797
 20
95050.8031042651
 30
0.0
 10
105020.9361249459
 20
95050.8031003328
 30
0.0
  0
SPLINE
  5
4FA51
330
1F
100
AcDbEntity
  8
freecads.com
100
AcDbSpline
210
0.0
220
0.0
230
1.0
 70
     8
 71
     3
 72
     8
 73
     4
 74
     0
 42
0.000000001
 43
0.0000000001
 40
298.2260641464397
 40
298.2260641464397
 40
298.2260641464397
 40
298.2260641464397
 40
311.8156199324941
 40
311.8156199324941
 40
311.8156199324941
 40
311.8156199324941
 10
105020.922484967
 20
95050.90540507881
 30
0.0
 10
105020.9270299924
 20
95050.90545334937
 30
0.0
 10
105020.9315774692
 20
95050.90551476962
 30
0.0
 10
105020.9361249459
 20
95050.90557618986
 30
0.0
  0
LINE
  5
4FA52
330
1F
100
AcDbEntity
  8
freecads.com
100
AcDbLine
 10
105021.1744942234
 20
95051.21309199489
 30
0.0
 11
105021.1690566445
 21
95051.04560606771
 31
0.0
  0
SPLINE
  5
4FA53
330
1F
100
AcDbEntity
  8
freecads.com
100
AcDbSpline
210
0.0
220
0.0
230
1.0
 70
     8
 71
     3
 72
    15
 73
    11
 74
     0
 42
0.000000001
 43
0.0000000001
 40
0.0
 40
0.0
 40
0.0
 40
0.0
 40
0.0079085775364648
 40
0.020905772075348
 40
0.0376777137607058
 40
0.0869565061910963
 40
0.1251143189091787
 40
0.1691586984575689
 40
0.234414868375695
 40
0.2878979645381026
 40
0.2878979645381026
 40
0.2878979645381026
 40
0.2878979645381026
 10
105021.1985821764
 20
95050.92961147353
 30
0.0
 10
105021.1980967135
 20
95050.93219978116
 30
0.0
 10
105021.1968134262
 20
95050.93904179156
 30
0.0
 10
105021.1965166435
 20
95050.95183498267
 30
0.0
 10
105021.2061952932
 20
95050.97668293538
 30
0.0
 10
105021.216319755
 20
95051.00967245947
 30
0.0
 10
105021.2286325093
 20
95051.05204696745
 30
0.0
 10
105021.2293317034
 20
95051.10151167155
 30
0.0
 10
105021.2305754188
 20
95051.15559947739
 30
0.0
 10
105021.231235736
 20
95051.19528952931
 30
0.0
 10
105021.2313865547
 20
95051.21309199489
 30
0.0
  0
SPLINE
  5
4FA54
330
1F
100
AcDbEntity
  8
freecads.com
100
AcDbSpline
210
0.0
220
0.0
230
1.0
 70
     8
 71
     3
 72
    15
 73
    11
 74
     0
 42
0.000000001
 43
0.0000000001
 40
0.0
 40
0.0
 40
0.0
 40
0.0
 40
7.908577536480597
 40
20.90577207536215
 40
37.67771376074684
 40
86.95650619113989
 40
125.1143189092015
 40
169.1586984575989
 40
234.4148683757257
 40
289.0811501688933
 40
289.0811501688933
 40
289.0811501688933
 40
289.0811501688933
 10
105021.1791023232
 20
95050.92843146695
 30
0.0
 10
105021.1786168604
 20
95050.93101977459
 30
0.0
 10
105021.1773335732
 20
95050.937861785
 30
0.0
 10
105021.1770367897
 20
95050.9506549759
 30
0.0
 10
105021.1867154465
 20
95050.97550293058
 30
0.0
 10
105021.1968398322
 20
95051.00849243351
 30
0.0
 10
105021.2091528589
 20
95051.05086701725
 30
0.0
 10
105021.2098507721
 20
95051.1003313653
 30
0.0
 10
105021.2111103614
 20
95051.15481420549
 30
0.0
 10
105021.2117588428
 20
95051.19489770653
 30
0.0
 10
105021.211911483
 20
95051.21309199489
 30
0.0
  0
SPLINE
  5
4FA55
330
1F
100
AcDbEntity
  8
freecads.com
100
AcDbSpline
210
0.0
220
0.0
230
1.0
 70
     8
 71
     3
 72
    18
 73
    14
 74
     0
 42
0.000000001
 43
0.0000000001
 40
117.544452272429
 40
117.544452272429
 40
117.544452272429
 40
117.544452272429
 40
121.5782120084558
 40
138.8128471134586
 40
159.7356761485782
 40
185.0258019403773
 40
217.031734495737
 40
240.4054382193022
 40
274.8880694870596
 40
317.0282263848024
 40
367.6883550487834
 40
409.8334730367477
 40
474.4296972636449
 40
474.4296972636449
 40
474.4296972636449
 40
474.4296972636449
 10
105020.6463877576
 20
95052.64657251624
 30
0.0
 10
105020.6460295723
 20
95052.64787836942
 30
0.0
 10
105020.6438094008
 20
95052.65474175608
 30
0.0
 10
105020.6411748676
 20
95052.6684643197
 30
0.0
 10
105020.6395565412
 20
95052.68982509772
 30
0.0
 10
105020.6459598738
 20
95052.7153119976
 30
0.0
 10
105020.6584685355
 20
95052.74018025977
 30
0.0
 10
105020.6836317664
 20
95052.75752667129
 30
0.0
 10
105020.7141653519
 20
95052.77076849049
 30
0.0
 10
105020.7544295217
 20
95052.78482907792
 30
0.0
 10
105020.799359174
 20
95052.78999663007
 30
0.0
 10
105020.8517035973
 20
95052.79309863157
 30
0.0
 10
105020.8873020295
 20
95052.79308825956
 30
0.0
 10
105020.9088449881
 20
95052.79308198279
 30
0.0
  0
SPLINE
  5
4FA56
330
1F
100
AcDbEntity
  8
freecads.com
100
AcDbSpline
210
0.0
220
0.0
230
1.0
 70
     8
 71
     3
 72
    98
 73
    94
 74
     0
 42
0.000000001
 43
0.0000000001
 40
114.4120633067309
 40
114.4120633067309
 40
114.4120633067309
 40
114.4120633067309
 40
115.313285776192
 40
115.313285776192
 40
117.7748566477773
 40
117.7748566477773
 40
120.2364275193626
 40
120.2364275193626
 40
121.5764322531769
 40
121.5764322531769
 40
125.1629290616186
 40
125.1629290616186
 40
132.0714134550561
 40
132.0714134550561
 40
138.6743689378141
 40
138.6743689378141
 40
142.6406926620967
 40
142.6406926620967
 40
146.6070163863792
 40
146.6070163863792
 40
154.5396638349442
 40
154.5396638349442
 40
159.673548584359
 40
159.673548584359
 40
167.1463235392934
 40
167.1463235392934
 40
174.6190984942278
 40
174.6190984942278
 40
180.2576469558658
 40
180.2576469558658
 40
183.5988372325109
 40
183.5988372325109
 40
186.4614193169528
 40
186.4614193169528
 40
194.3853094132726
 40
194.3853094132726
 40
204.581341962645
 40
204.581341962645
 40
214.7773745120173
 40
214.7773745120173
 40
217.2058118024684
 40
217.2058118024684
 40
219.6342490929195
 40
219.6342490929195
 40
224.4911236738218
 40
224.4911236738218
 40
234.1299422632729
 40
234.1299422632729
 40
239.2278676422874
 40
239.2278676422874
 40
242.1721340347132
 40
242.1721340347132
 40
245.1164004271389
 40
245.1164004271389
 40
251.0049332119904
 40
251.0049332119904
 40
262.7819987816935
 40
262.7819987816935
 40
273.251849682216
 40
273.251849682216
 40
277.263137761276
 40
277.263137761276
 40
281.2744258403359
 40
281.2744258403359
 40
289.2970019984556
 40
289.2970019984556
 40
305.3421543146952
 40
305.3421543146952
 40
316.7210396985118
 40
316.7210396985118
 40
325.3874572347419
 40
325.3874572347419
 40
334.0538747709721
 40
334.0538747709721
 40
351.3867098434323
 40
351.3867098434323
 40
365.4077063558946
 40
365.4077063558946
 40
372.1363343061443
 40
372.1363343061443
 40
378.864962256394
 40
378.864962256394
 40
392.3222181568934
 40
392.3222181568934
 40
406.6676545179282
 40
406.6676545179282
 40
415.4120311423842
 40
415.4120311423842
 40
424.1564077668403
 40
424.1564077668403
 40
441.6451610157523
 40
441.6451610157523
 40
447.1245819130988
 40
447.1245819130988
 40
447.1245819130988
 40
447.1245819130988
 10
105020.6668296572
 20
95052.64657251624
 30
0.0
 10
105020.6667377037
 20
95052.64716808431
 30
0.0
 10
105020.6666357969
 20
95052.64773754438
 30
0.0
 10
105020.6662345093
 20
95052.64976646545
 30
0.0
 10
105020.6659006916
 20
95052.6510602047
 30
0.0
 10
105020.6652728933
 20
95052.65330511624
 30
0.0
 10
105020.664978184
 20
95052.65425749414
 30
0.0
 10
105020.664602589
 20
95052.65548155778
 30
0.0
 10
105020.664485068
 20
95052.65586537337
 30
0.0
 10
105020.6641169687
 20
95052.65709893256
 30
0.0
 10
105020.6638661078
 20
95052.658006607
 30
0.0
 10
105020.6631758741
 20
95052.66070112201
 30
0.0
 10
105020.6627774767
 20
95052.6625225885
 30
0.0
 10
105020.662085189
 20
95052.66620422551
 30
0.0
 10
105020.6617875816
 20
95052.66805903215
 30
0.0
 10
105020.661359862
 20
95052.67112853017
 30
0.0
 10
105020.661214503
 20
95052.67227161981
 30
0.0
 10
105020.6609613606
 20
95052.67452096637
 30
0.0
 10
105020.6608532538
 20
95052.67562962087
 30
0.0
 10
105020.6605910669
 20
95052.67890044615
 30
0.0
 10
105020.6604996295
 20
95052.68100717799
 30
0.0
 10
105020.6605066936
 20
95052.68432705937
 30
0.0
 10
105020.6605493908
 20
95052.68559324962
 30
0.0
 10
105020.6607562501
 20
95052.68860131199
 30
0.0
 10
105020.6609748655
 20
95052.69041401938
 30
0.0
 10
105020.6615988528
 20
95052.69411862007
 30
0.0
 10
105020.6620042115
 20
95052.69600835584
 30
0.0
 10
105020.6628702746
 20
95052.69938653134
 30
0.0
 10
105020.6632929174
 20
95052.7008594852
 30
0.0
 10
105020.6640405982
 20
95052.70323420621
 30
0.0
 10
105020.6643352233
 20
95052.70412416276
 30
0.0
 10
105020.6649111756
 20
95052.70578750195
 30
0.0
 10
105020.6651894244
 20
95052.7065626874
 30
0.0
 10
105020.6662577372
 20
95052.7094358234
 30
0.0
 10
105020.6670929898
 20
95052.71147303833
 30
0.0
 10
105020.6691186528
 20
95052.71589793009
 30
0.0
 10
105020.6703424585
 20
95052.71821722475
 30
0.0
 10
105020.6729357064
 20
95052.72241893424
 30
0.0
 10
105020.6743034254
 20
95052.72429985963
 30
0.0
 10
105020.6760715689
 20
95052.72634072971
 30
0.0
 10
105020.6764136629
 20
95052.72671869755
 30
0.0
 10
105020.6771115412
 20
95052.7274560089
 30
0.0
 10
105020.6774760763
 20
95052.72782462656
 30
0.0
 10
105020.6786169059
 20
95052.72893026678
 30
0.0
 10
105020.6794406509
 20
95052.72966712441
 30
0.0
 10
105020.6820825336
 20
95052.73186090446
 30
0.0
 10
105020.6840829654
 20
95052.73331133787
 30
0.0
 10
105020.6874427893
 20
95052.73549922392
 30
0.0
 10
105020.6886596089
 20
95052.73625086358
 30
0.0
 10
105020.6906506596
 20
95052.73742901271
 30
0.0
 10
105020.6913953779
 20
95052.73785931089
 30
0.0
 10
105020.6928919894
 20
95052.73870521326
 30
0.0
 10
105020.6936466305
 20
95052.73912232416
 30
0.0
 10
105020.6959295201
 20
95052.74035744225
 30
0.0
 10
105020.697476759
 20
95052.74115923665
 30
0.0
 10
105020.7021931844
 20
95052.74351003199
 30
0.0
 10
105020.7054373702
 20
95052.74500433166
 30
0.0
 10
105020.7117403608
 20
95052.74774184989
 30
0.0
 10
105020.7147796308
 20
95052.74899448856
 30
0.0
 10
105020.7190734806
 20
95052.75070680189
 30
0.0
 10
105020.7202737363
 20
95052.75117980925
 30
0.0
 10
105020.7226654113
 20
95052.75211132842
 30
0.0
 10
105020.7238601801
 20
95052.75257095284
 30
0.0
 10
105020.7274412922
 20
95052.75392940554
 30
0.0
 10
105020.7298244453
 20
95052.75480780102
 30
0.0
 10
105020.7369610549
 20
95052.75734555958
 30
0.0
 10
105020.7417016184
 20
95052.75890725206
 30
0.0
 10
105020.7497740162
 20
95052.76128686588
 30
0.0
 10
105020.7531145689
 20
95052.76218908196
 30
0.0
 10
105020.7589843701
 20
95052.76360593683
 30
0.0
 10
105020.7615470074
 20
95052.76416849769
 30
0.0
 10
105020.766733139
 20
95052.76520788806
 30
0.0
 10
105020.7693543106
 20
95052.76568417087
 30
0.0
 10
105020.7772963444
 20
95052.76699983154
 30
0.0
 10
105020.7826958495
 20
95052.76772572369
 30
0.0
 10
105020.792619643
 20
95052.76885335716
 30
0.0
 10
105020.797113919
 20
95052.7692906197
 30
0.0
 10
105020.8038334812
 20
95052.76988002643
 30
0.0
 10
105020.8060230769
 20
95052.77006270139
 30
0.0
 10
105020.8103946559
 20
95052.77041047159
 30
0.0
 10
105020.8125802531
 20
95052.77057562135
 30
0.0
 10
105020.8191368556
 20
95052.77104490303
 30
0.0
 10
105020.8235076714
 20
95052.7713228678
 30
0.0
 10
105020.8325393907
 20
95052.77182526382
 30
0.0
 10
105020.8372004008
 20
95052.77204495113
 30
0.0
 10
105020.8447060117
 20
95052.77233509531
 30
0.0
 10
105020.847548898
 20
95052.77242983174
 30
0.0
 10
105020.8532576341
 20
95052.77259441106
 30
0.0
 10
105020.8561207915
 20
95052.77266443179
 30
0.0
 10
105020.8647360188
 20
95052.77284768768
 30
0.0
 10
105020.8705138413
 20
95052.77293405795
 30
0.0
 10
105020.8781448443
 20
95052.7730364185
 30
0.0
 10
105020.8799685493
 20
95052.77306001767
 30
0.0
 10
105020.9088449881
 20
95052.77308365696
 30
0.0
  0
SPLINE
  5
4FA57
330
1F
100
AcDbEntity
  8
freecads.com
100
AcDbSpline
210
0.0
220
0.0
230
1.0
 70
  1064
 71
     3
 72
    12
 73
     8
 74
     6
 42
0.000000001
 43
0.0000000001
 44
0.0000000001
 40
0.0
 40
0.0
 40
0.0
 40
0.0
 40
0.1174035278512544
 40
0.1348386018736333
 40
0.1929056559168383
 40
0.248475685987846
 40
0.3086044478026408
 40
0.3086044478026408
 40
0.3086044478026408
 40
0.3086044478026408
 10
105020.6759132895
 20
95052.53057792206
 30
0.0
 10
105020.6865270052
 20
95052.56996832549
 30
0.0
 10
105020.6987169164
 20
95052.61520842195
 30
0.0
 10
105020.7474779718
 20
95052.65874598165
 30
0.0
 10
105020.7931516397
 20
95052.66524008543
 30
0.0
 10
105020.8500131652
 20
95052.67134489617
 30
0.0
 10
105020.8887259306
 20
95052.67085986895
 30
0.0
 10
105020.9088449881
 20
95052.6706077999
 30
0.0
 11
105020.6759132895
 21
95052.53057792206
 31
0.0
 11
105020.7243521381
 21
95052.6375230776
 31
0.0
 11
105020.7375926274
 21
95052.64886641262
 31
0.0
 11
105020.7933917939
 21
95052.66493612921
 31
0.0
 11
105020.8487180839
 21
95052.67013515537
 31
0.0
 11
105020.9088449881
 21
95052.6706077999
 31
0.0
  0
SPLINE
  5
4FA58
330
1F
100
AcDbEntity
  8
freecads.com
100
AcDbSpline
210
0.0
220
0.0
230
1.0
 70
     8
 71
     3
 72
     8
 73
     4
 74
     0
 42
0.000000001
 43
0.0000000001
 40
464.0075949415173
 40
464.0075949415173
 40
464.0075949415173
 40
464.0075949415173
 40
477.6407544104151
 40
477.6407544104151
 40
477.6407544104151
 40
477.6407544104151
 10
105020.922484967
 20
95052.79309199487
 30
0.0
 10
105020.9179385226
 20
95052.79309320398
 30
0.0
 10
105020.9133917554
 20
95052.79308759337
 30
0.0
 10
105020.9088449881
 20
95052.79308198279
 30
0.0
  0
SPLINE
  5
4FA59
330
1F
100
AcDbEntity
  8
freecads.com
100
AcDbSpline
210
0.0
220
0.0
230
1.0
 70
     8
 71
     3
 72
     8
 73
     4
 74
     0
 42
0.000000001
 43
0.0000000001
 40
446.2131013440281
 40
446.2131013440281
 40
446.2131013440281
 40
446.2131013440281
 40
447.1245819130988
 40
447.1245819130988
 40
447.1245819130988
 40
447.1245819130988
 10
105020.922484967
 20
95052.77307185943
 30
0.0
 10
105020.9186828841
 20
95052.77307579348
 30
0.0
 10
105020.9141826543
 20
95052.77307972466
 30
0.0
 10
105020.9088449881
 20
95052.77308365696
 30
0.0
  0
SPLINE
  5
4FA5A
330
1F
100
AcDbEntity
  8
freecads.com
100
AcDbSpline
210
0.0
220
0.0
230
1.0
 70
     8
 71
     3
 72
     8
 73
     4
 74
     0
 42
0.000000001
 43
0.0000000001
 40
298.2260641464397
 40
298.2260641464397
 40
298.2260641464397
 40
298.2260641464397
 40
311.8156199324941
 40
311.8156199324941
 40
311.8156199324941
 40
311.8156199324941
 10
105020.922484967
 20
95052.67077891096
 30
0.0
 10
105020.9179399415
 20
95052.67073064038
 30
0.0
 10
105020.9133924648
 20
95052.67066922016
 30
0.0
 10
105020.9088449881
 20
95052.6706077999
 30
0.0
  0
LINE
  5
4FA5B
330
1F
100
AcDbEntity
  8
freecads.com
100
AcDbLine
 10
105020.922484967
 20
95050.7830919949
 30
0.0
 11
105020.922484967
 21
95050.76823679546
 31
0.0
  0
SPLINE
  5
4FA5C
330
1F
100
AcDbEntity
  8
freecads.com
100
AcDbSpline
210
0.0
220
0.0
230
1.0
 70
     8
 71
     3
 72
    15
 73
    11
 74
     0
 42
0.000000001
 43
0.0000000001
 40
0.0
 40
0.0
 40
0.0
 40
0.0
 40
0.0079085775364648
 40
0.020905772075348
 40
0.0376777137607058
 40
0.0869565061910963
 40
0.1251143189091787
 40
0.1691586984575781
 40
0.2344148683757042
 40
0.2878979645173173
 40
0.2878979645173173
 40
0.2878979645173173
 40
0.2878979645173173
 10
105020.6463877576
 20
95052.64657251624
 30
0.0
 10
105020.6468732205
 20
95052.64398420859
 30
0.0
 10
105020.6481565078
 20
95052.63714219822
 30
0.0
 10
105020.6484532905
 20
95052.62434900711
 30
0.0
 10
105020.6387746408
 20
95052.5995010544
 30
0.0
 10
105020.628650179
 20
95052.56651153029
 30
0.0
 10
105020.6163374247
 20
95052.52413702232
 30
0.0
 10
105020.6156382306
 20
95052.4746723182
 30
0.0
 10
105020.6143945152
 20
95052.42058451237
 30
0.0
 10
105020.6137341979
 20
95052.38089446045
 30
0.0
 10
105020.6135833793
 20
95052.36309199489
 30
0.0
  0
SPLINE
  5
4FA5D
330
1F
100
AcDbEntity
  8
freecads.com
100
AcDbSpline
210
0.0
220
0.0
230
1.0
 70
     8
 71
     3
 72
    15
 73
    11
 74
     0
 42
0.000000001
 43
0.0000000001
 40
0.0
 40
0.0
 40
0.0
 40
0.0
 40
7.908577536480597
 40
20.90577207536215
 40
37.67771376074684
 40
86.95650619113989
 40
125.1143189092015
 40
169.1586984575989
 40
234.4148683757257
 40
289.0811501480957
 40
289.0811501480957
 40
289.0811501480957
 40
289.0811501480957
 10
105020.6658676107
 20
95052.64775252282
 30
0.0
 10
105020.6663530736
 20
95052.64516421517
 30
0.0
 10
105020.6676363608
 20
95052.63832220478
 30
0.0
 10
105020.6679331443
 20
95052.62552901388
 30
0.0
 10
105020.6582544875
 20
95052.60068105918
 30
0.0
 10
105020.6481301018
 20
95052.56769155627
 30
0.0
 10
105020.6358170751
 20
95052.52531697252
 30
0.0
 10
105020.6351191619
 20
95052.47585262447
 30
0.0
 10
105020.6338595726
 20
95052.42136978429
 30
0.0
 10
105020.6332110912
 20
95052.38128628326
 30
0.0
 10
105020.633058451
 20
95052.36309199489
 30
0.0
  0
LINE
  5
4FA5E
330
1F
100
AcDbEntity
  8
freecads.com
100
AcDbLine
 10
105020.6704757106
 20
95052.36309199489
 30
0.0
 11
105020.6759132895
 21
95052.53057792206
 31
0.0
  0
SPLINE
  5
4FA5F
330
1F
100
AcDbEntity
  8
freecads.com
100
AcDbSpline
210
0.0
220
0.0
230
1.0
 70
     8
 71
     3
 72
    18
 73
    14
 74
     0
 42
0.000000001
 43
0.0000000001
 40
117.544452272429
 40
117.544452272429
 40
117.544452272429
 40
117.544452272429
 40
121.5782120084558
 40
138.8128471134586
 40
159.7356761485782
 40
185.0258019403773
 40
217.031734495737
 40
240.4054382193022
 40
274.8880694870596
 40
317.0282263848024
 40
367.6883550487834
 40
409.8334730367477
 40
474.4296972636449
 40
474.4296972636449
 40
474.4296972636449
 40
474.4296972636449
 10
105021.1985821764
 20
95052.64657251624
 30
0.0
 10
105021.1989403617
 20
95052.64787836942
 30
0.0
 10
105021.2011605332
 20
95052.65474175608
 30
0.0
 10
105021.2037950664
 20
95052.6684643197
 30
0.0
 10
105021.2054133928
 20
95052.68982509772
 30
0.0
 10
105021.1990100602
 20
95052.7153119976
 30
0.0
 10
105021.1865013984
 20
95052.74018025977
 30
0.0
 10
105021.1613381676
 20
95052.75752667129
 30
0.0
 10
105021.1308045821
 20
95052.77076849049
 30
0.0
 10
105021.0905404123
 20
95052.78482907792
 30
0.0
 10
105021.04561076
 20
95052.78999663007
 30
0.0
 10
105020.9932663366
 20
95052.79309863157
 30
0.0
 10
105020.9576679044
 20
95052.79308825956
 30
0.0
 10
105020.9361249459
 20
95052.79308198279
 30
0.0
  0
SPLINE
  5
4FA60
330
1F
100
AcDbEntity
  8
freecads.com
100
AcDbSpline
210
0.0
220
0.0
230
1.0
 70
     8
 71
     3
 72
    98
 73
    94
 74
     0
 42
0.000000001
 43
0.0000000001
 40
114.4120633067309
 40
114.4120633067309
 40
114.4120633067309
 40
114.4120633067309
 40
115.313285776192
 40
115.313285776192
 40
117.7748566477773
 40
117.7748566477773
 40
120.2364275193626
 40
120.2364275193626
 40
121.5764322531769
 40
121.5764322531769
 40
125.1629290616186
 40
125.1629290616186
 40
132.0714134550561
 40
132.0714134550561
 40
138.6743689378141
 40
138.6743689378141
 40
142.6406926620967
 40
142.6406926620967
 40
146.6070163863792
 40
146.6070163863792
 40
154.5396638349442
 40
154.5396638349442
 40
159.673548584359
 40
159.673548584359
 40
167.1463235392934
 40
167.1463235392934
 40
174.6190984942278
 40
174.6190984942278
 40
180.2576469558658
 40
180.2576469558658
 40
183.5988372325109
 40
183.5988372325109
 40
186.4614193169528
 40
186.4614193169528
 40
194.3853094132726
 40
194.3853094132726
 40
204.581341962645
 40
204.581341962645
 40
214.7773745120173
 40
214.7773745120173
 40
217.2058118024684
 40
217.2058118024684
 40
219.6342490929195
 40
219.6342490929195
 40
224.4911236738218
 40
224.4911236738218
 40
234.1299422632729
 40
234.1299422632729
 40
239.2278676422874
 40
239.2278676422874
 40
242.1721340347132
 40
242.1721340347132
 40
245.1164004271389
 40
245.1164004271389
 40
251.0049332119904
 40
251.0049332119904
 40
262.7819987816935
 40
262.7819987816935
 40
273.251849682216
 40
273.251849682216
 40
277.263137761276
 40
277.263137761276
 40
281.2744258403359
 40
281.2744258403359
 40
289.2970019984556
 40
289.2970019984556
 40
305.3421543146952
 40
305.3421543146952
 40
316.7210396985118
 40
316.7210396985118
 40
325.3874572347419
 40
325.3874572347419
 40
334.0538747709721
 40
334.0538747709721
 40
351.3867098434323
 40
351.3867098434323
 40
365.4077063558946
 40
365.4077063558946
 40
372.1363343061443
 40
372.1363343061443
 40
378.864962256394
 40
378.864962256394
 40
392.3222181568934
 40
392.3222181568934
 40
406.6676545179282
 40
406.6676545179282
 40
415.4120311423842
 40
415.4120311423842
 40
424.1564077668403
 40
424.1564077668403
 40
441.6451610157523
 40
441.6451610157523
 40
447.1245819130988
 40
447.1245819130988
 40
447.1245819130988
 40
447.1245819130988
 10
105021.1781402768
 20
95052.64657251624
 30
0.0
 10
105021.1782322303
 20
95052.64716808431
 30
0.0
 10
105021.1783341371
 20
95052.64773754438
 30
0.0
 10
105021.1787354247
 20
95052.64976646545
 30
0.0
 10
105021.1790692424
 20
95052.6510602047
 30
0.0
 10
105021.1796970407
 20
95052.65330511624
 30
0.0
 10
105021.17999175
 20
95052.65425749414
 30
0.0
 10
105021.180367345
 20
95052.65548155778
 30
0.0
 10
105021.180484866
 20
95052.65586537337
 30
0.0
 10
105021.1808529653
 20
95052.65709893256
 30
0.0
 10
105021.1811038262
 20
95052.658006607
 30
0.0
 10
105021.1817940598
 20
95052.66070112201
 30
0.0
 10
105021.1821924573
 20
95052.6625225885
 30
0.0
 10
105021.182884745
 20
95052.66620422551
 30
0.0
 10
105021.1831823524
 20
95052.66805903215
 30
0.0
 10
105021.183610072
 20
95052.67112853017
 30
0.0
 10
105021.183755431
 20
95052.67227161981
 30
0.0
 10
105021.1840085735
 20
95052.67452096637
 30
0.0
 10
105021.1841166801
 20
95052.67562962087
 30
0.0
 10
105021.1843788671
 20
95052.67890044615
 30
0.0
 10
105021.1844703045
 20
95052.68100717799
 30
0.0
 10
105021.1844632404
 20
95052.68432705937
 30
0.0
 10
105021.1844205431
 20
95052.68559324962
 30
0.0
 10
105021.1842136839
 20
95052.68860131199
 30
0.0
 10
105021.1839950685
 20
95052.69041401938
 30
0.0
 10
105021.1833710812
 20
95052.69411862007
 30
0.0
 10
105021.1829657225
 20
95052.69600835584
 30
0.0
 10
105021.1820996594
 20
95052.69938653134
 30
0.0
 10
105021.1816770166
 20
95052.7008594852
 30
0.0
 10
105021.1809293358
 20
95052.70323420621
 30
0.0
 10
105021.1806347107
 20
95052.70412416276
 30
0.0
 10
105021.1800587584
 20
95052.70578750195
 30
0.0
 10
105021.1797805096
 20
95052.7065626874
 30
0.0
 10
105021.1787121968
 20
95052.7094358234
 30
0.0
 10
105021.1778769442
 20
95052.71147303833
 30
0.0
 10
105021.1758512811
 20
95052.71589793009
 30
0.0
 10
105021.1746274755
 20
95052.71821722475
 30
0.0
 10
105021.1720342276
 20
95052.72241893424
 30
0.0
 10
105021.1706665086
 20
95052.72429985963
 30
0.0
 10
105021.1688983651
 20
95052.72634072971
 30
0.0
 10
105021.1685562711
 20
95052.72671869755
 30
0.0
 10
105021.1678583928
 20
95052.7274560089
 30
0.0
 10
105021.1674938577
 20
95052.72782462656
 30
0.0
 10
105021.166353028
 20
95052.72893026678
 30
0.0
 10
105021.1655292831
 20
95052.72966712441
 30
0.0
 10
105021.1628874004
 20
95052.73186090446
 30
0.0
 10
105021.1608869686
 20
95052.73331133787
 30
0.0
 10
105021.1575271447
 20
95052.73549922392
 30
0.0
 10
105021.1563103251
 20
95052.73625086358
 30
0.0
 10
105021.1543192744
 20
95052.73742901271
 30
0.0
 10
105021.1535745561
 20
95052.73785931089
 30
0.0
 10
105021.1520779446
 20
95052.73870521326
 30
0.0
 10
105021.1513233035
 20
95052.73912232416
 30
0.0
 10
105021.1490404139
 20
95052.74035744225
 30
0.0
 10
105021.147493175
 20
95052.74115923665
 30
0.0
 10
105021.1427767496
 20
95052.74351003199
 30
0.0
 10
105021.1395325638
 20
95052.74500433166
 30
0.0
 10
105021.1332295732
 20
95052.74774184989
 30
0.0
 10
105021.1301903032
 20
95052.74899448856
 30
0.0
 10
105021.1258964534
 20
95052.75070680189
 30
0.0
 10
105021.1246961977
 20
95052.75117980925
 30
0.0
 10
105021.1223045227
 20
95052.75211132842
 30
0.0
 10
105021.1211097539
 20
95052.75257095284
 30
0.0
 10
105021.1175286418
 20
95052.75392940554
 30
0.0
 10
105021.1151454886
 20
95052.75480780102
 30
0.0
 10
105021.1080088791
 20
95052.75734555958
 30
0.0
 10
105021.1032683156
 20
95052.75890725206
 30
0.0
 10
105021.0951959178
 20
95052.76128686588
 30
0.0
 10
105021.0918553651
 20
95052.76218908196
 30
0.0
 10
105021.0859855639
 20
95052.76360593683
 30
0.0
 10
105021.0834229266
 20
95052.76416849769
 30
0.0
 10
105021.078236795
 20
95052.76520788806
 30
0.0
 10
105021.0756156234
 20
95052.76568417087
 30
0.0
 10
105021.0676735896
 20
95052.76699983154
 30
0.0
 10
105021.0622740845
 20
95052.76772572369
 30
0.0
 10
105021.052350291
 20
95052.76885335716
 30
0.0
 10
105021.047856015
 20
95052.7692906197
 30
0.0
 10
105021.0411364528
 20
95052.76988002643
 30
0.0
 10
105021.0389468571
 20
95052.77006270139
 30
0.0
 10
105021.0345752781
 20
95052.77041047159
 30
0.0
 10
105021.0323896808
 20
95052.77057562135
 30
0.0
 10
105021.0258330784
 20
95052.77104490303
 30
0.0
 10
105021.0214622626
 20
95052.7713228678
 30
0.0
 10
105021.0124305433
 20
95052.77182526382
 30
0.0
 10
105021.0077695332
 20
95052.77204495113
 30
0.0
 10
105021.0002639223
 20
95052.77233509531
 30
0.0
 10
105020.997421036
 20
95052.77242983174
 30
0.0
 10
105020.9917122998
 20
95052.77259441106
 30
0.0
 10
105020.9888491425
 20
95052.77266443179
 30
0.0
 10
105020.9802339152
 20
95052.77284768768
 30
0.0
 10
105020.9744560927
 20
95052.77293405795
 30
0.0
 10
105020.9668250897
 20
95052.7730364185
 30
0.0
 10
105020.9650013847
 20
95052.77306001767
 30
0.0
 10
105020.9361249459
 20
95052.77308365696
 30
0.0
  0
SPLINE
  5
4FA61
330
1F
100
AcDbEntity
  8
freecads.com
100
AcDbSpline
210
0.0
220
0.0
230
1.0
 70
  1064
 71
     3
 72
    12
 73
     8
 74
     6
 42
0.000000001
 43
0.0000000001
 44
0.0000000001
 40
0.0
 40
0.0
 40
0.0
 40
0.0
 40
0.1174035278512544
 40
0.1348386018736333
 40
0.1929056559168383
 40
0.248475685987846
 40
0.3086044478026408
 40
0.3086044478026408
 40
0.3086044478026408
 40
0.3086044478026408
 10
105021.1690566445
 20
95052.53057792206
 30
0.0
 10
105021.1584429288
 20
95052.56996832549
 30
0.0
 10
105021.1462530177
 20
95052.61520842195
 30
0.0
 10
105021.0974919622
 20
95052.65874598165
 30
0.0
 10
105021.0518182943
 20
95052.66524008543
 30
0.0
 10
105020.9949567687
 20
95052.67134489617
 30
0.0
 10
105020.9562440034
 20
95052.67085986895
 30
0.0
 10
105020.9361249459
 20
95052.6706077999
 30
0.0
 11
105021.1690566445
 21
95052.53057792206
 31
0.0
 11
105021.1206177959
 21
95052.6375230776
 31
0.0
 11
105021.1073773065
 21
95052.64886641262
 31
0.0
 11
105021.0515781401
 21
95052.66493612921
 31
0.0
 11
105020.9962518501
 21
95052.67013515537
 31
0.0
 11
105020.9361249459
 21
95052.6706077999
 31
0.0
  0
SPLINE
  5
4FA62
330
1F
100
AcDbEntity
  8
freecads.com
100
AcDbSpline
210
0.0
220
0.0
230
1.0
 70
     8
 71
     3
 72
     8
 73
     4
 74
     0
 42
0.000000001
 43
0.0000000001
 40
464.0075949415173
 40
464.0075949415173
 40
464.0075949415173
 40
464.0075949415173
 40
477.6407544104151
 40
477.6407544104151
 40
477.6407544104151
 40
477.6407544104151
 10
105020.922484967
 20
95052.79309199487
 30
0.0
 10
105020.9270314114
 20
95052.79309320398
 30
0.0
 10
105020.9315781786
 20
95052.79308759337
 30
0.0
 10
105020.9361249459
 20
95052.79308198279
 30
0.0
  0
SPLINE
  5
4FA63
330
1F
100
AcDbEntity
  8
freecads.com
100
AcDbSpline
210
0.0
220
0.0
230
1.0
 70
     8
 71
     3
 72
     8
 73
     4
 74
     0
 42
0.000000001
 43
0.0000000001
 40
446.2131013440281
 40
446.2131013440281
 40
446.2131013440281
 40
446.2131013440281
 40
447.1245819130988
 40
447.1245819130988
 40
447.1245819130988
 40
447.1245819130988
 10
105020.922484967
 20
95052.77307185943
 30
0.0
 10
105020.9262870499
 20
95052.77307579348
 30
0.0
 10
105020.9307872797
 20
95052.77307972466
 30
0.0
 10
105020.9361249459
 20
95052.77308365696
 30
0.0
  0
SPLINE
  5
4FA64
330
1F
100
AcDbEntity
  8
freecads.com
100
AcDbSpline
210
0.0
220
0.0
230
1.0
 70
     8
 71
     3
 72
     8
 73
     4
 74
     0
 42
0.000000001
 43
0.0000000001
 40
298.2260641464397
 40
298.2260641464397
 40
298.2260641464397
 40
298.2260641464397
 40
311.8156199324941
 40
311.8156199324941
 40
311.8156199324941
 40
311.8156199324941
 10
105020.922484967
 20
95052.67077891096
 30
0.0
 10
105020.9270299924
 20
95052.67073064038
 30
0.0
 10
105020.9315774692
 20
95052.67066922016
 30
0.0
 10
105020.9361249459
 20
95052.6706077999
 30
0.0
  0
SPLINE
  5
4FA65
330
1F
100
AcDbEntity
  8
freecads.com
100
AcDbSpline
210
0.0
220
0.0
230
1.0
 70
     8
 71
     3
 72
    15
 73
    11
 74
     0
 42
0.000000001
 43
0.0000000001
 40
0.0
 40
0.0
 40
0.0
 40
0.0
 40
0.0079085775364647
 40
0.0209057720753478
 40
0.0376777137607056
 40
0.0869565061910961
 40
0.1251143189091786
 40
0.1691586984575688
 40
0.2344148683756949
 40
0.2878979645143644
 40
0.2878979645143644
 40
0.2878979645143644
 40
0.2878979645143644
 10
105021.1985821764
 20
95052.64657251624
 30
0.0
 10
105021.1980967135
 20
95052.64398420859
 30
0.0
 10
105021.1968134262
 20
95052.63714219822
 30
0.0
 10
105021.1965166435
 20
95052.62434900711
 30
0.0
 10
105021.2061952932
 20
95052.5995010544
 30
0.0
 10
105021.216319755
 20
95052.56651153029
 30
0.0
 10
105021.2286325093
 20
95052.52413702232
 30
0.0
 10
105021.2293317034
 20
95052.4746723182
 30
0.0
 10
105021.2305754188
 20
95052.42058451237
 30
0.0
 10
105021.231235736
 20
95052.38089446045
 30
0.0
 10
105021.2313865547
 20
95052.36309199489
 30
0.0
  0
SPLINE
  5
4FA66
330
1F
100
AcDbEntity
  8
freecads.com
100
AcDbSpline
210
0.0
220
0.0
230
1.0
 70
     8
 71
     3
 72
    15
 73
    11
 74
     0
 42
0.000000001
 43
0.0000000001
 40
0.0
 40
0.0
 40
0.0
 40
0.0
 40
7.908577536480597
 40
20.90577207536215
 40
37.67771376074684
 40
86.95650619113989
 40
125.1143189092015
 40
169.1586984575989
 40
234.4148683757257
 40
289.0811501453431
 40
289.0811501453431
 40
289.0811501453431
 40
289.0811501453431
 10
105021.1791023232
 20
95052.64775252282
 30
0.0
 10
105021.1786168604
 20
95052.64516421517
 30
0.0
 10
105021.1773335732
 20
95052.63832220478
 30
0.0
 10
105021.1770367897
 20
95052.62552901388
 30
0.0
 10
105021.1867154465
 20
95052.60068105918
 30
0.0
 10
105021.1968398322
 20
95052.56769155627
 30
0.0
 10
105021.2091528589
 20
95052.52531697252
 30
0.0
 10
105021.2098507721
 20
95052.47585262447
 30
0.0
 10
105021.2111103614
 20
95052.42136978429
 30
0.0
 10
105021.2117588428
 20
95052.38128628326
 30
0.0
 10
105021.211911483
 20
95052.36309199489
 30
0.0
  0
LINE
  5
4FA67
330
1F
100
AcDbEntity
  8
freecads.com
100
AcDbLine
 10
105021.1744942234
 20
95052.36309199489
 30
0.0
 11
105021.1690566445
 21
95052.53057792206
 31
0.0
  0
SPLINE
  5
4FA68
330
1F
100
AcDbEntity
  8
freecads.com
100
AcDbSpline
210
0.0
220
0.0
230
1.0
 70
     8
 71
     3
 72
    18
 73
    14
 74
     0
 42
0.000000001
 43
0.0000000001
 40
117.544452272429
 40
117.544452272429
 40
117.544452272429
 40
117.544452272429
 40
121.5782120084558
 40
138.8128471134586
 40
159.7356761485782
 40
185.0258019403773
 40
217.031734495737
 40
240.4054382193022
 40
274.8880694870596
 40
317.0282263848024
 40
367.6883550487834
 40
409.8334730367477
 40
474.4296972636449
 40
474.4296972636449
 40
474.4296972636449
 40
474.4296972636449
 10
105021.4621225597
 20
95050.92961147353
 30
0.0
 10
105021.4617643744
 20
95050.92830562034
 30
0.0
 10
105021.4595442028
 20
95050.92144223368
 30
0.0
 10
105021.4569096696
 20
95050.90771967005
 30
0.0
 10
105021.4552913432
 20
95050.88635889205
 30
0.0
 10
105021.4616946758
 20
95050.86087199217
 30
0.0
 10
105021.4742033376
 20
95050.83600373001
 30
0.0
 10
105021.4993665684
 20
95050.81865731847
 30
0.0
 10
105021.529900154
 20
95050.80541549929
 30
0.0
 10
105021.5701643237
 20
95050.79135491186
 30
0.0
 10
105021.615093976
 20
95050.7861873597
 30
0.0
 10
105021.6674383994
 20
95050.7830853582
 30
0.0
 10
105021.7030368316
 20
95050.7830957302
 30
0.0
 10
105021.7245797901
 20
95050.78310200699
 30
0.0
  0
SPLINE
  5
4FA69
330
1F
100
AcDbEntity
  8
freecads.com
100
AcDbSpline
210
0.0
220
0.0
230
1.0
 70
     8
 71
     3
 72
    98
 73
    94
 74
     0
 42
0.000000001
 43
0.0000000001
 40
114.4120633067309
 40
114.4120633067309
 40
114.4120633067309
 40
114.4120633067309
 40
115.313285776192
 40
115.313285776192
 40
117.7748566477773
 40
117.7748566477773
 40
120.2364275193626
 40
120.2364275193626
 40
121.5764322531769
 40
121.5764322531769
 40
125.1629290616186
 40
125.1629290616186
 40
132.0714134550561
 40
132.0714134550561
 40
138.6743689378141
 40
138.6743689378141
 40
142.6406926620967
 40
142.6406926620967
 40
146.6070163863792
 40
146.6070163863792
 40
154.5396638349442
 40
154.5396638349442
 40
159.673548584359
 40
159.673548584359
 40
167.1463235392934
 40
167.1463235392934
 40
174.6190984942278
 40
174.6190984942278
 40
180.2576469558658
 40
180.2576469558658
 40
183.5988372325109
 40
183.5988372325109
 40
186.4614193169528
 40
186.4614193169528
 40
194.3853094132726
 40
194.3853094132726
 40
204.581341962645
 40
204.581341962645
 40
214.7773745120173
 40
214.7773745120173
 40
217.2058118024684
 40
217.2058118024684
 40
219.6342490929195
 40
219.6342490929195
 40
224.4911236738218
 40
224.4911236738218
 40
234.1299422632729
 40
234.1299422632729
 40
239.2278676422874
 40
239.2278676422874
 40
242.1721340347132
 40
242.1721340347132
 40
245.1164004271389
 40
245.1164004271389
 40
251.0049332119904
 40
251.0049332119904
 40
262.7819987816935
 40
262.7819987816935
 40
273.251849682216
 40
273.251849682216
 40
277.263137761276
 40
277.263137761276
 40
281.2744258403359
 40
281.2744258403359
 40
289.2970019984556
 40
289.2970019984556
 40
305.3421543146952
 40
305.3421543146952
 40
316.7210396985118
 40
316.7210396985118
 40
325.3874572347419
 40
325.3874572347419
 40
334.0538747709721
 40
334.0538747709721
 40
351.3867098434323
 40
351.3867098434323
 40
365.4077063558946
 40
365.4077063558946
 40
372.1363343061443
 40
372.1363343061443
 40
378.864962256394
 40
378.864962256394
 40
392.3222181568934
 40
392.3222181568934
 40
406.6676545179282
 40
406.6676545179282
 40
415.4120311423842
 40
415.4120311423842
 40
424.1564077668403
 40
424.1564077668403
 40
441.6451610157523
 40
441.6451610157523
 40
447.1245819130988
 40
447.1245819130988
 40
447.1245819130988
 40
447.1245819130988
 10
105021.4825644592
 20
95050.92961147353
 30
0.0
 10
105021.4824725058
 20
95050.92901590545
 30
0.0
 10
105021.482370599
 20
95050.9284464454
 30
0.0
 10
105021.4819693114
 20
95050.92641752433
 30
0.0
 10
105021.4816354936
 20
95050.92512378508
 30
0.0
 10
105021.4810076954
 20
95050.92287887354
 30
0.0
 10
105021.480712986
 20
95050.92192649563
 30
0.0
 10
105021.4803373911
 20
95050.92070243199
 30
0.0
 10
105021.48021987
 20
95050.92031861639
 30
0.0
 10
105021.4798517708
 20
95050.9190850572
 30
0.0
 10
105021.4796009099
 20
95050.91817738277
 30
0.0
 10
105021.4789106762
 20
95050.91548286776
 30
0.0
 10
105021.4785122787
 20
95050.91366140126
 30
0.0
 10
105021.4778199911
 20
95050.90997976425
 30
0.0
 10
105021.4775223837
 20
95050.90812495762
 30
0.0
 10
105021.477094664
 20
95050.90505545961
 30
0.0
 10
105021.4769493051
 20
95050.90391236997
 30
0.0
 10
105021.4766961626
 20
95050.90166302339
 30
0.0
 10
105021.4765880559
 20
95050.90055436889
 30
0.0
 10
105021.4763258689
 20
95050.89728354359
 30
0.0
 10
105021.4762344315
 20
95050.89517681179
 30
0.0
 10
105021.4762414957
 20
95050.89185693039
 30
0.0
 10
105021.4762841929
 20
95050.89059074013
 30
0.0
 10
105021.4764910521
 20
95050.88758267779
 30
0.0
 10
105021.4767096676
 20
95050.88576997039
 30
0.0
 10
105021.4773336549
 20
95050.88206536969
 30
0.0
 10
105021.4777390135
 20
95050.88017563393
 30
0.0
 10
105021.4786050767
 20
95050.87679745843
 30
0.0
 10
105021.4790277195
 20
95050.87532450456
 30
0.0
 10
105021.4797754003
 20
95050.87294978356
 30
0.0
 10
105021.4800700253
 20
95050.872059827
 30
0.0
 10
105021.4806459777
 20
95050.87039648783
 30
0.0
 10
105021.4809242264
 20
95050.86962130237
 30
0.0
 10
105021.4819925392
 20
95050.86674816638
 30
0.0
 10
105021.4828277919
 20
95050.86471095143
 30
0.0
 10
105021.4848534549
 20
95050.86028605967
 30
0.0
 10
105021.4860772605
 20
95050.85796676501
 30
0.0
 10
105021.4886705084
 20
95050.85376505554
 30
0.0
 10
105021.4900382274
 20
95050.85188413016
 30
0.0
 10
105021.4918063709
 20
95050.84984326005
 30
0.0
 10
105021.492148465
 20
95050.84946529221
 30
0.0
 10
105021.4928463433
 20
95050.84872798084
 30
0.0
 10
105021.4932108784
 20
95050.84835936321
 30
0.0
 10
105021.494351708
 20
95050.847253723
 30
0.0
 10
105021.4951754529
 20
95050.84651686535
 30
0.0
 10
105021.4978173356
 20
95050.8443230853
 30
0.0
 10
105021.4998177675
 20
95050.84287265189
 30
0.0
 10
105021.5031775913
 20
95050.84068476584
 30
0.0
 10
105021.504394411
 20
95050.83993312618
 30
0.0
 10
105021.5063854617
 20
95050.83875497705
 30
0.0
 10
105021.5071301799
 20
95050.83832467887
 30
0.0
 10
105021.5086267915
 20
95050.8374787765
 30
0.0
 10
105021.5093814326
 20
95050.8370616656
 30
0.0
 10
105021.5116643222
 20
95050.83582654753
 30
0.0
 10
105021.5132115611
 20
95050.83502475311
 30
0.0
 10
105021.5179279864
 20
95050.83267395775
 30
0.0
 10
105021.5211721723
 20
95050.83117965812
 30
0.0
 10
105021.5274751629
 20
95050.82844213989
 30
0.0
 10
105021.5305144329
 20
95050.8271895012
 30
0.0
 10
105021.5348082826
 20
95050.82547718789
 30
0.0
 10
105021.5360085384
 20
95050.82500418053
 30
0.0
 10
105021.5384002134
 20
95050.82407266135
 30
0.0
 10
105021.5395949821
 20
95050.82361303694
 30
0.0
 10
105021.5431760942
 20
95050.82225458423
 30
0.0
 10
105021.5455592474
 20
95050.82137618874
 30
0.0
 10
105021.5526958569
 20
95050.81883843018
 30
0.0
 10
105021.5574364205
 20
95050.8172767377
 30
0.0
 10
105021.5655088182
 20
95050.81489712388
 30
0.0
 10
105021.568849371
 20
95050.8139949078
 30
0.0
 10
105021.5747191722
 20
95050.81257805295
 30
0.0
 10
105021.5772818094
 20
95050.81201549209
 30
0.0
 10
105021.5824679411
 20
95050.81097610169
 30
0.0
 10
105021.5850891127
 20
95050.81049981889
 30
0.0
 10
105021.5930311464
 20
95050.80918415824
 30
0.0
 10
105021.5984306515
 20
95050.80845826608
 30
0.0
 10
105021.608354445
 20
95050.80733063262
 30
0.0
 10
105021.612848721
 20
95050.80689337006
 30
0.0
 10
105021.6195682833
 20
95050.80630396333
 30
0.0
 10
105021.621757879
 20
95050.80612128839
 30
0.0
 10
105021.6261294579
 20
95050.80577351817
 30
0.0
 10
105021.6283150552
 20
95050.80560836843
 30
0.0
 10
105021.6348716577
 20
95050.80513908671
 30
0.0
 10
105021.6392424735
 20
95050.80486112197
 30
0.0
 10
105021.6482741928
 20
95050.80435872592
 30
0.0
 10
105021.6529352029
 20
95050.80413903861
 30
0.0
 10
105021.6604408138
 20
95050.80384889444
 30
0.0
 10
105021.6632837
 20
95050.80375415802
 30
0.0
 10
105021.6689924362
 20
95050.8035895787
 30
0.0
 10
105021.6718555936
 20
95050.80351955795
 30
0.0
 10
105021.6804708209
 20
95050.80333630209
 30
0.0
 10
105021.6862486433
 20
95050.80324993182
 30
0.0
 10
105021.6938796463
 20
95050.80314757126
 30
0.0
 10
105021.6957033513
 20
95050.80312397209
 30
0.0
 10
105021.7245797901
 20
95050.8031003328
 30
0.0
  0
SPLINE
  5
4FA6A
330
1F
100
AcDbEntity
  8
freecads.com
100
AcDbSpline
210
0.0
220
0.0
230
1.0
 70
  1064
 71
     3
 72
    12
 73
     8
 74
     6
 42
0.000000001
 43
0.0000000001
 44
0.0000000001
 40
0.0
 40
0.0
 40
0.0
 40
0.0
 40
0.1174035278440026
 40
0.1348386018663816
 40
0.1929056558996302
 40
0.2484756859837645
 40
0.3086044477985594
 40
0.3086044477985594
 40
0.3086044477985594
 40
0.3086044477985594
 10
105021.4916480916
 20
95051.04560606771
 30
0.0
 10
105021.5022618073
 20
95051.00621566432
 30
0.0
 10
105021.5144517185
 20
95050.96097556791
 30
0.0
 10
105021.5632127738
 20
95050.91743800807
 30
0.0
 10
105021.6088864417
 20
95050.91094390435
 30
0.0
 10
105021.6657479673
 20
95050.90483909359
 30
0.0
 10
105021.7044607326
 20
95050.90532412079
 30
0.0
 10
105021.7245797901
 20
95050.90557618986
 30
0.0
 11
105021.4916480916
 21
95051.04560606771
 31
0.0
 11
105021.5400869402
 21
95050.93866091216
 31
0.0
 11
105021.5533274295
 21
95050.92731757716
 31
0.0
 11
105021.6091265959
 21
95050.91124786055
 31
0.0
 11
105021.664452886
 21
95050.90604883442
 31
0.0
 11
105021.7245797901
 21
95050.90557618986
 31
0.0
  0
SPLINE
  5
4FA6B
330
1F
100
AcDbEntity
  8
freecads.com
100
AcDbSpline
210
0.0
220
0.0
230
1.0
 70
     8
 71
     3
 72
     8
 73
     4
 74
     0
 42
0.000000001
 43
0.0000000001
 40
464.0075949415173
 40
464.0075949415173
 40
464.0075949415173
 40
464.0075949415173
 40
477.6407544104151
 40
477.6407544104151
 40
477.6407544104151
 40
477.6407544104151
 10
105021.7382197691
 20
95050.7830919949
 30
0.0
 10
105021.7336733247
 20
95050.78309078578
 30
0.0
 10
105021.7291265574
 20
95050.78309639637
 30
0.0
 10
105021.7245797901
 20
95050.78310200699
 30
0.0
  0
SPLINE
  5
4FA6C
330
1F
100
AcDbEntity
  8
freecads.com
100
AcDbSpline
210
0.0
220
0.0
230
1.0
 70
     8
 71
     3
 72
     8
 73
     4
 74
     0
 42
0.000000001
 43
0.0000000001
 40
446.2131013440281
 40
446.2131013440281
 40
446.2131013440281
 40
446.2131013440281
 40
447.1245819130988
 40
447.1245819130988
 40
447.1245819130988
 40
447.1245819130988
 10
105021.7382197691
 20
95050.80311213035
 30
0.0
 10
105021.7344176861
 20
95050.8031081963
 30
0.0
 10
105021.7299174563
 20
95050.8031042651
 30
0.0
 10
105021.7245797901
 20
95050.8031003328
 30
0.0
  0
SPLINE
  5
4FA6D
330
1F
100
AcDbEntity
  8
freecads.com
100
AcDbSpline
210
0.0
220
0.0
230
1.0
 70
     8
 71
     3
 72
     8
 73
     4
 74
     0
 42
0.000000001
 43
0.0000000001
 40
298.2260641464397
 40
298.2260641464397
 40
298.2260641464397
 40
298.2260641464397
 40
311.8156199324941
 40
311.8156199324941
 40
311.8156199324941
 40
311.8156199324941
 10
105021.7382197691
 20
95050.90540507881
 30
0.0
 10
105021.7336747436
 20
95050.90545334937
 30
0.0
 10
105021.7291272669
 20
95050.90551476962
 30
0.0
 10
105021.7245797901
 20
95050.90557618986
 30
0.0
  0
LINE
  5
4FA6E
330
1F
100
AcDbEntity
  8
freecads.com
100
AcDbLine
 10
105020.922484967
 20
95052.79309199487
 30
0.0
 11
105020.922484967
 21
95052.80794719432
 31
0.0
  0
SPLINE
  5
4FA6F
330
1F
100
AcDbEntity
  8
freecads.com
100
AcDbSpline
210
0.0
220
0.0
230
1.0
 70
     8
 71
     3
 72
    15
 73
    11
 74
     0
 42
0.000000001
 43
0.0000000001
 40
0.0
 40
0.0
 40
0.0
 40
0.0
 40
0.0079085775364648
 40
0.020905772075348
 40
0.037677713760706
 40
0.0869565061910963
 40
0.1251143189091787
 40
0.1691586984575781
 40
0.2344148683757042
 40
0.2878979645390506
 40
0.2878979645390506
 40
0.2878979645390506
 40
0.2878979645390506
 10
105021.4621225597
 20
95050.92961147353
 30
0.0
 10
105021.4626080226
 20
95050.93219978116
 30
0.0
 10
105021.4638913099
 20
95050.93904179156
 30
0.0
 10
105021.4641880925
 20
95050.95183498267
 30
0.0
 10
105021.4545094429
 20
95050.97668293538
 30
0.0
 10
105021.444384981
 20
95051.00967245947
 30
0.0
 10
105021.4320722268
 20
95051.05204696745
 30
0.0
 10
105021.4313730327
 20
95051.10151167155
 30
0.0
 10
105021.4301293173
 20
95051.15559947739
 30
0.0
 10
105021.429469
 20
95051.19528952931
 30
0.0
 10
105021.4293181814
 20
95051.21309199489
 30
0.0
  0
SPLINE
  5
4FA70
330
1F
100
AcDbEntity
  8
freecads.com
100
AcDbSpline
210
0.0
220
0.0
230
1.0
 70
     8
 71
     3
 72
    15
 73
    11
 74
     0
 42
0.000000001
 43
0.0000000001
 40
0.0
 40
0.0
 40
0.0
 40
0.0
 40
7.908577536480597
 40
20.90577207536215
 40
37.67771376074684
 40
86.95650619113989
 40
125.1143189092015
 40
169.1586984575989
 40
234.4148683757257
 40
289.0811501700247
 40
289.0811501700247
 40
289.0811501700247
 40
289.0811501700247
 10
105021.4816024128
 20
95050.92843146695
 30
0.0
 10
105021.4820878757
 20
95050.93101977459
 30
0.0
 10
105021.4833711629
 20
95050.937861785
 30
0.0
 10
105021.4836679464
 20
95050.9506549759
 30
0.0
 10
105021.4739892896
 20
95050.97550293058
 30
0.0
 10
105021.4638649039
 20
95051.00849243351
 30
0.0
 10
105021.4515518771
 20
95051.05086701725
 30
0.0
 10
105021.4508539639
 20
95051.1003313653
 30
0.0
 10
105021.4495943746
 20
95051.15481420549
 30
0.0
 10
105021.4489458932
 20
95051.19489770653
 30
0.0
 10
105021.4487932531
 20
95051.21309199489
 30
0.0
  0
LINE
  5
4FA71
330
1F
100
AcDbEntity
  8
freecads.com
100
AcDbLine
 10
105021.4862105127
 20
95051.21309199489
 30
0.0
 11
105021.4916480916
 21
95051.04560606771
 31
0.0
  0
SPLINE
  5
4FA72
330
1F
100
AcDbEntity
  8
freecads.com
100
AcDbSpline
210
0.0
220
0.0
230
1.0
 70
     8
 71
     3
 72
    18
 73
    14
 74
     0
 42
0.000000001
 43
0.0000000001
 40
117.544452272429
 40
117.544452272429
 40
117.544452272429
 40
117.544452272429
 40
121.5782120084558
 40
138.8128471134586
 40
159.7356761485782
 40
185.0258019403773
 40
217.031734495737
 40
240.4054382193022
 40
274.8880694870596
 40
317.0282263848024
 40
367.6883550487834
 40
409.8334730367477
 40
474.4296972636449
 40
474.4296972636449
 40
474.4296972636449
 40
474.4296972636449
 10
105022.0143169784
 20
95050.92961147353
 30
0.0
 10
105022.0146751637
 20
95050.92830562034
 30
0.0
 10
105022.0168953353
 20
95050.92144223368
 30
0.0
 10
105022.0195298685
 20
95050.90771967005
 30
0.0
 10
105022.0211481949
 20
95050.88635889205
 30
0.0
 10
105022.0147448623
 20
95050.86087199217
 30
0.0
 10
105022.0022362005
 20
95050.83600373001
 30
0.0
 10
105021.9770729697
 20
95050.81865731847
 30
0.0
 10
105021.9465393841
 20
95050.80541549929
 30
0.0
 10
105021.9062752144
 20
95050.79135491186
 30
0.0
 10
105021.8613455621
 20
95050.7861873597
 30
0.0
 10
105021.8090011387
 20
95050.7830853582
 30
0.0
 10
105021.7734027065
 20
95050.7830957302
 30
0.0
 10
105021.751859748
 20
95050.78310200699
 30
0.0
  0
SPLINE
  5
4FA73
330
1F
100
AcDbEntity
  8
freecads.com
100
AcDbSpline
210
0.0
220
0.0
230
1.0
 70
     8
 71
     3
 72
    98
 73
    94
 74
     0
 42
0.000000001
 43
0.0000000001
 40
114.4120633067309
 40
114.4120633067309
 40
114.4120633067309
 40
114.4120633067309
 40
115.313285776192
 40
115.313285776192
 40
117.7748566477773
 40
117.7748566477773
 40
120.2364275193626
 40
120.2364275193626
 40
121.5764322531769
 40
121.5764322531769
 40
125.1629290616186
 40
125.1629290616186
 40
132.0714134550561
 40
132.0714134550561
 40
138.6743689378141
 40
138.6743689378141
 40
142.6406926620967
 40
142.6406926620967
 40
146.6070163863792
 40
146.6070163863792
 40
154.5396638349442
 40
154.5396638349442
 40
159.673548584359
 40
159.673548584359
 40
167.1463235392934
 40
167.1463235392934
 40
174.6190984942278
 40
174.6190984942278
 40
180.2576469558658
 40
180.2576469558658
 40
183.5988372325109
 40
183.5988372325109
 40
186.4614193169528
 40
186.4614193169528
 40
194.3853094132726
 40
194.3853094132726
 40
204.581341962645
 40
204.581341962645
 40
214.7773745120173
 40
214.7773745120173
 40
217.2058118024684
 40
217.2058118024684
 40
219.6342490929195
 40
219.6342490929195
 40
224.4911236738218
 40
224.4911236738218
 40
234.1299422632729
 40
234.1299422632729
 40
239.2278676422874
 40
239.2278676422874
 40
242.1721340347132
 40
242.1721340347132
 40
245.1164004271389
 40
245.1164004271389
 40
251.0049332119904
 40
251.0049332119904
 40
262.7819987816935
 40
262.7819987816935
 40
273.251849682216
 40
273.251849682216
 40
277.263137761276
 40
277.263137761276
 40
281.2744258403359
 40
281.2744258403359
 40
289.2970019984556
 40
289.2970019984556
 40
305.3421543146952
 40
305.3421543146952
 40
316.7210396985118
 40
316.7210396985118
 40
325.3874572347419
 40
325.3874572347419
 40
334.0538747709721
 40
334.0538747709721
 40
351.3867098434323
 40
351.3867098434323
 40
365.4077063558946
 40
365.4077063558946
 40
372.1363343061443
 40
372.1363343061443
 40
378.864962256394
 40
378.864962256394
 40
392.3222181568934
 40
392.3222181568934
 40
406.6676545179282
 40
406.6676545179282
 40
415.4120311423842
 40
415.4120311423842
 40
424.1564077668403
 40
424.1564077668403
 40
441.6451610157523
 40
441.6451610157523
 40
447.1245819130988
 40
447.1245819130988
 40
447.1245819130988
 40
447.1245819130988
 10
105021.9938750789
 20
95050.92961147353
 30
0.0
 10
105021.9939670324
 20
95050.92901590545
 30
0.0
 10
105021.9940689391
 20
95050.9284464454
 30
0.0
 10
105021.9944702267
 20
95050.92641752433
 30
0.0
 10
105021.9948040445
 20
95050.92512378508
 30
0.0
 10
105021.9954318427
 20
95050.92287887354
 30
0.0
 10
105021.9957265521
 20
95050.92192649563
 30
0.0
 10
105021.996102147
 20
95050.92070243199
 30
0.0
 10
105021.9962196681
 20
95050.92031861639
 30
0.0
 10
105021.9965877673
 20
95050.9190850572
 30
0.0
 10
105021.9968386282
 20
95050.91817738277
 30
0.0
 10
105021.9975288619
 20
95050.91548286776
 30
0.0
 10
105021.9979272594
 20
95050.91366140126
 30
0.0
 10
105021.998619547
 20
95050.90997976425
 30
0.0
 10
105021.9989171544
 20
95050.90812495762
 30
0.0
 10
105021.9993448741
 20
95050.90505545961
 30
0.0
 10
105021.999490233
 20
95050.90391236997
 30
0.0
 10
105021.9997433755
 20
95050.90166302339
 30
0.0
 10
105021.9998514822
 20
95050.90055436889
 30
0.0
 10
105022.0001136692
 20
95050.89728354359
 30
0.0
 10
105022.0002051066
 20
95050.89517681179
 30
0.0
 10
105022.0001980424
 20
95050.89185693039
 30
0.0
 10
105022.0001553452
 20
95050.89059074013
 30
0.0
 10
105021.999948486
 20
95050.88758267779
 30
0.0
 10
105021.9997298705
 20
95050.88576997039
 30
0.0
 10
105021.9991058832
 20
95050.88206536969
 30
0.0
 10
105021.9987005246
 20
95050.88017563393
 30
0.0
 10
105021.9978344614
 20
95050.87679745843
 30
0.0
 10
105021.9974118186
 20
95050.87532450456
 30
0.0
 10
105021.9966641378
 20
95050.87294978356
 30
0.0
 10
105021.9963695128
 20
95050.872059827
 30
0.0
 10
105021.9957935604
 20
95050.87039648783
 30
0.0
 10
105021.9955153116
 20
95050.86962130237
 30
0.0
 10
105021.9944469988
 20
95050.86674816638
 30
0.0
 10
105021.9936117462
 20
95050.86471095143
 30
0.0
 10
105021.9915860832
 20
95050.86028605967
 30
0.0
 10
105021.9903622776
 20
95050.85796676501
 30
0.0
 10
105021.9877690297
 20
95050.85376505554
 30
0.0
 10
105021.9864013107
 20
95050.85188413016
 30
0.0
 10
105021.9846331672
 20
95050.84984326005
 30
0.0
 10
105021.9842910731
 20
95050.84946529221
 30
0.0
 10
105021.9835931948
 20
95050.84872798084
 30
0.0
 10
105021.9832286597
 20
95050.84835936321
 30
0.0
 10
105021.9820878301
 20
95050.847253723
 30
0.0
 10
105021.9812640852
 20
95050.84651686535
 30
0.0
 10
105021.9786222025
 20
95050.8443230853
 30
0.0
 10
105021.9766217706
 20
95050.84287265189
 30
0.0
 10
105021.9732619468
 20
95050.84068476584
 30
0.0
 10
105021.9720451271
 20
95050.83993312618
 30
0.0
 10
105021.9700540764
 20
95050.83875497705
 30
0.0
 10
105021.9693093582
 20
95050.83832467887
 30
0.0
 10
105021.9678127466
 20
95050.8374787765
 30
0.0
 10
105021.9670581055
 20
95050.8370616656
 30
0.0
 10
105021.9647752159
 20
95050.83582654753
 30
0.0
 10
105021.963227977
 20
95050.83502475311
 30
0.0
 10
105021.9585115517
 20
95050.83267395775
 30
0.0
 10
105021.9552673658
 20
95050.83117965812
 30
0.0
 10
105021.9489643753
 20
95050.82844213989
 30
0.0
 10
105021.9459251053
 20
95050.8271895012
 30
0.0
 10
105021.9416312555
 20
95050.82547718789
 30
0.0
 10
105021.9404309997
 20
95050.82500418053
 30
0.0
 10
105021.9380393247
 20
95050.82407266135
 30
0.0
 10
105021.936844556
 20
95050.82361303694
 30
0.0
 10
105021.9332634439
 20
95050.82225458423
 30
0.0
 10
105021.9308802907
 20
95050.82137618874
 30
0.0
 10
105021.9237436812
 20
95050.81883843018
 30
0.0
 10
105021.9190031176
 20
95050.8172767377
 30
0.0
 10
105021.9109307199
 20
95050.81489712388
 30
0.0
 10
105021.9075901671
 20
95050.8139949078
 30
0.0
 10
105021.901720366
 20
95050.81257805295
 30
0.0
 10
105021.8991577287
 20
95050.81201549209
 30
0.0
 10
105021.893971597
 20
95050.81097610169
 30
0.0
 10
105021.8913504254
 20
95050.81049981889
 30
0.0
 10
105021.8834083917
 20
95050.80918415824
 30
0.0
 10
105021.8780088866
 20
95050.80845826608
 30
0.0
 10
105021.8680850931
 20
95050.80733063262
 30
0.0
 10
105021.8635908171
 20
95050.80689337006
 30
0.0
 10
105021.8568712548
 20
95050.80630396333
 30
0.0
 10
105021.8546816591
 20
95050.80612128839
 30
0.0
 10
105021.8503100802
 20
95050.80577351817
 30
0.0
 10
105021.8481244829
 20
95050.80560836843
 30
0.0
 10
105021.8415678804
 20
95050.80513908671
 30
0.0
 10
105021.8371970647
 20
95050.80486112197
 30
0.0
 10
105021.8281653453
 20
95050.80435872592
 30
0.0
 10
105021.8235043352
 20
95050.80413903861
 30
0.0
 10
105021.8159987243
 20
95050.80384889444
 30
0.0
 10
105021.8131558381
 20
95050.80375415802
 30
0.0
 10
105021.8074471019
 20
95050.8035895787
 30
0.0
 10
105021.8045839445
 20
95050.80351955795
 30
0.0
 10
105021.7959687172
 20
95050.80333630209
 30
0.0
 10
105021.7901908948
 20
95050.80324993182
 30
0.0
 10
105021.7825598918
 20
95050.80314757126
 30
0.0
 10
105021.7807361867
 20
95050.80312397209
 30
0.0
 10
105021.751859748
 20
95050.8031003328
 30
0.0
  0
SPLINE
  5
4FA74
330
1F
100
AcDbEntity
  8
freecads.com
100
AcDbSpline
210
0.0
220
0.0
230
1.0
 70
  1064
 71
     3
 72
    12
 73
     8
 74
     6
 42
0.000000001
 43
0.0000000001
 44
0.0000000001
 40
0.0
 40
0.0
 40
0.0
 40
0.0
 40
0.1174035278440026
 40
0.1348386018663816
 40
0.1929056558996302
 40
0.2484756859692764
 40
0.3086044477986228
 40
0.3086044477986228
 40
0.3086044477986228
 40
0.3086044477986228
 10
105021.9847914465
 20
95051.04560606771
 30
0.0
 10
105021.9741777309
 20
95051.00621566432
 30
0.0
 10
105021.9619878197
 20
95050.96097556791
 30
0.0
 10
105021.9132267643
 20
95050.91743800807
 30
0.0
 10
105021.8675530964
 20
95050.91094390435
 30
0.0
 10
105021.8106915708
 20
95050.90483909363
 30
0.0
 10
105021.7719788055
 20
95050.90532412079
 30
0.0
 10
105021.751859748
 20
95050.90557618986
 30
0.0
 11
105021.9847914465
 21
95051.04560606771
 31
0.0
 11
105021.9363525979
 21
95050.93866091216
 31
0.0
 11
105021.9231121086
 21
95050.92731757716
 31
0.0
 11
105021.8673129422
 21
95050.91124786055
 31
0.0
 11
105021.8119866522
 21
95050.90604883442
 31
0.0
 11
105021.751859748
 21
95050.90557618986
 31
0.0
  0
SPLINE
  5
4FA75
330
1F
100
AcDbEntity
  8
freecads.com
100
AcDbSpline
210
0.0
220
0.0
230
1.0
 70
     8
 71
     3
 72
     8
 73
     4
 74
     0
 42
0.000000001
 43
0.0000000001
 40
464.0075949415173
 40
464.0075949415173
 40
464.0075949415173
 40
464.0075949415173
 40
477.6407544104151
 40
477.6407544104151
 40
477.6407544104151
 40
477.6407544104151
 10
105021.7382197691
 20
95050.7830919949
 30
0.0
 10
105021.7427662134
 20
95050.78309078578
 30
0.0
 10
105021.7473129807
 20
95050.78309639637
 30
0.0
 10
105021.751859748
 20
95050.78310200699
 30
0.0
  0
SPLINE
  5
4FA76
330
1F
100
AcDbEntity
  8
freecads.com
100
AcDbSpline
210
0.0
220
0.0
230
1.0
 70
     8
 71
     3
 72
     8
 73
     4
 74
     0
 42
0.000000001
 43
0.0000000001
 40
446.2131013440281
 40
446.2131013440281
 40
446.2131013440281
 40
446.2131013440281
 40
447.1245819130988
 40
447.1245819130988
 40
447.1245819130988
 40
447.1245819130988
 10
105021.7382197691
 20
95050.80311213035
 30
0.0
 10
105021.742021852
 20
95050.8031081963
 30
0.0
 10
105021.7465220818
 20
95050.8031042651
 30
0.0
 10
105021.751859748
 20
95050.8031003328
 30
0.0
  0
SPLINE
  5
4FA77
330
1F
100
AcDbEntity
  8
freecads.com
100
AcDbSpline
210
0.0
220
0.0
230
1.0
 70
     8
 71
     3
 72
     8
 73
     4
 74
     0
 42
0.000000001
 43
0.0000000001
 40
298.2260641464397
 40
298.2260641464397
 40
298.2260641464397
 40
298.2260641464397
 40
311.8156199324941
 40
311.8156199324941
 40
311.8156199324941
 40
311.8156199324941
 10
105021.7382197691
 20
95050.90540507881
 30
0.0
 10
105021.7427647945
 20
95050.90545334937
 30
0.0
 10
105021.7473122712
 20
95050.90551476962
 30
0.0
 10
105021.751859748
 20
95050.90557618986
 30
0.0
  0
SPLINE
  5
4FA78
330
1F
100
AcDbEntity
  8
freecads.com
100
AcDbSpline
210
0.0
220
0.0
230
1.0
 70
     8
 71
     3
 72
    15
 73
    11
 74
     0
 42
0.000000001
 43
0.0000000001
 40
0.0
 40
0.0
 40
0.0
 40
0.0
 40
0.0079085775364648
 40
0.020905772075348
 40
0.0376777137607058
 40
0.0869565061910963
 40
0.1251143189091787
 40
0.1691586984575689
 40
0.234414868375695
 40
0.2878979645419843
 40
0.2878979645419843
 40
0.2878979645419843
 40
0.2878979645419843
 10
105022.0143169784
 20
95050.92961147353
 30
0.0
 10
105022.0138315155
 20
95050.93219978116
 30
0.0
 10
105022.0125482282
 20
95050.93904179156
 30
0.0
 10
105022.0122514456
 20
95050.95183498267
 30
0.0
 10
105022.0219300952
 20
95050.97668293538
 30
0.0
 10
105022.0320545571
 20
95051.00967245947
 30
0.0
 10
105022.0443673113
 20
95051.05204696745
 30
0.0
 10
105022.0450665054
 20
95051.10151167155
 30
0.0
 10
105022.0463102209
 20
95051.15559947739
 30
0.0
 10
105022.0469705381
 20
95051.19528952931
 30
0.0
 10
105022.0471213568
 20
95051.21309199489
 30
0.0
  0
SPLINE
  5
4FA79
330
1F
100
AcDbEntity
  8
freecads.com
100
AcDbSpline
210
0.0
220
0.0
230
1.0
 70
     8
 71
     3
 72
    15
 73
    11
 74
     0
 42
0.000000001
 43
0.0000000001
 40
0.0
 40
0.0
 40
0.0
 40
0.0
 40
7.908577536480597
 40
20.90577207536215
 40
37.67771376074684
 40
86.95650619113989
 40
125.1143189092015
 40
169.1586984575989
 40
234.4148683757257
 40
289.0811501727858
 40
289.0811501727858
 40
289.0811501727858
 40
289.0811501727858
 10
105021.9948371253
 20
95050.92843146695
 30
0.0
 10
105021.9943516624
 20
95050.93101977459
 30
0.0
 10
105021.9930683752
 20
95050.937861785
 30
0.0
 10
105021.9927715917
 20
95050.9506549759
 30
0.0
 10
105022.0024502485
 20
95050.97550293058
 30
0.0
 10
105022.0125746342
 20
95051.00849243351
 30
0.0
 10
105022.024887661
 20
95051.05086701725
 30
0.0
 10
105022.0255855742
 20
95051.1003313653
 30
0.0
 10
105022.0268451635
 20
95051.15481420549
 30
0.0
 10
105022.0274936449
 20
95051.19489770653
 30
0.0
 10
105022.0276462851
 20
95051.21309199489
 30
0.0
  0
LINE
  5
4FA7A
330
1F
100
AcDbEntity
  8
freecads.com
100
AcDbLine
 10
105021.9902290254
 20
95051.21309199489
 30
0.0
 11
105021.9847914465
 21
95051.04560606771
 31
0.0
  0
SPLINE
  5
4FA7B
330
1F
100
AcDbEntity
  8
freecads.com
100
AcDbSpline
210
0.0
220
0.0
230
1.0
 70
     8
 71
     3
 72
    18
 73
    14
 74
     0
 42
0.000000001
 43
0.0000000001
 40
117.544452272429
 40
117.544452272429
 40
117.544452272429
 40
117.544452272429
 40
121.5782120084558
 40
138.8128471134586
 40
159.7356761485782
 40
185.0258019403773
 40
217.031734495737
 40
240.4054382193022
 40
274.8880694870596
 40
317.0282263848024
 40
367.6883550487834
 40
409.8334730367477
 40
474.4296972636449
 40
474.4296972636449
 40
474.4296972636449
 40
474.4296972636449
 10
105021.4621225597
 20
95052.64657251624
 30
0.0
 10
105021.4617643744
 20
95052.64787836942
 30
0.0
 10
105021.4595442028
 20
95052.65474175608
 30
0.0
 10
105021.4569096696
 20
95052.6684643197
 30
0.0
 10
105021.4552913432
 20
95052.68982509772
 30
0.0
 10
105021.4616946758
 20
95052.7153119976
 30
0.0
 10
105021.4742033376
 20
95052.74018025977
 30
0.0
 10
105021.4993665684
 20
95052.75752667129
 30
0.0
 10
105021.529900154
 20
95052.77076849049
 30
0.0
 10
105021.5701643237
 20
95052.78482907792
 30
0.0
 10
105021.615093976
 20
95052.78999663007
 30
0.0
 10
105021.6674383994
 20
95052.79309863157
 30
0.0
 10
105021.7030368316
 20
95052.79308825956
 30
0.0
 10
105021.7245797901
 20
95052.79308198279
 30
0.0
  0
SPLINE
  5
4FA7C
330
1F
100
AcDbEntity
  8
freecads.com
100
AcDbSpline
210
0.0
220
0.0
230
1.0
 70
     8
 71
     3
 72
    98
 73
    94
 74
     0
 42
0.000000001
 43
0.0000000001
 40
114.4120633067309
 40
114.4120633067309
 40
114.4120633067309
 40
114.4120633067309
 40
115.313285776192
 40
115.313285776192
 40
117.7748566477773
 40
117.7748566477773
 40
120.2364275193626
 40
120.2364275193626
 40
121.5764322531769
 40
121.5764322531769
 40
125.1629290616186
 40
125.1629290616186
 40
132.0714134550561
 40
132.0714134550561
 40
138.6743689378141
 40
138.6743689378141
 40
142.6406926620967
 40
142.6406926620967
 40
146.6070163863792
 40
146.6070163863792
 40
154.5396638349442
 40
154.5396638349442
 40
159.673548584359
 40
159.673548584359
 40
167.1463235392934
 40
167.1463235392934
 40
174.6190984942278
 40
174.6190984942278
 40
180.2576469558658
 40
180.2576469558658
 40
183.5988372325109
 40
183.5988372325109
 40
186.4614193169528
 40
186.4614193169528
 40
194.3853094132726
 40
194.3853094132726
 40
204.581341962645
 40
204.581341962645
 40
214.7773745120173
 40
214.7773745120173
 40
217.2058118024684
 40
217.2058118024684
 40
219.6342490929195
 40
219.6342490929195
 40
224.4911236738218
 40
224.4911236738218
 40
234.1299422632729
 40
234.1299422632729
 40
239.2278676422874
 40
239.2278676422874
 40
242.1721340347132
 40
242.1721340347132
 40
245.1164004271389
 40
245.1164004271389
 40
251.0049332119904
 40
251.0049332119904
 40
262.7819987816935
 40
262.7819987816935
 40
273.251849682216
 40
273.251849682216
 40
277.263137761276
 40
277.263137761276
 40
281.2744258403359
 40
281.2744258403359
 40
289.2970019984556
 40
289.2970019984556
 40
305.3421543146952
 40
305.3421543146952
 40
316.7210396985118
 40
316.7210396985118
 40
325.3874572347419
 40
325.3874572347419
 40
334.0538747709721
 40
334.0538747709721
 40
351.3867098434323
 40
351.3867098434323
 40
365.4077063558946
 40
365.4077063558946
 40
372.1363343061443
 40
372.1363343061443
 40
378.864962256394
 40
378.864962256394
 40
392.3222181568934
 40
392.3222181568934
 40
406.6676545179282
 40
406.6676545179282
 40
415.4120311423842
 40
415.4120311423842
 40
424.1564077668403
 40
424.1564077668403
 40
441.6451610157523
 40
441.6451610157523
 40
447.1245819130988
 40
447.1245819130988
 40
447.1245819130988
 40
447.1245819130988
 10
105021.4825644592
 20
95052.64657251624
 30
0.0
 10
105021.4824725058
 20
95052.64716808431
 30
0.0
 10
105021.482370599
 20
95052.64773754438
 30
0.0
 10
105021.4819693114
 20
95052.64976646545
 30
0.0
 10
105021.4816354936
 20
95052.6510602047
 30
0.0
 10
105021.4810076954
 20
95052.65330511624
 30
0.0
 10
105021.480712986
 20
95052.65425749414
 30
0.0
 10
105021.4803373911
 20
95052.65548155778
 30
0.0
 10
105021.48021987
 20
95052.65586537337
 30
0.0
 10
105021.4798517708
 20
95052.65709893256
 30
0.0
 10
105021.4796009099
 20
95052.658006607
 30
0.0
 10
105021.4789106762
 20
95052.66070112201
 30
0.0
 10
105021.4785122787
 20
95052.6625225885
 30
0.0
 10
105021.4778199911
 20
95052.66620422551
 30
0.0
 10
105021.4775223837
 20
95052.66805903215
 30
0.0
 10
105021.477094664
 20
95052.67112853017
 30
0.0
 10
105021.4769493051
 20
95052.67227161981
 30
0.0
 10
105021.4766961626
 20
95052.67452096637
 30
0.0
 10
105021.4765880559
 20
95052.67562962087
 30
0.0
 10
105021.4763258689
 20
95052.67890044615
 30
0.0
 10
105021.4762344315
 20
95052.68100717799
 30
0.0
 10
105021.4762414957
 20
95052.68432705937
 30
0.0
 10
105021.4762841929
 20
95052.68559324962
 30
0.0
 10
105021.4764910521
 20
95052.68860131199
 30
0.0
 10
105021.4767096676
 20
95052.69041401938
 30
0.0
 10
105021.4773336549
 20
95052.69411862007
 30
0.0
 10
105021.4777390135
 20
95052.69600835584
 30
0.0
 10
105021.4786050767
 20
95052.69938653134
 30
0.0
 10
105021.4790277195
 20
95052.7008594852
 30
0.0
 10
105021.4797754003
 20
95052.70323420621
 30
0.0
 10
105021.4800700253
 20
95052.70412416276
 30
0.0
 10
105021.4806459777
 20
95052.70578750195
 30
0.0
 10
105021.4809242264
 20
95052.7065626874
 30
0.0
 10
105021.4819925392
 20
95052.7094358234
 30
0.0
 10
105021.4828277919
 20
95052.71147303833
 30
0.0
 10
105021.4848534549
 20
95052.71589793009
 30
0.0
 10
105021.4860772605
 20
95052.71821722475
 30
0.0
 10
105021.4886705084
 20
95052.72241893424
 30
0.0
 10
105021.4900382274
 20
95052.72429985963
 30
0.0
 10
105021.4918063709
 20
95052.72634072971
 30
0.0
 10
105021.492148465
 20
95052.72671869755
 30
0.0
 10
105021.4928463433
 20
95052.7274560089
 30
0.0
 10
105021.4932108784
 20
95052.72782462656
 30
0.0
 10
105021.494351708
 20
95052.72893026678
 30
0.0
 10
105021.4951754529
 20
95052.72966712441
 30
0.0
 10
105021.4978173356
 20
95052.73186090446
 30
0.0
 10
105021.4998177675
 20
95052.73331133787
 30
0.0
 10
105021.5031775913
 20
95052.73549922392
 30
0.0
 10
105021.504394411
 20
95052.73625086358
 30
0.0
 10
105021.5063854617
 20
95052.73742901271
 30
0.0
 10
105021.5071301799
 20
95052.73785931089
 30
0.0
 10
105021.5086267915
 20
95052.73870521326
 30
0.0
 10
105021.5093814326
 20
95052.73912232416
 30
0.0
 10
105021.5116643222
 20
95052.74035744225
 30
0.0
 10
105021.5132115611
 20
95052.74115923665
 30
0.0
 10
105021.5179279864
 20
95052.74351003199
 30
0.0
 10
105021.5211721723
 20
95052.74500433166
 30
0.0
 10
105021.5274751629
 20
95052.74774184989
 30
0.0
 10
105021.5305144329
 20
95052.74899448856
 30
0.0
 10
105021.5348082826
 20
95052.75070680189
 30
0.0
 10
105021.5360085384
 20
95052.75117980925
 30
0.0
 10
105021.5384002134
 20
95052.75211132842
 30
0.0
 10
105021.5395949821
 20
95052.75257095284
 30
0.0
 10
105021.5431760942
 20
95052.75392940554
 30
0.0
 10
105021.5455592474
 20
95052.75480780102
 30
0.0
 10
105021.5526958569
 20
95052.75734555958
 30
0.0
 10
105021.5574364205
 20
95052.75890725206
 30
0.0
 10
105021.5655088182
 20
95052.76128686588
 30
0.0
 10
105021.568849371
 20
95052.76218908196
 30
0.0
 10
105021.5747191722
 20
95052.76360593683
 30
0.0
 10
105021.5772818094
 20
95052.76416849769
 30
0.0
 10
105021.5824679411
 20
95052.76520788806
 30
0.0
 10
105021.5850891127
 20
95052.76568417087
 30
0.0
 10
105021.5930311464
 20
95052.76699983154
 30
0.0
 10
105021.5984306515
 20
95052.76772572369
 30
0.0
 10
105021.608354445
 20
95052.76885335716
 30
0.0
 10
105021.612848721
 20
95052.7692906197
 30
0.0
 10
105021.6195682833
 20
95052.76988002643
 30
0.0
 10
105021.621757879
 20
95052.77006270139
 30
0.0
 10
105021.6261294579
 20
95052.77041047159
 30
0.0
 10
105021.6283150552
 20
95052.77057562135
 30
0.0
 10
105021.6348716577
 20
95052.77104490303
 30
0.0
 10
105021.6392424735
 20
95052.7713228678
 30
0.0
 10
105021.6482741928
 20
95052.77182526382
 30
0.0
 10
105021.6529352029
 20
95052.77204495113
 30
0.0
 10
105021.6604408138
 20
95052.77233509531
 30
0.0
 10
105021.6632837
 20
95052.77242983174
 30
0.0
 10
105021.6689924362
 20
95052.77259441106
 30
0.0
 10
105021.6718555936
 20
95052.77266443179
 30
0.0
 10
105021.6804708209
 20
95052.77284768768
 30
0.0
 10
105021.6862486433
 20
95052.77293405795
 30
0.0
 10
105021.6938796463
 20
95052.7730364185
 30
0.0
 10
105021.6957033513
 20
95052.77306001767
 30
0.0
 10
105021.7245797901
 20
95052.77308365696
 30
0.0
  0
SPLINE
  5
4FA7D
330
1F
100
AcDbEntity
  8
freecads.com
100
AcDbSpline
210
0.0
220
0.0
230
1.0
 70
  1064
 71
     3
 72
    12
 73
     8
 74
     6
 42
0.000000001
 43
0.0000000001
 44
0.0000000001
 40
0.0
 40
0.0
 40
0.0
 40
0.0
 40
0.1174035278572582
 40
0.1348386018796372
 40
0.1929056559088587
 40
0.2484756859943545
 40
0.3086044478091493
 40
0.3086044478091493
 40
0.3086044478091493
 40
0.3086044478091493
 10
105021.4916480916
 20
95052.53057792206
 30
0.0
 10
105021.5022618072
 20
95052.56996832546
 30
0.0
 10
105021.5144517184
 20
95052.61520842191
 30
0.0
 10
105021.5632127739
 20
95052.65874598167
 30
0.0
 10
105021.6088864417
 20
95052.6652400854
 30
0.0
 10
105021.6657479673
 20
95052.67134489619
 30
0.0
 10
105021.7044607326
 20
95052.67085986897
 30
0.0
 10
105021.7245797901
 20
95052.6706077999
 30
0.0
 11
105021.4916480916
 21
95052.53057792206
 31
0.0
 11
105021.5400869402
 21
95052.6375230776
 31
0.0
 11
105021.5533274295
 21
95052.64886641262
 31
0.0
 11
105021.6091265959
 21
95052.66493612921
 31
0.0
 11
105021.664452886
 21
95052.67013515537
 31
0.0
 11
105021.7245797901
 21
95052.6706077999
 31
0.0
  0
SPLINE
  5
4FA7E
330
1F
100
AcDbEntity
  8
freecads.com
100
AcDbSpline
210
0.0
220
0.0
230
1.0
 70
     8
 71
     3
 72
     8
 73
     4
 74
     0
 42
0.000000001
 43
0.0000000001
 40
464.0075949415173
 40
464.0075949415173
 40
464.0075949415173
 40
464.0075949415173
 40
477.6407544104151
 40
477.6407544104151
 40
477.6407544104151
 40
477.6407544104151
 10
105021.7382197691
 20
95052.79309199487
 30
0.0
 10
105021.7336733247
 20
95052.79309320398
 30
0.0
 10
105021.7291265574
 20
95052.79308759337
 30
0.0
 10
105021.7245797901
 20
95052.79308198279
 30
0.0
  0
SPLINE
  5
4FA7F
330
1F
100
AcDbEntity
  8
freecads.com
100
AcDbSpline
210
0.0
220
0.0
230
1.0
 70
     8
 71
     3
 72
     8
 73
     4
 74
     0
 42
0.000000001
 43
0.0000000001
 40
446.2131013440281
 40
446.2131013440281
 40
446.2131013440281
 40
446.2131013440281
 40
447.1245819130988
 40
447.1245819130988
 40
447.1245819130988
 40
447.1245819130988
 10
105021.7382197691
 20
95052.77307185943
 30
0.0
 10
105021.7344176861
 20
95052.77307579348
 30
0.0
 10
105021.7299174563
 20
95052.77307972466
 30
0.0
 10
105021.7245797901
 20
95052.77308365696
 30
0.0
  0
SPLINE
  5
4FA80
330
1F
100
AcDbEntity
  8
freecads.com
100
AcDbSpline
210
0.0
220
0.0
230
1.0
 70
     8
 71
     3
 72
     8
 73
     4
 74
     0
 42
0.000000001
 43
0.0000000001
 40
298.2260641464397
 40
298.2260641464397
 40
298.2260641464397
 40
298.2260641464397
 40
311.8156199324941
 40
311.8156199324941
 40
311.8156199324941
 40
311.8156199324941
 10
105021.7382197691
 20
95052.67077891096
 30
0.0
 10
105021.7336747436
 20
95052.67073064038
 30
0.0
 10
105021.7291272669
 20
95052.67066922016
 30
0.0
 10
105021.7245797901
 20
95052.6706077999
 30
0.0
  0
SPLINE
  5
4FA81
330
1F
100
AcDbEntity
  8
freecads.com
100
AcDbSpline
210
0.0
220
0.0
230
1.0
 70
     8
 71
     3
 72
    15
 73
    11
 74
     0
 42
0.000000001
 43
0.0000000001
 40
0.0
 40
0.0
 40
0.0
 40
0.0
 40
0.0079085775364648
 40
0.020905772075348
 40
0.0376777137607058
 40
0.0869565061910963
 40
0.1251143189091787
 40
0.1691586984575781
 40
0.2344148683757042
 40
0.2878979645134312
 40
0.2878979645134312
 40
0.2878979645134312
 40
0.2878979645134312
 10
105021.4621225597
 20
95052.64657251624
 30
0.0
 10
105021.4626080226
 20
95052.64398420859
 30
0.0
 10
105021.4638913099
 20
95052.63714219822
 30
0.0
 10
105021.4641880925
 20
95052.62434900711
 30
0.0
 10
105021.4545094429
 20
95052.5995010544
 30
0.0
 10
105021.444384981
 20
95052.56651153029
 30
0.0
 10
105021.4320722268
 20
95052.52413702232
 30
0.0
 10
105021.4313730327
 20
95052.4746723182
 30
0.0
 10
105021.4301293173
 20
95052.42058451237
 30
0.0
 10
105021.429469
 20
95052.38089446047
 30
0.0
 10
105021.4293181814
 20
95052.36309199489
 30
0.0
  0
SPLINE
  5
4FA82
330
1F
100
AcDbEntity
  8
freecads.com
100
AcDbSpline
210
0.0
220
0.0
230
1.0
 70
     8
 71
     3
 72
    15
 73
    11
 74
     0
 42
0.000000001
 43
0.0000000001
 40
0.0
 40
0.0
 40
0.0
 40
0.0
 40
7.908577536480597
 40
20.90577207536215
 40
37.67771376074684
 40
86.95650619113989
 40
125.1143189092015
 40
169.1586984575989
 40
234.4148683757257
 40
289.0811501442197
 40
289.0811501442197
 40
289.0811501442197
 40
289.0811501442197
 10
105021.4816024128
 20
95052.64775252282
 30
0.0
 10
105021.4820878757
 20
95052.64516421517
 30
0.0
 10
105021.4833711629
 20
95052.63832220478
 30
0.0
 10
105021.4836679464
 20
95052.62552901388
 30
0.0
 10
105021.4739892896
 20
95052.60068105918
 30
0.0
 10
105021.4638649039
 20
95052.56769155627
 30
0.0
 10
105021.4515518771
 20
95052.52531697252
 30
0.0
 10
105021.4508539639
 20
95052.47585262447
 30
0.0
 10
105021.4495943746
 20
95052.42136978429
 30
0.0
 10
105021.4489458932
 20
95052.38128628326
 30
0.0
 10
105021.4487932531
 20
95052.36309199489
 30
0.0
  0
LINE
  5
4FA83
330
1F
100
AcDbEntity
  8
freecads.com
100
AcDbLine
 10
105021.7382197691
 20
95050.7830919949
 30
0.0
 11
105021.7382197691
 21
95050.76823679546
 31
0.0
  0
LINE
  5
4FA84
330
1F
100
AcDbEntity
  8
freecads.com
100
AcDbLine
 10
105021.4862105127
 20
95052.36309199489
 30
0.0
 11
105021.4916480916
 21
95052.53057792206
 31
0.0
  0
SPLINE
  5
4FA85
330
1F
100
AcDbEntity
  8
freecads.com
100
AcDbSpline
210
0.0
220
0.0
230
1.0
 70
     8
 71
     3
 72
    18
 73
    14
 74
     0
 42
0.000000001
 43
0.0000000001
 40
117.544452272429
 40
117.544452272429
 40
117.544452272429
 40
117.544452272429
 40
121.5782120084558
 40
138.8128471134586
 40
159.7356761485782
 40
185.0258019403773
 40
217.031734495737
 40
240.4054382193022
 40
274.8880694870596
 40
317.0282263848024
 40
367.6883550487834
 40
409.8334730367477
 40
474.4296972636449
 40
474.4296972636449
 40
474.4296972636449
 40
474.4296972636449
 10
105022.0143169784
 20
95052.64657251624
 30
0.0
 10
105022.0146751637
 20
95052.64787836942
 30
0.0
 10
105022.0168953353
 20
95052.65474175608
 30
0.0
 10
105022.0195298685
 20
95052.6684643197
 30
0.0
 10
105022.0211481949
 20
95052.68982509772
 30
0.0
 10
105022.0147448623
 20
95052.7153119976
 30
0.0
 10
105022.0022362005
 20
95052.74018025977
 30
0.0
 10
105021.9770729697
 20
95052.75752667129
 30
0.0
 10
105021.9465393841
 20
95052.77076849049
 30
0.0
 10
105021.9062752144
 20
95052.78482907792
 30
0.0
 10
105021.8613455621
 20
95052.78999663007
 30
0.0
 10
105021.8090011387
 20
95052.79309863157
 30
0.0
 10
105021.7734027065
 20
95052.79308825956
 30
0.0
 10
105021.751859748
 20
95052.79308198279
 30
0.0
  0
SPLINE
  5
4FA86
330
1F
100
AcDbEntity
  8
freecads.com
100
AcDbSpline
210
0.0
220
0.0
230
1.0
 70
     8
 71
     3
 72
    98
 73
    94
 74
     0
 42
0.000000001
 43
0.0000000001
 40
114.4120633067309
 40
114.4120633067309
 40
114.4120633067309
 40
114.4120633067309
 40
115.313285776192
 40
115.313285776192
 40
117.7748566477773
 40
117.7748566477773
 40
120.2364275193626
 40
120.2364275193626
 40
121.5764322531769
 40
121.5764322531769
 40
125.1629290616186
 40
125.1629290616186
 40
132.0714134550561
 40
132.0714134550561
 40
138.6743689378141
 40
138.6743689378141
 40
142.6406926620967
 40
142.6406926620967
 40
146.6070163863792
 40
146.6070163863792
 40
154.5396638349442
 40
154.5396638349442
 40
159.673548584359
 40
159.673548584359
 40
167.1463235392934
 40
167.1463235392934
 40
174.6190984942278
 40
174.6190984942278
 40
180.2576469558658
 40
180.2576469558658
 40
183.5988372325109
 40
183.5988372325109
 40
186.4614193169528
 40
186.4614193169528
 40
194.3853094132726
 40
194.3853094132726
 40
204.581341962645
 40
204.581341962645
 40
214.7773745120173
 40
214.7773745120173
 40
217.2058118024684
 40
217.2058118024684
 40
219.6342490929195
 40
219.6342490929195
 40
224.4911236738218
 40
224.4911236738218
 40
234.1299422632729
 40
234.1299422632729
 40
239.2278676422874
 40
239.2278676422874
 40
242.1721340347132
 40
242.1721340347132
 40
245.1164004271389
 40
245.1164004271389
 40
251.0049332119904
 40
251.0049332119904
 40
262.7819987816935
 40
262.7819987816935
 40
273.251849682216
 40
273.251849682216
 40
277.263137761276
 40
277.263137761276
 40
281.2744258403359
 40
281.2744258403359
 40
289.2970019984556
 40
289.2970019984556
 40
305.3421543146952
 40
305.3421543146952
 40
316.7210396985118
 40
316.7210396985118
 40
325.3874572347419
 40
325.3874572347419
 40
334.0538747709721
 40
334.0538747709721
 40
351.3867098434323
 40
351.3867098434323
 40
365.4077063558946
 40
365.4077063558946
 40
372.1363343061443
 40
372.1363343061443
 40
378.864962256394
 40
378.864962256394
 40
392.3222181568934
 40
392.3222181568934
 40
406.6676545179282
 40
406.6676545179282
 40
415.4120311423842
 40
415.4120311423842
 40
424.1564077668403
 40
424.1564077668403
 40
441.6451610157523
 40
441.6451610157523
 40
447.1245819130988
 40
447.1245819130988
 40
447.1245819130988
 40
447.1245819130988
 10
105021.9938750789
 20
95052.64657251624
 30
0.0
 10
105021.9939670324
 20
95052.64716808431
 30
0.0
 10
105021.9940689391
 20
95052.64773754438
 30
0.0
 10
105021.9944702267
 20
95052.64976646545
 30
0.0
 10
105021.9948040445
 20
95052.6510602047
 30
0.0
 10
105021.9954318427
 20
95052.65330511624
 30
0.0
 10
105021.9957265521
 20
95052.65425749414
 30
0.0
 10
105021.996102147
 20
95052.65548155778
 30
0.0
 10
105021.9962196681
 20
95052.65586537337
 30
0.0
 10
105021.9965877673
 20
95052.65709893256
 30
0.0
 10
105021.9968386282
 20
95052.658006607
 30
0.0
 10
105021.9975288619
 20
95052.66070112201
 30
0.0
 10
105021.9979272594
 20
95052.6625225885
 30
0.0
 10
105021.998619547
 20
95052.66620422551
 30
0.0
 10
105021.9989171544
 20
95052.66805903215
 30
0.0
 10
105021.9993448741
 20
95052.67112853017
 30
0.0
 10
105021.999490233
 20
95052.67227161981
 30
0.0
 10
105021.9997433755
 20
95052.67452096637
 30
0.0
 10
105021.9998514822
 20
95052.67562962087
 30
0.0
 10
105022.0001136692
 20
95052.67890044615
 30
0.0
 10
105022.0002051066
 20
95052.68100717799
 30
0.0
 10
105022.0001980424
 20
95052.68432705937
 30
0.0
 10
105022.0001553452
 20
95052.68559324962
 30
0.0
 10
105021.999948486
 20
95052.68860131199
 30
0.0
 10
105021.9997298705
 20
95052.69041401938
 30
0.0
 10
105021.9991058832
 20
95052.69411862007
 30
0.0
 10
105021.9987005246
 20
95052.69600835584
 30
0.0
 10
105021.9978344614
 20
95052.69938653134
 30
0.0
 10
105021.9974118186
 20
95052.7008594852
 30
0.0
 10
105021.9966641378
 20
95052.70323420621
 30
0.0
 10
105021.9963695128
 20
95052.70412416276
 30
0.0
 10
105021.9957935604
 20
95052.70578750195
 30
0.0
 10
105021.9955153116
 20
95052.7065626874
 30
0.0
 10
105021.9944469988
 20
95052.7094358234
 30
0.0
 10
105021.9936117462
 20
95052.71147303833
 30
0.0
 10
105021.9915860832
 20
95052.71589793009
 30
0.0
 10
105021.9903622776
 20
95052.71821722475
 30
0.0
 10
105021.9877690297
 20
95052.72241893424
 30
0.0
 10
105021.9864013107
 20
95052.72429985963
 30
0.0
 10
105021.9846331672
 20
95052.72634072971
 30
0.0
 10
105021.9842910731
 20
95052.72671869755
 30
0.0
 10
105021.9835931948
 20
95052.7274560089
 30
0.0
 10
105021.9832286597
 20
95052.72782462656
 30
0.0
 10
105021.9820878301
 20
95052.72893026678
 30
0.0
 10
105021.9812640852
 20
95052.72966712441
 30
0.0
 10
105021.9786222025
 20
95052.73186090446
 30
0.0
 10
105021.9766217706
 20
95052.73331133787
 30
0.0
 10
105021.9732619468
 20
95052.73549922392
 30
0.0
 10
105021.9720451271
 20
95052.73625086358
 30
0.0
 10
105021.9700540764
 20
95052.73742901271
 30
0.0
 10
105021.9693093582
 20
95052.73785931089
 30
0.0
 10
105021.9678127466
 20
95052.73870521326
 30
0.0
 10
105021.9670581055
 20
95052.73912232416
 30
0.0
 10
105021.9647752159
 20
95052.74035744225
 30
0.0
 10
105021.963227977
 20
95052.74115923665
 30
0.0
 10
105021.9585115517
 20
95052.74351003199
 30
0.0
 10
105021.9552673658
 20
95052.74500433166
 30
0.0
 10
105021.9489643753
 20
95052.74774184989
 30
0.0
 10
105021.9459251053
 20
95052.74899448856
 30
0.0
 10
105021.9416312555
 20
95052.75070680189
 30
0.0
 10
105021.9404309997
 20
95052.75117980925
 30
0.0
 10
105021.9380393247
 20
95052.75211132842
 30
0.0
 10
105021.936844556
 20
95052.75257095284
 30
0.0
 10
105021.9332634439
 20
95052.75392940554
 30
0.0
 10
105021.9308802907
 20
95052.75480780102
 30
0.0
 10
105021.9237436812
 20
95052.75734555958
 30
0.0
 10
105021.9190031176
 20
95052.75890725206
 30
0.0
 10
105021.9109307199
 20
95052.76128686588
 30
0.0
 10
105021.9075901671
 20
95052.76218908196
 30
0.0
 10
105021.901720366
 20
95052.76360593683
 30
0.0
 10
105021.8991577287
 20
95052.76416849769
 30
0.0
 10
105021.893971597
 20
95052.76520788806
 30
0.0
 10
105021.8913504254
 20
95052.76568417087
 30
0.0
 10
105021.8834083917
 20
95052.76699983154
 30
0.0
 10
105021.8780088866
 20
95052.76772572369
 30
0.0
 10
105021.8680850931
 20
95052.76885335716
 30
0.0
 10
105021.8635908171
 20
95052.7692906197
 30
0.0
 10
105021.8568712548
 20
95052.76988002643
 30
0.0
 10
105021.8546816591
 20
95052.77006270139
 30
0.0
 10
105021.8503100802
 20
95052.77041047159
 30
0.0
 10
105021.8481244829
 20
95052.77057562135
 30
0.0
 10
105021.8415678804
 20
95052.77104490303
 30
0.0
 10
105021.8371970647
 20
95052.7713228678
 30
0.0
 10
105021.8281653453
 20
95052.77182526382
 30
0.0
 10
105021.8235043352
 20
95052.77204495113
 30
0.0
 10
105021.8159987243
 20
95052.77233509531
 30
0.0
 10
105021.8131558381
 20
95052.77242983174
 30
0.0
 10
105021.8074471019
 20
95052.77259441106
 30
0.0
 10
105021.8045839445
 20
95052.77266443179
 30
0.0
 10
105021.7959687172
 20
95052.77284768768
 30
0.0
 10
105021.7901908948
 20
95052.77293405795
 30
0.0
 10
105021.7825598918
 20
95052.7730364185
 30
0.0
 10
105021.7807361867
 20
95052.77306001767
 30
0.0
 10
105021.751859748
 20
95052.77308365696
 30
0.0
  0
SPLINE
  5
4FA87
330
1F
100
AcDbEntity
  8
freecads.com
100
AcDbSpline
210
0.0
220
0.0
230
1.0
 70
  1064
 71
     3
 72
    12
 73
     8
 74
     6
 42
0.000000001
 43
0.0000000001
 44
0.0000000001
 40
0.0
 40
0.0
 40
0.0
 40
0.0
 40
0.1174035278572582
 40
0.1348386018796372
 40
0.1929056559088587
 40
0.2484756859798663
 40
0.3086044478092127
 40
0.3086044478092127
 40
0.3086044478092127
 40
0.3086044478092127
 10
105021.9847914465
 20
95052.53057792206
 30
0.0
 10
105021.9741777309
 20
95052.56996832546
 30
0.0
 10
105021.9619878197
 20
95052.61520842191
 30
0.0
 10
105021.9132267642
 20
95052.65874598167
 30
0.0
 10
105021.8675530964
 20
95052.6652400854
 30
0.0
 10
105021.8106915708
 20
95052.67134489617
 30
0.0
 10
105021.7719788055
 20
95052.67085986899
 30
0.0
 10
105021.751859748
 20
95052.6706077999
 30
0.0
 11
105021.9847914465
 21
95052.53057792206
 31
0.0
 11
105021.9363525979
 21
95052.6375230776
 31
0.0
 11
105021.9231121086
 21
95052.64886641262
 31
0.0
 11
105021.8673129422
 21
95052.66493612921
 31
0.0
 11
105021.8119866522
 21
95052.67013515537
 31
0.0
 11
105021.751859748
 21
95052.6706077999
 31
0.0
  0
SPLINE
  5
4FA88
330
1F
100
AcDbEntity
  8
freecads.com
100
AcDbSpline
210
0.0
220
0.0
230
1.0
 70
     8
 71
     3
 72
     8
 73
     4
 74
     0
 42
0.000000001
 43
0.0000000001
 40
464.0075949415173
 40
464.0075949415173
 40
464.0075949415173
 40
464.0075949415173
 40
477.6407544104151
 40
477.6407544104151
 40
477.6407544104151
 40
477.6407544104151
 10
105021.7382197691
 20
95052.79309199487
 30
0.0
 10
105021.7427662134
 20
95052.79309320398
 30
0.0
 10
105021.7473129807
 20
95052.79308759337
 30
0.0
 10
105021.751859748
 20
95052.79308198279
 30
0.0
  0
SPLINE
  5
4FA89
330
1F
100
AcDbEntity
  8
freecads.com
100
AcDbSpline
210
0.0
220
0.0
230
1.0
 70
     8
 71
     3
 72
     8
 73
     4
 74
     0
 42
0.000000001
 43
0.0000000001
 40
446.2131013440281
 40
446.2131013440281
 40
446.2131013440281
 40
446.2131013440281
 40
447.1245819130988
 40
447.1245819130988
 40
447.1245819130988
 40
447.1245819130988
 10
105021.7382197691
 20
95052.77307185943
 30
0.0
 10
105021.742021852
 20
95052.77307579348
 30
0.0
 10
105021.7465220818
 20
95052.77307972466
 30
0.0
 10
105021.751859748
 20
95052.77308365696
 30
0.0
  0
SPLINE
  5
4FA8A
330
1F
100
AcDbEntity
  8
freecads.com
100
AcDbSpline
210
0.0
220
0.0
230
1.0
 70
     8
 71
     3
 72
     8
 73
     4
 74
     0
 42
0.000000001
 43
0.0000000001
 40
298.2260641464397
 40
298.2260641464397
 40
298.2260641464397
 40
298.2260641464397
 40
311.8156199324941
 40
311.8156199324941
 40
311.8156199324941
 40
311.8156199324941
 10
105021.7382197691
 20
95052.67077891096
 30
0.0
 10
105021.7427647945
 20
95052.67073064038
 30
0.0
 10
105021.7473122712
 20
95052.67066922016
 30
0.0
 10
105021.751859748
 20
95052.6706077999
 30
0.0
  0
SPLINE
  5
4FA8B
330
1F
100
AcDbEntity
  8
freecads.com
100
AcDbSpline
210
0.0
220
0.0
230
1.0
 70
     8
 71
     3
 72
    15
 73
    11
 74
     0
 42
0.000000001
 43
0.0000000001
 40
0.0
 40
0.0
 40
0.0
 40
0.0
 40
0.0079085775364647
 40
0.0209057720753478
 40
0.0376777137607056
 40
0.0869565061910961
 40
0.1251143189091786
 40
0.1691586984575688
 40
0.2344148683756949
 40
0.2878979645104774
 40
0.2878979645104774
 40
0.2878979645104774
 40
0.2878979645104774
 10
105022.0143169784
 20
95052.64657251624
 30
0.0
 10
105022.0138315155
 20
95052.64398420859
 30
0.0
 10
105022.0125482282
 20
95052.63714219822
 30
0.0
 10
105022.0122514456
 20
95052.62434900711
 30
0.0
 10
105022.0219300952
 20
95052.5995010544
 30
0.0
 10
105022.0320545571
 20
95052.56651153029
 30
0.0
 10
105022.0443673113
 20
95052.52413702232
 30
0.0
 10
105022.0450665054
 20
95052.4746723182
 30
0.0
 10
105022.0463102209
 20
95052.42058451237
 30
0.0
 10
105022.0469705381
 20
95052.38089446047
 30
0.0
 10
105022.0471213568
 20
95052.3630919949
 30
0.0
  0
SPLINE
  5
4FA8C
330
1F
100
AcDbEntity
  8
freecads.com
100
AcDbSpline
210
0.0
220
0.0
230
1.0
 70
     8
 71
     3
 72
    15
 73
    11
 74
     0
 42
0.000000001
 43
0.0000000001
 40
0.0
 40
0.0
 40
0.0
 40
0.0
 40
7.908577536480597
 40
20.90577207536215
 40
37.67771376074684
 40
86.95650619113989
 40
125.1143189092015
 40
169.1586984575989
 40
234.4148683757257
 40
289.0811501414528
 40
289.0811501414528
 40
289.0811501414528
 40
289.0811501414528
 10
105021.9948371253
 20
95052.64775252282
 30
0.0
 10
105021.9943516624
 20
95052.64516421517
 30
0.0
 10
105021.9930683752
 20
95052.63832220478
 30
0.0
 10
105021.9927715917
 20
95052.62552901388
 30
0.0
 10
105022.0024502485
 20
95052.60068105918
 30
0.0
 10
105022.0125746342
 20
95052.56769155627
 30
0.0
 10
105022.024887661
 20
95052.52531697252
 30
0.0
 10
105022.0255855742
 20
95052.47585262447
 30
0.0
 10
105022.0268451635
 20
95052.42136978429
 30
0.0
 10
105022.0274936449
 20
95052.38128628326
 30
0.0
 10
105022.0276462851
 20
95052.3630919949
 30
0.0
  0
LINE
  5
4FA8D
330
1F
100
AcDbEntity
  8
freecads.com
100
AcDbLine
 10
105021.9902290254
 20
95052.3630919949
 30
0.0
 11
105021.9847914465
 21
95052.53057792206
 31
0.0
  0
LINE
  5
4FA8E
330
1F
100
AcDbEntity
  8
freecads.com
100
AcDbLine
 10
105021.7382197691
 20
95052.79309199487
 30
0.0
 11
105021.7382197691
 21
95052.80794719432
 31
0.0
  0
LINE
  5
4FA8F
330
1F
100
AcDbEntity
  8
freecads.com
100
AcDbLine
 10
105018.8582350779
 20
95052.36309199489
 30
0.0
 11
105018.7582350779
 21
95052.26309199489
 31
0.0
  0
LINE
  5
4FA90
330
1F
100
AcDbEntity
  8
freecads.com
100
AcDbLine
 10
105018.7582350779
 20
95052.26309199489
 30
0.0
 11
105018.7582350779
 21
95051.31309199489
 31
0.0
  0
LINE
  5
4FA91
330
1F
100
AcDbEntity
  8
freecads.com
100
AcDbLine
 10
105018.7582350779
 20
95051.31309199489
 30
0.0
 11
105018.8582350779
 21
95051.21309199488
 31
0.0
  0
LINE
  5
4FA92
330
1F
100
AcDbEntity
  8
freecads.com
100
AcDbLine
 10
105018.8582350779
 20
95051.21309199488
 30
0.0
 11
105022.1582350779
 21
95051.21309199489
 31
0.0
  0
LINE
  5
4FA93
330
1F
100
AcDbEntity
  8
freecads.com
100
AcDbLine
 10
105022.1582350779
 20
95051.21309199489
 30
0.0
 11
105022.2582350779
 21
95051.31309199491
 31
0.0
  0
LINE
  5
4FA94
330
1F
100
AcDbEntity
  8
freecads.com
100
AcDbLine
 10
105022.2582350779
 20
95051.31309199491
 30
0.0
 11
105022.2582350779
 21
95052.26309199491
 31
0.0
  0
LINE
  5
4FA95
330
1F
100
AcDbEntity
  8
freecads.com
100
AcDbLine
 10
105022.2582350779
 20
95052.26309199491
 30
0.0
 11
105022.1582350779
 21
95052.3630919949
 31
0.0
  0
LINE
  5
4FA96
330
1F
100
AcDbEntity
  8
freecads.com
100
AcDbLine
 10
105022.1582350779
 20
95052.3630919949
 30
0.0
 11
105018.8582350779
 21
95052.36309199489
 31
0.0
  0
LINE
  5
4FA97
330
1F
100
AcDbEntity
  8
freecads.com
100
AcDbLine
 10
105018.8582350779
 20
95052.36309199489
 30
0.0
 11
105018.8582350779
 21
95052.36309199489
 31
0.0
  0
ENDSEC
  0
SECTION
  2
OBJECTS
  0
DICTIONARY
  5
C
330
0
100
AcDbDictionary
281
     1
  3
ACAD_ASSOCPERSSUBENTMANAGER
350
2C1D4
  3
ACAD_CIP_PREVIOUS_PRODUCT_INFO
350
1A5
  3
ACAD_COLOR
350
73
  3
ACAD_DETAILVIEWSTYLE
350
1AB
  3
ACAD_GROUP
350
D
  3
ACAD_LAYOUT
350
1A
  3
ACAD_MATERIAL
350
72
  3
ACAD_MLEADERSTYLE
350
D7
  3
ACAD_MLINESTYLE
350
17
  3
ACAD_PLOTSETTINGS
350
19
  3
ACAD_PLOTSTYLENAME
350
E
  3
ACAD_SCALELIST
350
B6
  3
ACAD_SECTIONVIEWSTYLE
350
1A8
  3
ACAD_TABLESTYLE
350
86
  3
ACAD_VISUALSTYLE
350
99
  3
ACDB_RECOMPOSE_DATA
350
4FAA8
  3
ACDBVARIABLEDICTIONARY
350
4F936
  3
AEC_PROPERTY_SET_DEFS
350
22D1
  0
DICTIONARY
  5
18E
330
2
100
AcDbDictionary
280
     1
281
     1
  3
ACAD_LAYERSTATES
360
18F
  0
DICTIONARY
  5
E6
330
10
100
AcDbDictionary
280
     1
281
     1
  0
DICTIONARY
  5
15D
330
1F
100
AcDbDictionary
280
     1
281
     1
  3
ACAD_SORTENTS
360
28E
  0
ACDBASSOCPERSSUBENTMANAGER
  5
2C1D4
102
{ACAD_REACTORS
330
C
102
}
330
C
100
AcDbAssocPersSubentManager
 90
        2
 90
        3
 90
        0
 90
        2
 90
     1260
 90
        0
 90
        0
 90
        0
 90
        0
290
     0
  0
XRECORD
  5
1A5
102
{ACAD_REACTORS
330
C
102
}
330
C
100
AcDbXrecord
280
     1
300
ACD
300
2022
300

  0
DICTIONARY
  5
73
102
{ACAD_REACTORS
330
C
102
}
330
C
100
AcDbDictionary
281
     1
  0
DICTIONARY
  5
1AB
102
{ACAD_REACTORS
330
C
102
}
330
C
100
AcDbDictionary
281
     1
  3
Imperial24
350
1AC
  3
Metric50
350
224
  0
DICTIONARY
  5
D
102
{ACAD_REACTORS
330
C
102
}
330
C
100
AcDbDictionary
281
     1
  0
DICTIONARY
  5
1A
102
{ACAD_REACTORS
330
C
102
}
330
C
100
AcDbDictionary
281
     1
  3
Layout1
350
59
  3
Layout2
350
5E
  3
Model
350
22
  0
DICTIONARY
  5
72
102
{ACAD_REACTORS
330
C
102
}
330
C
100
AcDbDictionary
281
     1
  3
ByBlock
350
97
  3
ByLayer
350
96
  3
Global
350
98
  0
DICTIONARY
  5
D7
102
{ACAD_REACTORS
330
C
102
}
330
C
100
AcDbDictionary
281
     1
  3
Standard
350
D8
  0
DICTIONARY
  5
17
102
{ACAD_REACTORS
330
C
102
}
330
C
100
AcDbDictionary
281
     1
  3
Standard
350
18
  0
DICTIONARY
  5
19
102
{ACAD_REACTORS
330
C
102
}
330
C
100
AcDbDictionary
281
     1
  0
ACDBDICTIONARYWDFLT
  5
E
102
{ACAD_REACTORS
330
C
102
}
330
C
100
AcDbDictionary
281
     1
  3
Normal
350
F
100
AcDbDictionaryWithDefault
340
F
  0
DICTIONARY
  5
B6
102
{ACAD_REACTORS
330
C
102
}
330
C
100
AcDbDictionary
281
     1
  3
*A1
350
2283
  3
A0
350
B7
  3
A1
350
124
  3
A2
350
125
  3
A3
350
126
  3
A4
350
127
  3
A5
350
128
  3
A6
350
129
  3
A7
350
12A
  3
A8
350
12B
  3
A9
350
12C
  3
B0
350
12D
  3
B1
350
12E
  3
B2
350
12F
  3
B3
350
130
  3
B4
350
131
  3
B5
350
132
  3
B6
350
133
  3
B7
350
134
  3
B8
350
135
  3
B9
350
136
  3
C0
350
137
  3
C1
350
138
  3
C2
350
139
  3
C3
350
13A
  3
C4
350
13B
  3
C5
350
13C
  3
C6
350
13D
  3
C7
350
13E
  3
C8
350
13F
  3
C9
350
140
  3
D0
350
141
  3
D1
350
142
  3
D2
350
143
  0
DICTIONARY
  5
1A8
102
{ACAD_REACTORS
330
C
102
}
330
C
100
AcDbDictionary
281
     1
  3
Imperial24
350
1AA
  3
Metric50
350
223
  0
DICTIONARY
  5
86
102
{ACAD_REACTORS
330
C
102
}
330
C
100
AcDbDictionary
281
     1
  3
Standard
350
87
  0
DICTIONARY
  5
99
102
{ACAD_REACTORS
330
C
102
}
330
C
100
AcDbDictionary
281
     1
  3
2dWireframe
350
9F
  3
3dWireframe
350
22946
  3
Basic
350
9E
  3
Brighten
350
A5
  3
ColorChange
350
A9
  3
Conceptual
350
A2
  3
Dim
350
A4
  3
EdgeColorOff
350
175
  3
Facepattern
350
A8
  3
Flat
350
9A
  3
FlatWithEdges
350
9B
  3
Gouraud
350
9C
  3
GouraudWithEdges
350
9D
  3
Hidden
350
A1
  3
JitterOff
350
173
  3
Linepattern
350
A7
  3
OverhangOff
350
174
  3
Realistic
350
A3
  3
Shaded
350
182
  3
Shaded with edges
350
181
  3
Shades of Gray
350
17E
  3
Sketchy
350
17F
  3
Thicken
350
A6
  3
Wireframe
350
A0
  3
X-Ray
350
180
  0
XRECORD
  5
4FAA8
102
{ACAD_REACTORS
330
C
102
}
330
C
100
AcDbXrecord
280
     1
 90
        1
330
87
  0
DICTIONARY
  5
4F936
102
{ACAD_REACTORS
330
C
102
}
330
C
100
AcDbDictionary
281
     2
  3
#REVCLOUDAPPROXARCLEN
350
4F937
  3
ANNOALLVISIBLE
350
4F938
  3
CAMERADISPLAY
350
4F939
  3
CANNOSCALE
350
4F93A
  3
CMLEADERSTYLE
350
4F93B
  3
CTABLESTYLE
350
4F93C
  3
CVIEWDETAILSTYLE
350
4F93D
  3
CVIEWSECTIONSTYLE
350
4F93E
  3
DIMADEC
350
4F93F
  3
DIMASSOC
350
4F940
  3
EXPORTPAPERSPACE
350
4F941
  3
HPCOLOR
350
4F942
  3
HPINHERIT
350
4F943
  3
HPLAYER
350
4F944
  3
HPTRANSPARENCY
350
4F945
  3
INDEXCTL
350
4F946
  3
LAYEREVAL
350
4F947
  3
LAYERNOTIFY
350
4F948
  3
LIGHTINGUNITS
350
4F949
  3
MLEADERSCALE
350
4F94A
  3
MSLTSCALE
350
4F94B
  3
OLEFRAME
350
4F94C
  3
PDFFRAME
350
4F94D
  3
SOLIDHIST
350
4F94E
  3
SORTENTS
350
4F94F
  0
DICTIONARY
  5
22D1
102
{ACAD_REACTORS
330
C
102
}
330
C
100
AcDbDictionary
281
     1
  0
DICTIONARY
  5
18F
102
{ACAD_REACTORS
330
18E
102
}
330
18E
100
AcDbDictionary
281
     1
  0
SORTENTSTABLE
  5
28E
102
{ACAD_REACTORS
330
15D
102
}
330
15D
100
AcDbSortentsTable
330
1F
  0
ACDBDETAILVIEWSTYLE
  5
1AC
102
{ACAD_REACTORS
330
1AB
102
}
330
1AB
100
AcDbModelDocViewStyle
 70
     0
  3
Imperial24
290
     0
300
Imperial24
 90
        0
100
AcDbDetailViewStyle
 70
     0
 71
     0
 90
        3
 71
     1
340
11
 62
   256
 40
0.24
340
0
 62
   256
 40
0.24
300

 40
0.36
280
     3
 71
     2
340
16
 90
       25
 62
   256
 71
     3
340
11
 62
   256
 40
0.24
 90
        1
 40
0.75
 90
        1
300
%<\AcVar ViewType \f "%tc1">% %<\AcVar ViewDetailId>%\PSCALE %<\AcVar ViewScale \f "%sn">%
 71
     4
340
16
 90
       25
 62
   256
340
16
 90
       25
 62
   256
280
     0
  0
ACDBDETAILVIEWSTYLE
  5
224
102
{ACAD_REACTORS
330
1AB
102
}
330
1AB
100
AcDbModelDocViewStyle
 70
     0
  3
Metric50
290
     0
300
Metric50
 90
        0
100
AcDbDetailViewStyle
 70
     0
 71
     0
 90
        3
 71
     1
340
11
 62
   256
 40
5.0
340
0
 62
   256
 40
5.0
300

 40
0.0
280
     1
 71
     2
340
16
 90
       25
 62
   256
 71
     3
340
11
 62
   256
 40
5.0
 90
        0
 40
15.0
 90
        1
300
%<\AcVar ViewDetailId>% (%<\AcVar ViewScale \f "%sn">%)
 71
     4
340
16
 90
       25
 62
   256
340
16
 90
       25
 62
   256
280
     0
  0
LAYOUT
  5
59
102
{ACAD_REACTORS
330
1A
102
}
330
1A
100
AcDbPlotSettings
  1

  2
None
  4

  6

 40
0.0
 41
0.0
 42
0.0
 43
0.0
 44
0.0
 45
0.0
 46
0.0
 47
0.0
 48
0.0
 49
0.0
140
0.0
141
0.0
142
1.0
143
1.0
 70
   688
 72
     0
 73
     0
 74
     5
  7

 75
    16
147
1.0
 76
     0
 77
     2
 78
   300
148
0.0
149
0.0
100
AcDbLayout
  1
Layout1
 70
     1
 71
     1
 10
0.0
 20
0.0
 11
12.0
 21
9.0
 12
0.0
 22
0.0
 32
0.0
 14
0.0
 24
0.0
 34
0.0
 15
0.0
 25
0.0
 35
0.0
146
0.0
 13
0.0
 23
0.0
 33
0.0
 16
1.0
 26
0.0
 36
0.0
 17
0.0
 27
1.0
 37
0.0
 76
     0
330
58
  0
LAYOUT
  5
5E
102
{ACAD_REACTORS
330
1A
102
}
330
1A
100
AcDbPlotSettings
  1

  2
None
  4

  6

 40
0.0
 41
0.0
 42
0.0
 43
0.0
 44
0.0
 45
0.0
 46
0.0
 47
0.0
 48
0.0
 49
0.0
140
0.0
141
0.0
142
1.0
143
1.0
 70
   688
 72
     0
 73
     0
 74
     5
  7

 75
    16
147
1.0
 76
     0
 77
     2
 78
   300
148
0.0
149
0.0
100
AcDbLayout
  1
Layout2
 70
     1
 71
     2
 10
0.0
 20
0.0
 11
12.0
 21
9.0
 12
0.0
 22
0.0
 32
0.0
 14
0.0
 24
0.0
 34
0.0
 15
0.0
 25
0.0
 35
0.0
146
0.0
 13
0.0
 23
0.0
 33
0.0
 16
1.0
 26
0.0
 36
0.0
 17
0.0
 27
1.0
 37
0.0
 76
     0
330
5D
  0
LAYOUT
  5
22
102
{ACAD_XDICTIONARY
360
194
102
}
102
{ACAD_REACTORS
330
1A
102
}
330
1A
100
AcDbPlotSettings
  1

  2
none_device
  4
ANSI_A_(8.50_x_11.00_Inches)
  6

 40
6.349999904632568
 41
19.04999923706055
 42
6.350006103515625
 43
19.04998779296875
 44
215.8999938964844
 45
279.3999938964844
 46
0.0
 47
0.0
 48
0.0
 49
0.0
140
0.0
141
0.0
142
1.0
143
2.584895464708373
 70
 11952
 72
     0
 73
     1
 74
     0
  7

 75
     0
147
0.3868628397755418
 76
     0
 77
     2
 78
   300
148
0.0
149
0.0
100
AcDbLayout
  1
Model
 70
     1
 71
     0
 10
0.0
 20
0.0
 11
12.0
 21
9.0
 12
0.0
 22
0.0
 32
0.0
 14
0.0
 24
0.0
 34
0.0
 15
0.0
 25
0.0
 35
0.0
146
0.0
 13
0.0
 23
0.0
 33
0.0
 16
1.0
 26
0.0
 36
0.0
 17
0.0
 27
1.0
 37
0.0
 76
     0
330
1F
331
94
  0
MATERIAL
  5
97
102
{ACAD_XDICTIONARY
360
188
102
}
102
{ACAD_REACTORS
330
72
102
}
330
72
100
AcDbMaterial
  1
ByBlock
 94
       63
  0
MATERIAL
  5
96
102
{ACAD_XDICTIONARY
360
186
102
}
102
{ACAD_REACTORS
330
72
102
}
330
72
100
AcDbMaterial
  1
ByLayer
 94
       63
  0
MATERIAL
  5
98
102
{ACAD_XDICTIONARY
360
110
102
}
102
{ACAD_REACTORS
330
72
102
}
330
72
100
AcDbMaterial
  1
Global
 43
0.0208000000566244
 43
0.0
 43
0.0
 43
0.0
 43
0.0
 43
0.0208000000566244
 43
0.0
 43
0.0
 43
0.0
 43
0.0
 43
1.0
 43
0.0
 43
0.0
 43
0.0
 43
0.0
 43
1.0
 49
0.0208000000566244
 49
0.0
 49
0.0
 49
0.0
 49
0.0
 49
0.0208000000566244
 49
0.0
 49
0.0
 49
0.0
 49
0.0
 49
1.0
 49
0.0
 49
0.0
 49
0.0
 49
0.0
 49
1.0
142
0.0208000000566244
142
0.0
142
0.0
142
0.0
142
0.0
142
0.0208000000566244
142
0.0
142
0.0
142
0.0
142
0.0
142
1.0
142
0.0
142
0.0
142
0.0
142
0.0
142
1.0
144
0.0208000000566244
144
0.0
144
0.0
144
0.0
144
0.0
144
0.0208000000566244
144
0.0
144
0.0
144
0.0
144
0.0
144
1.0
144
0.0
144
0.0
144
0.0
144
0.0
144
1.0
 94
       63
1001
ACAD
1070
    -1
1070
     3
1070
     0
1000

1071
        0
1070
     0
  0
MLEADERSTYLE
  5
D8
102
{ACAD_REACTORS
330
D7
102
}
330
D7
100
AcDbMLeaderStyle
179
     2
170
     2
171
     1
172
     0
 90
        2
 40
0.0
 41
0.0
173
     1
 91
-1056964608
340
14
 92
       -2
290
     1
 42
0.09
291
     1
 43
0.36
  3
Standard
 44
0.18
300

342
11
174
     1
178
     1
175
     1
176
     0
 93
-1056964608
 45
0.18
292
     0
297
     0
 46
0.18
 94
-1056964608
 47
1.0
 49
1.0
140
1.0
293
     1
141
0.0
294
     1
177
     0
142
1.0
295
     0
296
     0
143
0.125
271
     0
272
     9
273
     9
298
     0
  0
MLINESTYLE
  5
18
102
{ACAD_REACTORS
330
17
102
}
330
17
100
AcDbMlineStyle
  2
STANDARD
 70
     0
  3

 62
   256
 51
90.0
 52
90.0
 71
     2
 49
0.5
 62
   256
  6
BYLAYER
 49
-0.5
 62
   256
  6
BYLAYER
  0
ACDBPLACEHOLDER
  5
F
102
{ACAD_REACTORS
330
E
102
}
330
E
  0
SCALE
  5
2283
102
{ACAD_REACTORS
330
B6
102
}
330
B6
100
AcDbScale
 70
     0
300
1:75
140
1.0
141
75.0
290
     0
  0
SCALE
  5
B7
102
{ACAD_REACTORS
330
B6
102
}
330
B6
100
AcDbScale
 70
     0
300
1:1
140
1.0
141
1.0
290
     1
  0
SCALE
  5
124
102
{ACAD_REACTORS
330
B6
102
}
330
B6
100
AcDbScale
 70
     0
300
1:2
140
1.0
141
2.0
290
     0
  0
SCALE
  5
125
102
{ACAD_REACTORS
330
B6
102
}
330
B6
100
AcDbScale
 70
     0
300
1:4
140
1.0
141
4.0
290
     0
  0
SCALE
  5
126
102
{ACAD_REACTORS
330
B6
102
}
330
B6
100
AcDbScale
 70
     0
300
1:5
140
1.0
141
5.0
290
     0
  0
SCALE
  5
127
102
{ACAD_REACTORS
330
B6
102
}
330
B6
100
AcDbScale
 70
     0
300
1:8
140
1.0
141
8.0
290
     0
  0
SCALE
  5
128
102
{ACAD_REACTORS
330
B6
102
}
330
B6
100
AcDbScale
 70
     0
300
1:10
140
1.0
141
10.0
290
     0
  0
SCALE
  5
129
102
{ACAD_REACTORS
330
B6
102
}
330
B6
100
AcDbScale
 70
     0
300
1:16
140
1.0
141
16.0
290
     0
  0
SCALE
  5
12A
102
{ACAD_REACTORS
330
B6
102
}
330
B6
100
AcDbScale
 70
     0
300
1:20
140
1.0
141
20.0
290
     0
  0
SCALE
  5
12B
102
{ACAD_REACTORS
330
B6
102
}
330
B6
100
AcDbScale
 70
     0
300
1:30
140
1.0
141
30.0
290
     0
  0
SCALE
  5
12C
102
{ACAD_REACTORS
330
B6
102
}
330
B6
100
AcDbScale
 70
     0
300
1:40
140
1.0
141
40.0
290
     0
  0
SCALE
  5
12D
102
{ACAD_REACTORS
330
B6
102
}
330
B6
100
AcDbScale
 70
     0
300
1:50
140
1.0
141
50.0
290
     0
  0
SCALE
  5
12E
102
{ACAD_REACTORS
330
B6
102
}
330
B6
100
AcDbScale
 70
     0
300
1:100
140
1.0
141
100.0
290
     0
  0
SCALE
  5
12F
102
{ACAD_REACTORS
330
B6
102
}
330
B6
100
AcDbScale
 70
     0
300
2:1
140
2.0
141
1.0
290
     0
  0
SCALE
  5
130
102
{ACAD_REACTORS
330
B6
102
}
330
B6
100
AcDbScale
 70
     0
300
4:1
140
4.0
141
1.0
290
     0
  0
SCALE
  5
131
102
{ACAD_REACTORS
330
B6
102
}
330
B6
100
AcDbScale
 70
     0
300
8:1
140
8.0
141
1.0
290
     0
  0
SCALE
  5
132
102
{ACAD_REACTORS
330
B6
102
}
330
B6
100
AcDbScale
 70
     0
300
10:1
140
10.0
141
1.0
290
     0
  0
SCALE
  5
133
102
{ACAD_REACTORS
330
B6
102
}
330
B6
100
AcDbScale
 70
     0
300
100:1
140
100.0
141
1.0
290
     0
  0
SCALE
  5
134
102
{ACAD_REACTORS
330
B6
102
}
330
B6
100
AcDbScale
 70
     0
300
1/128" = 1'-0"
140
0.0078125
141
12.0
290
     0
  0
SCALE
  5
135
102
{ACAD_REACTORS
330
B6
102
}
330
B6
100
AcDbScale
 70
     0
300
1/64" = 1'-0"
140
0.015625
141
12.0
290
     0
  0
SCALE
  5
136
102
{ACAD_REACTORS
330
B6
102
}
330
B6
100
AcDbScale
 70
     0
300
1/32" = 1'-0"
140
0.03125
141
12.0
290
     0
  0
SCALE
  5
137
102
{ACAD_REACTORS
330
B6
102
}
330
B6
100
AcDbScale
 70
     0
300
1/16" = 1'-0"
140
0.0625
141
12.0
290
     0
  0
SCALE
  5
138
102
{ACAD_REACTORS
330
B6
102
}
330
B6
100
AcDbScale
 70
     0
300
3/32" = 1'-0"
140
0.09375
141
12.0
290
     0
  0
SCALE
  5
139
102
{ACAD_REACTORS
330
B6
102
}
330
B6
100
AcDbScale
 70
     0
300
1/8" = 1'-0"
140
0.125
141
12.0
290
     0
  0
SCALE
  5
13A
102
{ACAD_REACTORS
330
B6
102
}
330
B6
100
AcDbScale
 70
     0
300
3/16" = 1'-0"
140
0.1875
141
12.0
290
     0
  0
SCALE
  5
13B
102
{ACAD_REACTORS
330
B6
102
}
330
B6
100
AcDbScale
 70
     0
300
1/4" = 1'-0"
140
0.25
141
12.0
290
     0
  0
SCALE
  5
13C
102
{ACAD_REACTORS
330
B6
102
}
330
B6
100
AcDbScale
 70
     0
300
3/8" = 1'-0"
140
0.375
141
12.0
290
     0
  0
SCALE
  5
13D
102
{ACAD_REACTORS
330
B6
102
}
330
B6
100
AcDbScale
 70
     0
300
1/2" = 1'-0"
140
0.5
141
12.0
290
     0
  0
SCALE
  5
13E
102
{ACAD_REACTORS
330
B6
102
}
330
B6
100
AcDbScale
 70
     0
300
3/4" = 1'-0"
140
0.75
141
12.0
290
     0
  0
SCALE
  5
13F
102
{ACAD_REACTORS
330
B6
102
}
330
B6
100
AcDbScale
 70
     0
300
1" = 1'-0"
140
1.0
141
12.0
290
     0
  0
SCALE
  5
140
102
{ACAD_REACTORS
330
B6
102
}
330
B6
100
AcDbScale
 70
     0
300
1-1/2" = 1'-0"
140
1.5
141
12.0
290
     0
  0
SCALE
  5
141
102
{ACAD_REACTORS
330
B6
102
}
330
B6
100
AcDbScale
 70
     0
300
3" = 1'-0"
140
3.0
141
12.0
290
     0
  0
SCALE
  5
142
102
{ACAD_REACTORS
330
B6
102
}
330
B6
100
AcDbScale
 70
     0
300
6" = 1'-0"
140
6.0
141
12.0
290
     0
  0
SCALE
  5
143
102
{ACAD_REACTORS
330
B6
102
}
330
B6
100
AcDbScale
 70
     0
300
1'-0" = 1'-0"
140
12.0
141
12.0
290
     0
  0
ACDBSECTIONVIEWSTYLE
  5
1AA
102
{ACAD_REACTORS
330
1A8
102
}
330
1A8
100
AcDbModelDocViewStyle
 70
     0
  3
Imperial24
290
     0
300
Imperial24
 90
        0
100
AcDbSectionViewStyle
 70
     0
 71
     0
 90
       78
 71
     1
340
11
 62
   256
 40
0.24
340
0
340
0
 62
   256
 40
0.24
300
I, O, Q, S, X, Z
 40
0.48
 90
        3
 40
0.18
 90
        1
 71
     2
340
16
 90
       25
 62
   256
340
16
 90
       50
 62
   256
 40
0.24
 40
0.0
 40
0.24
 71
     3
340
11
 62
   256
 40
0.24
 90
        1
 40
0.75
 90
        1
300
%<\AcVar ViewType \f "%tc1">% %<\AcVar ViewSectionStartId>%-%<\AcVar ViewSectionEndId>%\PSCALE %<\AcVar ViewScale \f "%sn">%
 71
     4
 62
   256
 62
   257
300
ANSI31
 40
1.0
 90
        0
290
     0
290
     0
 90
        6
 40
0.0
 40
1.570796326794896
 40
0.2617993877991494
 40
1.308996938995747
 40
-0.2617993877991494
 40
1.832595714594046
  0
ACDBSECTIONVIEWSTYLE
  5
223
102
{ACAD_REACTORS
330
1A8
102
}
330
1A8
100
AcDbModelDocViewStyle
 70
     0
  3
Metric50
290
     0
300
Metric50
 90
        0
100
AcDbSectionViewStyle
 70
     0
 71
     0
 90
      102
 71
     1
340
11
 62
   256
 40
5.0
340
0
340
0
 62
   256
 40
5.0
300
I, O, Q, S, X, Z
 40
10.0
 90
        0
 40
2.5
 90
        0
 71
     2
340
16
 90
       25
 62
   256
340
16
 90
       50
 62
   256
 40
5.0
 40
2.5
 40
5.0
 71
     3
340
11
 62
   256
 40
5.0
 90
        0
 40
15.0
 90
        1
300
%<\AcVar ViewSectionStartId>%-%<\AcVar ViewSectionEndId>% (%<\AcVar ViewScale \f "%sn">%)
 71
     4
 62
   256
 62
   257
300
ANSI31
 40
1.0
 90
        0
290
     0
290
     0
 90
        6
 40
0.0
 40
1.570796326794896
 40
0.2617993877991494
 40
1.308996938995747
 40
-0.2617993877991494
 40
1.832595714594046
  0
TABLESTYLE
  5
87
102
{ACAD_XDICTIONARY
360
104
102
}
102
{ACAD_REACTORS
330
86
102
}
330
86
100
AcDbTableStyle
280
     0
  3
Standard
 70
     0
 71
     0
 40
0.06
 41
0.06
280
     0
281
     0
  7
Standard
140
0.18
170
     2
 62
     0
 63
     7
283
     0
 90
      512
 91
        0
  1

274
    -2
284
     1
 64
     0
275
    -2
285
     1
 65
     0
276
    -2
286
     1
 66
     0
277
    -2
287
     1
 67
     0
278
    -2
288
     1
 68
     0
279
    -2
289
     1
 69
     0
  7
Standard
140
0.25
170
     5
 62
     0
 63
     7
283
     0
 90
      512
 91
        0
  1

274
    -2
284
     1
 64
     0
275
    -2
285
     1
 65
     0
276
    -2
286
     1
 66
     0
277
    -2
287
     1
 67
     0
278
    -2
288
     1
 68
     0
279
    -2
289
     1
 69
     0
  7
Standard
140
0.18
170
     5
 62
     0
 63
     7
283
     0
 90
      512
 91
        0
  1

274
    -2
284
     1
 64
     0
275
    -2
285
     1
 65
     0
276
    -2
286
     1
 66
     0
277
    -2
287
     1
 67
     0
278
    -2
288
     1
 68
     0
279
    -2
289
     1
 69
     0
  0
VISUALSTYLE
  5
9F
102
{ACAD_REACTORS
330
99
102
}
330
99
100
AcDbVisualStyle
  2
2dWireframe
 70
     4
177
     3
291
     0
 70
    58
 90
        0
176
     1
 90
        2
176
     1
 90
        1
176
     1
 90
        0
176
     1
 40
0.6
176
     1
 40
30.0
176
     1
 62
     7
420
 16777215
176
     1
 90
        1
176
     1
 90
        4
176
     1
 62
     7
176
     1
 62
   257
176
     1
 90
        1
176
     1
 90
        1
176
     1
 40
1.0
176
     1
 90
        0
176
     1
 62
   257
176
     1
 40
1.0
176
     1
 90
        1
176
     1
 90
        6
176
     1
 90
        2
176
     1
 62
     7
176
     1
 90
        5
176
     1
 90
        0
176
     1
 90
        0
176
     1
290
     0
176
     1
 90
        1
176
     1
 40
0.0
176
     1
 90
        0
176
     1
290
     1
176
     1
290
     1
176
     1
290
     0
176
     1
290
     0
176
     1
290
     0
176
     1
290
     0
176
     1
290
     0
176
     1
290
     0
176
     1
290
     0
176
     1
 90
       50
176
     1
 40
0.0
176
     1
 40
1.0
176
     1
 90
        0
176
     1
 62
    18
420
        0
176
     1
 90
       50
176
     1
 90
        3
176
     1
 62
     5
420
      255
176
     1
290
     0
176
     1
 90
       50
176
     1
 90
       50
176
     1
 90
       50
176
     1
290
     0
176
     1
 90
       50
176
     1
 62
   256
176
     0
 40
1.0
176
     0
 90
        2
176
     1
  1
strokes_ogs.tif
176
     1
290
     0
176
     1
 40
1.0
176
     1
 40
1.0
176
     1
  0
VISUALSTYLE
  5
22946
102
{ACAD_REACTORS
330
99
102
}
330
99
100
AcDbVisualStyle
  2
3dWireframe
 70
     5
177
     3
291
     0
 70
    58
 90
        0
176
     1
 90
        2
176
     1
 90
        0
176
     1
 90
        0
176
     1
 40
0.6
176
     1
 40
30.0
176
     1
 62
     7
176
     1
 90
        1
176
     1
 90
        4
176
     1
 62
     7
176
     1
 62
   257
176
     1
 90
        1
176
     1
 90
        1
176
     1
 40
1.0
176
     1
 90
        0
176
     1
 62
   257
176
     1
 40
1.0
176
     1
 90
        1
176
     1
 90
        6
176
     1
 90
        2
176
     1
 62
     7
176
     1
 90
        5
176
     1
 90
        0
176
     1
 90
        0
176
     1
290
     0
176
     1
 90
        1
176
     1
 40
0.0
176
     1
 90
        0
176
     1
290
     0
176
     1
290
     1
176
     1
290
     1
176
     1
290
     0
176
     1
290
     0
176
     1
290
     0
176
     1
290
     0
176
     1
290
     0
176
     1
290
     0
176
     1
 90
       50
176
     1
 40
0.0
176
     1
 40
1.0
176
     1
 90
        0
176
     1
 62
    18
420
        0
176
     1
 90
       50
176
     1
 90
        3
176
     1
 62
     5
420
      255
176
     1
290
     0
176
     1
 90
       50
176
     1
 90
       50
176
     1
 90
       50
176
     1
290
     0
176
     1
 90
       50
176
     1
 62
   256
176
     0
 40
1.0
176
     0
 90
        2
176
     1
  1
strokes_ogs.tif
176
     1
290
     0
176
     1
 40
1.0
176
     1
 40
1.0
176
     1
  0
VISUALSTYLE
  5
9E
102
{ACAD_REACTORS
330
99
102
}
330
99
100
AcDbVisualStyle
  2
Basic
 70
     7
177
     3
291
     1
 70
    58
 90
        1
176
     1
 90
        0
176
     1
 90
        1
176
     1
 90
        0
176
     1
 40
0.6
176
     1
 40
30.0
176
     1
 62
     7
420
 16777215
176
     1
 90
        0
176
     1
 90
        4
176
     1
 62
     7
176
     1
 62
   257
176
     1
 90
        1
176
     1
 90
        1
176
     1
 40
1.0
176
     1
 90
        8
176
     1
 62
     7
176
     1
 40
1.0
176
     1
 90
        1
176
     1
 90
        6
176
     1
 90
        2
176
     1
 62
     7
176
     1
 90
        5
176
     1
 90
        0
176
     1
 90
        0
176
     1
290
     0
176
     1
 90
        1
176
     1
 40
0.0
176
     1
 90
        0
176
     1
290
     0
176
     1
290
     1
176
     1
290
     1
176
     1
290
     0
176
     1
290
     0
176
     1
290
     0
176
     1
290
     0
176
     1
290
     0
176
     1
290
     0
176
     1
 90
       50
176
     1
 40
0.0
176
     1
 40
1.0
176
     1
 90
        0
176
     1
 62
    18
420
        0
176
     1
 90
       50
176
     1
 90
        3
176
     1
 62
     5
420
      255
176
     1
290
     0
176
     1
 90
       50
176
     1
 90
       50
176
     1
 90
       50
176
     1
290
     0
176
     1
 90
       50
176
     1
 62
   256
176
     0
 40
1.0
176
     0
 90
        2
176
     1
  1
strokes_ogs.tif
176
     1
290
     0
176
     1
 40
1.0
176
     1
 40
1.0
176
     1
  0
VISUALSTYLE
  5
A5
102
{ACAD_REACTORS
330
99
102
}
330
99
100
AcDbVisualStyle
  2
Brighten
 70
    12
177
     3
291
     1
 70
    58
 90
        2
176
     1
 90
        2
176
     1
 90
        1
176
     1
 90
        0
176
     1
 40
0.6
176
     1
 40
30.0
176
     1
 62
     7
420
 16777215
176
     1
 90
        1
176
     1
 90
        4
176
     1
 62
     7
176
     1
 62
   257
176
     1
 90
        1
176
     1
 90
        1
176
     1
 40
1.0
176
     1
 90
        8
176
     1
 62
     7
176
     1
 40
1.0
176
     1
 90
        1
176
     1
 90
        6
176
     1
 90
        2
176
     1
 62
     7
176
     1
 90
        5
176
     1
 90
        0
176
     1
 90
        0
176
     1
290
     0
176
     1
 90
        1
176
     1
 40
50.0
176
     1
 90
        0
176
     1
290
     0
176
     1
290
     1
176
     1
290
     1
176
     1
290
     0
176
     1
290
     0
176
     1
290
     0
176
     1
290
     0
176
     1
290
     0
176
     1
290
     0
176
     1
 90
       50
176
     1
 40
0.0
176
     1
 40
1.0
176
     1
 90
        0
176
     1
 62
    18
420
        0
176
     1
 90
       50
176
     1
 90
        3
176
     1
 62
     5
420
      255
176
     1
290
     0
176
     1
 90
       50
176
     1
 90
       50
176
     1
 90
       50
176
     1
290
     0
176
     1
 90
       50
176
     1
 62
   256
176
     0
 40
1.0
176
     0
 90
        2
176
     1
  1
strokes_ogs.tif
176
     1
290
     0
176
     1
 40
1.0
176
     1
 40
1.0
176
     1
  0
VISUALSTYLE
  5
A9
102
{ACAD_REACTORS
330
99
102
}
330
99
100
AcDbVisualStyle
  2
ColorChange
 70
    16
177
     3
291
     1
 70
    58
 90
        2
176
     1
 90
        2
176
     1
 90
        3
176
     1
 90
        0
176
     1
 40
0.6
176
     1
 40
30.0
176
     1
 62
     8
420
  8421504
176
     1
 90
        1
176
     1
 90
        4
176
     1
 62
     7
176
     1
 62
   257
176
     1
 90
        1
176
     1
 90
        1
176
     1
 40
1.0
176
     1
 90
        8
176
     1
 62
     8
420
  8421504
176
     1
 40
1.0
176
     1
 90
        1
176
     1
 90
        6
176
     1
 90
        2
176
     1
 62
     7
176
     1
 90
        5
176
     1
 90
        0
176
     1
 90
        0
176
     1
290
     0
176
     1
 90
        1
176
     1
 40
0.0
176
     1
 90
        0
176
     1
290
     0
176
     1
290
     1
176
     1
290
     1
176
     1
290
     0
176
     1
290
     0
176
     1
290
     0
176
     1
290
     0
176
     1
290
     0
176
     1
290
     0
176
     1
 90
       50
176
     1
 40
0.0
176
     1
 40
1.0
176
     1
 90
        0
176
     1
 62
    18
420
        0
176
     1
 90
       50
176
     1
 90
        3
176
     1
 62
     5
420
      255
176
     1
290
     0
176
     1
 90
       50
176
     1
 90
       50
176
     1
 90
       50
176
     1
290
     0
176
     1
 90
       50
176
     1
 62
   256
176
     0
 40
1.0
176
     0
 90
        2
176
     1
  1
strokes_ogs.tif
176
     1
290
     0
176
     1
 40
1.0
176
     1
 40
1.0
176
     1
  0
VISUALSTYLE
  5
A2
102
{ACAD_REACTORS
330
99
102
}
330
99
100
AcDbVisualStyle
  2
Conceptual
 70
     9
177
     3
291
     0
 70
    58
 90
        3
176
     1
 90
        2
176
     1
 90
        1
176
     1
 90
        0
176
     1
 40
0.6
176
     1
 40
30.0
176
     1
 62
     7
420
 16777215
176
     1
 90
        2
176
     1
 90
        2
176
     1
 62
     7
176
     1
 62
   257
176
     1
 90
        1
176
     1
 90
        1
176
     1
 40
40.0
176
     1
 90
        8
176
     1
 62
     7
176
     1
 40
1.0
176
     1
 90
        1
176
     1
 90
        6
176
     1
 90
        2
176
     1
 62
     7
176
     1
 90
        3
176
     1
 90
        0
176
     1
 90
        0
176
     1
290
     0
176
     1
 90
        1
176
     1
 40
0.0
176
     1
 90
        0
176
     1
290
     0
176
     1
290
     1
176
     1
290
     1
176
     1
290
     0
176
     1
290
     0
176
     1
290
     0
176
     1
290
     0
176
     1
290
     0
176
     1
290
     0
176
     1
 90
       50
176
     1
 40
0.0
176
     1
 40
1.0
176
     1
 90
        0
176
     1
 62
    18
420
        0
176
     1
 90
       50
176
     1
 90
        3
176
     1
 62
     5
420
      255
176
     1
290
     0
176
     1
 90
       50
176
     1
 90
       50
176
     1
 90
       50
176
     1
290
     0
176
     1
 90
       50
176
     1
 62
   256
176
     0
 40
1.0
176
     0
 90
        2
176
     1
  1
strokes_ogs.tif
176
     1
290
     0
176
     1
 40
1.0
176
     1
 40
1.0
176
     1
  0
VISUALSTYLE
  5
A4
102
{ACAD_REACTORS
330
99
102
}
330
99
100
AcDbVisualStyle
  2
Dim
 70
    11
177
     3
291
     1
 70
    58
 90
        2
176
     1
 90
        2
176
     1
 90
        1
176
     1
 90
        0
176
     1
 40
0.6
176
     1
 40
30.0
176
     1
 62
     7
420
 16777215
176
     1
 90
        1
176
     1
 90
        4
176
     1
 62
     7
176
     1
 62
   257
176
     1
 90
        1
176
     1
 90
        1
176
     1
 40
1.0
176
     1
 90
        8
176
     1
 62
     7
176
     1
 40
1.0
176
     1
 90
        1
176
     1
 90
        6
176
     1
 90
        2
176
     1
 62
     7
176
     1
 90
        5
176
     1
 90
        0
176
     1
 90
        0
176
     1
290
     0
176
     1
 90
        1
176
     1
 40
-50.0
176
     1
 90
        0
176
     1
290
     0
176
     1
290
     1
176
     1
290
     1
176
     1
290
     0
176
     1
290
     0
176
     1
290
     0
176
     1
290
     0
176
     1
290
     0
176
     1
290
     0
176
     1
 90
       50
176
     1
 40
0.0
176
     1
 40
1.0
176
     1
 90
        0
176
     1
 62
    18
420
        0
176
     1
 90
       50
176
     1
 90
        3
176
     1
 62
     5
420
      255
176
     1
290
     0
176
     1
 90
       50
176
     1
 90
       50
176
     1
 90
       50
176
     1
290
     0
176
     1
 90
       50
176
     1
 62
   256
176
     0
 40
1.0
176
     0
 90
        2
176
     1
  1
strokes_ogs.tif
176
     1
290
     0
176
     1
 40
1.0
176
     1
 40
1.0
176
     1
  0
VISUALSTYLE
  5
175
102
{ACAD_REACTORS
330
99
102
}
330
99
100
AcDbVisualStyle
  2
EdgeColorOff
 70
    22
177
     3
291
     1
 70
    58
 90
        2
176
     0
 90
        2
176
     0
 90
        0
176
     0
 90
        0
176
     0
 40
0.6
176
     0
 40
30.0
176
     0
 62
     7
420
 16777215
176
     0
 90
        1
176
     0
 90
        4
176
     0
 62
     7
176
     0
 62
   257
176
     0
 90
        1
176
     0
 90
        1
176
     0
 40
1.0
176
     0
 90
        8
176
     2
 62
     7
176
     0
 40
1.0
176
     0
 90
        1
176
     0
 90
        6
176
     0
 90
        2
176
     0
 62
     7
176
     0
 90
        5
176
     0
 90
        0
176
     0
 90
        0
176
     0
290
     0
176
     0
 90
        1
176
     0
 40
0.0
176
     0
 90
        0
176
     0
290
     0
176
     1
290
     1
176
     1
290
     1
176
     1
290
     0
176
     1
290
     0
176
     1
290
     0
176
     1
290
     0
176
     1
290
     0
176
     1
290
     0
176
     1
 90
       50
176
     1
 40
0.0
176
     1
 40
1.0
176
     1
 90
        0
176
     1
 62
    18
420
        0
176
     1
 90
       50
176
     1
 90
        3
176
     1
 62
     5
420
      255
176
     1
290
     0
176
     1
 90
       50
176
     1
 90
       50
176
     1
 90
       50
176
     1
290
     0
176
     1
 90
       50
176
     1
 62
   256
176
     0
 40
1.0
176
     0
 90
        2
176
     1
  1
strokes_ogs.tif
176
     1
290
     0
176
     1
 40
1.0
176
     1
 40
1.0
176
     1
  0
VISUALSTYLE
  5
A8
102
{ACAD_REACTORS
330
99
102
}
330
99
100
AcDbVisualStyle
  2
Facepattern
 70
    15
177
     3
291
     1
 70
    58
 90
        2
176
     1
 90
        2
176
     1
 90
        1
176
     1
 90
        0
176
     1
 40
0.6
176
     1
 40
30.0
176
     1
 62
     7
420
 16777215
176
     1
 90
        1
176
     1
 90
        4
176
     1
 62
     7
176
     1
 62
   257
176
     1
 90
        1
176
     1
 90
        1
176
     1
 40
1.0
176
     1
 90
        8
176
     1
 62
     7
176
     1
 40
1.0
176
     1
 90
        1
176
     1
 90
        6
176
     1
 90
        2
176
     1
 62
     7
176
     1
 90
        5
176
     1
 90
        0
176
     1
 90
        0
176
     1
290
     0
176
     1
 90
        1
176
     1
 40
0.0
176
     1
 90
        0
176
     1
290
     0
176
     1
290
     1
176
     1
290
     1
176
     1
290
     0
176
     1
290
     0
176
     1
290
     0
176
     1
290
     0
176
     1
290
     0
176
     1
290
     0
176
     1
 90
       50
176
     1
 40
0.0
176
     1
 40
1.0
176
     1
 90
        0
176
     1
 62
    18
420
        0
176
     1
 90
       50
176
     1
 90
        3
176
     1
 62
     5
420
      255
176
     1
290
     0
176
     1
 90
       50
176
     1
 90
       50
176
     1
 90
       50
176
     1
290
     0
176
     1
 90
       50
176
     1
 62
   256
176
     0
 40
1.0
176
     0
 90
        2
176
     1
  1
strokes_ogs.tif
176
     1
290
     0
176
     1
 40
1.0
176
     1
 40
1.0
176
     1
  0
VISUALSTYLE
  5
9A
102
{ACAD_REACTORS
330
99
102
}
330
99
100
AcDbVisualStyle
  2
Flat
 70
     0
177
     3
291
     1
 70
    58
 90
        2
176
     1
 90
        1
176
     1
 90
        1
176
     1
 90
        2
176
     1
 40
0.6
176
     1
 40
30.0
176
     1
 62
     7
420
 16777215
176
     1
 90
        0
176
     1
 90
        0
176
     1
 62
     7
176
     1
 62
   257
176
     1
 90
        1
176
     1
 90
        1
176
     1
 40
1.0
176
     1
 90
        8
176
     1
 62
     7
176
     1
 40
1.0
176
     1
 90
        1
176
     1
 90
        6
176
     1
 90
        2
176
     1
 62
     7
176
     1
 90
        5
176
     1
 90
        0
176
     1
 90
        0
176
     1
290
     0
176
     1
 90
       13
176
     1
 40
0.0
176
     1
 90
        0
176
     1
290
     0
176
     1
290
     1
176
     1
290
     1
176
     1
290
     0
176
     1
290
     0
176
     1
290
     0
176
     1
290
     0
176
     1
290
     0
176
     1
290
     0
176
     1
 90
       50
176
     1
 40
0.0
176
     1
 40
1.0
176
     1
 90
        0
176
     1
 62
    18
420
        0
176
     1
 90
       50
176
     1
 90
        3
176
     1
 62
     5
420
      255
176
     1
290
     0
176
     1
 90
       50
176
     1
 90
       50
176
     1
 90
       50
176
     1
290
     0
176
     1
 90
       50
176
     1
 62
   256
176
     0
 40
1.0
176
     0
 90
        2
176
     1
  1
strokes_ogs.tif
176
     1
290
     0
176
     1
 40
1.0
176
     1
 40
1.0
176
     1
  0
VISUALSTYLE
  5
9B
102
{ACAD_REACTORS
330
99
102
}
330
99
100
AcDbVisualStyle
  2
FlatWithEdges
 70
     1
177
     3
291
     1
 70
    58
 90
        2
176
     1
 90
        1
176
     1
 90
        1
176
     1
 90
        2
176
     1
 40
0.6
176
     1
 40
30.0
176
     1
 62
     7
420
 16777215
176
     1
 90
        1
176
     1
 90
        0
176
     1
 62
     7
176
     1
 62
   257
176
     1
 90
        1
176
     1
 90
        1
176
     1
 40
1.0
176
     1
 90
        0
176
     1
 62
   257
176
     1
 40
1.0
176
     1
 90
        1
176
     1
 90
        6
176
     1
 90
        2
176
     1
 62
     7
176
     1
 90
        5
176
     1
 90
        0
176
     1
 90
        0
176
     1
290
     0
176
     1
 90
       13
176
     1
 40
0.0
176
     1
 90
        0
176
     1
290
     0
176
     1
290
     1
176
     1
290
     1
176
     1
290
     0
176
     1
290
     0
176
     1
290
     0
176
     1
290
     0
176
     1
290
     0
176
     1
290
     0
176
     1
 90
       50
176
     1
 40
0.0
176
     1
 40
1.0
176
     1
 90
        0
176
     1
 62
    18
420
        0
176
     1
 90
       50
176
     1
 90
        3
176
     1
 62
     5
420
      255
176
     1
290
     0
176
     1
 90
       50
176
     1
 90
       50
176
     1
 90
       50
176
     1
290
     0
176
     1
 90
       50
176
     1
 62
   256
176
     0
 40
1.0
176
     0
 90
        2
176
     1
  1
strokes_ogs.tif
176
     1
290
     0
176
     1
 40
1.0
176
     1
 40
1.0
176
     1
  0
VISUALSTYLE
  5
9C
102
{ACAD_REACTORS
330
99
102
}
330
99
100
AcDbVisualStyle
  2
Gouraud
 70
     2
177
     3
291
     1
 70
    58
 90
        2
176
     1
 90
        2
176
     1
 90
        1
176
     1
 90
        2
176
     1
 40
0.6
176
     1
 40
30.0
176
     1
 62
     7
420
 16777215
176
     1
 90
        0
176
     1
 90
        0
176
     1
 62
     7
176
     1
 62
   257
176
     1
 90
        1
176
     1
 90
        1
176
     1
 40
1.0
176
     1
 90
        0
176
     1
 62
     7
176
     1
 40
1.0
176
     1
 90
        1
176
     1
 90
        6
176
     1
 90
        2
176
     1
 62
     7
176
     1
 90
        5
176
     1
 90
        0
176
     1
 90
        0
176
     1
290
     0
176
     1
 90
       13
176
     1
 40
0.0
176
     1
 90
        0
176
     1
290
     0
176
     1
290
     1
176
     1
290
     1
176
     1
290
     0
176
     1
290
     0
176
     1
290
     0
176
     1
290
     0
176
     1
290
     0
176
     1
290
     0
176
     1
 90
       50
176
     1
 40
0.0
176
     1
 40
1.0
176
     1
 90
        0
176
     1
 62
    18
420
        0
176
     1
 90
       50
176
     1
 90
        3
176
     1
 62
     5
420
      255
176
     1
290
     0
176
     1
 90
       50
176
     1
 90
       50
176
     1
 90
       50
176
     1
290
     0
176
     1
 90
       50
176
     1
 62
   256
176
     0
 40
1.0
176
     0
 90
        2
176
     1
  1
strokes_ogs.tif
176
     1
290
     0
176
     1
 40
1.0
176
     1
 40
1.0
176
     1
  0
VISUALSTYLE
  5
9D
102
{ACAD_REACTORS
330
99
102
}
330
99
100
AcDbVisualStyle
  2
GouraudWithEdges
 70
     3
177
     3
291
     1
 70
    58
 90
        2
176
     1
 90
        2
176
     1
 90
        1
176
     1
 90
        2
176
     1
 40
0.6
176
     1
 40
30.0
176
     1
 62
     7
420
 16777215
176
     1
 90
        1
176
     1
 90
        0
176
     1
 62
     7
176
     1
 62
   257
176
     1
 90
        1
176
     1
 90
        1
176
     1
 40
1.0
176
     1
 90
        0
176
     1
 62
   257
176
     1
 40
1.0
176
     1
 90
        1
176
     1
 90
        6
176
     1
 90
        2
176
     1
 62
     7
176
     1
 90
        5
176
     1
 90
        0
176
     1
 90
        0
176
     1
290
     0
176
     1
 90
       13
176
     1
 40
0.0
176
     1
 90
        0
176
     1
290
     0
176
     1
290
     1
176
     1
290
     1
176
     1
290
     0
176
     1
290
     0
176
     1
290
     0
176
     1
290
     0
176
     1
290
     0
176
     1
290
     0
176
     1
 90
       50
176
     1
 40
0.0
176
     1
 40
1.0
176
     1
 90
        0
176
     1
 62
    18
420
        0
176
     1
 90
       50
176
     1
 90
        3
176
     1
 62
     5
420
      255
176
     1
290
     0
176
     1
 90
       50
176
     1
 90
       50
176
     1
 90
       50
176
     1
290
     0
176
     1
 90
       50
176
     1
 62
   256
176
     0
 40
1.0
176
     0
 90
        2
176
     1
  1
strokes_ogs.tif
176
     1
290
     0
176
     1
 40
1.0
176
     1
 40
1.0
176
     1
  0
VISUALSTYLE
  5
A1
102
{ACAD_REACTORS
330
99
102
}
330
99
100
AcDbVisualStyle
  2
Hidden
 70
     6
177
     3
291
     0
 70
    58
 90
        1
176
     1
 90
        2
176
     1
 90
        2
176
     1
 90
        0
176
     1
 40
0.6
176
     1
 40
30.0
176
     1
 62
     7
420
 16777215
176
     1
 90
        2
176
     1
 90
        2
176
     1
 62
     7
176
     1
 62
   257
176
     1
 90
        2
176
     1
 90
        1
176
     1
 40
40.0
176
     1
 90
        0
176
     1
 62
   257
176
     1
 40
1.0
176
     1
 90
        1
176
     1
 90
        6
176
     1
 90
        2
176
     1
 62
     7
176
     1
 90
        3
176
     1
 90
        0
176
     1
 90
        0
176
     1
290
     0
176
     1
 90
        1
176
     1
 40
0.0
176
     1
 90
        0
176
     1
290
     0
176
     1
290
     1
176
     1
290
     1
176
     1
290
     0
176
     1
290
     0
176
     1
290
     0
176
     1
290
     0
176
     1
290
     0
176
     1
290
     0
176
     1
 90
       50
176
     1
 40
0.0
176
     1
 40
1.0
176
     1
 90
        0
176
     1
 62
    18
420
        0
176
     1
 90
       50
176
     1
 90
        3
176
     1
 62
     5
420
      255
176
     1
290
     0
176
     1
 90
       50
176
     1
 90
       50
176
     1
 90
       50
176
     1
290
     0
176
     1
 90
       50
176
     1
 62
   256
176
     0
 40
1.0
176
     0
 90
        2
176
     1
  1
strokes_ogs.tif
176
     1
290
     0
176
     1
 40
1.0
176
     1
 40
1.0
176
     1
  0
VISUALSTYLE
  5
173
102
{ACAD_REACTORS
330
99
102
}
330
99
100
AcDbVisualStyle
  2
JitterOff
 70
    20
177
     3
291
     1
 70
    58
 90
        2
176
     0
 90
        2
176
     0
 90
        0
176
     0
 90
        0
176
     0
 40
0.6
176
     0
 40
30.0
176
     0
 62
     7
420
 16777215
176
     0
 90
        1
176
     0
 90
        4
176
     0
 62
     7
176
     0
 62
   257
176
     0
 90
        1
176
     0
 90
        1
176
     0
 40
1.0
176
     0
 90
       10
176
     2
 62
     7
176
     0
 40
1.0
176
     0
 90
        1
176
     0
 90
        6
176
     0
 90
        2
176
     0
 62
     7
176
     0
 90
        5
176
     0
 90
        0
176
     0
 90
        0
176
     0
290
     0
176
     0
 90
        1
176
     0
 40
0.0
176
     0
 90
        0
176
     0
290
     0
176
     1
290
     1
176
     1
290
     1
176
     1
290
     0
176
     1
290
     0
176
     1
290
     0
176
     1
290
     0
176
     1
290
     0
176
     1
290
     0
176
     1
 90
       50
176
     1
 40
0.0
176
     1
 40
1.0
176
     1
 90
        0
176
     1
 62
    18
420
        0
176
     1
 90
       50
176
     1
 90
        3
176
     1
 62
     5
420
      255
176
     1
290
     0
176
     1
 90
       50
176
     1
 90
       50
176
     1
 90
       50
176
     1
290
     0
176
     1
 90
       50
176
     1
 62
   256
176
     0
 40
1.0
176
     0
 90
        2
176
     1
  1
strokes_ogs.tif
176
     1
290
     0
176
     1
 40
1.0
176
     1
 40
1.0
176
     1
  0
VISUALSTYLE
  5
A7
102
{ACAD_REACTORS
330
99
102
}
330
99
100
AcDbVisualStyle
  2
Linepattern
 70
    14
177
     3
291
     1
 70
    58
 90
        2
176
     1
 90
        2
176
     1
 90
        1
176
     1
 90
        0
176
     1
 40
0.6
176
     1
 40
30.0
176
     1
 62
     7
420
 16777215
176
     1
 90
        1
176
     1
 90
        4
176
     1
 62
     7
176
     1
 62
   257
176
     1
 90
        7
176
     1
 90
        7
176
     1
 40
1.0
176
     1
 90
        8
176
     1
 62
     7
176
     1
 40
1.0
176
     1
 90
        1
176
     1
 90
        6
176
     1
 90
        2
176
     1
 62
     7
176
     1
 90
        5
176
     1
 90
        0
176
     1
 90
        0
176
     1
290
     0
176
     1
 90
        1
176
     1
 40
0.0
176
     1
 90
        0
176
     1
290
     0
176
     1
290
     1
176
     1
290
     1
176
     1
290
     0
176
     1
290
     0
176
     1
290
     0
176
     1
290
     0
176
     1
290
     0
176
     1
290
     0
176
     1
 90
       50
176
     1
 40
0.0
176
     1
 40
1.0
176
     1
 90
        0
176
     1
 62
    18
420
        0
176
     1
 90
       50
176
     1
 90
        3
176
     1
 62
     5
420
      255
176
     1
290
     0
176
     1
 90
       50
176
     1
 90
       50
176
     1
 90
       50
176
     1
290
     0
176
     1
 90
       50
176
     1
 62
   256
176
     0
 40
1.0
176
     0
 90
        2
176
     1
  1
strokes_ogs.tif
176
     1
290
     0
176
     1
 40
1.0
176
     1
 40
1.0
176
     1
  0
VISUALSTYLE
  5
174
102
{ACAD_REACTORS
330
99
102
}
330
99
100
AcDbVisualStyle
  2
OverhangOff
 70
    21
177
     3
291
     1
 70
    58
 90
        2
176
     0
 90
        2
176
     0
 90
        0
176
     0
 90
        0
176
     0
 40
0.6
176
     0
 40
30.0
176
     0
 62
     7
420
 16777215
176
     0
 90
        1
176
     0
 90
        4
176
     0
 62
     7
176
     0
 62
   257
176
     0
 90
        1
176
     0
 90
        1
176
     0
 40
1.0
176
     0
 90
        9
176
     2
 62
     7
176
     0
 40
1.0
176
     0
 90
        1
176
     0
 90
        6
176
     0
 90
        2
176
     0
 62
     7
176
     0
 90
        5
176
     0
 90
        0
176
     0
 90
        0
176
     0
290
     0
176
     0
 90
        1
176
     0
 40
0.0
176
     0
 90
        0
176
     0
290
     0
176
     1
290
     1
176
     1
290
     1
176
     1
290
     0
176
     1
290
     0
176
     1
290
     0
176
     1
290
     0
176
     1
290
     0
176
     1
290
     0
176
     1
 90
       50
176
     1
 40
0.0
176
     1
 40
1.0
176
     1
 90
        0
176
     1
 62
    18
420
        0
176
     1
 90
       50
176
     1
 90
        3
176
     1
 62
     5
420
      255
176
     1
290
     0
176
     1
 90
       50
176
     1
 90
       50
176
     1
 90
       50
176
     1
290
     0
176
     1
 90
       50
176
     1
 62
   256
176
     0
 40
1.0
176
     0
 90
        2
176
     1
  1
strokes_ogs.tif
176
     1
290
     0
176
     1
 40
1.0
176
     1
 40
1.0
176
     1
  0
VISUALSTYLE
  5
A3
102
{ACAD_REACTORS
330
99
102
}
330
99
100
AcDbVisualStyle
  2
Realistic
 70
     8
177
     3
291
     0
 70
    58
 90
        2
176
     1
 90
        2
176
     1
 90
        0
176
     1
 90
        2
176
     1
 40
0.6
176
     1
 40
30.0
176
     1
 62
     7
420
 16777215
176
     1
 90
        0
176
     1
 90
        0
176
     1
 62
     7
176
     1
 62
   257
176
     1
 90
        1
176
     1
 90
        1
176
     1
 40
1.0
176
     1
 90
        8
176
     1
 62
   257
176
     1
 40
1.0
176
     1
 90
        1
176
     1
 90
        6
176
     1
 90
        2
176
     1
 62
     7
176
     1
 90
        3
176
     1
 90
        0
176
     1
 90
        0
176
     1
290
     0
176
     1
 90
       13
176
     1
 40
0.0
176
     1
 90
        0
176
     1
290
     0
176
     1
290
     1
176
     1
290
     1
176
     1
290
     0
176
     1
290
     0
176
     1
290
     0
176
     1
290
     0
176
     1
290
     0
176
     1
290
     0
176
     1
 90
       50
176
     1
 40
0.0
176
     1
 40
1.0
176
     1
 90
        0
176
     1
 62
    18
420
        0
176
     1
 90
       50
176
     1
 90
        3
176
     1
 62
     5
420
      255
176
     1
290
     0
176
     1
 90
       50
176
     1
 90
       50
176
     1
 90
       50
176
     1
290
     0
176
     1
 90
       50
176
     1
 62
   256
176
     0
 40
1.0
176
     0
 90
        2
176
     1
  1
strokes_ogs.tif
176
     1
290
     0
176
     1
 40
1.0
176
     1
 40
1.0
176
     1
  0
VISUALSTYLE
  5
182
102
{ACAD_REACTORS
330
99
102
}
330
99
100
AcDbVisualStyle
  2
Shaded
 70
    27
177
     3
291
     0
 70
    58
 90
        2
176
     1
 90
        2
176
     1
 90
        1
176
     1
 90
        2
176
     1
 40
0.6
176
     1
 40
30.0
176
     1
 62
     7
420
 16777215
176
     1
 90
        0
176
     1
 90
        4
176
     1
 62
     7
176
     1
 62
   257
176
     1
 90
        1
176
     1
 90
        1
176
     1
 40
1.0
176
     1
 90
        8
176
     1
 62
   257
176
     1
 40
1.0
176
     1
 90
        1
176
     1
 90
        6
176
     1
 90
        2
176
     1
 62
     8
420
  7895160
176
     1
 90
        3
176
     1
 90
        0
176
     1
 90
        0
176
     1
290
     0
176
     1
 90
        5
176
     1
 40
0.0
176
     1
 90
        0
176
     1
290
     0
176
     1
290
     1
176
     1
290
     1
176
     1
290
     0
176
     1
290
     0
176
     1
290
     0
176
     1
290
     0
176
     1
290
     0
176
     1
290
     0
176
     1
 90
       50
176
     1
 40
0.0
176
     1
 40
1.0
176
     1
 90
        0
176
     1
 62
    18
420
        0
176
     1
 90
       50
176
     1
 90
        3
176
     1
 62
     5
420
      255
176
     1
290
     0
176
     1
 90
       50
176
     1
 90
       50
176
     1
 90
       50
176
     1
290
     0
176
     1
 90
       50
176
     1
 62
   256
176
     0
 40
1.0
176
     0
 90
        2
176
     1
  1
strokes_ogs.tif
176
     1
290
     0
176
     1
 40
1.0
176
     1
 40
1.0
176
     1
  0
VISUALSTYLE
  5
181
102
{ACAD_REACTORS
330
99
102
}
330
99
100
AcDbVisualStyle
  2
Shaded with edges
 70
    26
177
     3
291
     0
 70
    58
 90
        2
176
     1
 90
        2
176
     1
 90
        1
176
     1
 90
        2
176
     1
 40
0.6
176
     1
 40
30.0
176
     1
 62
     7
420
 16777215
176
     1
 90
        1
176
     1
 90
        2
176
     1
 62
     7
176
     1
 62
   257
176
     1
 90
        2
176
     1
 90
        1
176
     1
 40
1.0
176
     1
 90
        8
176
     1
 62
   257
176
     1
 40
1.0
176
     1
 90
        1
176
     1
 90
        6
176
     1
 90
        2
176
     1
 62
     7
176
     1
 90
        3
176
     1
 90
        0
176
     1
 90
        0
176
     1
290
     0
176
     1
 90
        5
176
     1
 40
0.0
176
     1
 90
        0
176
     1
290
     0
176
     1
290
     1
176
     1
290
     1
176
     1
290
     0
176
     1
290
     0
176
     1
290
     0
176
     1
290
     0
176
     1
290
     0
176
     1
290
     0
176
     1
 90
       50
176
     1
 40
0.0
176
     1
 40
1.0
176
     1
 90
        0
176
     1
 62
    18
420
        0
176
     1
 90
       50
176
     1
 90
        3
176
     1
 62
     5
420
      255
176
     1
290
     0
176
     1
 90
       50
176
     1
 90
       50
176
     1
 90
       50
176
     1
290
     0
176
     1
 90
       50
176
     1
 62
   256
176
     0
 40
1.0
176
     0
 90
        2
176
     1
  1
strokes_ogs.tif
176
     1
290
     0
176
     1
 40
1.0
176
     1
 40
1.0
176
     1
  0
VISUALSTYLE
  5
17E
102
{ACAD_REACTORS
330
99
102
}
330
99
100
AcDbVisualStyle
  2
Shades of Gray
 70
    23
177
     3
291
     0
 70
    58
 90
        2
176
     1
 90
        2
176
     1
 90
        3
176
     1
 90
        0
176
     1
 40
0.6
176
     1
 40
30.0
176
     1
 62
     7
420
 16777215
176
     1
 90
        2
176
     1
 90
        2
176
     1
 62
     7
176
     1
 62
     7
176
     1
 90
        1
176
     1
 90
        1
176
     1
 40
40.0
176
     1
 90
        8
176
     1
 62
     7
176
     1
 40
1.0
176
     1
 90
        1
176
     1
 90
        6
176
     1
 90
        2
176
     1
 62
     7
176
     1
 90
        3
176
     1
 90
        0
176
     1
 90
        0
176
     1
290
     0
176
     1
 90
        1
176
     1
 40
0.0
176
     1
 90
        0
176
     1
290
     0
176
     1
290
     1
176
     1
290
     1
176
     1
290
     0
176
     1
290
     0
176
     1
290
     0
176
     1
290
     0
176
     1
290
     0
176
     1
290
     0
176
     1
 90
       50
176
     1
 40
0.0
176
     1
 40
1.0
176
     1
 90
        0
176
     1
 62
    18
420
        0
176
     1
 90
       50
176
     1
 90
        3
176
     1
 62
     5
420
      255
176
     1
290
     0
176
     1
 90
       50
176
     1
 90
       50
176
     1
 90
       50
176
     1
290
     0
176
     1
 90
       50
176
     1
 62
   256
176
     0
 40
1.0
176
     0
 90
        2
176
     1
  1
strokes_ogs.tif
176
     1
290
     0
176
     1
 40
1.0
176
     1
 40
1.0
176
     1
  0
VISUALSTYLE
  5
17F
102
{ACAD_REACTORS
330
99
102
}
330
99
100
AcDbVisualStyle
  2
Sketchy
 70
    24
177
     3
291
     0
 70
    58
 90
        1
176
     1
 90
        2
176
     1
 90
        2
176
     1
 90
        0
176
     1
 40
0.6
176
     1
 40
30.0
176
     1
 62
     7
420
 16777215
176
     1
 90
        2
176
     1
 90
        2
176
     1
 62
     7
176
     1
 62
     7
176
     1
 90
        1
176
     1
 90
        1
176
     1
 40
40.0
176
     1
 90
       11
176
     1
 62
     7
176
     1
 40
1.0
176
     1
 90
        1
176
     1
 90
        6
176
     1
 90
        2
176
     1
 62
     7
176
     1
 90
        6
176
     1
 90
        0
176
     1
 90
        0
176
     1
290
     0
176
     1
 90
        1
176
     1
 40
0.0
176
     1
 90
        0
176
     1
290
     0
176
     1
290
     1
176
     1
290
     1
176
     1
290
     0
176
     1
290
     0
176
     1
290
     0
176
     1
290
     0
176
     1
290
     0
176
     1
290
     0
176
     1
 90
       50
176
     1
 40
0.0
176
     1
 40
1.0
176
     1
 90
        0
176
     1
 62
    18
420
        0
176
     1
 90
       50
176
     1
 90
        3
176
     1
 62
     5
420
      255
176
     1
290
     0
176
     1
 90
       50
176
     1
 90
       50
176
     1
 90
       50
176
     1
290
     0
176
     1
 90
       50
176
     1
 62
   256
176
     0
 40
1.0
176
     0
 90
        2
176
     1
  1
strokes_ogs.tif
176
     1
290
     0
176
     1
 40
1.0
176
     1
 40
1.0
176
     1
  0
VISUALSTYLE
  5
A6
102
{ACAD_REACTORS
330
99
102
}
330
99
100
AcDbVisualStyle
  2
Thicken
 70
    13
177
     3
291
     1
 70
    58
 90
        2
176
     1
 90
        2
176
     1
 90
        1
176
     1
 90
        0
176
     1
 40
0.6
176
     1
 40
30.0
176
     1
 62
     7
420
 16777215
176
     1
 90
        1
176
     1
 90
        4
176
     1
 62
     7
176
     1
 62
   257
176
     1
 90
        1
176
     1
 90
        1
176
     1
 40
1.0
176
     1
 90
       12
176
     1
 62
     7
176
     1
 40
1.0
176
     1
 90
        1
176
     1
 90
        6
176
     1
 90
        2
176
     1
 62
     7
176
     1
 90
        5
176
     1
 90
        0
176
     1
 90
        0
176
     1
290
     0
176
     1
 90
        1
176
     1
 40
0.0
176
     1
 90
        0
176
     1
290
     0
176
     1
290
     1
176
     1
290
     1
176
     1
290
     0
176
     1
290
     0
176
     1
290
     0
176
     1
290
     0
176
     1
290
     0
176
     1
290
     0
176
     1
 90
       50
176
     1
 40
0.0
176
     1
 40
1.0
176
     1
 90
        0
176
     1
 62
    18
420
        0
176
     1
 90
       50
176
     1
 90
        3
176
     1
 62
     5
420
      255
176
     1
290
     0
176
     1
 90
       50
176
     1
 90
       50
176
     1
 90
       50
176
     1
290
     0
176
     1
 90
       50
176
     1
 62
   256
176
     0
 40
1.0
176
     0
 90
        2
176
     1
  1
strokes_ogs.tif
176
     1
290
     0
176
     1
 40
1.0
176
     1
 40
1.0
176
     1
  0
VISUALSTYLE
  5
A0
102
{ACAD_REACTORS
330
99
102
}
330
99
100
AcDbVisualStyle
  2
Wireframe
 70
     5
177
     3
291
     0
 70
    58
 90
        0
176
     1
 90
        2
176
     1
 90
        0
176
     1
 90
        0
176
     1
 40
0.6
176
     1
 40
30.0
176
     1
 62
     7
420
 16777215
176
     1
 90
        1
176
     1
 90
        4
176
     1
 62
     7
176
     1
 62
   257
176
     1
 90
        1
176
     1
 90
        1
176
     1
 40
1.0
176
     1
 90
        0
176
     1
 62
   257
176
     1
 40
1.0
176
     1
 90
        1
176
     1
 90
        6
176
     1
 90
        2
176
     1
 62
     7
176
     1
 90
        3
176
     1
 90
        0
176
     1
 90
        0
176
     1
290
     0
176
     1
 90
        1
176
     1
 40
0.0
176
     1
 90
        0
176
     1
290
     0
176
     1
290
     1
176
     1
290
     1
176
     1
290
     0
176
     1
290
     0
176
     1
290
     0
176
     1
290
     0
176
     1
290
     0
176
     1
290
     0
176
     1
 90
       50
176
     1
 40
0.0
176
     1
 40
1.0
176
     1
 90
        0
176
     1
 62
    18
420
        0
176
     1
 90
       50
176
     1
 90
        3
176
     1
 62
     5
420
      255
176
     1
290
     0
176
     1
 90
       50
176
     1
 90
       50
176
     1
 90
       50
176
     1
290
     0
176
     1
 90
       50
176
     1
 62
   256
176
     0
 40
1.0
176
     0
 90
        2
176
     1
  1
strokes_ogs.tif
176
     1
290
     0
176
     1
 40
1.0
176
     1
 40
1.0
176
     1
  0
VISUALSTYLE
  5
180
102
{ACAD_REACTORS
330
99
102
}
330
99
100
AcDbVisualStyle
  2
X-Ray
 70
    25
177
     3
291
     0
 70
    58
 90
        2
176
     1
 90
        2
176
     1
 90
        1
176
     1
 90
        1
176
     1
 40
0.5
176
     1
 40
30.0
176
     1
 62
     7
420
 16777215
176
     1
 90
        1
176
     1
 90
        0
176
     1
 62
     7
176
     1
 62
   257
176
     1
 90
        1
176
     1
 90
        1
176
     1
 40
1.0
176
     1
 90
        8
176
     1
 62
     7
176
     1
 40
1.0
176
     1
 90
        1
176
     1
 90
        6
176
     1
 90
        2
176
     1
 62
     7
176
     1
 90
        3
176
     1
 90
        0
176
     1
 90
        0
176
     1
290
     0
176
     1
 90
       13
176
     1
 40
0.0
176
     1
 90
        0
176
     1
290
     0
176
     1
290
     1
176
     1
290
     1
176
     1
290
     0
176
     1
290
     0
176
     1
290
     0
176
     1
290
     0
176
     1
290
     0
176
     1
290
     0
176
     1
 90
       50
176
     1
 40
0.0
176
     1
 40
1.0
176
     1
 90
        0
176
     1
 62
    18
420
        0
176
     1
 90
       50
176
     1
 90
        3
176
     1
 62
     5
420
      255
176
     1
290
     0
176
     1
 90
       50
176
     1
 90
       50
176
     1
 90
       50
176
     1
290
     0
176
     1
 90
       50
176
     1
 62
   256
176
     0
 40
1.0
176
     0
 90
        2
176
     1
  1
strokes_ogs.tif
176
     1
290
     0
176
     1
 40
1.0
176
     1
 40
1.0
176
     1
  0
DICTIONARYVAR
  5
4F937
102
{ACAD_REACTORS
330
4F936
102
}
330
4F936
100
DictionaryVariables
280
     0
  1
0.500000
  0
DICTIONARYVAR
  5
4F938
102
{ACAD_REACTORS
330
4F936
102
}
330
4F936
100
DictionaryVariables
280
     0
  1
1
  0
DICTIONARYVAR
  5
4F939
102
{ACAD_REACTORS
330
4F936
102
}
330
4F936
100
DictionaryVariables
280
     0
  1
0
  0
DICTIONARYVAR
  5
4F93A
102
{ACAD_REACTORS
330
4F936
102
}
330
4F936
100
DictionaryVariables
280
     0
  1
1:1
  0
DICTIONARYVAR
  5
4F93B
102
{ACAD_REACTORS
330
4F936
102
}
330
4F936
100
DictionaryVariables
280
     0
  1
STANDARD
  0
DICTIONARYVAR
  5
4F93C
102
{ACAD_REACTORS
330
4F936
102
}
330
4F936
100
DictionaryVariables
280
     0
  1
STANDARD
  0
DICTIONARYVAR
  5
4F93D
102
{ACAD_REACTORS
330
4F936
102
}
330
4F936
100
DictionaryVariables
280
     0
  1
Imperial24
  0
DICTIONARYVAR
  5
4F93E
102
{ACAD_REACTORS
330
4F936
102
}
330
4F936
100
DictionaryVariables
280
     0
  1
Imperial24
  0
DICTIONARYVAR
  5
4F93F
102
{ACAD_REACTORS
330
4F936
102
}
330
4F936
100
DictionaryVariables
280
     0
  1
0
  0
DICTIONARYVAR
  5
4F940
102
{ACAD_REACTORS
330
4F936
102
}
330
4F936
100
DictionaryVariables
280
     0
  1
2
  0
DICTIONARYVAR
  5
4F941
102
{ACAD_REACTORS
330
4F936
102
}
330
4F936
100
DictionaryVariables
280
     0
  1
1
  0
DICTIONARYVAR
  5
4F942
102
{ACAD_REACTORS
330
4F936
102
}
330
4F936
100
DictionaryVariables
280
     0
  1
BYLAYER
  0
DICTIONARYVAR
  5
4F943
102
{ACAD_REACTORS
330
4F936
102
}
330
4F936
100
DictionaryVariables
280
     0
  1
0
  0
DICTIONARYVAR
  5
4F944
102
{ACAD_REACTORS
330
4F936
102
}
330
4F936
100
DictionaryVariables
280
     0
  1
K-Hatch
  0
DICTIONARYVAR
  5
4F945
102
{ACAD_REACTORS
330
4F936
102
}
330
4F936
100
DictionaryVariables
280
     0
  1
ByLayer
  0
DICTIONARYVAR
  5
4F946
102
{ACAD_REACTORS
330
4F936
102
}
330
4F936
100
DictionaryVariables
280
     0
  1
0
  0
DICTIONARYVAR
  5
4F947
102
{ACAD_REACTORS
330
4F936
102
}
330
4F936
100
DictionaryVariables
280
     0
  1
0
  0
DICTIONARYVAR
  5
4F948
102
{ACAD_REACTORS
330
4F936
102
}
330
4F936
100
DictionaryVariables
280
     0
  1
0
  0
DICTIONARYVAR
  5
4F949
102
{ACAD_REACTORS
330
4F936
102
}
330
4F936
100
DictionaryVariables
280
     0
  1
2
  0
DICTIONARYVAR
  5
4F94A
102
{ACAD_REACTORS
330
4F936
102
}
330
4F936
100
DictionaryVariables
280
     0
  1
1.000000
  0
DICTIONARYVAR
  5
4F94B
102
{ACAD_REACTORS
330
4F936
102
}
330
4F936
100
DictionaryVariables
280
     0
  1
1
  0
DICTIONARYVAR
  5
4F94C
102
{ACAD_REACTORS
330
4F936
102
}
330
4F936
100
DictionaryVariables
280
     0
  1
2
  0
DICTIONARYVAR
  5
4F94D
102
{ACAD_REACTORS
330
4F936
102
}
330
4F936
100
DictionaryVariables
280
     0
  1
1
  0
DICTIONARYVAR
  5
4F94E
102
{ACAD_REACTORS
330
4F936
102
}
330
4F936
100
DictionaryVariables
280
     0
  1
0
  0
DICTIONARYVAR
  5
4F94F
102
{ACAD_REACTORS
330
4F936
102
}
330
4F936
100
DictionaryVariables
280
     0
  1
127
  0
DICTIONARY
  5
194
330
22
100
AcDbDictionary
280
     1
281
     1
  0
DICTIONARY
  5
188
330
97
100
AcDbDictionary
280
     1
281
     1
  3
FBXASSET
360
189
  0
DICTIONARY
  5
186
330
96
100
AcDbDictionary
280
     1
281
     1
  3
FBXASSET
360
187
  0
DICTIONARY
  5
110
330
98
100
AcDbDictionary
280
     1
281
     1
  3
BUMPTILE
360
112
  3
DIFFUSETILE
360
111
  3
FBXASSET
360
18A
  3
OPACITYTILE
360
113
  3
REFLECTIONTILE
360
114
  0
DICTIONARY
  5
104
330
87
100
AcDbDictionary
280
     1
281
     1
  3
ACAD_ROUNDTRIP_2008_TABLESTYLE_CELLSTYLEMAP
360
4FAA7
  0
XRECORD
  5
189
102
{ACAD_REACTORS
330
188
102
}
330
188
100
AcDbXrecord
280
     1
 70
     1
 90
429727718
  1
508B35C9-AEE7-456F-BE74-D52651303AC6
310
504B03040A0000080000B670623B3DEE336E79000000790000001B0000006175746F6465736B2D64657369676E2D7061636B6167652E786D6C3C3F786D6C2076657273696F6E3D22312E302220656E636F64696E673D227574662D3822203F3E3C666F726D6174733E3C666F726D61743E687474703A2F2F736368656D612E
310
6175746F6465736B2E636F6D2F64657369676E2D7061636B6167652F323030393C2F666F726D61743E3C2F666F726D6174733E504B0304140006080800B670623BD486FD9CA0000000F4000000130000005B436F6E74656E745F54797065735D2E786D6C7D8EC10E82300C865F65E91D8A1E8C310C0EEA1BF002731658846E
310
D98AC1B77784ABF1D8FE5FBFBF75BBCE937A534CCEB38643598122B6FEE978D0B0485F9C41B54DDD7D022595594E1A469170414C76A4D9A4D207E29CF43ECE46F218070CC6BECC4078ACAA135ACF422C856C0E68EA1BF5669944DDD7BCDE7B1F8E415D77AECB980613C2E4AC91FC167A2B244592486606FC29C8FD7F045B9A
310
EF7053A7E60B504B0304140006080800B670623B28ED286BEB0000007C01000008000000636F72652E786D6C8D90416EC3201045AF82665B6183218D6D61A254764FD00B204C5C94182C03558F5F9C3852BBEB6A467FFE9B197D71FA9E6FE8CBACC17AD7012D0820E3B41FAD9B3A48F1826B40272956EFE32F1B20A766D3C1
310
268314D3EAD3B24BDABB685CCCAAF3A3D94515828980F42D371D04FD696655A814B3235C8B45E9AB9A4C419F5D8653B2237A1CB163DE672FD6AC209BF3C08E0D1B30EB19C3FC9D72FCC6EB231EFA33EDE96BDD341517E5064B11EDFCBCAF57A3A2194156843498524CAA0FCA5B7268F9E185D42D21A2DCEC7FA0B48CFF8492
310
759155FBBB0F2C80A4F991FB408A72CB22977B50B96EB9C91F504B0304140006080800B670623B55019EA25F0000007C00000007000000636E782E786D6C4DCB3B0E80201045D1AD90E915ED2CF8AC45050C11660C8261F98AB1B07AC9C97D42D718D865D3E909258CFD00CCE24AC6E326A164D74DC0B4128928FF32603847
310
2BA13128B1252AC747C6BAB984FC68F0B87FE8960A5C09FE86CFB69FBA01504B0304140006080800B670623B7BC41AC871010000D40300000C0000006662782F636F72652E786D6CC553ED6E8320147D15C2DF4501B56B6D90A64BBB27D80B50A5CE54C120983EFEAE1F4DD7A56BBA5FF3879273EEE59E7310BE393735EA95
310
ED2AA333CC428A91D2B9292A5D66D8BB63B0C26823B835C67D2BC348CB46657880B1E0A535BE9DA1DC68A7B403549B42CDA0EC3AE530CA6B5864B8CB3F552343E91D5474A7B095F949962A6421D0502778E72C0840D390E18DC5F170E664C205F7BE2A66B62A605A75AC94C522DDEEE3651AEF837817C741F2CE92E02D592D
310
83FD6ECB76EC7595A651C2C9D02CB8AB9A8BBADC2AE954814544691A3016D0E883256BBA58278B17BA5A53CAC9507ED3E4DBE2C9265F691747B3DCA9ADC382819091F8E1162272A8933DE82182932144F88C09DF060D8140C84E1EEA8B8F1340BDCA9DB1093085F157AA97B557309586747CD0EF0B4EA64E983A6E0EAEEFCE
310
889E9EF17847386AA94B30211D2C0FDE0D3AF9A4610EAD5536E8DD1969631B593F67E381C33F5157F17725E5A636F6BF1491F980C8FC7B90E13E8A2F504B0304140006080800B670623B70102A487D0000009D0000000B0000006662782F636E782E786D6C4DCCD10A83201886E15B91FFDC95A5C30335ACCDFB886521330D
310
A76397BF1A1DECE883878F57749FD5A3B74D2F17830472A901D9F088930B8B849267CC01754AA418F3DF0D5018572BE160506249B16C274D761E8BCFBB7A179E27F65CB39A0F14D396184C9921B81F34C3ACA1B4B99ABB6E6F062A25AA5F69DF23ACBE504B0304140006080800B670623B3610CA3329010000120200003100
310
00006662782F42384135303843342D343331462D343546312D424341352D3532343432364645413344462F636F72652E786D6C8D515B6EC32010BC0AE22B55850D0E446E848992B43E412FE000495162B07854397EA176A4F62F3F2C9A9D991D58BEBB8F37F0AD7D30CE76905418026DA553C65E3A98E219B510EC04F7CEC5
310
3F3408EC30EA0E16180A7EF12E4D0B249D8DDAC68C5AA7F4020E21E80881BCE54B0783FCD2E3500D296646B856D320AFC34557A4CAEDCC133C449F0380794839A138B47B86DB2345744D7A44594FD0E1B867883594369BFE63BF7EEF793D0B054FC9A8456E548E63CE46FB674D8A58F068C6477CE9F510B582A2C1F80D1182
310
70F349E816B32D65AFB8DD62CCEB42FF274A937A52948C8DEB66893BCB021484D7734370E5D2E9F608A3EF93F3119479ABA0E50B14B8C298119A43CCC4FCFCECB8A18B6388CEE7EF5D5D4F994BD86CBBA182D76543B9FCAE2FD7B24DF103504B0304140006080800B670623B1B8617914E0100003303000030000000666278
310
2F42384135303843342D343331462D343546312D424341352D3532343432364645413344462F636E782E786D6CD593C16EC32010447F0571AD6CE3D489D20813A9877E410FBD62D82434182CC055F3F75D1292E692438FBD206B7698593D61BEFD1E2DF982108D773D6D6B460938E5B571FB9ECE6957AD29D90A1EBC4F7736
310
4A9C1CA1A759A682EF839FA72269D8C9D92654AD71C72206887E0E0A22CAF926B15E498B01E0AA19451807D01A34B919F16B070157417138917400F2F6FA41FCF0092A45DEE414C19BDC21783E4BD39D891265658C3D8DEA00A3ACE59CBC8678ACB54CB26EEB6BD7839D7E9348BE70AD9C8321B9BCA7F9A4A26C542347DEE0
310
50F09802D22BA6749A800A394DD62899107273365E3C82CFC6A55557BC06C10774B7ABE7AEC3B0F34CF06446280E154026D0542C187BA9DAB6628BF7B6DBB0E5A65B3EB1F58631DE64BBE083F7B65CC218087E22CABB042E51D1F2268F1FE12B3EA24D40D63E9CFE00120194D60B9D5BC67FE6D39CDF37E20AF817881F504B
310
0304140006080800B670623BBFEF2E3B690500003C100000340000006662782F42384135303843342D343331462D343546312D424341352D3532343432364645413344462F6F626A656374732E786D6CAD575D739B3814FD2B0CFB0C98D84E931D4227B6938EA793B6534F3BFB90198F0099B001899144EAECAFDF231018B0
310
D37A3FFC609090EEE7B94757C1FB7D915B2F54C88CB31BDB7727B64559CC938CA53776A576CE956DBD0F03C1B9EA2DB32D460A7A63EB693B0C52C1ABD24C257447AA5C8D66EF177F5832A68CDA569C13296F6C193FD182B8A4523CA1F2D94D88226EBADBBBBEDB2C1C8A4D05299F46424B222853B014F30C52ACC6287F389C
310
D85E1878FA7B18E87FB36AFAF62AAFF667A83F635211161F291B8999FAB3D5DDC5FCDA99CF6653677679E13B8BFBC5CAF1DF4D27CBCBE5F2FAF6EE1A8AA51290642C117467871F101B91C581D77CEA2C36869F3229E68CD1B8F61F1ED6361B89092D294B90C78C4A68EB793D190E7D1D9BDEE7A91E1B95FDE9F3BCEAEFE809
310
6A6D6F9F7D4B79F4275C90E7A04248AA51D5C4C738DAE06F72885AC4796EBE65D22A88A22223B995679120E2D50EB1542F098381188D4EA111AE3DB043FF20AF6F2B4AE3D7D83D65E5AECA730D4D3BAC91BD05FEA992B565D95F549CD6069B90AB2A63EACA38A45E4B6A87D781574F86817E4C2FCCC72690D62E2729520E37
310
9BAF234797BAF6D62B3BFC781FED37BA1E4F2B2F052FA9501A3E80569BB8F6A9A364D4FA67654E6F803383981F82F21591FF84F23D9882BC896C3FDBCF8C162508933B2E0AE4C69DD43F6BD2BE38DDDBF10BF86CB4FA784D37F3AF16075E67EC9030DECA1FC0A55373F5DFF3378C591FA9BDF485C10B0A8C8BA909E5262639
310
A8E72163488806A595734C81CB77D1DE0ED7604A303B76913CEC0272F412782FF88EFF4636D8AA56DF7B322474C4B767303F625997056C7B032C473C592B36CEBD15F3F9FF5233B7ABCDC74D257624A60F8658567497B14CE1EC3C80B76FD02011038F9EE9EB0F2E12387A9C844D3F09855125116D1D731DF8B43D2CF4E0A0
310
79A020C6BE946BCE0B7EA1E1219331CD73C228AF5A2DDD31A4B1DA918CE91350854D40A71723140BFA92E94E62B0626016CEFA5864A50E5977E8753CEDBEE1CBB7F52780D20E17AF0BA0F5F9B02A3AD07DCC732EB6D1EBB661421BE0C39E21BABF0FE16D22EA6929407C8DE596724C88B749B6DB5512BC7B228ADFD7CB7EA6
310
3A22397E690BA8D5D8D4E40CEC8CDA23C2C0B7D5898640101CEC9C6D331CE328CB93CAFBBAC70A642DF70DF95155945B52F08AA973C23469FD69ADEF84F7BB18F983A8F8C90E37F5D35980B2139A1C523540813E824EF83448CF7C72B598CE97D7CEEDDDDD3B6736BFBC771677EF66CE6A7E7139F7A793E9EDF2B2B3A8B624
310
0CDA13AA5F8388264EC4A0129909F3B7F5A16CEDF08128E97D680ACA4B9BE7B7B58BB638F0B00700EF36AE8B32A705658A68F83EE897FC2B41573190D1CCAF0B92D233A47CFEB019D9809933F67DD1A5467F8CF69AD9A5AE859342D45355448C64F968A371DC2D596ADC6E43D93D1B466F877A64E2893E54F23C4B40388995
310
525E5005DA3983ED45412510D3EFCA13737B3863F74BD30F2A12E5B4B5E489A025CE25500DB855B11ACE5BBFA185D35DD48D8DC3CE7DC69F2944DB42AA6F6CF09BCA622ADD08C7A36E7C6AE18000BAB08E040135C2D21C9D75B3A91B77BB746C403F38018DFE6EC939DD92F16B40BC05294B9CDA035AAD6D330AE27FE4786B
310
8E45145EA34A75BE1C263A676A35A8ACC6297337400BF16C54EF515F3F77CB77EB3583889C754FFA29081AA98E2222ADEF05DA3E63D2EDEA8B8756C05A7FB6CABC4A91CBF325398202CC952E70A008A830324BA200D5E5EF8F5F04C75DB4B0EE3340E071C98B823333B83577596BF3849B69F2085AA0FAFA212F26BEFF5877
310
FDE622B28D88A42E49E43326DA82D31E8CB006401E1DA726059ECEC168F97A6599036306A135688F9AD2E61A6EA178F4CD51974A9F2CCB9F36FE5EBD14601068D9C3BF01504B0304140006080000B670623B000000000000000000000000350000006662782F42384135303843342D343331462D343546312D424341352D35
310
32343432364645413344462F76657274696365732E62696E504B0304140006080800B670623BF270F1330600000004000000360000006662782F42384135303843342D343331462D343546312D424341352D3532343432364645413344462F747269616E676C65732E62696E636660600000504B0304140006080000B67062
310
3B000000000000000000000000370000006662782F42384135303843342D343331462D343546312D424341352D3532343432364645413344462F617474726962757465732E62696E504B0304140006080800B670623B08DA0BD19000000041010000360000006662782F42384135303843342D343331462D343546312D4243
310
41352D3532343432364645413344462F6469726563746F72792E786D6C858F410AC3201045AF22B36F53E9A60B35CBEEBAE80D244E44489C6234F4F835464A48035D0DF398FF9F8AF63D0E6CC63039F212F8F9020C7D47C6792B21C5FE7403D62A1188E2E60C98D7234A5830286103A55745067B9D86B8A3CF9C7F90C11DE6
310
07FB144396D7B6A82D282E9A152AD114D5EF2CB866EEE831B8EEA07A7BB5A8D7D61A2BAAEB7FD5F70921FF497D00504B0304140006080800B670623B3B4606F3FE000000A00100003B0000006662782F42384135303843342D343331462D343546312D424341352D3532343432364645413344462F7265736F75726365732F
310
636F72652E786D6C8D504B6E833010BD0A9A6D65B08134808CA354A427E8052C332156828DFCA97AFC9A40A576D7CDCCE87D344F8F9FBEE647F689CE6B6B7A6039850C8DB2A336530F315C4903D94970676DF82583CCC8197B5861107C72362E3BA4AC096842428D1D7107A5F71820538F74F4E0D50D6799CB1892C2DFF345
310
AABB9C306779A2934E701F5C0A906D4FD609C2A1B7D129F4BCD858C163D4E3AED163FAA9AF1A1D88F67CA98E6D35906AA82A52BFB39ABCD5CD915C86331BD86BD3B665CD8BD52C78D0F34F46E550061C419494B6843142CB0F5677F4D0D58717DA7494F26295FF31C565FCA7296A13AA728FBBD93C0896823C09C18BB5AFB4
310
9E65A6BD762BBE01504B010214000A0000080000B670623B3DEE336E79000000790000001B00000000000000000000000000000000006175746F6465736B2D64657369676E2D7061636B6167652E786D6C504B01021400140006080800B670623BD486FD9CA0000000F40000001300000000000000000000000000B2000000
310
5B436F6E74656E745F54797065735D2E786D6C504B01021400140006080800B670623B28ED286BEB0000007C010000080000000000000000000000000083010000636F72652E786D6C504B01021400140006080800B670623B55019EA25F0000007C000000070000000000000000000000000094020000636E782E786D6C50
310
4B01021400140006080800B670623B7BC41AC871010000D40300000C00000000000000000000000000180300006662782F636F72652E786D6C504B01021400140006080800B670623B70102A487D0000009D0000000B00000000000000000000000000B30400006662782F636E782E786D6C504B01021400140006080800B6
310
70623B3610CA3329010000120200003100000000000000000000000000590500006662782F42384135303843342D343331462D343546312D424341352D3532343432364645413344462F636F72652E786D6C504B01021400140006080800B670623B1B8617914E010000330300003000000000000000000000000000D10600
310
006662782F42384135303843342D343331462D343546312D424341352D3532343432364645413344462F636E782E786D6C504B01021400140006080800B670623BBFEF2E3B690500003C10000034000000000000000000000000006D0800006662782F42384135303843342D343331462D343546312D424341352D35323434
310
32364645413344462F6F626A656374732E786D6C504B01021400140006080000B670623B0000000000000000000000003500000000000000000000000000280E00006662782F42384135303843342D343331462D343546312D424341352D3532343432364645413344462F76657274696365732E62696E504B010214001400
310
06080800B670623BF270F133060000000400000036000000000000000000000000007B0E00006662782F42384135303843342D343331462D343546312D424341352D3532343432364645413344462F747269616E676C65732E62696E504B01021400140006080000B670623B00000000000000000000000037000000000000
310
00000000000000D50E00006662782F42384135303843342D343331462D343546312D424341352D3532343432364645413344462F617474726962757465732E62696E504B01021400140006080800B670623B08DA0BD1900000004101000036000000000000000000000000002A0F00006662782F42384135303843342D3433
310
31462D343546312D424341352D3532343432364645413344462F6469726563746F72792E786D6C504B01021400140006080800B670623B3B4606F3FE000000A00100003B000000000000000000000000000E1000006662782F42384135303843342D343331462D343546312D424341352D3532343432364645413344462F72
310
65736F75726365732F636F72652E786D6C504B0506000000000E000E0080040000651100000000
  0
XRECORD
  5
187
102
{ACAD_REACTORS
330
186
102
}
330
186
100
AcDbXrecord
280
     1
 70
     1
 90
429727718
  1
887D55A9-D0DD-414E-B741-A7DCD4DA2B4C
310
504B03040A0000080000B670623B3DEE336E79000000790000001B0000006175746F6465736B2D64657369676E2D7061636B6167652E786D6C3C3F786D6C2076657273696F6E3D22312E302220656E636F64696E673D227574662D3822203F3E3C666F726D6174733E3C666F726D61743E687474703A2F2F736368656D612E
310
6175746F6465736B2E636F6D2F64657369676E2D7061636B6167652F323030393C2F666F726D61743E3C2F666F726D6174733E504B0304140006080800B670623BD486FD9CA0000000F4000000130000005B436F6E74656E745F54797065735D2E786D6C7D8EC10E82300C865F65E91D8A1E8C310C0EEA1BF002731658846E
310
D98AC1B77784ABF1D8FE5FBFBF75BBCE937A534CCEB38643598122B6FEE978D0B0485F9C41B54DDD7D022595594E1A469170414C76A4D9A4D207E29CF43ECE46F218070CC6BECC4078ACAA135ACF422C856C0E68EA1BF5669944DDD7BCDE7B1F8E415D77AECB980613C2E4AC91FC167A2B244592486606FC29C8FD7F045B9A
310
EF7053A7E60B504B0304140006080800B670623BBC1638F5EC0000007C01000008000000636F72652E786D6C8D90416EC3201045AF82665B61836BE2D8C24471DB9CA01740401C94182C03558F5F9C3852BBEB6A467FFE9B197D7EF89E6EE8CB2CC17AD7032D0820E394D7D68D3DA478C67B4007C117EFE32F1B202727D3C3
310
2A83E0E3E2D3BC49CABB685CCCAAF3DA6CA20CC14440EA969B1E82BA98491632C5EC08D76296EA2A4753D06797E194AC468F2356E77DF66CCD02825543D50CACC62D39ED70FDC68EB8FD68F6F8787A6784342D1DDA1D2F5758F068A7E77DB518198D065111D2624A31A93E69DD11D6D5EC85EC3B4278B9DAFF4069D6FF8492
310
75F1B5DADE7D600104CD8FDC0782976B16B9DC83CA75CD4DFC00504B0304140006080800B670623B55019EA25F0000007C00000007000000636E782E786D6C4DCB3B0E80201045D1AD90E915ED2CF8AC45050C11660C8261F98AB1B07AC9C97D42D718D865D3E909258CFD00CCE24AC6E326A164D74DC0B4128928FF326038
310
472BA13128B1252AC747C6BAB984FC68F0B87FE8960A5C09FE86CFB69FBA01504B0304140006080800B670623B3586FFB671010000D40300000C0000006662782F636F72652E786D6CC553ED6E8320147D15C2DF4541A76D6D90A6DDD627D80B50A4CE54C120983EFEAE1F4DD7A55BBA5FF3879273EEE59E7310B6393735EA
310
95ED2AA3731C851423A5A5292A5DE6D8BB63B0C268C39935C67D29C3488B46E578803167A535BE9D2169B453DA01AA4DA16650749D7218C91A1639EEE4876A4428BC838AEE14B6429E44A9C228041AEA38EB9C0501681A32BC313F1ECE8C4C3867DE57C5CC56054CAB8E95B298A7F12E5EEED224C8E87E11242FE936C8DE96
310
AB60BB7F4D295D66D12E5B30323473E6AAE6A24E5A259C2A308F29CD82280A68FC1E256B9AAE93F489AED694323294DF34F9B678B0C957DA3DC7B3DCA9ADC33C022123F1CD2D44E450277AD04338234388F01913BE0D1A0281909D38D4171F27807A259DB1093085F157AA17B557309586747CD0CF0B46A64E983A6E0EAEEF
310
CE881F9EF1FB8E70D44297604238581EBC1B74B249C31C5AAB6CD0BB33D2C636A27ECCC62F0EFF445DC5DF95244D6DEC7F2922F30191F9F720C37DE49F504B0304140006080800B670623B4220A0FF7D0000009D0000000B0000006662782F636E782E786D6C4DCCD10A83201886E15B91FFDCE542CB0335D0EC3E6259C84A
310
C3E9D8E5AF46073BFAE0E1E315DD675BD1DBA5978F41C2FD4600B9F088930F8B849267CC01754AA418F3DF0D50183727E164506249B1EC174D6E1ECB9A0F5D7D785E68DB8151CD286E5A5363CA6B8A39E90D36D40E96B086F55A43A544F52B1D7B86D517504B0304140006080800B670623B2FA3FEDE290100001202000031
310
0000006662782F45374635344235342D363743322D343832342D383044432D4334454645303536354442422F636F72652E786D6C8D515B6EC32010BC0AE22B55850D2E386E848994D7097A0117488A1283C5A3CAF10BB523B57FF961D1ECCCECC0F2ED7DBC816FED8371B687A4C210682B9D32F6D2C314CFA883602BB8772E
310
FEA141608751F7B0C050F08B77695A20E96CD43666D43AA5177008414708E42D5F7A18E4971E876A483133C2B59A06791D2EBA22556E679EE021FA1C00CC43CA09C5717D6274C7286AD7FB06D1AEA1A8C3873DDAD3E3E98859CB0EBB1DAF67A1E02919B5C88DCA71CCD968FFAC49110B1ECDF8882FBD1EA256503418BF2342
310
106E3E08DD60B6A1EC15771B8C795DE8FF4469524F8A92B1F1AD59E2CEB20005E1F5DC105CB9F4797B84D1F7C9F908CABC55D0F2050A5C61CC1AD2F27A26E6E767C7962E8E213A9FBF7775FDCC5CC266DB960A5E970DE5F2BBBE5CCB36C50F504B0304140006080800B670623B1B8617914E01000033030000300000006662
310
782F45374635344235342D363743322D343832342D383044432D4334454645303536354442422F636E782E786D6CD593C16EC32010447F0571AD6CE3D489D20813A9877E410FBD62D82434182CC055F3F75D1292E692438FBD206B7698593D61BEFD1E2DF982108D773D6D6B460938E5B571FB9ECE6957AD29D90A1EBC4F77
310
364A9C1CA1A759A682EF839FA72269D8C9D92654AD71C72206887E0E0A22CAF926B15E498B01E0AA19451807D01A34B919F16B070157417138917400F2F6FA41FCF0092A45DEE414C19BDC21783E4BD39D891265658C3D8DEA00A3ACE59CBC8678ACB54CB26EEB6BD7839D7E9348BE70AD9C8321B9BCA7F9A4A26C542347DE
310
E050F09802D22BA6749A800A394DD62899107273365E3C82CFC6A55557BC06C10774B7ABE7AEC3B0F34CF06446280E154026D0542C187BA9DAB6628BF7B6DBB0E5A65B3EB1F58631DE64BBE083F7B65CC218087E22CABB042E51D1F2268F1FE12B3EA24D40D63E9CFE00120194D60B9D5BC67FE6D39CDF37E20AF817881F50
310
4B0304140006080800B670623B29652116630500003C100000340000006662782F45374635344235342D363743322D343832342D383044432D4334454645303536354442422F6F626A656374732E786D6CAD575D739B3814FD2B0CFB0C989834C90EA1639B24E3E9A6EDD4D3CE3E64C623834CD8006224913AFDF57B040203
310
B65BEF871F0C12D2FD3CF7E8CA7FBFCB33E3957291B2E2D674ED8969D02262715A24B76625B7D6B569BC0F7CCE98EC2D338D82E4F4D654D366E0279C55A59E8AE99654991CCDDECFFF3444440B6A1A514684B83545F44C7362934AB2988A173B2692D8C97667BB76B3702836E1A47C1E092D09A78584A5982F20C5688C7287
310
C389E904BEA3BE07BEFAD7ABA6A75739B53F43FD69212429A20365233153D70BEF2E2E6FAC4BCF9B5ADEBB0BD79ADFCF43CBBD9A4E16EF168B9BD9DD0D140BC921495BC2E9D60C1E101B9E46BED37CEA2CD6861F3329624541A3DA7F7858DBAC25C6B4A4458C3CA654405BCFEBC970E8AAD8F43E4FD558ABEC4F9FE7557F47
310
4F506B7BFBEC5BCA367FC105710E2AB8A00A554D7CB4A30DFE26FBA86D18CBF4B75418399194A72433B274C3097F33032C554B027F2046A1932B842B0FCCC0DDCBEBDB8AD2F835768F59B9ADB24C41D30C6A64AF817F2A456D59FA83F2E3DA60137255A585BCD60EC9B7929AC18DEFD49381AF1ED30BFDB109A4B1CD488294
310
C3CDE6EBC8D185AABD6568061FEE37BB95AAC7E3CA4BCE4ACAA5820FA0D526AE7DAA2869B5EE5999531BE0CC20E6FBA07C41E43FA27CF7A6206F3CDD793B4F6B919C1462CB788EDCD893FA674CDA17AB7B3B7C019F8D561FAEE966FED562DFE98C1D12C6A9FC015C2A35D7FF3D7FC398F591DA4B5FE0BFA2C0189FEA50AE22
310
92817A1ED3020951A03432862970F976B33383259812CC8E5D240BBA801CBCF8CE2BBEE3BF910DB6AAD5F79E05123AE2DB33981FB1ACCB02B69D00CB014FD68AB573A7627EF9BFD4CC2C5C7D58557C4B22FAA88925A4DBB44825CECE3D78FB060D1231F0E885BE7D673C86A3874958F593906B5502D1563157814FDAC3420D
310
F69A070A22EC4B98E23CFF171A1E5311D12C23056555ABA53B8614563B92D17D02AAB009E8F46284624E5F53D5490C560CCCC2591FF1B45421EB0EBD8EA7ED13BE7C5D7E0428CD60FEF60779EB13E6664FF711CB185F6FDED60D139A001FF60CD1FD6D086F1D51474901E26B2CB794A343BC8ED3EDB612E0DD2351FCB65CF4
310
33D511C9E14B5B40ADC6A6263DB0336A8F700DDF56271A024E70B0B3629DE21847591E55DED73D56206AB927E46FAABC5C939C55853C274C93D69FD6FA4E78BF8B11DF898C9ECD60553FAD39283BA6F18984AA23E8884F83F45C5F5F859797B31B2B9C84A1E5B9DE9D35BFF25C6B76152E422F9C5DCC3D847F5801ED09D5AF
310
41441327A25FF15487F9EB725FB666F048A4701E9A827292E6F97569A32DF61DEC01C0BB8DCBBCCC684E0B49147C1FD54BF685A0AB18C868E6973949E819523E3DAC463660E68C7D9F55A9D1EFA3BD7A76A16AE1A810F95CE59B82A4D968A376DC2E8B44BBDD86B27B368CDE0ED548C7137DA860591A83706223A12CA712B4
310
7306DBF39C0A20A6DF95C7FAF670C6EED7A61F946493D1D6926782963813403548A78AE470DEF80D2D9CEAA26E4D1C76F60BFE74219A06527D6B82DF641A51616F703CAAC6A7160E08A00BEB4810A0274592A1B36E3675E36E978A0DE80727A0D6DF2D39A75BD27E0D8837276589537B40ABB56D5A41F48F1C6FCD3188C4EB
310
A6929D2FFB89CE995A4D00AE813BDD032DC48B56BD437DFDDC2DD7AED70C2272D63DE9A72068A45A92F0A4BE17A8A06B9366E16707AD80B1FC649459952097E74BB23805982B55E0401150A165964402AA8BDF9F3E7386BB686EDCA780C0D382E5392BF460A6EFB2C6EA1937D3F809B440D5F5435C4C5CF7A9EEFAF54564BD
310
2182DA24162F98680B4E7930C21A0079709CEAEB99A372305ABE0C0D7D6078105A83F6A0296DAEE1068A47DD1C55A9F4C9B2FC69E3EFD44B81028E963DF81B504B0304140006080000B670623B000000000000000000000000350000006662782F45374635344235342D363743322D343832342D383044432D433445464530
310
3536354442422F76657274696365732E62696E504B0304140006080800B670623BF270F1330600000004000000360000006662782F45374635344235342D363743322D343832342D383044432D4334454645303536354442422F747269616E676C65732E62696E636660600000504B0304140006080000B670623B00000000
310
0000000000000000370000006662782F45374635344235342D363743322D343832342D383044432D4334454645303536354442422F617474726962757465732E62696E504B0304140006080800B670623B08DA0BD19000000041010000360000006662782F45374635344235342D363743322D343832342D383044432D4334
310
454645303536354442422F6469726563746F72792E786D6C858F410AC3201045AF22B36F53E9A60B35CBEEBAE80D244E44489C6234F4F835464A48035D0DF398FF9F8AF63D0E6CC63039F212F8F9020C7D47C6792B21C5FE7403D62A1188E2E60C98D7234A5830286103A55745067B9D86B8A3CF9C7F90C11DE607FB144396
310
D7B6A82D282E9A152AD114D5EF2CB866EEE831B8EEA07A7BB5A8D7D61A2BAAEB7FD5F70921FF497D00504B0304140006080800B670623B6378F24DFF000000A00100003B0000006662782F45374635344235342D363743322D343832342D383044432D4334454645303536354442422F7265736F75726365732F636F72652E
310
786D6C8D504B6E833010BD0A9A6D65B0094E42641C85B639412F6099496225D8C89FAAC7AF09546A77DDCC8CDE47F3F4C4F16B7C149FE88371B603565228D06A37187BED20C50BD9437194C23B177FC9A0B06AC40E6618A4B87A97A615D2CE46B431A3D60DB8822A048C50E8473E3A08FA86A32A558A5911EEE5A4F45D5DB1
310
6465A6B34E8A107D0E502C4FE609D26370C96B0CA25A58295232C3AA3143FE692E063D485EF7F5AEE71BD2D2F39634AFFC44DAF7DD9E9CCE6F9CD25DCBFA762BAAD92C4534E34F46ED51451C40D694B6843142EB0FD61C283F34FC85EE0F948A6A96FF31A569F8A729191B37F51A77B105902C0779125254735F793DCBCC7B
310
EE567E03504B010214000A0000080000B670623B3DEE336E79000000790000001B00000000000000000000000000000000006175746F6465736B2D64657369676E2D7061636B6167652E786D6C504B01021400140006080800B670623BD486FD9CA0000000F40000001300000000000000000000000000B20000005B436F6E
310
74656E745F54797065735D2E786D6C504B01021400140006080800B670623BBC1638F5EC0000007C010000080000000000000000000000000083010000636F72652E786D6C504B01021400140006080800B670623B55019EA25F0000007C000000070000000000000000000000000095020000636E782E786D6C504B010214
310
00140006080800B670623B3586FFB671010000D40300000C00000000000000000000000000190300006662782F636F72652E786D6C504B01021400140006080800B670623B4220A0FF7D0000009D0000000B00000000000000000000000000B40400006662782F636E782E786D6C504B01021400140006080800B670623B2F
310
A3FEDE290100001202000031000000000000000000000000005A0500006662782F45374635344235342D363743322D343832342D383044432D4334454645303536354442422F636F72652E786D6C504B01021400140006080800B670623B1B8617914E010000330300003000000000000000000000000000D2060000666278
310
2F45374635344235342D363743322D343832342D383044432D4334454645303536354442422F636E782E786D6C504B01021400140006080800B670623B29652116630500003C10000034000000000000000000000000006E0800006662782F45374635344235342D363743322D343832342D383044432D4334454645303536
310
354442422F6F626A656374732E786D6C504B01021400140006080000B670623B0000000000000000000000003500000000000000000000000000230E00006662782F45374635344235342D363743322D343832342D383044432D4334454645303536354442422F76657274696365732E62696E504B01021400140006080800
310
B670623BF270F13306000000040000003600000000000000000000000000760E00006662782F45374635344235342D363743322D343832342D383044432D4334454645303536354442422F747269616E676C65732E62696E504B01021400140006080000B670623B0000000000000000000000003700000000000000000000
310
000000D00E00006662782F45374635344235342D363743322D343832342D383044432D4334454645303536354442422F617474726962757465732E62696E504B01021400140006080800B670623B08DA0BD190000000410100003600000000000000000000000000250F00006662782F45374635344235342D363743322D34
310
3832342D383044432D4334454645303536354442422F6469726563746F72792E786D6C504B01021400140006080800B670623B6378F24DFF000000A00100003B00000000000000000000000000091000006662782F45374635344235342D363743322D343832342D383044432D4334454645303536354442422F7265736F75
310
726365732F636F72652E786D6C504B0506000000000E000E0080040000611100000000
  0
XRECORD
  5
112
102
{ACAD_REACTORS
330
110
102
}
330
110
100
AcDbXrecord
280
     1
270
     1
271
     1
  0
XRECORD
  5
111
102
{ACAD_REACTORS
330
110
102
}
330
110
100
AcDbXrecord
280
     1
270
     1
271
     1
  0
XRECORD
  5
18A
102
{ACAD_REACTORS
330
110
102
}
330
110
100
AcDbXrecord
280
     1
 70
     0
 90
1778669749
  1
9BF507EE-FAF7-4A99-A33D-4EE51894BC40
310
504B03040A0000080000B670623B3DEE336E79000000790000001B0000006175746F6465736B2D64657369676E2D7061636B6167652E786D6C3C3F786D6C2076657273696F6E3D22312E302220656E636F64696E673D227574662D3822203F3E3C666F726D6174733E3C666F726D61743E687474703A2F2F736368656D612E
310
6175746F6465736B2E636F6D2F64657369676E2D7061636B6167652F323030393C2F666F726D61743E3C2F666F726D6174733E504B0304140006080800B670623BD486FD9CA0000000F4000000130000005B436F6E74656E745F54797065735D2E786D6C7D8EC10E82300C865F65E91D8A1E8C310C0EEA1BF002731658846E
310
D98AC1B77784ABF1D8FE5FBFBF75BBCE937A534CCEB38643598122B6FEE978D0B0485F9C41B54DDD7D022595594E1A469170414C76A4D9A4D207E29CF43ECE46F218070CC6BECC4078ACAA135ACF422C856C0E68EA1BF5669944DDD7BCDE7B1F8E415D77AECB980613C2E4AC91FC167A2B244592486606FC29C8FD7F045B9A
310
EF7053A7E60B504B0304140006080800B670623BCA089DFFEC0000007C01000008000000636F72652E786D6C8D90416E83301045AF62CDB632D8402020E32882F604BD80653BC44AB011B6AB1EBF262152BBEB6A467FFE9B197D76FA9EEFE84BAFDE38DB03CD08206DA553C64E3DC470C1474027CE56E7C22F1B202B66DDC3
310
260367D3EAE2B24BD2D9A06D48AA754AEFA2F05E0740F29E9A1EBCBCEA59642286E4F0B76C11F226269DD15797E0188D42CF2346A57DE662F40ABCAEC77628C6120F654571D50C04B7F5B9C1E3997CD4F550BE3745C3F20DE62C98F9755FAE5A04AD801784B498524C8A4F5A75E4D055873772EC0861F966FF03C545FD138A
310
C686B2D8DF7D621E384D8F3C069CE55B16A93C824A75CB8DFF00504B0304140006080800B670623B55019EA25F0000007C00000007000000636E782E786D6C4DCB3B0E80201045D1AD90E915ED2CF8AC45050C11660C8261F98AB1B07AC9C97D42D718D865D3E909258CFD00CCE24AC6E326A164D74DC0B4128928FF326038
310
472BA13128B1252AC747C6BAB984FC68F0B87FE8960A5C09FE86CFB69FBA01504B0304140006080800B670623B68FC0B7272010000D40300000C0000006662782F636F72652E786D6CC5535B6E833010BC8AE5DF0A6C1E8124328E22D29EA01770C0A128602363A31CBFCB234A53A555FA553EC09AD9F5CE8C31DB5DDA060D
310
D2F4B556190E7C8A9154852E6B5565D8D993B7C668C799D1DA7E29C3488956667884316795D1AE5BA0422B2B950554E9522EA0E87B69312A1A5864B82F3E642B7CE12C54F467BF13C55954D20F7CA0A18EB3DE1A1080E621E31BF3D3F1C2C88C73E65C5D2E6C5DC2B4FA544B8379921C36797888BC3C8A032F4E73EA6D927D
310
EA1DF6F42D49F2E8350D5346C666CE6CDD5ED515460A2B4BCC434A375E1078347C0FE22D5D6DE3D50B5D6F2965642CBF6B725DF96493AB958DC245EEDCD6631E809089F8E61622B2A81703E8219C913144F84C09DF070D8140C8561C9BAB8F3340832CAC363130A576376A108D933095FA747AD0CF0B46E64E983A6D0EAE1F
310
CE089F9EF1FB8E70D44255604258581E9D1D75B259C3125A278D37D80B52DAB4A279CEC62F0EFF44DDC43F9454E8469BFF5244960322CBEF41C6FBC83F01504B0304140006080800B670623B0F71DDB67E0000009D0000000B0000006662782F636E782E786D6C4DCCD10A83201886E15B91FFDCA54DB73F502386BB8F5816
310
32D3703976F9ABD1C18E3E78F87855FB990379BBFCF2296AE02706C4C5471A7C9C349475A408A4352AA7B4FEDD80C47E761A7606A3A69CCA72D0E0C6BE8475D3E0E3F3409428EA6B27A84079A782899AA2EC1A7AE3ECCC2FD858CB2D544655BFD2B67BD87C01504B0304140006080800B670623BE134B4FB28010000120200
310
00310000006662782F38353834323741342D343835462D343034322D383541392D4331303331363839454531452F636F72652E786D6C8D515B6EC32010BC0AE22B55850D0EA424C24451959EA0172086A42831583CAA1CBF503B52FB971F16CDCECC0EACD8DFC71BF836215AEF7A481A0C817183D7D65D7A98D3197108F652
310
04EFD31F1A044E8DA6871586525C82CFD3020DDE25E352419DD76601558C264130DCCAA58771F832A36A544E8511AFCDA486ABBA988634A55D7852C4144A00300FA927949C71DABD1D28A29C7D208A6987383B6CD13BC16BB2E1DBE3911C453B0BA5C8D9EA456E758963CFD684674DAA588A64C747FC2118958C86B2C3788B
310
0841B8FB247487D98EB257CC77188BB6D2FF89F2A49F1465EBD2BA5BE2CEB2082511EDDC9042FB7CBA3DC298FBE4430275DE2A9AE1054ADC60CC08E3A29D89E5F9C5714317C7987C28DFBBBA9E0A97B0D97643A568EB864AF95D5FA9759BF207504B0304140006080800B670623B1B8617914E010000330300003000000066
310
62782F38353834323741342D343835462D343034322D383541392D4331303331363839454531452F636E782E786D6CD593C16EC32010447F0571AD6CE3D489D20813A9877E410FBD62D82434182CC055F3F75D1292E692438FBD206B7698593D61BEFD1E2DF982108D773D6D6B460938E5B571FB9ECE6957AD29D90A1EBC4F
310
77364A9C1CA1A759A682EF839FA72269D8C9D92654AD71C72206887E0E0A22CAF926B15E498B01E0AA19451807D01A34B919F16B070157417138917400F2F6FA41FCF0092A45DEE414C19BDC21783E4BD39D891265658C3D8DEA00A3ACE59CBC8678ACB54CB26EEB6BD7839D7E9348BE70AD9C8321B9BCA7F9A4A26C542347
310
DEE050F09802D22BA6749A800A394DD62899107273365E3C82CFC6A55557BC06C10774B7ABE7AEC3B0F34CF06446280E154026D0542C187BA9DAB6628BF7B6DBB0E5A65B3EB1F58631DE64BBE083F7B65CC218087E22CABB042E51D1F2268F1FE12B3EA24D40D63E9CFE00120194D60B9D5BC67FE6D39CDF37E20AF817881F
310
504B0304140006080800B670623B5933D422630500003B100000340000006662782F38353834323741342D343835462D343034322D383541392D4331303331363839454531452F6F626A656374732E786D6CAD575B6FA33814FE2B887D0642934E9B156594264D158D3A534DD4D13E548A0C38942D60649B4EBABF7E3F8321
310
40924EF6928780CDF1B97EE762EFF32E4B8D37CA45C2F21BD3B547A641F39045491EDF98A5DC5AD7A6F1D9F73863B243661A39C9E88DA9B64DDF8B392B0BBD15D12D295339D85DDEFE618890E6D434C2940871638AF08566C426A5641115AF764424B1E3EDCE76ED9AB0CF36E6A47819302D08A7B984A6D8CFC1C5A89572FB
310
CB91E9F89EA3BEFB9EFAD754E3D3544E654F5F7E920B49F2F040D880CDD89D2CEE2E2EA7D6E56432B6269F2E5CEB7679BBB0DCABF168FE693E9FCEEEA6102C240727AD09A75BD3BF876F78127A4EFDA9D5582B7E4CA590E5390D2BFB6161A5B3E618D182E611E2985001691DAB47FDA5AB7CD3F93C566B2DB2BB7D9E55DD13
310
1D468DEECDB3AB290BFE8409E21C54704115AA6AFF68436BFC8DF65E0B184BF5B74418199194272435D224E084BF9B3E481589EFF5D828747285706581E9BB7B7E5D5D911ABFC6EE312DB7659A2A689A7E85EC0DF04FA5A8344BFEA2FCB834E8845895492EAFB541F2BDA0A63FF59C6AD3F7D4637CA13FD68E34B629891172
310
98597F1D183A57B9B75A98FE9765B05BAB7C3C2EBCE0ACA05C2AF8005A4DE09AA7F29216EB9E15397500C6F47CBE77CA7778FE2BD277AF0AE2C693DD6437D1522427B9D8329E2136F6A8FA19A3E6C56ADF0E5F50CF06D48734EDCEBF22F69C56D97EC138153F804B85E6FABFC7AFEFB32E523BE1F3BD372418E363EDCA7548
310
52949E8724474014288D94610BB57C1BEC4C7F854A89CA8E5324F55B871CBC78CE1BBEE3BFE68D6A5589EF3C730474506FCFA8FCF0659516D0ED04580EEA6425581B77CAE797FF4BCECC16EB2FEB926F49481F746159D06D922712BD730FDEAE42BD40F42C7AA5EF3F198F60E86110D6DD20645A9480B795CF95E3E3A659A8
310
C55E724F408873315335CFFB8584874484344D494E59D94869DB90C26A5B64F49C802CAC1D3ABE18A098D3B7444D123D8A9E5AE8F5214F0AE5B2B6E9B575DA3E61CBD3EA2B4009FA940524DD1305FB6A1FB294F14DF0BEA90BA109ECE1481FDC3FFAE8D60E75141700BE82725371B4873751B2DD960265F788137FACE6DD40
310
B575E4F0A5C99F46629D92131467A41EE11ABD8D4CCC039CA0AFB37C93A08B232B8F0AEFCA1E0A1015DF13FC83322B362463652ECF71D3A8B1A7D1BE65DE1D62C44F22C317D35F574FEB16153BA2D13E543D10A80E74C4A65E78A6B7CBCBD1D5DD9DB59C2DAFACC96C3AB566E3F1C29ADCDD5DBAD7D3C9ED7C822ED74F80A6
310
41755310DE4443F44A9E68373FADF6596BFA0F440AE7BECE2727AE9F4F2B1B53B1E7E00CF0DD1E5C65454A339A4BA2D0FBA05ED2EF0443458F47BDBFCA484CCFE0F2ED7E3DD0013B679C7B5499467F0ECEEADDB9CA85A34CE44B99053949D2C1416DB85DE4B136BB7165FBAC0B7AB3542BED4F8CA182A549847A1319316519
310
95A83A67147B9E5101C47487F2485F1ECE38FD568F839204296D3479219888530154036E6528FBFBC66F98E0D4107563A2D7D9AFF8D389681A08F58D89F22693900A3B407754734FC51C10C010D6D640809EE4718AC1BA3ED4AEDB53CA37283F68805A7E4B72CEB0A4EDEAD5DD8C14059A76AFAA56BA6901E13F32BC51C720
310
12AF41295B5BF61BAD3195181FB506E6B40F4C10AF5AF40EF9F5B159AE5DD1F43C72D635E94310D45C2D49785C5D0B94D3B54AB3C5A38349C0587D338AB48C11CBF339599C02CCA54A70A008A8D03C0B2201D5F9EFCF8F9CE12A9A19CB0410789EB32C63B95ECCF455D658BFE0621A3DA32C5075FB101723D77DAE867E7D0F
310
D90444509B44E2151B4DC2290B065803200FBAA9BE9D392A0603F2D5C2D00D6302A615680F66D2FA166E2079D4C551A54AB758161FCEFD4E450A14704CECFEDF504B0304140006080000B670623B000000000000000000000000350000006662782F38353834323741342D343835462D343034322D383541392D4331303331
310
363839454531452F76657274696365732E62696E504B0304140006080800B670623BF270F1330600000004000000360000006662782F38353834323741342D343835462D343034322D383541392D4331303331363839454531452F747269616E676C65732E62696E636660600000504B0304140006080000B670623B000000
310
000000000000000000370000006662782F38353834323741342D343835462D343034322D383541392D4331303331363839454531452F617474726962757465732E62696E504B0304140006080800B670623B08DA0BD19000000041010000360000006662782F38353834323741342D343835462D343034322D383541392D43
310
31303331363839454531452F6469726563746F72792E786D6C858F410AC3201045AF22B36F53E9A60B35CBEEBAE80D244E44489C6234F4F835464A48035D0DF398FF9F8AF63D0E6CC63039F212F8F9020C7D47C6792B21C5FE7403D62A1188E2E60C98D7234A5830286103A55745067B9D86B8A3CF9C7F90C11DE607FB1443
310
96D7B6A82D282E9A152AD114D5EF2CB866EEE831B8EEA07A7BB5A8D7D61A2BAAEB7FD5F70921FF497D00504B0304140006080800B670623BD9A3B367FE000000A00100003B0000006662782F38353834323741342D343835462D343034322D383541392D4331303331363839454531452F7265736F75726365732F636F7265
310
2E786D6C8D504B6E833010BD0A9A6D65B01D0201194711694FD00B586642AD043BF2A7EAF16B122AB5BB6E6646EFA3797AE2F8B5DC8A4FF4C1383B002B291468B59B8C9D0748F1420E501CA5F0CEC55F3228AC5A708015062966EFD27D83B4B3116DCCA875136EA00A012314FA968F0182FEC045952AC5AC08D7F2AEF455CD
310
58B232D3592745883E07289E4FD609D26370C96B0CA27AB252A464A64D63A6FCD35C0C7A904D73EE467EE664DCD58CD4ED4849D79C5A723ED1B7A61977AF2D6F45B59AA58866F9C9A83DAA8813484E6947182394BFB3BAA7FBBEDEBFD0434FA9A856F91F53BA4FFF342563E38E6F719FB60092E5200F428A6AED2BAF479979
310
AFDDCA6F504B010214000A0000080000B670623B3DEE336E79000000790000001B00000000000000000000000000000000006175746F6465736B2D64657369676E2D7061636B6167652E786D6C504B01021400140006080800B670623BD486FD9CA0000000F40000001300000000000000000000000000B20000005B436F6E
310
74656E745F54797065735D2E786D6C504B01021400140006080800B670623BCA089DFFEC0000007C010000080000000000000000000000000083010000636F72652E786D6C504B01021400140006080800B670623B55019EA25F0000007C000000070000000000000000000000000095020000636E782E786D6C504B010214
310
00140006080800B670623B68FC0B7272010000D40300000C00000000000000000000000000190300006662782F636F72652E786D6C504B01021400140006080800B670623B0F71DDB67E0000009D0000000B00000000000000000000000000B50400006662782F636E782E786D6C504B01021400140006080800B670623BE1
310
34B4FB280100001202000031000000000000000000000000005C0500006662782F38353834323741342D343835462D343034322D383541392D4331303331363839454531452F636F72652E786D6C504B01021400140006080800B670623B1B8617914E010000330300003000000000000000000000000000D3060000666278
310
2F38353834323741342D343835462D343034322D383541392D4331303331363839454531452F636E782E786D6C504B01021400140006080800B670623B5933D422630500003B10000034000000000000000000000000006F0800006662782F38353834323741342D343835462D343034322D383541392D4331303331363839
310
454531452F6F626A656374732E786D6C504B01021400140006080000B670623B0000000000000000000000003500000000000000000000000000240E00006662782F38353834323741342D343835462D343034322D383541392D4331303331363839454531452F76657274696365732E62696E504B01021400140006080800
310
B670623BF270F13306000000040000003600000000000000000000000000770E00006662782F38353834323741342D343835462D343034322D383541392D4331303331363839454531452F747269616E676C65732E62696E504B01021400140006080000B670623B0000000000000000000000003700000000000000000000
310
000000D10E00006662782F38353834323741342D343835462D343034322D383541392D4331303331363839454531452F617474726962757465732E62696E504B01021400140006080800B670623B08DA0BD190000000410100003600000000000000000000000000260F00006662782F38353834323741342D343835462D34
310
3034322D383541392D4331303331363839454531452F6469726563746F72792E786D6C504B01021400140006080800B670623BD9A3B367FE000000A00100003B000000000000000000000000000A1000006662782F38353834323741342D343835462D343034322D383541392D4331303331363839454531452F7265736F75
310
726365732F636F72652E786D6C504B0506000000000E000E0080040000611100000000
  0
XRECORD
  5
113
102
{ACAD_REACTORS
330
110
102
}
330
110
100
AcDbXrecord
280
     1
270
     1
271
     1
  0
XRECORD
  5
114
102
{ACAD_REACTORS
330
110
102
}
330
110
100
AcDbXrecord
280
     1
270
     1
271
     1
  0
CELLSTYLEMAP
  5
4FAA7
102
{ACAD_REACTORS
330
104
102
}
330
104
100
AcDbCellStyleMap
 90
        3
300
CELLSTYLE
  1
TABLEFORMAT_BEGIN
 90
        5
170
     1
 91
        0
 92
    32768
 62
   257
 93
        1
300
CONTENTFORMAT
  1
CONTENTFORMAT_BEGIN
 90
        0
 91
        0
 92
      512
 93
        0
300

 40
0.0
140
1.0
 94
        5
 62
     0
340
11
144
0.25
309
CONTENTFORMAT_END
171
     1
301
MARGIN
  1
CELLMARGIN_BEGIN
 40
0.06
 40
0.06
 40
0.06
 40
0.06
 40
0.18
 40
0.18
309
CELLMARGIN_END
 94
        6
 95
        1
302
GRIDFORMAT
  1
GRIDFORMAT_BEGIN
 90
        0
 91
        1
 62
     0
 92
       -2
340
0
 93
        0
 40
0.045
309
GRIDFORMAT_END
 95
        2
302
GRIDFORMAT
  1
GRIDFORMAT_BEGIN
 90
        0
 91
        1
 62
     0
 92
       -2
340
0
 93
        0
 40
0.045
309
GRIDFORMAT_END
 95
        4
302
GRIDFORMAT
  1
GRIDFORMAT_BEGIN
 90
        0
 91
        1
 62
     0
 92
       -2
340
0
 93
        0
 40
0.045
309
GRIDFORMAT_END
 95
        8
302
GRIDFORMAT
  1
GRIDFORMAT_BEGIN
 90
        0
 91
        1
 62
     0
 92
       -2
340
0
 93
        0
 40
0.045
309
GRIDFORMAT_END
 95
       16
302
GRIDFORMAT
  1
GRIDFORMAT_BEGIN
 90
        0
 91
        1
 62
     0
 92
       -2
340
0
 93
        0
 40
0.045
309
GRIDFORMAT_END
 95
       32
302
GRIDFORMAT
  1
GRIDFORMAT_BEGIN
 90
        0
 91
        1
 62
     0
 92
       -2
340
0
 93
        0
 40
0.045
309
GRIDFORMAT_END
309
TABLEFORMAT_END
  1
CELLSTYLE_BEGIN
 90
        1
 91
        1
300
_TITLE
309
CELLSTYLE_END
300
CELLSTYLE
  1
TABLEFORMAT_BEGIN
 90
        5
170
     1
 91
        0
 92
        0
 62
   257
 93
        1
300
CONTENTFORMAT
  1
CONTENTFORMAT_BEGIN
 90
        0
 91
        0
 92
      512
 93
        0
300

 40
0.0
140
1.0
 94
        5
 62
     0
340
11
144
0.18
309
CONTENTFORMAT_END
171
     1
301
MARGIN
  1
CELLMARGIN_BEGIN
 40
0.06
 40
0.06
 40
0.06
 40
0.06
 40
0.18
 40
0.18
309
CELLMARGIN_END
 94
        6
 95
        1
302
GRIDFORMAT
  1
GRIDFORMAT_BEGIN
 90
        0
 91
        1
 62
     0
 92
       -2
340
0
 93
        0
 40
0.045
309
GRIDFORMAT_END
 95
        2
302
GRIDFORMAT
  1
GRIDFORMAT_BEGIN
 90
        0
 91
        1
 62
     0
 92
       -2
340
0
 93
        0
 40
0.045
309
GRIDFORMAT_END
 95
        4
302
GRIDFORMAT
  1
GRIDFORMAT_BEGIN
 90
        0
 91
        1
 62
     0
 92
       -2
340
0
 93
        0
 40
0.045
309
GRIDFORMAT_END
 95
        8
302
GRIDFORMAT
  1
GRIDFORMAT_BEGIN
 90
        0
 91
        1
 62
     0
 92
       -2
340
0
 93
        0
 40
0.045
309
GRIDFORMAT_END
 95
       16
302
GRIDFORMAT
  1
GRIDFORMAT_BEGIN
 90
        0
 91
        1
 62
     0
 92
       -2
340
0
 93
        0
 40
0.045
309
GRIDFORMAT_END
 95
       32
302
GRIDFORMAT
  1
GRIDFORMAT_BEGIN
 90
        0
 91
        1
 62
     0
 92
       -2
340
0
 93
        0
 40
0.045
309
GRIDFORMAT_END
309
TABLEFORMAT_END
  1
CELLSTYLE_BEGIN
 90
        2
 91
        1
300
_HEADER
309
CELLSTYLE_END
300
CELLSTYLE
  1
TABLEFORMAT_BEGIN
 90
        5
170
     1
 91
        0
 92
        0
 62
   257
 93
        1
300
CONTENTFORMAT
  1
CONTENTFORMAT_BEGIN
 90
        0
 91
        0
 92
      512
 93
        0
300

 40
0.0
140
1.0
 94
        2
 62
     0
340
11
144
0.18
309
CONTENTFORMAT_END
171
     1
301
MARGIN
  1
CELLMARGIN_BEGIN
 40
0.06
 40
0.06
 40
0.06
 40
0.06
 40
0.18
 40
0.18
309
CELLMARGIN_END
 94
        6
 95
        1
302
GRIDFORMAT
  1
GRIDFORMAT_BEGIN
 90
        0
 91
        1
 62
     0
 92
       -2
340
0
 93
        0
 40
0.045
309
GRIDFORMAT_END
 95
        2
302
GRIDFORMAT
  1
GRIDFORMAT_BEGIN
 90
        0
 91
        1
 62
     0
 92
       -2
340
0
 93
        0
 40
0.045
309
GRIDFORMAT_END
 95
        4
302
GRIDFORMAT
  1
GRIDFORMAT_BEGIN
 90
        0
 91
        1
 62
     0
 92
       -2
340
0
 93
        0
 40
0.045
309
GRIDFORMAT_END
 95
        8
302
GRIDFORMAT
  1
GRIDFORMAT_BEGIN
 90
        0
 91
        1
 62
     0
 92
       -2
340
0
 93
        0
 40
0.045
309
GRIDFORMAT_END
 95
       16
302
GRIDFORMAT
  1
GRIDFORMAT_BEGIN
 90
        0
 91
        1
 62
     0
 92
       -2
340
0
 93
        0
 40
0.045
309
GRIDFORMAT_END
 95
       32
302
GRIDFORMAT
  1
GRIDFORMAT_BEGIN
 90
        0
 91
        1
 62
     0
 92
       -2
340
0
 93
        0
 40
0.045
309
GRIDFORMAT_END
309
TABLEFORMAT_END
  1
CELLSTYLE_BEGIN
 90
        3
 91
        2
300
_DATA
309
CELLSTYLE_END
  0
ENDSEC
  0
SECTION
  2
ACDSDATA
 70
     2
 71
     8
  0
ACDSSCHEMA
 90
        0
  1
AcDb_Thumbnail_Schema
  2
AcDbDs::ID
280
    10
 91
        8
  2
Thumbnail_Data
280
    15
 91
        0
101
ACDSRECORD
 95
        0
 90
        1
  2
AcDbDs::TreatedAsObjectData
280
     1
291
     1
101
ACDSRECORD
 95
        0
 90
        2
  2
AcDbDs::Legacy
280
     1
291
     1
101
ACDSRECORD
  1
AcDbDs::ID
 90
        3
  2
AcDs:Indexable
280
     1
291
     1
101
ACDSRECORD
  1
AcDbDs::ID
 90
        4
  2
AcDbDs::HandleAttribute
280
     7
282
     1
  0
ACDSSCHEMA
 90
        1
  1
AcDbDs::TreatedAsObjectDataSchema
  2
AcDbDs::TreatedAsObjectData
280
     1
 91
        0
  0
ACDSSCHEMA
 90
        2
  1
AcDbDs::LegacySchema
  2
AcDbDs::Legacy
280
     1
 91
        0
  0
ACDSSCHEMA
 90
        3
  1
AcDbDs::IndexedPropertySchema
  2
AcDs:Indexable
280
     1
 91
        0
  0
ACDSSCHEMA
 90
        4
  1
AcDbDs::HandleAttributeSchema
  2
AcDbDs::HandleAttribute
280
     7
 91
        1
284
     1
  0
ACDSSCHEMA
 90
        5
  1
AcDb3DSolid_ASM_Data
  2
AcDbDs::ID
280
    10
 91
        8
  2
ASM_Data
280
    15
 91
        0
101
ACDSRECORD
 95
        5
 90
        1
  2
AcDbDs::TreatedAsObjectData
280
     1
291
     1
101
ACDSRECORD
 95
        5
 90
        2
  2
AcDbDs::Legacy
280
     1
291
     1
101
ACDSRECORD
  1
AcDbDs::ID
 90
        3
  2
AcDs:Indexable
280
     1
291
     1
101
ACDSRECORD
  1
AcDbDs::ID
 90
        4
  2
AcDbDs::HandleAttribute
280
     7
282
     1
  0
ACDSRECORD
 90
        0
  2
AcDbDs::ID
280
    10
320
22
  2
Thumbnail_Data
280
    15
 94
     1666
310
89504E470D0A1A0A0000000D49484452000001000000006F08030000003479EE6F00000300504C5445212830FFFFFF2128300000000000000000000000000000000000000000000000000000330000660000990000CC0000FF0033000033330033660033990033CC0033FF0066000066330066660066990066CC0066FF0099
310
000099330099660099990099CC0099FF00CC0000CC3300CC6600CC9900CCCC00CCFF00FF0000FF3300FF6600FF9900FFCC00FFFF3300003300333300663300993300CC3300FF3333003333333333663333993333CC3333FF3366003366333366663366993366CC3366FF3399003399333399663399993399CC3399FF33CC00
310
33CC3333CC6633CC9933CCCC33CCFF33FF0033FF3333FF6633FF9933FFCC33FFFF6600006600336600666600996600CC6600FF6633006633336633666633996633CC6633FF6666006666336666666666996666CC6666FF6699006699336699666699996699CC6699FF66CC0066CC3366CC6666CC9966CCCC66CCFF66FF0066
310
FF3366FF6666FF9966FFCC66FFFF9900009900339900669900999900CC9900FF9933009933339933669933999933CC9933FF9966009966339966669966999966CC9966FF9999009999339999669999999999CC9999FF99CC0099CC3399CC6699CC9999CCCC99CCFF99FF0099FF3399FF6699FF9999FFCC99FFFFCC0000CC00
310
33CC0066CC0099CC00CCCC00FFCC3300CC3333CC3366CC3399CC33CCCC33FFCC6600CC6633CC6666CC6699CC66CCCC66FFCC9900CC9933CC9966CC9999CC99CCCC99FFCCCC00CCCC33CCCC66CCCC99CCCCCCCCCCFFCCFF00CCFF33CCFF66CCFF99CCFFCCCCFFFFFF0000FF0033FF0066FF0099FF00CCFF00FFFF3300FF3333
310
FF3366FF3399FF33CCFF33FFFF6600FF6633FF6666FF6699FF66CCFF66FFFF9900FF9933FF9966FF9999FF99CCFF99FFFFCC00FFCC33FFCC66FFCC99FFCCCCFFCCFFFFFF00FFFF33FFFF66FFFF99FFFFCCFFFFFF0000000D0D0D1A1A1A2828283535354343435050505D5D5D6B6B6B787878868686939393A1A1A1AEAEAEBB
310
BBBBC9C9C9D6D6D6E4E4E4F1F1F1FFFFFF0000000000000000000000000000000000000000000000000000000000002E4550F10000004A4944415478DAEDD5310D0000080341FCFB6527582061EA9D83FED22A000000000000000000008067BD04480EB00D0410400001BC40EEFCF01F0400000000000000000000000000E0
310
6E003091245FD013190B0000000049454E44AE4260824F1E1040000104681CA0FB7E010410207BBF000284EF17A0C2F70B50E1FBB74646ECDF5899B15F800ADFBFBA3365FFDAD098FDF3A595B37F1A2068FE6C6C45EDFF081036FF3D40DCFCD70081F387001539FF11A0E91FA0760608DE0E000000000000003F70037F154F
310
06C6188E5E0000000049454E44AE426082BC7906C6FC5842605671075D0C0A01A03BC4DCEE7D5C4F3801D015C44C5864438B6974A576F4984356F0920613A82600D18B5A7817757455EFE14E828099EA5006923A6E2A63B9B897960044EC54055317D4F453114D5B4FD910C1975C0250074070A4660280E0452C011801F812
310
D1CB77CA0940D614C15ECA16C0434C378F952400715B044BA104E000C04D542D9D04E00300C1462601B80150C4D55149009E009C02AB882400670008AA1A09C01F803DB482842B007804B0C60D91CF2F9E2F7FB1C23DC1579225015C3F890CE05202B8F9242E001C5FF3827301006B5440D9FC87A325E680CBB4BF3A80E341
310
024800126BCED8DCCAFE0BC89323148B0004169DB1773E315BC236EF7D16429C74C0FC8810FAB822E4686C54F4D26BA9A9E2DD7790D975BD451A1FD53D220800A0797E05CB04E203000DE41FA502A8BD05F61574D1160836078CE58FF12DE253CECF072C2F70EA6F011040B1F60060AF8009C658FE140940F746886607B0F5
310
F2D84660BD1618B88A08D2027100640B8C5D0B2DBC0AC45A06BBF6C2581840B855A0358D18E98F251203406F1A612A80B202BAD38891FF580B500000D49D4988F37FAC813E72214627000A3582A5C338FE00598ED82311F33F3A0000000049454E44AE4260820F467818FD4AC64A010000000049454E44AE42608200187F52
310
539FF6AC0FF2D01229B97F7B56AE64E8787DBF9E93B283504D4929EEDB336DE133B927D0B706F146D8FDD54728002424931276690CDE5FFA471401522320E6FA719CDCC9E90D234F422DA512220CD4066298BF969A4028B717C4D481E25C1BC6C59A99842240E2F24B1F92F8AC20F021F00EFE737AFD0FDF7E00E9E9886BC5
310
1247A50000000049454E44AE426082
  0
ENDSEC
  0
EOF
