  0
SECTION
  2
HEADER
  9
$ACADVER
  1
AC1032
  9
$ACADMAINTVER
 90
      197
  9
$DWGCODEPAGE
  3
ANSI_1252
  9
$LASTSAVEDBY
  1
gregb
  9
$REQUIREDVERSIONS
160
                 0
  9
$INSBASE
 10
0.0
 20
0.0
 30
0.0
  9
$EXTMIN
 10
115950.8632697488
 20
111516.7928806034
 30
-0.0000005970976258
  9
$EXTMAX
 10
116444.28633085
 20
111892.3966325304
 30
0.000000394253846
  9
$LIMMIN
 10
0.0
 20
0.0
  9
$LIMMAX
 10
12.0
 20
9.0
  9
$ORTHOMODE
 70
     1
  9
$REGENMODE
 70
     1
  9
$FILLMODE
 70
     1
  9
$QTEXTMODE
 70
     0
  9
$MIRRTEXT
 70
     0
  9
$LTSCALE
 40
1.0
  9
$ATTMODE
 70
     1
  9
$TEXTSIZE
 40
0.2
  9
$TRACEWID
 40
0.05
  9
$TEXTSTYLE
  7
Standard
  9
$CLAYER
  8
freecads.com
  9
$CELTYPE
  6
ByLayer
  9
$CECOLOR
 62
   256
  9
$CELTSCALE
 40
1.0
  9
$DISPSILH
 70
     1
  9
$DIMSCALE
 40
1.0
  9
$DIMASZ
 40
0.18
  9
$DIMEXO
 40
0.0625
  9
$DIMDLI
 40
0.38
  9
$DIMRND
 40
0.0
  9
$DIMDLE
 40
0.0
  9
$DIMEXE
 40
0.18
  9
$DIMTP
 40
0.0
  9
$DIMTM
 40
0.0
  9
$DIMTXT
 40
0.18
  9
$DIMCEN
 40
0.09
  9
$DIMTSZ
 40
0.0
  9
$DIMTOL
 70
     0
  9
$DIMLIM
 70
     0
  9
$DIMTIH
 70
     1
  9
$DIMTOH
 70
     1
  9
$DIMSE1
 70
     0
  9
$DIMSE2
 70
     0
  9
$DIMTAD
 70
     0
  9
$DIMZIN
 70
     0
  9
$DIMBLK
  1

  9
$DIMASO
 70
     1
  9
$DIMSHO
 70
     1
  9
$DIMPOST
  1

  9
$DIMAPOST
  1

  9
$DIMALT
 70
     0
  9
$DIMALTD
 70
     2
  9
$DIMALTF
 40
25.4
  9
$DIMLFAC
 40
1.0
  9
$DIMTOFL
 70
     0
  9
$DIMTVP
 40
0.0
  9
$DIMTIX
 70
     0
  9
$DIMSOXD
 70
     0
  9
$DIMSAH
 70
     0
  9
$DIMBLK1
  1

  9
$DIMBLK2
  1

  9
$DIMSTYLE
  2
Standard
  9
$DIMCLRD
 70
     0
  9
$DIMCLRE
 70
     0
  9
$DIMCLRT
 70
     0
  9
$DIMTFAC
 40
1.0
  9
$DIMGAP
 40
0.09
  9
$DIMJUST
 70
     0
  9
$DIMSD1
 70
     0
  9
$DIMSD2
 70
     0
  9
$DIMTOLJ
 70
     1
  9
$DIMTZIN
 70
     0
  9
$DIMALTZ
 70
     0
  9
$DIMALTTZ
 70
     0
  9
$DIMUPT
 70
     0
  9
$DIMDEC
 70
     4
  9
$DIMTDEC
 70
     4
  9
$DIMALTU
 70
     2
  9
$DIMALTTD
 70
     2
  9
$DIMTXSTY
  7
Standard
  9
$DIMAUNIT
 70
     0
  9
$DIMADEC
 70
     0
  9
$DIMALTRND
 40
0.0
  9
$DIMAZIN
 70
     0
  9
$DIMDSEP
 70
    46
  9
$DIMATFIT
 70
     3
  9
$DIMFRAC
 70
     0
  9
$DIMLDRBLK
  1

  9
$DIMLUNIT
 70
     2
  9
$DIMLWD
 70
    -2
  9
$DIMLWE
 70
    -2
  9
$DIMTMOVE
 70
     0
  9
$DIMFXL
 40
1.0
  9
$DIMFXLON
 70
     0
  9
$DIMJOGANG
 40
0.7853981633974483
  9
$DIMTFILL
 70
     0
  9
$DIMTFILLCLR
 70
     0
  9
$DIMARCSYM
 70
     0
  9
$DIMLTYPE
  6

  9
$DIMLTEX1
  6

  9
$DIMLTEX2
  6

  9
$DIMTXTDIRECTION
 70
     0
  9
$LUNITS
 70
     2
  9
$LUPREC
 70
     4
  9
$SKETCHINC
 40
0.1
  9
$FILLETRAD
 40
0.0
  9
$AUNITS
 70
     0
  9
$AUPREC
 70
     0
  9
$MENU
  1
.
  9
$ELEVATION
 40
0.0
  9
$PELEVATION
 40
0.0
  9
$THICKNESS
 40
0.0
  9
$LIMCHECK
 70
     0
  9
$CHAMFERA
 40
0.0
  9
$CHAMFERB
 40
0.0
  9
$CHAMFERC
 40
0.0
  9
$CHAMFERD
 40
0.0
  9
$SKPOLY
 70
     0
  9
$TDCREATE
 40
2458157.454583334
  9
$TDUCREATE
 40
2458157.287916667
  9
$TDUPDATE
 40
2460667.304479167
  9
$TDUUPDATE
 40
2460667.137812500
  9
$TDINDWG
 40
0.2041666667
  9
$TDUSRTIMER
 40
0.2041666667
  9
$USRTIMER
 70
     1
  9
$ANGBASE
 50
0.0
  9
$ANGDIR
 70
     0
  9
$PDMODE
 70
     0
  9
$PDSIZE
 40
0.0
  9
$PLINEWID
 40
0.0
  9
$SPLFRAME
 70
     0
  9
$SPLINETYPE
 70
     6
  9
$SPLINESEGS
 70
     8
  9
$HANDSEED
  5
626B9
  9
$SURFTAB1
 70
     6
  9
$SURFTAB2
 70
     6
  9
$SURFTYPE
 70
     6
  9
$SURFU
 70
     6
  9
$SURFV
 70
     6
  9
$UCSBASE
  2

  9
$UCSNAME
  2

  9
$UCSORG
 10
0.0
 20
0.0
 30
0.0
  9
$UCSXDIR
 10
1.0
 20
0.0
 30
0.0
  9
$UCSYDIR
 10
0.0
 20
1.0
 30
0.0
  9
$UCSORTHOREF
  2

  9
$UCSORTHOVIEW
 70
     0
  9
$UCSORGTOP
 10
0.0
 20
0.0
 30
0.0
  9
$UCSORGBOTTOM
 10
0.0
 20
0.0
 30
0.0
  9
$UCSORGLEFT
 10
0.0
 20
0.0
 30
0.0
  9
$UCSORGRIGHT
 10
0.0
 20
0.0
 30
0.0
  9
$UCSORGFRONT
 10
0.0
 20
0.0
 30
0.0
  9
$UCSORGBACK
 10
0.0
 20
0.0
 30
0.0
  9
$PUCSBASE
  2

  9
$PUCSNAME
  2

  9
$PUCSORG
 10
0.0
 20
0.0
 30
0.0
  9
$PUCSXDIR
 10
1.0
 20
0.0
 30
0.0
  9
$PUCSYDIR
 10
0.0
 20
1.0
 30
0.0
  9
$PUCSORTHOREF
  2

  9
$PUCSORTHOVIEW
 70
     0
  9
$PUCSORGTOP
 10
0.0
 20
0.0
 30
0.0
  9
$PUCSORGBOTTOM
 10
0.0
 20
0.0
 30
0.0
  9
$PUCSORGLEFT
 10
0.0
 20
0.0
 30
0.0
  9
$PUCSORGRIGHT
 10
0.0
 20
0.0
 30
0.0
  9
$PUCSORGFRONT
 10
0.0
 20
0.0
 30
0.0
  9
$PUCSORGBACK
 10
0.0
 20
0.0
 30
0.0
  9
$USERI1
 70
     0
  9
$USERI2
 70
     0
  9
$USERI3
 70
     0
  9
$USERI4
 70
     0
  9
$USERI5
 70
     0
  9
$USERR1
 40
0.0
  9
$USERR2
 40
0.0
  9
$USERR3
 40
0.0
  9
$USERR4
 40
0.0
  9
$USERR5
 40
0.0
  9
$WORLDVIEW
 70
     1
  9
$SHADEDGE
 70
     3
  9
$SHADEDIF
 70
    70
  9
$TILEMODE
 70
     1
  9
$MAXACTVP
 70
    64
  9
$PINSBASE
 10
0.0
 20
0.0
 30
0.0
  9
$PLIMCHECK
 70
     0
  9
$PEXTMIN
 10
0.0
 20
0.0
 30
0.0
  9
$PEXTMAX
 10
0.0
 20
0.0
 30
0.0
  9
$PLIMMIN
 10
0.0
 20
0.0
  9
$PLIMMAX
 10
12.0
 20
9.0
  9
$UNITMODE
 70
     0
  9
$VISRETAIN
 70
     1
  9
$PLINEGEN
 70
     0
  9
$PSLTSCALE
 70
     1
  9
$TREEDEPTH
 70
  3020
  9
$CMLSTYLE
  2
Standard
  9
$CMLJUST
 70
     0
  9
$CMLSCALE
 40
1.0
  9
$PROXYGRAPHICS
 70
     1
  9
$MEASUREMENT
 70
     0
  9
$CELWEIGHT
370
    -1
  9
$ENDCAPS
280
     0
  9
$JOINSTYLE
280
     0
  9
$LWDISPLAY
290
     0
  9
$INSUNITS
 70
     1
  9
$HYPERLINKBASE
  1

  9
$STYLESHEET
  1
monochrome.ctb
  9
$XEDIT
290
     1
  9
$CEPSNTYPE
380
     0
  9
$PSTYLEMODE
290
     1
  9
$FINGERPRINTGUID
  2
{358EB121-6EE0-9143-8A3E-6E8E8869FDA6}
  9
$VERSIONGUID
  2
{A869A034-E6D3-6F4C-B332-CDB5A549EE6A}
  9
$EXTNAMES
290
     1
  9
$PSVPSCALE
 40
0.0
  9
$OLESTARTUP
290
     0
  9
$SORTENTS
280
   127
  9
$INDEXCTL
280
     0
  9
$HIDETEXT
280
     1
  9
$XCLIPFRAME
280
     2
  9
$HALOGAP
280
     0
  9
$OBSCOLOR
 70
   257
  9
$OBSLTYPE
280
     0
  9
$INTERSECTIONDISPLAY
280
     0
  9
$INTERSECTIONCOLOR
 70
   257
  9
$DIMASSOC
280
     2
  9
$PROJECTNAME
  1

  9
$CAMERADISPLAY
290
     0
  9
$LENSLENGTH
 40
50.0
  9
$CAMERAHEIGHT
 40
0.0
  9
$STEPSPERSEC
 40
2.0
  9
$STEPSIZE
 40
6.0
  9
$3DDWFPREC
 40
2.0
  9
$PSOLWIDTH
 40
0.25
  9
$PSOLHEIGHT
 40
4.0
  9
$LOFTANG1
 40
1.570796326794896
  9
$LOFTANG2
 40
1.570796326794896
  9
$LOFTMAG1
 40
0.0
  9
$LOFTMAG2
 40
0.0
  9
$LOFTPARAM
 70
     7
  9
$LOFTNORMALS
280
     1
  9
$LATITUDE
 40
37.795
  9
$LONGITUDE
 40
-122.394
  9
$NORTHDIRECTION
 40
0.0
  9
$TIMEZONE
 70
 -8000
  9
$LIGHTGLYPHDISPLAY
280
     1
  9
$TILEMODELIGHTSYNCH
280
     1
  9
$CMATERIAL
347
96
  9
$SOLIDHIST
280
     0
  9
$SHOWHIST
280
     1
  9
$DWFFRAME
280
     2
  9
$DGNFRAME
280
     0
  9
$REALWORLDSCALE
290
     1
  9
$INTERFERECOLOR
 62
     1
  9
$INTERFEREOBJVS
345
A3
  9
$INTERFEREVPVS
346
A0
  9
$CSHADOW
280
     0
  9
$SHADOWPLANELOCATION
 40
0.0
  0
ENDSEC
  0
SECTION
  2
CLASSES
  0
CLASS
  1
ACDBDICTIONARYWDFLT
  2
AcDbDictionaryWithDefault
  3
ObjectDBX Classes
 90
        0
 91
        1
280
     0
281
     0
  0
CLASS
  1
DICTIONARYVAR
  2
AcDbDictionaryVar
  3
ObjectDBX Classes
 90
        0
 91
       27
280
     0
281
     0
  0
CLASS
  1
TABLESTYLE
  2
AcDbTableStyle
  3
ObjectDBX Classes
 90
     4095
 91
        1
280
     0
281
     0
  0
CLASS
  1
MATERIAL
  2
AcDbMaterial
  3
ObjectDBX Classes
 90
     1153
 91
        3
280
     0
281
     0
  0
CLASS
  1
VISUALSTYLE
  2
AcDbVisualStyle
  3
ObjectDBX Classes
 90
     4095
 91
       25
280
     0
281
     0
  0
CLASS
  1
SCALE
  2
AcDbScale
  3
ObjectDBX Classes
 90
     1153
 91
       35
280
     0
281
     0
  0
CLASS
  1
MLEADERSTYLE
  2
AcDbMLeaderStyle
  3
ACDB_MLEADERSTYLE_CLASS
 90
     4095
 91
        1
280
     0
281
     0
  0
CLASS
  1
CELLSTYLEMAP
  2
AcDbCellStyleMap
  3
ObjectDBX Classes
 90
     1152
 91
        1
280
     0
281
     0
  0
CLASS
  1
EXACXREFPANELOBJECT
  2
ExAcXREFPanelObject
  3
EXAC_ESW
 90
     1025
 91
        1
280
     0
281
     0
  0
CLASS
  1
NPOCOLLECTION
  2
AcDbImpNonPersistentObjectsCollection
  3
ObjectDBX Classes
 90
     1153
 91
        1
280
     0
281
     0
  0
CLASS
  1
LAYER_INDEX
  2
AcDbLayerIndex
  3
ObjectDBX Classes
 90
        0
 91
        0
280
     0
281
     0
  0
CLASS
  1
SPATIAL_INDEX
  2
AcDbSpatialIndex
  3
ObjectDBX Classes
 90
        0
 91
        0
280
     0
281
     0
  0
CLASS
  1
IDBUFFER
  2
AcDbIdBuffer
  3
ObjectDBX Classes
 90
        0
 91
        0
280
     0
281
     0
  0
CLASS
  1
ACDBSECTIONVIEWSTYLE
  2
AcDbSectionViewStyle
  3
ObjectDBX Classes
 90
     1025
 91
        2
280
     0
281
     0
  0
CLASS
  1
ACDBDETAILVIEWSTYLE
  2
AcDbDetailViewStyle
  3
ObjectDBX Classes
 90
     1025
 91
        2
280
     0
281
     0
  0
CLASS
  1
SORTENTSTABLE
  2
AcDbSortentsTable
  3
ObjectDBX Classes
 90
        0
 91
        4
280
     0
281
     0
  0
CLASS
  1
ACAD_EVALUATION_GRAPH
  2
AcDbEvalGraph
  3
ObjectDBX Classes
 90
     1153
 91
        0
280
     0
281
     0
  0
CLASS
  1
BLOCKLINEARPARAMETER
  2
AcDbBlockLinearParameter
  3
ObjectDBX Classes
 90
     1153
 91
        0
280
     0
281
     0
  0
CLASS
  1
BLOCKLINEARGRIP
  2
AcDbBlockLinearGrip
  3
ObjectDBX Classes
 90
     1153
 91
        0
280
     0
281
     0
  0
CLASS
  1
BLOCKGRIPLOCATIONCOMPONENT
  2
AcDbBlockGripExpr
  3
ObjectDBX Classes
 90
     1153
 91
        0
280
     0
281
     0
  0
CLASS
  1
BLOCKSTRETCHACTION
  2
AcDbBlockStretchAction
  3
ObjectDBX Classes
 90
     1153
 91
        0
280
     0
281
     0
  0
CLASS
  1
ACDB_DYNAMICBLOCKPURGEPREVENTER_VERSION
  2
AcDbDynamicBlockPurgePreventer
  3
ObjectDBX Classes
 90
     1153
 91
        0
280
     0
281
     0
  0
CLASS
  1
BLOCKVISIBILITYPARAMETER
  2
AcDbBlockVisibilityParameter
  3
ObjectDBX Classes
 90
     1153
 91
        0
280
     0
281
     0
  0
CLASS
  1
BLOCKVISIBILITYGRIP
  2
AcDbBlockVisibilityGrip
  3
ObjectDBX Classes
 90
     1153
 91
        0
280
     0
281
     0
  0
CLASS
  1
ACDB_BLOCKREPRESENTATION_DATA
  2
AcDbBlockRepresentationData
  3
ObjectDBX Classes
 90
     1153
 91
        0
280
     0
281
     0
  0
CLASS
  1
SURFACE
  2
AcDbSurface
  3
ObjectDBX Classes
 90
     4095
 91
        0
280
     0
281
     1
  0
CLASS
  1
ACDBASSOCPERSSUBENTMANAGER
  2
AcDbAssocPersSubentManager
  3
ObjectDBX Classes
 90
     1024
 91
        1
280
     0
281
     0
  0
CLASS
  1
BLOCKARRAYACTION
  2
AcDbBlockArrayAction
  3
ObjectDBX Classes
 90
     1153
 91
        0
280
     0
281
     0
  0
CLASS
  1
BLOCKLOOKUPPARAMETER
  2
AcDbBlockLookupParameter
  3
ObjectDBX Classes
 90
     1153
 91
        0
280
     0
281
     0
  0
CLASS
  1
BLOCKLOOKUPGRIP
  2
AcDbBlockLookupGrip
  3
ObjectDBX Classes
 90
     1153
 91
        0
280
     0
281
     0
  0
CLASS
  1
BLOCKLOOKUPACTION
  2
AcDbBlockLookupAction
  3
ObjectDBX Classes
 90
     1153
 91
        0
280
     0
281
     0
  0
CLASS
  1
WIPEOUT
  2
AcDbWipeout
  3
WipeOut|Product Desc: Object Enabler for WipeOut entity | Company: Autodesk, Inc. | WEB Address: www.autodesk.com
 90
     2175
 91
        1
280
     0
281
     1
  0
CLASS
  1
WIPEOUTVARIABLES
  2
AcDbWipeoutVariables
  3
"WipeOut|Product Desc:     WipeOut Dbx Application|Company:          Autodesk, Inc.|WEB Address:      www.autodesk.com"
 90
        0
 91
        1
280
     0
281
     0
  0
ENDSEC
  0
SECTION
  2
TABLES
  0
TABLE
  2
VPORT
  5
8
330
0
100
AcDbSymbolTable
 70
     1
  0
VPORT
  5
94
330
8
100
AcDbSymbolTableRecord
100
AcDbViewportTableRecord
  2
*Active
 70
     0
 10
0.0
 20
0.0
 11
1.0
 21
1.0
 12
116252.325039617
 22
111656.0075111659
 13
0.0
 23
0.0
 14
0.5
 24
0.5
 15
0.5
 25
0.5
 16
0.0
 26
0.0
 36
1.0
 17
0.0
 27
0.0
 37
0.0
 40
804.327295320385
 41
2.293369663941871
 42
50.0
 43
0.0
 44
0.0
 50
0.0
 51
0.0
 71
     0
 72
  1000
 73
     1
 74
     3
 75
     0
 76
     0
 77
     0
 78
     0
281
     0
 65
     1
110
0.0
120
0.0
130
0.0
111
1.0
121
0.0
131
0.0
112
0.0
122
1.0
132
0.0
 79
     0
146
0.0
348
9F
 60
     3
 61
     5
292
     1
282
     1
141
0.0
142
0.0
 63
   250
421
  3355443
1001
ACAD_NAV_VCDISPLAY
1070
     3
  0
ENDTAB
  0
TABLE
  2
LTYPE
  5
5
330
0
100
AcDbSymbolTable
 70
     1
  0
LTYPE
  5
14
330
5
100
AcDbSymbolTableRecord
100
AcDbLinetypeTableRecord
  2
ByBlock
 70
     0
  3

 72
    65
 73
     0
 40
0.0
  0
LTYPE
  5
15
330
5
100
AcDbSymbolTableRecord
100
AcDbLinetypeTableRecord
  2
ByLayer
 70
     0
  3

 72
    65
 73
     0
 40
0.0
  0
LTYPE
  5
16
330
5
100
AcDbSymbolTableRecord
100
AcDbLinetypeTableRecord
  2
Continuous
 70
     0
  3
Solid line
 72
    65
 73
     0
 40
0.0
  0
ENDTAB
  0
TABLE
  2
LAYER
  5
2
102
{ACAD_XDICTIONARY
360
18E
102
}
330
0
100
AcDbSymbolTable
 70
     2
  0
LAYER
  5
10
102
{ACAD_XDICTIONARY
360
E6
102
}
330
2
100
AcDbSymbolTableRecord
100
AcDbLayerTableRecord
  2
0
 70
     0
 62
     7
  6
Continuous
370
    -3
390
F
347
98
348
0
  0
LAYER
  5
204
330
2
100
AcDbSymbolTableRecord
100
AcDbLayerTableRecord
  2
freecads.com
 70
     0
 62
     7
  6
Continuous
370
    -3
390
F
347
98
348
0
1001
AcAecLayerStandard
1000

1000

1001
AcCmTransparency
1071
        0
  0
ENDTAB
  0
TABLE
  2
STYLE
  5
3
330
0
100
AcDbSymbolTable
 70
     2
  0
STYLE
  5
11
330
3
100
AcDbSymbolTableRecord
100
AcDbTextStyleTableRecord
  2
Standard
 70
     0
 40
0.0
 41
1.0
 50
0.0
 71
     0
 42
0.2
  3
arial.ttf
  4

1001
ACAD
1000
Arial
1071
       34
  0
ENDTAB
  0
TABLE
  2
VIEW
  5
6
330
0
100
AcDbSymbolTable
 70
     0
  0
ENDTAB
  0
TABLE
  2
UCS
  5
7
330
0
100
AcDbSymbolTable
 70
     0
  0
ENDTAB
  0
TABLE
  2
APPID
  5
9
330
0
100
AcDbSymbolTable
 70
    35
  0
APPID
  5
12
330
9
100
AcDbSymbolTableRecord
100
AcDbRegAppTableRecord
  2
ACAD
 70
     0
  0
APPID
  5
DD
330
9
100
AcDbSymbolTableRecord
100
AcDbRegAppTableRecord
  2
AcadAnnoPO
 70
     0
  0
APPID
  5
DE
330
9
100
AcDbSymbolTableRecord
100
AcDbRegAppTableRecord
  2
AcadAnnotative
 70
     0
  0
APPID
  5
DF
330
9
100
AcDbSymbolTableRecord
100
AcDbRegAppTableRecord
  2
ACAD_DSTYLE_DIMJAG
 70
     0
  0
APPID
  5
E0
330
9
100
AcDbSymbolTableRecord
100
AcDbRegAppTableRecord
  2
ACAD_DSTYLE_DIMTALN
 70
     0
  0
APPID
  5
107
330
9
100
AcDbSymbolTableRecord
100
AcDbRegAppTableRecord
  2
ACAD_MLEADERVER
 70
     0
  0
APPID
  5
1A6
330
9
100
AcDbSymbolTableRecord
100
AcDbRegAppTableRecord
  2
ACAD_NAV_VCDISPLAY
 70
     0
  0
APPID
  5
205
330
9
100
AcDbSymbolTableRecord
100
AcDbRegAppTableRecord
  2
AcAecLayerStandard
 70
     0
  0
APPID
  5
206
330
9
100
AcDbSymbolTableRecord
100
AcDbRegAppTableRecord
  2
AcCmTransparency
 70
     0
  0
APPID
  5
222
330
9
100
AcDbSymbolTableRecord
100
AcDbRegAppTableRecord
  2
ACAD_PSEXT
 70
     0
  0
APPID
  5
2DA
330
9
100
AcDbSymbolTableRecord
100
AcDbRegAppTableRecord
  2
GradientColor1ACI
 70
     0
  0
APPID
  5
2DB
330
9
100
AcDbSymbolTableRecord
100
AcDbRegAppTableRecord
  2
GradientColor2ACI
 70
     0
  0
APPID
  5
2F3
330
9
100
AcDbSymbolTableRecord
100
AcDbRegAppTableRecord
  2
ACAD_EXEMPT_FROM_CAD_STANDARDS
 70
     0
  0
APPID
  5
A1A
330
9
100
AcDbSymbolTableRecord
100
AcDbRegAppTableRecord
  2
AcDbBlockRepETag
 70
     0
  0
APPID
  5
2282
330
9
100
AcDbSymbolTableRecord
100
AcDbRegAppTableRecord
  2
RAK
 70
     0
  0
APPID
  5
39F4
330
9
100
AcDbSymbolTableRecord
100
AcDbRegAppTableRecord
  2
ACAD_DSTYLE_DIMJOGGED_JOGANGLE_SYMBOL
 70
     0
  0
APPID
  5
39F5
330
9
100
AcDbSymbolTableRecord
100
AcDbRegAppTableRecord
  2
AcDbDynamicBlockGUID
 70
     0
  0
APPID
  5
39F6
330
9
100
AcDbSymbolTableRecord
100
AcDbRegAppTableRecord
  2
ACAD_DSTYLE_DIMBREAK
 70
     0
  0
APPID
  5
3B59
330
9
100
AcDbSymbolTableRecord
100
AcDbRegAppTableRecord
  2
AEC_XDATA_BOUND_SPACE
 70
     0
  0
APPID
  5
75C5
330
9
100
AcDbSymbolTableRecord
100
AcDbRegAppTableRecord
  2
AcDbDynamicBlockTrueName
 70
     0
  0
APPID
  5
75C6
330
9
100
AcDbSymbolTableRecord
100
AcDbRegAppTableRecord
  2
AcDbBlockRepBTag
 70
     0
  0
APPID
  5
75C7
330
9
100
AcDbSymbolTableRecord
100
AcDbRegAppTableRecord
  2
ACAUTHENVIRON
 70
     0
  0
APPID
  5
AA90
330
9
100
AcDbSymbolTableRecord
100
AcDbRegAppTableRecord
  2
Acad_TC
 70
     0
  0
APPID
  5
AA9C
330
9
100
AcDbSymbolTableRecord
100
AcDbRegAppTableRecord
  2
AcDbBlockArrayActionTag
 70
     0
  0
APPID
  5
BEE4
330
9
100
AcDbSymbolTableRecord
100
AcDbRegAppTableRecord
  2
ACAD_DSTYLE_DIMTEXT_FILL
 70
     0
  0
APPID
  5
219E5
330
9
100
AcDbSymbolTableRecord
100
AcDbRegAppTableRecord
  2
AECLAY
 70
     0
  0
APPID
  5
26B46
330
9
100
AcDbSymbolTableRecord
100
AcDbRegAppTableRecord
  2
REVIT
 70
     0
  0
APPID
  5
280A5
330
9
100
AcDbSymbolTableRecord
100
AcDbRegAppTableRecord
  2
HATCHBACKGROUNDCOLOR
 70
     0
  0
APPID
  5
29EE0
330
9
100
AcDbSymbolTableRecord
100
AcDbRegAppTableRecord
  2
ACAD_STEPID
 70
     0
  0
APPID
  5
29EE1
330
9
100
AcDbSymbolTableRecord
100
AcDbRegAppTableRecord
  2
AcLayerTools
 70
     0
  0
APPID
  5
4D86C
330
9
100
AcDbSymbolTableRecord
100
AcDbRegAppTableRecord
  2
PE_URL
 70
     0
  0
APPID
  5
5D3B3
330
9
100
AcDbSymbolTableRecord
100
AcDbRegAppTableRecord
  2
GENIUS_GENODEF_13
 70
     0
  0
APPID
  5
5D3B4
330
9
100
AcDbSymbolTableRecord
100
AcDbRegAppTableRecord
  2
GENIUS_GENFIL_13
 70
     0
  0
APPID
  5
5D3B5
330
9
100
AcDbSymbolTableRecord
100
AcDbRegAppTableRecord
  2
GENIUS_GENOBJ-N-CHA_13
 70
     0
  0
APPID
  5
5D3B6
330
9
100
AcDbSymbolTableRecord
100
AcDbRegAppTableRecord
  2
ACADSTRINGINFO
 70
     0
  0
ENDTAB
  0
TABLE
  2
DIMSTYLE
  5
A
330
0
100
AcDbSymbolTable
 70
     2
100
AcDbDimStyleTable
 71
     1
340
27
  0
DIMSTYLE
105
27
330
A
100
AcDbSymbolTableRecord
100
AcDbDimStyleTableRecord
  2
Standard
 70
     0
340
11
  0
ENDTAB
  0
TABLE
  2
BLOCK_RECORD
  5
1
330
0
100
AcDbSymbolTable
 70
     2
  0
BLOCK_RECORD
  5
1F
102
{ACAD_XDICTIONARY
360
15D
102
}
330
1
100
AcDbSymbolTableRecord
100
AcDbBlockTableRecord
  2
*Model_Space
340
22
 70
     0
280
     1
281
     0
  0
BLOCK_RECORD
  5
58
330
1
100
AcDbSymbolTableRecord
100
AcDbBlockTableRecord
  2
*Paper_Space
340
59
 70
     0
280
     1
281
     0
  0
BLOCK_RECORD
  5
5D
330
1
100
AcDbSymbolTableRecord
100
AcDbBlockTableRecord
  2
*Paper_Space0
340
5E
 70
     0
280
     1
281
     0
  0
ENDTAB
  0
ENDSEC
  0
SECTION
  2
BLOCKS
  0
BLOCK
  5
20
330
1F
100
AcDbEntity
  8
0
100
AcDbBlockBegin
  2
*Model_Space
 70
     0
 10
0.0
 20
0.0
 30
0.0
  3
*Model_Space
  1

  0
ENDBLK
  5
21
330
1F
100
AcDbEntity
  8
0
100
AcDbBlockEnd
  0
BLOCK
  5
5A
330
58
100
AcDbEntity
 67
     1
  8
0
100
AcDbBlockBegin
  2
*Paper_Space
 70
     0
 10
0.0
 20
0.0
 30
0.0
  3
*Paper_Space
  1

  0
ENDBLK
  5
5B
330
58
100
AcDbEntity
 67
     1
  8
0
100
AcDbBlockEnd
  0
BLOCK
  5
5F
330
5D
100
AcDbEntity
 67
     1
  8
0
100
AcDbBlockBegin
  2
*Paper_Space0
 70
     0
 10
0.0
 20
0.0
 30
0.0
  3
*Paper_Space0
  1

  0
ENDBLK
  5
60
330
5D
100
AcDbEntity
 67
     1
  8
0
100
AcDbBlockEnd
  0
ENDSEC
  0
SECTION
  2
ENTITIES
  0
LINE
  5
6119D
330
1F
100
AcDbEntity
  8
freecads.com
100
AcDbLine
 10
115986.62974278
 20
111630.2694054396
 30
0.0
 11
115986.62974278
 21
111652.7694054392
 31
0.0
1001
AcDbBlockRepETag
1070
     1
1071
        3
1005
0
  0
LINE
  5
6119E
330
1F
100
AcDbEntity
  8
freecads.com
100
AcDbLine
 10
115986.62974278
 20
111652.7694054392
 30
0.0
 11
116023.6297427784
 21
111652.7694054392
 31
0.0
1001
AcDbBlockRepETag
1070
     1
1071
        3
1005
0
  0
LINE
  5
6119F
330
1F
100
AcDbEntity
  8
freecads.com
100
AcDbLine
 10
116023.6297427784
 20
111652.7694054392
 30
0.0
 11
116023.6297427784
 21
111630.2694054396
 31
0.0
1001
AcDbBlockRepETag
1070
     1
1071
        3
1005
0
  0
LINE
  5
611A0
330
1F
100
AcDbEntity
  8
freecads.com
100
AcDbLine
 10
116023.6297427784
 20
111630.2694054396
 30
0.0
 11
115986.62974278
 21
111630.2694054396
 31
0.0
1001
AcDbBlockRepETag
1070
     1
1071
        3
1005
0
  0
LINE
  5
611A1
330
1F
100
AcDbEntity
  8
freecads.com
100
AcDbLine
 10
115986.62974278
 20
111652.7694054392
 30
0.0
 11
116023.6297427784
 21
111630.2694054396
 31
0.0
1001
AcDbBlockRepETag
1070
     1
1071
        0
1005
611A1
  0
LINE
  5
611A2
330
1F
100
AcDbEntity
  8
freecads.com
100
AcDbLine
 10
116023.6297427784
 20
111652.7694054392
 30
0.0
 11
115986.62974278
 21
111630.2694054396
 31
0.0
1001
AcDbBlockRepETag
1070
     1
1071
        1
1005
611A2
  0
LINE
  5
611A3
330
1F
100
AcDbEntity
  8
freecads.com
100
AcDbLine
 10
115986.62974278
 20
111630.2694054396
 30
0.0
 11
116023.6297427784
 21
111630.2694054396
 31
0.0
1001
AcDbBlockRepETag
1070
     1
1071
        2
1005
0
  0
LINE
  5
611A4
330
1F
100
AcDbEntity
  8
freecads.com
100
AcDbLine
 10
116023.6297427784
 20
111630.2694054396
 30
0.0
 11
116023.6297427784
 21
111652.7694054392
 31
0.0
1001
AcDbBlockRepETag
1070
     1
1071
        2
1005
0
  0
LINE
  5
611A5
330
1F
100
AcDbEntity
  8
freecads.com
100
AcDbLine
 10
116023.6297427784
 20
111652.7694054392
 30
0.0
 11
115986.62974278
 21
111652.7694054392
 31
0.0
1001
AcDbBlockRepETag
1070
     1
1071
        2
1005
0
  0
LINE
  5
611A6
330
1F
100
AcDbEntity
  8
freecads.com
100
AcDbLine
 10
115986.62974278
 20
111652.7694054392
 30
0.0
 11
115986.62974278
 21
111630.2694054396
 31
0.0
1001
AcDbBlockRepETag
1070
     1
1071
        2
1005
0
  0
LINE
  5
61F97
330
1F
100
AcDbEntity
  8
freecads.com
100
AcDbLine
 10
115964.8896291384
 20
111607.2694054396
 30
0.0
 11
116433.3484140447
 21
111607.2694054396
 31
0.0
  0
LINE
  5
61F98
330
1F
100
AcDbEntity
  8
freecads.com
100
AcDbLine
 10
115964.8896291384
 20
111617.7694054396
 30
0.0
 11
116433.3484140447
 21
111617.7694054396
 31
0.0
  0
LINE
  5
61F99
330
1F
100
AcDbEntity
  8
freecads.com
100
AcDbLine
 10
115964.8896291384
 20
111652.7694155917
 30
0.0
 11
116433.3484140447
 21
111652.7694155917
 31
0.0
  0
LINE
  5
61F9A
330
1F
100
AcDbEntity
  8
freecads.com
100
AcDbLine
 10
115964.8896291384
 20
111605.2694054396
 30
0.0
 11
116433.3484140447
 21
111605.2694054396
 31
0.0
  0
LINE
  5
61F9B
330
1F
100
AcDbEntity
  8
freecads.com
100
AcDbLine
 10
115964.8896291384
 20
111630.2694054396
 30
0.0
 11
116433.3484140447
 21
111630.2694054396
 31
0.0
  0
LINE
  5
61F9C
330
1F
100
AcDbEntity
  8
freecads.com
100
AcDbLine
 10
116179.5043175529
 20
111605.2694054396
 30
0.0
 11
116235.5043175529
 21
111605.2694054396
 31
0.0
  0
LINE
  5
61F9D
330
1F
100
AcDbEntity
  8
freecads.com
100
AcDbLine
 10
116235.5043175529
 20
111605.2694054396
 30
0.0
 11
116235.5043175529
 21
111630.2694054396
 31
0.0
  0
LINE
  5
61F9E
330
1F
100
AcDbEntity
  8
freecads.com
100
AcDbLine
 10
116235.5043175529
 20
111630.2694054396
 30
0.0
 11
116266.097731888
 21
111630.2694054396
 31
0.0
  0
LINE
  5
61F9F
330
1F
100
AcDbEntity
  8
freecads.com
100
AcDbLine
 10
116266.097731888
 20
111630.2694054396
 30
0.0
 11
116266.097731888
 21
111650.2912363459
 31
0.0
  0
LINE
  5
61FA0
330
1F
100
AcDbEntity
  8
freecads.com
100
AcDbLine
 10
116266.097731888
 20
111650.2912363459
 30
0.0
 11
116266.0995942707
 21
111650.3216948895
 31
0.0
  0
LINE
  5
61FA1
330
1F
100
AcDbEntity
  8
freecads.com
100
AcDbLine
 10
116266.0995942707
 20
111650.3216948895
 30
0.0
 11
116266.106123969
 21
111650.3554672844
 31
0.0
  0
LINE
  5
61FA2
330
1F
100
AcDbEntity
  8
freecads.com
100
AcDbLine
 10
116266.106123969
 20
111650.3554672844
 30
0.0
 11
116266.1267152821
 21
111650.4080766639
 31
0.0
  0
LINE
  5
61FA3
330
1F
100
AcDbEntity
  8
freecads.com
100
AcDbLine
 10
116266.1267152821
 20
111650.4080766639
 30
0.0
 11
116266.1709551927
 21
111650.4680130412
 31
0.0
  0
LINE
  5
61FA4
330
1F
100
AcDbEntity
  8
freecads.com
100
AcDbLine
 10
116266.1709551927
 20
111650.4680130412
 30
0.0
 11
116266.1875305837
 21
111650.4831622225
 31
0.0
  0
LINE
  5
61FA5
330
1F
100
AcDbEntity
  8
freecads.com
100
AcDbLine
 10
116266.1875305837
 20
111650.4831622225
 30
0.0
 11
116266.2157806185
 21
111650.5035777278
 31
0.0
  0
LINE
  5
61FA6
330
1F
100
AcDbEntity
  8
freecads.com
100
AcDbLine
 10
116266.2157806185
 20
111650.5035777278
 30
0.0
 11
116266.256747468
 21
111650.5240921711
 31
0.0
  0
LINE
  5
61FA7
330
1F
100
AcDbEntity
  8
freecads.com
100
AcDbLine
 10
116266.256747468
 20
111650.5240921711
 30
0.0
 11
116266.2859183197
 21
111650.5334740035
 31
0.0
  0
LINE
  5
61FA8
330
1F
100
AcDbEntity
  8
freecads.com
100
AcDbLine
 10
116266.2859183197
 20
111650.5334740035
 30
0.0
 11
116266.3127977882
 21
111650.5387835307
 31
0.0
  0
LINE
  5
61FA9
330
1F
100
AcDbEntity
  8
freecads.com
100
AcDbLine
 10
116266.3127977882
 20
111650.5387835307
 30
0.0
 11
116266.347731888
 21
111650.5412363459
 31
0.0
  0
LINE
  5
61FAA
330
1F
100
AcDbEntity
  8
freecads.com
100
AcDbLine
 10
116266.347731888
 20
111650.5412363459
 30
0.0
 11
116267.0543175529
 21
111650.5412363459
 31
0.0
  0
LINE
  5
61FAB
330
1F
100
AcDbEntity
  8
freecads.com
100
AcDbLine
 10
116267.0543175529
 20
111650.5412363459
 30
0.0
 11
116267.0918322961
 21
111650.544067084
 31
0.0
  0
LINE
  5
61FAC
330
1F
100
AcDbEntity
  8
freecads.com
100
AcDbLine
 10
116267.0918322961
 20
111650.544067084
 30
0.0
 11
116267.1276244593
 21
111650.552225682
 31
0.0
  0
LINE
  5
61FAD
330
1F
100
AcDbEntity
  8
freecads.com
100
AcDbLine
 10
116267.1276244593
 20
111650.552225682
 30
0.0
 11
116267.1548576276
 21
111650.5623440276
 31
0.0
  0
LINE
  5
61FAE
330
1F
100
AcDbEntity
  8
freecads.com
100
AcDbLine
 10
116267.1548576276
 20
111650.5623440276
 30
0.0
 11
116267.1839173477
 21
111650.577451657
 31
0.0
  0
LINE
  5
61FAF
330
1F
100
AcDbEntity
  8
freecads.com
100
AcDbLine
 10
116267.1839173477
 20
111650.577451657
 30
0.0
 11
116267.2153154543
 21
111650.5999782069
 31
0.0
  0
LINE
  5
61FB0
330
1F
100
AcDbEntity
  8
freecads.com
100
AcDbLine
 10
116267.2153154543
 20
111650.5999782069
 30
0.0
 11
116267.2310942482
 21
111650.6144596506
 31
0.0
  0
LINE
  5
61FB1
330
1F
100
AcDbEntity
  8
freecads.com
100
AcDbLine
 10
116267.2310942482
 20
111650.6144596506
 30
0.0
 11
116267.2585819405
 21
111650.647097316
 31
0.0
  0
LINE
  5
61FB2
330
1F
100
AcDbEntity
  8
freecads.com
100
AcDbLine
 10
116267.2585819405
 20
111650.647097316
 30
0.0
 11
116267.2758552778
 21
111650.6753871489
 31
0.0
  0
LINE
  5
61FB3
330
1F
100
AcDbEntity
  8
freecads.com
100
AcDbLine
 10
116267.2758552778
 20
111650.6753871489
 30
0.0
 11
116267.2919543096
 21
111650.7135911795
 31
0.0
  0
LINE
  5
61FB4
330
1F
100
AcDbEntity
  8
freecads.com
100
AcDbLine
 10
116267.2919543096
 20
111650.7135911795
 30
0.0
 11
116267.2984998304
 21
111650.7376171765
 31
0.0
  0
LINE
  5
61FB5
330
1F
100
AcDbEntity
  8
freecads.com
100
AcDbLine
 10
116267.2984998304
 20
111650.7376171765
 30
0.0
 11
116267.3020615623
 21
111650.7577265594
 31
0.0
  0
LINE
  5
61FB6
330
1F
100
AcDbEntity
  8
freecads.com
100
AcDbLine
 10
116267.3020615623
 20
111650.7577265594
 30
0.0
 11
116267.3032514349
 21
111650.7681729028
 31
0.0
  0
LINE
  5
61FB7
330
1F
100
AcDbEntity
  8
freecads.com
100
AcDbLine
 10
116267.3032514349
 20
111650.7681729028
 30
0.0
 11
116267.3043175529
 21
111650.7912363459
 31
0.0
  0
LINE
  5
61FB8
330
1F
100
AcDbEntity
  8
freecads.com
100
AcDbLine
 10
116267.3043175529
 20
111650.7912363459
 30
0.0
 11
116267.3043175529
 21
111655.2346846735
 31
0.0
  0
LINE
  5
61FB9
330
1F
100
AcDbEntity
  8
freecads.com
100
AcDbLine
 10
116267.3043175529
 20
111655.2346846735
 30
0.0
 11
116267.3028007598
 21
111655.2621818714
 31
0.0
  0
LINE
  5
61FBA
330
1F
100
AcDbEntity
  8
freecads.com
100
AcDbLine
 10
116267.3028007598
 20
111655.2621818714
 30
0.0
 11
116267.299496267
 21
111655.2835456821
 31
0.0
  0
LINE
  5
61FBB
330
1F
100
AcDbEntity
  8
freecads.com
100
AcDbLine
 10
116267.299496267
 20
111655.2835456821
 30
0.0
 11
116267.2913511126
 21
111655.3141522238
 31
0.0
  0
LINE
  5
61FBC
330
1F
100
AcDbEntity
  8
freecads.com
100
AcDbLine
 10
116267.2913511126
 20
111655.3141522238
 30
0.0
 11
116267.281221183
 21
111655.3396358175
 31
0.0
  0
LINE
  5
61FBD
330
1F
100
AcDbEntity
  8
freecads.com
100
AcDbLine
 10
116267.281221183
 20
111655.3396358175
 30
0.0
 11
116267.2583629101
 21
111655.3791335993
 31
0.0
  0
LINE
  5
61FBE
330
1F
100
AcDbEntity
  8
freecads.com
100
AcDbLine
 10
116267.2583629101
 20
111655.3791335993
 30
0.0
 11
116267.2310942482
 21
111655.4114613688
 31
0.0
  0
LINE
  5
61FBF
330
1F
100
AcDbEntity
  8
freecads.com
100
AcDbLine
 10
116267.2310942482
 20
111655.4114613688
 30
0.0
 11
116267.2132584841
 21
111655.4276556049
 31
0.0
  0
LINE
  5
61FC0
330
1F
100
AcDbEntity
  8
freecads.com
100
AcDbLine
 10
116267.2132584841
 20
111655.4276556049
 30
0.0
 11
116267.1817878716
 21
111655.4497458691
 31
0.0
  0
LINE
  5
61FC1
330
1F
100
AcDbEntity
  8
freecads.com
100
AcDbLine
 10
116267.1817878716
 20
111655.4497458691
 30
0.0
 11
116267.1465042687
 21
111655.4670671372
 31
0.0
  0
LINE
  5
61FC2
330
1F
100
AcDbEntity
  8
freecads.com
100
AcDbLine
 10
116267.1465042687
 20
111655.4670671372
 30
0.0
 11
116267.1163378202
 21
111655.4768694923
 31
0.0
  0
LINE
  5
61FC3
330
1F
100
AcDbEntity
  8
freecads.com
100
AcDbLine
 10
116267.1163378202
 20
111655.4768694923
 30
0.0
 11
116267.0878299286
 21
111655.4824283327
 31
0.0
  0
LINE
  5
61FC4
330
1F
100
AcDbEntity
  8
freecads.com
100
AcDbLine
 10
116267.0878299286
 20
111655.4824283327
 30
0.0
 11
116267.0543175529
 21
111655.4846846735
 31
0.0
  0
LINE
  5
61FC5
330
1F
100
AcDbEntity
  8
freecads.com
100
AcDbLine
 10
116267.0543175529
 20
111655.4846846735
 30
0.0
 11
116266.33198328
 21
111655.4846846735
 31
0.0
  0
LINE
  5
61FC6
330
1F
100
AcDbEntity
  8
freecads.com
100
AcDbLine
 10
116266.33198328
 20
111655.4846846735
 30
0.0
 11
116266.2965322335
 21
111655.4821583555
 31
0.0
  0
LINE
  5
61FC7
330
1F
100
AcDbEntity
  8
freecads.com
100
AcDbLine
 10
116266.2965322335
 20
111655.4821583555
 30
0.0
 11
116266.2593798913
 21
111655.4739099814
 31
0.0
  0
LINE
  5
61FC8
330
1F
100
AcDbEntity
  8
freecads.com
100
AcDbLine
 10
116266.2593798913
 20
111655.4739099814
 30
0.0
 11
116266.2093288618
 21
111655.4525284104
 31
0.0
  0
LINE
  5
61FC9
330
1F
100
AcDbEntity
  8
freecads.com
100
AcDbLine
 10
116266.2093288618
 20
111655.4525284104
 30
0.0
 11
116266.1688708552
 21
111655.4241426818
 31
0.0
  0
LINE
  5
61FCA
330
1F
100
AcDbEntity
  8
freecads.com
100
AcDbLine
 10
116266.1688708552
 20
111655.4241426818
 30
0.0
 11
116266.1414357781
 21
111655.3965230174
 31
0.0
  0
LINE
  5
61FCB
330
1F
100
AcDbEntity
  8
freecads.com
100
AcDbLine
 10
116266.1414357781
 20
111655.3965230174
 30
0.0
 11
116266.1195446515
 21
111655.3664793211
 31
0.0
  0
LINE
  5
61FCC
330
1F
100
AcDbEntity
  8
freecads.com
100
AcDbLine
 10
116266.1195446515
 20
111655.3664793211
 30
0.0
 11
116266.0924179308
 21
111655.3061580495
 31
0.0
  0
LINE
  5
61FCD
330
1F
100
AcDbEntity
  8
freecads.com
100
AcDbLine
 10
116266.0924179308
 20
111655.3061580495
 30
0.0
 11
116266.0842674922
 21
111655.2684024509
 31
0.0
  0
LINE
  5
61FCE
330
1F
100
AcDbEntity
  8
freecads.com
100
AcDbLine
 10
116266.0842674922
 20
111655.2684024509
 30
0.0
 11
116266.08198328
 21
111655.2346846735
 31
0.0
  0
LINE
  5
61FCF
330
1F
100
AcDbEntity
  8
freecads.com
100
AcDbLine
 10
116266.08198328
 20
111655.2346846735
 30
0.0
 11
116266.08198328
 21
111653.8261477363
 31
0.0
  0
LINE
  5
61FD0
330
1F
100
AcDbEntity
  8
freecads.com
100
AcDbLine
 10
116266.08198328
 20
111653.8261477363
 30
0.0
 11
116266.0798330809
 21
111653.793429604
 31
0.0
  0
LINE
  5
61FD1
330
1F
100
AcDbEntity
  8
freecads.com
100
AcDbLine
 10
116266.0798330809
 20
111653.793429604
 30
0.0
 11
116266.0708899012
 21
111653.7525024628
 31
0.0
  0
LINE
  5
61FD2
330
1F
100
AcDbEntity
  8
freecads.com
100
AcDbLine
 10
116266.0708899012
 20
111653.7525024628
 30
0.0
 11
116266.0476333496
 21
111653.6996762079
 31
0.0
  0
LINE
  5
61FD3
330
1F
100
AcDbEntity
  8
freecads.com
100
AcDbLine
 10
116266.0476333496
 20
111653.6996762079
 30
0.0
 11
116266.0087599753
 21
111653.649371041
 31
0.0
  0
LINE
  5
61FD4
330
1F
100
AcDbEntity
  8
freecads.com
100
AcDbLine
 10
116266.0087599753
 20
111653.649371041
 30
0.0
 11
116265.9290403859
 21
111653.5957569418
 31
0.0
  0
LINE
  5
61FD5
330
1F
100
AcDbEntity
  8
freecads.com
100
AcDbLine
 10
116265.9290403859
 20
111653.5957569418
 30
0.0
 11
116265.8726690522
 21
111653.5794806166
 31
0.0
  0
LINE
  5
61FD6
330
1F
100
AcDbEntity
  8
freecads.com
100
AcDbLine
 10
116265.8726690522
 20
111653.5794806166
 30
0.0
 11
116265.8319832799
 21
111653.5761477363
 31
0.0
  0
LINE
  5
61FD7
330
1F
100
AcDbEntity
  8
freecads.com
100
AcDbLine
 10
116265.8319832799
 20
111653.5761477363
 30
0.0
 11
116265.134602318
 21
111653.5761477363
 31
0.0
  0
LINE
  5
61FD8
330
1F
100
AcDbEntity
  8
freecads.com
100
AcDbLine
 10
116265.134602318
 20
111653.5761477363
 30
0.0
 11
116265.0894439764
 21
111653.5802601112
 31
0.0
  0
LINE
  5
61FD9
330
1F
100
AcDbEntity
  8
freecads.com
100
AcDbLine
 10
116265.0894439764
 20
111653.5802601112
 30
0.0
 11
116265.0019426997
 21
111653.6142481713
 31
0.0
  0
LINE
  5
61FDA
330
1F
100
AcDbEntity
  8
freecads.com
100
AcDbLine
 10
116265.0019426997
 20
111653.6142481713
 30
0.0
 11
116264.9578256227
 21
111653.649371041
 31
0.0
  0
LINE
  5
61FDB
330
1F
100
AcDbEntity
  8
freecads.com
100
AcDbLine
 10
116264.9578256227
 20
111653.649371041
 30
0.0
 11
116264.9161557525
 21
111653.7045701972
 31
0.0
  0
LINE
  5
61FDC
330
1F
100
AcDbEntity
  8
freecads.com
100
AcDbLine
 10
116264.9161557525
 20
111653.7045701972
 30
0.0
 11
116264.8937765283
 21
111653.7590437944
 31
0.0
  0
LINE
  5
61FDD
330
1F
100
AcDbEntity
  8
freecads.com
100
AcDbLine
 10
116264.8937765283
 20
111653.7590437944
 30
0.0
 11
116264.884602318
 21
111653.8261477363
 31
0.0
  0
LINE
  5
61FDE
330
1F
100
AcDbEntity
  8
freecads.com
100
AcDbLine
 10
116264.884602318
 20
111653.8261477363
 30
0.0
 11
116264.884602318
 21
111669.5863014665
 31
0.0
  0
LINE
  5
61FDF
330
1F
100
AcDbEntity
  8
freecads.com
100
AcDbLine
 10
116264.884602318
 20
111669.5863014665
 30
0.0
 11
116266.3043175529
 21
111669.5863014665
 31
0.0
  0
LINE
  5
61FE0
330
1F
100
AcDbEntity
  8
freecads.com
100
AcDbLine
 10
116266.3043175529
 20
111669.5863014665
 30
0.0
 11
116266.3043175529
 21
111668.3363014665
 31
0.0
  0
LINE
  5
61FE1
330
1F
100
AcDbEntity
  8
freecads.com
100
AcDbLine
 10
116266.3043175529
 20
111668.3363014665
 30
0.0
 11
116266.3085546527
 21
111668.2713465064
 31
0.0
  0
LINE
  5
61FE2
330
1F
100
AcDbEntity
  8
freecads.com
100
AcDbLine
 10
116266.3085546527
 20
111668.2713465064
 30
0.0
 11
116266.3232893321
 21
111668.1998762091
 31
0.0
  0
LINE
  5
61FE3
330
1F
100
AcDbEntity
  8
freecads.com
100
AcDbLine
 10
116266.3232893321
 20
111668.1998762091
 30
0.0
 11
116266.3456794127
 21
111668.1371757364
 31
0.0
  0
LINE
  5
61FE4
330
1F
100
AcDbEntity
  8
freecads.com
100
AcDbLine
 10
116266.3456794127
 20
111668.1371757364
 30
0.0
 11
116266.3842213166
 21
111668.0651573124
 31
0.0
  0
LINE
  5
61FE5
330
1F
100
AcDbEntity
  8
freecads.com
100
AcDbLine
 10
116266.3842213166
 20
111668.0651573124
 30
0.0
 11
116266.4219107354
 21
111668.0141756743
 31
0.0
  0
LINE
  5
61FE6
330
1F
100
AcDbEntity
  8
freecads.com
100
AcDbLine
 10
116266.4219107354
 20
111668.0141756743
 30
0.0
 11
116266.4770344862
 21
111667.9582990931
 31
0.0
  0
LINE
  5
61FE7
330
1F
100
AcDbEntity
  8
freecads.com
100
AcDbLine
 10
116266.4770344862
 20
111667.9582990931
 30
0.0
 11
116266.5338819593
 21
111667.9157487471
 31
0.0
  0
LINE
  5
61FE8
330
1F
100
AcDbEntity
  8
freecads.com
100
AcDbLine
 10
116266.5338819593
 20
111667.9157487471
 30
0.0
 11
116266.5818079593
 21
111667.8885409493
 31
0.0
  0
LINE
  5
61FE9
330
1F
100
AcDbEntity
  8
freecads.com
100
AcDbLine
 10
116266.5818079593
 20
111667.8885409493
 30
0.0
 11
116266.6531933703
 21
111667.8596868617
 31
0.0
  0
LINE
  5
61FEA
330
1F
100
AcDbEntity
  8
freecads.com
100
AcDbLine
 10
116266.6531933703
 20
111667.8596868617
 30
0.0
 11
116266.7301889162
 21
111667.8418270534
 31
0.0
  0
LINE
  5
61FEB
330
1F
100
AcDbEntity
  8
freecads.com
100
AcDbLine
 10
116266.7301889162
 20
111667.8418270534
 30
0.0
 11
116266.8043175529
 21
111667.8363014665
 31
0.0
  0
LINE
  5
61FEC
330
1F
100
AcDbEntity
  8
freecads.com
100
AcDbLine
 10
116266.8043175529
 20
111667.8363014665
 30
0.0
 11
116266.9541293873
 21
111667.8592727312
 31
0.0
  0
LINE
  5
61FED
330
1F
100
AcDbEntity
  8
freecads.com
100
AcDbLine
 10
116266.9541293873
 20
111667.8592727312
 30
0.0
 11
116267.0577402499
 21
111667.9052829788
 31
0.0
  0
LINE
  5
61FEE
330
1F
100
AcDbEntity
  8
freecads.com
100
AcDbLine
 10
116267.0577402499
 20
111667.9052829788
 30
0.0
 11
116267.155944671
 21
111667.9808322417
 31
0.0
  0
LINE
  5
61FEF
330
1F
100
AcDbEntity
  8
freecads.com
100
AcDbLine
 10
116267.155944671
 20
111667.9808322417
 30
0.0
 11
116267.2056439869
 21
111668.0380782391
 31
0.0
  0
LINE
  5
61FF0
330
1F
100
AcDbEntity
  8
freecads.com
100
AcDbLine
 10
116267.2056439869
 20
111668.0380782391
 30
0.0
 11
116267.2532972828
 21
111668.1162623741
 31
0.0
  0
LINE
  5
61FF1
330
1F
100
AcDbEntity
  8
freecads.com
100
AcDbLine
 10
116267.2532972828
 20
111668.1162623741
 30
0.0
 11
116267.2868499088
 21
111668.2052956442
 31
0.0
  0
LINE
  5
61FF2
330
1F
100
AcDbEntity
  8
freecads.com
100
AcDbLine
 10
116267.2868499088
 20
111668.2052956442
 30
0.0
 11
116267.3006254299
 21
111668.2756508997
 31
0.0
  0
LINE
  5
61FF3
330
1F
100
AcDbEntity
  8
freecads.com
100
AcDbLine
 10
116267.3006254299
 20
111668.2756508997
 30
0.0
 11
116267.3043175529
 21
111668.3363014665
 31
0.0
  0
LINE
  5
61FF4
330
1F
100
AcDbEntity
  8
freecads.com
100
AcDbLine
 10
116267.3043175529
 20
111668.3363014665
 30
0.0
 11
116267.3043175529
 21
111672.3363014665
 31
0.0
  0
LINE
  5
61FF5
330
1F
100
AcDbEntity
  8
freecads.com
100
AcDbLine
 10
116267.3043175529
 20
111672.3363014665
 30
0.0
 11
116267.300054322
 21
111672.4014555587
 31
0.0
  0
LINE
  5
61FF6
330
1F
100
AcDbEntity
  8
freecads.com
100
AcDbLine
 10
116267.300054322
 20
111672.4014555587
 30
0.0
 11
116267.2856880375
 21
111672.471514101
 31
0.0
  0
LINE
  5
61FF7
330
1F
100
AcDbEntity
  8
freecads.com
100
AcDbLine
 10
116267.2856880375
 20
111672.471514101
 30
0.0
 11
116267.2631936835
 21
111672.5348781438
 31
0.0
  0
LINE
  5
61FF8
330
1F
100
AcDbEntity
  8
freecads.com
100
AcDbLine
 10
116267.2631936835
 20
111672.5348781438
 30
0.0
 11
116267.2086314564
 21
111672.6304617415
 31
0.0
  0
LINE
  5
61FF9
330
1F
100
AcDbEntity
  8
freecads.com
100
AcDbLine
 10
116267.2086314564
 20
111672.6304617415
 30
0.0
 11
116267.1622159282
 21
111672.6854558062
 31
0.0
  0
LINE
  5
61FFA
330
1F
100
AcDbEntity
  8
freecads.com
100
AcDbLine
 10
116267.1622159282
 20
111672.6854558062
 30
0.0
 11
116267.0868392466
 21
111672.7488320623
 31
0.0
  0
LINE
  5
61FFB
330
1F
100
AcDbEntity
  8
freecads.com
100
AcDbLine
 10
116267.0868392466
 20
111672.7488320623
 30
0.0
 11
116266.9801736136
 21
111672.8043555722
 31
0.0
  0
LINE
  5
61FFC
330
1F
100
AcDbEntity
  8
freecads.com
100
AcDbLine
 10
116266.9801736136
 20
111672.8043555722
 30
0.0
 11
116266.9425090924
 21
111672.8168252415
 31
0.0
  0
LINE
  5
61FFD
330
1F
100
AcDbEntity
  8
freecads.com
100
AcDbLine
 10
116266.9425090924
 20
111672.8168252415
 30
0.0
 11
116266.8976910185
 21
111672.8275054932
 31
0.0
  0
LINE
  5
61FFE
330
1F
100
AcDbEntity
  8
freecads.com
100
AcDbLine
 10
116266.8976910185
 20
111672.8275054932
 30
0.0
 11
116266.8564425605
 21
111672.8335770275
 31
0.0
  0
LINE
  5
61FFF
330
1F
100
AcDbEntity
  8
freecads.com
100
AcDbLine
 10
116266.8564425605
 20
111672.8335770275
 30
0.0
 11
116266.8043175529
 21
111672.8363014665
 31
0.0
  0
LINE
  5
62000
330
1F
100
AcDbEntity
  8
freecads.com
100
AcDbLine
 10
116266.8043175529
 20
111672.8363014665
 30
0.0
 11
116266.7260986095
 21
111672.8301453658
 31
0.0
  0
LINE
  5
62001
330
1F
100
AcDbEntity
  8
freecads.com
100
AcDbLine
 10
116266.7260986095
 20
111672.8301453658
 30
0.0
 11
116266.6244127939
 21
111672.8028143577
 31
0.0
  0
LINE
  5
62002
330
1F
100
AcDbEntity
  8
freecads.com
100
AcDbLine
 10
116266.6244127939
 20
111672.8028143577
 30
0.0
 11
116266.5487624451
 21
111672.7660590573
 31
0.0
  0
LINE
  5
62003
330
1F
100
AcDbEntity
  8
freecads.com
100
AcDbLine
 10
116266.5487624451
 20
111672.7660590573
 30
0.0
 11
116266.4786473262
 21
111672.7156942754
 31
0.0
  0
LINE
  5
62004
330
1F
100
AcDbEntity
  8
freecads.com
100
AcDbLine
 10
116266.4786473262
 20
111672.7156942754
 30
0.0
 11
116266.4176514284
 21
111672.6533019525
 31
0.0
  0
LINE
  5
62005
330
1F
100
AcDbEntity
  8
freecads.com
100
AcDbLine
 10
116266.4176514284
 20
111672.6533019525
 30
0.0
 11
116266.3773974036
 21
111672.5965689945
 31
0.0
  0
LINE
  5
62006
330
1F
100
AcDbEntity
  8
freecads.com
100
AcDbLine
 10
116266.3773974036
 20
111672.5965689945
 30
0.0
 11
116266.3509598242
 21
111672.5471729198
 31
0.0
  0
LINE
  5
62007
330
1F
100
AcDbEntity
  8
freecads.com
100
AcDbLine
 10
116266.3509598242
 20
111672.5471729198
 30
0.0
 11
116266.324858498
 21
111672.478142979
 31
0.0
  0
LINE
  5
62008
330
1F
100
AcDbEntity
  8
freecads.com
100
AcDbLine
 10
116266.324858498
 20
111672.478142979
 30
0.0
 11
116266.3125107097
 21
111672.4264459558
 31
0.0
  0
LINE
  5
62009
330
1F
100
AcDbEntity
  8
freecads.com
100
AcDbLine
 10
116266.3125107097
 20
111672.4264459558
 30
0.0
 11
116266.3059022383
 21
111672.3760780195
 31
0.0
  0
LINE
  5
6200A
330
1F
100
AcDbEntity
  8
freecads.com
100
AcDbLine
 10
116266.3059022383
 20
111672.3760780195
 30
0.0
 11
116266.3043175529
 21
111672.3363014665
 31
0.0
  0
LINE
  5
6200B
330
1F
100
AcDbEntity
  8
freecads.com
100
AcDbLine
 10
116266.3043175529
 20
111672.3363014665
 30
0.0
 11
116266.3043175529
 21
111670.5863014665
 31
0.0
  0
LINE
  5
6200C
330
1F
100
AcDbEntity
  8
freecads.com
100
AcDbLine
 10
116266.3043175529
 20
111670.5863014665
 30
0.0
 11
116264.884602318
 21
111670.5863014665
 31
0.0
  0
LINE
  5
6200D
330
1F
100
AcDbEntity
  8
freecads.com
100
AcDbLine
 10
116264.884602318
 20
111670.5863014665
 30
0.0
 11
116264.884602318
 21
111686.2922480116
 31
0.0
  0
LINE
  5
6200E
330
1F
100
AcDbEntity
  8
freecads.com
100
AcDbLine
 10
116264.884602318
 20
111686.2922480116
 30
0.0
 11
116264.8886546683
 21
111686.3370782871
 31
0.0
  0
LINE
  5
6200F
330
1F
100
AcDbEntity
  8
freecads.com
100
AcDbLine
 10
116264.8886546683
 20
111686.3370782871
 30
0.0
 11
116264.9076260409
 21
111686.3970419504
 31
0.0
  0
LINE
  5
62010
330
1F
100
AcDbEntity
  8
freecads.com
100
AcDbLine
 10
116264.9076260409
 20
111686.3970419504
 30
0.0
 11
116264.9578256227
 21
111686.4690247069
 31
0.0
  0
LINE
  5
62011
330
1F
100
AcDbEntity
  8
freecads.com
100
AcDbLine
 10
116264.9578256227
 20
111686.4690247069
 30
0.0
 11
116264.9825287137
 21
111686.4906758798
 31
0.0
  0
LINE
  5
62012
330
1F
100
AcDbEntity
  8
freecads.com
100
AcDbLine
 10
116264.9825287137
 20
111686.4906758798
 30
0.0
 11
116265.0182871194
 21
111686.5135414245
 31
0.0
  0
LINE
  5
62013
330
1F
100
AcDbEntity
  8
freecads.com
100
AcDbLine
 10
116265.0182871194
 20
111686.5135414245
 30
0.0
 11
116265.0586431597
 21
111686.5304290484
 31
0.0
  0
LINE
  5
62014
330
1F
100
AcDbEntity
  8
freecads.com
100
AcDbLine
 10
116265.0586431597
 20
111686.5304290484
 30
0.0
 11
116265.0964462951
 21
111686.5393190903
 31
0.0
  0
LINE
  5
62015
330
1F
100
AcDbEntity
  8
freecads.com
100
AcDbLine
 10
116265.0964462951
 20
111686.5393190903
 30
0.0
 11
116265.134602318
 21
111686.5422480116
 31
0.0
  0
LINE
  5
62016
330
1F
100
AcDbEntity
  8
freecads.com
100
AcDbLine
 10
116265.134602318
 20
111686.5422480116
 30
0.0
 11
116266.0543175529
 21
111686.5422480116
 31
0.0
  0
LINE
  5
62017
330
1F
100
AcDbEntity
  8
freecads.com
100
AcDbLine
 10
116266.0543175529
 20
111686.5422480116
 30
0.0
 11
116266.1074990907
 21
111686.5365259763
 31
0.0
  0
LINE
  5
62018
330
1F
100
AcDbEntity
  8
freecads.com
100
AcDbLine
 10
116266.1074990907
 20
111686.5365259763
 30
0.0
 11
116266.129905514
 21
111686.5305471097
 31
0.0
  0
LINE
  5
62019
330
1F
100
AcDbEntity
  8
freecads.com
100
AcDbLine
 10
116266.129905514
 20
111686.5305471097
 30
0.0
 11
116266.1585173202
 21
111686.5194976728
 31
0.0
  0
LINE
  5
6201A
330
1F
100
AcDbEntity
  8
freecads.com
100
AcDbLine
 10
116266.1585173202
 20
111686.5194976728
 30
0.0
 11
116266.1990771673
 21
111686.4960730691
 31
0.0
  0
LINE
  5
6201B
330
1F
100
AcDbEntity
  8
freecads.com
100
AcDbLine
 10
116266.1990771673
 20
111686.4960730691
 30
0.0
 11
116266.2310942482
 21
111686.4690247069
 31
0.0
  0
LINE
  5
6201C
330
1F
100
AcDbEntity
  8
freecads.com
100
AcDbLine
 10
116266.2310942482
 20
111686.4690247069
 30
0.0
 11
116266.2557083464
 21
111686.4403754846
 31
0.0
  0
LINE
  5
6201D
330
1F
100
AcDbEntity
  8
freecads.com
100
AcDbLine
 10
116266.2557083464
 20
111686.4403754846
 30
0.0
 11
116266.2719716258
 21
111686.4152386802
 31
0.0
  0
LINE
  5
6201E
330
1F
100
AcDbEntity
  8
freecads.com
100
AcDbLine
 10
116266.2719716258
 20
111686.4152386802
 30
0.0
 11
116266.2877862612
 21
111686.3816480242
 31
0.0
  0
LINE
  5
6201F
330
1F
100
AcDbEntity
  8
freecads.com
100
AcDbLine
 10
116266.2877862612
 20
111686.3816480242
 30
0.0
 11
116266.2982448155
 21
111686.3470156168
 31
0.0
  0
LINE
  5
62020
330
1F
100
AcDbEntity
  8
freecads.com
100
AcDbLine
 10
116266.2982448155
 20
111686.3470156168
 30
0.0
 11
116266.3011354698
 21
111686.3320087448
 31
0.0
  0
LINE
  5
62021
330
1F
100
AcDbEntity
  8
freecads.com
100
AcDbLine
 10
116266.3011354698
 20
111686.3320087448
 30
0.0
 11
116266.3043175529
 21
111686.2922480116
 31
0.0
  0
LINE
  5
62022
330
1F
100
AcDbEntity
  8
freecads.com
100
AcDbLine
 10
116266.3043175529
 20
111686.2922480116
 30
0.0
 11
116266.3043175529
 21
111685.2922480116
 31
0.0
  0
LINE
  5
62023
330
1F
100
AcDbEntity
  8
freecads.com
100
AcDbLine
 10
116266.3043175529
 20
111685.2922480116
 30
0.0
 11
116266.3077510726
 21
111685.2509567198
 31
0.0
  0
LINE
  5
62024
330
1F
100
AcDbEntity
  8
freecads.com
100
AcDbLine
 10
116266.3077510726
 20
111685.2509567198
 30
0.0
 11
116266.3214463352
 21
111685.2013029955
 31
0.0
  0
LINE
  5
62025
330
1F
100
AcDbEntity
  8
freecads.com
100
AcDbLine
 10
116266.3214463352
 20
111685.2013029955
 30
0.0
 11
116266.3404626946
 21
111685.1627640374
 31
0.0
  0
LINE
  5
62026
330
1F
100
AcDbEntity
  8
freecads.com
100
AcDbLine
 10
116266.3404626946
 20
111685.1627640374
 30
0.0
 11
116266.3775408576
 21
111685.1154713163
 31
0.0
  0
LINE
  5
62027
330
1F
100
AcDbEntity
  8
freecads.com
100
AcDbLine
 10
116266.3775408576
 20
111685.1154713163
 30
0.0
 11
116266.4350847992
 21
111685.0725128291
 31
0.0
  0
LINE
  5
62028
330
1F
100
AcDbEntity
  8
freecads.com
100
AcDbLine
 10
116266.4350847992
 20
111685.0725128291
 30
0.0
 11
116266.4938202033
 21
111685.0496782882
 31
0.0
  0
LINE
  5
62029
330
1F
100
AcDbEntity
  8
freecads.com
100
AcDbLine
 10
116266.4938202033
 20
111685.0496782882
 30
0.0
 11
116266.5543175529
 21
111685.0422480116
 31
0.0
  0
LINE
  5
6202A
330
1F
100
AcDbEntity
  8
freecads.com
100
AcDbLine
 10
116266.5543175529
 20
111685.0422480116
 30
0.0
 11
116267.3043175529
 21
111685.0422480116
 31
0.0
  0
LINE
  5
6202B
330
1F
100
AcDbEntity
  8
freecads.com
100
AcDbLine
 10
116267.3043175529
 20
111685.0422480116
 30
0.0
 11
116267.3043175529
 21
111687.5422480116
 31
0.0
  0
LINE
  5
6202C
330
1F
100
AcDbEntity
  8
freecads.com
100
AcDbLine
 10
116267.3043175529
 20
111687.5422480116
 30
0.0
 11
116258.0897375131
 21
111687.5422480116
 31
0.0
  0
LINE
  5
6202D
330
1F
100
AcDbEntity
  8
freecads.com
100
AcDbLine
 10
116258.0897375131
 20
111687.5422480116
 30
0.0
 11
116258.0897375131
 21
111683.3351133612
 31
0.0
  0
LINE
  5
6202E
330
1F
100
AcDbEntity
  8
freecads.com
100
AcDbLine
 10
116258.0897375131
 20
111683.3351133612
 30
0.0
 11
116258.7440344332
 21
111683.3351133612
 31
0.0
  0
LINE
  5
6202F
330
1F
100
AcDbEntity
  8
freecads.com
100
AcDbLine
 10
116258.7440344332
 20
111683.3351133612
 30
0.0
 11
116258.8064896207
 21
111683.3430403359
 31
0.0
  0
LINE
  5
62030
330
1F
100
AcDbEntity
  8
freecads.com
100
AcDbLine
 10
116258.8064896207
 20
111683.3430403359
 30
0.0
 11
116258.8451559511
 21
111683.3564773215
 31
0.0
  0
LINE
  5
62031
330
1F
100
AcDbEntity
  8
freecads.com
100
AcDbLine
 10
116258.8451559511
 20
111683.3564773215
 30
0.0
 11
116258.8793090023
 21
111683.3748735197
 31
0.0
  0
LINE
  5
62032
330
1F
100
AcDbEntity
  8
freecads.com
100
AcDbLine
 10
116258.8793090023
 20
111683.3748735197
 30
0.0
 11
116258.9436672613
 21
111683.4346250428
 31
0.0
  0
LINE
  5
62033
330
1F
100
AcDbEntity
  8
freecads.com
100
AcDbLine
 10
116258.9436672613
 20
111683.4346250428
 30
0.0
 11
116258.9678771588
 21
111683.4737830679
 31
0.0
  0
LINE
  5
62034
330
1F
100
AcDbEntity
  8
freecads.com
100
AcDbLine
 10
116258.9678771588
 20
111683.4737830679
 30
0.0
 11
116258.9853005734
 21
111683.5196103107
 31
0.0
  0
LINE
  5
62035
330
1F
100
AcDbEntity
  8
freecads.com
100
AcDbLine
 10
116258.9853005734
 20
111683.5196103107
 30
0.0
 11
116258.9919858477
 21
111683.5531744183
 31
0.0
  0
LINE
  5
62036
330
1F
100
AcDbEntity
  8
freecads.com
100
AcDbLine
 10
116258.9919858477
 20
111683.5531744183
 30
0.0
 11
116258.9940344332
 21
111683.5851133612
 31
0.0
  0
LINE
  5
62037
330
1F
100
AcDbEntity
  8
freecads.com
100
AcDbLine
 10
116258.9940344332
 20
111683.5851133612
 30
0.0
 11
116258.9940344332
 21
111686.2922480116
 31
0.0
  0
LINE
  5
62038
330
1F
100
AcDbEntity
  8
freecads.com
100
AcDbLine
 10
116258.9940344332
 20
111686.2922480116
 30
0.0
 11
116259.0002609443
 21
111686.3476960601
 31
0.0
  0
LINE
  5
62039
330
1F
100
AcDbEntity
  8
freecads.com
100
AcDbLine
 10
116259.0002609443
 20
111686.3476960601
 30
0.0
 11
116259.0107776256
 21
111686.3821994523
 31
0.0
  0
LINE
  5
6203A
330
1F
100
AcDbEntity
  8
freecads.com
100
AcDbLine
 10
116259.0107776256
 20
111686.3821994523
 30
0.0
 11
116259.0300433723
 21
111686.4215067669
 31
0.0
  0
LINE
  5
6203B
330
1F
100
AcDbEntity
  8
freecads.com
100
AcDbLine
 10
116259.0300433723
 20
111686.4215067669
 30
0.0
 11
116259.067257738
 21
111686.4690247069
 31
0.0
  0
LINE
  5
6203C
330
1F
100
AcDbEntity
  8
freecads.com
100
AcDbLine
 10
116259.067257738
 20
111686.4690247069
 30
0.0
 11
116259.1168475745
 21
111686.5074769664
 31
0.0
  0
LINE
  5
6203D
330
1F
100
AcDbEntity
  8
freecads.com
100
AcDbLine
 10
116259.1168475745
 20
111686.5074769664
 30
0.0
 11
116259.1528145961
 21
111686.5250117144
 31
0.0
  0
LINE
  5
6203E
330
1F
100
AcDbEntity
  8
freecads.com
100
AcDbLine
 10
116259.1528145961
 20
111686.5250117144
 30
0.0
 11
116259.2020332782
 21
111686.5386945636
 31
0.0
  0
LINE
  5
6203F
330
1F
100
AcDbEntity
  8
freecads.com
100
AcDbLine
 10
116259.2020332782
 20
111686.5386945636
 30
0.0
 11
116259.2440344332
 21
111686.5422480116
 31
0.0
  0
LINE
  5
62040
330
1F
100
AcDbEntity
  8
freecads.com
100
AcDbLine
 10
116259.2440344332
 20
111686.5422480116
 30
0.0
 11
116259.6884011766
 21
111686.5422480116
 31
0.0
  0
LINE
  5
62041
330
1F
100
AcDbEntity
  8
freecads.com
100
AcDbLine
 10
116259.6884011766
 20
111686.5422480116
 30
0.0
 11
116259.7393569622
 21
111686.536999943
 31
0.0
  0
LINE
  5
62042
330
1F
100
AcDbEntity
  8
freecads.com
100
AcDbLine
 10
116259.7393569622
 20
111686.536999943
 30
0.0
 11
116259.7860324039
 21
111686.5223961019
 31
0.0
  0
LINE
  5
62043
330
1F
100
AcDbEntity
  8
freecads.com
100
AcDbLine
 10
116259.7860324039
 20
111686.5223961019
 30
0.0
 11
116259.844557408
 21
111686.4874792371
 31
0.0
  0
LINE
  5
62044
330
1F
100
AcDbEntity
  8
freecads.com
100
AcDbLine
 10
116259.844557408
 20
111686.4874792371
 30
0.0
 11
116259.8828615174
 21
111686.4493631791
 31
0.0
  0
LINE
  5
62045
330
1F
100
AcDbEntity
  8
freecads.com
100
AcDbLine
 10
116259.8828615174
 20
111686.4493631791
 30
0.0
 11
116259.9146313079
 21
111686.3986431603
 31
0.0
  0
LINE
  5
62046
330
1F
100
AcDbEntity
  8
freecads.com
100
AcDbLine
 10
116259.9146313079
 20
111686.3986431603
 30
0.0
 11
116259.9294963345
 21
111686.3583776177
 31
0.0
  0
LINE
  5
62047
330
1F
100
AcDbEntity
  8
freecads.com
100
AcDbLine
 10
116259.9294963345
 20
111686.3583776177
 30
0.0
 11
116259.9343455404
 21
111686.3370963101
 31
0.0
  0
LINE
  5
62048
330
1F
100
AcDbEntity
  8
freecads.com
100
AcDbLine
 10
116259.9343455404
 20
111686.3370963101
 30
0.0
 11
116259.9384011766
 21
111686.2922480116
 31
0.0
  0
LINE
  5
62049
330
1F
100
AcDbEntity
  8
freecads.com
100
AcDbLine
 10
116259.9384011766
 20
111686.2922480116
 30
0.0
 11
116259.9384011766
 21
111678.6275219303
 31
0.0
  0
LINE
  5
6204A
330
1F
100
AcDbEntity
  8
freecads.com
100
AcDbLine
 10
116259.9384011766
 20
111678.6275219303
 30
0.0
 11
116155.0702339292
 21
111678.6275219303
 31
0.0
  0
LINE
  5
6204B
330
1F
100
AcDbEntity
  8
freecads.com
100
AcDbLine
 10
116155.0702339292
 20
111678.6275219303
 30
0.0
 11
116155.0702339292
 21
111686.2922480116
 31
0.0
  0
LINE
  5
6204C
330
1F
100
AcDbEntity
  8
freecads.com
100
AcDbLine
 10
116155.0702339292
 20
111686.2922480116
 30
0.0
 11
116155.0731357182
 21
111686.3302279286
 31
0.0
  0
LINE
  5
6204D
330
1F
100
AcDbEntity
  8
freecads.com
100
AcDbLine
 10
116155.0731357182
 20
111686.3302279286
 30
0.0
 11
116155.0825441166
 21
111686.3697306096
 31
0.0
  0
LINE
  5
6204E
330
1F
100
AcDbEntity
  8
freecads.com
100
AcDbLine
 10
116155.0825441166
 20
111686.3697306096
 30
0.0
 11
116155.104473297
 21
111686.4185308275
 31
0.0
  0
LINE
  5
6204F
330
1F
100
AcDbEntity
  8
freecads.com
100
AcDbLine
 10
116155.104473297
 20
111686.4185308275
 30
0.0
 11
116155.1434572339
 21
111686.4690247069
 31
0.0
  0
LINE
  5
62050
330
1F
100
AcDbEntity
  8
freecads.com
100
AcDbLine
 10
116155.1434572339
 20
111686.4690247069
 30
0.0
 11
116155.1792136209
 21
111686.4986778366
 31
0.0
  0
LINE
  5
62051
330
1F
100
AcDbEntity
  8
freecads.com
100
AcDbLine
 10
116155.1792136209
 20
111686.4986778366
 30
0.0
 11
116155.2188944748
 21
111686.5207875377
 31
0.0
  0
LINE
  5
62052
330
1F
100
AcDbEntity
  8
freecads.com
100
AcDbLine
 10
116155.2188944748
 20
111686.5207875377
 30
0.0
 11
116155.2602610465
 21
111686.5349479361
 31
0.0
  0
LINE
  5
62053
330
1F
100
AcDbEntity
  8
freecads.com
100
AcDbLine
 10
116155.2602610465
 20
111686.5349479361
 30
0.0
 11
116155.3202339292
 21
111686.5422480116
 31
0.0
  0
LINE
  5
62054
330
1F
100
AcDbEntity
  8
freecads.com
100
AcDbLine
 10
116155.3202339292
 20
111686.5422480116
 30
0.0
 11
116155.7646006726
 21
111686.5422480116
 31
0.0
  0
LINE
  5
62055
330
1F
100
AcDbEntity
  8
freecads.com
100
AcDbLine
 10
116155.7646006726
 20
111686.5422480116
 30
0.0
 11
116155.822495795
 21
111686.5354519483
 31
0.0
  0
LINE
  5
62056
330
1F
100
AcDbEntity
  8
freecads.com
100
AcDbLine
 10
116155.822495795
 20
111686.5354519483
 30
0.0
 11
116155.8629678347
 21
111686.5220825204
 31
0.0
  0
LINE
  5
62057
330
1F
100
AcDbEntity
  8
freecads.com
100
AcDbLine
 10
116155.8629678347
 20
111686.5220825204
 30
0.0
 11
116155.9134269727
 21
111686.4931229289
 31
0.0
  0
LINE
  5
62058
330
1F
100
AcDbEntity
  8
freecads.com
100
AcDbLine
 10
116155.9134269727
 20
111686.4931229289
 30
0.0
 11
116155.9413773678
 21
111686.4690247069
 31
0.0
  0
LINE
  5
62059
330
1F
100
AcDbEntity
  8
freecads.com
100
AcDbLine
 10
116155.9413773678
 20
111686.4690247069
 30
0.0
 11
116155.9738796476
 21
111686.429004403
 31
0.0
  0
LINE
  5
6205A
330
1F
100
AcDbEntity
  8
freecads.com
100
AcDbLine
 10
116155.9738796476
 20
111686.429004403
 30
0.0
 11
116155.9888797376
 21
111686.4026966466
 31
0.0
  0
LINE
  5
6205B
330
1F
100
AcDbEntity
  8
freecads.com
100
AcDbLine
 10
116155.9888797376
 20
111686.4026966466
 30
0.0
 11
116155.9970952419
 21
111686.3841516308
 31
0.0
  0
LINE
  5
6205C
330
1F
100
AcDbEntity
  8
freecads.com
100
AcDbLine
 10
116155.9970952419
 20
111686.3841516308
 30
0.0
 11
116156.0066467345
 21
111686.3548076142
 31
0.0
  0
LINE
  5
6205D
330
1F
100
AcDbEntity
  8
freecads.com
100
AcDbLine
 10
116156.0066467345
 20
111686.3548076142
 30
0.0
 11
116156.0123761349
 21
111686.3255244336
 31
0.0
  0
LINE
  5
6205E
330
1F
100
AcDbEntity
  8
freecads.com
100
AcDbLine
 10
116156.0123761349
 20
111686.3255244336
 30
0.0
 11
116156.0146006725
 21
111686.2922480116
 31
0.0
  0
LINE
  5
6205F
330
1F
100
AcDbEntity
  8
freecads.com
100
AcDbLine
 10
116156.0146006725
 20
111686.2922480116
 30
0.0
 11
116156.0146006725
 21
111683.5851133612
 31
0.0
  0
LINE
  5
62060
330
1F
100
AcDbEntity
  8
freecads.com
100
AcDbLine
 10
116156.0146006725
 20
111683.5851133612
 30
0.0
 11
116156.0151841787
 21
111683.56804255
 31
0.0
  0
LINE
  5
62061
330
1F
100
AcDbEntity
  8
freecads.com
100
AcDbLine
 10
116156.0151841787
 20
111683.56804255
 30
0.0
 11
116156.0174290258
 21
111683.5476143338
 31
0.0
  0
LINE
  5
62062
330
1F
100
AcDbEntity
  8
freecads.com
100
AcDbLine
 10
116156.0174290258
 20
111683.5476143338
 30
0.0
 11
116156.0215688572
 21
111683.5264999095
 31
0.0
  0
LINE
  5
62063
330
1F
100
AcDbEntity
  8
freecads.com
100
AcDbLine
 10
116156.0215688572
 20
111683.5264999095
 30
0.0
 11
116156.028335039
 21
111683.5033909627
 31
0.0
  0
LINE
  5
62064
330
1F
100
AcDbEntity
  8
freecads.com
100
AcDbLine
 10
116156.028335039
 20
111683.5033909627
 30
0.0
 11
116156.0387450693
 21
111683.4779254584
 31
0.0
  0
LINE
  5
62065
330
1F
100
AcDbEntity
  8
freecads.com
100
AcDbLine
 10
116156.0387450693
 20
111683.4779254584
 30
0.0
 11
116156.0530076448
 21
111683.4519653586
 31
0.0
  0
LINE
  5
62066
330
1F
100
AcDbEntity
  8
freecads.com
100
AcDbLine
 10
116156.0530076448
 20
111683.4519653586
 30
0.0
 11
116156.0739494278
 21
111683.423397243
 31
0.0
  0
LINE
  5
62067
330
1F
100
AcDbEntity
  8
freecads.com
100
AcDbLine
 10
116156.0739494278
 20
111683.423397243
 30
0.0
 11
116156.0878239773
 21
111683.4083366659
 31
0.0
  0
LINE
  5
62068
330
1F
100
AcDbEntity
  8
freecads.com
100
AcDbLine
 10
116156.0878239773
 20
111683.4083366659
 30
0.0
 11
116156.1371875125
 21
111683.370018297
 31
0.0
  0
LINE
  5
62069
330
1F
100
AcDbEntity
  8
freecads.com
100
AcDbLine
 10
116156.1371875125
 20
111683.370018297
 30
0.0
 11
116156.1661627287
 21
111683.3553091593
 31
0.0
  0
LINE
  5
6206A
330
1F
100
AcDbEntity
  8
freecads.com
100
AcDbLine
 10
116156.1661627287
 20
111683.3553091593
 30
0.0
 11
116156.2081462008
 21
111683.3415709776
 31
0.0
  0
LINE
  5
6206B
330
1F
100
AcDbEntity
  8
freecads.com
100
AcDbLine
 10
116156.2081462008
 20
111683.3415709776
 30
0.0
 11
116156.2332199894
 21
111683.3370906753
 31
0.0
  0
LINE
  5
6206C
330
1F
100
AcDbEntity
  8
freecads.com
100
AcDbLine
 10
116156.2332199894
 20
111683.3370906753
 30
0.0
 11
116156.2646006726
 21
111683.3351133612
 31
0.0
  0
LINE
  5
6206D
330
1F
100
AcDbEntity
  8
freecads.com
100
AcDbLine
 10
116156.2646006726
 20
111683.3351133612
 30
0.0
 11
116156.9188975927
 21
111683.3351133612
 31
0.0
  0
LINE
  5
6206E
330
1F
100
AcDbEntity
  8
freecads.com
100
AcDbLine
 10
116156.9188975927
 20
111683.3351133612
 30
0.0
 11
116156.9188975927
 21
111687.5422480116
 31
0.0
  0
LINE
  5
6206F
330
1F
100
AcDbEntity
  8
freecads.com
100
AcDbLine
 10
116156.9188975927
 20
111687.5422480116
 30
0.0
 11
116147.7043175529
 21
111687.5422480116
 31
0.0
  0
LINE
  5
62070
330
1F
100
AcDbEntity
  8
freecads.com
100
AcDbLine
 10
116147.7043175529
 20
111687.5422480116
 30
0.0
 11
116147.7043175529
 21
111685.0422480116
 31
0.0
  0
LINE
  5
62071
330
1F
100
AcDbEntity
  8
freecads.com
100
AcDbLine
 10
116147.7043175529
 20
111685.0422480116
 30
0.0
 11
116148.4543175529
 21
111685.0422480116
 31
0.0
  0
LINE
  5
62072
330
1F
100
AcDbEntity
  8
freecads.com
100
AcDbLine
 10
116148.4543175529
 20
111685.0422480116
 30
0.0
 11
116148.4888431779
 21
111685.0446435262
 31
0.0
  0
LINE
  5
62073
330
1F
100
AcDbEntity
  8
freecads.com
100
AcDbLine
 10
116148.4888431779
 20
111685.0446435262
 30
0.0
 11
116148.5359514329
 21
111685.0559517788
 31
0.0
  0
LINE
  5
62074
330
1F
100
AcDbEntity
  8
freecads.com
100
AcDbLine
 10
116148.5359514329
 20
111685.0559517788
 30
0.0
 11
116148.6068411988
 21
111685.0941658634
 31
0.0
  0
LINE
  5
62075
330
1F
100
AcDbEntity
  8
freecads.com
100
AcDbLine
 10
116148.6068411988
 20
111685.0941658634
 30
0.0
 11
116148.6474576736
 21
111685.1335127169
 31
0.0
  0
LINE
  5
62076
330
1F
100
AcDbEntity
  8
freecads.com
100
AcDbLine
 10
116148.6474576736
 20
111685.1335127169
 30
0.0
 11
116148.6785596137
 21
111685.1817242668
 31
0.0
  0
LINE
  5
62077
330
1F
100
AcDbEntity
  8
freecads.com
100
AcDbLine
 10
116148.6785596137
 20
111685.1817242668
 30
0.0
 11
116148.699241715
 21
111685.2421266105
 31
0.0
  0
LINE
  5
62078
330
1F
100
AcDbEntity
  8
freecads.com
100
AcDbLine
 10
116148.699241715
 20
111685.2421266105
 30
0.0
 11
116148.7043175529
 21
111685.2922480116
 31
0.0
  0
LINE
  5
62079
330
1F
100
AcDbEntity
  8
freecads.com
100
AcDbLine
 10
116148.7043175529
 20
111685.2922480116
 30
0.0
 11
116148.7043175529
 21
111686.2922480116
 31
0.0
  0
LINE
  5
6207A
330
1F
100
AcDbEntity
  8
freecads.com
100
AcDbLine
 10
116148.7043175529
 20
111686.2922480116
 30
0.0
 11
116148.7067675808
 21
111686.3271623537
 31
0.0
  0
LINE
  5
6207B
330
1F
100
AcDbEntity
  8
freecads.com
100
AcDbLine
 10
116148.7067675808
 20
111686.3271623537
 30
0.0
 11
116148.712815851
 21
111686.3568771691
 31
0.0
  0
LINE
  5
6207C
330
1F
100
AcDbEntity
  8
freecads.com
100
AcDbLine
 10
116148.712815851
 20
111686.3568771691
 30
0.0
 11
116148.7258028143
 21
111686.393643348
 31
0.0
  0
LINE
  5
6207D
330
1F
100
AcDbEntity
  8
freecads.com
100
AcDbLine
 10
116148.7258028143
 20
111686.393643348
 30
0.0
 11
116148.7467446525
 21
111686.4315803159
 31
0.0
  0
LINE
  5
6207E
330
1F
100
AcDbEntity
  8
freecads.com
100
AcDbLine
 10
116148.7467446525
 20
111686.4315803159
 30
0.0
 11
116148.7775408576
 21
111686.4690247069
 31
0.0
  0
LINE
  5
6207F
330
1F
100
AcDbEntity
  8
freecads.com
100
AcDbLine
 10
116148.7775408576
 20
111686.4690247069
 30
0.0
 11
116148.8208760058
 21
111686.5036560377
 31
0.0
  0
LINE
  5
62080
330
1F
100
AcDbEntity
  8
freecads.com
100
AcDbLine
 10
116148.8208760058
 20
111686.5036560377
 30
0.0
 11
116148.8536770606
 21
111686.5210961956
 31
0.0
  0
LINE
  5
62081
330
1F
100
AcDbEntity
  8
freecads.com
100
AcDbLine
 10
116148.8536770606
 20
111686.5210961956
 30
0.0
 11
116148.8992811885
 21
111686.5361147756
 31
0.0
  0
LINE
  5
62082
330
1F
100
AcDbEntity
  8
freecads.com
100
AcDbLine
 10
116148.8992811885
 20
111686.5361147756
 30
0.0
 11
116148.9318886076
 21
111686.5412398637
 31
0.0
  0
LINE
  5
62083
330
1F
100
AcDbEntity
  8
freecads.com
100
AcDbLine
 10
116148.9318886076
 20
111686.5412398637
 30
0.0
 11
116148.9543175529
 21
111686.5422480116
 31
0.0
  0
LINE
  5
62084
330
1F
100
AcDbEntity
  8
freecads.com
100
AcDbLine
 10
116148.9543175529
 20
111686.5422480116
 30
0.0
 11
116149.8740327878
 21
111686.5422480116
 31
0.0
  0
LINE
  5
62085
330
1F
100
AcDbEntity
  8
freecads.com
100
AcDbLine
 10
116149.8740327878
 20
111686.5422480116
 30
0.0
 11
116149.9132632708
 21
111686.5391507641
 31
0.0
  0
LINE
  5
62086
330
1F
100
AcDbEntity
  8
freecads.com
100
AcDbLine
 10
116149.9132632708
 20
111686.5391507641
 30
0.0
 11
116149.9380295157
 21
111686.5339180735
 31
0.0
  0
LINE
  5
62087
330
1F
100
AcDbEntity
  8
freecads.com
100
AcDbLine
 10
116149.9380295157
 20
111686.5339180735
 30
0.0
 11
116149.9848962809
 21
111686.5163222982
 31
0.0
  0
LINE
  5
62088
330
1F
100
AcDbEntity
  8
freecads.com
100
AcDbLine
 10
116149.9848962809
 20
111686.5163222982
 30
0.0
 11
116150.0167627884
 21
111686.4974994353
 31
0.0
  0
LINE
  5
62089
330
1F
100
AcDbEntity
  8
freecads.com
100
AcDbLine
 10
116150.0167627884
 20
111686.4974994353
 30
0.0
 11
116150.0508094831
 21
111686.4690247069
 31
0.0
  0
LINE
  5
6208A
330
1F
100
AcDbEntity
  8
freecads.com
100
AcDbLine
 10
116150.0508094831
 20
111686.4690247069
 30
0.0
 11
116150.0751541861
 21
111686.4407410523
 31
0.0
  0
LINE
  5
6208B
330
1F
100
AcDbEntity
  8
freecads.com
100
AcDbLine
 10
116150.0751541861
 20
111686.4407410523
 30
0.0
 11
116150.0942113298
 21
111686.4106600449
 31
0.0
  0
LINE
  5
6208C
330
1F
100
AcDbEntity
  8
freecads.com
100
AcDbLine
 10
116150.0942113298
 20
111686.4106600449
 30
0.0
 11
116150.1086665014
 21
111686.3785441323
 31
0.0
  0
LINE
  5
6208D
330
1F
100
AcDbEntity
  8
freecads.com
100
AcDbLine
 10
116150.1086665014
 20
111686.3785441323
 30
0.0
 11
116150.1188966094
 21
111686.342663375
 31
0.0
  0
LINE
  5
6208E
330
1F
100
AcDbEntity
  8
freecads.com
100
AcDbLine
 10
116150.1188966094
 20
111686.342663375
 30
0.0
 11
116150.1240327878
 21
111686.2922480116
 31
0.0
  0
LINE
  5
6208F
330
1F
100
AcDbEntity
  8
freecads.com
100
AcDbLine
 10
116150.1240327878
 20
111686.2922480116
 30
0.0
 11
116150.1240327878
 21
111670.5863014665
 31
0.0
  0
LINE
  5
62090
330
1F
100
AcDbEntity
  8
freecads.com
100
AcDbLine
 10
116150.1240327878
 20
111670.5863014665
 30
0.0
 11
116148.7043175529
 21
111670.5863014665
 31
0.0
  0
LINE
  5
62091
330
1F
100
AcDbEntity
  8
freecads.com
100
AcDbLine
 10
116148.7043175529
 20
111670.5863014665
 30
0.0
 11
116148.7043175529
 21
111672.3363014665
 31
0.0
  0
LINE
  5
62092
330
1F
100
AcDbEntity
  8
freecads.com
100
AcDbLine
 10
116148.7043175529
 20
111672.3363014665
 30
0.0
 11
116148.7021518853
 21
111672.3827877811
 31
0.0
  0
LINE
  5
62093
330
1F
100
AcDbEntity
  8
freecads.com
100
AcDbLine
 10
116148.7021518853
 20
111672.3827877811
 30
0.0
 11
116148.694230166
 21
111672.4362295983
 31
0.0
  0
LINE
  5
62094
330
1F
100
AcDbEntity
  8
freecads.com
100
AcDbLine
 10
116148.694230166
 20
111672.4362295983
 30
0.0
 11
116148.6853427952
 21
111672.4727372254
 31
0.0
  0
LINE
  5
62095
330
1F
100
AcDbEntity
  8
freecads.com
100
AcDbLine
 10
116148.6853427952
 20
111672.4727372254
 30
0.0
 11
116148.6623350797
 21
111672.5368505755
 31
0.0
  0
LINE
  5
62096
330
1F
100
AcDbEntity
  8
freecads.com
100
AcDbLine
 10
116148.6623350797
 20
111672.5368505755
 30
0.0
 11
116148.6371353931
 21
111672.5866386734
 31
0.0
  0
LINE
  5
62097
330
1F
100
AcDbEntity
  8
freecads.com
100
AcDbLine
 10
116148.6371353931
 20
111672.5866386734
 30
0.0
 11
116148.590678225
 21
111672.6536741669
 31
0.0
  0
LINE
  5
62098
330
1F
100
AcDbEntity
  8
freecads.com
100
AcDbLine
 10
116148.590678225
 20
111672.6536741669
 30
0.0
 11
116148.538537173
 21
111672.7081848427
 31
0.0
  0
LINE
  5
62099
330
1F
100
AcDbEntity
  8
freecads.com
100
AcDbLine
 10
116148.538537173
 20
111672.7081848427
 30
0.0
 11
116148.4986993502
 21
111672.7404541077
 31
0.0
  0
LINE
  5
6209A
330
1F
100
AcDbEntity
  8
freecads.com
100
AcDbLine
 10
116148.4986993502
 20
111672.7404541077
 30
0.0
 11
116148.4420692339
 21
111672.7761584184
 31
0.0
  0
LINE
  5
6209B
330
1F
100
AcDbEntity
  8
freecads.com
100
AcDbLine
 10
116148.4420692339
 20
111672.7761584184
 30
0.0
 11
116148.3779457821
 21
111672.8051865675
 31
0.0
  0
LINE
  5
6209C
330
1F
100
AcDbEntity
  8
freecads.com
100
AcDbLine
 10
116148.3779457821
 20
111672.8051865675
 30
0.0
 11
116148.3492720332
 21
111672.8148285803
 31
0.0
  0
LINE
  5
6209D
330
1F
100
AcDbEntity
  8
freecads.com
100
AcDbLine
 10
116148.3492720332
 20
111672.8148285803
 30
0.0
 11
116148.2808841035
 21
111672.8304042527
 31
0.0
  0
LINE
  5
6209E
330
1F
100
AcDbEntity
  8
freecads.com
100
AcDbLine
 10
116148.2808841035
 20
111672.8304042527
 30
0.0
 11
116148.2262177192
 21
111672.8358216189
 31
0.0
  0
LINE
  5
6209F
330
1F
100
AcDbEntity
  8
freecads.com
100
AcDbLine
 10
116148.2262177192
 20
111672.8358216189
 30
0.0
 11
116148.1663734434
 21
111672.8348596321
 31
0.0
  0
LINE
  5
620A0
330
1F
100
AcDbEntity
  8
freecads.com
100
AcDbLine
 10
116148.1663734434
 20
111672.8348596321
 30
0.0
 11
116148.0928147703
 21
111672.8237100522
 31
0.0
  0
LINE
  5
620A1
330
1F
100
AcDbEntity
  8
freecads.com
100
AcDbLine
 10
116148.0928147703
 20
111672.8237100522
 30
0.0
 11
116148.0524400395
 21
111672.8126765507
 31
0.0
  0
LINE
  5
620A2
330
1F
100
AcDbEntity
  8
freecads.com
100
AcDbLine
 10
116148.0524400395
 20
111672.8126765507
 30
0.0
 11
116147.9831768109
 21
111672.7847396141
 31
0.0
  0
LINE
  5
620A3
330
1F
100
AcDbEntity
  8
freecads.com
100
AcDbLine
 10
116147.9831768109
 20
111672.7847396141
 30
0.0
 11
116147.9388344565
 21
111672.7599979681
 31
0.0
  0
LINE
  5
620A4
330
1F
100
AcDbEntity
  8
freecads.com
100
AcDbLine
 10
116147.9388344565
 20
111672.7599979681
 30
0.0
 11
116147.8879084651
 21
111672.7234516817
 31
0.0
  0
LINE
  5
620A5
330
1F
100
AcDbEntity
  8
freecads.com
100
AcDbLine
 10
116147.8879084651
 20
111672.7234516817
 30
0.0
 11
116147.8307153132
 21
111672.6685985723
 31
0.0
  0
LINE
  5
620A6
330
1F
100
AcDbEntity
  8
freecads.com
100
AcDbLine
 10
116147.8307153132
 20
111672.6685985723
 30
0.0
 11
116147.8003624227
 21
111672.6309542329
 31
0.0
  0
LINE
  5
620A7
330
1F
100
AcDbEntity
  8
freecads.com
100
AcDbLine
 10
116147.8003624227
 20
111672.6309542329
 30
0.0
 11
116147.7732235891
 21
111672.5895957506
 31
0.0
  0
LINE
  5
620A8
330
1F
100
AcDbEntity
  8
freecads.com
100
AcDbLine
 10
116147.7732235891
 20
111672.5895957506
 30
0.0
 11
116147.7346957058
 21
111672.5079269911
 31
0.0
  0
LINE
  5
620A9
330
1F
100
AcDbEntity
  8
freecads.com
100
AcDbLine
 10
116147.7346957058
 20
111672.5079269911
 30
0.0
 11
116147.7197523757
 21
111672.4595759127
 31
0.0
  0
LINE
  5
620AA
330
1F
100
AcDbEntity
  8
freecads.com
100
AcDbLine
 10
116147.7197523757
 20
111672.4595759127
 30
0.0
 11
116147.709145062
 21
111672.4056138334
 31
0.0
  0
LINE
  5
620AB
330
1F
100
AcDbEntity
  8
freecads.com
100
AcDbLine
 10
116147.709145062
 20
111672.4056138334
 30
0.0
 11
116147.7053413013
 21
111672.3682811532
 31
0.0
  0
LINE
  5
620AC
330
1F
100
AcDbEntity
  8
freecads.com
100
AcDbLine
 10
116147.7053413013
 20
111672.3682811532
 30
0.0
 11
116147.7043175529
 21
111672.3363014665
 31
0.0
  0
LINE
  5
620AD
330
1F
100
AcDbEntity
  8
freecads.com
100
AcDbLine
 10
116147.7043175529
 20
111672.3363014665
 30
0.0
 11
116147.7043175529
 21
111668.3363014665
 31
0.0
  0
LINE
  5
620AE
330
1F
100
AcDbEntity
  8
freecads.com
100
AcDbLine
 10
116147.7043175529
 20
111668.3363014665
 30
0.0
 11
116147.7097361391
 21
111668.2628901243
 31
0.0
  0
LINE
  5
620AF
330
1F
100
AcDbEntity
  8
freecads.com
100
AcDbLine
 10
116147.7097361391
 20
111668.2628901243
 30
0.0
 11
116147.7203442483
 21
111668.2107234412
 31
0.0
  0
LINE
  5
620B0
330
1F
100
AcDbEntity
  8
freecads.com
100
AcDbLine
 10
116147.7203442483
 20
111668.2107234412
 30
0.0
 11
116147.738915477
 21
111668.1535423142
 31
0.0
  0
LINE
  5
620B1
330
1F
100
AcDbEntity
  8
freecads.com
100
AcDbLine
 10
116147.738915477
 20
111668.1535423142
 30
0.0
 11
116147.7765652002
 21
111668.0774039485
 31
0.0
  0
LINE
  5
620B2
330
1F
100
AcDbEntity
  8
freecads.com
100
AcDbLine
 10
116147.7765652002
 20
111668.0774039485
 30
0.0
 11
116147.8613387652
 21
111667.9724806986
 31
0.0
  0
LINE
  5
620B3
330
1F
100
AcDbEntity
  8
freecads.com
100
AcDbLine
 10
116147.8613387652
 20
111667.9724806986
 30
0.0
 11
116147.9257736623
 21
111667.9210746597
 31
0.0
  0
LINE
  5
620B4
330
1F
100
AcDbEntity
  8
freecads.com
100
AcDbLine
 10
116147.9257736623
 20
111667.9210746597
 30
0.0
 11
116147.9904065774
 21
111667.8843699511
 31
0.0
  0
LINE
  5
620B5
330
1F
100
AcDbEntity
  8
freecads.com
100
AcDbLine
 10
116147.9904065774
 20
111667.8843699511
 30
0.0
 11
116148.005908652
 21
111667.8773527677
 31
0.0
  0
LINE
  5
620B6
330
1F
100
AcDbEntity
  8
freecads.com
100
AcDbLine
 10
116148.005908652
 20
111667.8773527677
 30
0.0
 11
116148.0427093699
 21
111667.8631389202
 31
0.0
  0
LINE
  5
620B7
330
1F
100
AcDbEntity
  8
freecads.com
100
AcDbLine
 10
116148.0427093699
 20
111667.8631389202
 30
0.0
 11
116148.0967749703
 21
111667.8480038186
 31
0.0
  0
LINE
  5
620B8
330
1F
100
AcDbEntity
  8
freecads.com
100
AcDbLine
 10
116148.0967749703
 20
111667.8480038186
 30
0.0
 11
116148.1288520736
 21
111667.8420293133
 31
0.0
  0
LINE
  5
620B9
330
1F
100
AcDbEntity
  8
freecads.com
100
AcDbLine
 10
116148.1288520736
 20
111667.8420293133
 30
0.0
 11
116148.1740255976
 21
111667.8372199126
 31
0.0
  0
LINE
  5
620BA
330
1F
100
AcDbEntity
  8
freecads.com
100
AcDbLine
 10
116148.1740255976
 20
111667.8372199126
 30
0.0
 11
116148.2043175529
 21
111667.8363014665
 31
0.0
  0
LINE
  5
620BB
330
1F
100
AcDbEntity
  8
freecads.com
100
AcDbLine
 10
116148.2043175529
 20
111667.8363014665
 30
0.0
 11
116148.2759547567
 21
111667.8414599655
 31
0.0
  0
LINE
  5
620BC
330
1F
100
AcDbEntity
  8
freecads.com
100
AcDbLine
 10
116148.2759547567
 20
111667.8414599655
 30
0.0
 11
116148.3276143378
 21
111667.8517419729
 31
0.0
  0
LINE
  5
620BD
330
1F
100
AcDbEntity
  8
freecads.com
100
AcDbLine
 10
116148.3276143378
 20
111667.8517419729
 30
0.0
 11
116148.3956750826
 21
111667.8743682507
 31
0.0
  0
LINE
  5
620BE
330
1F
100
AcDbEntity
  8
freecads.com
100
AcDbLine
 10
116148.3956750826
 20
111667.8743682507
 30
0.0
 11
116148.4660245707
 21
111667.9102622232
 31
0.0
  0
LINE
  5
620BF
330
1F
100
AcDbEntity
  8
freecads.com
100
AcDbLine
 10
116148.4660245707
 20
111667.9102622232
 30
0.0
 11
116148.4967263614
 21
111667.9307190596
 31
0.0
  0
LINE
  5
620C0
330
1F
100
AcDbEntity
  8
freecads.com
100
AcDbLine
 10
116148.4967263614
 20
111667.9307190596
 30
0.0
 11
116148.5420780482
 21
111667.9676310882
 31
0.0
  0
LINE
  5
620C1
330
1F
100
AcDbEntity
  8
freecads.com
100
AcDbLine
 10
116148.5420780482
 20
111667.9676310882
 30
0.0
 11
116148.5677738753
 21
111667.9929364978
 31
0.0
  0
LINE
  5
620C2
330
1F
100
AcDbEntity
  8
freecads.com
100
AcDbLine
 10
116148.5677738753
 20
111667.9929364978
 30
0.0
 11
116148.610446919
 21
111668.0446528115
 31
0.0
  0
LINE
  5
620C3
330
1F
100
AcDbEntity
  8
freecads.com
100
AcDbLine
 10
116148.610446919
 20
111668.0446528115
 30
0.0
 11
116148.6235886002
 21
111668.0638830586
 31
0.0
  0
LINE
  5
620C4
330
1F
100
AcDbEntity
  8
freecads.com
100
AcDbLine
 10
116148.6235886002
 20
111668.0638830586
 30
0.0
 11
116148.6501486588
 21
111668.1099507981
 31
0.0
  0
LINE
  5
620C5
330
1F
100
AcDbEntity
  8
freecads.com
100
AcDbLine
 10
116148.6501486588
 20
111668.1099507981
 30
0.0
 11
116148.6840939494
 21
111668.1955370913
 31
0.0
  0
LINE
  5
620C6
330
1F
100
AcDbEntity
  8
freecads.com
100
AcDbLine
 10
116148.6840939494
 20
111668.1955370913
 30
0.0
 11
116148.6969871041
 21
111668.2509978126
 31
0.0
  0
LINE
  5
620C7
330
1F
100
AcDbEntity
  8
freecads.com
100
AcDbLine
 10
116148.6969871041
 20
111668.2509978126
 30
0.0
 11
116148.7024820048
 21
111668.2934975084
 31
0.0
  0
LINE
  5
620C8
330
1F
100
AcDbEntity
  8
freecads.com
100
AcDbLine
 10
116148.7024820048
 20
111668.2934975084
 30
0.0
 11
116148.7043175529
 21
111668.3363014665
 31
0.0
  0
LINE
  5
620C9
330
1F
100
AcDbEntity
  8
freecads.com
100
AcDbLine
 10
116148.7043175529
 20
111668.3363014665
 30
0.0
 11
116148.7043175529
 21
111669.5863014665
 31
0.0
  0
LINE
  5
620CA
330
1F
100
AcDbEntity
  8
freecads.com
100
AcDbLine
 10
116148.7043175529
 20
111669.5863014665
 30
0.0
 11
116150.1240327878
 21
111669.5863014665
 31
0.0
  0
LINE
  5
620CB
330
1F
100
AcDbEntity
  8
freecads.com
100
AcDbLine
 10
116150.1240327878
 20
111669.5863014665
 30
0.0
 11
116150.1240327878
 21
111653.8261477363
 31
0.0
  0
LINE
  5
620CC
330
1F
100
AcDbEntity
  8
freecads.com
100
AcDbLine
 10
116150.1240327878
 20
111653.8261477363
 30
0.0
 11
116150.1208368801
 21
111653.7863012808
 31
0.0
  0
LINE
  5
620CD
330
1F
100
AcDbEntity
  8
freecads.com
100
AcDbLine
 10
116150.1208368801
 20
111653.7863012808
 30
0.0
 11
116150.097226634
 21
111653.7135222196
 31
0.0
  0
LINE
  5
620CE
330
1F
100
AcDbEntity
  8
freecads.com
100
AcDbLine
 10
116150.097226634
 20
111653.7135222196
 30
0.0
 11
116150.0508094831
 21
111653.649371041
 31
0.0
  0
LINE
  5
620CF
330
1F
100
AcDbEntity
  8
freecads.com
100
AcDbLine
 10
116150.0508094831
 20
111653.649371041
 30
0.0
 11
116149.9891228676
 21
111653.6042146979
 31
0.0
  0
LINE
  5
620D0
330
1F
100
AcDbEntity
  8
freecads.com
100
AcDbLine
 10
116149.9891228676
 20
111653.6042146979
 30
0.0
 11
116149.9157827227
 21
111653.5796585014
 31
0.0
  0
LINE
  5
620D1
330
1F
100
AcDbEntity
  8
freecads.com
100
AcDbLine
 10
116149.9157827227
 20
111653.5796585014
 30
0.0
 11
116149.8740327878
 21
111653.5761477363
 31
0.0
  0
LINE
  5
620D2
330
1F
100
AcDbEntity
  8
freecads.com
100
AcDbLine
 10
116149.8740327878
 20
111653.5761477363
 30
0.0
 11
116149.74482878
 21
111653.5761477363
 31
0.0
  0
LINE
  5
620D3
330
1F
100
AcDbEntity
  8
freecads.com
100
AcDbLine
 10
116149.74482878
 20
111653.5761477363
 30
0.0
 11
116149.1766518258
 21
111653.5761477363
 31
0.0
  0
LINE
  5
620D4
330
1F
100
AcDbEntity
  8
freecads.com
100
AcDbLine
 10
116149.1766518258
 20
111653.5761477363
 30
0.0
 11
116149.0958716639
 21
111653.5895582914
 31
0.0
  0
LINE
  5
620D5
330
1F
100
AcDbEntity
  8
freecads.com
100
AcDbLine
 10
116149.0958716639
 20
111653.5895582914
 30
0.0
 11
116148.9998751305
 21
111653.649371041
 31
0.0
  0
LINE
  5
620D6
330
1F
100
AcDbEntity
  8
freecads.com
100
AcDbLine
 10
116148.9998751305
 20
111653.649371041
 30
0.0
 11
116148.9516187636
 21
111653.7172435541
 31
0.0
  0
LINE
  5
620D7
330
1F
100
AcDbEntity
  8
freecads.com
100
AcDbLine
 10
116148.9516187636
 20
111653.7172435541
 30
0.0
 11
116148.9327432696
 21
111653.7712968822
 31
0.0
  0
LINE
  5
620D8
330
1F
100
AcDbEntity
  8
freecads.com
100
AcDbLine
 10
116148.9327432696
 20
111653.7712968822
 30
0.0
 11
116148.9266518258
 21
111653.8261477363
 31
0.0
  0
LINE
  5
620D9
330
1F
100
AcDbEntity
  8
freecads.com
100
AcDbLine
 10
116148.9266518258
 20
111653.8261477363
 30
0.0
 11
116148.9266518258
 21
111655.2346846735
 31
0.0
  0
LINE
  5
620DA
330
1F
100
AcDbEntity
  8
freecads.com
100
AcDbLine
 10
116148.9266518258
 20
111655.2346846735
 30
0.0
 11
116148.9229617143
 21
111655.2774799868
 31
0.0
  0
LINE
  5
620DB
330
1F
100
AcDbEntity
  8
freecads.com
100
AcDbLine
 10
116148.9229617143
 20
111655.2774799868
 30
0.0
 11
116148.9139134647
 21
111655.3134686484
 31
0.0
  0
LINE
  5
620DC
330
1F
100
AcDbEntity
  8
freecads.com
100
AcDbLine
 10
116148.9139134647
 20
111655.3134686484
 30
0.0
 11
116148.8838190777
 21
111655.3746194073
 31
0.0
  0
LINE
  5
620DD
330
1F
100
AcDbEntity
  8
freecads.com
100
AcDbLine
 10
116148.8838190777
 20
111655.3746194073
 30
0.0
 11
116148.8684312024
 21
111655.3950613262
 31
0.0
  0
LINE
  5
620DE
330
1F
100
AcDbEntity
  8
freecads.com
100
AcDbLine
 10
116148.8684312024
 20
111655.3950613262
 30
0.0
 11
116148.8534285211
 21
111655.4114613688
 31
0.0
  0
LINE
  5
620DF
330
1F
100
AcDbEntity
  8
freecads.com
100
AcDbLine
 10
116148.8534285211
 20
111655.4114613688
 30
0.0
 11
116148.8095482933
 21
111655.4464357749
 31
0.0
  0
LINE
  5
620E0
330
1F
100
AcDbEntity
  8
freecads.com
100
AcDbLine
 10
116148.8095482933
 20
111655.4464357749
 30
0.0
 11
116148.7783642059
 21
111655.4630584718
 31
0.0
  0
LINE
  5
620E1
330
1F
100
AcDbEntity
  8
freecads.com
100
AcDbLine
 10
116148.7783642059
 20
111655.4630584718
 30
0.0
 11
116148.7275953724
 21
111655.4794391526
 31
0.0
  0
LINE
  5
620E2
330
1F
100
AcDbEntity
  8
freecads.com
100
AcDbLine
 10
116148.7275953724
 20
111655.4794391526
 30
0.0
 11
116148.6952329912
 21
111655.4839931978
 31
0.0
  0
LINE
  5
620E3
330
1F
100
AcDbEntity
  8
freecads.com
100
AcDbLine
 10
116148.6952329912
 20
111655.4839931978
 30
0.0
 11
116148.6766518258
 21
111655.4846846735
 31
0.0
  0
LINE
  5
620E4
330
1F
100
AcDbEntity
  8
freecads.com
100
AcDbLine
 10
116148.6766518258
 20
111655.4846846735
 30
0.0
 11
116147.9543175529
 21
111655.4846846735
 31
0.0
  0
LINE
  5
620E5
330
1F
100
AcDbEntity
  8
freecads.com
100
AcDbLine
 10
116147.9543175529
 20
111655.4846846735
 30
0.0
 11
116147.9233515744
 21
111655.4827594771
 31
0.0
  0
LINE
  5
620E6
330
1F
100
AcDbEntity
  8
freecads.com
100
AcDbLine
 10
116147.9233515744
 20
111655.4827594771
 30
0.0
 11
116147.8804268716
 21
111655.4735155074
 31
0.0
  0
LINE
  5
620E7
330
1F
100
AcDbEntity
  8
freecads.com
100
AcDbLine
 10
116147.8804268716
 20
111655.4735155074
 30
0.0
 11
116147.8348417755
 21
111655.4542878124
 31
0.0
  0
LINE
  5
620E8
330
1F
100
AcDbEntity
  8
freecads.com
100
AcDbLine
 10
116147.8348417755
 20
111655.4542878124
 30
0.0
 11
116147.7775408576
 21
111655.4114613688
 31
0.0
  0
LINE
  5
620E9
330
1F
100
AcDbEntity
  8
freecads.com
100
AcDbLine
 10
116147.7775408576
 20
111655.4114613688
 30
0.0
 11
116147.7457691321
 21
111655.3725525675
 31
0.0
  0
LINE
  5
620EA
330
1F
100
AcDbEntity
  8
freecads.com
100
AcDbLine
 10
116147.7457691321
 20
111655.3725525675
 30
0.0
 11
116147.7247465838
 21
111655.3336653289
 31
0.0
  0
LINE
  5
620EB
330
1F
100
AcDbEntity
  8
freecads.com
100
AcDbLine
 10
116147.7247465838
 20
111655.3336653289
 30
0.0
 11
116147.7126150664
 21
111655.2985588314
 31
0.0
  0
LINE
  5
620EC
330
1F
100
AcDbEntity
  8
freecads.com
100
AcDbLine
 10
116147.7126150664
 20
111655.2985588314
 30
0.0
 11
116147.705960904
 21
111655.2633024114
 31
0.0
  0
LINE
  5
620ED
330
1F
100
AcDbEntity
  8
freecads.com
100
AcDbLine
 10
116147.705960904
 20
111655.2633024114
 30
0.0
 11
116147.7043175529
 21
111655.2346846735
 31
0.0
  0
LINE
  5
620EE
330
1F
100
AcDbEntity
  8
freecads.com
100
AcDbLine
 10
116147.7043175529
 20
111655.2346846735
 30
0.0
 11
116147.7043175529
 21
111650.7912363459
 31
0.0
  0
LINE
  5
620EF
330
1F
100
AcDbEntity
  8
freecads.com
100
AcDbLine
 10
116147.7043175529
 20
111650.7912363459
 30
0.0
 11
116147.7074921386
 21
111650.7515221815
 31
0.0
  0
LINE
  5
620F0
330
1F
100
AcDbEntity
  8
freecads.com
100
AcDbLine
 10
116147.7074921386
 20
111650.7515221815
 30
0.0
 11
116147.7202635528
 21
111650.7033800709
 31
0.0
  0
LINE
  5
620F1
330
1F
100
AcDbEntity
  8
freecads.com
100
AcDbLine
 10
116147.7202635528
 20
111650.7033800709
 30
0.0
 11
116147.739158949
 21
111650.6639305128
 31
0.0
  0
LINE
  5
620F2
330
1F
100
AcDbEntity
  8
freecads.com
100
AcDbLine
 10
116147.739158949
 20
111650.6639305128
 30
0.0
 11
116147.7613043302
 21
111650.6323467746
 31
0.0
  0
LINE
  5
620F3
330
1F
100
AcDbEntity
  8
freecads.com
100
AcDbLine
 10
116147.7613043302
 20
111650.6323467746
 30
0.0
 11
116147.8142459526
 21
111650.5841616087
 31
0.0
  0
LINE
  5
620F4
330
1F
100
AcDbEntity
  8
freecads.com
100
AcDbLine
 10
116147.8142459526
 20
111650.5841616087
 30
0.0
 11
116147.8607194512
 21
111650.5594187552
 31
0.0
  0
LINE
  5
620F5
330
1F
100
AcDbEntity
  8
freecads.com
100
AcDbLine
 10
116147.8607194512
 20
111650.5594187552
 30
0.0
 11
116147.9093985536
 21
111650.5453048849
 31
0.0
  0
LINE
  5
620F6
330
1F
100
AcDbEntity
  8
freecads.com
100
AcDbLine
 10
116147.9093985536
 20
111650.5453048849
 30
0.0
 11
116147.9543175529
 21
111650.5412363459
 31
0.0
  0
LINE
  5
620F7
330
1F
100
AcDbEntity
  8
freecads.com
100
AcDbLine
 10
116147.9543175529
 20
111650.5412363459
 30
0.0
 11
116148.6609032178
 21
111650.5412363459
 31
0.0
  0
LINE
  5
620F8
330
1F
100
AcDbEntity
  8
freecads.com
100
AcDbLine
 10
116148.6609032178
 20
111650.5412363459
 30
0.0
 11
116148.7086729759
 21
111650.5366300097
 31
0.0
  0
LINE
  5
620F9
330
1F
100
AcDbEntity
  8
freecads.com
100
AcDbLine
 10
116148.7086729759
 20
111650.5366300097
 30
0.0
 11
116148.7557547981
 21
111650.5225438851
 31
0.0
  0
LINE
  5
620FA
330
1F
100
AcDbEntity
  8
freecads.com
100
AcDbLine
 10
116148.7557547981
 20
111650.5225438851
 30
0.0
 11
116148.7945920817
 21
111650.5024880622
 31
0.0
  0
LINE
  5
620FB
330
1F
100
AcDbEntity
  8
freecads.com
100
AcDbLine
 10
116148.7945920817
 20
111650.5024880622
 30
0.0
 11
116148.8376799131
 21
111650.4680130412
 31
0.0
  0
LINE
  5
620FC
330
1F
100
AcDbEntity
  8
freecads.com
100
AcDbLine
 10
116148.8376799131
 20
111650.4680130412
 30
0.0
 11
116148.8623584575
 21
111650.4392761595
 31
0.0
  0
LINE
  5
620FD
330
1F
100
AcDbEntity
  8
freecads.com
100
AcDbLine
 10
116148.8623584575
 20
111650.4392761595
 30
0.0
 11
116148.8908971268
 21
111650.3892302326
 31
0.0
  0
LINE
  5
620FE
330
1F
100
AcDbEntity
  8
freecads.com
100
AcDbLine
 10
116148.8908971268
 20
111650.3892302326
 30
0.0
 11
116148.9069829764
 21
111650.3353356927
 31
0.0
  0
LINE
  5
620FF
330
1F
100
AcDbEntity
  8
freecads.com
100
AcDbLine
 10
116148.9069829764
 20
111650.3353356927
 30
0.0
 11
116148.9109032178
 21
111650.2912363459
 31
0.0
  0
LINE
  5
62100
330
1F
100
AcDbEntity
  8
freecads.com
100
AcDbLine
 10
116148.9109032178
 20
111650.2912363459
 30
0.0
 11
116148.9109032178
 21
111630.2694054396
 31
0.0
  0
LINE
  5
62101
330
1F
100
AcDbEntity
  8
freecads.com
100
AcDbLine
 10
116148.9109032178
 20
111630.2694054396
 30
0.0
 11
116179.5043175529
 21
111630.2694054396
 31
0.0
  0
LINE
  5
62102
330
1F
100
AcDbEntity
  8
freecads.com
100
AcDbLine
 10
116179.5043175529
 20
111630.2694054396
 30
0.0
 11
116179.5043175529
 21
111605.2694054396
 31
0.0
  0
LINE
  5
62103
330
1F
100
AcDbEntity
  8
freecads.com
100
AcDbLine
 10
116258.0897375131
 20
111683.3351133612
 30
0.0
 11
116258.0897375131
 21
111687.5422480116
 31
0.0
  0
LINE
  5
62104
330
1F
100
AcDbEntity
  8
freecads.com
100
AcDbLine
 10
116258.0897375131
 20
111687.5422480116
 30
0.0
 11
116267.3043175529
 21
111687.5422480116
 31
0.0
  0
LINE
  5
62105
330
1F
100
AcDbEntity
  8
freecads.com
100
AcDbLine
 10
116267.3043175529
 20
111687.5422480116
 30
0.0
 11
116267.3043175529
 21
111685.0422480116
 31
0.0
  0
LINE
  5
62106
330
1F
100
AcDbEntity
  8
freecads.com
100
AcDbLine
 10
116264.884602318
 20
111669.5863014665
 30
0.0
 11
116266.3043175529
 21
111669.5863014665
 31
0.0
  0
LINE
  5
62107
330
1F
100
AcDbEntity
  8
freecads.com
100
AcDbLine
 10
116264.884602318
 20
111670.5863014665
 30
0.0
 11
116266.3043175529
 21
111670.5863014665
 31
0.0
  0
LINE
  5
62108
330
1F
100
AcDbEntity
  8
freecads.com
100
AcDbLine
 10
116267.3043175529
 20
111668.3363014665
 30
0.0
 11
116267.3043175529
 21
111672.3363014665
 31
0.0
  0
LINE
  5
62109
330
1F
100
AcDbEntity
  8
freecads.com
100
AcDbLine
 10
116266.3043175529
 20
111668.3363014665
 30
0.0
 11
116266.3043175529
 21
111672.3363014665
 31
0.0
  0
ARC
  5
6210A
330
1F
100
AcDbEntity
  8
freecads.com
100
AcDbCircle
 10
116266.8043175529
 20
111668.3363014665
 30
0.0
 40
0.5
100
AcDbArc
 50
180.0
 51
0.0
  0
ARC
  5
6210B
330
1F
100
AcDbEntity
  8
freecads.com
100
AcDbCircle
 10
116266.8043175529
 20
111672.3363014665
 30
0.0
 40
0.5
100
AcDbArc
 50
0.0
 51
180.0
  0
CIRCLE
  5
6210C
330
1F
100
AcDbEntity
  8
freecads.com
100
AcDbCircle
 10
116207.5043175529
 20
111672.4803130013
 30
0.0
 40
3.662381527683464
  0
LINE
  5
6210D
330
1F
100
AcDbEntity
  8
freecads.com
100
AcDbLine
 10
116203.9195527832
 20
111673.2303130013
 30
0.0
 11
116161.4879310054
 21
111673.2303130013
 31
0.0
  0
LINE
  5
6210E
330
1F
100
AcDbEntity
  8
freecads.com
100
AcDbLine
 10
116203.9195527832
 20
111671.7303130013
 30
0.0
 11
116161.4879310054
 21
111671.7303130013
 31
0.0
  0
LINE
  5
6210F
330
1F
100
AcDbEntity
  8
freecads.com
100
AcDbLine
 10
116258.0897375131
 20
111683.3351133612
 30
0.0
 11
116258.7440344332
 21
111683.3351133612
 31
0.0
  0
ARC
  5
62110
330
1F
100
AcDbEntity
  8
freecads.com
100
AcDbCircle
 10
116258.7440344332
 20
111683.5851133612
 30
0.0
 40
0.25
100
AcDbArc
 50
270.0
 51
0.0
  0
LINE
  5
62111
330
1F
100
AcDbEntity
  8
freecads.com
100
AcDbLine
 10
116258.9940344332
 20
111683.5851133612
 30
0.0
 11
116258.9940344332
 21
111686.2922480116
 31
0.0
  0
ARC
  5
62112
330
1F
100
AcDbEntity
  8
freecads.com
100
AcDbCircle
 10
116259.2440344332
 20
111686.2922480116
 30
0.0
 40
0.25
100
AcDbArc
 50
90.0
 51
180.0
  0
LINE
  5
62113
330
1F
100
AcDbEntity
  8
freecads.com
100
AcDbLine
 10
116259.2440344332
 20
111686.5422480116
 30
0.0
 11
116259.6884011766
 21
111686.5422480116
 31
0.0
  0
ARC
  5
62114
330
1F
100
AcDbEntity
  8
freecads.com
100
AcDbCircle
 10
116259.6884011766
 20
111686.2922480116
 30
0.0
 40
0.25
100
AcDbArc
 50
0.0
 51
90.0
  0
LINE
  5
62115
330
1F
100
AcDbEntity
  8
freecads.com
100
AcDbLine
 10
116259.9384011766
 20
111686.2922480116
 30
0.0
 11
116259.9384011766
 21
111678.6275219303
 31
0.0
  0
LINE
  5
62116
330
1F
100
AcDbEntity
  8
freecads.com
100
AcDbLine
 10
116259.9384011766
 20
111678.6275219303
 30
0.0
 11
116155.0702339292
 21
111678.6275219303
 31
0.0
  0
LINE
  5
62117
330
1F
100
AcDbEntity
  8
freecads.com
100
AcDbLine
 10
116155.0702339292
 20
111678.6275219303
 30
0.0
 11
116155.0702339292
 21
111686.2922480116
 31
0.0
  0
ARC
  5
62118
330
1F
100
AcDbEntity
  8
freecads.com
100
AcDbCircle
 10
116155.3202339292
 20
111686.2922480116
 30
0.0
 40
0.25
100
AcDbArc
 50
90.0
 51
180.0
  0
LINE
  5
62119
330
1F
100
AcDbEntity
  8
freecads.com
100
AcDbLine
 10
116155.3202339292
 20
111686.5422480116
 30
0.0
 11
116155.7646006726
 21
111686.5422480116
 31
0.0
  0
ARC
  5
6211A
330
1F
100
AcDbEntity
  8
freecads.com
100
AcDbCircle
 10
116155.7646006726
 20
111686.2922480116
 30
0.0
 40
0.25
100
AcDbArc
 50
0.0
 51
90.0
  0
LINE
  5
6211B
330
1F
100
AcDbEntity
  8
freecads.com
100
AcDbLine
 10
116156.0146006725
 20
111686.2922480116
 30
0.0
 11
116156.0146006725
 21
111683.5851133612
 31
0.0
  0
ARC
  5
6211C
330
1F
100
AcDbEntity
  8
freecads.com
100
AcDbCircle
 10
116156.2646006726
 20
111683.5851133612
 30
0.0
 40
0.25
100
AcDbArc
 50
180.0
 51
270.0
  0
LINE
  5
6211D
330
1F
100
AcDbEntity
  8
freecads.com
100
AcDbLine
 10
116156.2646006726
 20
111683.3351133612
 30
0.0
 11
116156.9188975927
 21
111683.3351133612
 31
0.0
  0
ARC
  5
6211E
330
1F
100
AcDbEntity
  8
freecads.com
100
AcDbCircle
 10
116151.6334346856
 20
111669.0679314736
 30
0.0
 40
0.25
100
AcDbArc
 50
180.0
 51
270.0
  0
LINE
  5
6211F
330
1F
100
AcDbEntity
  8
freecads.com
100
AcDbLine
 10
116151.3834346856
 20
111669.0679314736
 30
0.0
 11
116151.3834346856
 21
111675.892694529
 31
0.0
  0
ARC
  5
62120
330
1F
100
AcDbEntity
  8
freecads.com
100
AcDbCircle
 10
116151.6334346856
 20
111675.892694529
 30
0.0
 40
0.25
100
AcDbArc
 50
90.0
 51
180.0
  0
LINE
  5
62121
330
1F
100
AcDbEntity
  8
freecads.com
100
AcDbLine
 10
116151.6334346856
 20
111676.142694529
 30
0.0
 11
116263.3752004202
 21
111676.142694529
 31
0.0
  0
ARC
  5
62122
330
1F
100
AcDbEntity
  8
freecads.com
100
AcDbCircle
 10
116263.3752004202
 20
111675.892694529
 30
0.0
 40
0.25
100
AcDbArc
 50
0.0
 51
90.0
  0
LINE
  5
62123
330
1F
100
AcDbEntity
  8
freecads.com
100
AcDbLine
 10
116263.6252004202
 20
111675.892694529
 30
0.0
 11
116263.6252004202
 21
111669.0679314736
 31
0.0
  0
ARC
  5
62124
330
1F
100
AcDbEntity
  8
freecads.com
100
AcDbCircle
 10
116263.3752004202
 20
111669.0679314736
 30
0.0
 40
0.25
100
AcDbArc
 50
270.0
 51
0.0
  0
LINE
  5
62125
330
1F
100
AcDbEntity
  8
freecads.com
100
AcDbLine
 10
116263.3752004202
 20
111668.8179314736
 30
0.0
 11
116151.6334346856
 21
111668.8179314736
 31
0.0
  0
LINE
  5
62126
330
1F
100
AcDbEntity
  8
freecads.com
100
AcDbLine
 10
116266.097731888
 20
111630.2694054396
 30
0.0
 11
116266.097731888
 21
111650.2912363459
 31
0.0
  0
ARC
  5
62127
330
1F
100
AcDbEntity
  8
freecads.com
100
AcDbCircle
 10
116266.347731888
 20
111650.2912363459
 30
0.0
 40
0.25
100
AcDbArc
 50
90.0
 51
180.0
  0
LINE
  5
62128
330
1F
100
AcDbEntity
  8
freecads.com
100
AcDbLine
 10
116266.347731888
 20
111650.5412363459
 30
0.0
 11
116267.0543175529
 21
111650.5412363459
 31
0.0
  0
ARC
  5
62129
330
1F
100
AcDbEntity
  8
freecads.com
100
AcDbCircle
 10
116267.0543175529
 20
111650.7912363459
 30
0.0
 40
0.25
100
AcDbArc
 50
270.0
 51
0.0
  0
LINE
  5
6212A
330
1F
100
AcDbEntity
  8
freecads.com
100
AcDbLine
 10
116267.3043175529
 20
111650.7912363459
 30
0.0
 11
116267.3043175529
 21
111655.2346846735
 31
0.0
  0
ARC
  5
6212B
330
1F
100
AcDbEntity
  8
freecads.com
100
AcDbCircle
 10
116267.0543175529
 20
111655.2346846735
 30
0.0
 40
0.25
100
AcDbArc
 50
0.0
 51
90.0
  0
LINE
  5
6212C
330
1F
100
AcDbEntity
  8
freecads.com
100
AcDbLine
 10
116267.0543175529
 20
111655.4846846735
 30
0.0
 11
116266.33198328
 21
111655.4846846735
 31
0.0
  0
ARC
  5
6212D
330
1F
100
AcDbEntity
  8
freecads.com
100
AcDbCircle
 10
116266.33198328
 20
111655.2346846735
 30
0.0
 40
0.25
100
AcDbArc
 50
90.0
 51
180.0
  0
LINE
  5
6212E
330
1F
100
AcDbEntity
  8
freecads.com
100
AcDbLine
 10
116266.08198328
 20
111655.2346846735
 30
0.0
 11
116266.08198328
 21
111653.8261477363
 31
0.0
  0
ARC
  5
6212F
330
1F
100
AcDbEntity
  8
freecads.com
100
AcDbCircle
 10
116265.8319832799
 20
111653.8261477363
 30
0.0
 40
0.25
100
AcDbArc
 50
270.0
 51
0.0
  0
LINE
  5
62130
330
1F
100
AcDbEntity
  8
freecads.com
100
AcDbLine
 10
116265.8319832799
 20
111653.5761477363
 30
0.0
 11
116265.134602318
 21
111653.5761477363
 31
0.0
  0
ARC
  5
62131
330
1F
100
AcDbEntity
  8
freecads.com
100
AcDbCircle
 10
116265.134602318
 20
111653.8261477363
 30
0.0
 40
0.25
100
AcDbArc
 50
180.0
 51
270.0
  0
LINE
  5
62132
330
1F
100
AcDbEntity
  8
freecads.com
100
AcDbLine
 10
116264.884602318
 20
111653.8261477363
 30
0.0
 11
116264.884602318
 21
111686.2922480116
 31
0.0
  0
ARC
  5
62133
330
1F
100
AcDbEntity
  8
freecads.com
100
AcDbCircle
 10
116265.134602318
 20
111686.2922480116
 30
0.0
 40
0.25
100
AcDbArc
 50
90.0
 51
180.0
  0
LINE
  5
62134
330
1F
100
AcDbEntity
  8
freecads.com
100
AcDbLine
 10
116265.134602318
 20
111686.5422480116
 30
0.0
 11
116266.0543175529
 21
111686.5422480116
 31
0.0
  0
ARC
  5
62135
330
1F
100
AcDbEntity
  8
freecads.com
100
AcDbCircle
 10
116266.0543175529
 20
111686.2922480116
 30
0.0
 40
0.25
100
AcDbArc
 50
0.0
 51
90.0
  0
LINE
  5
62136
330
1F
100
AcDbEntity
  8
freecads.com
100
AcDbLine
 10
116266.3043175529
 20
111686.2922480116
 30
0.0
 11
116266.3043175529
 21
111685.2922480116
 31
0.0
  0
ARC
  5
62137
330
1F
100
AcDbEntity
  8
freecads.com
100
AcDbCircle
 10
116266.5543175529
 20
111685.2922480116
 30
0.0
 40
0.25
100
AcDbArc
 50
180.0
 51
270.0
  0
LINE
  5
62138
330
1F
100
AcDbEntity
  8
freecads.com
100
AcDbLine
 10
116266.5543175529
 20
111685.0422480116
 30
0.0
 11
116267.3043175529
 21
111685.0422480116
 31
0.0
  0
LINE
  5
62139
330
1F
100
AcDbEntity
  8
freecads.com
100
AcDbLine
 10
116235.5150341613
 20
111632.4965478148
 30
0.0
 11
116235.5150341613
 21
111631.5194054396
 31
0.0
  0
ARC
  5
6213A
330
1F
100
AcDbEntity
  8
freecads.com
100
AcDbCircle
 10
116235.7650341613
 20
111631.5194054396
 30
0.0
 40
0.25
100
AcDbArc
 50
180.0
 51
270.0
  0
LINE
  5
6213B
330
1F
100
AcDbEntity
  8
freecads.com
100
AcDbLine
 10
116235.7650341613
 20
111631.2694054396
 30
0.0
 11
116264.7398778815
 21
111631.2694054396
 31
0.0
  0
ARC
  5
6213C
330
1F
100
AcDbEntity
  8
freecads.com
100
AcDbCircle
 10
116264.7398778815
 20
111631.5194054396
 30
0.0
 40
0.25
100
AcDbArc
 50
270.0
 51
0.0
  0
LINE
  5
6213D
330
1F
100
AcDbEntity
  8
freecads.com
100
AcDbLine
 10
116264.9898778815
 20
111631.5194054396
 30
0.0
 11
116264.9898778815
 21
111632.1057066102
 31
0.0
  0
ARC
  5
6213E
330
1F
100
AcDbEntity
  8
freecads.com
100
AcDbCircle
 10
116264.7398778815
 20
111632.1057066102
 30
0.0
 40
0.25
100
AcDbArc
 50
0.0
 51
90.0
  0
LINE
  5
6213F
330
1F
100
AcDbEntity
  8
freecads.com
100
AcDbLine
 10
116264.7398778815
 20
111632.3557066102
 30
0.0
 11
116263.8152345664
 21
111632.3557066102
 31
0.0
  0
ARC
  5
62140
330
1F
100
AcDbEntity
  8
freecads.com
100
AcDbCircle
 10
116263.8152345664
 20
111632.6057066102
 30
0.0
 40
0.25
100
AcDbArc
 50
180.0
 51
270.0
  0
LINE
  5
62141
330
1F
100
AcDbEntity
  8
freecads.com
100
AcDbLine
 10
116263.5652345664
 20
111632.6057066102
 30
0.0
 11
116263.5652345664
 21
111650.1539043376
 31
0.0
  0
ARC
  5
62142
330
1F
100
AcDbEntity
  8
freecads.com
100
AcDbCircle
 10
116263.3152345664
 20
111650.1539043376
 30
0.0
 40
0.25
100
AcDbArc
 50
0.0
 51
90.0
  0
LINE
  5
62143
330
1F
100
AcDbEntity
  8
freecads.com
100
AcDbLine
 10
116263.3152345664
 20
111650.4039043376
 30
0.0
 11
116262.8230722577
 21
111650.4039043376
 31
0.0
  0
ARC
  5
62144
330
1F
100
AcDbEntity
  8
freecads.com
100
AcDbCircle
 10
116262.8230722577
 20
111650.6539043376
 30
0.0
 40
0.25
100
AcDbArc
 50
180.0
 51
270.0
  0
LINE
  5
62145
330
1F
100
AcDbEntity
  8
freecads.com
100
AcDbLine
 10
116262.5730722577
 20
111650.6539043376
 30
0.0
 11
116262.5730722577
 21
111651.2772549669
 31
0.0
  0
ARC
  5
62146
330
1F
100
AcDbEntity
  8
freecads.com
100
AcDbCircle
 10
116262.3230722577
 20
111651.2772549669
 30
0.0
 40
0.25
100
AcDbArc
 50
0.0
 51
90.0
  0
LINE
  5
62147
330
1F
100
AcDbEntity
  8
freecads.com
100
AcDbLine
 10
116262.3230722577
 20
111651.5272549668
 30
0.0
 11
116260.7805989335
 21
111651.5272549668
 31
0.0
  0
ARC
  5
62148
330
1F
100
AcDbEntity
  8
freecads.com
100
AcDbCircle
 10
116260.7805989335
 20
111651.2772549669
 30
0.0
 40
0.25
100
AcDbArc
 50
90.0
 51
180.0
  0
LINE
  5
62149
330
1F
100
AcDbEntity
  8
freecads.com
100
AcDbLine
 10
116260.5305989335
 20
111651.2772549669
 30
0.0
 11
116260.5305989335
 21
111649.8205888305
 31
0.0
  0
ARC
  5
6214A
330
1F
100
AcDbEntity
  8
freecads.com
100
AcDbCircle
 10
116260.2805989335
 20
111649.8205888305
 30
0.0
 40
0.25
100
AcDbArc
 50
270.0
 51
0.0
  0
LINE
  5
6214B
330
1F
100
AcDbEntity
  8
freecads.com
100
AcDbLine
 10
116260.2805989335
 20
111649.5705888305
 30
0.0
 11
116259.144967726
 21
111649.5705888305
 31
0.0
  0
ARC
  5
6214C
330
1F
100
AcDbEntity
  8
freecads.com
100
AcDbCircle
 10
116259.144967726
 20
111649.3205888305
 30
0.0
 40
0.2499999999970441
100
AcDbArc
 50
90.00000000083378
 51
127.1188394955334
  0
LINE
  5
6214D
330
1F
100
AcDbEntity
  8
freecads.com
100
AcDbLine
 10
116258.9941001736
 20
111649.5199352165
 30
0.0
 11
116235.6141666089
 21
111632.6958942008
 31
0.0
  0
ARC
  5
6214E
330
1F
100
AcDbEntity
  8
freecads.com
100
AcDbCircle
 10
116235.7650341613
 20
111632.4965478148
 30
0.0
 40
0.2499999999998766
100
AcDbArc
 50
127.1188394943655
 51
179.9999999991662
  0
LINE
  5
6214F
330
1F
100
AcDbEntity
  8
freecads.com
100
AcDbLine
 10
116259.9103460616
 20
111652.676056115
 30
0.0
 11
116259.254319351
 21
111652.676056115
 31
0.0
  0
LINE
  5
62150
330
1F
100
AcDbEntity
  8
freecads.com
100
AcDbLine
 10
116259.254319351
 20
111652.676056115
 30
0.0
 11
116259.254319351
 21
111650.2320503383
 31
0.0
  0
LINE
  5
62151
330
1F
100
AcDbEntity
  8
freecads.com
100
AcDbLine
 10
116259.254319351
 20
111650.2320503383
 30
0.0
 11
116259.9103460616
 21
111650.2320503383
 31
0.0
  0
LINE
  5
62152
330
1F
100
AcDbEntity
  8
freecads.com
100
AcDbLine
 10
116259.9103460616
 20
111650.2320503383
 30
0.0
 11
116259.9103460616
 21
111652.676056115
 31
0.0
  0
LINE
  5
62153
330
1F
100
AcDbEntity
  8
freecads.com
100
AcDbLine
 10
116156.9188975927
 20
111683.3351133612
 30
0.0
 11
116156.9188975927
 21
111687.5422480116
 31
0.0
  0
LINE
  5
62154
330
1F
100
AcDbEntity
  8
freecads.com
100
AcDbLine
 10
116156.9188975927
 20
111687.5422480116
 30
0.0
 11
116147.7043175529
 21
111687.5422480116
 31
0.0
  0
LINE
  5
62155
330
1F
100
AcDbEntity
  8
freecads.com
100
AcDbLine
 10
116147.7043175529
 20
111687.5422480116
 30
0.0
 11
116147.7043175529
 21
111685.0422480116
 31
0.0
  0
LINE
  5
62156
330
1F
100
AcDbEntity
  8
freecads.com
100
AcDbLine
 10
116150.1240327878
 20
111669.5863014665
 30
0.0
 11
116148.7043175529
 21
111669.5863014665
 31
0.0
  0
LINE
  5
62157
330
1F
100
AcDbEntity
  8
freecads.com
100
AcDbLine
 10
116150.1240327878
 20
111670.5863014665
 30
0.0
 11
116148.7043175529
 21
111670.5863014665
 31
0.0
  0
LINE
  5
62158
330
1F
100
AcDbEntity
  8
freecads.com
100
AcDbLine
 10
116147.7043175529
 20
111668.3363014665
 30
0.0
 11
116147.7043175529
 21
111672.3363014665
 31
0.0
  0
LINE
  5
62159
330
1F
100
AcDbEntity
  8
freecads.com
100
AcDbLine
 10
116148.7043175529
 20
111668.3363014665
 30
0.0
 11
116148.7043175529
 21
111672.3363014665
 31
0.0
  0
ARC
  5
6215A
330
1F
100
AcDbEntity
  8
freecads.com
100
AcDbCircle
 10
116148.2043175529
 20
111668.3363014665
 30
0.0
 40
0.5
100
AcDbArc
 50
180.0
 51
0.0
  0
ARC
  5
6215B
330
1F
100
AcDbEntity
  8
freecads.com
100
AcDbCircle
 10
116148.2043175529
 20
111672.3363014665
 30
0.0
 40
0.5
100
AcDbArc
 50
0.0
 51
180.0
  0
LINE
  5
6215C
330
1F
100
AcDbEntity
  8
freecads.com
100
AcDbLine
 10
116148.9109032178
 20
111630.2694054396
 30
0.0
 11
116148.9109032178
 21
111650.2912363459
 31
0.0
  0
ARC
  5
6215D
330
1F
100
AcDbEntity
  8
freecads.com
100
AcDbCircle
 10
116148.6609032178
 20
111650.2912363459
 30
0.0
 40
0.25
100
AcDbArc
 50
0.0
 51
90.0
  0
LINE
  5
6215E
330
1F
100
AcDbEntity
  8
freecads.com
100
AcDbLine
 10
116148.6609032178
 20
111650.5412363459
 30
0.0
 11
116147.9543175529
 21
111650.5412363459
 31
0.0
  0
ARC
  5
6215F
330
1F
100
AcDbEntity
  8
freecads.com
100
AcDbCircle
 10
116147.9543175529
 20
111650.7912363459
 30
0.0
 40
0.25
100
AcDbArc
 50
180.0
 51
270.0
  0
LINE
  5
62160
330
1F
100
AcDbEntity
  8
freecads.com
100
AcDbLine
 10
116147.7043175529
 20
111650.7912363459
 30
0.0
 11
116147.7043175529
 21
111655.2346846735
 31
0.0
  0
ARC
  5
62161
330
1F
100
AcDbEntity
  8
freecads.com
100
AcDbCircle
 10
116147.9543175529
 20
111655.2346846735
 30
0.0
 40
0.25
100
AcDbArc
 50
90.0
 51
180.0
  0
LINE
  5
62162
330
1F
100
AcDbEntity
  8
freecads.com
100
AcDbLine
 10
116147.9543175529
 20
111655.4846846735
 30
0.0
 11
116148.6766518258
 21
111655.4846846735
 31
0.0
  0
ARC
  5
62163
330
1F
100
AcDbEntity
  8
freecads.com
100
AcDbCircle
 10
116148.6766518258
 20
111655.2346846735
 30
0.0
 40
0.25
100
AcDbArc
 50
0.0
 51
90.0
  0
LINE
  5
62164
330
1F
100
AcDbEntity
  8
freecads.com
100
AcDbLine
 10
116148.9266518258
 20
111655.2346846735
 30
0.0
 11
116148.9266518258
 21
111653.8261477363
 31
0.0
  0
ARC
  5
62165
330
1F
100
AcDbEntity
  8
freecads.com
100
AcDbCircle
 10
116149.1766518258
 20
111653.8261477363
 30
0.0
 40
0.25
100
AcDbArc
 50
180.0
 51
270.0
  0
LINE
  5
62166
330
1F
100
AcDbEntity
  8
freecads.com
100
AcDbLine
 10
116149.1766518258
 20
111653.5761477363
 30
0.0
 11
116149.8740327878
 21
111653.5761477363
 31
0.0
  0
ARC
  5
62167
330
1F
100
AcDbEntity
  8
freecads.com
100
AcDbCircle
 10
116149.8740327878
 20
111653.8261477363
 30
0.0
 40
0.25
100
AcDbArc
 50
270.0
 51
0.0
  0
LINE
  5
62168
330
1F
100
AcDbEntity
  8
freecads.com
100
AcDbLine
 10
116150.1240327878
 20
111653.8261477363
 30
0.0
 11
116150.1240327878
 21
111686.2922480116
 31
0.0
  0
ARC
  5
62169
330
1F
100
AcDbEntity
  8
freecads.com
100
AcDbCircle
 10
116149.8740327878
 20
111686.2922480116
 30
0.0
 40
0.25
100
AcDbArc
 50
0.0
 51
90.0
  0
LINE
  5
6216A
330
1F
100
AcDbEntity
  8
freecads.com
100
AcDbLine
 10
116149.8740327878
 20
111686.5422480116
 30
0.0
 11
116148.9543175529
 21
111686.5422480116
 31
0.0
  0
ARC
  5
6216B
330
1F
100
AcDbEntity
  8
freecads.com
100
AcDbCircle
 10
116148.9543175529
 20
111686.2922480116
 30
0.0
 40
0.25
100
AcDbArc
 50
90.0
 51
180.0
  0
LINE
  5
6216C
330
1F
100
AcDbEntity
  8
freecads.com
100
AcDbLine
 10
116148.7043175529
 20
111686.2922480116
 30
0.0
 11
116148.7043175529
 21
111685.2922480116
 31
0.0
  0
ARC
  5
6216D
330
1F
100
AcDbEntity
  8
freecads.com
100
AcDbCircle
 10
116148.4543175529
 20
111685.2922480116
 30
0.0
 40
0.25
100
AcDbArc
 50
270.0
 51
0.0
  0
LINE
  5
6216E
330
1F
100
AcDbEntity
  8
freecads.com
100
AcDbLine
 10
116148.4543175529
 20
111685.0422480116
 30
0.0
 11
116147.7043175529
 21
111685.0422480116
 31
0.0
  0
LINE
  5
6216F
330
1F
100
AcDbEntity
  8
freecads.com
100
AcDbLine
 10
116266.097731888
 20
111630.2694054396
 30
0.0
 11
116232.5043175529
 21
111630.2694054396
 31
0.0
  0
LINE
  5
62170
330
1F
100
AcDbEntity
  8
freecads.com
100
AcDbLine
 10
116232.5043175529
 20
111630.2694054396
 30
0.0
 11
116232.5043175529
 21
111633.2694054396
 31
0.0
  0
LINE
  5
62171
330
1F
100
AcDbEntity
  8
freecads.com
100
AcDbLine
 10
116232.5043175529
 20
111633.2694054396
 30
0.0
 11
116234.6309465042
 21
111633.2694054396
 31
0.0
  0
ARC
  5
62172
330
1F
100
AcDbEntity
  8
freecads.com
100
AcDbCircle
 10
116234.6309465042
 20
111633.5194054396
 30
0.0
 40
0.2499999999970441
100
AcDbArc
 50
270.0000000008338
 51
307.1188394955334
  0
LINE
  5
62173
330
1F
100
AcDbEntity
  8
freecads.com
100
AcDbLine
 10
116234.7818140566
 20
111633.3200590536
 30
0.0
 11
116258.254319351
 21
111650.2141593794
 31
0.0
  0
LINE
  5
62174
330
1F
100
AcDbEntity
  8
freecads.com
100
AcDbLine
 10
116258.254319351
 20
111650.2141593794
 30
0.0
 11
116258.254319351
 21
111661.775246609
 31
0.0
  0
LINE
  5
62175
330
1F
100
AcDbEntity
  8
freecads.com
100
AcDbLine
 10
116258.254319351
 20
111661.775246609
 30
0.0
 11
116259.254319351
 21
111661.775246609
 31
0.0
  0
LINE
  5
62176
330
1F
100
AcDbEntity
  8
freecads.com
100
AcDbLine
 10
116259.254319351
 20
111661.775246609
 30
0.0
 11
116259.254319351
 21
111653.7079666136
 31
0.0
  0
ARC
  5
62177
330
1F
100
AcDbEntity
  8
freecads.com
100
AcDbCircle
 10
116259.504319351
 20
111653.7079666136
 30
0.0
 40
0.25
100
AcDbArc
 50
180.0
 51
270.0
  0
LINE
  5
62178
330
1F
100
AcDbEntity
  8
freecads.com
100
AcDbLine
 10
116259.504319351
 20
111653.4579666136
 30
0.0
 11
116263.1953028588
 21
111653.4579666136
 31
0.0
  0
ARC
  5
62179
330
1F
100
AcDbEntity
  8
freecads.com
100
AcDbCircle
 10
116263.1953028588
 20
111653.7079666136
 30
0.0
 40
0.25
100
AcDbArc
 50
270.0
 51
0.0
  0
LINE
  5
6217A
330
1F
100
AcDbEntity
  8
freecads.com
100
AcDbLine
 10
116263.4453028588
 20
111653.7079666136
 30
0.0
 11
116263.4453028588
 21
111658.1201687595
 31
0.0
  0
ARC
  5
6217B
330
1F
100
AcDbEntity
  8
freecads.com
100
AcDbCircle
 10
116263.1953028588
 20
111658.1201687595
 30
0.0
 40
0.25
100
AcDbArc
 50
0.0
 51
90.0
  0
LINE
  5
6217C
330
1F
100
AcDbEntity
  8
freecads.com
100
AcDbLine
 10
116263.1953028588
 20
111658.3701687595
 30
0.0
 11
116259.9974085397
 21
111658.3701687595
 31
0.0
  0
ARC
  5
6217D
330
1F
100
AcDbEntity
  8
freecads.com
100
AcDbCircle
 10
116259.9974085397
 20
111658.6201687595
 30
0.0
 40
0.25
100
AcDbArc
 50
180.0
 51
270.0
  0
LINE
  5
6217E
330
1F
100
AcDbEntity
  8
freecads.com
100
AcDbLine
 10
116259.7474085397
 20
111658.6201687595
 30
0.0
 11
116259.7474085397
 21
111666.0679314736
 31
0.0
  0
ARC
  5
6217F
330
1F
100
AcDbEntity
  8
freecads.com
100
AcDbCircle
 10
116259.4974085397
 20
111666.0679314736
 30
0.0
 40
0.25
100
AcDbArc
 50
0.0
 51
90.0
  0
LINE
  5
62180
330
1F
100
AcDbEntity
  8
freecads.com
100
AcDbLine
 10
116259.4974085397
 20
111666.3179314736
 30
0.0
 11
116155.5112265661
 21
111666.3179314736
 31
0.0
  0
ARC
  5
62181
330
1F
100
AcDbEntity
  8
freecads.com
100
AcDbCircle
 10
116155.5112265661
 20
111666.0679314736
 30
0.0
 40
0.25
100
AcDbArc
 50
90.0
 51
180.0
  0
LINE
  5
62182
330
1F
100
AcDbEntity
  8
freecads.com
100
AcDbLine
 10
116155.2612265661
 20
111666.0679314736
 30
0.0
 11
116155.2612265661
 21
111658.6201687595
 31
0.0
  0
ARC
  5
62183
330
1F
100
AcDbEntity
  8
freecads.com
100
AcDbCircle
 10
116155.0112265661
 20
111658.6201687595
 30
0.0
 40
0.25
100
AcDbArc
 50
270.0
 51
0.0
  0
LINE
  5
62184
330
1F
100
AcDbEntity
  8
freecads.com
100
AcDbLine
 10
116155.0112265661
 20
111658.3701687595
 30
0.0
 11
116151.813332247
 21
111658.3701687595
 31
0.0
  0
ARC
  5
62185
330
1F
100
AcDbEntity
  8
freecads.com
100
AcDbCircle
 10
116151.813332247
 20
111658.1201687595
 30
0.0
 40
0.25
100
AcDbArc
 50
90.0
 51
180.0
  0
LINE
  5
62186
330
1F
100
AcDbEntity
  8
freecads.com
100
AcDbLine
 10
116151.563332247
 20
111658.1201687595
 30
0.0
 11
116151.563332247
 21
111653.7079666136
 31
0.0
  0
ARC
  5
62187
330
1F
100
AcDbEntity
  8
freecads.com
100
AcDbCircle
 10
116151.813332247
 20
111653.7079666136
 30
0.0
 40
0.25
100
AcDbArc
 50
180.0
 51
270.0
  0
LINE
  5
62188
330
1F
100
AcDbEntity
  8
freecads.com
100
AcDbLine
 10
116151.813332247
 20
111653.4579666136
 30
0.0
 11
116155.5043157548
 21
111653.4579666136
 31
0.0
  0
ARC
  5
62189
330
1F
100
AcDbEntity
  8
freecads.com
100
AcDbCircle
 10
116155.5043157548
 20
111653.7079666136
 30
0.0
 40
0.25
100
AcDbArc
 50
270.0
 51
0.0
  0
LINE
  5
6218A
330
1F
100
AcDbEntity
  8
freecads.com
100
AcDbLine
 10
116155.7543157548
 20
111653.7079666136
 30
0.0
 11
116155.7543157548
 21
111661.775246609
 31
0.0
  0
LINE
  5
6218B
330
1F
100
AcDbEntity
  8
freecads.com
100
AcDbLine
 10
116155.7543157548
 20
111661.775246609
 30
0.0
 11
116156.7543157548
 21
111661.775246609
 31
0.0
  0
LINE
  5
6218C
330
1F
100
AcDbEntity
  8
freecads.com
100
AcDbLine
 10
116156.7543157548
 20
111661.775246609
 30
0.0
 11
116156.7543157548
 21
111650.2141593794
 31
0.0
  0
LINE
  5
6218D
330
1F
100
AcDbEntity
  8
freecads.com
100
AcDbLine
 10
116156.7543157548
 20
111650.2141593794
 30
0.0
 11
116180.2268210492
 21
111633.3200590536
 31
0.0
  0
ARC
  5
6218E
330
1F
100
AcDbEntity
  8
freecads.com
100
AcDbCircle
 10
116180.3776886016
 20
111633.5194054396
 30
0.0
 40
0.2499999999969955
100
AcDbArc
 50
232.8811605044665
 51
269.9999999991662
  0
LINE
  5
6218F
330
1F
100
AcDbEntity
  8
freecads.com
100
AcDbLine
 10
116180.3776886016
 20
111633.2694054396
 30
0.0
 11
116182.5043175529
 21
111633.2694054396
 31
0.0
  0
LINE
  5
62190
330
1F
100
AcDbEntity
  8
freecads.com
100
AcDbLine
 10
116182.5043175529
 20
111633.2694054396
 30
0.0
 11
116182.5043175529
 21
111630.2694054396
 31
0.0
  0
LINE
  5
62191
330
1F
100
AcDbEntity
  8
freecads.com
100
AcDbLine
 10
116182.5043175529
 20
111630.2694054396
 30
0.0
 11
116148.9109032178
 21
111630.2694054396
 31
0.0
  0
LINE
  5
62192
330
1F
100
AcDbEntity
  8
freecads.com
100
AcDbLine
 10
116179.4936009445
 20
111632.4965478148
 30
0.0
 11
116179.4936009445
 21
111631.5194054396
 31
0.0
  0
ARC
  5
62193
330
1F
100
AcDbEntity
  8
freecads.com
100
AcDbCircle
 10
116179.2436009445
 20
111631.5194054396
 30
0.0
 40
0.25
100
AcDbArc
 50
270.0
 51
0.0
  0
LINE
  5
62194
330
1F
100
AcDbEntity
  8
freecads.com
100
AcDbLine
 10
116179.2436009445
 20
111631.2694054396
 30
0.0
 11
116150.2687572242
 21
111631.2694054396
 31
0.0
  0
ARC
  5
62195
330
1F
100
AcDbEntity
  8
freecads.com
100
AcDbCircle
 10
116150.2687572242
 20
111631.5194054396
 30
0.0
 40
0.25
100
AcDbArc
 50
180.0
 51
270.0
  0
LINE
  5
62196
330
1F
100
AcDbEntity
  8
freecads.com
100
AcDbLine
 10
116150.0187572242
 20
111631.5194054396
 30
0.0
 11
116150.0187572242
 21
111632.1057066102
 31
0.0
  0
ARC
  5
62197
330
1F
100
AcDbEntity
  8
freecads.com
100
AcDbCircle
 10
116150.2687572242
 20
111632.1057066102
 30
0.0
 40
0.25
100
AcDbArc
 50
90.0
 51
180.0
  0
LINE
  5
62198
330
1F
100
AcDbEntity
  8
freecads.com
100
AcDbLine
 10
116150.2687572242
 20
111632.3557066102
 30
0.0
 11
116151.1934005394
 21
111632.3557066102
 31
0.0
  0
ARC
  5
62199
330
1F
100
AcDbEntity
  8
freecads.com
100
AcDbCircle
 10
116151.1934005394
 20
111632.6057066102
 30
0.0
 40
0.25
100
AcDbArc
 50
270.0
 51
0.0
  0
LINE
  5
6219A
330
1F
100
AcDbEntity
  8
freecads.com
100
AcDbLine
 10
116151.4434005394
 20
111632.6057066102
 30
0.0
 11
116151.4434005394
 21
111650.1539043376
 31
0.0
  0
ARC
  5
6219B
330
1F
100
AcDbEntity
  8
freecads.com
100
AcDbCircle
 10
116151.6934005394
 20
111650.1539043376
 30
0.0
 40
0.25
100
AcDbArc
 50
90.0
 51
180.0
  0
LINE
  5
6219C
330
1F
100
AcDbEntity
  8
freecads.com
100
AcDbLine
 10
116151.6934005394
 20
111650.4039043376
 30
0.0
 11
116152.185562848
 21
111650.4039043376
 31
0.0
  0
ARC
  5
6219D
330
1F
100
AcDbEntity
  8
freecads.com
100
AcDbCircle
 10
116152.185562848
 20
111650.6539043376
 30
0.0
 40
0.25
100
AcDbArc
 50
270.0
 51
0.0
  0
LINE
  5
6219E
330
1F
100
AcDbEntity
  8
freecads.com
100
AcDbLine
 10
116152.435562848
 20
111650.6539043376
 30
0.0
 11
116152.435562848
 21
111651.2772549669
 31
0.0
  0
ARC
  5
6219F
330
1F
100
AcDbEntity
  8
freecads.com
100
AcDbCircle
 10
116152.685562848
 20
111651.2772549669
 30
0.0
 40
0.25
100
AcDbArc
 50
90.0
 51
180.0
  0
LINE
  5
621A0
330
1F
100
AcDbEntity
  8
freecads.com
100
AcDbLine
 10
116152.685562848
 20
111651.5272549668
 30
0.0
 11
116154.2280361723
 21
111651.5272549668
 31
0.0
  0
ARC
  5
621A1
330
1F
100
AcDbEntity
  8
freecads.com
100
AcDbCircle
 10
116154.2280361723
 20
111651.2772549669
 30
0.0
 40
0.25
100
AcDbArc
 50
0.0
 51
90.0
  0
LINE
  5
621A2
330
1F
100
AcDbEntity
  8
freecads.com
100
AcDbLine
 10
116154.4780361723
 20
111651.2772549669
 30
0.0
 11
116154.4780361723
 21
111649.8205888305
 31
0.0
  0
ARC
  5
621A3
330
1F
100
AcDbEntity
  8
freecads.com
100
AcDbCircle
 10
116154.7280361723
 20
111649.8205888305
 30
0.0
 40
0.25
100
AcDbArc
 50
180.0
 51
270.0
  0
LINE
  5
621A4
330
1F
100
AcDbEntity
  8
freecads.com
100
AcDbLine
 10
116154.7280361723
 20
111649.5705888305
 30
0.0
 11
116155.8636673798
 21
111649.5705888305
 31
0.0
  0
ARC
  5
621A5
330
1F
100
AcDbEntity
  8
freecads.com
100
AcDbCircle
 10
116155.8636673798
 20
111649.3205888305
 30
0.0
 40
0.2499999999970441
100
AcDbArc
 50
52.88116050446655
 51
89.99999999916623
  0
LINE
  5
621A6
330
1F
100
AcDbEntity
  8
freecads.com
100
AcDbLine
 10
116156.0145349322
 20
111649.5199352165
 30
0.0
 11
116179.3944684969
 21
111632.6958942008
 31
0.0
  0
ARC
  5
621A7
330
1F
100
AcDbEntity
  8
freecads.com
100
AcDbCircle
 10
116179.2436009445
 20
111632.4965478148
 30
0.0
 40
0.2499999999998766
100
AcDbArc
 50
0.0000000008337633
 51
52.88116050563452
  0
LINE
  5
621A8
330
1F
100
AcDbEntity
  8
freecads.com
100
AcDbLine
 10
116155.0982890442
 20
111652.676056115
 30
0.0
 11
116155.7543157548
 21
111652.676056115
 31
0.0
  0
LINE
  5
621A9
330
1F
100
AcDbEntity
  8
freecads.com
100
AcDbLine
 10
116155.7543157548
 20
111652.676056115
 30
0.0
 11
116155.7543157548
 21
111650.2320503383
 31
0.0
  0
LINE
  5
621AA
330
1F
100
AcDbEntity
  8
freecads.com
100
AcDbLine
 10
116155.7543157548
 20
111650.2320503383
 30
0.0
 11
116155.0982890442
 21
111650.2320503383
 31
0.0
  0
LINE
  5
621AB
330
1F
100
AcDbEntity
  8
freecads.com
100
AcDbLine
 10
116155.0982890442
 20
111650.2320503383
 30
0.0
 11
116155.0982890442
 21
111652.676056115
 31
0.0
  0
CIRCLE
  5
621AC
330
1F
100
AcDbEntity
  8
freecads.com
100
AcDbCircle
 10
116157.9031662357
 20
111672.4803130013
 30
0.0
 40
3.662381527683464
  0
LINE
  5
621AD
330
1F
100
AcDbEntity
  8
freecads.com
100
AcDbLine
 10
116179.5043175529
 20
111630.2694054396
 30
0.0
 11
116179.5043175529
 21
111605.2694054396
 31
0.0
  0
LINE
  5
621AE
330
1F
100
AcDbEntity
  8
freecads.com
100
AcDbLine
 10
116182.5043175529
 20
111630.2694054396
 30
0.0
 11
116182.5043175529
 21
111605.2694054396
 31
0.0
  0
LINE
  5
621AF
330
1F
100
AcDbEntity
  8
freecads.com
100
AcDbLine
 10
116235.5043175529
 20
111630.2694054396
 30
0.0
 11
116235.5043175529
 21
111605.269405239
 31
0.0
  0
LINE
  5
621B0
330
1F
100
AcDbEntity
  8
freecads.com
100
AcDbLine
 10
116232.5043175529
 20
111630.2694054396
 30
0.0
 11
116232.5043175529
 21
111605.269405239
 31
0.0
  0
LINE
  5
621B1
330
1F
100
AcDbEntity
  8
freecads.com
100
AcDbLine
 10
116179.5043175529
 20
111605.2694054396
 30
0.0
 11
116182.5043175529
 21
111605.2694054396
 31
0.0
  0
LINE
  5
621B2
330
1F
100
AcDbEntity
  8
freecads.com
100
AcDbLine
 10
116232.5043175529
 20
111605.269405239
 30
0.0
 11
116235.5043175529
 21
111605.269405239
 31
-0.0000000002148037
  0
LINE
  5
621B3
330
1F
100
AcDbEntity
  8
freecads.com
100
AcDbLine
 10
116339.4105037749
 20
111630.2694054396
 30
0.0
 11
116279.1094792879
 21
111630.2694054396
 31
0.0
  0
LINE
  5
621B4
330
1F
100
AcDbEntity
  8
freecads.com
100
AcDbLine
 10
116279.1094792879
 20
111630.2694054396
 30
0.0
 11
116272.5673688526
 21
111637.2329524629
 31
0.0
  0
LINE
  5
621B5
330
1F
100
AcDbEntity
  8
freecads.com
100
AcDbLine
 10
116272.5673688526
 20
111637.2329524629
 30
0.0
 11
116272.5673688526
 21
111676.7848490522
 31
0.0
  0
ARC
  5
621B6
330
1F
100
AcDbEntity
  8
freecads.com
100
AcDbCircle
 10
116269.7602334509
 20
111676.945503982
 30
0.0
 40
2.81172885781516
100
AcDbArc
 50
356.724483134185
 51
75.45266049232449
  0
LINE
  5
621B7
330
1F
100
AcDbEntity
  8
freecads.com
100
AcDbLine
 10
116270.4664830313
 20
111679.6670900453
 30
0.0
 11
116267.4179144685
 21
111679.6670900453
 31
0.0
  0
LINE
  5
621B8
330
1F
100
AcDbEntity
  8
freecads.com
100
AcDbLine
 10
116267.4179144685
 20
111679.6670900453
 30
0.0
 11
116267.4179144685
 21
111700.0066485
 31
0.0
  0
LINE
  5
621B9
330
1F
100
AcDbEntity
  8
freecads.com
100
AcDbLine
 10
116073.3542456087
 20
111848.6600277162
 30
0.0
 11
116073.3542456087
 21
111785.7376645896
 31
0.0
  0
LINE
  5
621BA
330
1F
100
AcDbEntity
  8
freecads.com
100
AcDbLine
 10
116079.297671197
 20
111848.6600277162
 30
0.0
 11
116079.297671197
 21
111785.7376645896
 31
0.0
  0
LINE
  5
621BB
330
1F
100
AcDbEntity
  8
freecads.com
100
AcDbLine
 10
116076.3259584037
 20
111848.6600277162
 30
0.0
 11
116076.3259584037
 21
111785.7376645896
 31
0.0
  0
CIRCLE
  5
621BC
330
1F
100
AcDbEntity
  8
freecads.com
100
AcDbCircle
 10
116076.3259584037
 20
111781.0973713834
 30
0.0
 40
2.814624596719398
  0
LINE
  5
621BD
330
1F
100
AcDbEntity
  8
freecads.com
100
AcDbLine
 10
116070.5682630366
 20
111788.2195755234
 30
0.0
 11
116065.5534965337
 21
111788.2195755234
 31
0.0
  0
LINE
  5
621BE
330
1F
100
AcDbEntity
  8
freecads.com
100
AcDbLine
 10
116070.5682630366
 20
111845.8758524604
 30
0.0
 11
116065.5534965337
 21
111845.8758524604
 31
0.0
  0
LINE
  5
621BF
330
1F
100
AcDbEntity
  8
freecads.com
100
AcDbLine
 10
116082.0836537691
 20
111776.8283024344
 30
0.0
 11
116070.5682630366
 21
111776.8283024344
 31
0.0
  0
LINE
  5
621C0
330
1F
100
AcDbEntity
  8
freecads.com
100
AcDbLine
 10
116082.0836537691
 20
111785.7376645896
 30
0.0
 11
116070.5682630366
 21
111785.7376645896
 31
0.0
  0
LINE
  5
621C1
330
1F
100
AcDbEntity
  8
freecads.com
100
AcDbLine
 10
116082.0836537691
 20
111848.6600277162
 30
0.0
 11
116082.0836537691
 21
111776.8283024344
 31
0.0
  0
LINE
  5
621C2
330
1F
100
AcDbEntity
  8
freecads.com
100
AcDbLine
 10
116070.5682630366
 20
111848.6600277162
 30
0.0
 11
116070.5682630366
 21
111776.8283024344
 31
0.0
  0
LINE
  5
621C3
330
1F
100
AcDbEntity
  8
freecads.com
100
AcDbLine
 10
116082.0836537691
 20
111848.6600277162
 30
0.0
 11
116070.5682630366
 21
111848.6600277162
 31
0.0
  0
LINE
  5
621C4
330
1F
100
AcDbEntity
  8
freecads.com
100
AcDbLine
 10
116021.5615141844
 20
111846.6403923474
 30
0.0
 11
116013.4390053155
 21
111850.2402172634
 31
0.0
  0
LINE
  5
621C5
330
1F
100
AcDbEntity
  8
freecads.com
100
AcDbLine
 10
116021.5615141844
 20
111787.4550356364
 30
0.0
 11
116013.4390053155
 21
111783.8552107203
 31
0.0
  0
LINE
  5
621C6
330
1F
100
AcDbEntity
  8
freecads.com
100
AcDbLine
 10
116021.5615141844
 20
111846.6403923474
 30
0.0
 11
116021.5615141844
 21
111787.4550356364
 31
0.0
  0
LINE
  5
621C7
330
1F
100
AcDbEntity
  8
freecads.com
100
AcDbLine
 10
116036.4428990487
 20
111846.6403923474
 30
0.0
 11
116036.4428990487
 21
111787.4550356364
 31
0.0
  0
LINE
  5
621C8
330
1F
100
AcDbEntity
  8
freecads.com
100
AcDbLine
 10
116029.6840230533
 20
111850.2402172634
 30
0.0
 11
116029.6840230533
 21
111783.8552107203
 31
0.0
  0
LINE
  5
621C9
330
1F
100
AcDbEntity
  8
freecads.com
100
AcDbLine
 10
116043.2017750458
 20
111850.2402172634
 30
0.0
 11
116043.2017750458
 21
111783.8552107203
 31
0.0
  0
LINE
  5
621CA
330
1F
100
AcDbEntity
  8
freecads.com
100
AcDbLine
 10
116051.5021490709
 20
111846.6403923474
 30
0.0
 11
116051.5021490709
 21
111787.4550356364
 31
0.0
  0
LINE
  5
621CB
330
1F
100
AcDbEntity
  8
freecads.com
100
AcDbLine
 10
116058.5278228014
 20
111850.2402172634
 30
0.0
 11
116058.5278228014
 21
111783.8552107203
 31
0.0
  0
LINE
  5
621CC
330
1F
100
AcDbEntity
  8
freecads.com
100
AcDbLine
 10
116065.5534965337
 20
111845.8758524604
 30
0.0
 11
116065.5534965337
 21
111788.2195755234
 31
0.0
  0
ARC
  5
621CD
330
1F
100
AcDbEntity
  8
freecads.com
100
AcDbCircle
 10
116093.0455387203
 20
111785.3367616764
 30
0.0
 40
2.882813846829286
100
AcDbArc
 50
0.0
 51
90.0
  0
LINE
  5
621CE
330
1F
100
AcDbEntity
  8
freecads.com
100
AcDbLine
 10
116065.5534965337
 20
111788.2195755234
 30
0.0
 11
116058.5278228014
 21
111783.8552107203
 31
0.0
  0
LINE
  5
621CF
330
1F
100
AcDbEntity
  8
freecads.com
100
AcDbLine
 10
116058.5278228014
 20
111783.8552107203
 30
0.0
 11
116051.5021490709
 21
111787.4550356364
 31
0.0
  0
LINE
  5
621D0
330
1F
100
AcDbEntity
  8
freecads.com
100
AcDbLine
 10
116043.2017750458
 20
111783.8552107203
 30
0.0
 11
116036.4428990487
 21
111787.4550356364
 31
0.0
  0
LINE
  5
621D1
330
1F
100
AcDbEntity
  8
freecads.com
100
AcDbLine
 10
116036.4428990487
 20
111787.4550356364
 30
0.0
 11
116029.6840230533
 21
111783.8552107203
 31
0.0
  0
LINE
  5
621D2
330
1F
100
AcDbEntity
  8
freecads.com
100
AcDbLine
 10
116029.6840230533
 20
111783.8552107203
 30
0.0
 11
116021.5615141844
 21
111787.4550356364
 31
0.0
  0
LINE
  5
621D3
330
1F
100
AcDbEntity
  8
freecads.com
100
AcDbLine
 10
116043.2017750458
 20
111783.8552107203
 30
0.0
 11
116051.5021490709
 21
111787.4550356364
 31
0.0
  0
LINE
  5
621D4
330
1F
100
AcDbEntity
  8
freecads.com
100
AcDbLine
 10
116093.0455387203
 20
111788.2195755234
 30
0.0
 11
116082.0836537691
 21
111788.2195755234
 31
0.0
  0
ARC
  5
621D5
330
1F
100
AcDbEntity
  8
freecads.com
100
AcDbCircle
 10
116093.0455387203
 20
111848.7586663073
 30
0.0
 40
2.882813846829286
100
AcDbArc
 50
270.0
 51
0.0
  0
LINE
  5
621D6
330
1F
100
AcDbEntity
  8
freecads.com
100
AcDbLine
 10
116043.2017750458
 20
111850.2402172634
 30
0.0
 11
116051.5021490709
 21
111846.6403923474
 31
0.0
  0
LINE
  5
621D7
330
1F
100
AcDbEntity
  8
freecads.com
100
AcDbLine
 10
116029.6840230533
 20
111850.2402172634
 30
0.0
 11
116021.5615141844
 21
111846.6403923474
 31
0.0
  0
LINE
  5
621D8
330
1F
100
AcDbEntity
  8
freecads.com
100
AcDbLine
 10
116036.4428990487
 20
111846.6403923474
 30
0.0
 11
116029.6840230533
 21
111850.2402172634
 31
0.0
  0
LINE
  5
621D9
330
1F
100
AcDbEntity
  8
freecads.com
100
AcDbLine
 10
116043.2017750458
 20
111850.2402172634
 30
0.0
 11
116036.4428990487
 21
111846.6403923474
 31
0.0
  0
LINE
  5
621DA
330
1F
100
AcDbEntity
  8
freecads.com
100
AcDbLine
 10
116058.5278228014
 20
111850.2402172634
 30
0.0
 11
116051.5021490709
 21
111846.6403923474
 31
0.0
  0
LINE
  5
621DB
330
1F
100
AcDbEntity
  8
freecads.com
100
AcDbLine
 10
116065.5534965337
 20
111845.8758524604
 30
0.0
 11
116058.5278228014
 21
111850.2402172634
 31
0.0
  0
LINE
  5
621DC
330
1F
100
AcDbEntity
  8
freecads.com
100
AcDbLine
 10
116093.0455387203
 20
111845.8758524604
 30
0.0
 11
116082.0836537691
 21
111845.8758524604
 31
0.0
  0
LINE
  5
621DD
330
1F
100
AcDbEntity
  8
freecads.com
100
AcDbLine
 10
116005.9686686883
 20
111846.6403923474
 30
0.0
 11
116005.9686686883
 21
111787.4550356364
 31
0.0
  0
LINE
  5
621DE
330
1F
100
AcDbEntity
  8
freecads.com
100
AcDbLine
 10
116013.4390053155
 20
111850.2402172634
 30
0.0
 11
116013.4390053155
 21
111783.8552107203
 31
0.0
  0
LINE
  5
621DF
330
1F
100
AcDbEntity
  8
freecads.com
100
AcDbLine
 10
115989.1900554731
 20
111846.6403923474
 30
0.0
 11
115989.1900554731
 21
111821.5122027361
 31
0.0
  0
LINE
  5
621E0
330
1F
100
AcDbEntity
  8
freecads.com
100
AcDbLine
 10
116005.9686686883
 20
111787.4550356364
 30
0.0
 11
115989.1900554731
 21
111787.4550356364
 31
0.0
  0
LINE
  5
621E1
330
1F
100
AcDbEntity
  8
freecads.com
100
AcDbLine
 10
115989.1900554731
 20
111814.3478453048
 30
0.0
 11
115989.1900554731
 21
111787.4550356364
 31
0.0
  0
LINE
  5
621E2
330
1F
100
AcDbEntity
  8
freecads.com
100
AcDbLine
 10
115978.1327714996
 20
111814.3478453048
 30
0.0
 11
115989.1900554731
 21
111814.3478453048
 31
0.0
  0
LINE
  5
621E3
330
1F
100
AcDbEntity
  8
freecads.com
100
AcDbLine
 10
116004.2789496912
 20
111821.5122027361
 30
0.0
 11
115978.1327714996
 21
111814.3478453048
 31
0.0
  0
LINE
  5
621E4
330
1F
100
AcDbEntity
  8
freecads.com
100
AcDbLine
 10
115989.1900554731
 20
111821.5122027361
 30
0.0
 11
116004.2789496912
 21
111821.5122027361
 31
0.0
  0
LINE
  5
621E5
330
1F
100
AcDbEntity
  8
freecads.com
100
AcDbLine
 10
116013.4390053155
 20
111783.8552107203
 30
0.0
 11
116005.9686686883
 21
111787.4550356364
 31
0.0
  0
LINE
  5
621E6
330
1F
100
AcDbEntity
  8
freecads.com
100
AcDbLine
 10
116005.9686686883
 20
111846.6403923474
 30
0.0
 11
115989.1900554731
 21
111846.6403923474
 31
0.0
  0
LINE
  5
621E7
330
1F
100
AcDbEntity
  8
freecads.com
100
AcDbLine
 10
116013.4390053155
 20
111850.2402172634
 30
0.0
 11
116005.9686686883
 21
111846.6403923474
 31
0.0
  0
LINE
  5
621E8
330
1F
100
AcDbEntity
  8
freecads.com
100
AcDbLine
 10
116095.9283525668
 20
111754.8819526465
 30
0.0
 11
116095.9283525668
 21
111785.3367616764
 31
0.0
  0
LINE
  5
621E9
330
1F
100
AcDbEntity
  8
freecads.com
100
AcDbLine
 10
116095.9283525668
 20
111848.7586663073
 30
0.0
 11
116095.9283525668
 21
111879.2134753372
 31
0.0
  0
LINE
  5
621EA
330
1F
100
AcDbEntity
  8
freecads.com
100
AcDbLine
 10
116258.1614660103
 20
111746.2335111057
 30
0.0
 11
116258.1614660103
 21
111754.8819526465
 31
0.0
  0
LINE
  5
621EB
330
1F
100
AcDbEntity
  8
freecads.com
100
AcDbLine
 10
116156.8471690969
 20
111746.2335111057
 30
0.0
 11
116156.8471690969
 21
111754.8819526465
 31
0.0
  0
LINE
  5
621EC
330
1F
100
AcDbEntity
  8
freecads.com
100
AcDbLine
 10
116258.1614660103
 20
111754.8819526465
 30
0.0
 11
116319.0802825386
 21
111754.8819526465
 31
0.0
  0
LINE
  5
621ED
330
1F
100
AcDbEntity
  8
freecads.com
100
AcDbLine
 10
116319.0802825386
 20
111754.8819526465
 30
0.0
 11
116319.0802825386
 21
111879.2134753372
 31
0.0
  0
LINE
  5
621EE
330
1F
100
AcDbEntity
  8
freecads.com
100
AcDbLine
 10
116319.0802825386
 20
111879.2134753372
 30
0.0
 11
116095.9283525668
 21
111754.8819526465
 31
0.0
  0
LINE
  5
621EF
330
1F
100
AcDbEntity
  8
freecads.com
100
AcDbLine
 10
116319.0802825386
 20
111754.8819526465
 30
0.0
 11
116095.9283525668
 21
111879.2134753372
 31
0.0
  0
LINE
  5
621F0
330
1F
100
AcDbEntity
  8
freecads.com
100
AcDbLine
 10
116319.0802825386
 20
111879.2134753372
 30
0.0
 11
116095.9283525668
 21
111879.2134753372
 31
0.0
  0
LINE
  5
621F1
330
1F
100
AcDbEntity
  8
freecads.com
100
AcDbLine
 10
116156.8471690969
 20
111754.8819526465
 30
0.0
 11
116095.9283525668
 21
111754.8819526465
 31
0.0
  0
LINE
  5
621F2
330
1F
100
AcDbEntity
  8
freecads.com
100
AcDbLine
 10
116277.9914738992
 20
111706.7413142311
 30
0.0
 11
116255.9381515358
 21
111707.482454655
 31
0.0
  0
LINE
  5
621F3
330
1F
100
AcDbEntity
  8
freecads.com
100
AcDbLine
 10
116277.9914738992
 20
111708.223595079
 30
0.0
 11
116277.9914738992
 21
111706.7413142311
 31
0.0
  0
LINE
  5
621F4
330
1F
100
AcDbEntity
  8
freecads.com
100
AcDbLine
 10
116255.9381515358
 20
111707.482454655
 30
0.0
 11
116277.9914738992
 21
111708.223595079
 31
0.0
  0
LINE
  5
621F5
330
1F
100
AcDbEntity
  8
freecads.com
100
AcDbLine
 10
116276.8946387625
 20
111707.482454655
 30
0.0
 11
116255.9381515358
 21
111707.482454655
 31
0.0
  0
LINE
  5
621F6
330
1F
100
AcDbEntity
  8
freecads.com
100
AcDbLine
 10
116276.9215017455
 20
111698.9416935791
 30
0.0
 11
116255.9381515358
 21
111698.9416935791
 31
0.0
  0
LINE
  5
621F7
330
1F
100
AcDbEntity
  8
freecads.com
100
AcDbLine
 10
116255.9381515358
 20
111698.9416935791
 30
0.0
 11
116278.0183368874
 21
111699.6828340036
 31
0.0
  0
LINE
  5
621F8
330
1F
100
AcDbEntity
  8
freecads.com
100
AcDbLine
 10
116278.0183368874
 20
111699.6828340036
 30
0.0
 11
116278.0183368874
 21
111698.2005531552
 31
0.0
  0
LINE
  5
621F9
330
1F
100
AcDbEntity
  8
freecads.com
100
AcDbLine
 10
116278.0183368874
 20
111698.2005531552
 30
0.0
 11
116255.9381515358
 21
111698.9416935791
 31
0.0
  0
LINE
  5
621FA
330
1F
100
AcDbEntity
  8
freecads.com
100
AcDbLine
 10
116138.0871333582
 20
111698.9416935791
 30
0.0
 11
116159.0704835678
 21
111698.9416935791
 31
0.0
  0
LINE
  5
621FB
330
1F
100
AcDbEntity
  8
freecads.com
100
AcDbLine
 10
116159.0704835678
 20
111698.9416935791
 30
0.0
 11
116136.9902982198
 21
111699.6828340036
 31
0.0
  0
LINE
  5
621FC
330
1F
100
AcDbEntity
  8
freecads.com
100
AcDbLine
 10
116136.9902982198
 20
111699.6828340036
 30
0.0
 11
116136.9902982198
 21
111698.2005531552
 31
0.0
  0
LINE
  5
621FD
330
1F
100
AcDbEntity
  8
freecads.com
100
AcDbLine
 10
116136.9902982198
 20
111698.2005531552
 30
0.0
 11
116159.0704835678
 21
111698.9416935791
 31
0.0
  0
LINE
  5
621FE
330
1F
100
AcDbEntity
  8
freecads.com
100
AcDbLine
 10
116137.0171612045
 20
111706.7413142311
 30
0.0
 11
116159.0704835678
 21
111707.482454655
 31
0.0
  0
LINE
  5
621FF
330
1F
100
AcDbEntity
  8
freecads.com
100
AcDbLine
 10
116137.0171612045
 20
111708.223595079
 30
0.0
 11
116137.0171612045
 21
111706.7413142311
 31
0.0
  0
LINE
  5
62200
330
1F
100
AcDbEntity
  8
freecads.com
100
AcDbLine
 10
116159.0704835678
 20
111707.482454655
 30
0.0
 11
116137.0171612045
 21
111708.223595079
 31
0.0
  0
LINE
  5
62201
330
1F
100
AcDbEntity
  8
freecads.com
100
AcDbLine
 10
116138.1139963465
 20
111707.482454655
 30
0.0
 11
116159.0704835678
 21
111707.482454655
 31
0.0
  0
LINE
  5
62202
330
1F
100
AcDbEntity
  8
freecads.com
100
AcDbLine
 10
116255.4963321279
 20
111671.9169964027
 30
0.0
 11
116271.2345551026
 21
111656.1787734289
 31
0.0
  0
LINE
  5
62203
330
1F
100
AcDbEntity
  8
freecads.com
100
AcDbLine
 10
116271.2345551026
 20
111656.1787734289
 30
0.0
 11
116271.2345551026
 21
111715.0350284985
 31
0.0
  0
LINE
  5
62204
330
1F
100
AcDbEntity
  8
freecads.com
100
AcDbLine
 10
116275.2661653455
 20
111687.5422480116
 30
0.0
 11
116275.2661653455
 21
111713.3989723908
 31
0.0
  0
ARC
  5
62205
330
1F
100
AcDbEntity
  8
freecads.com
100
AcDbCircle
 10
116271.2302259602
 20
111713.398972391
 30
0.0
 40
4.03593938537233
100
AcDbArc
 50
359.9999999983325
 51
169.4507019789077
  0
LINE
  5
62206
330
1F
100
AcDbEntity
  8
freecads.com
100
AcDbLine
 10
116267.262503048
 20
111714.1378780783
 30
0.0
 11
116267.2325890574
 21
111690.4250618601
 31
0.0
  0
ARC
  5
62207
330
1F
100
AcDbEntity
  8
freecads.com
100
AcDbCircle
 10
116264.3497752089
 20
111690.4250618601
 30
0.0
 40
2.882813848464138
100
AcDbArc
 50
270.0
 51
0.0
  0
LINE
  5
62208
330
1F
100
AcDbEntity
  8
freecads.com
100
AcDbLine
 10
116264.3497752089
 20
111687.5422480116
 30
0.0
 11
116261.044279857
 21
111687.5422480116
 31
0.0
  0
ARC
  5
62209
330
1F
100
AcDbEntity
  8
freecads.com
100
AcDbCircle
 10
116261.044279857
 20
111690.4250618583
 30
0.0
 40
2.882813846695853
100
AcDbArc
 50
180.0
 51
270.0
  0
LINE
  5
6220A
330
1F
100
AcDbEntity
  8
freecads.com
100
AcDbLine
 10
116258.1614660103
 20
111690.4250618583
 30
0.0
 11
116258.1614660103
 21
111746.2335111057
 31
0.0
  0
LINE
  5
6220B
330
1F
100
AcDbEntity
  8
freecads.com
100
AcDbLine
 10
116258.1614660103
 20
111746.2335111057
 30
0.0
 11
116327.7287240781
 21
111746.2335111057
 31
0.0
  0
LINE
  5
6220C
330
1F
100
AcDbEntity
  8
freecads.com
100
AcDbLine
 10
116327.7287240781
 20
111746.2335111057
 30
0.0
 11
116327.7287240781
 21
111887.8619168776
 31
0.0
  0
LINE
  5
6220D
330
1F
100
AcDbEntity
  8
freecads.com
100
AcDbLine
 10
116327.7287240781
 20
111887.8619168776
 30
0.0
 11
116087.2799110256
 21
111887.8619168776
 31
0.0
  0
LINE
  5
6220E
330
1F
100
AcDbEntity
  8
freecads.com
100
AcDbLine
 10
116087.2799110256
 20
111887.8619168776
 30
0.0
 11
116087.2799110256
 21
111746.2335111057
 31
0.0
  0
LINE
  5
6220F
330
1F
100
AcDbEntity
  8
freecads.com
100
AcDbLine
 10
116087.2799110256
 20
111746.2335111057
 30
0.0
 11
116156.8471690969
 21
111746.2335111057
 31
0.0
  0
LINE
  5
62210
330
1F
100
AcDbEntity
  8
freecads.com
100
AcDbLine
 10
116156.8471690969
 20
111746.2335111057
 30
0.0
 11
116156.8471690969
 21
111690.4250618592
 31
0.0
  0
ARC
  5
62211
330
1F
100
AcDbEntity
  8
freecads.com
100
AcDbCircle
 10
116153.9643552493
 20
111690.4250618592
 30
0.0
 40
2.882813847583747
100
AcDbArc
 50
270.0
 51
0.0
  0
LINE
  5
62212
330
1F
100
AcDbEntity
  8
freecads.com
100
AcDbLine
 10
116153.9643552493
 20
111687.5422480116
 30
0.0
 11
116150.6588598963
 21
111687.5422480116
 31
0.0
  0
ARC
  5
62213
330
1F
100
AcDbEntity
  8
freecads.com
100
AcDbCircle
 10
116150.6588598965
 20
111690.4250618583
 30
0.0
 40
2.882813846699036
100
AcDbArc
 50
179.9999999958312
 51
269.9999999958312
  0
LINE
  5
62214
330
1F
100
AcDbEntity
  8
freecads.com
100
AcDbLine
 10
116147.7760460498
 20
111690.4250618585
 30
0.0
 11
116147.7760460498
 21
111714.5520979294
 31
0.0
  0
ARC
  5
62215
330
1F
100
AcDbEntity
  8
freecads.com
100
AcDbCircle
 10
116143.852676998
 20
111713.3247045383
 30
0.0
 40
4.110878160904937
100
AcDbArc
 50
17.37185835401882
 51
178.9648279730552
  0
LINE
  5
62216
330
1F
100
AcDbEntity
  8
freecads.com
100
AcDbLine
 10
116139.7424697599
 20
111713.3989723919
 30
0.0
 11
116139.7424697599
 21
111687.5422480116
 31
0.0
  0
LINE
  5
62217
330
1F
100
AcDbEntity
  8
freecads.com
100
AcDbLine
 10
116159.5123029779
 20
111671.9169964027
 30
0.0
 11
116143.7740800032
 21
111656.1787734289
 31
0.0
  0
LINE
  5
62218
330
1F
100
AcDbEntity
  8
freecads.com
100
AcDbLine
 10
116143.7740800032
 20
111656.1787734289
 30
0.0
 11
116143.7740800032
 21
111715.0350284985
 31
0.0
  0
LINE
  5
62219
330
1F
100
AcDbEntity
  8
freecads.com
100
AcDbLine
 10
116075.5981313309
 20
111630.2694054396
 30
0.0
 11
116135.8991558179
 21
111630.2694054396
 31
0.0
  0
LINE
  5
6221A
330
1F
100
AcDbEntity
  8
freecads.com
100
AcDbLine
 10
116135.8991558179
 20
111630.2694054396
 30
0.0
 11
116142.4412662532
 21
111637.2329524629
 31
0.0
  0
LINE
  5
6221B
330
1F
100
AcDbEntity
  8
freecads.com
100
AcDbLine
 10
116142.4412662532
 20
111637.2329524629
 30
0.0
 11
116142.4412662532
 21
111676.7848490522
 31
0.0
  0
ARC
  5
6221C
330
1F
100
AcDbEntity
  8
freecads.com
100
AcDbCircle
 10
116145.2484016549
 20
111676.945503982
 30
0.0
 40
2.81172885781516
100
AcDbArc
 50
104.5473395076755
 51
183.275516865815
  0
LINE
  5
6221D
330
1F
100
AcDbEntity
  8
freecads.com
100
AcDbLine
 10
116144.5421520745
 20
111679.6670900453
 30
0.0
 11
116147.5907206373
 21
111679.6670900453
 31
0.0
  0
LINE
  5
6221E
330
1F
100
AcDbEntity
  8
freecads.com
100
AcDbLine
 10
116147.5907206373
 20
111679.6670900453
 30
0.0
 11
116147.5907206373
 21
111700.0066485
 31
0.0
  0
LINE
  5
6221F
330
1F
100
AcDbEntity
  8
freecads.com
100
AcDbLine
 10
116096.9381795264
 20
111605.2694054396
 30
0.0000000002148037
 11
116110.0441780573
 21
111605.2694054396
 31
0.0000000002148037
  0
LINE
  5
62220
330
1F
100
AcDbEntity
  8
freecads.com
100
AcDbLine
 10
116110.0441780573
 20
111605.2694054396
 30
0.0000000002148037
 11
116105.7536751106
 21
111611.4929863787
 31
0.0000000002148037
  0
LINE
  5
62221
330
1F
100
AcDbEntity
  8
freecads.com
100
AcDbLine
 10
116096.9381795264
 20
111605.2694054396
 30
0.0000000002148037
 11
116101.2286824731
 21
111611.4929863787
 31
0.0000000002148037
  0
LINE
  5
62222
330
1F
100
AcDbEntity
  8
freecads.com
100
AcDbLine
 10
116101.2286824731
 20
111611.4929863787
 30
0.0000000002148037
 11
116101.2286824731
 21
111628.2149520327
 31
0.0000000002148037
  0
LINE
  5
62223
330
1F
100
AcDbEntity
  8
freecads.com
100
AcDbLine
 10
116101.2286824731
 20
111628.2149520327
 30
0.0000000002148037
 11
116103.4360256011
 21
111631.8952903695
 31
0.0000000002148037
  0
LINE
  5
62224
330
1F
100
AcDbEntity
  8
freecads.com
100
AcDbLine
 10
116105.7536751106
 20
111611.4929863787
 30
0.0000000002148037
 11
116105.7536751106
 21
111628.2149520327
 31
0.0000000002148037
  0
LINE
  5
62225
330
1F
100
AcDbEntity
  8
freecads.com
100
AcDbLine
 10
116105.7536751106
 20
111628.2149520327
 30
0.0000000002148037
 11
116103.4360256011
 21
111631.8952903695
 31
0.0000000002148037
  0
LINE
  5
62226
330
1F
100
AcDbEntity
  8
freecads.com
100
AcDbLine
 10
116101.2286824731
 20
111611.4929863787
 30
0.0000000002148037
 11
116105.7536751106
 21
111614.268797143
 31
0.0000000002148037
  0
LINE
  5
62227
330
1F
100
AcDbEntity
  8
freecads.com
100
AcDbLine
 10
116101.2286824731
 20
111615.3173160177
 30
0.0000000002148037
 11
116105.7536751106
 21
111618.093126782
 31
0.0000000002148037
  0
LINE
  5
62228
330
1F
100
AcDbEntity
  8
freecads.com
100
AcDbLine
 10
116101.2286824731
 20
111618.6657283127
 30
0.0000000002148037
 11
116105.7536751106
 21
111621.441539077
 31
0.0000000002148037
  0
LINE
  5
62229
330
1F
100
AcDbEntity
  8
freecads.com
100
AcDbLine
 10
116101.2286824731
 20
111622.5638863762
 30
0.0000000002148037
 11
116105.7536751106
 21
111625.3396971405
 31
0.0000000002148037
  0
LINE
  5
6222A
330
1F
100
AcDbEntity
  8
freecads.com
100
AcDbLine
 10
116101.2286824731
 20
111626.0622410965
 30
0.0000000002148037
 11
116105.7536751106
 21
111628.8380518608
 31
0.0000000002148037
  0
LINE
  5
6222B
330
1F
100
AcDbEntity
  8
freecads.com
100
AcDbLine
 10
116318.0704555793
 20
111605.2694054396
 30
0.0000000002148037
 11
116304.9644570485
 21
111605.2694054396
 31
0.0000000002148037
  0
LINE
  5
6222C
330
1F
100
AcDbEntity
  8
freecads.com
100
AcDbLine
 10
116304.9644570485
 20
111605.2694054396
 30
0.0000000002148037
 11
116309.2549599952
 21
111611.4929863787
 31
0.0000000002148037
  0
LINE
  5
6222D
330
1F
100
AcDbEntity
  8
freecads.com
100
AcDbLine
 10
116318.0704555793
 20
111605.2694054396
 30
0.0000000002148037
 11
116313.7799526327
 21
111611.4929863787
 31
0.0000000002148037
  0
LINE
  5
6222E
330
1F
100
AcDbEntity
  8
freecads.com
100
AcDbLine
 10
116313.7799526327
 20
111611.4929863787
 30
0.0000000002148037
 11
116313.7799526327
 21
111628.2149520327
 31
0.0000000002148037
  0
LINE
  5
6222F
330
1F
100
AcDbEntity
  8
freecads.com
100
AcDbLine
 10
116313.7799526327
 20
111628.2149520327
 30
0.0000000002148037
 11
116311.5726095047
 21
111631.8952903695
 31
0.0000000002148037
  0
LINE
  5
62230
330
1F
100
AcDbEntity
  8
freecads.com
100
AcDbLine
 10
116309.2549599952
 20
111611.4929863787
 30
0.0000000002148037
 11
116309.2549599952
 21
111628.2149520327
 31
0.0000000002148037
  0
LINE
  5
62231
330
1F
100
AcDbEntity
  8
freecads.com
100
AcDbLine
 10
116309.2549599952
 20
111628.2149520327
 30
0.0000000002148037
 11
116311.5726095047
 21
111631.8952903695
 31
0.0000000002148037
  0
LINE
  5
62232
330
1F
100
AcDbEntity
  8
freecads.com
100
AcDbLine
 10
116313.7799526327
 20
111611.4929863787
 30
0.0000000002148037
 11
116309.2549599952
 21
111614.268797143
 31
0.0000000002148037
  0
LINE
  5
62233
330
1F
100
AcDbEntity
  8
freecads.com
100
AcDbLine
 10
116313.7799526327
 20
111615.3173160177
 30
0.0000000002148037
 11
116309.2549599952
 21
111618.093126782
 31
0.0000000002148037
  0
LINE
  5
62234
330
1F
100
AcDbEntity
  8
freecads.com
100
AcDbLine
 10
116313.7799526327
 20
111618.6657283127
 30
0.0000000002148037
 11
116309.2549599952
 21
111621.441539077
 31
0.0000000002148037
  0
LINE
  5
62235
330
1F
100
AcDbEntity
  8
freecads.com
100
AcDbLine
 10
116313.7799526327
 20
111622.5638863762
 30
0.0000000002148037
 11
116309.2549599952
 21
111625.3396971405
 31
0.0000000002148037
  0
LINE
  5
62236
330
1F
100
AcDbEntity
  8
freecads.com
100
AcDbLine
 10
116313.7799526327
 20
111626.0622410965
 30
0.0000000002148037
 11
116309.2549599952
 21
111628.8380518608
 31
0.0000000002148037
  0
LINE
  5
62237
330
1F
100
AcDbEntity
  8
freecads.com
100
AcDbLine
 10
115964.8896291384
 20
111524.1945533794
 30
0.0
 11
115964.8896291384
 21
111594.7032803066
 31
0.0
1001
AcDbBlockRepETag
1070
     1
1071
        0
1005
0
  0
LINE
  5
62238
330
1F
100
AcDbEntity
  8
freecads.com
100
AcDbLine
 10
115964.8896291384
 20
111594.7032803066
 30
0.0
 11
115974.8896291384
 21
111594.7032803066
 31
0.0
1001
AcDbBlockRepETag
1070
     1
1071
        0
1005
0
  0
LINE
  5
62239
330
1F
100
AcDbEntity
  8
freecads.com
100
AcDbLine
 10
115974.8896291384
 20
111594.7032803066
 30
0.0
 11
115954.8896291384
 21
111603.6858264521
 31
0.0
1001
AcDbBlockRepETag
1070
     1
1071
        0
1005
0
  0
LINE
  5
6223A
330
1F
100
AcDbEntity
  8
freecads.com
100
AcDbLine
 10
115954.8896291384
 20
111603.6858264521
 30
0.0
 11
115964.8896291384
 21
111603.6858264521
 31
0.0
1001
AcDbBlockRepETag
1070
     1
1071
        0
1005
0
  0
LINE
  5
6223B
330
1F
100
AcDbEntity
  8
freecads.com
100
AcDbLine
 10
115964.8896291384
 20
111603.6858264521
 30
0.0
 11
115964.8896291384
 21
111674.1945533794
 31
0.0
1001
AcDbBlockRepETag
1070
     1
1071
        0
1005
0
  0
LINE
  5
6223C
330
1F
100
AcDbEntity
  8
freecads.com
100
AcDbLine
 10
116433.3484140447
 20
111524.1945533794
 30
0.0
 11
116433.3484140447
 21
111594.7032803066
 31
0.0
1001
AcDbBlockRepETag
1070
     1
1071
        0
1005
0
  0
LINE
  5
6223D
330
1F
100
AcDbEntity
  8
freecads.com
100
AcDbLine
 10
116433.3484140447
 20
111594.7032803066
 30
0.0
 11
116443.3484140447
 21
111594.7032803066
 31
0.0
1001
AcDbBlockRepETag
1070
     1
1071
        0
1005
0
  0
LINE
  5
6223E
330
1F
100
AcDbEntity
  8
freecads.com
100
AcDbLine
 10
116443.3484140447
 20
111594.7032803066
 30
0.0
 11
116423.3484140447
 21
111603.6858264521
 31
0.0
1001
AcDbBlockRepETag
1070
     1
1071
        0
1005
0
  0
LINE
  5
6223F
330
1F
100
AcDbEntity
  8
freecads.com
100
AcDbLine
 10
116423.3484140447
 20
111603.6858264521
 30
0.0
 11
116433.3484140447
 21
111603.6858264521
 31
0.0
1001
AcDbBlockRepETag
1070
     1
1071
        0
1005
0
  0
LINE
  5
62240
330
1F
100
AcDbEntity
  8
freecads.com
100
AcDbLine
 10
116433.3484140447
 20
111603.6858264521
 30
0.0
 11
116433.3484140447
 21
111674.1945533794
 31
0.0
1001
AcDbBlockRepETag
1070
     1
1071
        0
1005
0
  0
LINE
  5
62241
330
1F
100
AcDbEntity
  8
freecads.com
100
AcDbLine
 10
116352.8560754982
 20
111630.2694054396
 30
0.0
 11
116352.8560754982
 21
111652.7694054392
 31
0.0
1001
AcDbBlockRepETag
1070
     1
1071
        3
1005
0
  0
LINE
  5
62242
330
1F
100
AcDbEntity
  8
freecads.com
100
AcDbLine
 10
116352.8560754982
 20
111652.7694054392
 30
0.0
 11
116389.8560754967
 21
111652.7694054392
 31
0.0
1001
AcDbBlockRepETag
1070
     1
1071
        3
1005
0
  0
LINE
  5
62243
330
1F
100
AcDbEntity
  8
freecads.com
100
AcDbLine
 10
116389.8560754967
 20
111652.7694054392
 30
0.0
 11
116389.8560754967
 21
111630.2694054396
 31
0.0
1001
AcDbBlockRepETag
1070
     1
1071
        3
1005
0
  0
LINE
  5
62244
330
1F
100
AcDbEntity
  8
freecads.com
100
AcDbLine
 10
116389.8560754967
 20
111630.2694054396
 30
0.0
 11
116352.8560754982
 21
111630.2694054396
 31
0.0
1001
AcDbBlockRepETag
1070
     1
1071
        3
1005
0
  0
LINE
  5
62245
330
1F
100
AcDbEntity
  8
freecads.com
100
AcDbLine
 10
116352.8560754982
 20
111652.7694054392
 30
0.0
 11
116389.8560754967
 21
111630.2694054396
 31
0.0
1001
AcDbBlockRepETag
1070
     1
1071
        0
1005
62245
  0
LINE
  5
62246
330
1F
100
AcDbEntity
  8
freecads.com
100
AcDbLine
 10
116389.8560754967
 20
111652.7694054392
 30
0.0
 11
116352.8560754982
 21
111630.2694054396
 31
0.0
1001
AcDbBlockRepETag
1070
     1
1071
        1
1005
62246
  0
LINE
  5
62247
330
1F
100
AcDbEntity
  8
freecads.com
100
AcDbLine
 10
116352.8560754982
 20
111630.2694054396
 30
0.0
 11
116389.8560754967
 21
111630.2694054396
 31
0.0
1001
AcDbBlockRepETag
1070
     1
1071
        2
1005
0
  0
LINE
  5
62248
330
1F
100
AcDbEntity
  8
freecads.com
100
AcDbLine
 10
116389.8560754967
 20
111630.2694054396
 30
0.0
 11
116389.8560754967
 21
111652.7694054392
 31
0.0
1001
AcDbBlockRepETag
1070
     1
1071
        2
1005
0
  0
LINE
  5
62249
330
1F
100
AcDbEntity
  8
freecads.com
100
AcDbLine
 10
116389.8560754967
 20
111652.7694054392
 30
0.0
 11
116352.8560754982
 21
111652.7694054392
 31
0.0
1001
AcDbBlockRepETag
1070
     1
1071
        2
1005
0
  0
LINE
  5
6224A
330
1F
100
AcDbEntity
  8
freecads.com
100
AcDbLine
 10
116352.8560754982
 20
111652.7694054392
 30
0.0
 11
116352.8560754982
 21
111630.2694054396
 31
0.0
1001
AcDbBlockRepETag
1070
     1
1071
        2
1005
0
  0
ENDSEC
  0
SECTION
  2
OBJECTS
  0
DICTIONARY
  5
C
330
0
100
AcDbDictionary
281
     1
  3
ACAD_ASSOCPERSSUBENTMANAGER
350
2C1D4
  3
ACAD_CIP_PREVIOUS_PRODUCT_INFO
350
1A5
  3
ACAD_COLOR
350
73
  3
ACAD_DETAILVIEWSTYLE
350
1AB
  3
ACAD_GROUP
350
D
  3
ACAD_LAYOUT
350
1A
  3
ACAD_MATERIAL
350
72
  3
ACAD_MLEADERSTYLE
350
D7
  3
ACAD_MLINESTYLE
350
17
  3
ACAD_PLOTSETTINGS
350
19
  3
ACAD_PLOTSTYLENAME
350
E
  3
ACAD_SCALELIST
350
B6
  3
ACAD_SECTIONVIEWSTYLE
350
1A8
  3
ACAD_TABLESTYLE
350
86
  3
ACAD_VISUALSTYLE
350
99
  3
ACAD_WIPEOUT_VARS
350
5FBC2
  3
ACDB_RECOMPOSE_DATA
350
626B8
  3
ACDBVARIABLEDICTIONARY
350
4A0D5
  3
AEC_PROPERTY_SET_DEFS
350
22D1
  0
DICTIONARY
  5
18E
330
2
100
AcDbDictionary
280
     1
281
     1
  3
ACAD_LAYERSTATES
360
18F
  0
DICTIONARY
  5
E6
330
10
100
AcDbDictionary
280
     1
281
     1
  0
DICTIONARY
  5
15D
330
1F
100
AcDbDictionary
280
     1
281
     1
  3
ACAD_SORTENTS
360
28E
  0
ACDBASSOCPERSSUBENTMANAGER
  5
2C1D4
102
{ACAD_REACTORS
330
C
102
}
330
C
100
AcDbAssocPersSubentManager
 90
        2
 90
        3
 90
        0
 90
        2
 90
     1260
 90
        0
 90
     1260
 90
        1
 90
        2
 90
        3
 90
        4
 90
        5
 90
        6
 90
        7
 90
        8
 90
        9
 90
       10
 90
       11
 90
       12
 90
       13
 90
       14
 90
       15
 90
       16
 90
       17
 90
       18
 90
       19
 90
       20
 90
       21
 90
       22
 90
       23
 90
       24
 90
       25
 90
       26
 90
       27
 90
       28
 90
       29
 90
       30
 90
       31
 90
       32
 90
       33
 90
       34
 90
       35
 90
       36
 90
       37
 90
       38
 90
       39
 90
       40
 90
       41
 90
       42
 90
       43
 90
       44
 90
       45
 90
       46
 90
       47
 90
       48
 90
       49
 90
       50
 90
       51
 90
       52
 90
       53
 90
       54
 90
       55
 90
       56
 90
       57
 90
       58
 90
       59
 90
       60
 90
       61
 90
       62
 90
       63
 90
       64
 90
       65
 90
       66
 90
       67
 90
       68
 90
       69
 90
       70
 90
       71
 90
       72
 90
       73
 90
       74
 90
       75
 90
       76
 90
       77
 90
       78
 90
       79
 90
       80
 90
       81
 90
       82
 90
       83
 90
       84
 90
       85
 90
       86
 90
       87
 90
       88
 90
       89
 90
       90
 90
       91
 90
       92
 90
       93
 90
       94
 90
       95
 90
       96
 90
       97
 90
       98
 90
       99
 90
      100
 90
      101
 90
      102
 90
      103
 90
      104
 90
      105
 90
      106
 90
      107
 90
      108
 90
      109
 90
      110
 90
      111
 90
      112
 90
      113
 90
      114
 90
      115
 90
      116
 90
      117
 90
      118
 90
      119
 90
      120
 90
      121
 90
      122
 90
      123
 90
      124
 90
      125
 90
      126
 90
      127
 90
      128
 90
      129
 90
      130
 90
      131
 90
      132
 90
      133
 90
      134
 90
      135
 90
      136
 90
      137
 90
      138
 90
      139
 90
      140
 90
      141
 90
      142
 90
      143
 90
      144
 90
      145
 90
      146
 90
      147
 90
      148
 90
      149
 90
      150
 90
      151
 90
      152
 90
      153
 90
      154
 90
      155
 90
      156
 90
      157
 90
      158
 90
      159
 90
      160
 90
      161
 90
      162
 90
      163
 90
      164
 90
      165
 90
      166
 90
      167
 90
      168
 90
      169
 90
      170
 90
      171
 90
      172
 90
      173
 90
      174
 90
      175
 90
      176
 90
      177
 90
      178
 90
      179
 90
      180
 90
      181
 90
      182
 90
      183
 90
      184
 90
      185
 90
      186
 90
      187
 90
      188
 90
      189
 90
      190
 90
      191
 90
      192
 90
      193
 90
      194
 90
      195
 90
      196
 90
      197
 90
      198
 90
      199
 90
      200
 90
      201
 90
      202
 90
      203
 90
      204
 90
      205
 90
      206
 90
      207
 90
      208
 90
      209
 90
      210
 90
      211
 90
      212
 90
      213
 90
      214
 90
      215
 90
      216
 90
      217
 90
      218
 90
      219
 90
      220
 90
      221
 90
      222
 90
      223
 90
      224
 90
      225
 90
      226
 90
      227
 90
      228
 90
      229
 90
      230
 90
      231
 90
      232
 90
      233
 90
      234
 90
      235
 90
      236
 90
      237
 90
      238
 90
      239
 90
      240
 90
      241
 90
      242
 90
      243
 90
      244
 90
      245
 90
      246
 90
      247
 90
      248
 90
      249
 90
      250
 90
      251
 90
      252
 90
      253
 90
      254
 90
      255
 90
      256
 90
      257
 90
      258
 90
      259
 90
      260
 90
      261
 90
      262
 90
      263
 90
      264
 90
      265
 90
      266
 90
      267
 90
      268
 90
      269
 90
      270
 90
      271
 90
      272
 90
      273
 90
      274
 90
      275
 90
      276
 90
      277
 90
      278
 90
      279
 90
      280
 90
      281
 90
      282
 90
      283
 90
      284
 90
      285
 90
      286
 90
      287
 90
      288
 90
      289
 90
      290
 90
      291
 90
      292
 90
      293
 90
      294
 90
      295
 90
      296
 90
      297
 90
      298
 90
      299
 90
      300
 90
      301
 90
      302
 90
      303
 90
      304
 90
      305
 90
      306
 90
      307
 90
      308
 90
      309
 90
      310
 90
      311
 90
      312
 90
      313
 90
      314
 90
      315
 90
      316
 90
      317
 90
      318
 90
      319
 90
      320
 90
      321
 90
      322
 90
      323
 90
      324
 90
      325
 90
      326
 90
      327
 90
      328
 90
      329
 90
      330
 90
      331
 90
      332
 90
      333
 90
      334
 90
      335
 90
      336
 90
      337
 90
      338
 90
      339
 90
      340
 90
      341
 90
      342
 90
      343
 90
      344
 90
      345
 90
      346
 90
      347
 90
      348
 90
      349
 90
      350
 90
      351
 90
      352
 90
      353
 90
      354
 90
      355
 90
      356
 90
      357
 90
      358
 90
      359
 90
      360
 90
      361
 90
      362
 90
      363
 90
      364
 90
      365
 90
      366
 90
      367
 90
      368
 90
      369
 90
      370
 90
      371
 90
      372
 90
      373
 90
      374
 90
      375
 90
      376
 90
      377
 90
      378
 90
      379
 90
      380
 90
      381
 90
      382
 90
      383
 90
      384
 90
      385
 90
      386
 90
      387
 90
      388
 90
      389
 90
      390
 90
      391
 90
      392
 90
      393
 90
      394
 90
      395
 90
      396
 90
      397
 90
      398
 90
      399
 90
      400
 90
      401
 90
      402
 90
      403
 90
      404
 90
      405
 90
      406
 90
      407
 90
      408
 90
      409
 90
      410
 90
      411
 90
      412
 90
      413
 90
      414
 90
      415
 90
      416
 90
      417
 90
      418
 90
      419
 90
      420
 90
      421
 90
      422
 90
      423
 90
      424
 90
      425
 90
      426
 90
      427
 90
      428
 90
      429
 90
      430
 90
      431
 90
      432
 90
      433
 90
      434
 90
      435
 90
      436
 90
      437
 90
      438
 90
      439
 90
      440
 90
      441
 90
      442
 90
      443
 90
      444
 90
      445
 90
      446
 90
      447
 90
      448
 90
      449
 90
      450
 90
      451
 90
      452
 90
      453
 90
      454
 90
      455
 90
      456
 90
      457
 90
      458
 90
      459
 90
      460
 90
      461
 90
      462
 90
      463
 90
      464
 90
      465
 90
      466
 90
      467
 90
      468
 90
      469
 90
      470
 90
      471
 90
      472
 90
      473
 90
      474
 90
      475
 90
      476
 90
      477
 90
      478
 90
      479
 90
      480
 90
      481
 90
      482
 90
      483
 90
      484
 90
      485
 90
      486
 90
      487
 90
      488
 90
      489
 90
      490
 90
      491
 90
      492
 90
      493
 90
      494
 90
      495
 90
      496
 90
      497
 90
      498
 90
      499
 90
      500
 90
      501
 90
      502
 90
      503
 90
      504
 90
      505
 90
      506
 90
      507
 90
      508
 90
      509
 90
      510
 90
      511
 90
      512
 90
      513
 90
      514
 90
      515
 90
      516
 90
      517
 90
      518
 90
      519
 90
      520
 90
      521
 90
      522
 90
      523
 90
      524
 90
      525
 90
      526
 90
      527
 90
      528
 90
      529
 90
      530
 90
      531
 90
      532
 90
      533
 90
      534
 90
      535
 90
      536
 90
      537
 90
      538
 90
      539
 90
      540
 90
      541
 90
      542
 90
      543
 90
      544
 90
      545
 90
      546
 90
      547
 90
      548
 90
      549
 90
      550
 90
      551
 90
      552
 90
      553
 90
      554
 90
      555
 90
      556
 90
      557
 90
      558
 90
      559
 90
      560
 90
      561
 90
      562
 90
      563
 90
      564
 90
      565
 90
      566
 90
      567
 90
      568
 90
      569
 90
      570
 90
      571
 90
      572
 90
      573
 90
      574
 90
      575
 90
      576
 90
      577
 90
      578
 90
      579
 90
      580
 90
      581
 90
      582
 90
      583
 90
      584
 90
      585
 90
      586
 90
      587
 90
      588
 90
      589
 90
      590
 90
      591
 90
      592
 90
      593
 90
      594
 90
      595
 90
      596
 90
      597
 90
      598
 90
      599
 90
      600
 90
      601
 90
      602
 90
      603
 90
      604
 90
      605
 90
      606
 90
      607
 90
      608
 90
      609
 90
      610
 90
      611
 90
      612
 90
      613
 90
      614
 90
      615
 90
      616
 90
      617
 90
      618
 90
      619
 90
      620
 90
      621
 90
      622
 90
      623
 90
      624
 90
      625
 90
      626
 90
      627
 90
      628
 90
      629
 90
      630
 90
      631
 90
      632
 90
      633
 90
      634
 90
      635
 90
      636
 90
      637
 90
      638
 90
      639
 90
      640
 90
      641
 90
      642
 90
      643
 90
      644
 90
      645
 90
      646
 90
      647
 90
      648
 90
      649
 90
      650
 90
      651
 90
      652
 90
      653
 90
      654
 90
      655
 90
      656
 90
      657
 90
      658
 90
      659
 90
      660
 90
      661
 90
      662
 90
      663
 90
      664
 90
      665
 90
      666
 90
      667
 90
      668
 90
      669
 90
      670
 90
      671
 90
      672
 90
      673
 90
      674
 90
      675
 90
      676
 90
      677
 90
      678
 90
      679
 90
      680
 90
      681
 90
      682
 90
      683
 90
      684
 90
      685
 90
      686
 90
      687
 90
      688
 90
      689
 90
      690
 90
      691
 90
      692
 90
      693
 90
      694
 90
      695
 90
      696
 90
      697
 90
      698
 90
      699
 90
      700
 90
      701
 90
      702
 90
      703
 90
      704
 90
      705
 90
      706
 90
      707
 90
      708
 90
      709
 90
      710
 90
      711
 90
      712
 90
      713
 90
      714
 90
      715
 90
      716
 90
      717
 90
      718
 90
      719
 90
      720
 90
      721
 90
      722
 90
      723
 90
      724
 90
      725
 90
      726
 90
      727
 90
      728
 90
      729
 90
      730
 90
      731
 90
      732
 90
      733
 90
      734
 90
      735
 90
      736
 90
      737
 90
      738
 90
      739
 90
      740
 90
      741
 90
      742
 90
      743
 90
      744
 90
      745
 90
      746
 90
      747
 90
      748
 90
      749
 90
      750
 90
      751
 90
      752
 90
      753
 90
      754
 90
      755
 90
      756
 90
      757
 90
      758
 90
      759
 90
      760
 90
      761
 90
      762
 90
      763
 90
      764
 90
      765
 90
      766
 90
      767
 90
      768
 90
      769
 90
      770
 90
      771
 90
      772
 90
      773
 90
      774
 90
      775
 90
      776
 90
      777
 90
      778
 90
      779
 90
      780
 90
      781
 90
      782
 90
      783
 90
      784
 90
      785
 90
      786
 90
      787
 90
      788
 90
      789
 90
      790
 90
      791
 90
      792
 90
      793
 90
      794
 90
      795
 90
      796
 90
      797
 90
      798
 90
      799
 90
      800
 90
      801
 90
      802
 90
      803
 90
      804
 90
      805
 90
      806
 90
      807
 90
      808
 90
      809
 90
      810
 90
      811
 90
      812
 90
      813
 90
      814
 90
      815
 90
      816
 90
      817
 90
      818
 90
      819
 90
      820
 90
      821
 90
      822
 90
      823
 90
      824
 90
      825
 90
      826
 90
      827
 90
      828
 90
      829
 90
      830
 90
      831
 90
      832
 90
      833
 90
      834
 90
      835
 90
      836
 90
      837
 90
      838
 90
      839
 90
      840
 90
      841
 90
      842
 90
      843
 90
      844
 90
      845
 90
      846
 90
      847
 90
      848
 90
      849
 90
      850
 90
      851
 90
      852
 90
      853
 90
      854
 90
      855
 90
      856
 90
      857
 90
      858
 90
      859
 90
      860
 90
      861
 90
      862
 90
      863
 90
      864
 90
      865
 90
      866
 90
      867
 90
      868
 90
      869
 90
      870
 90
      871
 90
      872
 90
      873
 90
      874
 90
      875
 90
      876
 90
      877
 90
      878
 90
      879
 90
      880
 90
      881
 90
      882
 90
      883
 90
      884
 90
      885
 90
      886
 90
      887
 90
      888
 90
      889
 90
      890
 90
      891
 90
      892
 90
      893
 90
      894
 90
      895
 90
      896
 90
      897
 90
      898
 90
      899
 90
      900
 90
      901
 90
      902
 90
      903
 90
      904
 90
      905
 90
      906
 90
      907
 90
      908
 90
      909
 90
      910
 90
      911
 90
      912
 90
      913
 90
      914
 90
      915
 90
      916
 90
      917
 90
      918
 90
      919
 90
      920
 90
      921
 90
      922
 90
      923
 90
      924
 90
      925
 90
      926
 90
      927
 90
      928
 90
      929
 90
      930
 90
      931
 90
      932
 90
      933
 90
      934
 90
      935
 90
      936
 90
      937
 90
      938
 90
      939
 90
      940
 90
      941
 90
      942
 90
      943
 90
      944
 90
      945
 90
      946
 90
      947
 90
      948
 90
      949
 90
      950
 90
      951
 90
      952
 90
      953
 90
      954
 90
      955
 90
      956
 90
      957
 90
      958
 90
      959
 90
      960
 90
      961
 90
      962
 90
      963
 90
      964
 90
      965
 90
      966
 90
      967
 90
      968
 90
      969
 90
      970
 90
      971
 90
      972
 90
      973
 90
      974
 90
      975
 90
      976
 90
      977
 90
      978
 90
      979
 90
      980
 90
      981
 90
      982
 90
      983
 90
      984
 90
      985
 90
      986
 90
      987
 90
      988
 90
      989
 90
      990
 90
      991
 90
      992
 90
      993
 90
      994
 90
      995
 90
      996
 90
      997
 90
      998
 90
      999
 90
     1000
 90
     1001
 90
     1002
 90
     1003
 90
     1004
 90
     1005
 90
     1006
 90
     1007
 90
     1008
 90
     1009
 90
     1010
 90
     1011
 90
     1012
 90
     1013
 90
     1014
 90
     1015
 90
     1016
 90
     1017
 90
     1018
 90
     1019
 90
     1020
 90
     1021
 90
     1022
 90
     1023
 90
     1024
 90
     1025
 90
     1026
 90
     1027
 90
     1028
 90
     1029
 90
     1030
 90
     1031
 90
     1032
 90
     1033
 90
     1034
 90
     1035
 90
     1036
 90
     1037
 90
     1038
 90
     1039
 90
     1040
 90
     1041
 90
     1042
 90
     1043
 90
     1044
 90
     1045
 90
     1046
 90
     1047
 90
     1048
 90
     1049
 90
     1050
 90
     1051
 90
     1052
 90
     1053
 90
     1054
 90
     1055
 90
     1056
 90
     1057
 90
     1058
 90
     1059
 90
     1060
 90
     1061
 90
     1062
 90
     1063
 90
     1064
 90
     1065
 90
     1066
 90
     1067
 90
     1068
 90
     1069
 90
     1070
 90
     1071
 90
     1072
 90
     1073
 90
     1074
 90
     1075
 90
     1076
 90
     1077
 90
     1078
 90
     1079
 90
     1080
 90
     1081
 90
     1082
 90
     1083
 90
     1084
 90
     1085
 90
     1086
 90
     1087
 90
     1088
 90
     1089
 90
     1090
 90
     1091
 90
     1092
 90
     1093
 90
     1094
 90
     1095
 90
     1096
 90
     1097
 90
     1098
 90
     1099
 90
     1100
 90
     1101
 90
     1102
 90
     1103
 90
     1104
 90
     1105
 90
     1106
 90
     1107
 90
     1108
 90
     1109
 90
     1110
 90
     1111
 90
     1112
 90
     1113
 90
     1114
 90
     1115
 90
     1116
 90
     1117
 90
     1118
 90
     1119
 90
     1120
 90
     1121
 90
     1122
 90
     1123
 90
     1124
 90
     1125
 90
     1126
 90
     1127
 90
     1128
 90
     1129
 90
     1130
 90
     1131
 90
     1132
 90
     1133
 90
     1134
 90
     1135
 90
     1136
 90
     1137
 90
     1138
 90
     1139
 90
     1140
 90
     1141
 90
     1142
 90
     1143
 90
     1144
 90
     1145
 90
     1146
 90
     1147
 90
     1148
 90
     1149
 90
     1150
 90
     1151
 90
     1152
 90
     1153
 90
     1154
 90
     1155
 90
     1156
 90
     1157
 90
     1158
 90
     1159
 90
     1160
 90
     1161
 90
     1162
 90
     1163
 90
     1164
 90
     1165
 90
     1166
 90
     1167
 90
     1168
 90
     1169
 90
     1170
 90
     1171
 90
     1172
 90
     1173
 90
     1174
 90
     1175
 90
     1176
 90
     1177
 90
     1178
 90
     1179
 90
     1180
 90
     1181
 90
     1182
 90
     1183
 90
     1184
 90
     1185
 90
     1186
 90
     1187
 90
     1188
 90
     1189
 90
     1190
 90
     1191
 90
     1192
 90
     1193
 90
     1194
 90
     1195
 90
     1196
 90
     1197
 90
     1198
 90
     1199
 90
     1200
 90
     1201
 90
     1202
 90
     1203
 90
     1204
 90
     1205
 90
     1206
 90
     1207
 90
     1208
 90
     1209
 90
     1210
 90
     1211
 90
     1212
 90
     1213
 90
     1214
 90
     1215
 90
     1216
 90
     1217
 90
     1218
 90
     1219
 90
     1220
 90
     1221
 90
     1222
 90
     1223
 90
     1224
 90
     1225
 90
     1226
 90
     1227
 90
     1228
 90
     1229
 90
     1230
 90
     1231
 90
     1232
 90
     1233
 90
     1234
 90
     1235
 90
     1236
 90
     1237
 90
     1238
 90
     1239
 90
     1240
 90
     1241
 90
     1242
 90
     1243
 90
     1244
 90
     1245
 90
     1246
 90
     1247
 90
     1248
 90
     1249
 90
     1250
 90
     1251
 90
     1252
 90
     1253
 90
     1254
 90
     1255
 90
     1256
 90
     1257
 90
     1258
 90
     1259
 90
     1260
 90
        0
 90
        0
290
     0
  0
XRECORD
  5
1A5
102
{ACAD_REACTORS
330
C
102
}
330
C
100
AcDbXrecord
280
     1
300
ACD
300
2022
300

  0
DICTIONARY
  5
73
102
{ACAD_REACTORS
330
C
102
}
330
C
100
AcDbDictionary
281
     1
  0
DICTIONARY
  5
1AB
102
{ACAD_REACTORS
330
C
102
}
330
C
100
AcDbDictionary
281
     1
  3
Imperial24
350
1AC
  3
Metric50
350
224
  0
DICTIONARY
  5
D
102
{ACAD_REACTORS
330
C
102
}
330
C
100
AcDbDictionary
281
     1
  0
DICTIONARY
  5
1A
102
{ACAD_REACTORS
330
C
102
}
330
C
100
AcDbDictionary
281
     1
  3
Layout1
350
59
  3
Layout2
350
5E
  3
Model
350
22
  0
DICTIONARY
  5
72
102
{ACAD_REACTORS
330
C
102
}
330
C
100
AcDbDictionary
281
     1
  3
ByBlock
350
97
  3
ByLayer
350
96
  3
Global
350
98
  0
DICTIONARY
  5
D7
102
{ACAD_REACTORS
330
C
102
}
330
C
100
AcDbDictionary
281
     1
  3
Standard
350
D8
  0
DICTIONARY
  5
17
102
{ACAD_REACTORS
330
C
102
}
330
C
100
AcDbDictionary
281
     1
  3
Standard
350
18
  0
DICTIONARY
  5
19
102
{ACAD_REACTORS
330
C
102
}
330
C
100
AcDbDictionary
281
     1
  0
ACDBDICTIONARYWDFLT
  5
E
102
{ACAD_REACTORS
330
C
102
}
330
C
100
AcDbDictionary
281
     1
  3
Normal
350
F
100
AcDbDictionaryWithDefault
340
F
  0
DICTIONARY
  5
B6
102
{ACAD_REACTORS
330
C
102
}
330
C
100
AcDbDictionary
281
     1
  3
*A1
350
2283
  3
*A2
350
5FB7C
  3
A0
350
B7
  3
A1
350
124
  3
A2
350
125
  3
A3
350
126
  3
A4
350
127
  3
A5
350
128
  3
A6
350
129
  3
A7
350
12A
  3
A8
350
12B
  3
A9
350
12C
  3
B0
350
12D
  3
B1
350
12E
  3
B2
350
12F
  3
B3
350
130
  3
B4
350
131
  3
B5
350
132
  3
B6
350
133
  3
B7
350
134
  3
B8
350
135
  3
B9
350
136
  3
C0
350
137
  3
C1
350
138
  3
C2
350
139
  3
C3
350
13A
  3
C4
350
13B
  3
C5
350
13C
  3
C6
350
13D
  3
C7
350
13E
  3
C8
350
13F
  3
C9
350
140
  3
D0
350
141
  3
D1
350
142
  3
D2
350
143
  0
DICTIONARY
  5
1A8
102
{ACAD_REACTORS
330
C
102
}
330
C
100
AcDbDictionary
281
     1
  3
Imperial24
350
1AA
  3
Metric50
350
223
  0
DICTIONARY
  5
86
102
{ACAD_REACTORS
330
C
102
}
330
C
100
AcDbDictionary
281
     1
  3
Standard
350
87
  0
DICTIONARY
  5
99
102
{ACAD_REACTORS
330
C
102
}
330
C
100
AcDbDictionary
281
     1
  3
2dWireframe
350
9F
  3
3dWireframe
350
22946
  3
Basic
350
9E
  3
Brighten
350
A5
  3
ColorChange
350
A9
  3
Conceptual
350
A2
  3
Dim
350
A4
  3
EdgeColorOff
350
175
  3
Facepattern
350
A8
  3
Flat
350
9A
  3
FlatWithEdges
350
9B
  3
Gouraud
350
9C
  3
GouraudWithEdges
350
9D
  3
Hidden
350
A1
  3
JitterOff
350
173
  3
Linepattern
350
A7
  3
OverhangOff
350
174
  3
Realistic
350
A3
  3
Shaded
350
182
  3
Shaded with edges
350
181
  3
Shades of Gray
350
17E
  3
Sketchy
350
17F
  3
Thicken
350
A6
  3
Wireframe
350
A0
  3
X-Ray
350
180
  0
WIPEOUTVARIABLES
  5
5FBC2
102
{ACAD_REACTORS
330
C
102
}
330
C
100
AcDbWipeoutVariables
 70
     1
  0
XRECORD
  5
626B8
102
{ACAD_REACTORS
330
C
102
}
330
C
100
AcDbXrecord
280
     1
 90
        1
330
87
  0
DICTIONARY
  5
4A0D5
102
{ACAD_REACTORS
330
C
102
}
330
C
100
AcDbDictionary
281
     2
  3
#COMPAREDIFFTOTAL
350
4A0D6
  3
#REVCLOUDAPPROXARCLEN
350
4A0D7
  3
ANNOALLVISIBLE
350
4A0D8
  3
CANNOSCALE
350
4A0D9
  3
CMLEADERSTYLE
350
4A0DA
  3
CTABLESTYLE
350
4A0DB
  3
CVIEWDETAILSTYLE
350
4A0DC
  3
CVIEWSECTIONSTYLE
350
4A0DD
  3
DIMADEC
350
4A0DE
  3
DIMASSOC
350
4A0DF
  3
DWFFRAME
350
4A0E0
  3
HIDETEXT
350
4A0E1
  3
HPCOLOR
350
4A0E2
  3
HPLAYER
350
4A0E3
  3
HPTRANSPARENCY
350
4A0E4
  3
INDEXCTL
350
4A0E5
  3
LAYEREVAL
350
4A0E6
  3
LAYERNOTIFY
350
4A0E7
  3
LIGHTINGUNITS
350
4A0E8
  3
MLEADERSCALE
350
4A0E9
  3
MSLTSCALE
350
4A0EA
  3
MSOLESCALE
350
4A0EB
  3
PDFFRAME
350
4A0EC
  3
POINTCLOUDCLIPFRAME
350
4A0ED
  3
PROJECTNAME
350
4A0EE
  3
SOLIDHIST
350
4A0EF
  3
SORTENTS
350
4A0F0
  0
DICTIONARY
  5
22D1
102
{ACAD_REACTORS
330
C
102
}
330
C
100
AcDbDictionary
281
     1
  0
DICTIONARY
  5
18F
102
{ACAD_REACTORS
330
18E
102
}
330
18E
100
AcDbDictionary
281
     1
  0
SORTENTSTABLE
  5
28E
102
{ACAD_REACTORS
330
15D
102
}
330
15D
100
AcDbSortentsTable
330
1F
  0
ACDBDETAILVIEWSTYLE
  5
1AC
102
{ACAD_REACTORS
330
1AB
102
}
330
1AB
100
AcDbModelDocViewStyle
 70
     0
  3
Imperial24
290
     0
300
Imperial24
 90
        0
100
AcDbDetailViewStyle
 70
     0
 71
     0
 90
        3
 71
     1
340
11
 62
   256
 40
0.24
340
0
 62
   256
 40
0.24
300

 40
0.36
280
     3
 71
     2
340
16
 90
       25
 62
   256
 71
     3
340
11
 62
   256
 40
0.24
 90
        1
 40
0.75
 90
        1
300
%<\AcVar ViewType \f "%tc1">% %<\AcVar ViewDetailId>%\PSCALE %<\AcVar ViewScale \f "%sn">%
 71
     4
340
16
 90
       25
 62
   256
340
16
 90
       25
 62
   256
280
     0
  0
ACDBDETAILVIEWSTYLE
  5
224
102
{ACAD_REACTORS
330
1AB
102
}
330
1AB
100
AcDbModelDocViewStyle
 70
     0
  3
Metric50
290
     0
300
Metric50
 90
        0
100
AcDbDetailViewStyle
 70
     0
 71
     0
 90
        3
 71
     1
340
11
 62
   256
 40
5.0
340
0
 62
   256
 40
5.0
300

 40
0.0
280
     1
 71
     2
340
16
 90
       25
 62
   256
 71
     3
340
11
 62
   256
 40
5.0
 90
        0
 40
15.0
 90
        1
300
%<\AcVar ViewDetailId>% (%<\AcVar ViewScale \f "%sn">%)
 71
     4
340
16
 90
       25
 62
   256
340
16
 90
       25
 62
   256
280
     0
  0
LAYOUT
  5
59
102
{ACAD_REACTORS
330
1A
102
}
330
1A
100
AcDbPlotSettings
  1

  2
None
  4

  6

 40
0.0
 41
0.0
 42
0.0
 43
0.0
 44
0.0
 45
0.0
 46
0.0
 47
0.0
 48
0.0
 49
0.0
140
0.0
141
0.0
142
1.0
143
1.0
 70
   688
 72
     0
 73
     0
 74
     5
  7

 75
    16
147
1.0
 76
     0
 77
     2
 78
   300
148
0.0
149
0.0
100
AcDbLayout
  1
Layout1
 70
     1
 71
     1
 10
0.0
 20
0.0
 11
12.0
 21
9.0
 12
0.0
 22
0.0
 32
0.0
 14
0.0
 24
0.0
 34
0.0
 15
0.0
 25
0.0
 35
0.0
146
0.0
 13
0.0
 23
0.0
 33
0.0
 16
1.0
 26
0.0
 36
0.0
 17
0.0
 27
1.0
 37
0.0
 76
     0
330
58
  0
LAYOUT
  5
5E
102
{ACAD_REACTORS
330
1A
102
}
330
1A
100
AcDbPlotSettings
  1

  2
None
  4

  6

 40
0.0
 41
0.0
 42
0.0
 43
0.0
 44
0.0
 45
0.0
 46
0.0
 47
0.0
 48
0.0
 49
0.0
140
0.0
141
0.0
142
1.0
143
1.0
 70
   688
 72
     0
 73
     0
 74
     5
  7

 75
    16
147
1.0
 76
     0
 77
     2
 78
   300
148
0.0
149
0.0
100
AcDbLayout
  1
Layout2
 70
     1
 71
     2
 10
0.0
 20
0.0
 11
12.0
 21
9.0
 12
0.0
 22
0.0
 32
0.0
 14
0.0
 24
0.0
 34
0.0
 15
0.0
 25
0.0
 35
0.0
146
0.0
 13
0.0
 23
0.0
 33
0.0
 16
1.0
 26
0.0
 36
0.0
 17
0.0
 27
1.0
 37
0.0
 76
     0
330
5D
  0
LAYOUT
  5
22
102
{ACAD_XDICTIONARY
360
194
102
}
102
{ACAD_REACTORS
330
1A
102
}
330
1A
100
AcDbPlotSettings
  1

  2
none_device
  4
ANSI_A_(8.50_x_11.00_Inches)
  6

 40
6.349999904632568
 41
19.04999923706055
 42
6.350006103515625
 43
19.04998779296875
 44
215.8999938964844
 45
279.3999938964844
 46
0.0
 47
0.0
 48
0.0
 49
0.0
140
0.0
141
0.0
142
1.0
143
2.584895464708373
 70
 11952
 72
     0
 73
     1
 74
     0
  7

 75
     0
147
0.3868628397755418
 76
     0
 77
     2
 78
   300
148
0.0
149
0.0
100
AcDbLayout
  1
Model
 70
     1
 71
     0
 10
0.0
 20
0.0
 11
12.0
 21
9.0
 12
0.0
 22
0.0
 32
0.0
 14
0.0
 24
0.0
 34
0.0
 15
0.0
 25
0.0
 35
0.0
146
0.0
 13
0.0
 23
0.0
 33
0.0
 16
1.0
 26
0.0
 36
0.0
 17
0.0
 27
1.0
 37
0.0
 76
     0
330
1F
331
94
  0
MATERIAL
  5
97
102
{ACAD_XDICTIONARY
360
188
102
}
102
{ACAD_REACTORS
330
72
102
}
330
72
100
AcDbMaterial
  1
ByBlock
 94
       63
  0
MATERIAL
  5
96
102
{ACAD_XDICTIONARY
360
186
102
}
102
{ACAD_REACTORS
330
72
102
}
330
72
100
AcDbMaterial
  1
ByLayer
 94
       63
  0
MATERIAL
  5
98
102
{ACAD_XDICTIONARY
360
110
102
}
102
{ACAD_REACTORS
330
72
102
}
330
72
100
AcDbMaterial
  1
Global
 43
0.0208000000566244
 43
0.0
 43
0.0
 43
0.0
 43
0.0
 43
0.0208000000566244
 43
0.0
 43
0.0
 43
0.0
 43
0.0
 43
1.0
 43
0.0
 43
0.0
 43
0.0
 43
0.0
 43
1.0
 49
0.0208000000566244
 49
0.0
 49
0.0
 49
0.0
 49
0.0
 49
0.0208000000566244
 49
0.0
 49
0.0
 49
0.0
 49
0.0
 49
1.0
 49
0.0
 49
0.0
 49
0.0
 49
0.0
 49
1.0
142
0.0208000000566244
142
0.0
142
0.0
142
0.0
142
0.0
142
0.0208000000566244
142
0.0
142
0.0
142
0.0
142
0.0
142
1.0
142
0.0
142
0.0
142
0.0
142
0.0
142
1.0
144
0.0208000000566244
144
0.0
144
0.0
144
0.0
144
0.0
144
0.0208000000566244
144
0.0
144
0.0
144
0.0
144
0.0
144
1.0
144
0.0
144
0.0
144
0.0
144
0.0
144
1.0
 94
       63
1001
ACAD
1070
    -1
1070
     3
1070
     0
1000

1071
        0
1070
     0
  0
MLEADERSTYLE
  5
D8
102
{ACAD_REACTORS
330
D7
102
}
330
D7
100
AcDbMLeaderStyle
179
     2
170
     2
171
     1
172
     0
 90
        2
 40
0.0
 41
0.0
173
     1
 91
-1056964608
340
14
 92
       -2
290
     1
 42
0.09
291
     1
 43
0.36
  3
Standard
 44
0.18
300

342
11
174
     1
178
     1
175
     1
176
     0
 93
-1056964608
 45
0.18
292
     0
297
     0
 46
0.18
 94
-1056964608
 47
1.0
 49
1.0
140
1.0
293
     1
141
0.0
294
     1
177
     0
142
1.0
295
     0
296
     0
143
0.125
271
     0
272
     9
273
     9
298
     0
  0
MLINESTYLE
  5
18
102
{ACAD_REACTORS
330
17
102
}
330
17
100
AcDbMlineStyle
  2
STANDARD
 70
     0
  3

 62
   256
 51
90.0
 52
90.0
 71
     2
 49
0.5
 62
   256
  6
BYLAYER
 49
-0.5
 62
   256
  6
BYLAYER
  0
ACDBPLACEHOLDER
  5
F
102
{ACAD_REACTORS
330
E
102
}
330
E
  0
SCALE
  5
2283
102
{ACAD_REACTORS
330
B6
102
}
330
B6
100
AcDbScale
 70
     0
300
1:75
140
1.0
141
75.0
290
     0
  0
SCALE
  5
5FB7C
102
{ACAD_REACTORS
330
B6
102
}
330
B6
100
AcDbScale
 70
     0
300
a 1:100_XREF
140
1.0
141
1.0
290
     0
  0
SCALE
  5
B7
102
{ACAD_REACTORS
330
B6
102
}
330
B6
100
AcDbScale
 70
     0
300
1:1
140
1.0
141
1.0
290
     1
  0
SCALE
  5
124
102
{ACAD_REACTORS
330
B6
102
}
330
B6
100
AcDbScale
 70
     0
300
1:2
140
1.0
141
2.0
290
     0
  0
SCALE
  5
125
102
{ACAD_REACTORS
330
B6
102
}
330
B6
100
AcDbScale
 70
     0
300
1:4
140
1.0
141
4.0
290
     0
  0
SCALE
  5
126
102
{ACAD_REACTORS
330
B6
102
}
330
B6
100
AcDbScale
 70
     0
300
1:5
140
1.0
141
5.0
290
     0
  0
SCALE
  5
127
102
{ACAD_REACTORS
330
B6
102
}
330
B6
100
AcDbScale
 70
     0
300
1:8
140
1.0
141
8.0
290
     0
  0
SCALE
  5
128
102
{ACAD_REACTORS
330
B6
102
}
330
B6
100
AcDbScale
 70
     0
300
1:10
140
1.0
141
10.0
290
     0
  0
SCALE
  5
129
102
{ACAD_REACTORS
330
B6
102
}
330
B6
100
AcDbScale
 70
     0
300
1:16
140
1.0
141
16.0
290
     0
  0
SCALE
  5
12A
102
{ACAD_REACTORS
330
B6
102
}
330
B6
100
AcDbScale
 70
     0
300
1:20
140
1.0
141
20.0
290
     0
  0
SCALE
  5
12B
102
{ACAD_REACTORS
330
B6
102
}
330
B6
100
AcDbScale
 70
     0
300
1:30
140
1.0
141
30.0
290
     0
  0
SCALE
  5
12C
102
{ACAD_REACTORS
330
B6
102
}
330
B6
100
AcDbScale
 70
     0
300
1:40
140
1.0
141
40.0
290
     0
  0
SCALE
  5
12D
102
{ACAD_REACTORS
330
B6
102
}
330
B6
100
AcDbScale
 70
     0
300
1:50
140
1.0
141
50.0
290
     0
  0
SCALE
  5
12E
102
{ACAD_REACTORS
330
B6
102
}
330
B6
100
AcDbScale
 70
     0
300
1:100
140
1.0
141
100.0
290
     0
  0
SCALE
  5
12F
102
{ACAD_REACTORS
330
B6
102
}
330
B6
100
AcDbScale
 70
     0
300
2:1
140
2.0
141
1.0
290
     0
  0
SCALE
  5
130
102
{ACAD_REACTORS
330
B6
102
}
330
B6
100
AcDbScale
 70
     0
300
4:1
140
4.0
141
1.0
290
     0
  0
SCALE
  5
131
102
{ACAD_REACTORS
330
B6
102
}
330
B6
100
AcDbScale
 70
     0
300
8:1
140
8.0
141
1.0
290
     0
  0
SCALE
  5
132
102
{ACAD_REACTORS
330
B6
102
}
330
B6
100
AcDbScale
 70
     0
300
10:1
140
10.0
141
1.0
290
     0
  0
SCALE
  5
133
102
{ACAD_REACTORS
330
B6
102
}
330
B6
100
AcDbScale
 70
     0
300
100:1
140
100.0
141
1.0
290
     0
  0
SCALE
  5
134
102
{ACAD_REACTORS
330
B6
102
}
330
B6
100
AcDbScale
 70
     0
300
1/128" = 1'-0"
140
0.0078125
141
12.0
290
     0
  0
SCALE
  5
135
102
{ACAD_REACTORS
330
B6
102
}
330
B6
100
AcDbScale
 70
     0
300
1/64" = 1'-0"
140
0.015625
141
12.0
290
     0
  0
SCALE
  5
136
102
{ACAD_REACTORS
330
B6
102
}
330
B6
100
AcDbScale
 70
     0
300
1/32" = 1'-0"
140
0.03125
141
12.0
290
     0
  0
SCALE
  5
137
102
{ACAD_REACTORS
330
B6
102
}
330
B6
100
AcDbScale
 70
     0
300
1/16" = 1'-0"
140
0.0625
141
12.0
290
     0
  0
SCALE
  5
138
102
{ACAD_REACTORS
330
B6
102
}
330
B6
100
AcDbScale
 70
     0
300
3/32" = 1'-0"
140
0.09375
141
12.0
290
     0
  0
SCALE
  5
139
102
{ACAD_REACTORS
330
B6
102
}
330
B6
100
AcDbScale
 70
     0
300
1/8" = 1'-0"
140
0.125
141
12.0
290
     0
  0
SCALE
  5
13A
102
{ACAD_REACTORS
330
B6
102
}
330
B6
100
AcDbScale
 70
     0
300
3/16" = 1'-0"
140
0.1875
141
12.0
290
     0
  0
SCALE
  5
13B
102
{ACAD_REACTORS
330
B6
102
}
330
B6
100
AcDbScale
 70
     0
300
1/4" = 1'-0"
140
0.25
141
12.0
290
     0
  0
SCALE
  5
13C
102
{ACAD_REACTORS
330
B6
102
}
330
B6
100
AcDbScale
 70
     0
300
3/8" = 1'-0"
140
0.375
141
12.0
290
     0
  0
SCALE
  5
13D
102
{ACAD_REACTORS
330
B6
102
}
330
B6
100
AcDbScale
 70
     0
300
1/2" = 1'-0"
140
0.5
141
12.0
290
     0
  0
SCALE
  5
13E
102
{ACAD_REACTORS
330
B6
102
}
330
B6
100
AcDbScale
 70
     0
300
3/4" = 1'-0"
140
0.75
141
12.0
290
     0
  0
SCALE
  5
13F
102
{ACAD_REACTORS
330
B6
102
}
330
B6
100
AcDbScale
 70
     0
300
1" = 1'-0"
140
1.0
141
12.0
290
     0
  0
SCALE
  5
140
102
{ACAD_REACTORS
330
B6
102
}
330
B6
100
AcDbScale
 70
     0
300
1-1/2" = 1'-0"
140
1.5
141
12.0
290
     0
  0
SCALE
  5
141
102
{ACAD_REACTORS
330
B6
102
}
330
B6
100
AcDbScale
 70
     0
300
3" = 1'-0"
140
3.0
141
12.0
290
     0
  0
SCALE
  5
142
102
{ACAD_REACTORS
330
B6
102
}
330
B6
100
AcDbScale
 70
     0
300
6" = 1'-0"
140
6.0
141
12.0
290
     0
  0
SCALE
  5
143
102
{ACAD_REACTORS
330
B6
102
}
330
B6
100
AcDbScale
 70
     0
300
1'-0" = 1'-0"
140
12.0
141
12.0
290
     0
  0
ACDBSECTIONVIEWSTYLE
  5
1AA
102
{ACAD_REACTORS
330
1A8
102
}
330
1A8
100
AcDbModelDocViewStyle
 70
     0
  3
Imperial24
290
     0
300
Imperial24
 90
        0
100
AcDbSectionViewStyle
 70
     0
 71
     0
 90
       78
 71
     1
340
11
 62
   256
 40
0.24
340
0
340
0
 62
   256
 40
0.24
300
I, O, Q, S, X, Z
 40
0.48
 90
        3
 40
0.18
 90
        1
 71
     2
340
16
 90
       25
 62
   256
340
16
 90
       50
 62
   256
 40
0.24
 40
0.0
 40
0.24
 71
     3
340
11
 62
   256
 40
0.24
 90
        1
 40
0.75
 90
        1
300
%<\AcVar ViewType \f "%tc1">% %<\AcVar ViewSectionStartId>%-%<\AcVar ViewSectionEndId>%\PSCALE %<\AcVar ViewScale \f "%sn">%
 71
     4
 62
   256
 62
   257
300
ANSI31
 40
1.0
 90
        0
290
     0
290
     0
 90
        6
 40
0.0
 40
1.570796326794896
 40
0.2617993877991494
 40
1.308996938995747
 40
-0.2617993877991494
 40
1.832595714594046
  0
ACDBSECTIONVIEWSTYLE
  5
223
102
{ACAD_REACTORS
330
1A8
102
}
330
1A8
100
AcDbModelDocViewStyle
 70
     0
  3
Metric50
290
     0
300
Metric50
 90
        0
100
AcDbSectionViewStyle
 70
     0
 71
     0
 90
      102
 71
     1
340
11
 62
   256
 40
5.0
340
0
340
0
 62
   256
 40
5.0
300
I, O, Q, S, X, Z
 40
10.0
 90
        0
 40
2.5
 90
        0
 71
     2
340
16
 90
       25
 62
   256
340
16
 90
       50
 62
   256
 40
5.0
 40
2.5
 40
5.0
 71
     3
340
11
 62
   256
 40
5.0
 90
        0
 40
15.0
 90
        1
300
%<\AcVar ViewSectionStartId>%-%<\AcVar ViewSectionEndId>% (%<\AcVar ViewScale \f "%sn">%)
 71
     4
 62
   256
 62
   257
300
ANSI31
 40
1.0
 90
        0
290
     0
290
     0
 90
        6
 40
0.0
 40
1.570796326794896
 40
0.2617993877991494
 40
1.308996938995747
 40
-0.2617993877991494
 40
1.832595714594046
  0
TABLESTYLE
  5
87
102
{ACAD_XDICTIONARY
360
104
102
}
102
{ACAD_REACTORS
330
86
102
}
330
86
100
AcDbTableStyle
280
     0
  3
Standard
 70
     0
 71
     0
 40
0.06
 41
0.06
280
     0
281
     0
  7
Standard
140
0.18
170
     2
 62
     0
 63
     7
283
     0
 90
      512
 91
        0
  1

274
    -2
284
     1
 64
     0
275
    -2
285
     1
 65
     0
276
    -2
286
     1
 66
     0
277
    -2
287
     1
 67
     0
278
    -2
288
     1
 68
     0
279
    -2
289
     1
 69
     0
  7
Standard
140
0.25
170
     5
 62
     0
 63
     7
283
     0
 90
      512
 91
        0
  1

274
    -2
284
     1
 64
     0
275
    -2
285
     1
 65
     0
276
    -2
286
     1
 66
     0
277
    -2
287
     1
 67
     0
278
    -2
288
     1
 68
     0
279
    -2
289
     1
 69
     0
  7
Standard
140
0.18
170
     5
 62
     0
 63
     7
283
     0
 90
      512
 91
        0
  1

274
    -2
284
     1
 64
     0
275
    -2
285
     1
 65
     0
276
    -2
286
     1
 66
     0
277
    -2
287
     1
 67
     0
278
    -2
288
     1
 68
     0
279
    -2
289
     1
 69
     0
  0
VISUALSTYLE
  5
9F
102
{ACAD_REACTORS
330
99
102
}
330
99
100
AcDbVisualStyle
  2
2dWireframe
 70
     4
177
     3
291
     0
 70
    58
 90
        0
176
     1
 90
        2
176
     1
 90
        1
176
     1
 90
        0
176
     1
 40
0.6
176
     1
 40
30.0
176
     1
 62
     7
420
 16777215
176
     1
 90
        1
176
     1
 90
        4
176
     1
 62
     7
176
     1
 62
   257
176
     1
 90
        1
176
     1
 90
        1
176
     1
 40
1.0
176
     1
 90
        0
176
     1
 62
   257
176
     1
 40
1.0
176
     1
 90
        1
176
     1
 90
        6
176
     1
 90
        2
176
     1
 62
     7
176
     1
 90
        5
176
     1
 90
        0
176
     1
 90
        0
176
     1
290
     0
176
     1
 90
        1
176
     1
 40
0.0
176
     1
 90
        0
176
     1
290
     1
176
     1
290
     1
176
     1
290
     0
176
     1
290
     0
176
     1
290
     0
176
     1
290
     0
176
     1
290
     0
176
     1
290
     0
176
     1
290
     0
176
     1
 90
       50
176
     1
 40
0.0
176
     1
 40
1.0
176
     1
 90
        0
176
     1
 62
    18
420
        0
176
     1
 90
       50
176
     1
 90
        3
176
     1
 62
     5
420
      255
176
     1
290
     0
176
     1
 90
       50
176
     1
 90
       50
176
     1
 90
       50
176
     1
290
     0
176
     1
 90
       50
176
     1
 62
   256
176
     0
 40
1.0
176
     0
 90
        2
176
     1
  1
strokes_ogs.tif
176
     1
290
     0
176
     1
 40
1.0
176
     1
 40
1.0
176
     1
  0
VISUALSTYLE
  5
22946
102
{ACAD_REACTORS
330
99
102
}
330
99
100
AcDbVisualStyle
  2
3dWireframe
 70
     5
177
     3
291
     0
 70
    58
 90
        0
176
     1
 90
        2
176
     1
 90
        0
176
     1
 90
        0
176
     1
 40
0.6
176
     1
 40
30.0
176
     1
 62
     7
176
     1
 90
        1
176
     1
 90
        4
176
     1
 62
     7
176
     1
 62
   257
176
     1
 90
        1
176
     1
 90
        1
176
     1
 40
1.0
176
     1
 90
        0
176
     1
 62
   257
176
     1
 40
1.0
176
     1
 90
        1
176
     1
 90
        6
176
     1
 90
        2
176
     1
 62
     7
176
     1
 90
        5
176
     1
 90
        0
176
     1
 90
        0
176
     1
290
     0
176
     1
 90
        1
176
     1
 40
0.0
176
     1
 90
        0
176
     1
290
     0
176
     1
290
     1
176
     1
290
     1
176
     1
290
     0
176
     1
290
     0
176
     1
290
     0
176
     1
290
     0
176
     1
290
     0
176
     1
290
     0
176
     1
 90
       50
176
     1
 40
0.0
176
     1
 40
1.0
176
     1
 90
        0
176
     1
 62
    18
420
        0
176
     1
 90
       50
176
     1
 90
        3
176
     1
 62
     5
420
      255
176
     1
290
     0
176
     1
 90
       50
176
     1
 90
       50
176
     1
 90
       50
176
     1
290
     0
176
     1
 90
       50
176
     1
 62
   256
176
     0
 40
1.0
176
     0
 90
        2
176
     1
  1
strokes_ogs.tif
176
     1
290
     0
176
     1
 40
1.0
176
     1
 40
1.0
176
     1
  0
VISUALSTYLE
  5
9E
102
{ACAD_REACTORS
330
99
102
}
330
99
100
AcDbVisualStyle
  2
Basic
 70
     7
177
     3
291
     1
 70
    58
 90
        1
176
     1
 90
        0
176
     1
 90
        1
176
     1
 90
        0
176
     1
 40
0.6
176
     1
 40
30.0
176
     1
 62
     7
420
 16777215
176
     1
 90
        0
176
     1
 90
        4
176
     1
 62
     7
176
     1
 62
   257
176
     1
 90
        1
176
     1
 90
        1
176
     1
 40
1.0
176
     1
 90
        8
176
     1
 62
     7
176
     1
 40
1.0
176
     1
 90
        1
176
     1
 90
        6
176
     1
 90
        2
176
     1
 62
     7
176
     1
 90
        5
176
     1
 90
        0
176
     1
 90
        0
176
     1
290
     0
176
     1
 90
        1
176
     1
 40
0.0
176
     1
 90
        0
176
     1
290
     0
176
     1
290
     1
176
     1
290
     1
176
     1
290
     0
176
     1
290
     0
176
     1
290
     0
176
     1
290
     0
176
     1
290
     0
176
     1
290
     0
176
     1
 90
       50
176
     1
 40
0.0
176
     1
 40
1.0
176
     1
 90
        0
176
     1
 62
    18
420
        0
176
     1
 90
       50
176
     1
 90
        3
176
     1
 62
     5
420
      255
176
     1
290
     0
176
     1
 90
       50
176
     1
 90
       50
176
     1
 90
       50
176
     1
290
     0
176
     1
 90
       50
176
     1
 62
   256
176
     0
 40
1.0
176
     0
 90
        2
176
     1
  1
strokes_ogs.tif
176
     1
290
     0
176
     1
 40
1.0
176
     1
 40
1.0
176
     1
  0
VISUALSTYLE
  5
A5
102
{ACAD_REACTORS
330
99
102
}
330
99
100
AcDbVisualStyle
  2
Brighten
 70
    12
177
     3
291
     1
 70
    58
 90
        2
176
     1
 90
        2
176
     1
 90
        1
176
     1
 90
        0
176
     1
 40
0.6
176
     1
 40
30.0
176
     1
 62
     7
420
 16777215
176
     1
 90
        1
176
     1
 90
        4
176
     1
 62
     7
176
     1
 62
   257
176
     1
 90
        1
176
     1
 90
        1
176
     1
 40
1.0
176
     1
 90
        8
176
     1
 62
     7
176
     1
 40
1.0
176
     1
 90
        1
176
     1
 90
        6
176
     1
 90
        2
176
     1
 62
     7
176
     1
 90
        5
176
     1
 90
        0
176
     1
 90
        0
176
     1
290
     0
176
     1
 90
        1
176
     1
 40
50.0
176
     1
 90
        0
176
     1
290
     0
176
     1
290
     1
176
     1
290
     1
176
     1
290
     0
176
     1
290
     0
176
     1
290
     0
176
     1
290
     0
176
     1
290
     0
176
     1
290
     0
176
     1
 90
       50
176
     1
 40
0.0
176
     1
 40
1.0
176
     1
 90
        0
176
     1
 62
    18
420
        0
176
     1
 90
       50
176
     1
 90
        3
176
     1
 62
     5
420
      255
176
     1
290
     0
176
     1
 90
       50
176
     1
 90
       50
176
     1
 90
       50
176
     1
290
     0
176
     1
 90
       50
176
     1
 62
   256
176
     0
 40
1.0
176
     0
 90
        2
176
     1
  1
strokes_ogs.tif
176
     1
290
     0
176
     1
 40
1.0
176
     1
 40
1.0
176
     1
  0
VISUALSTYLE
  5
A9
102
{ACAD_REACTORS
330
99
102
}
330
99
100
AcDbVisualStyle
  2
ColorChange
 70
    16
177
     3
291
     1
 70
    58
 90
        2
176
     1
 90
        2
176
     1
 90
        3
176
     1
 90
        0
176
     1
 40
0.6
176
     1
 40
30.0
176
     1
 62
     8
420
  8421504
176
     1
 90
        1
176
     1
 90
        4
176
     1
 62
     7
176
     1
 62
   257
176
     1
 90
        1
176
     1
 90
        1
176
     1
 40
1.0
176
     1
 90
        8
176
     1
 62
     8
420
  8421504
176
     1
 40
1.0
176
     1
 90
        1
176
     1
 90
        6
176
     1
 90
        2
176
     1
 62
     7
176
     1
 90
        5
176
     1
 90
        0
176
     1
 90
        0
176
     1
290
     0
176
     1
 90
        1
176
     1
 40
0.0
176
     1
 90
        0
176
     1
290
     0
176
     1
290
     1
176
     1
290
     1
176
     1
290
     0
176
     1
290
     0
176
     1
290
     0
176
     1
290
     0
176
     1
290
     0
176
     1
290
     0
176
     1
 90
       50
176
     1
 40
0.0
176
     1
 40
1.0
176
     1
 90
        0
176
     1
 62
    18
420
        0
176
     1
 90
       50
176
     1
 90
        3
176
     1
 62
     5
420
      255
176
     1
290
     0
176
     1
 90
       50
176
     1
 90
       50
176
     1
 90
       50
176
     1
290
     0
176
     1
 90
       50
176
     1
 62
   256
176
     0
 40
1.0
176
     0
 90
        2
176
     1
  1
strokes_ogs.tif
176
     1
290
     0
176
     1
 40
1.0
176
     1
 40
1.0
176
     1
  0
VISUALSTYLE
  5
A2
102
{ACAD_REACTORS
330
99
102
}
330
99
100
AcDbVisualStyle
  2
Conceptual
 70
     9
177
     3
291
     0
 70
    58
 90
        3
176
     1
 90
        2
176
     1
 90
        1
176
     1
 90
        0
176
     1
 40
0.6
176
     1
 40
30.0
176
     1
 62
     7
420
 16777215
176
     1
 90
        2
176
     1
 90
        2
176
     1
 62
     7
176
     1
 62
   257
176
     1
 90
        1
176
     1
 90
        1
176
     1
 40
40.0
176
     1
 90
        8
176
     1
 62
     7
176
     1
 40
1.0
176
     1
 90
        1
176
     1
 90
        6
176
     1
 90
        2
176
     1
 62
     7
176
     1
 90
        3
176
     1
 90
        0
176
     1
 90
        0
176
     1
290
     0
176
     1
 90
        1
176
     1
 40
0.0
176
     1
 90
        0
176
     1
290
     0
176
     1
290
     1
176
     1
290
     1
176
     1
290
     0
176
     1
290
     0
176
     1
290
     0
176
     1
290
     0
176
     1
290
     0
176
     1
290
     0
176
     1
 90
       50
176
     1
 40
0.0
176
     1
 40
1.0
176
     1
 90
        0
176
     1
 62
    18
420
        0
176
     1
 90
       50
176
     1
 90
        3
176
     1
 62
     5
420
      255
176
     1
290
     0
176
     1
 90
       50
176
     1
 90
       50
176
     1
 90
       50
176
     1
290
     0
176
     1
 90
       50
176
     1
 62
   256
176
     0
 40
1.0
176
     0
 90
        2
176
     1
  1
strokes_ogs.tif
176
     1
290
     0
176
     1
 40
1.0
176
     1
 40
1.0
176
     1
  0
VISUALSTYLE
  5
A4
102
{ACAD_REACTORS
330
99
102
}
330
99
100
AcDbVisualStyle
  2
Dim
 70
    11
177
     3
291
     1
 70
    58
 90
        2
176
     1
 90
        2
176
     1
 90
        1
176
     1
 90
        0
176
     1
 40
0.6
176
     1
 40
30.0
176
     1
 62
     7
420
 16777215
176
     1
 90
        1
176
     1
 90
        4
176
     1
 62
     7
176
     1
 62
   257
176
     1
 90
        1
176
     1
 90
        1
176
     1
 40
1.0
176
     1
 90
        8
176
     1
 62
     7
176
     1
 40
1.0
176
     1
 90
        1
176
     1
 90
        6
176
     1
 90
        2
176
     1
 62
     7
176
     1
 90
        5
176
     1
 90
        0
176
     1
 90
        0
176
     1
290
     0
176
     1
 90
        1
176
     1
 40
-50.0
176
     1
 90
        0
176
     1
290
     0
176
     1
290
     1
176
     1
290
     1
176
     1
290
     0
176
     1
290
     0
176
     1
290
     0
176
     1
290
     0
176
     1
290
     0
176
     1
290
     0
176
     1
 90
       50
176
     1
 40
0.0
176
     1
 40
1.0
176
     1
 90
        0
176
     1
 62
    18
420
        0
176
     1
 90
       50
176
     1
 90
        3
176
     1
 62
     5
420
      255
176
     1
290
     0
176
     1
 90
       50
176
     1
 90
       50
176
     1
 90
       50
176
     1
290
     0
176
     1
 90
       50
176
     1
 62
   256
176
     0
 40
1.0
176
     0
 90
        2
176
     1
  1
strokes_ogs.tif
176
     1
290
     0
176
     1
 40
1.0
176
     1
 40
1.0
176
     1
  0
VISUALSTYLE
  5
175
102
{ACAD_REACTORS
330
99
102
}
330
99
100
AcDbVisualStyle
  2
EdgeColorOff
 70
    22
177
     3
291
     1
 70
    58
 90
        2
176
     0
 90
        2
176
     0
 90
        0
176
     0
 90
        0
176
     0
 40
0.6
176
     0
 40
30.0
176
     0
 62
     7
420
 16777215
176
     0
 90
        1
176
     0
 90
        4
176
     0
 62
     7
176
     0
 62
   257
176
     0
 90
        1
176
     0
 90
        1
176
     0
 40
1.0
176
     0
 90
        8
176
     2
 62
     7
176
     0
 40
1.0
176
     0
 90
        1
176
     0
 90
        6
176
     0
 90
        2
176
     0
 62
     7
176
     0
 90
        5
176
     0
 90
        0
176
     0
 90
        0
176
     0
290
     0
176
     0
 90
        1
176
     0
 40
0.0
176
     0
 90
        0
176
     0
290
     0
176
     1
290
     1
176
     1
290
     1
176
     1
290
     0
176
     1
290
     0
176
     1
290
     0
176
     1
290
     0
176
     1
290
     0
176
     1
290
     0
176
     1
 90
       50
176
     1
 40
0.0
176
     1
 40
1.0
176
     1
 90
        0
176
     1
 62
    18
420
        0
176
     1
 90
       50
176
     1
 90
        3
176
     1
 62
     5
420
      255
176
     1
290
     0
176
     1
 90
       50
176
     1
 90
       50
176
     1
 90
       50
176
     1
290
     0
176
     1
 90
       50
176
     1
 62
   256
176
     0
 40
1.0
176
     0
 90
        2
176
     1
  1
strokes_ogs.tif
176
     1
290
     0
176
     1
 40
1.0
176
     1
 40
1.0
176
     1
  0
VISUALSTYLE
  5
A8
102
{ACAD_REACTORS
330
99
102
}
330
99
100
AcDbVisualStyle
  2
Facepattern
 70
    15
177
     3
291
     1
 70
    58
 90
        2
176
     1
 90
        2
176
     1
 90
        1
176
     1
 90
        0
176
     1
 40
0.6
176
     1
 40
30.0
176
     1
 62
     7
420
 16777215
176
     1
 90
        1
176
     1
 90
        4
176
     1
 62
     7
176
     1
 62
   257
176
     1
 90
        1
176
     1
 90
        1
176
     1
 40
1.0
176
     1
 90
        8
176
     1
 62
     7
176
     1
 40
1.0
176
     1
 90
        1
176
     1
 90
        6
176
     1
 90
        2
176
     1
 62
     7
176
     1
 90
        5
176
     1
 90
        0
176
     1
 90
        0
176
     1
290
     0
176
     1
 90
        1
176
     1
 40
0.0
176
     1
 90
        0
176
     1
290
     0
176
     1
290
     1
176
     1
290
     1
176
     1
290
     0
176
     1
290
     0
176
     1
290
     0
176
     1
290
     0
176
     1
290
     0
176
     1
290
     0
176
     1
 90
       50
176
     1
 40
0.0
176
     1
 40
1.0
176
     1
 90
        0
176
     1
 62
    18
420
        0
176
     1
 90
       50
176
     1
 90
        3
176
     1
 62
     5
420
      255
176
     1
290
     0
176
     1
 90
       50
176
     1
 90
       50
176
     1
 90
       50
176
     1
290
     0
176
     1
 90
       50
176
     1
 62
   256
176
     0
 40
1.0
176
     0
 90
        2
176
     1
  1
strokes_ogs.tif
176
     1
290
     0
176
     1
 40
1.0
176
     1
 40
1.0
176
     1
  0
VISUALSTYLE
  5
9A
102
{ACAD_REACTORS
330
99
102
}
330
99
100
AcDbVisualStyle
  2
Flat
 70
     0
177
     3
291
     1
 70
    58
 90
        2
176
     1
 90
        1
176
     1
 90
        1
176
     1
 90
        2
176
     1
 40
0.6
176
     1
 40
30.0
176
     1
 62
     7
420
 16777215
176
     1
 90
        0
176
     1
 90
        0
176
     1
 62
     7
176
     1
 62
   257
176
     1
 90
        1
176
     1
 90
        1
176
     1
 40
1.0
176
     1
 90
        8
176
     1
 62
     7
176
     1
 40
1.0
176
     1
 90
        1
176
     1
 90
        6
176
     1
 90
        2
176
     1
 62
     7
176
     1
 90
        5
176
     1
 90
        0
176
     1
 90
        0
176
     1
290
     0
176
     1
 90
       13
176
     1
 40
0.0
176
     1
 90
        0
176
     1
290
     0
176
     1
290
     1
176
     1
290
     1
176
     1
290
     0
176
     1
290
     0
176
     1
290
     0
176
     1
290
     0
176
     1
290
     0
176
     1
290
     0
176
     1
 90
       50
176
     1
 40
0.0
176
     1
 40
1.0
176
     1
 90
        0
176
     1
 62
    18
420
        0
176
     1
 90
       50
176
     1
 90
        3
176
     1
 62
     5
420
      255
176
     1
290
     0
176
     1
 90
       50
176
     1
 90
       50
176
     1
 90
       50
176
     1
290
     0
176
     1
 90
       50
176
     1
 62
   256
176
     0
 40
1.0
176
     0
 90
        2
176
     1
  1
strokes_ogs.tif
176
     1
290
     0
176
     1
 40
1.0
176
     1
 40
1.0
176
     1
  0
VISUALSTYLE
  5
9B
102
{ACAD_REACTORS
330
99
102
}
330
99
100
AcDbVisualStyle
  2
FlatWithEdges
 70
     1
177
     3
291
     1
 70
    58
 90
        2
176
     1
 90
        1
176
     1
 90
        1
176
     1
 90
        2
176
     1
 40
0.6
176
     1
 40
30.0
176
     1
 62
     7
420
 16777215
176
     1
 90
        1
176
     1
 90
        0
176
     1
 62
     7
176
     1
 62
   257
176
     1
 90
        1
176
     1
 90
        1
176
     1
 40
1.0
176
     1
 90
        0
176
     1
 62
   257
176
     1
 40
1.0
176
     1
 90
        1
176
     1
 90
        6
176
     1
 90
        2
176
     1
 62
     7
176
     1
 90
        5
176
     1
 90
        0
176
     1
 90
        0
176
     1
290
     0
176
     1
 90
       13
176
     1
 40
0.0
176
     1
 90
        0
176
     1
290
     0
176
     1
290
     1
176
     1
290
     1
176
     1
290
     0
176
     1
290
     0
176
     1
290
     0
176
     1
290
     0
176
     1
290
     0
176
     1
290
     0
176
     1
 90
       50
176
     1
 40
0.0
176
     1
 40
1.0
176
     1
 90
        0
176
     1
 62
    18
420
        0
176
     1
 90
       50
176
     1
 90
        3
176
     1
 62
     5
420
      255
176
     1
290
     0
176
     1
 90
       50
176
     1
 90
       50
176
     1
 90
       50
176
     1
290
     0
176
     1
 90
       50
176
     1
 62
   256
176
     0
 40
1.0
176
     0
 90
        2
176
     1
  1
strokes_ogs.tif
176
     1
290
     0
176
     1
 40
1.0
176
     1
 40
1.0
176
     1
  0
VISUALSTYLE
  5
9C
102
{ACAD_REACTORS
330
99
102
}
330
99
100
AcDbVisualStyle
  2
Gouraud
 70
     2
177
     3
291
     1
 70
    58
 90
        2
176
     1
 90
        2
176
     1
 90
        1
176
     1
 90
        2
176
     1
 40
0.6
176
     1
 40
30.0
176
     1
 62
     7
420
 16777215
176
     1
 90
        0
176
     1
 90
        0
176
     1
 62
     7
176
     1
 62
   257
176
     1
 90
        1
176
     1
 90
        1
176
     1
 40
1.0
176
     1
 90
        0
176
     1
 62
     7
176
     1
 40
1.0
176
     1
 90
        1
176
     1
 90
        6
176
     1
 90
        2
176
     1
 62
     7
176
     1
 90
        5
176
     1
 90
        0
176
     1
 90
        0
176
     1
290
     0
176
     1
 90
       13
176
     1
 40
0.0
176
     1
 90
        0
176
     1
290
     0
176
     1
290
     1
176
     1
290
     1
176
     1
290
     0
176
     1
290
     0
176
     1
290
     0
176
     1
290
     0
176
     1
290
     0
176
     1
290
     0
176
     1
 90
       50
176
     1
 40
0.0
176
     1
 40
1.0
176
     1
 90
        0
176
     1
 62
    18
420
        0
176
     1
 90
       50
176
     1
 90
        3
176
     1
 62
     5
420
      255
176
     1
290
     0
176
     1
 90
       50
176
     1
 90
       50
176
     1
 90
       50
176
     1
290
     0
176
     1
 90
       50
176
     1
 62
   256
176
     0
 40
1.0
176
     0
 90
        2
176
     1
  1
strokes_ogs.tif
176
     1
290
     0
176
     1
 40
1.0
176
     1
 40
1.0
176
     1
  0
VISUALSTYLE
  5
9D
102
{ACAD_REACTORS
330
99
102
}
330
99
100
AcDbVisualStyle
  2
GouraudWithEdges
 70
     3
177
     3
291
     1
 70
    58
 90
        2
176
     1
 90
        2
176
     1
 90
        1
176
     1
 90
        2
176
     1
 40
0.6
176
     1
 40
30.0
176
     1
 62
     7
420
 16777215
176
     1
 90
        1
176
     1
 90
        0
176
     1
 62
     7
176
     1
 62
   257
176
     1
 90
        1
176
     1
 90
        1
176
     1
 40
1.0
176
     1
 90
        0
176
     1
 62
   257
176
     1
 40
1.0
176
     1
 90
        1
176
     1
 90
        6
176
     1
 90
        2
176
     1
 62
     7
176
     1
 90
        5
176
     1
 90
        0
176
     1
 90
        0
176
     1
290
     0
176
     1
 90
       13
176
     1
 40
0.0
176
     1
 90
        0
176
     1
290
     0
176
     1
290
     1
176
     1
290
     1
176
     1
290
     0
176
     1
290
     0
176
     1
290
     0
176
     1
290
     0
176
     1
290
     0
176
     1
290
     0
176
     1
 90
       50
176
     1
 40
0.0
176
     1
 40
1.0
176
     1
 90
        0
176
     1
 62
    18
420
        0
176
     1
 90
       50
176
     1
 90
        3
176
     1
 62
     5
420
      255
176
     1
290
     0
176
     1
 90
       50
176
     1
 90
       50
176
     1
 90
       50
176
     1
290
     0
176
     1
 90
       50
176
     1
 62
   256
176
     0
 40
1.0
176
     0
 90
        2
176
     1
  1
strokes_ogs.tif
176
     1
290
     0
176
     1
 40
1.0
176
     1
 40
1.0
176
     1
  0
VISUALSTYLE
  5
A1
102
{ACAD_REACTORS
330
99
102
}
330
99
100
AcDbVisualStyle
  2
Hidden
 70
     6
177
     3
291
     0
 70
    58
 90
        1
176
     1
 90
        2
176
     1
 90
        2
176
     1
 90
        0
176
     1
 40
0.6
176
     1
 40
30.0
176
     1
 62
     7
420
 16777215
176
     1
 90
        2
176
     1
 90
        2
176
     1
 62
     7
176
     1
 62
   257
176
     1
 90
        2
176
     1
 90
        1
176
     1
 40
40.0
176
     1
 90
        0
176
     1
 62
   257
176
     1
 40
1.0
176
     1
 90
        1
176
     1
 90
        6
176
     1
 90
        2
176
     1
 62
     7
176
     1
 90
        3
176
     1
 90
        0
176
     1
 90
        0
176
     1
290
     0
176
     1
 90
        1
176
     1
 40
0.0
176
     1
 90
        0
176
     1
290
     0
176
     1
290
     1
176
     1
290
     1
176
     1
290
     0
176
     1
290
     0
176
     1
290
     0
176
     1
290
     0
176
     1
290
     0
176
     1
290
     0
176
     1
 90
       50
176
     1
 40
0.0
176
     1
 40
1.0
176
     1
 90
        0
176
     1
 62
    18
420
        0
176
     1
 90
       50
176
     1
 90
        3
176
     1
 62
     5
420
      255
176
     1
290
     0
176
     1
 90
       50
176
     1
 90
       50
176
     1
 90
       50
176
     1
290
     0
176
     1
 90
       50
176
     1
 62
   256
176
     0
 40
1.0
176
     0
 90
        2
176
     1
  1
strokes_ogs.tif
176
     1
290
     0
176
     1
 40
1.0
176
     1
 40
1.0
176
     1
  0
VISUALSTYLE
  5
173
102
{ACAD_REACTORS
330
99
102
}
330
99
100
AcDbVisualStyle
  2
JitterOff
 70
    20
177
     3
291
     1
 70
    58
 90
        2
176
     0
 90
        2
176
     0
 90
        0
176
     0
 90
        0
176
     0
 40
0.6
176
     0
 40
30.0
176
     0
 62
     7
420
 16777215
176
     0
 90
        1
176
     0
 90
        4
176
     0
 62
     7
176
     0
 62
   257
176
     0
 90
        1
176
     0
 90
        1
176
     0
 40
1.0
176
     0
 90
       10
176
     2
 62
     7
176
     0
 40
1.0
176
     0
 90
        1
176
     0
 90
        6
176
     0
 90
        2
176
     0
 62
     7
176
     0
 90
        5
176
     0
 90
        0
176
     0
 90
        0
176
     0
290
     0
176
     0
 90
        1
176
     0
 40
0.0
176
     0
 90
        0
176
     0
290
     0
176
     1
290
     1
176
     1
290
     1
176
     1
290
     0
176
     1
290
     0
176
     1
290
     0
176
     1
290
     0
176
     1
290
     0
176
     1
290
     0
176
     1
 90
       50
176
     1
 40
0.0
176
     1
 40
1.0
176
     1
 90
        0
176
     1
 62
    18
420
        0
176
     1
 90
       50
176
     1
 90
        3
176
     1
 62
     5
420
      255
176
     1
290
     0
176
     1
 90
       50
176
     1
 90
       50
176
     1
 90
       50
176
     1
290
     0
176
     1
 90
       50
176
     1
 62
   256
176
     0
 40
1.0
176
     0
 90
        2
176
     1
  1
strokes_ogs.tif
176
     1
290
     0
176
     1
 40
1.0
176
     1
 40
1.0
176
     1
  0
VISUALSTYLE
  5
A7
102
{ACAD_REACTORS
330
99
102
}
330
99
100
AcDbVisualStyle
  2
Linepattern
 70
    14
177
     3
291
     1
 70
    58
 90
        2
176
     1
 90
        2
176
     1
 90
        1
176
     1
 90
        0
176
     1
 40
0.6
176
     1
 40
30.0
176
     1
 62
     7
420
 16777215
176
     1
 90
        1
176
     1
 90
        4
176
     1
 62
     7
176
     1
 62
   257
176
     1
 90
        7
176
     1
 90
        7
176
     1
 40
1.0
176
     1
 90
        8
176
     1
 62
     7
176
     1
 40
1.0
176
     1
 90
        1
176
     1
 90
        6
176
     1
 90
        2
176
     1
 62
     7
176
     1
 90
        5
176
     1
 90
        0
176
     1
 90
        0
176
     1
290
     0
176
     1
 90
        1
176
     1
 40
0.0
176
     1
 90
        0
176
     1
290
     0
176
     1
290
     1
176
     1
290
     1
176
     1
290
     0
176
     1
290
     0
176
     1
290
     0
176
     1
290
     0
176
     1
290
     0
176
     1
290
     0
176
     1
 90
       50
176
     1
 40
0.0
176
     1
 40
1.0
176
     1
 90
        0
176
     1
 62
    18
420
        0
176
     1
 90
       50
176
     1
 90
        3
176
     1
 62
     5
420
      255
176
     1
290
     0
176
     1
 90
       50
176
     1
 90
       50
176
     1
 90
       50
176
     1
290
     0
176
     1
 90
       50
176
     1
 62
   256
176
     0
 40
1.0
176
     0
 90
        2
176
     1
  1
strokes_ogs.tif
176
     1
290
     0
176
     1
 40
1.0
176
     1
 40
1.0
176
     1
  0
VISUALSTYLE
  5
174
102
{ACAD_REACTORS
330
99
102
}
330
99
100
AcDbVisualStyle
  2
OverhangOff
 70
    21
177
     3
291
     1
 70
    58
 90
        2
176
     0
 90
        2
176
     0
 90
        0
176
     0
 90
        0
176
     0
 40
0.6
176
     0
 40
30.0
176
     0
 62
     7
420
 16777215
176
     0
 90
        1
176
     0
 90
        4
176
     0
 62
     7
176
     0
 62
   257
176
     0
 90
        1
176
     0
 90
        1
176
     0
 40
1.0
176
     0
 90
        9
176
     2
 62
     7
176
     0
 40
1.0
176
     0
 90
        1
176
     0
 90
        6
176
     0
 90
        2
176
     0
 62
     7
176
     0
 90
        5
176
     0
 90
        0
176
     0
 90
        0
176
     0
290
     0
176
     0
 90
        1
176
     0
 40
0.0
176
     0
 90
        0
176
     0
290
     0
176
     1
290
     1
176
     1
290
     1
176
     1
290
     0
176
     1
290
     0
176
     1
290
     0
176
     1
290
     0
176
     1
290
     0
176
     1
290
     0
176
     1
 90
       50
176
     1
 40
0.0
176
     1
 40
1.0
176
     1
 90
        0
176
     1
 62
    18
420
        0
176
     1
 90
       50
176
     1
 90
        3
176
     1
 62
     5
420
      255
176
     1
290
     0
176
     1
 90
       50
176
     1
 90
       50
176
     1
 90
       50
176
     1
290
     0
176
     1
 90
       50
176
     1
 62
   256
176
     0
 40
1.0
176
     0
 90
        2
176
     1
  1
strokes_ogs.tif
176
     1
290
     0
176
     1
 40
1.0
176
     1
 40
1.0
176
     1
  0
VISUALSTYLE
  5
A3
102
{ACAD_REACTORS
330
99
102
}
330
99
100
AcDbVisualStyle
  2
Realistic
 70
     8
177
     3
291
     0
 70
    58
 90
        2
176
     1
 90
        2
176
     1
 90
        0
176
     1
 90
        2
176
     1
 40
0.6
176
     1
 40
30.0
176
     1
 62
     7
420
 16777215
176
     1
 90
        0
176
     1
 90
        0
176
     1
 62
     7
176
     1
 62
   257
176
     1
 90
        1
176
     1
 90
        1
176
     1
 40
1.0
176
     1
 90
        8
176
     1
 62
   257
176
     1
 40
1.0
176
     1
 90
        1
176
     1
 90
        6
176
     1
 90
        2
176
     1
 62
     7
176
     1
 90
        3
176
     1
 90
        0
176
     1
 90
        0
176
     1
290
     0
176
     1
 90
       13
176
     1
 40
0.0
176
     1
 90
        0
176
     1
290
     0
176
     1
290
     1
176
     1
290
     1
176
     1
290
     0
176
     1
290
     0
176
     1
290
     0
176
     1
290
     0
176
     1
290
     0
176
     1
290
     0
176
     1
 90
       50
176
     1
 40
0.0
176
     1
 40
1.0
176
     1
 90
        0
176
     1
 62
    18
420
        0
176
     1
 90
       50
176
     1
 90
        3
176
     1
 62
     5
420
      255
176
     1
290
     0
176
     1
 90
       50
176
     1
 90
       50
176
     1
 90
       50
176
     1
290
     0
176
     1
 90
       50
176
     1
 62
   256
176
     0
 40
1.0
176
     0
 90
        2
176
     1
  1
strokes_ogs.tif
176
     1
290
     0
176
     1
 40
1.0
176
     1
 40
1.0
176
     1
  0
VISUALSTYLE
  5
182
102
{ACAD_REACTORS
330
99
102
}
330
99
100
AcDbVisualStyle
  2
Shaded
 70
    27
177
     3
291
     0
 70
    58
 90
        2
176
     1
 90
        2
176
     1
 90
        1
176
     1
 90
        2
176
     1
 40
0.6
176
     1
 40
30.0
176
     1
 62
     7
420
 16777215
176
     1
 90
        0
176
     1
 90
        4
176
     1
 62
     7
176
     1
 62
   257
176
     1
 90
        1
176
     1
 90
        1
176
     1
 40
1.0
176
     1
 90
        8
176
     1
 62
   257
176
     1
 40
1.0
176
     1
 90
        1
176
     1
 90
        6
176
     1
 90
        2
176
     1
 62
     8
420
  7895160
176
     1
 90
        3
176
     1
 90
        0
176
     1
 90
        0
176
     1
290
     0
176
     1
 90
        5
176
     1
 40
0.0
176
     1
 90
        0
176
     1
290
     0
176
     1
290
     1
176
     1
290
     1
176
     1
290
     0
176
     1
290
     0
176
     1
290
     0
176
     1
290
     0
176
     1
290
     0
176
     1
290
     0
176
     1
 90
       50
176
     1
 40
0.0
176
     1
 40
1.0
176
     1
 90
        0
176
     1
 62
    18
420
        0
176
     1
 90
       50
176
     1
 90
        3
176
     1
 62
     5
420
      255
176
     1
290
     0
176
     1
 90
       50
176
     1
 90
       50
176
     1
 90
       50
176
     1
290
     0
176
     1
 90
       50
176
     1
 62
   256
176
     0
 40
1.0
176
     0
 90
        2
176
     1
  1
strokes_ogs.tif
176
     1
290
     0
176
     1
 40
1.0
176
     1
 40
1.0
176
     1
  0
VISUALSTYLE
  5
181
102
{ACAD_REACTORS
330
99
102
}
330
99
100
AcDbVisualStyle
  2
Shaded with edges
 70
    26
177
     3
291
     0
 70
    58
 90
        2
176
     1
 90
        2
176
     1
 90
        1
176
     1
 90
        2
176
     1
 40
0.6
176
     1
 40
30.0
176
     1
 62
     7
420
 16777215
176
     1
 90
        1
176
     1
 90
        2
176
     1
 62
     7
176
     1
 62
   257
176
     1
 90
        2
176
     1
 90
        1
176
     1
 40
1.0
176
     1
 90
        8
176
     1
 62
   257
176
     1
 40
1.0
176
     1
 90
        1
176
     1
 90
        6
176
     1
 90
        2
176
     1
 62
     7
176
     1
 90
        3
176
     1
 90
        0
176
     1
 90
        0
176
     1
290
     0
176
     1
 90
        5
176
     1
 40
0.0
176
     1
 90
        0
176
     1
290
     0
176
     1
290
     1
176
     1
290
     1
176
     1
290
     0
176
     1
290
     0
176
     1
290
     0
176
     1
290
     0
176
     1
290
     0
176
     1
290
     0
176
     1
 90
       50
176
     1
 40
0.0
176
     1
 40
1.0
176
     1
 90
        0
176
     1
 62
    18
420
        0
176
     1
 90
       50
176
     1
 90
        3
176
     1
 62
     5
420
      255
176
     1
290
     0
176
     1
 90
       50
176
     1
 90
       50
176
     1
 90
       50
176
     1
290
     0
176
     1
 90
       50
176
     1
 62
   256
176
     0
 40
1.0
176
     0
 90
        2
176
     1
  1
strokes_ogs.tif
176
     1
290
     0
176
     1
 40
1.0
176
     1
 40
1.0
176
     1
  0
VISUALSTYLE
  5
17E
102
{ACAD_REACTORS
330
99
102
}
330
99
100
AcDbVisualStyle
  2
Shades of Gray
 70
    23
177
     3
291
     0
 70
    58
 90
        2
176
     1
 90
        2
176
     1
 90
        3
176
     1
 90
        0
176
     1
 40
0.6
176
     1
 40
30.0
176
     1
 62
     7
420
 16777215
176
     1
 90
        2
176
     1
 90
        2
176
     1
 62
     7
176
     1
 62
     7
176
     1
 90
        1
176
     1
 90
        1
176
     1
 40
40.0
176
     1
 90
        8
176
     1
 62
     7
176
     1
 40
1.0
176
     1
 90
        1
176
     1
 90
        6
176
     1
 90
        2
176
     1
 62
     7
176
     1
 90
        3
176
     1
 90
        0
176
     1
 90
        0
176
     1
290
     0
176
     1
 90
        1
176
     1
 40
0.0
176
     1
 90
        0
176
     1
290
     0
176
     1
290
     1
176
     1
290
     1
176
     1
290
     0
176
     1
290
     0
176
     1
290
     0
176
     1
290
     0
176
     1
290
     0
176
     1
290
     0
176
     1
 90
       50
176
     1
 40
0.0
176
     1
 40
1.0
176
     1
 90
        0
176
     1
 62
    18
420
        0
176
     1
 90
       50
176
     1
 90
        3
176
     1
 62
     5
420
      255
176
     1
290
     0
176
     1
 90
       50
176
     1
 90
       50
176
     1
 90
       50
176
     1
290
     0
176
     1
 90
       50
176
     1
 62
   256
176
     0
 40
1.0
176
     0
 90
        2
176
     1
  1
strokes_ogs.tif
176
     1
290
     0
176
     1
 40
1.0
176
     1
 40
1.0
176
     1
  0
VISUALSTYLE
  5
17F
102
{ACAD_REACTORS
330
99
102
}
330
99
100
AcDbVisualStyle
  2
Sketchy
 70
    24
177
     3
291
     0
 70
    58
 90
        1
176
     1
 90
        2
176
     1
 90
        2
176
     1
 90
        0
176
     1
 40
0.6
176
     1
 40
30.0
176
     1
 62
     7
420
 16777215
176
     1
 90
        2
176
     1
 90
        2
176
     1
 62
     7
176
     1
 62
     7
176
     1
 90
        1
176
     1
 90
        1
176
     1
 40
40.0
176
     1
 90
       11
176
     1
 62
     7
176
     1
 40
1.0
176
     1
 90
        1
176
     1
 90
        6
176
     1
 90
        2
176
     1
 62
     7
176
     1
 90
        6
176
     1
 90
        0
176
     1
 90
        0
176
     1
290
     0
176
     1
 90
        1
176
     1
 40
0.0
176
     1
 90
        0
176
     1
290
     0
176
     1
290
     1
176
     1
290
     1
176
     1
290
     0
176
     1
290
     0
176
     1
290
     0
176
     1
290
     0
176
     1
290
     0
176
     1
290
     0
176
     1
 90
       50
176
     1
 40
0.0
176
     1
 40
1.0
176
     1
 90
        0
176
     1
 62
    18
420
        0
176
     1
 90
       50
176
     1
 90
        3
176
     1
 62
     5
420
      255
176
     1
290
     0
176
     1
 90
       50
176
     1
 90
       50
176
     1
 90
       50
176
     1
290
     0
176
     1
 90
       50
176
     1
 62
   256
176
     0
 40
1.0
176
     0
 90
        2
176
     1
  1
strokes_ogs.tif
176
     1
290
     0
176
     1
 40
1.0
176
     1
 40
1.0
176
     1
  0
VISUALSTYLE
  5
A6
102
{ACAD_REACTORS
330
99
102
}
330
99
100
AcDbVisualStyle
  2
Thicken
 70
    13
177
     3
291
     1
 70
    58
 90
        2
176
     1
 90
        2
176
     1
 90
        1
176
     1
 90
        0
176
     1
 40
0.6
176
     1
 40
30.0
176
     1
 62
     7
420
 16777215
176
     1
 90
        1
176
     1
 90
        4
176
     1
 62
     7
176
     1
 62
   257
176
     1
 90
        1
176
     1
 90
        1
176
     1
 40
1.0
176
     1
 90
       12
176
     1
 62
     7
176
     1
 40
1.0
176
     1
 90
        1
176
     1
 90
        6
176
     1
 90
        2
176
     1
 62
     7
176
     1
 90
        5
176
     1
 90
        0
176
     1
 90
        0
176
     1
290
     0
176
     1
 90
        1
176
     1
 40
0.0
176
     1
 90
        0
176
     1
290
     0
176
     1
290
     1
176
     1
290
     1
176
     1
290
     0
176
     1
290
     0
176
     1
290
     0
176
     1
290
     0
176
     1
290
     0
176
     1
290
     0
176
     1
 90
       50
176
     1
 40
0.0
176
     1
 40
1.0
176
     1
 90
        0
176
     1
 62
    18
420
        0
176
     1
 90
       50
176
     1
 90
        3
176
     1
 62
     5
420
      255
176
     1
290
     0
176
     1
 90
       50
176
     1
 90
       50
176
     1
 90
       50
176
     1
290
     0
176
     1
 90
       50
176
     1
 62
   256
176
     0
 40
1.0
176
     0
 90
        2
176
     1
  1
strokes_ogs.tif
176
     1
290
     0
176
     1
 40
1.0
176
     1
 40
1.0
176
     1
  0
VISUALSTYLE
  5
A0
102
{ACAD_REACTORS
330
99
102
}
330
99
100
AcDbVisualStyle
  2
Wireframe
 70
     5
177
     3
291
     0
 70
    58
 90
        0
176
     1
 90
        2
176
     1
 90
        0
176
     1
 90
        0
176
     1
 40
0.6
176
     1
 40
30.0
176
     1
 62
     7
420
 16777215
176
     1
 90
        1
176
     1
 90
        4
176
     1
 62
     7
176
     1
 62
   257
176
     1
 90
        1
176
     1
 90
        1
176
     1
 40
1.0
176
     1
 90
        0
176
     1
 62
   257
176
     1
 40
1.0
176
     1
 90
        1
176
     1
 90
        6
176
     1
 90
        2
176
     1
 62
     7
176
     1
 90
        3
176
     1
 90
        0
176
     1
 90
        0
176
     1
290
     0
176
     1
 90
        1
176
     1
 40
0.0
176
     1
 90
        0
176
     1
290
     0
176
     1
290
     1
176
     1
290
     1
176
     1
290
     0
176
     1
290
     0
176
     1
290
     0
176
     1
290
     0
176
     1
290
     0
176
     1
290
     0
176
     1
 90
       50
176
     1
 40
0.0
176
     1
 40
1.0
176
     1
 90
        0
176
     1
 62
    18
420
        0
176
     1
 90
       50
176
     1
 90
        3
176
     1
 62
     5
420
      255
176
     1
290
     0
176
     1
 90
       50
176
     1
 90
       50
176
     1
 90
       50
176
     1
290
     0
176
     1
 90
       50
176
     1
 62
   256
176
     0
 40
1.0
176
     0
 90
        2
176
     1
  1
strokes_ogs.tif
176
     1
290
     0
176
     1
 40
1.0
176
     1
 40
1.0
176
     1
  0
VISUALSTYLE
  5
180
102
{ACAD_REACTORS
330
99
102
}
330
99
100
AcDbVisualStyle
  2
X-Ray
 70
    25
177
     3
291
     0
 70
    58
 90
        2
176
     1
 90
        2
176
     1
 90
        1
176
     1
 90
        1
176
     1
 40
0.5
176
     1
 40
30.0
176
     1
 62
     7
420
 16777215
176
     1
 90
        1
176
     1
 90
        0
176
     1
 62
     7
176
     1
 62
   257
176
     1
 90
        1
176
     1
 90
        1
176
     1
 40
1.0
176
     1
 90
        8
176
     1
 62
     7
176
     1
 40
1.0
176
     1
 90
        1
176
     1
 90
        6
176
     1
 90
        2
176
     1
 62
     7
176
     1
 90
        3
176
     1
 90
        0
176
     1
 90
        0
176
     1
290
     0
176
     1
 90
       13
176
     1
 40
0.0
176
     1
 90
        0
176
     1
290
     0
176
     1
290
     1
176
     1
290
     1
176
     1
290
     0
176
     1
290
     0
176
     1
290
     0
176
     1
290
     0
176
     1
290
     0
176
     1
290
     0
176
     1
 90
       50
176
     1
 40
0.0
176
     1
 40
1.0
176
     1
 90
        0
176
     1
 62
    18
420
        0
176
     1
 90
       50
176
     1
 90
        3
176
     1
 62
     5
420
      255
176
     1
290
     0
176
     1
 90
       50
176
     1
 90
       50
176
     1
 90
       50
176
     1
290
     0
176
     1
 90
       50
176
     1
 62
   256
176
     0
 40
1.0
176
     0
 90
        2
176
     1
  1
strokes_ogs.tif
176
     1
290
     0
176
     1
 40
1.0
176
     1
 40
1.0
176
     1
  0
DICTIONARYVAR
  5
4A0D6
102
{ACAD_REACTORS
330
4A0D5
102
}
330
4A0D5
100
DictionaryVariables
280
     0
  1
2
  0
DICTIONARYVAR
  5
4A0D7
102
{ACAD_REACTORS
330
4A0D5
102
}
330
4A0D5
100
DictionaryVariables
280
     0
  1
400.000000
  0
DICTIONARYVAR
  5
4A0D8
102
{ACAD_REACTORS
330
4A0D5
102
}
330
4A0D5
100
DictionaryVariables
280
     0
  1
1
  0
DICTIONARYVAR
  5
4A0D9
102
{ACAD_REACTORS
330
4A0D5
102
}
330
4A0D5
100
DictionaryVariables
280
     0
  1
1:1
  0
DICTIONARYVAR
  5
4A0DA
102
{ACAD_REACTORS
330
4A0D5
102
}
330
4A0D5
100
DictionaryVariables
280
     0
  1
STANDARD
  0
DICTIONARYVAR
  5
4A0DB
102
{ACAD_REACTORS
330
4A0D5
102
}
330
4A0D5
100
DictionaryVariables
280
     0
  1
STANDARD
  0
DICTIONARYVAR
  5
4A0DC
102
{ACAD_REACTORS
330
4A0D5
102
}
330
4A0D5
100
DictionaryVariables
280
     0
  1
Imperial24
  0
DICTIONARYVAR
  5
4A0DD
102
{ACAD_REACTORS
330
4A0D5
102
}
330
4A0D5
100
DictionaryVariables
280
     0
  1
Imperial24
  0
DICTIONARYVAR
  5
4A0DE
102
{ACAD_REACTORS
330
4A0D5
102
}
330
4A0D5
100
DictionaryVariables
280
     0
  1
-1
  0
DICTIONARYVAR
  5
4A0DF
102
{ACAD_REACTORS
330
4A0D5
102
}
330
4A0D5
100
DictionaryVariables
280
     0
  1
1
  0
DICTIONARYVAR
  5
4A0E0
102
{ACAD_REACTORS
330
4A0D5
102
}
330
4A0D5
100
DictionaryVariables
280
     0
  1
2
  0
DICTIONARYVAR
  5
4A0E1
102
{ACAD_REACTORS
330
4A0D5
102
}
330
4A0D5
100
DictionaryVariables
280
     0
  1
0
  0
DICTIONARYVAR
  5
4A0E2
102
{ACAD_REACTORS
330
4A0D5
102
}
330
4A0D5
100
DictionaryVariables
280
     0
  1
4
  0
DICTIONARYVAR
  5
4A0E3
102
{ACAD_REACTORS
330
4A0D5
102
}
330
4A0D5
100
DictionaryVariables
280
     0
  1
V-Construction
  0
DICTIONARYVAR
  5
4A0E4
102
{ACAD_REACTORS
330
4A0D5
102
}
330
4A0D5
100
DictionaryVariables
280
     0
  1
ByLayer
  0
DICTIONARYVAR
  5
4A0E5
102
{ACAD_REACTORS
330
4A0D5
102
}
330
4A0D5
100
DictionaryVariables
280
     0
  1
0
  0
DICTIONARYVAR
  5
4A0E6
102
{ACAD_REACTORS
330
4A0D5
102
}
330
4A0D5
100
DictionaryVariables
280
     0
  1
0
  0
DICTIONARYVAR
  5
4A0E7
102
{ACAD_REACTORS
330
4A0D5
102
}
330
4A0D5
100
DictionaryVariables
280
     0
  1
0
  0
DICTIONARYVAR
  5
4A0E8
102
{ACAD_REACTORS
330
4A0D5
102
}
330
4A0D5
100
DictionaryVariables
280
     0
  1
2
  0
DICTIONARYVAR
  5
4A0E9
102
{ACAD_REACTORS
330
4A0D5
102
}
330
4A0D5
100
DictionaryVariables
280
     0
  1
1.000000
  0
DICTIONARYVAR
  5
4A0EA
102
{ACAD_REACTORS
330
4A0D5
102
}
330
4A0D5
100
DictionaryVariables
280
     0
  1
1
  0
DICTIONARYVAR
  5
4A0EB
102
{ACAD_REACTORS
330
4A0D5
102
}
330
4A0D5
100
DictionaryVariables
280
     0
  1
1.000000
  0
DICTIONARYVAR
  5
4A0EC
102
{ACAD_REACTORS
330
4A0D5
102
}
330
4A0D5
100
DictionaryVariables
280
     0
  1
1
  0
DICTIONARYVAR
  5
4A0ED
102
{ACAD_REACTORS
330
4A0D5
102
}
330
4A0D5
100
DictionaryVariables
280
     0
  1
0
  0
DICTIONARYVAR
  5
4A0EE
102
{ACAD_REACTORS
330
4A0D5
102
}
330
4A0D5
100
DictionaryVariables
280
     0
  1

  0
DICTIONARYVAR
  5
4A0EF
102
{ACAD_REACTORS
330
4A0D5
102
}
330
4A0D5
100
DictionaryVariables
280
     0
  1
0
  0
DICTIONARYVAR
  5
4A0F0
102
{ACAD_REACTORS
330
4A0D5
102
}
330
4A0D5
100
DictionaryVariables
280
     0
  1
127
  0
DICTIONARY
  5
194
330
22
100
AcDbDictionary
280
     1
281
     1
  0
DICTIONARY
  5
188
330
97
100
AcDbDictionary
280
     1
281
     1
  3
FBXASSET
360
189
  0
DICTIONARY
  5
186
330
96
100
AcDbDictionary
280
     1
281
     1
  3
FBXASSET
360
187
  0
DICTIONARY
  5
110
330
98
100
AcDbDictionary
280
     1
281
     1
  3
BUMPTILE
360
112
  3
DIFFUSETILE
360
111
  3
FBXASSET
360
18A
  3
OPACITYTILE
360
113
  3
REFLECTIONTILE
360
114
  0
DICTIONARY
  5
104
330
87
100
AcDbDictionary
280
     1
281
     1
  3
ACAD_ROUNDTRIP_2008_TABLESTYLE_CELLSTYLEMAP
360
626B7
  0
XRECORD
  5
189
102
{ACAD_REACTORS
330
188
102
}
330
188
100
AcDbXrecord
280
     1
 70
     1
 90
429727718
  1
508B35C9-AEE7-456F-BE74-D52651303AC6
310
504B03040A0000080000B670623B3DEE336E79000000790000001B0000006175746F6465736B2D64657369676E2D7061636B6167652E786D6C3C3F786D6C2076657273696F6E3D22312E302220656E636F64696E673D227574662D3822203F3E3C666F726D6174733E3C666F726D61743E687474703A2F2F736368656D612E
310
6175746F6465736B2E636F6D2F64657369676E2D7061636B6167652F323030393C2F666F726D61743E3C2F666F726D6174733E504B0304140006080800B670623BD486FD9CA0000000F4000000130000005B436F6E74656E745F54797065735D2E786D6C7D8EC10E82300C865F65E91D8A1E8C310C0EEA1BF002731658846E
310
D98AC1B77784ABF1D8FE5FBFBF75BBCE937A534CCEB38643598122B6FEE978D0B0485F9C41B54DDD7D022595594E1A469170414C76A4D9A4D207E29CF43ECE46F218070CC6BECC4078ACAA135ACF422C856C0E68EA1BF5669944DDD7BCDE7B1F8E415D77AECB980613C2E4AC91FC167A2B244592486606FC29C8FD7F045B9A
310
EF7053A7E60B504B0304140006080800B670623B28ED286BEB0000007C01000008000000636F72652E786D6C8D90416EC3201045AF82665B6183218D6D61A254764FD00B204C5C94182C03558F5F9C3852BBEB6A467FFE9B197D71FA9E6FE8CBACC17AD7012D0820E3B41FAD9B3A48F1826B40272956EFE32F1B20A766D3C1
310
268314D3EAD3B24BDABB685CCCAAF3A3D94515828980F42D371D04FD696655A814B3235C8B45E9AB9A4C419F5D8653B2237A1CB163DE672FD6AC209BF3C08E0D1B30EB19C3FC9D72FCC6EB231EFA33EDE96BDD341517E5064B11EDFCBCAF57A3A2194156843498524CAA0FCA5B7268F9E185D42D21A2DCEC7FA0B48CFF8492
310
759155FBBB0F2C80A4F991FB408A72CB22977B50B96EB9C91F504B0304140006080800B670623B55019EA25F0000007C00000007000000636E782E786D6C4DCB3B0E80201045D1AD90E915ED2CF8AC45050C11660C8261F98AB1B07AC9C97D42D718D865D3E909258CFD00CCE24AC6E326A164D74DC0B4128928FF32603847
310
2BA13128B1252AC747C6BAB984FC68F0B87FE8960A5C09FE86CFB69FBA01504B0304140006080800B670623B7BC41AC871010000D40300000C0000006662782F636F72652E786D6CC553ED6E8320147D15C2DF4501B56B6D90A64BBB27D80B50A5CE54C120983EFEAE1F4DD7A56BBA5FF3879273EEE59E7310BE393735EA95
310
ED2AA333CC428A91D2B9292A5D66D8BB63B0C26823B835C67D2BC348CB46657880B1E0A535BE9DA1DC68A7B403549B42CDA0EC3AE530CA6B5864B8CB3F552343E91D5474A7B095F949962A6421D0502778E72C0840D390E18DC5F170E664C205F7BE2A66B62A605A75AC94C522DDEEE3651AEF837817C741F2CE92E02D592D
310
83FD6ECB76EC7595A651C2C9D02CB8AB9A8BBADC2AE954814544691A3016D0E883256BBA58278B17BA5A53CAC9507ED3E4DBE2C9265F691747B3DCA9ADC382819091F8E1162272A8933DE82182932144F88C09DF060D8140C84E1EEA8B8F1340BDCA9DB1093085F157AA97B557309586747CD0EF0B4EA64E983A6E0EAEEFCE
310
889E9EF17847386AA94B30211D2C0FDE0D3AF9A4610EAD5536E8DD1969631B593F67E381C33F5157F17725E5A636F6BF1491F980C8FC7B90E13E8A2F504B0304140006080800B670623B70102A487D0000009D0000000B0000006662782F636E782E786D6C4DCCD10A83201886E15B91FFDC95A5C30335ACCDFB886521330D
310
A76397BF1A1DECE883878F57749FD5A3B74D2F17830472A901D9F088930B8B849267CC01754AA418F3DF0D5018572BE160506249B16C274D761E8BCFBB7A179E27F65CB39A0F14D396184C9921B81F34C3ACA1B4B99ABB6E6F062A25AA5F69DF23ACBE504B0304140006080800B670623B3610CA3329010000120200003100
310
00006662782F42384135303843342D343331462D343546312D424341352D3532343432364645413344462F636F72652E786D6C8D515B6EC32010BC0AE22B55850D0E446E848992B43E412FE000495162B07854397EA176A4F62F3F2C9A9D991D58BEBB8F37F0AD7D30CE76905418026DA553C65E3A98E219B510EC04F7CEC5
310
3F3408EC30EA0E16180A7EF12E4D0B249D8DDAC68C5AA7F4020E21E80881BCE54B0783FCD2E3500D296646B856D320AFC34557A4CAEDCC133C449F0380794839A138B47B86DB2345744D7A44594FD0E1B867883594369BFE63BF7EEF793D0B054FC9A8456E548E63CE46FB674D8A58F068C6477CE9F510B582A2C1F80D1182
310
70F349E816B32D65AFB8DD62CCEB42FF274A937A52948C8DEB66893BCB021484D7734370E5D2E9F608A3EF93F3119479ABA0E50B14B8C298119A43CCC4FCFCECB8A18B6388CEE7EF5D5D4F994BD86CBBA182D76543B9FCAE2FD7B24DF103504B0304140006080800B670623B1B8617914E0100003303000030000000666278
310
2F42384135303843342D343331462D343546312D424341352D3532343432364645413344462F636E782E786D6CD593C16EC32010447F0571AD6CE3D489D20813A9877E410FBD62D82434182CC055F3F75D1292E692438FBD206B7698593D61BEFD1E2DF982108D773D6D6B460938E5B571FB9ECE6957AD29D90A1EBC4F7736
310
4A9C1CA1A759A682EF839FA72269D8C9D92654AD71C72206887E0E0A22CAF926B15E498B01E0AA19451807D01A34B919F16B070157417138917400F2F6FA41FCF0092A45DEE414C19BDC21783E4BD39D891265658C3D8DEA00A3ACE59CBC8678ACB54CB26EEB6BD7839D7E9348BE70AD9C8321B9BCA7F9A4A26C542347DEE0
310
50F09802D22BA6749A800A394DD62899107273365E3C82CFC6A55557BC06C10774B7ABE7AEC3B0F34CF06446280E154026D0542C187BA9DAB6628BF7B6DBB0E5A65B3EB1F58631DE64BBE083F7B65CC218087E22CABB042E51D1F2268F1FE12B3EA24D40D63E9CFE00120194D60B9D5BC67FE6D39CDF37E20AF817881F504B
310
0304140006080800B670623BBFEF2E3B690500003C100000340000006662782F42384135303843342D343331462D343546312D424341352D3532343432364645413344462F6F626A656374732E786D6CAD575D739B3814FD2B0CFB0C98D84E931D4227B6938EA793B6534F3BFB90198F0099B001899144EAECAFDF231018B0
310
D37A3FFC609090EEE7B94757C1FB7D915B2F54C88CB31BDB7727B64559CC938CA53776A576CE956DBD0F03C1B9EA2DB32D460A7A63EB693B0C52C1ABD24C257447AA5C8D66EF177F5832A68CDA569C13296F6C193FD182B8A4523CA1F2D94D88226EBADBBBBEDB2C1C8A4D05299F46424B222853B014F30C52ACC6287F389C
310
D85E1878FA7B18E87FB36AFAF62AAFF667A83F635211161F291B8999FAB3D5DDC5FCDA99CF6653677679E13B8BFBC5CAF1DF4D27CBCBE5F2FAF6EE1A8AA51290642C117467871F101B91C581D77CEA2C36869F3229E68CD1B8F61F1ED6361B89092D294B90C78C4A68EB793D190E7D1D9BDEE7A91E1B95FDE9F3BCEAEFE809
310
6A6D6F9F7D4B79F4275C90E7A04248AA51D5C4C738DAE06F72885AC4796EBE65D22A88A22223B995679120E2D50EB1542F098381188D4EA111AE3DB043FF20AF6F2B4AE3D7D83D65E5AECA730D4D3BAC91BD05FEA992B565D95F549CD6069B90AB2A63EACA38A45E4B6A87D781574F86817E4C2FCCC72690D62E2729520E37
310
9BAF234797BAF6D62B3BFC781FED37BA1E4F2B2F052FA9501A3E80569BB8F6A9A364D4FA67654E6F803383981F82F21591FF84F23D9882BC896C3FDBCF8C162508933B2E0AE4C69DD43F6BD2BE38DDDBF10BF86CB4FA784D37F3AF16075E67EC9030DECA1FC0A55373F5DFF3378C591FA9BDF485C10B0A8C8BA909E5262639
310
A8E72163488806A595734C81CB77D1DE0ED7604A303B76913CEC0272F412782FF88EFF4636D8AA56DF7B322474C4B767303F625997056C7B032C473C592B36CEBD15F3F9FF5233B7ABCDC74D257624A60F8658567497B14CE1EC3C80B76FD02011038F9EE9EB0F2E12387A9C844D3F09855125116D1D731DF8B43D2CF4E0A0
310
79A020C6BE946BCE0B7EA1E1219331CD73C228AF5A2DDD31A4B1DA918CE91350854D40A71723140BFA92E94E62B0626016CEFA5864A50E5977E8753CEDBEE1CBB7F52780D20E17AF0BA0F5F9B02A3AD07DCC732EB6D1EBB661421BE0C39E21BABF0FE16D22EA6929407C8DE596724C88B749B6DB5512BC7B228ADFD7CB7EA6
310
3A22397E690BA8D5D8D4E40CEC8CDA23C2C0B7D5898640101CEC9C6D331CE328CB93CAFBBAC70A642DF70DF95155945B52F08AA973C23469FD69ADEF84F7BB18F983A8F8C90E37F5D35980B2139A1C523540813E824EF83448CF7C72B598CE97D7CEEDDDDD3B6736BFBC771677EF66CE6A7E7139F7A793E9EDF2B2B3A8B624
310
0CDA13AA5F8388264EC4A0129909F3B7F5A16CEDF08128E97D680ACA4B9BE7B7B58BB638F0B00700EF36AE8B32A705658A68F83EE897FC2B41573190D1CCAF0B92D233A47CFEB019D9809933F67DD1A5467F8CF69AD9A5AE859342D45355448C64F968A371DC2D596ADC6E43D93D1B466F877A64E2893E54F23C4B40388995
310
525E5005DA3983ED45412510D3EFCA13737B3863F74BD30F2A12E5B4B5E489A025CE25500DB855B11ACE5BBFA185D35DD48D8DC3CE7DC69F2944DB42AA6F6CF09BCA622ADD08C7A36E7C6AE18000BAB08E040135C2D21C9D75B3A91B77BB746C403F38018DFE6EC939DD92F16B40BC05294B9CDA035AAD6D330AE27FE4786B
310
8E45145EA34A75BE1C263A676A35A8ACC6297337400BF16C54EF515F3F77CB77EB3583889C754FFA29081AA98E2222ADEF05DA3E63D2EDEA8B8756C05A7FB6CABC4A91CBF325398202CC952E70A008A830324BA200D5E5EF8F5F04C75DB4B0EE3340E071C98B823333B83577596BF3849B69F2085AA0FAFA212F26BEFF5877
310
FDE622B28D88A42E49E43326DA82D31E8CB006401E1DA726059ECEC168F97A6599036306A135688F9AD2E61A6EA178F4CD51974A9F2CCB9F36FE5EBD14601068D9C3BF01504B0304140006080000B670623B000000000000000000000000350000006662782F42384135303843342D343331462D343546312D424341352D35
310
32343432364645413344462F76657274696365732E62696E504B0304140006080800B670623BF270F1330600000004000000360000006662782F42384135303843342D343331462D343546312D424341352D3532343432364645413344462F747269616E676C65732E62696E636660600000504B0304140006080000B67062
310
3B000000000000000000000000370000006662782F42384135303843342D343331462D343546312D424341352D3532343432364645413344462F617474726962757465732E62696E504B0304140006080800B670623B08DA0BD19000000041010000360000006662782F42384135303843342D343331462D343546312D4243
310
41352D3532343432364645413344462F6469726563746F72792E786D6C858F410AC3201045AF22B36F53E9A60B35CBEEBAE80D244E44489C6234F4F835464A48035D0DF398FF9F8AF63D0E6CC63039F212F8F9020C7D47C6792B21C5FE7403D62A1188E2E60C98D7234A5830286103A55745067B9D86B8A3CF9C7F90C11DE6
310
07FB144396D7B6A82D282E9A152AD114D5EF2CB866EEE831B8EEA07A7BB5A8D7D61A2BAAEB7FD5F70921FF497D00504B0304140006080800B670623B3B4606F3FE000000A00100003B0000006662782F42384135303843342D343331462D343546312D424341352D3532343432364645413344462F7265736F75726365732F
310
636F72652E786D6C8D504B6E833010BD0A9A6D65B08134808CA354A427E8052C332156828DFCA97AFC9A40A576D7CDCCE87D344F8F9FBEE647F689CE6B6B7A6039850C8DB2A336530F315C4903D94970676DF82583CCC8197B5861107C72362E3BA4AC096842428D1D7107A5F71820538F74F4E0D50D6799CB1892C2DFF345
310
AABB9C306779A2934E701F5C0A906D4FD609C2A1B7D129F4BCD858C163D4E3AED163FAA9AF1A1D88F67CA98E6D35906AA82A52BFB39ABCD5CD915C86331BD86BD3B665CD8BD52C78D0F34F46E550061C419494B6843142CB0F5677F4D0D58717DA7494F26295FF31C565FCA7296A13AA728FBBD93C0896823C09C18BB5AFB4
310
9E65A6BD762BBE01504B010214000A0000080000B670623B3DEE336E79000000790000001B00000000000000000000000000000000006175746F6465736B2D64657369676E2D7061636B6167652E786D6C504B01021400140006080800B670623BD486FD9CA0000000F40000001300000000000000000000000000B2000000
310
5B436F6E74656E745F54797065735D2E786D6C504B01021400140006080800B670623B28ED286BEB0000007C010000080000000000000000000000000083010000636F72652E786D6C504B01021400140006080800B670623B55019EA25F0000007C000000070000000000000000000000000094020000636E782E786D6C50
310
4B01021400140006080800B670623B7BC41AC871010000D40300000C00000000000000000000000000180300006662782F636F72652E786D6C504B01021400140006080800B670623B70102A487D0000009D0000000B00000000000000000000000000B30400006662782F636E782E786D6C504B01021400140006080800B6
310
70623B3610CA3329010000120200003100000000000000000000000000590500006662782F42384135303843342D343331462D343546312D424341352D3532343432364645413344462F636F72652E786D6C504B01021400140006080800B670623B1B8617914E010000330300003000000000000000000000000000D10600
310
006662782F42384135303843342D343331462D343546312D424341352D3532343432364645413344462F636E782E786D6C504B01021400140006080800B670623BBFEF2E3B690500003C10000034000000000000000000000000006D0800006662782F42384135303843342D343331462D343546312D424341352D35323434
310
32364645413344462F6F626A656374732E786D6C504B01021400140006080000B670623B0000000000000000000000003500000000000000000000000000280E00006662782F42384135303843342D343331462D343546312D424341352D3532343432364645413344462F76657274696365732E62696E504B010214001400
310
06080800B670623BF270F133060000000400000036000000000000000000000000007B0E00006662782F42384135303843342D343331462D343546312D424341352D3532343432364645413344462F747269616E676C65732E62696E504B01021400140006080000B670623B00000000000000000000000037000000000000
310
00000000000000D50E00006662782F42384135303843342D343331462D343546312D424341352D3532343432364645413344462F617474726962757465732E62696E504B01021400140006080800B670623B08DA0BD1900000004101000036000000000000000000000000002A0F00006662782F42384135303843342D3433
310
31462D343546312D424341352D3532343432364645413344462F6469726563746F72792E786D6C504B01021400140006080800B670623B3B4606F3FE000000A00100003B000000000000000000000000000E1000006662782F42384135303843342D343331462D343546312D424341352D3532343432364645413344462F72
310
65736F75726365732F636F72652E786D6C504B0506000000000E000E0080040000651100000000
  0
XRECORD
  5
187
102
{ACAD_REACTORS
330
186
102
}
330
186
100
AcDbXrecord
280
     1
 70
     1
 90
429727718
  1
887D55A9-D0DD-414E-B741-A7DCD4DA2B4C
310
504B03040A0000080000B670623B3DEE336E79000000790000001B0000006175746F6465736B2D64657369676E2D7061636B6167652E786D6C3C3F786D6C2076657273696F6E3D22312E302220656E636F64696E673D227574662D3822203F3E3C666F726D6174733E3C666F726D61743E687474703A2F2F736368656D612E
310
6175746F6465736B2E636F6D2F64657369676E2D7061636B6167652F323030393C2F666F726D61743E3C2F666F726D6174733E504B0304140006080800B670623BD486FD9CA0000000F4000000130000005B436F6E74656E745F54797065735D2E786D6C7D8EC10E82300C865F65E91D8A1E8C310C0EEA1BF002731658846E
310
D98AC1B77784ABF1D8FE5FBFBF75BBCE937A534CCEB38643598122B6FEE978D0B0485F9C41B54DDD7D022595594E1A469170414C76A4D9A4D207E29CF43ECE46F218070CC6BECC4078ACAA135ACF422C856C0E68EA1BF5669944DDD7BCDE7B1F8E415D77AECB980613C2E4AC91FC167A2B244592486606FC29C8FD7F045B9A
310
EF7053A7E60B504B0304140006080800B670623BBC1638F5EC0000007C01000008000000636F72652E786D6C8D90416EC3201045AF82665B61836BE2D8C24471DB9CA01740401C94182C03558F5F9C3852BBEB6A467FFE9B197D7EF89E6EE8CB2CC17AD7032D0820E394D7D68D3DA478C67B4007C117EFE32F1B202727D3C3
310
2A83E0E3E2D3BC49CABB685CCCAAF3DA6CA20CC14440EA969B1E82BA98491632C5EC08D76296EA2A4753D06797E194AC468F2356E77DF66CCD02825543D50CACC62D39ED70FDC68EB8FD68F6F8787A6784342D1DDA1D2F5758F068A7E77DB518198D065111D2624A31A93E69DD11D6D5EC85EC3B4278B9DAFF4069D6FF8492
310
75F1B5DADE7D600104CD8FDC0782976B16B9DC83CA75CD4DFC00504B0304140006080800B670623B55019EA25F0000007C00000007000000636E782E786D6C4DCB3B0E80201045D1AD90E915ED2CF8AC45050C11660C8261F98AB1B07AC9C97D42D718D865D3E909258CFD00CCE24AC6E326A164D74DC0B4128928FF326038
310
472BA13128B1252AC747C6BAB984FC68F0B87FE8960A5C09FE86CFB69FBA01504B0304140006080800B670623B3586FFB671010000D40300000C0000006662782F636F72652E786D6CC553ED6E8320147D15C2DF4541A76D6D90A6DDD627D80B50A4CE54C120983EFEAE1F4DD7A55BBA5FF3879273EEE59E7310B6393735EA
310
95ED2AA3731C851423A5A5292A5DE6D8BB63B0C268C39935C67D29C3488B46E578803167A535BE9D2169B453DA01AA4DA16650749D7218C91A1639EEE4876A4428BC838AEE14B6429E44A9C228041AEA38EB9C0501681A32BC313F1ECE8C4C3867DE57C5CC56054CAB8E95B298A7F12E5EEED224C8E87E11242FE936C8DE96
310
AB60BB7F4D295D66D12E5B30323473E6AAE6A24E5A259C2A308F29CD82280A68FC1E256B9AAE93F489AED694323294DF34F9B678B0C957DA3DC7B3DCA9ADC33C022123F1CD2D44E450277AD04338234388F01913BE0D1A0281909D38D4171F27807A259DB1093085F157AA17B557309586747CD0CF0B46A64E983A6E0EAEEF
310
CE881F9EF1FB8E70D44297604238581EBC1B74B249C31C5AAB6CD0BB33D2C636A27ECCC62F0EFF445DC5DF95244D6DEC7F2922F30191F9F720C37DE49F504B0304140006080800B670623B4220A0FF7D0000009D0000000B0000006662782F636E782E786D6C4DCCD10A83201886E15B91FFDCE542CB0335D0EC3E6259C84A
310
C3E9D8E5AF46073BFAE0E1E315DD675BD1DBA5978F41C2FD4600B9F088930F8B849267CC01754AA418F3DF0D50183727E164506249B1EC174D6E1ECB9A0F5D7D785E68DB8151CD286E5A5363CA6B8A39E90D36D40E96B086F55A43A544F52B1D7B86D517504B0304140006080800B670623B2FA3FEDE290100001202000031
310
0000006662782F45374635344235342D363743322D343832342D383044432D4334454645303536354442422F636F72652E786D6C8D515B6EC32010BC0AE22B55850D2E386E848994D7097A0117488A1283C5A3CAF10BB523B57FF961D1ECCCECC0F2ED7DBC816FED8371B687A4C210682B9D32F6D2C314CFA883602BB8772E
310
FEA141608751F7B0C050F08B77695A20E96CD43666D43AA5177008414708E42D5F7A18E4971E876A483133C2B59A06791D2EBA22556E679EE021FA1C00CC43CA09C5717D6274C7286AD7FB06D1AEA1A8C3873DDAD3E3E98859CB0EBB1DAF67A1E02919B5C88DCA71CCD968FFAC49110B1ECDF8882FBD1EA256503418BF2342
310
106E3E08DD60B6A1EC15771B8C795DE8FF4469524F8A92B1F1AD59E2CEB20005E1F5DC105CB9F4797B84D1F7C9F908CABC55D0F2050A5C61CC1AD2F27A26E6E767C7962E8E213A9FBF7775FDCC5CC266DB960A5E970DE5F2BBBE5CCB36C50F504B0304140006080800B670623B1B8617914E01000033030000300000006662
310
782F45374635344235342D363743322D343832342D383044432D4334454645303536354442422F636E782E786D6CD593C16EC32010447F0571AD6CE3D489D20813A9877E410FBD62D82434182CC055F3F75D1292E692438FBD206B7698593D61BEFD1E2DF982108D773D6D6B460938E5B571FB9ECE6957AD29D90A1EBC4F77
310
364A9C1CA1A759A682EF839FA72269D8C9D92654AD71C72206887E0E0A22CAF926B15E498B01E0AA19451807D01A34B919F16B070157417138917400F2F6FA41FCF0092A45DEE414C19BDC21783E4BD39D891265658C3D8DEA00A3ACE59CBC8678ACB54CB26EEB6BD7839D7E9348BE70AD9C8321B9BCA7F9A4A26C542347DE
310
E050F09802D22BA6749A800A394DD62899107273365E3C82CFC6A55557BC06C10774B7ABE7AEC3B0F34CF06446280E154026D0542C187BA9DAB6628BF7B6DBB0E5A65B3EB1F58631DE64BBE083F7B65CC218087E22CABB042E51D1F2268F1FE12B3EA24D40D63E9CFE00120194D60B9D5BC67FE6D39CDF37E20AF817881F50
310
4B0304140006080800B670623B29652116630500003C100000340000006662782F45374635344235342D363743322D343832342D383044432D4334454645303536354442422F6F626A656374732E786D6CAD575D739B3814FD2B0CFB0C989834C90EA1639B24E3E9A6EDD4D3CE3E64C623834CD8006224913AFDF57B040203
310
B65BEF871F0C12D2FD3CF7E8CA7FBFCB33E3957291B2E2D674ED8969D02262715A24B76625B7D6B569BC0F7CCE98EC2D338D82E4F4D654D366E0279C55A59E8AE99654991CCDDECFFF3444440B6A1A514684B83545F44C7362934AB2988A173B2692D8C97667BB76B3702836E1A47C1E092D09A78584A5982F20C5688C7287
310
C389E904BEA3BE07BEFAD7ABA6A75739B53F43FD69212429A20365233153D70BEF2E2E6FAC4BCF9B5ADEBB0BD79ADFCF43CBBD9A4E16EF168B9BD9DD0D140BC921495BC2E9D60C1E101B9E46BED37CEA2CD6861F3329624541A3DA7F7858DBAC25C6B4A4458C3CA654405BCFEBC970E8AAD8F43E4FD558ABEC4F9FE7557F47
310
4F506B7BFBEC5BCA367FC105710E2AB8A00A554D7CB4A30DFE26FBA86D18CBF4B75418399194A72433B274C3097F33032C554B027F2046A1932B842B0FCCC0DDCBEBDB8AD2F835768F59B9ADB24C41D30C6A64AF817F2A456D59FA83F2E3DA60137255A585BCD60EC9B7929AC18DEFD49381AF1ED30BFDB109A4B1CD488294
310
C3CDE6EBC8D185AABD6568061FEE37BB95AAC7E3CA4BCE4ACAA5820FA0D526AE7DAA2869B5EE5999531BE0CC20E6FBA07C41E43FA27CF7A6206F3CDD793B4F6B919C1462CB788EDCD893FA674CDA17AB7B3B7C019F8D561FAEE966FED562DFE98C1D12C6A9FC015C2A35D7FF3D7FC398F591DA4B5FE0BFA2C0189FEA50AE22
310
92817A1ED3020951A03432862970F976B33383259812CC8E5D240BBA801CBCF8CE2BBEE3BF910DB6AAD5F79E05123AE2DB33981FB1ACCB02B69D00CB014FD68AB573A7627EF9BFD4CC2C5C7D58557C4B22FAA88925A4DBB44825CECE3D78FB060D1231F0E885BE7D673C86A3874958F593906B5502D1563157814FDAC3420D
310
F69A070A22EC4B98E23CFF171A1E5311D12C23056555ABA53B8614563B92D17D02AAB009E8F46284624E5F53D5490C560CCCC2591FF1B45421EB0EBD8EA7ED13BE7C5D7E0428CD60FEF60779EB13E6664FF711CB185F6FDED60D139A001FF60CD1FD6D086F1D51474901E26B2CB794A343BC8ED3EDB612E0DD2351FCB65CF4
310
33D511C9E14B5B40ADC6A6263DB0336A8F700DDF56271A024E70B0B3629DE21847591E55DED73D56206AB927E46FAABC5C939C55853C274C93D69FD6FA4E78BF8B11DF898C9ECD60553FAD39283BA6F18984AA23E8884F83F45C5F5F859797B31B2B9C84A1E5B9DE9D35BFF25C6B76152E422F9C5DCC3D847F5801ED09D5AF
310
41441327A25FF15487F9EB725FB666F048A4701E9A827292E6F97569A32DF61DEC01C0BB8DCBBCCC684E0B49147C1FD54BF685A0AB18C868E6973949E819523E3DAC463660E68C7D9F55A9D1EFA3BD7A76A16AE1A810F95CE59B82A4D968A376DC2E8B44BBDD86B27B368CDE0ED548C7137DA860591A83706223A12CA712B4
310
7306DBF39C0A20A6DF95C7FAF670C6EED7A61F946493D1D6926782963813403548A78AE470DEF80D2D9CEAA26E4D1C76F60BFE74219A06527D6B82DF641A51616F703CAAC6A7160E08A00BEB4810A0274592A1B36E3675E36E978A0DE80727A0D6DF2D39A75BD27E0D8837276589537B40ABB56D5A41F48F1C6FCD3188C4EB
310
A6929D2FFB89CE995A4D00AE813BDD032DC48B56BD437DFDDC2DD7AED70C2272D63DE9A72068A45A92F0A4BE17A8A06B9366E16707AD80B1FC649459952097E74BB23805982B55E0401150A165964402AA8BDF9F3E7386BB686EDCA780C0D382E5392BF460A6EFB2C6EA1937D3F809B440D5F5435C4C5CF7A9EEFAF54564BD
310
2182DA24162F98680B4E7930C21A0079709CEAEB99A372305ABE0C0D7D6078105A83F6A0296DAEE1068A47DD1C55A9F4C9B2FC69E3EFD44B81028E963DF81B504B0304140006080000B670623B000000000000000000000000350000006662782F45374635344235342D363743322D343832342D383044432D433445464530
310
3536354442422F76657274696365732E62696E504B0304140006080800B670623BF270F1330600000004000000360000006662782F45374635344235342D363743322D343832342D383044432D4334454645303536354442422F747269616E676C65732E62696E636660600000504B0304140006080000B670623B00000000
310
0000000000000000370000006662782F45374635344235342D363743322D343832342D383044432D4334454645303536354442422F617474726962757465732E62696E504B0304140006080800B670623B08DA0BD19000000041010000360000006662782F45374635344235342D363743322D343832342D383044432D4334
310
454645303536354442422F6469726563746F72792E786D6C858F410AC3201045AF22B36F53E9A60B35CBEEBAE80D244E44489C6234F4F835464A48035D0DF398FF9F8AF63D0E6CC63039F212F8F9020C7D47C6792B21C5FE7403D62A1188E2E60C98D7234A5830286103A55745067B9D86B8A3CF9C7F90C11DE607FB144396
310
D7B6A82D282E9A152AD114D5EF2CB866EEE831B8EEA07A7BB5A8D7D61A2BAAEB7FD5F70921FF497D00504B0304140006080800B670623B6378F24DFF000000A00100003B0000006662782F45374635344235342D363743322D343832342D383044432D4334454645303536354442422F7265736F75726365732F636F72652E
310
786D6C8D504B6E833010BD0A9A6D65B0094E42641C85B639412F6099496225D8C89FAAC7AF09546A77DDCC8CDE47F3F4C4F16B7C149FE88371B603565228D06A37187BED20C50BD9437194C23B177FC9A0B06AC40E6618A4B87A97A615D2CE46B431A3D60DB8822A048C50E8473E3A08FA86A32A558A5911EEE5A4F45D5DB1
310
6465A6B34E8A107D0E502C4FE609D26370C96B0CA25A58295232C3AA3143FE692E063D485EF7F5AEE71BD2D2F39634AFFC44DAF7DD9E9CCE6F9CD25DCBFA762BAAD92C4534E34F46ED51451C40D694B6843142EB0FD61C283F34FC85EE0F948A6A96FF31A569F8A729191B37F51A77B105902C0779125254735F793DCBCC7B
310
EE567E03504B010214000A0000080000B670623B3DEE336E79000000790000001B00000000000000000000000000000000006175746F6465736B2D64657369676E2D7061636B6167652E786D6C504B01021400140006080800B670623BD486FD9CA0000000F40000001300000000000000000000000000B20000005B436F6E
310
74656E745F54797065735D2E786D6C504B01021400140006080800B670623BBC1638F5EC0000007C010000080000000000000000000000000083010000636F72652E786D6C504B01021400140006080800B670623B55019EA25F0000007C000000070000000000000000000000000095020000636E782E786D6C504B010214
310
00140006080800B670623B3586FFB671010000D40300000C00000000000000000000000000190300006662782F636F72652E786D6C504B01021400140006080800B670623B4220A0FF7D0000009D0000000B00000000000000000000000000B40400006662782F636E782E786D6C504B01021400140006080800B670623B2F
310
A3FEDE290100001202000031000000000000000000000000005A0500006662782F45374635344235342D363743322D343832342D383044432D4334454645303536354442422F636F72652E786D6C504B01021400140006080800B670623B1B8617914E010000330300003000000000000000000000000000D2060000666278
310
2F45374635344235342D363743322D343832342D383044432D4334454645303536354442422F636E782E786D6C504B01021400140006080800B670623B29652116630500003C10000034000000000000000000000000006E0800006662782F45374635344235342D363743322D343832342D383044432D4334454645303536
310
354442422F6F626A656374732E786D6C504B01021400140006080000B670623B0000000000000000000000003500000000000000000000000000230E00006662782F45374635344235342D363743322D343832342D383044432D4334454645303536354442422F76657274696365732E62696E504B01021400140006080800
310
B670623BF270F13306000000040000003600000000000000000000000000760E00006662782F45374635344235342D363743322D343832342D383044432D4334454645303536354442422F747269616E676C65732E62696E504B01021400140006080000B670623B0000000000000000000000003700000000000000000000
310
000000D00E00006662782F45374635344235342D363743322D343832342D383044432D4334454645303536354442422F617474726962757465732E62696E504B01021400140006080800B670623B08DA0BD190000000410100003600000000000000000000000000250F00006662782F45374635344235342D363743322D34
310
3832342D383044432D4334454645303536354442422F6469726563746F72792E786D6C504B01021400140006080800B670623B6378F24DFF000000A00100003B00000000000000000000000000091000006662782F45374635344235342D363743322D343832342D383044432D4334454645303536354442422F7265736F75
310
726365732F636F72652E786D6C504B0506000000000E000E0080040000611100000000
  0
XRECORD
  5
112
102
{ACAD_REACTORS
330
110
102
}
330
110
100
AcDbXrecord
280
     1
270
     1
271
     1
  0
XRECORD
  5
111
102
{ACAD_REACTORS
330
110
102
}
330
110
100
AcDbXrecord
280
     1
270
     1
271
     1
  0
XRECORD
  5
18A
102
{ACAD_REACTORS
330
110
102
}
330
110
100
AcDbXrecord
280
     1
 70
     0
 90
1778669749
  1
9BF507EE-FAF7-4A99-A33D-4EE51894BC40
310
504B03040A0000080000B670623B3DEE336E79000000790000001B0000006175746F6465736B2D64657369676E2D7061636B6167652E786D6C3C3F786D6C2076657273696F6E3D22312E302220656E636F64696E673D227574662D3822203F3E3C666F726D6174733E3C666F726D61743E687474703A2F2F736368656D612E
310
6175746F6465736B2E636F6D2F64657369676E2D7061636B6167652F323030393C2F666F726D61743E3C2F666F726D6174733E504B0304140006080800B670623BD486FD9CA0000000F4000000130000005B436F6E74656E745F54797065735D2E786D6C7D8EC10E82300C865F65E91D8A1E8C310C0EEA1BF002731658846E
310
D98AC1B77784ABF1D8FE5FBFBF75BBCE937A534CCEB38643598122B6FEE978D0B0485F9C41B54DDD7D022595594E1A469170414C76A4D9A4D207E29CF43ECE46F218070CC6BECC4078ACAA135ACF422C856C0E68EA1BF5669944DDD7BCDE7B1F8E415D77AECB980613C2E4AC91FC167A2B244592486606FC29C8FD7F045B9A
310
EF7053A7E60B504B0304140006080800B670623BCA089DFFEC0000007C01000008000000636F72652E786D6C8D90416E83301045AF62CDB632D8402020E32882F604BD80653BC44AB011B6AB1EBF262152BBEB6A467FFE9B197D76FA9EEFE84BAFDE38DB03CD08206DA553C64E3DC470C1474027CE56E7C22F1B202B66DDC3
310
260367D3EAE2B24BD2D9A06D48AA754AEFA2F05E0740F29E9A1EBCBCEA59642286E4F0B76C11F226269DD15797E0188D42CF2346A57DE662F40ABCAEC77628C6120F654571D50C04B7F5B9C1E3997CD4F550BE3745C3F20DE62C98F9755FAE5A04AD801784B498524C8A4F5A75E4D055873772EC0861F966FF03C545FD138A
310
C686B2D8DF7D621E384D8F3C069CE55B16A93C824A75CB8DFF00504B0304140006080800B670623B55019EA25F0000007C00000007000000636E782E786D6C4DCB3B0E80201045D1AD90E915ED2CF8AC45050C11660C8261F98AB1B07AC9C97D42D718D865D3E909258CFD00CCE24AC6E326A164D74DC0B4128928FF326038
310
472BA13128B1252AC747C6BAB984FC68F0B87FE8960A5C09FE86CFB69FBA01504B0304140006080800B670623B68FC0B7272010000D40300000C0000006662782F636F72652E786D6CC5535B6E833010BC8AE5DF0A6C1E8124328E22D29EA01770C0A128602363A31CBFCB234A53A555FA553EC09AD9F5CE8C31DB5DDA060D
310
D2F4B556190E7C8A9154852E6B5565D8D993B7C668C799D1DA7E29C3488956667884316795D1AE5BA0422B2B950554E9522EA0E87B69312A1A5864B82F3E642B7CE12C54F467BF13C55954D20F7CA0A18EB3DE1A1080E621E31BF3D3F1C2C88C73E65C5D2E6C5DC2B4FA544B8379921C36797888BC3C8A032F4E73EA6D927D
310
EA1DF6F42D49F2E8350D5346C666CE6CDD5ED515460A2B4BCC434A375E1078347C0FE22D5D6DE3D50B5D6F2965642CBF6B725DF96493AB958DC245EEDCD6631E809089F8E61622B2A81703E8219C913144F84C09DF070D8140C8561C9BAB8F3340832CAC363130A576376A108D933095FA747AD0CF0B46E64E983A6D0EAE1F
310
CE089F9EF1FB8E70D44255604258581E9D1D75B259C3125A278D37D80B52DAB4A279CEC62F0EFF44DDC43F9454E8469BFF5244960322CBEF41C6FBC83F01504B0304140006080800B670623B0F71DDB67E0000009D0000000B0000006662782F636E782E786D6C4DCCD10A83201886E15B91FFDCA54DB73F502386BB8F5816
310
32D3703976F9ABD1C18E3E78F87855FB990379BBFCF2296AE02706C4C5471A7C9C349475A408A4352AA7B4FEDD80C47E761A7606A3A69CCA72D0E0C6BE8475D3E0E3F3409428EA6B27A84079A782899AA2EC1A7AE3ECCC2FD858CB2D544655BFD2B67BD87C01504B0304140006080800B670623BE134B4FB28010000120200
310
00310000006662782F38353834323741342D343835462D343034322D383541392D4331303331363839454531452F636F72652E786D6C8D515B6EC32010BC0AE22B55850D0EA424C24451959EA0172086A42831583CAA1CBF503B52FB971F16CDCECC0EACD8DFC71BF836215AEF7A481A0C817183D7D65D7A98D3197108F652
310
04EFD31F1A044E8DA6871586525C82CFD3020DDE25E352419DD76601558C264130DCCAA58771F832A36A544E8511AFCDA486ABBA988634A55D7852C4144A00300FA927949C71DABD1D28A29C7D208A6987383B6CD13BC16BB2E1DBE3911C453B0BA5C8D9EA456E758963CFD684674DAA588A64C747FC2118958C86B2C3788B
310
0841B8FB247487D98EB257CC77188BB6D2FF89F2A49F1465EBD2BA5BE2CEB2082511EDDC9042FB7CBA3DC298FBE4430275DE2A9AE1054ADC60CC08E3A29D89E5F9C5714317C7987C28DFBBBA9E0A97B0D97643A568EB864AF95D5FA9759BF207504B0304140006080800B670623B1B8617914E010000330300003000000066
310
62782F38353834323741342D343835462D343034322D383541392D4331303331363839454531452F636E782E786D6CD593C16EC32010447F0571AD6CE3D489D20813A9877E410FBD62D82434182CC055F3F75D1292E692438FBD206B7698593D61BEFD1E2DF982108D773D6D6B460938E5B571FB9ECE6957AD29D90A1EBC4F
310
77364A9C1CA1A759A682EF839FA72269D8C9D92654AD71C72206887E0E0A22CAF926B15E498B01E0AA19451807D01A34B919F16B070157417138917400F2F6FA41FCF0092A45DEE414C19BDC21783E4BD39D891265658C3D8DEA00A3ACE59CBC8678ACB54CB26EEB6BD7839D7E9348BE70AD9C8321B9BCA7F9A4A26C542347
310
DEE050F09802D22BA6749A800A394DD62899107273365E3C82CFC6A55557BC06C10774B7ABE7AEC3B0F34CF06446280E154026D0542C187BA9DAB6628BF7B6DBB0E5A65B3EB1F58631DE64BBE083F7B65CC218087E22CABB042E51D1F2268F1FE12B3EA24D40D63E9CFE00120194D60B9D5BC67FE6D39CDF37E20AF817881F
310
504B0304140006080800B670623B5933D422630500003B100000340000006662782F38353834323741342D343835462D343034322D383541392D4331303331363839454531452F6F626A656374732E786D6CAD575B6FA33814FE2B887D0642934E9B156594264D158D3A534DD4D13E548A0C38942D60649B4EBABF7E3F8321
310
40924EF6928780CDF1B97EE762EFF32E4B8D37CA45C2F21BD3B547A641F39045491EDF98A5DC5AD7A6F1D9F73863B243661A39C9E88DA9B64DDF8B392B0BBD15D12D295339D85DDEFE618890E6D434C2940871638AF08566C426A5641115AF764424B1E3EDCE76ED9AB0CF36E6A47819302D08A7B984A6D8CFC1C5A89572FB
310
CB91E9F89EA3BEFB9EFAD754E3D3544E654F5F7E920B49F2F040D880CDD89D2CEE2E2EA7D6E56432B6269F2E5CEB7679BBB0DCABF168FE693E9FCEEEA6102C240727AD09A75BD3BF876F78127A4EFDA9D5582B7E4CA590E5390D2BFB6161A5B3E618D182E611E2985001691DAB47FDA5AB7CD3F93C566B2DB2BB7D9E55DD13
310
1D468DEECDB3AB290BFE8409E21C54704115AA6AFF68436BFC8DF65E0B184BF5B74418199194272435D224E084BF9B3E481589EFF5D828747285706581E9BB7B7E5D5D911ABFC6EE312DB7659A2A689A7E85EC0DF04FA5A8344BFEA2FCB834E8845895492EAFB541F2BDA0A63FF59C6AD3F7D4637CA13FD68E34B629891172
310
98597F1D183A57B9B75A98FE9765B05BAB7C3C2EBCE0ACA05C2AF8005A4DE09AA7F29216EB9E15397500C6F47CBE77CA7778FE2BD277AF0AE2C693DD6437D1522427B9D8329E2136F6A8FA19A3E6C56ADF0E5F50CF06D48734EDCEBF22F69C56D97EC138153F804B85E6FABFC7AFEFB32E523BE1F3BD372418E363EDCA7548
310
52949E8724474014288D94610BB57C1BEC4C7F854A89CA8E5324F55B871CBC78CE1BBEE3BFE68D6A5589EF3C730474506FCFA8FCF0659516D0ED04580EEA6425581B77CAE797FF4BCECC16EB2FEB926F49481F746159D06D922712BD730FDEAE42BD40F42C7AA5EF3F198F60E86110D6DD20645A9480B795CF95E3E3A659A8
310
C55E724F408873315335CFFB8584874484344D494E59D94869DB90C26A5B64F49C802CAC1D3ABE18A098D3B7444D123D8A9E5AE8F5214F0AE5B2B6E9B575DA3E61CBD3EA2B4009FA940524DD1305FB6A1FB294F14DF0BEA90BA109ECE1481FDC3FFAE8D60E75141700BE82725371B4873751B2DD960265F788137FACE6DD40
310
B575E4F0A5C99F46629D92131467A41EE11ABD8D4CCC039CA0AFB37C93A08B232B8F0AEFCA1E0A1015DF13FC83322B362463652ECF71D3A8B1A7D1BE65DE1D62C44F22C317D35F574FEB16153BA2D13E543D10A80E74C4A65E78A6B7CBCBD1D5DD9DB59C2DAFACC96C3AB566E3F1C29ADCDD5DBAD7D3C9ED7C822ED74F80A6
310
41755310DE4443F44A9E68373FADF6596BFA0F440AE7BECE2727AE9F4F2B1B53B1E7E00CF0DD1E5C65454A339A4BA2D0FBA05ED2EF0443458F47BDBFCA484CCFE0F2ED7E3DD0013B679C7B5499467F0ECEEADDB9CA85A34CE44B99053949D2C1416DB85DE4B136BB7165FBAC0B7AB3542BED4F8CA182A549847A1319316519
310
95A83A67147B9E5101C47487F2485F1ECE38FD568F839204296D3479219888530154036E6528FBFBC66F98E0D4107563A2D7D9AFF8D389681A08F58D89F22693900A3B407754734FC51C10C010D6D640809EE4718AC1BA3ED4AEDB53CA37283F68805A7E4B72CEB0A4EDEAD5DD8C14059A76AFAA56BA6901E13F32BC51C720
310
12AF41295B5BF61BAD3195181FB506E6B40F4C10AF5AF40EF9F5B159AE5DD1F43C72D635E94310D45C2D49785C5D0B94D3B54AB3C5A38349C0587D338AB48C11CBF339599C02CCA54A70A008A8D03C0B2201D5F9EFCF8F9CE12A9A19CB0410789EB32C63B95ECCF455D658BFE0621A3DA32C5075FB101723D77DAE867E7D0F
310
D90444509B44E2151B4DC2290B065803200FBAA9BE9D392A0603F2D5C2D00D6302A615680F66D2FA166E2079D4C551A54AB758161FCEFD4E450A14704CECFEDF504B0304140006080000B670623B000000000000000000000000350000006662782F38353834323741342D343835462D343034322D383541392D4331303331
310
363839454531452F76657274696365732E62696E504B0304140006080800B670623BF270F1330600000004000000360000006662782F38353834323741342D343835462D343034322D383541392D4331303331363839454531452F747269616E676C65732E62696E636660600000504B0304140006080000B670623B000000
310
000000000000000000370000006662782F38353834323741342D343835462D343034322D383541392D4331303331363839454531452F617474726962757465732E62696E504B0304140006080800B670623B08DA0BD19000000041010000360000006662782F38353834323741342D343835462D343034322D383541392D43
310
31303331363839454531452F6469726563746F72792E786D6C858F410AC3201045AF22B36F53E9A60B35CBEEBAE80D244E44489C6234F4F835464A48035D0DF398FF9F8AF63D0E6CC63039F212F8F9020C7D47C6792B21C5FE7403D62A1188E2E60C98D7234A5830286103A55745067B9D86B8A3CF9C7F90C11DE607FB1443
310
96D7B6A82D282E9A152AD114D5EF2CB866EEE831B8EEA07A7BB5A8D7D61A2BAAEB7FD5F70921FF497D00504B0304140006080800B670623BD9A3B367FE000000A00100003B0000006662782F38353834323741342D343835462D343034322D383541392D4331303331363839454531452F7265736F75726365732F636F7265
310
2E786D6C8D504B6E833010BD0A9A6D65B01D0201194711694FD00B586642AD043BF2A7EAF16B122AB5BB6E6646EFA3797AE2F8B5DC8A4FF4C1383B002B291468B59B8C9D0748F1420E501CA5F0CEC55F3228AC5A708015062966EFD27D83B4B3116DCCA875136EA00A012314FA968F0182FEC045952AC5AC08D7F2AEF455CD
310
58B232D3592745883E07289E4FD609D26370C96B0CA27AB252A464A64D63A6FCD35C0C7A904D73EE467EE664DCD58CD4ED4849D79C5A723ED1B7A61977AF2D6F45B59AA58866F9C9A83DAA8813484E6947182394BFB3BAA7FBBEDEBFD0434FA9A856F91F53BA4FFF342563E38E6F719FB60092E5200F428A6AED2BAF479979
310
AFDDCA6F504B010214000A0000080000B670623B3DEE336E79000000790000001B00000000000000000000000000000000006175746F6465736B2D64657369676E2D7061636B6167652E786D6C504B01021400140006080800B670623BD486FD9CA0000000F40000001300000000000000000000000000B20000005B436F6E
310
74656E745F54797065735D2E786D6C504B01021400140006080800B670623BCA089DFFEC0000007C010000080000000000000000000000000083010000636F72652E786D6C504B01021400140006080800B670623B55019EA25F0000007C000000070000000000000000000000000095020000636E782E786D6C504B010214
310
00140006080800B670623B68FC0B7272010000D40300000C00000000000000000000000000190300006662782F636F72652E786D6C504B01021400140006080800B670623B0F71DDB67E0000009D0000000B00000000000000000000000000B50400006662782F636E782E786D6C504B01021400140006080800B670623BE1
310
34B4FB280100001202000031000000000000000000000000005C0500006662782F38353834323741342D343835462D343034322D383541392D4331303331363839454531452F636F72652E786D6C504B01021400140006080800B670623B1B8617914E010000330300003000000000000000000000000000D3060000666278
310
2F38353834323741342D343835462D343034322D383541392D4331303331363839454531452F636E782E786D6C504B01021400140006080800B670623B5933D422630500003B10000034000000000000000000000000006F0800006662782F38353834323741342D343835462D343034322D383541392D4331303331363839
310
454531452F6F626A656374732E786D6C504B01021400140006080000B670623B0000000000000000000000003500000000000000000000000000240E00006662782F38353834323741342D343835462D343034322D383541392D4331303331363839454531452F76657274696365732E62696E504B01021400140006080800
310
B670623BF270F13306000000040000003600000000000000000000000000770E00006662782F38353834323741342D343835462D343034322D383541392D4331303331363839454531452F747269616E676C65732E62696E504B01021400140006080000B670623B0000000000000000000000003700000000000000000000
310
000000D10E00006662782F38353834323741342D343835462D343034322D383541392D4331303331363839454531452F617474726962757465732E62696E504B01021400140006080800B670623B08DA0BD190000000410100003600000000000000000000000000260F00006662782F38353834323741342D343835462D34
310
3034322D383541392D4331303331363839454531452F6469726563746F72792E786D6C504B01021400140006080800B670623BD9A3B367FE000000A00100003B000000000000000000000000000A1000006662782F38353834323741342D343835462D343034322D383541392D4331303331363839454531452F7265736F75
310
726365732F636F72652E786D6C504B0506000000000E000E0080040000611100000000
  0
XRECORD
  5
113
102
{ACAD_REACTORS
330
110
102
}
330
110
100
AcDbXrecord
280
     1
270
     1
271
     1
  0
XRECORD
  5
114
102
{ACAD_REACTORS
330
110
102
}
330
110
100
AcDbXrecord
280
     1
270
     1
271
     1
  0
CELLSTYLEMAP
  5
626B7
102
{ACAD_REACTORS
330
104
102
}
330
104
100
AcDbCellStyleMap
 90
        3
300
CELLSTYLE
  1
TABLEFORMAT_BEGIN
 90
        5
170
     1
 91
        0
 92
    32768
 62
   257
 93
        1
300
CONTENTFORMAT
  1
CONTENTFORMAT_BEGIN
 90
        0
 91
        0
 92
      512
 93
        0
300

 40
0.0
140
1.0
 94
        5
 62
     0
340
11
144
0.25
309
CONTENTFORMAT_END
171
     1
301
MARGIN
  1
CELLMARGIN_BEGIN
 40
0.06
 40
0.06
 40
0.06
 40
0.06
 40
0.18
 40
0.18
309
CELLMARGIN_END
 94
        6
 95
        1
302
GRIDFORMAT
  1
GRIDFORMAT_BEGIN
 90
        0
 91
        1
 62
     0
 92
       -2
340
0
 93
        0
 40
0.045
309
GRIDFORMAT_END
 95
        2
302
GRIDFORMAT
  1
GRIDFORMAT_BEGIN
 90
        0
 91
        1
 62
     0
 92
       -2
340
0
 93
        0
 40
0.045
309
GRIDFORMAT_END
 95
        4
302
GRIDFORMAT
  1
GRIDFORMAT_BEGIN
 90
        0
 91
        1
 62
     0
 92
       -2
340
0
 93
        0
 40
0.045
309
GRIDFORMAT_END
 95
        8
302
GRIDFORMAT
  1
GRIDFORMAT_BEGIN
 90
        0
 91
        1
 62
     0
 92
       -2
340
0
 93
        0
 40
0.045
309
GRIDFORMAT_END
 95
       16
302
GRIDFORMAT
  1
GRIDFORMAT_BEGIN
 90
        0
 91
        1
 62
     0
 92
       -2
340
0
 93
        0
 40
0.045
309
GRIDFORMAT_END
 95
       32
302
GRIDFORMAT
  1
GRIDFORMAT_BEGIN
 90
        0
 91
        1
 62
     0
 92
       -2
340
0
 93
        0
 40
0.045
309
GRIDFORMAT_END
309
TABLEFORMAT_END
  1
CELLSTYLE_BEGIN
 90
        1
 91
        1
300
_TITLE
309
CELLSTYLE_END
300
CELLSTYLE
  1
TABLEFORMAT_BEGIN
 90
        5
170
     1
 91
        0
 92
        0
 62
   257
 93
        1
300
CONTENTFORMAT
  1
CONTENTFORMAT_BEGIN
 90
        0
 91
        0
 92
      512
 93
        0
300

 40
0.0
140
1.0
 94
        5
 62
     0
340
11
144
0.18
309
CONTENTFORMAT_END
171
     1
301
MARGIN
  1
CELLMARGIN_BEGIN
 40
0.06
 40
0.06
 40
0.06
 40
0.06
 40
0.18
 40
0.18
309
CELLMARGIN_END
 94
        6
 95
        1
302
GRIDFORMAT
  1
GRIDFORMAT_BEGIN
 90
        0
 91
        1
 62
     0
 92
       -2
340
0
 93
        0
 40
0.045
309
GRIDFORMAT_END
 95
        2
302
GRIDFORMAT
  1
GRIDFORMAT_BEGIN
 90
        0
 91
        1
 62
     0
 92
       -2
340
0
 93
        0
 40
0.045
309
GRIDFORMAT_END
 95
        4
302
GRIDFORMAT
  1
GRIDFORMAT_BEGIN
 90
        0
 91
        1
 62
     0
 92
       -2
340
0
 93
        0
 40
0.045
309
GRIDFORMAT_END
 95
        8
302
GRIDFORMAT
  1
GRIDFORMAT_BEGIN
 90
        0
 91
        1
 62
     0
 92
       -2
340
0
 93
        0
 40
0.045
309
GRIDFORMAT_END
 95
       16
302
GRIDFORMAT
  1
GRIDFORMAT_BEGIN
 90
        0
 91
        1
 62
     0
 92
       -2
340
0
 93
        0
 40
0.045
309
GRIDFORMAT_END
 95
       32
302
GRIDFORMAT
  1
GRIDFORMAT_BEGIN
 90
        0
 91
        1
 62
     0
 92
       -2
340
0
 93
        0
 40
0.045
309
GRIDFORMAT_END
309
TABLEFORMAT_END
  1
CELLSTYLE_BEGIN
 90
        2
 91
        1
300
_HEADER
309
CELLSTYLE_END
300
CELLSTYLE
  1
TABLEFORMAT_BEGIN
 90
        5
170
     1
 91
        0
 92
        0
 62
   257
 93
        1
300
CONTENTFORMAT
  1
CONTENTFORMAT_BEGIN
 90
        0
 91
        0
 92
      512
 93
        0
300

 40
0.0
140
1.0
 94
        2
 62
     0
340
11
144
0.18
309
CONTENTFORMAT_END
171
     1
301
MARGIN
  1
CELLMARGIN_BEGIN
 40
0.06
 40
0.06
 40
0.06
 40
0.06
 40
0.18
 40
0.18
309
CELLMARGIN_END
 94
        6
 95
        1
302
GRIDFORMAT
  1
GRIDFORMAT_BEGIN
 90
        0
 91
        1
 62
     0
 92
       -2
340
0
 93
        0
 40
0.045
309
GRIDFORMAT_END
 95
        2
302
GRIDFORMAT
  1
GRIDFORMAT_BEGIN
 90
        0
 91
        1
 62
     0
 92
       -2
340
0
 93
        0
 40
0.045
309
GRIDFORMAT_END
 95
        4
302
GRIDFORMAT
  1
GRIDFORMAT_BEGIN
 90
        0
 91
        1
 62
     0
 92
       -2
340
0
 93
        0
 40
0.045
309
GRIDFORMAT_END
 95
        8
302
GRIDFORMAT
  1
GRIDFORMAT_BEGIN
 90
        0
 91
        1
 62
     0
 92
       -2
340
0
 93
        0
 40
0.045
309
GRIDFORMAT_END
 95
       16
302
GRIDFORMAT
  1
GRIDFORMAT_BEGIN
 90
        0
 91
        1
 62
     0
 92
       -2
340
0
 93
        0
 40
0.045
309
GRIDFORMAT_END
 95
       32
302
GRIDFORMAT
  1
GRIDFORMAT_BEGIN
 90
        0
 91
        1
 62
     0
 92
       -2
340
0
 93
        0
 40
0.045
309
GRIDFORMAT_END
309
TABLEFORMAT_END
  1
CELLSTYLE_BEGIN
 90
        3
 91
        2
300
_DATA
309
CELLSTYLE_END
  0
ENDSEC
  0
SECTION
  2
ACDSDATA
 70
     2
 71
     8
  0
ACDSSCHEMA
 90
        0
  1
AcDb_Thumbnail_Schema
  2
AcDbDs::ID
280
    10
 91
        8
  2
Thumbnail_Data
280
    15
 91
        0
101
ACDSRECORD
 95
        0
 90
        1
  2
AcDbDs::TreatedAsObjectData
280
     1
291
     1
101
ACDSRECORD
 95
        0
 90
        2
  2
AcDbDs::Legacy
280
     1
291
     1
101
ACDSRECORD
  1
AcDbDs::ID
 90
        3
  2
AcDs:Indexable
280
     1
291
     1
101
ACDSRECORD
  1
AcDbDs::ID
 90
        4
  2
AcDbDs::HandleAttribute
280
     7
282
     1
  0
ACDSSCHEMA
 90
        1
  1
AcDbDs::TreatedAsObjectDataSchema
  2
AcDbDs::TreatedAsObjectData
280
     1
 91
        0
  0
ACDSSCHEMA
 90
        2
  1
AcDbDs::LegacySchema
  2
AcDbDs::Legacy
280
     1
 91
        0
  0
ACDSSCHEMA
 90
        3
  1
AcDbDs::IndexedPropertySchema
  2
AcDs:Indexable
280
     1
 91
        0
  0
ACDSSCHEMA
 90
        4
  1
AcDbDs::HandleAttributeSchema
  2
AcDbDs::HandleAttribute
280
     7
 91
        1
284
     1
  0
ACDSSCHEMA
 90
        5
  1
AcDb3DSolid_ASM_Data
  2
AcDbDs::ID
280
    10
 91
        8
  2
ASM_Data
280
    15
 91
        0
101
ACDSRECORD
 95
        5
 90
        1
  2
AcDbDs::TreatedAsObjectData
280
     1
291
     1
101
ACDSRECORD
 95
        5
 90
        2
  2
AcDbDs::Legacy
280
     1
291
     1
101
ACDSRECORD
  1
AcDbDs::ID
 90
        3
  2
AcDs:Indexable
280
     1
291
     1
101
ACDSRECORD
  1
AcDbDs::ID
 90
        4
  2
AcDbDs::HandleAttribute
280
     7
282
     1
  0
ACDSRECORD
 90
        0
  2
AcDbDs::ID
280
    10
320
22
  2
Thumbnail_Data
280
    15
 94
     1666
310
89504E470D0A1A0A0000000D49484452000001000000006F08030000003479EE6F00000300504C5445212830FFFFFF2128300000000000000000000000000000000000000000000000000000330000660000990000CC0000FF0033000033330033660033990033CC0033FF0066000066330066660066990066CC0066FF0099
310
000099330099660099990099CC0099FF00CC0000CC3300CC6600CC9900CCCC00CCFF00FF0000FF3300FF6600FF9900FFCC00FFFF3300003300333300663300993300CC3300FF3333003333333333663333993333CC3333FF3366003366333366663366993366CC3366FF3399003399333399663399993399CC3399FF33CC00
310
33CC3333CC6633CC9933CCCC33CCFF33FF0033FF3333FF6633FF9933FFCC33FFFF6600006600336600666600996600CC6600FF6633006633336633666633996633CC6633FF6666006666336666666666996666CC6666FF6699006699336699666699996699CC6699FF66CC0066CC3366CC6666CC9966CCCC66CCFF66FF0066
310
FF3366FF6666FF9966FFCC66FFFF9900009900339900669900999900CC9900FF9933009933339933669933999933CC9933FF9966009966339966669966999966CC9966FF9999009999339999669999999999CC9999FF99CC0099CC3399CC6699CC9999CCCC99CCFF99FF0099FF3399FF6699FF9999FFCC99FFFFCC0000CC00
310
33CC0066CC0099CC00CCCC00FFCC3300CC3333CC3366CC3399CC33CCCC33FFCC6600CC6633CC6666CC6699CC66CCCC66FFCC9900CC9933CC9966CC9999CC99CCCC99FFCCCC00CCCC33CCCC66CCCC99CCCCCCCCCCFFCCFF00CCFF33CCFF66CCFF99CCFFCCCCFFFFFF0000FF0033FF0066FF0099FF00CCFF00FFFF3300FF3333
310
FF3366FF3399FF33CCFF33FFFF6600FF6633FF6666FF6699FF66CCFF66FFFF9900FF9933FF9966FF9999FF99CCFF99FFFFCC00FFCC33FFCC66FFCC99FFCCCCFFCCFFFFFF00FFFF33FFFF66FFFF99FFFFCCFFFFFF0000000D0D0D1A1A1A2828283535354343435050505D5D5D6B6B6B787878868686939393A1A1A1AEAEAEBB
310
BBBBC9C9C9D6D6D6E4E4E4F1F1F1FFFFFF0000000000000000000000000000000000000000000000000000000000002E4550F10000005E4944415478DAEDD7A1110030080441FAEF179F0A202271BFEB90DC0C822A00000000000000000000000000001EF44280F0FD43022C53448012408029404481F4005D020820C01820
310
A08000FB090404B8F02D030000000000000000C01F072D509C00155370C40000000049454E44AE426082C4B680006E592A0001FCCB06F0C9831D7848581F803D400002F022D41E40FDC79000EACF031C89D51F8A9E0C60ADEA04C22FC7A6BC7E97A3F5D7E30624F6F681A221A1EE21A997BDDE3629B89D8EAC1D179DA99E95
310
EDEC7C0108000000000000000000000000B8C503CFE5BB95F845264F0000000049454E44AE426082896994E8E808A122050C56072102DE8420C04A40A70501084040928073539A80F369F96B2F902AA0967E60FE7F05FC6E8C9B0217AB2104244D01E9CE67CE35205A40F7BF417102E247C07125142540DD6F070B50190AD0
310
FDDDE0EEBAC428FD4136FD7B212B0100000000000000000000F0F77C015593AD5B220BCA400000000049454E44AE4260829E009C02AB882400670008AA1A09C01F803DB482842B007804B0C60D91CF2F9E2F7FB1C23DC1579225015C3F890CE05202B8F9242E001C5FF3827301006B5440D9FC87A325E680CBB4BF3A80E341
310
024800126BCED8DCCAFE0BC89323148B0004169DB1773E315BC236EF7D16429C74C0FC8810FAB822E4686C54F4D26BA9A9E2DD7790D975BD451A1FD53D220800A0797E05CB04E203000DE41FA502A8BD05F61574D1160836078CE58FF12DE253CECF072C2F70EA6F011040B1F60060AF8009C658FE140940F746886607B0F5
310
F2D84660BD1618B88A08D2027100640B8C5D0B2DBC0AC45A06BBF6C2581840B855A0358D18E98F251203406F1A612A80B202BAD38891FF580B500000D49D4988F37FAC813E72214627000A3582A5C338FE00598ED82311F33F3A0000000049454E44AE4260820F467818FD4AC64A010000000049454E44AE42608200187F52
310
539FF6AC0FF2D01229B97F7B56AE64E8787DBF9E93B283504D4929EEDB336DE133B927D0B706F146D8FDD54728002424931276690CDE5FFA471401522320E6FA719CDCC9E90D234F422DA512220CD4066298BF969A4028B717C4D481E25C1BC6C59A99842240E2F24B1F92F8AC20F021F00EFE737AFD0FDF7E00E9E9886BC5
310
1247A50000000049454E44AE426082
  0
ENDSEC
  0
EOF
