  0
SECTION
  2
HEADER
  9
$ACADVER
  1
AC1032
  9
$ACADMAINTVER
 90
      197
  9
$DWGCODEPAGE
  3
ANSI_1252
  9
$LASTSAVEDBY
  1
gregb
  9
$REQUIREDVERSIONS
160
                 0
  9
$INSBASE
 10
0.0
 20
0.0
 30
0.0
  9
$EXTMIN
 10
164456.8260829148
 20
105514.7440037012
 30
-0.0421403970740357
  9
$EXTMAX
 10
165466.3436064066
 20
106684.1759558284
 30
0.0280978851196778
  9
$LIMMIN
 10
0.0
 20
0.0
  9
$LIMMAX
 10
12.0
 20
9.0
  9
$ORTHOMODE
 70
     0
  9
$REGENMODE
 70
     1
  9
$FILLMODE
 70
     1
  9
$QTEXTMODE
 70
     0
  9
$MIRRTEXT
 70
     0
  9
$LTSCALE
 40
1.0
  9
$ATTMODE
 70
     1
  9
$TEXTSIZE
 40
0.2
  9
$TRACEWID
 40
0.05
  9
$TEXTSTYLE
  7
Standard
  9
$CLAYER
  8
freecads.com
  9
$CELTYPE
  6
ByLayer
  9
$CECOLOR
 62
   256
  9
$CELTSCALE
 40
1.0
  9
$DISPSILH
 70
     1
  9
$DIMSCALE
 40
1.0
  9
$DIMASZ
 40
0.18
  9
$DIMEXO
 40
0.0625
  9
$DIMDLI
 40
0.38
  9
$DIMRND
 40
0.0
  9
$DIMDLE
 40
0.0
  9
$DIMEXE
 40
0.18
  9
$DIMTP
 40
0.0
  9
$DIMTM
 40
0.0
  9
$DIMTXT
 40
0.18
  9
$DIMCEN
 40
0.09
  9
$DIMTSZ
 40
0.0
  9
$DIMTOL
 70
     0
  9
$DIMLIM
 70
     0
  9
$DIMTIH
 70
     1
  9
$DIMTOH
 70
     1
  9
$DIMSE1
 70
     0
  9
$DIMSE2
 70
     0
  9
$DIMTAD
 70
     0
  9
$DIMZIN
 70
     0
  9
$DIMBLK
  1

  9
$DIMASO
 70
     1
  9
$DIMSHO
 70
     1
  9
$DIMPOST
  1

  9
$DIMAPOST
  1

  9
$DIMALT
 70
     0
  9
$DIMALTD
 70
     2
  9
$DIMALTF
 40
25.4
  9
$DIMLFAC
 40
1.0
  9
$DIMTOFL
 70
     0
  9
$DIMTVP
 40
0.0
  9
$DIMTIX
 70
     0
  9
$DIMSOXD
 70
     0
  9
$DIMSAH
 70
     0
  9
$DIMBLK1
  1

  9
$DIMBLK2
  1

  9
$DIMSTYLE
  2
Standard
  9
$DIMCLRD
 70
     0
  9
$DIMCLRE
 70
     0
  9
$DIMCLRT
 70
     0
  9
$DIMTFAC
 40
1.0
  9
$DIMGAP
 40
0.09
  9
$DIMJUST
 70
     0
  9
$DIMSD1
 70
     0
  9
$DIMSD2
 70
     0
  9
$DIMTOLJ
 70
     1
  9
$DIMTZIN
 70
     0
  9
$DIMALTZ
 70
     0
  9
$DIMALTTZ
 70
     0
  9
$DIMUPT
 70
     0
  9
$DIMDEC
 70
     4
  9
$DIMTDEC
 70
     4
  9
$DIMALTU
 70
     2
  9
$DIMALTTD
 70
     2
  9
$DIMTXSTY
  7
Standard
  9
$DIMAUNIT
 70
     0
  9
$DIMADEC
 70
     0
  9
$DIMALTRND
 40
0.0
  9
$DIMAZIN
 70
     0
  9
$DIMDSEP
 70
    46
  9
$DIMATFIT
 70
     3
  9
$DIMFRAC
 70
     0
  9
$DIMLDRBLK
  1

  9
$DIMLUNIT
 70
     2
  9
$DIMLWD
 70
    -2
  9
$DIMLWE
 70
    -2
  9
$DIMTMOVE
 70
     0
  9
$DIMFXL
 40
1.0
  9
$DIMFXLON
 70
     0
  9
$DIMJOGANG
 40
0.7853981633974483
  9
$DIMTFILL
 70
     0
  9
$DIMTFILLCLR
 70
     0
  9
$DIMARCSYM
 70
     0
  9
$DIMLTYPE
  6

  9
$DIMLTEX1
  6

  9
$DIMLTEX2
  6

  9
$DIMTXTDIRECTION
 70
     0
  9
$LUNITS
 70
     2
  9
$LUPREC
 70
     4
  9
$SKETCHINC
 40
0.1
  9
$FILLETRAD
 40
0.0
  9
$AUNITS
 70
     0
  9
$AUPREC
 70
     0
  9
$MENU
  1
.
  9
$ELEVATION
 40
0.0
  9
$PELEVATION
 40
0.0
  9
$THICKNESS
 40
0.0
  9
$LIMCHECK
 70
     0
  9
$CHAMFERA
 40
0.0
  9
$CHAMFERB
 40
0.0
  9
$CHAMFERC
 40
0.0
  9
$CHAMFERD
 40
0.0
  9
$SKPOLY
 70
     0
  9
$TDCREATE
 40
2458157.454583334
  9
$TDUCREATE
 40
2458157.287916667
  9
$TDUPDATE
 40
2460668.827280092
  9
$TDUUPDATE
 40
2460668.660613426
  9
$TDINDWG
 40
0.2128703704
  9
$TDUSRTIMER
 40
0.2128703704
  9
$USRTIMER
 70
     1
  9
$ANGBASE
 50
0.0
  9
$ANGDIR
 70
     0
  9
$PDMODE
 70
     0
  9
$PDSIZE
 40
0.0
  9
$PLINEWID
 40
0.0
  9
$SPLFRAME
 70
     0
  9
$SPLINETYPE
 70
     6
  9
$SPLINESEGS
 70
     8
  9
$HANDSEED
  5
67412
  9
$SURFTAB1
 70
     6
  9
$SURFTAB2
 70
     6
  9
$SURFTYPE
 70
     6
  9
$SURFU
 70
     6
  9
$SURFV
 70
     6
  9
$UCSBASE
  2

  9
$UCSNAME
  2

  9
$UCSORG
 10
0.0
 20
0.0
 30
0.0
  9
$UCSXDIR
 10
1.0
 20
0.0
 30
0.0
  9
$UCSYDIR
 10
0.0
 20
1.0
 30
0.0
  9
$UCSORTHOREF
  2

  9
$UCSORTHOVIEW
 70
     0
  9
$UCSORGTOP
 10
0.0
 20
0.0
 30
0.0
  9
$UCSORGBOTTOM
 10
0.0
 20
0.0
 30
0.0
  9
$UCSORGLEFT
 10
0.0
 20
0.0
 30
0.0
  9
$UCSORGRIGHT
 10
0.0
 20
0.0
 30
0.0
  9
$UCSORGFRONT
 10
0.0
 20
0.0
 30
0.0
  9
$UCSORGBACK
 10
0.0
 20
0.0
 30
0.0
  9
$PUCSBASE
  2

  9
$PUCSNAME
  2

  9
$PUCSORG
 10
0.0
 20
0.0
 30
0.0
  9
$PUCSXDIR
 10
1.0
 20
0.0
 30
0.0
  9
$PUCSYDIR
 10
0.0
 20
1.0
 30
0.0
  9
$PUCSORTHOREF
  2

  9
$PUCSORTHOVIEW
 70
     0
  9
$PUCSORGTOP
 10
0.0
 20
0.0
 30
0.0
  9
$PUCSORGBOTTOM
 10
0.0
 20
0.0
 30
0.0
  9
$PUCSORGLEFT
 10
0.0
 20
0.0
 30
0.0
  9
$PUCSORGRIGHT
 10
0.0
 20
0.0
 30
0.0
  9
$PUCSORGFRONT
 10
0.0
 20
0.0
 30
0.0
  9
$PUCSORGBACK
 10
0.0
 20
0.0
 30
0.0
  9
$USERI1
 70
     0
  9
$USERI2
 70
     0
  9
$USERI3
 70
     0
  9
$USERI4
 70
     0
  9
$USERI5
 70
     0
  9
$USERR1
 40
0.0
  9
$USERR2
 40
0.0
  9
$USERR3
 40
0.0
  9
$USERR4
 40
0.0
  9
$USERR5
 40
0.0
  9
$WORLDVIEW
 70
     1
  9
$SHADEDGE
 70
     3
  9
$SHADEDIF
 70
    70
  9
$TILEMODE
 70
     1
  9
$MAXACTVP
 70
    64
  9
$PINSBASE
 10
0.0
 20
0.0
 30
0.0
  9
$PLIMCHECK
 70
     0
  9
$PEXTMIN
 10
0.0
 20
0.0
 30
0.0
  9
$PEXTMAX
 10
0.0
 20
0.0
 30
0.0
  9
$PLIMMIN
 10
0.0
 20
0.0
  9
$PLIMMAX
 10
12.0
 20
9.0
  9
$UNITMODE
 70
     0
  9
$VISRETAIN
 70
     1
  9
$PLINEGEN
 70
     0
  9
$PSLTSCALE
 70
     1
  9
$TREEDEPTH
 70
  3020
  9
$CMLSTYLE
  2
Standard
  9
$CMLJUST
 70
     0
  9
$CMLSCALE
 40
1.0
  9
$PROXYGRAPHICS
 70
     1
  9
$MEASUREMENT
 70
     0
  9
$CELWEIGHT
370
    -1
  9
$ENDCAPS
280
     0
  9
$JOINSTYLE
280
     0
  9
$LWDISPLAY
290
     0
  9
$INSUNITS
 70
     1
  9
$HYPERLINKBASE
  1

  9
$STYLESHEET
  1
monochrome.ctb
  9
$XEDIT
290
     1
  9
$CEPSNTYPE
380
     0
  9
$PSTYLEMODE
290
     1
  9
$FINGERPRINTGUID
  2
{358EB121-6EE0-9143-8A3E-6E8E8869FDA6}
  9
$VERSIONGUID
  2
{741F7916-8A2F-D94D-AF07-A00E33DFF885}
  9
$EXTNAMES
290
     1
  9
$PSVPSCALE
 40
0.0
  9
$OLESTARTUP
290
     0
  9
$SORTENTS
280
   127
  9
$INDEXCTL
280
     0
  9
$HIDETEXT
280
     1
  9
$XCLIPFRAME
280
     2
  9
$HALOGAP
280
     0
  9
$OBSCOLOR
 70
   257
  9
$OBSLTYPE
280
     0
  9
$INTERSECTIONDISPLAY
280
     0
  9
$INTERSECTIONCOLOR
 70
   257
  9
$DIMASSOC
280
     2
  9
$PROJECTNAME
  1

  9
$CAMERADISPLAY
290
     0
  9
$LENSLENGTH
 40
50.0
  9
$CAMERAHEIGHT
 40
0.0
  9
$STEPSPERSEC
 40
2.0
  9
$STEPSIZE
 40
6.0
  9
$3DDWFPREC
 40
2.0
  9
$PSOLWIDTH
 40
0.25
  9
$PSOLHEIGHT
 40
4.0
  9
$LOFTANG1
 40
1.570796326794896
  9
$LOFTANG2
 40
1.570796326794896
  9
$LOFTMAG1
 40
0.0
  9
$LOFTMAG2
 40
0.0
  9
$LOFTPARAM
 70
     7
  9
$LOFTNORMALS
280
     1
  9
$LATITUDE
 40
37.795
  9
$LONGITUDE
 40
-122.394
  9
$NORTHDIRECTION
 40
0.0
  9
$TIMEZONE
 70
 -8000
  9
$LIGHTGLYPHDISPLAY
280
     1
  9
$TILEMODELIGHTSYNCH
280
     1
  9
$CMATERIAL
347
96
  9
$SOLIDHIST
280
     0
  9
$SHOWHIST
280
     1
  9
$DWFFRAME
280
     2
  9
$DGNFRAME
280
     0
  9
$REALWORLDSCALE
290
     1
  9
$INTERFERECOLOR
 62
     1
  9
$INTERFEREOBJVS
345
A3
  9
$INTERFEREVPVS
346
A0
  9
$CSHADOW
280
     0
  9
$SHADOWPLANELOCATION
 40
0.0
  0
ENDSEC
  0
SECTION
  2
CLASSES
  0
CLASS
  1
ACDBDICTIONARYWDFLT
  2
AcDbDictionaryWithDefault
  3
ObjectDBX Classes
 90
        0
 91
        1
280
     0
281
     0
  0
CLASS
  1
DICTIONARYVAR
  2
AcDbDictionaryVar
  3
ObjectDBX Classes
 90
        0
 91
       27
280
     0
281
     0
  0
CLASS
  1
TABLESTYLE
  2
AcDbTableStyle
  3
ObjectDBX Classes
 90
     4095
 91
        1
280
     0
281
     0
  0
CLASS
  1
MATERIAL
  2
AcDbMaterial
  3
ObjectDBX Classes
 90
     1153
 91
        3
280
     0
281
     0
  0
CLASS
  1
VISUALSTYLE
  2
AcDbVisualStyle
  3
ObjectDBX Classes
 90
     4095
 91
       25
280
     0
281
     0
  0
CLASS
  1
SCALE
  2
AcDbScale
  3
ObjectDBX Classes
 90
     1153
 91
       34
280
     0
281
     0
  0
CLASS
  1
MLEADERSTYLE
  2
AcDbMLeaderStyle
  3
ACDB_MLEADERSTYLE_CLASS
 90
     4095
 91
        1
280
     0
281
     0
  0
CLASS
  1
CELLSTYLEMAP
  2
AcDbCellStyleMap
  3
ObjectDBX Classes
 90
     1152
 91
        1
280
     0
281
     0
  0
CLASS
  1
EXACXREFPANELOBJECT
  2
ExAcXREFPanelObject
  3
EXAC_ESW
 90
     1025
 91
        1
280
     0
281
     0
  0
CLASS
  1
NPOCOLLECTION
  2
AcDbImpNonPersistentObjectsCollection
  3
ObjectDBX Classes
 90
     1153
 91
        1
280
     0
281
     0
  0
CLASS
  1
LAYER_INDEX
  2
AcDbLayerIndex
  3
ObjectDBX Classes
 90
        0
 91
        0
280
     0
281
     0
  0
CLASS
  1
SPATIAL_INDEX
  2
AcDbSpatialIndex
  3
ObjectDBX Classes
 90
        0
 91
        0
280
     0
281
     0
  0
CLASS
  1
IDBUFFER
  2
AcDbIdBuffer
  3
ObjectDBX Classes
 90
        0
 91
        0
280
     0
281
     0
  0
CLASS
  1
ACDBSECTIONVIEWSTYLE
  2
AcDbSectionViewStyle
  3
ObjectDBX Classes
 90
     1025
 91
        2
280
     0
281
     0
  0
CLASS
  1
ACDBDETAILVIEWSTYLE
  2
AcDbDetailViewStyle
  3
ObjectDBX Classes
 90
     1025
 91
        2
280
     0
281
     0
  0
CLASS
  1
SORTENTSTABLE
  2
AcDbSortentsTable
  3
ObjectDBX Classes
 90
        0
 91
        1
280
     0
281
     0
  0
CLASS
  1
ACAD_EVALUATION_GRAPH
  2
AcDbEvalGraph
  3
ObjectDBX Classes
 90
     1153
 91
        0
280
     0
281
     0
  0
CLASS
  1
BLOCKLINEARPARAMETER
  2
AcDbBlockLinearParameter
  3
ObjectDBX Classes
 90
     1153
 91
        0
280
     0
281
     0
  0
CLASS
  1
BLOCKLINEARGRIP
  2
AcDbBlockLinearGrip
  3
ObjectDBX Classes
 90
     1153
 91
        0
280
     0
281
     0
  0
CLASS
  1
BLOCKGRIPLOCATIONCOMPONENT
  2
AcDbBlockGripExpr
  3
ObjectDBX Classes
 90
     1153
 91
        0
280
     0
281
     0
  0
CLASS
  1
BLOCKSTRETCHACTION
  2
AcDbBlockStretchAction
  3
ObjectDBX Classes
 90
     1153
 91
        0
280
     0
281
     0
  0
CLASS
  1
ACDB_DYNAMICBLOCKPURGEPREVENTER_VERSION
  2
AcDbDynamicBlockPurgePreventer
  3
ObjectDBX Classes
 90
     1153
 91
        0
280
     0
281
     0
  0
CLASS
  1
BLOCKVISIBILITYPARAMETER
  2
AcDbBlockVisibilityParameter
  3
ObjectDBX Classes
 90
     1153
 91
        0
280
     0
281
     0
  0
CLASS
  1
BLOCKVISIBILITYGRIP
  2
AcDbBlockVisibilityGrip
  3
ObjectDBX Classes
 90
     1153
 91
        0
280
     0
281
     0
  0
CLASS
  1
ACDB_BLOCKREPRESENTATION_DATA
  2
AcDbBlockRepresentationData
  3
ObjectDBX Classes
 90
     1153
 91
        0
280
     0
281
     0
  0
CLASS
  1
SURFACE
  2
AcDbSurface
  3
ObjectDBX Classes
 90
     4095
 91
        0
280
     0
281
     1
  0
CLASS
  1
ACDBASSOCPERSSUBENTMANAGER
  2
AcDbAssocPersSubentManager
  3
ObjectDBX Classes
 90
     1024
 91
        1
280
     0
281
     0
  0
CLASS
  1
BLOCKARRAYACTION
  2
AcDbBlockArrayAction
  3
ObjectDBX Classes
 90
     1153
 91
        0
280
     0
281
     0
  0
CLASS
  1
BLOCKLOOKUPPARAMETER
  2
AcDbBlockLookupParameter
  3
ObjectDBX Classes
 90
     1153
 91
        0
280
     0
281
     0
  0
CLASS
  1
BLOCKLOOKUPGRIP
  2
AcDbBlockLookupGrip
  3
ObjectDBX Classes
 90
     1153
 91
        0
280
     0
281
     0
  0
CLASS
  1
BLOCKLOOKUPACTION
  2
AcDbBlockLookupAction
  3
ObjectDBX Classes
 90
     1153
 91
        0
280
     0
281
     0
  0
CLASS
  1
WIPEOUT
  2
AcDbWipeout
  3
WipeOut|Product Desc: Object Enabler for WipeOut entity | Company: Autodesk, Inc. | WEB Address: www.autodesk.com
 90
     2175
 91
        0
280
     0
281
     1
  0
CLASS
  1
WIPEOUTVARIABLES
  2
AcDbWipeoutVariables
  3
"WipeOut|Product Desc:     WipeOut Dbx Application|Company:          Autodesk, Inc.|WEB Address:      www.autodesk.com"
 90
        0
 91
        1
280
     0
281
     0
  0
ENDSEC
  0
SECTION
  2
TABLES
  0
TABLE
  2
VPORT
  5
8
330
0
100
AcDbSymbolTable
 70
     1
  0
VPORT
  5
94
330
8
100
AcDbSymbolTableRecord
100
AcDbViewportTableRecord
  2
*Active
 70
     0
 10
0.0
 20
0.0
 11
1.0
 21
1.0
 12
165041.919440712
 22
106059.0373689262
 13
0.0
 23
0.0
 14
0.5
 24
0.5
 15
0.5
 25
0.5
 16
0.0
 26
0.0
 36
1.0
 17
0.0
 27
0.0
 37
0.0
 40
2984.337013208889
 41
2.293369663941871
 42
50.0
 43
0.0
 44
0.0
 50
0.0
 51
0.0
 71
     0
 72
  1000
 73
     1
 74
     3
 75
     0
 76
     0
 77
     0
 78
     0
281
     0
 65
     1
110
0.0
120
0.0
130
0.0
111
1.0
121
0.0
131
0.0
112
0.0
122
1.0
132
0.0
 79
     0
146
0.0
348
9F
 60
     3
 61
     5
292
     1
282
     1
141
0.0
142
0.0
 63
   250
421
  3355443
1001
ACAD_NAV_VCDISPLAY
1070
     3
  0
ENDTAB
  0
TABLE
  2
LTYPE
  5
5
330
0
100
AcDbSymbolTable
 70
     1
  0
LTYPE
  5
14
330
5
100
AcDbSymbolTableRecord
100
AcDbLinetypeTableRecord
  2
ByBlock
 70
     0
  3

 72
    65
 73
     0
 40
0.0
  0
LTYPE
  5
15
330
5
100
AcDbSymbolTableRecord
100
AcDbLinetypeTableRecord
  2
ByLayer
 70
     0
  3

 72
    65
 73
     0
 40
0.0
  0
LTYPE
  5
16
330
5
100
AcDbSymbolTableRecord
100
AcDbLinetypeTableRecord
  2
Continuous
 70
     0
  3
Solid line
 72
    65
 73
     0
 40
0.0
  0
ENDTAB
  0
TABLE
  2
LAYER
  5
2
102
{ACAD_XDICTIONARY
360
18E
102
}
330
0
100
AcDbSymbolTable
 70
     2
  0
LAYER
  5
10
102
{ACAD_XDICTIONARY
360
E6
102
}
330
2
100
AcDbSymbolTableRecord
100
AcDbLayerTableRecord
  2
0
 70
     0
 62
     7
  6
Continuous
370
    -3
390
F
347
98
348
0
  0
LAYER
  5
204
330
2
100
AcDbSymbolTableRecord
100
AcDbLayerTableRecord
  2
freecads.com
 70
     0
 62
     7
  6
Continuous
370
    -3
390
F
347
98
348
0
1001
AcAecLayerStandard
1000

1000

1001
AcCmTransparency
1071
        0
  0
ENDTAB
  0
TABLE
  2
STYLE
  5
3
330
0
100
AcDbSymbolTable
 70
     2
  0
STYLE
  5
11
330
3
100
AcDbSymbolTableRecord
100
AcDbTextStyleTableRecord
  2
Standard
 70
     0
 40
0.0
 41
1.0
 50
0.0
 71
     0
 42
0.2
  3
arial.ttf
  4

1001
ACAD
1000
Arial
1071
       34
  0
ENDTAB
  0
TABLE
  2
VIEW
  5
6
330
0
100
AcDbSymbolTable
 70
     0
  0
ENDTAB
  0
TABLE
  2
UCS
  5
7
330
0
100
AcDbSymbolTable
 70
     0
  0
ENDTAB
  0
TABLE
  2
APPID
  5
9
330
0
100
AcDbSymbolTable
 70
    31
  0
APPID
  5
12
330
9
100
AcDbSymbolTableRecord
100
AcDbRegAppTableRecord
  2
ACAD
 70
     0
  0
APPID
  5
DD
330
9
100
AcDbSymbolTableRecord
100
AcDbRegAppTableRecord
  2
AcadAnnoPO
 70
     0
  0
APPID
  5
DE
330
9
100
AcDbSymbolTableRecord
100
AcDbRegAppTableRecord
  2
AcadAnnotative
 70
     0
  0
APPID
  5
DF
330
9
100
AcDbSymbolTableRecord
100
AcDbRegAppTableRecord
  2
ACAD_DSTYLE_DIMJAG
 70
     0
  0
APPID
  5
E0
330
9
100
AcDbSymbolTableRecord
100
AcDbRegAppTableRecord
  2
ACAD_DSTYLE_DIMTALN
 70
     0
  0
APPID
  5
107
330
9
100
AcDbSymbolTableRecord
100
AcDbRegAppTableRecord
  2
ACAD_MLEADERVER
 70
     0
  0
APPID
  5
1A6
330
9
100
AcDbSymbolTableRecord
100
AcDbRegAppTableRecord
  2
ACAD_NAV_VCDISPLAY
 70
     0
  0
APPID
  5
205
330
9
100
AcDbSymbolTableRecord
100
AcDbRegAppTableRecord
  2
AcAecLayerStandard
 70
     0
  0
APPID
  5
206
330
9
100
AcDbSymbolTableRecord
100
AcDbRegAppTableRecord
  2
AcCmTransparency
 70
     0
  0
APPID
  5
222
330
9
100
AcDbSymbolTableRecord
100
AcDbRegAppTableRecord
  2
ACAD_PSEXT
 70
     0
  0
APPID
  5
2DA
330
9
100
AcDbSymbolTableRecord
100
AcDbRegAppTableRecord
  2
GradientColor1ACI
 70
     0
  0
APPID
  5
2DB
330
9
100
AcDbSymbolTableRecord
100
AcDbRegAppTableRecord
  2
GradientColor2ACI
 70
     0
  0
APPID
  5
2F3
330
9
100
AcDbSymbolTableRecord
100
AcDbRegAppTableRecord
  2
ACAD_EXEMPT_FROM_CAD_STANDARDS
 70
     0
  0
APPID
  5
A1A
330
9
100
AcDbSymbolTableRecord
100
AcDbRegAppTableRecord
  2
AcDbBlockRepETag
 70
     0
  0
APPID
  5
2282
330
9
100
AcDbSymbolTableRecord
100
AcDbRegAppTableRecord
  2
RAK
 70
     0
  0
APPID
  5
39F4
330
9
100
AcDbSymbolTableRecord
100
AcDbRegAppTableRecord
  2
ACAD_DSTYLE_DIMJOGGED_JOGANGLE_SYMBOL
 70
     0
  0
APPID
  5
39F5
330
9
100
AcDbSymbolTableRecord
100
AcDbRegAppTableRecord
  2
AcDbDynamicBlockGUID
 70
     0
  0
APPID
  5
39F6
330
9
100
AcDbSymbolTableRecord
100
AcDbRegAppTableRecord
  2
ACAD_DSTYLE_DIMBREAK
 70
     0
  0
APPID
  5
3B59
330
9
100
AcDbSymbolTableRecord
100
AcDbRegAppTableRecord
  2
AEC_XDATA_BOUND_SPACE
 70
     0
  0
APPID
  5
75C5
330
9
100
AcDbSymbolTableRecord
100
AcDbRegAppTableRecord
  2
AcDbDynamicBlockTrueName
 70
     0
  0
APPID
  5
75C6
330
9
100
AcDbSymbolTableRecord
100
AcDbRegAppTableRecord
  2
AcDbBlockRepBTag
 70
     0
  0
APPID
  5
75C7
330
9
100
AcDbSymbolTableRecord
100
AcDbRegAppTableRecord
  2
ACAUTHENVIRON
 70
     0
  0
APPID
  5
AA90
330
9
100
AcDbSymbolTableRecord
100
AcDbRegAppTableRecord
  2
Acad_TC
 70
     0
  0
APPID
  5
AA9C
330
9
100
AcDbSymbolTableRecord
100
AcDbRegAppTableRecord
  2
AcDbBlockArrayActionTag
 70
     0
  0
APPID
  5
BEE4
330
9
100
AcDbSymbolTableRecord
100
AcDbRegAppTableRecord
  2
ACAD_DSTYLE_DIMTEXT_FILL
 70
     0
  0
APPID
  5
219E5
330
9
100
AcDbSymbolTableRecord
100
AcDbRegAppTableRecord
  2
AECLAY
 70
     0
  0
APPID
  5
26B46
330
9
100
AcDbSymbolTableRecord
100
AcDbRegAppTableRecord
  2
REVIT
 70
     0
  0
APPID
  5
280A5
330
9
100
AcDbSymbolTableRecord
100
AcDbRegAppTableRecord
  2
HATCHBACKGROUNDCOLOR
 70
     0
  0
APPID
  5
29EE0
330
9
100
AcDbSymbolTableRecord
100
AcDbRegAppTableRecord
  2
ACAD_STEPID
 70
     0
  0
APPID
  5
29EE1
330
9
100
AcDbSymbolTableRecord
100
AcDbRegAppTableRecord
  2
AcLayerTools
 70
     0
  0
APPID
  5
4D86C
330
9
100
AcDbSymbolTableRecord
100
AcDbRegAppTableRecord
  2
PE_URL
 70
     0
  0
ENDTAB
  0
TABLE
  2
DIMSTYLE
  5
A
330
0
100
AcDbSymbolTable
 70
     2
100
AcDbDimStyleTable
 71
     1
340
27
  0
DIMSTYLE
105
27
330
A
100
AcDbSymbolTableRecord
100
AcDbDimStyleTableRecord
  2
Standard
 70
     0
340
11
  0
ENDTAB
  0
TABLE
  2
BLOCK_RECORD
  5
1
330
0
100
AcDbSymbolTable
 70
     2
  0
BLOCK_RECORD
  5
1F
102
{ACAD_XDICTIONARY
360
15D
102
}
330
1
100
AcDbSymbolTableRecord
100
AcDbBlockTableRecord
  2
*Model_Space
340
22
 70
     0
280
     1
281
     0
  0
BLOCK_RECORD
  5
58
330
1
100
AcDbSymbolTableRecord
100
AcDbBlockTableRecord
  2
*Paper_Space
340
59
 70
     0
280
     1
281
     0
  0
BLOCK_RECORD
  5
5D
330
1
100
AcDbSymbolTableRecord
100
AcDbBlockTableRecord
  2
*Paper_Space0
340
5E
 70
     0
280
     1
281
     0
  0
ENDTAB
  0
ENDSEC
  0
SECTION
  2
BLOCKS
  0
BLOCK
  5
20
330
1F
100
AcDbEntity
  8
0
100
AcDbBlockBegin
  2
*Model_Space
 70
     0
 10
0.0
 20
0.0
 30
0.0
  3
*Model_Space
  1

  0
ENDBLK
  5
21
330
1F
100
AcDbEntity
  8
0
100
AcDbBlockEnd
  0
BLOCK
  5
5A
330
58
100
AcDbEntity
 67
     1
  8
0
100
AcDbBlockBegin
  2
*Paper_Space
 70
     0
 10
0.0
 20
0.0
 30
0.0
  3
*Paper_Space
  1

  0
ENDBLK
  5
5B
330
58
100
AcDbEntity
 67
     1
  8
0
100
AcDbBlockEnd
  0
BLOCK
  5
5F
330
5D
100
AcDbEntity
 67
     1
  8
0
100
AcDbBlockBegin
  2
*Paper_Space0
 70
     0
 10
0.0
 20
0.0
 30
0.0
  3
*Paper_Space0
  1

  0
ENDBLK
  5
60
330
5D
100
AcDbEntity
 67
     1
  8
0
100
AcDbBlockEnd
  0
ENDSEC
  0
SECTION
  2
ENTITIES
  0
LINE
  5
63BE7
330
1F
100
AcDbEntity
  8
freecads.com
100
AcDbLine
 10
164655.1525451625
 20
106035.1070477387
 30
0.0
 11
164642.3562737088
 21
106045.8510117052
 31
0.0
  0
LINE
  5
63BE8
330
1F
100
AcDbEntity
  8
freecads.com
100
AcDbLine
 10
164642.3562737088
 20
106045.8510117052
 30
0.0
 11
164629.0481419321
 21
106052.5020582194
 31
0.0
  0
LINE
  5
63BE9
330
1F
100
AcDbEntity
  8
freecads.com
100
AcDbLine
 10
164629.0481419321
 20
106052.5020582194
 30
0.0
 11
164618.8110537762
 21
106052.5020582194
 31
0.0
  0
LINE
  5
63BEA
330
1F
100
AcDbEntity
  8
freecads.com
100
AcDbLine
 10
164618.8110537762
 20
106052.5020582194
 30
0.0
 11
164610.6214660769
 21
106051.4788389752
 31
0.0
  0
LINE
  5
63BEB
330
1F
100
AcDbEntity
  8
freecads.com
100
AcDbLine
 10
164610.6214660769
 20
106051.4788389752
 30
0.0
 11
164604.9910616753
 21
106047.3858810471
 31
0.0
  0
LINE
  5
63BEC
330
1F
100
AcDbEntity
  8
freecads.com
100
AcDbLine
 10
164604.9910616753
 20
106047.3858810471
 30
0.0
 11
164601.4080985691
 21
106040.734834533
 31
0.0
  0
LINE
  5
63BED
330
1F
100
AcDbEntity
  8
freecads.com
100
AcDbLine
 10
164601.4080985691
 20
106040.734834533
 30
0.0
 11
164598.336995786
 21
106032.0373090551
 31
0.0
  0
LINE
  5
63BEE
330
1F
100
AcDbEntity
  8
freecads.com
100
AcDbLine
 10
164598.336995786
 20
106032.0373090551
 30
0.0
 11
164594.2421723576
 21
106022.8282144302
 31
0.0
  0
LINE
  5
63BEF
330
1F
100
AcDbEntity
  8
freecads.com
100
AcDbLine
 10
164594.2421723576
 20
106022.8282144302
 30
0.0
 11
164588.6118271155
 21
106016.1771679161
 31
0.0
  0
LINE
  5
63BF0
330
1F
100
AcDbEntity
  8
freecads.com
100
AcDbLine
 10
164588.6118271155
 20
106016.1771679161
 30
0.0
 11
164584.0051433621
 21
106011.5726003662
 31
0.0
  0
LINE
  5
63BF1
330
1F
100
AcDbEntity
  8
freecads.com
100
AcDbLine
 10
164584.0051433621
 20
106011.5726003662
 30
0.0
 11
164579.398518769
 21
106001.8518556437
 31
0.0
  0
LINE
  5
63BF2
330
1F
100
AcDbEntity
  8
freecads.com
100
AcDbLine
 10
164579.398518769
 20
106001.8518556437
 30
0.0
 11
164576.3273568256
 21
105985.4800644072
 31
0.0
  0
LINE
  5
63BF3
330
1F
100
AcDbEntity
  8
freecads.com
100
AcDbLine
 10
164576.3273568256
 20
105985.4800644072
 30
0.0
 11
164573.7681143665
 21
105963.4804863764
 31
0.0
  0
LINE
  5
63BF4
330
1F
100
AcDbEntity
  8
freecads.com
100
AcDbLine
 10
164573.7681143665
 20
105963.4804863764
 30
0.0
 11
164573.2562540434
 21
105936.3647311734
 31
0.0
  0
LINE
  5
63BF5
330
1F
100
AcDbEntity
  8
freecads.com
100
AcDbLine
 10
164573.2562540434
 20
105936.3647311734
 30
0.0
 11
164573.2562540434
 21
105923.0626786207
 31
0.0
  0
LINE
  5
63BF6
330
1F
100
AcDbEntity
  8
freecads.com
100
AcDbLine
 10
164573.2562540434
 20
105923.0626786207
 30
0.0
 11
164573.7681143665
 21
105912.8302838007
 31
0.0
  0
LINE
  5
63BF7
330
1F
100
AcDbEntity
  8
freecads.com
100
AcDbLine
 10
164573.7681143665
 20
105912.8302838007
 30
0.0
 11
164570.6970115853
 21
105911.8070645565
 31
0.0
  0
LINE
  5
63BF8
330
1F
100
AcDbEntity
  8
freecads.com
100
AcDbLine
 10
164570.6970115853
 20
105911.8070645565
 30
0.0
 11
164566.090327831
 21
105911.2954549343
 31
0.0
  0
LINE
  5
63BF9
330
1F
100
AcDbEntity
  8
freecads.com
100
AcDbLine
 10
164566.090327831
 20
105911.2954549343
 30
0.0
 11
164560.4599825898
 21
105908.2257162506
 31
0.0
  0
LINE
  5
63BFA
330
1F
100
AcDbEntity
  8
freecads.com
100
AcDbLine
 10
164560.4599825898
 20
105908.2257162506
 30
0.0
 11
164559.9481222667
 21
105904.1327987981
 31
0.0
  0
LINE
  5
63BFB
330
1F
100
AcDbEntity
  8
freecads.com
100
AcDbLine
 10
164559.9481222667
 20
105904.1327987981
 30
0.0
 11
164563.0192250479
 21
105892.877184734
 31
0.0
  0
LINE
  5
63BFC
330
1F
100
AcDbEntity
  8
freecads.com
100
AcDbLine
 10
164563.0192250479
 20
105892.877184734
 30
0.0
 11
164571.7207322316
 21
105886.7377883175
 31
0.0
  0
LINE
  5
63BFD
330
1F
100
AcDbEntity
  8
freecads.com
100
AcDbLine
 10
164571.7207322316
 20
105886.7377883175
 30
0.0
 11
164576.3273568256
 21
105886.2261382198
 31
0.0
  0
LINE
  5
63BFE
330
1F
100
AcDbEntity
  8
freecads.com
100
AcDbLine
 10
164576.3273568256
 20
105886.2261382198
 30
0.0
 11
164580.934040579
 21
105884.6913093534
 31
0.0
  0
LINE
  5
63BFF
330
1F
100
AcDbEntity
  8
freecads.com
100
AcDbLine
 10
164580.934040579
 20
105884.6913093534
 30
0.0
 11
164589.6355477627
 21
105884.1796997314
 31
0.0
  0
LINE
  5
63C00
330
1F
100
AcDbEntity
  8
freecads.com
100
AcDbLine
 10
164589.6355477627
 20
105884.1796997314
 30
0.0
 11
164588.0999667924
 21
105881.6215706697
 31
0.0
  0
LINE
  5
63C01
330
1F
100
AcDbEntity
  8
freecads.com
100
AcDbLine
 10
164588.0999667924
 20
105881.6215706697
 30
0.0
 11
164588.0999667924
 21
105878.5518724614
 31
0.0
  0
LINE
  5
63C02
330
1F
100
AcDbEntity
  8
freecads.com
100
AcDbLine
 10
164588.0999667924
 20
105878.5518724614
 30
0.0
 11
164591.1710695745
 21
105877.5286532172
 31
0.0
  0
LINE
  5
63C03
330
1F
100
AcDbEntity
  8
freecads.com
100
AcDbLine
 10
164591.1710695745
 20
105877.5286532172
 30
0.0
 11
164597.825135462
 21
105876.5053934975
 31
0.0
  0
LINE
  5
63C04
330
1F
100
AcDbEntity
  8
freecads.com
100
AcDbLine
 10
164597.825135462
 20
105876.5053934975
 30
0.0
 11
164600.3844370823
 21
105875.9937838753
 31
0.0
  0
LINE
  5
63C05
330
1F
100
AcDbEntity
  8
freecads.com
100
AcDbLine
 10
164600.3844370823
 20
105875.9937838753
 30
0.0
 11
164610.1096057529
 21
105876.5053934975
 31
0.0
  0
LINE
  5
63C06
330
1F
100
AcDbEntity
  8
freecads.com
100
AcDbLine
 10
164610.1096057529
 20
105876.5053934975
 30
0.0
 11
164617.7873922894
 21
105877.017043595
 31
0.0
  0
LINE
  5
63C07
330
1F
100
AcDbEntity
  8
freecads.com
100
AcDbLine
 10
164617.7873922894
 20
105877.017043595
 30
0.0
 11
164623.9295978537
 21
105871.9008259474
 31
0.0
  0
LINE
  5
63C08
330
1F
100
AcDbEntity
  8
freecads.com
100
AcDbLine
 10
164623.9295978537
 20
105871.9008259474
 30
0.0
 11
164632.1192447133
 21
105869.3427373613
 31
0.0
  0
LINE
  5
63C09
330
1F
100
AcDbEntity
  8
freecads.com
100
AcDbLine
 10
164632.1192447133
 20
105869.3427373613
 30
0.0
 11
164643.8917955197
 21
105861.6684716029
 31
0.0
  0
LINE
  5
63C0A
330
1F
100
AcDbEntity
  8
freecads.com
100
AcDbLine
 10
164643.8917955197
 20
105861.6684716029
 30
0.0
 11
164653.1051630275
 21
105851.9477268805
 31
0.0
  0
LINE
  5
63C0B
330
1F
100
AcDbEntity
  8
freecads.com
100
AcDbLine
 10
164653.1051630275
 20
105851.9477268805
 30
0.0
 11
164656.1762658097
 21
105843.7618515001
 31
0.0
  0
LINE
  5
63C0C
330
1F
100
AcDbEntity
  8
freecads.com
100
AcDbLine
 10
164656.1762658097
 20
105843.7618515001
 30
0.0
 11
164656.1762658097
 21
105836.5991953639
 31
0.0
  0
LINE
  5
63C0D
330
1F
100
AcDbEntity
  8
freecads.com
100
AcDbLine
 10
164656.1762658097
 20
105836.5991953639
 30
0.0
 11
164654.1288245153
 21
105833.5294971557
 31
0.0
  0
LINE
  5
63C0E
330
1F
100
AcDbEntity
  8
freecads.com
100
AcDbLine
 10
164573.7681143665
 20
105908.7373663483
 30
0.0
 11
164569.6732909372
 21
105907.7141066286
 31
0.0
  0
LINE
  5
63C0F
330
1F
100
AcDbEntity
  8
freecads.com
100
AcDbLine
 10
164569.6732909372
 20
105907.7141066286
 30
0.0
 11
164566.6021881551
 21
105903.1095390784
 31
0.0
  0
LINE
  5
63C10
330
1F
100
AcDbEntity
  8
freecads.com
100
AcDbLine
 10
164566.6021881551
 20
105903.1095390784
 30
0.0
 11
164566.090327831
 21
105897.4817522841
 31
0.0
  0
LINE
  5
63C11
330
1F
100
AcDbEntity
  8
freecads.com
100
AcDbLine
 10
164566.090327831
 20
105897.4817522841
 30
0.0
 11
164568.6496294504
 21
105892.877184734
 31
0.0
  0
LINE
  5
63C12
330
1F
100
AcDbEntity
  8
freecads.com
100
AcDbLine
 10
164568.6496294504
 20
105892.877184734
 30
0.0
 11
164574.2799746906
 21
105890.3190961478
 31
0.0
  0
LINE
  5
63C13
330
1F
100
AcDbEntity
  8
freecads.com
100
AcDbLine
 10
164584.0051433621
 20
105903.6211891759
 30
0.0
 11
164578.886658445
 21
105899.528231248
 31
0.0
  0
LINE
  5
63C14
330
1F
100
AcDbEntity
  8
freecads.com
100
AcDbLine
 10
164578.886658445
 20
105899.528231248
 30
0.0
 11
164578.886658445
 21
105893.9004444537
 31
0.0
  0
LINE
  5
63C15
330
1F
100
AcDbEntity
  8
freecads.com
100
AcDbLine
 10
164578.886658445
 20
105893.9004444537
 30
0.0
 11
164580.934040579
 21
105891.3423153921
 31
0.0
  0
LINE
  5
63C16
330
1F
100
AcDbEntity
  8
freecads.com
100
AcDbLine
 10
164580.934040579
 20
105891.3423153921
 30
0.0
 11
164585.5407243343
 21
105889.8074865257
 31
0.0
  0
LINE
  5
63C17
330
1F
100
AcDbEntity
  8
freecads.com
100
AcDbLine
 10
164585.5407243343
 20
105889.8074865257
 30
0.0
 11
164588.6118271155
 21
105889.8074865257
 31
0.0
  0
LINE
  5
63C18
330
1F
100
AcDbEntity
  8
freecads.com
100
AcDbLine
 10
164588.6118271155
 20
105889.8074865257
 30
0.0
 11
164592.1947902218
 21
105891.8539654895
 31
0.0
  0
LINE
  5
63C19
330
1F
100
AcDbEntity
  8
freecads.com
100
AcDbLine
 10
164592.1947902218
 20
105891.8539654895
 30
0.0
 11
164596.289613652
 21
105892.877184734
 31
0.0
  0
LINE
  5
63C1A
330
1F
100
AcDbEntity
  8
freecads.com
100
AcDbLine
 10
164596.289613652
 20
105892.877184734
 30
0.0
 11
164590.1474080868
 21
105894.9236636979
 31
0.0
  0
LINE
  5
63C1B
330
1F
100
AcDbEntity
  8
freecads.com
100
AcDbLine
 10
164590.1474080868
 20
105894.9236636979
 30
0.0
 11
164586.0525846584
 21
105895.43527332
 31
0.0
  0
LINE
  5
63C1C
330
1F
100
AcDbEntity
  8
freecads.com
100
AcDbLine
 10
164586.0525846584
 20
105895.43527332
 30
0.0
 11
164583.493283038
 21
105901.5747102121
 31
0.0
  0
LINE
  5
63C1D
330
1F
100
AcDbEntity
  8
freecads.com
100
AcDbLine
 10
164594.7540326807
 20
105961.94565751
 30
0.0
 11
164598.8488561101
 21
105970.1315328907
 31
0.0
  0
LINE
  5
63C1E
330
1F
100
AcDbEntity
  8
freecads.com
100
AcDbLine
 10
164598.8488561101
 20
105970.1315328907
 30
0.0
 11
164609.486582051
 21
105978.988976851
 31
0.0
  0
LINE
  5
63C1F
330
1F
100
AcDbEntity
  8
freecads.com
100
AcDbLine
 10
164609.486582051
 20
105978.988976851
 30
0.0
 11
164617.5555997845
 21
105983.2736669609
 31
0.0
  0
LINE
  5
63C20
330
1F
100
AcDbEntity
  8
freecads.com
100
AcDbLine
 10
164617.5555997845
 20
105983.2736669609
 30
0.0
 11
164624.1116951816
 21
105986.0461539781
 31
0.0
  0
LINE
  5
63C21
330
1F
100
AcDbEntity
  8
freecads.com
100
AcDbLine
 10
164624.1116951816
 20
105986.0461539781
 30
0.0
 11
164629.1548682405
 21
105986.0461539781
 31
0.0
  0
LINE
  5
63C22
330
1F
100
AcDbEntity
  8
freecads.com
100
AcDbLine
 10
164629.1548682405
 20
105986.0461539781
 30
0.0
 11
164629.4070121031
 21
105988.8186005198
 31
0.0
  0
LINE
  5
63C23
330
1F
100
AcDbEntity
  8
freecads.com
100
AcDbLine
 10
164629.4070121031
 20
105988.8186005198
 30
0.0
 11
164628.6505213548
 21
105990.834965753
 31
0.0
  0
LINE
  5
63C24
330
1F
100
AcDbEntity
  8
freecads.com
100
AcDbLine
 10
164628.6505213548
 20
105990.834965753
 30
0.0
 11
164625.6246766802
 21
105991.0870063476
 31
0.0
  0
LINE
  5
63C25
330
1F
100
AcDbEntity
  8
freecads.com
100
AcDbLine
 10
164625.6246766802
 20
105991.0870063476
 30
0.0
 11
164617.0513120592
 21
105989.3226817093
 31
0.0
  0
LINE
  5
63C26
330
1F
100
AcDbEntity
  8
freecads.com
100
AcDbLine
 10
164617.0513120592
 20
105989.3226817093
 30
0.0
 11
164607.2171689644
 21
105983.7777481504
 31
0.0
  0
LINE
  5
63C27
330
1F
100
AcDbEntity
  8
freecads.com
100
AcDbLine
 10
164607.2171689644
 20
105983.7777481504
 30
0.0
 11
164599.904582819
 21
105977.4766928073
 31
0.0
  0
LINE
  5
63C28
330
1F
100
AcDbEntity
  8
freecads.com
100
AcDbLine
 10
164599.904582819
 20
105977.4766928073
 30
0.0
 11
164595.6179005084
 21
105967.8991097332
 31
0.0
  0
LINE
  5
63C29
330
1F
100
AcDbEntity
  8
freecads.com
100
AcDbLine
 10
164595.6179005084
 20
105967.8991097332
 30
0.0
 11
164594.7540326807
 21
105961.94565751
 31
0.0
  0
LINE
  5
63C2A
330
1F
100
AcDbEntity
  8
freecads.com
100
AcDbLine
 10
164647.8145198189
 20
106010.7462941607
 30
0.0
 11
164648.5709514069
 21
106007.7217665488
 31
0.0
  0
LINE
  5
63C2B
330
1F
100
AcDbEntity
  8
freecads.com
100
AcDbLine
 10
164648.5709514069
 20
106007.7217665488
 30
0.0
 11
164651.5968552427
 21
106007.7217665488
 31
0.0
  0
LINE
  5
63C2C
330
1F
100
AcDbEntity
  8
freecads.com
100
AcDbLine
 10
164651.5968552427
 20
106007.7217665488
 30
0.0
 11
164655.8835375523
 21
106011.7544565395
 31
0.0
  0
LINE
  5
63C2D
330
1F
100
AcDbEntity
  8
freecads.com
100
AcDbLine
 10
164655.8835375523
 20
106011.7544565395
 30
0.0
 11
164660.6745075881
 21
106016.0391871249
 31
0.0
  0
LINE
  5
63C2E
330
1F
100
AcDbEntity
  8
freecads.com
100
AcDbLine
 10
164660.6745075881
 20
106016.0391871249
 30
0.0
 11
164665.4654776249
 21
106019.0636742613
 31
0.0
  0
LINE
  5
63C2F
330
1F
100
AcDbEntity
  8
freecads.com
100
AcDbLine
 10
164665.4654776249
 20
106019.0636742613
 30
0.0
 11
164668.9957283456
 21
106020.0718366401
 31
0.0
  0
LINE
  5
63C30
330
1F
100
AcDbEntity
  8
freecads.com
100
AcDbLine
 10
164668.9957283456
 20
106020.0718366401
 30
0.0
 11
164672.0215730201
 21
106018.8116336666
 31
0.0
  0
LINE
  5
63C31
330
1F
100
AcDbEntity
  8
freecads.com
100
AcDbLine
 10
164672.0215730201
 20
106018.8116336666
 30
0.0
 11
164670.5086506829
 21
106021.3320396137
 31
0.0
  0
LINE
  5
63C32
330
1F
100
AcDbEntity
  8
freecads.com
100
AcDbLine
 10
164670.5086506829
 20
106021.3320396137
 30
0.0
 11
164665.2133337604
 21
106021.8361612785
 31
0.0
  0
LINE
  5
63C33
330
1F
100
AcDbEntity
  8
freecads.com
100
AcDbLine
 10
164665.2133337604
 20
106021.8361612785
 30
0.0
 11
164658.4050945016
 21
106020.5759178295
 31
0.0
  0
LINE
  5
63C34
330
1F
100
AcDbEntity
  8
freecads.com
100
AcDbLine
 10
164658.4050945016
 20
106020.5759178295
 30
0.0
 11
164652.3533459921
 21
106016.0391871249
 31
0.0
  0
LINE
  5
63C35
330
1F
100
AcDbEntity
  8
freecads.com
100
AcDbLine
 10
164652.3533459921
 20
106016.0391871249
 30
0.0
 11
164649.3274421561
 21
106012.7626189182
 31
0.0
  0
LINE
  5
63C36
330
1F
100
AcDbEntity
  8
freecads.com
100
AcDbLine
 10
164649.3274421561
 20
106012.7626189182
 30
0.0
 11
164647.8145198189
 21
106010.7462941607
 31
0.0
  0
LINE
  5
63C37
330
1F
100
AcDbEntity
  8
freecads.com
100
AcDbLine
 10
164624.768399707
 20
105962.3641963802
 30
0.0
 11
164622.0944259586
 21
105961.3460137954
 31
0.0
  0
LINE
  5
63C38
330
1F
100
AcDbEntity
  8
freecads.com
100
AcDbLine
 10
164622.0944259586
 20
105961.3460137954
 30
0.0
 11
164611.503851274
 21
105958.8255673732
 31
0.0
  0
LINE
  5
63C39
330
1F
100
AcDbEntity
  8
freecads.com
100
AcDbLine
 10
164611.503851274
 20
105958.8255673732
 30
0.0
 11
164608.2258035764
 21
105957.5653643996
 31
0.0
  0
LINE
  5
63C3A
330
1F
100
AcDbEntity
  8
freecads.com
100
AcDbLine
 10
164608.2258035764
 20
105957.5653643996
 30
0.0
 11
164606.7128220778
 21
105957.5653643996
 31
0.0
  0
LINE
  5
63C3B
330
1F
100
AcDbEntity
  8
freecads.com
100
AcDbLine
 10
164654.8749029404
 20
105995.6237370522
 30
0.0
 11
164656.8921721643
 21
105994.111493484
 31
0.0
  0
LINE
  5
63C3C
330
1F
100
AcDbEntity
  8
freecads.com
100
AcDbLine
 10
164656.8921721643
 20
105994.111493484
 30
0.0
 11
164662.6917768111
 21
105994.6155746733
 31
0.0
  0
LINE
  5
63C3D
330
1F
100
AcDbEntity
  8
freecads.com
100
AcDbLine
 10
164662.6917768111
 20
105994.6155746733
 30
0.0
 11
164670.5086506829
 21
105997.6401022852
 31
0.0
  0
LINE
  5
63C3E
330
1F
100
AcDbEntity
  8
freecads.com
100
AcDbLine
 10
164670.5086506829
 20
105997.6401022852
 30
0.0
 11
164674.2909861077
 21
105998.9003052587
 31
0.0
  0
LINE
  5
63C3F
330
1F
100
AcDbEntity
  8
freecads.com
100
AcDbLine
 10
164674.2909861077
 20
105998.9003052587
 30
0.0
 11
164675.5518237418
 21
106001.4207112058
 31
0.0
  0
LINE
  5
63C40
330
1F
100
AcDbEntity
  8
freecads.com
100
AcDbLine
 10
164675.5518237418
 20
106001.4207112058
 30
0.0
 11
164676.3082553316
 21
106005.4534011965
 31
0.0
  0
LINE
  5
63C41
330
1F
100
AcDbEntity
  8
freecads.com
100
AcDbLine
 10
164676.3082553316
 20
106005.4534011965
 30
0.0
 11
164676.3082553316
 21
106007.7217665488
 31
0.0
  0
LINE
  5
63C42
330
1F
100
AcDbEntity
  8
freecads.com
100
AcDbLine
 10
164676.3082553316
 20
106007.7217665488
 30
0.0
 11
164673.5345545178
 21
106007.7217665488
 31
0.0
  0
LINE
  5
63C43
330
1F
100
AcDbEntity
  8
freecads.com
100
AcDbLine
 10
164673.5345545178
 20
106007.7217665488
 30
0.0
 11
164666.2219683723
 21
106007.7217665488
 31
0.0
  0
LINE
  5
63C44
330
1F
100
AcDbEntity
  8
freecads.com
100
AcDbLine
 10
164666.2219683723
 20
106007.7217665488
 30
0.0
 11
164660.9266514508
 21
106005.4534011965
 31
0.0
  0
LINE
  5
63C45
330
1F
100
AcDbEntity
  8
freecads.com
100
AcDbLine
 10
164660.9266514508
 20
106005.4534011965
 30
0.0
 11
164657.6486037522
 21
106002.6809141793
 31
0.0
  0
LINE
  5
63C46
330
1F
100
AcDbEntity
  8
freecads.com
100
AcDbLine
 10
164657.6486037522
 20
106002.6809141793
 30
0.0
 11
164655.6313936906
 21
105999.4043864482
 31
0.0
  0
LINE
  5
63C47
330
1F
100
AcDbEntity
  8
freecads.com
100
AcDbLine
 10
164655.6313936906
 20
105999.4043864482
 30
0.0
 11
164655.1270468039
 21
105996.8839805012
 31
0.0
  0
LINE
  5
63C48
330
1F
100
AcDbEntity
  8
freecads.com
100
AcDbLine
 10
164655.1270468039
 20
105996.8839805012
 30
0.0
 11
164654.8749029404
 21
105995.6237370522
 31
0.0
  0
LINE
  5
63C49
330
1F
100
AcDbEntity
  8
freecads.com
100
AcDbLine
 10
164654.8749029404
 20
105995.6237370522
 30
0.0
 11
164654.8749029404
 21
105999.4043864482
 31
0.0
  0
LINE
  5
63C4A
330
1F
100
AcDbEntity
  8
freecads.com
100
AcDbLine
 10
164654.8749029404
 20
105999.4043864482
 30
0.0
 11
164657.1443160269
 21
106003.4370764389
 31
0.0
  0
LINE
  5
63C4B
330
1F
100
AcDbEntity
  8
freecads.com
100
AcDbLine
 10
164657.1443160269
 20
106003.4370764389
 30
0.0
 11
164661.4309983374
 21
106006.9656447646
 31
0.0
  0
LINE
  5
63C4C
330
1F
100
AcDbEntity
  8
freecads.com
100
AcDbLine
 10
164661.4309983374
 20
106006.9656447646
 30
0.0
 11
164664.9611898986
 21
106008.7299289277
 31
0.0
  0
LINE
  5
63C4D
330
1F
100
AcDbEntity
  8
freecads.com
100
AcDbLine
 10
164664.9611898986
 20
106008.7299289277
 30
0.0
 11
164669.2478722082
 21
106008.7299289277
 31
0.0
  0
LINE
  5
63C4E
330
1F
100
AcDbEntity
  8
freecads.com
100
AcDbLine
 10
164669.2478722082
 20
106008.7299289277
 30
0.0
 11
164672.7780637694
 21
106008.7299289277
 31
0.0
  0
LINE
  5
63C4F
330
1F
100
AcDbEntity
  8
freecads.com
100
AcDbLine
 10
164672.7780637694
 20
106008.7299289277
 30
0.0
 11
164676.3082553316
 21
106007.7217665488
 31
0.0
  0
LINE
  5
63C50
330
1F
100
AcDbEntity
  8
freecads.com
100
AcDbLine
 10
164606.7128220778
 20
105957.5653643996
 30
0.0
 11
164610.2430728003
 21
105967.3950285439
 31
0.0
  0
LINE
  5
63C51
330
1F
100
AcDbEntity
  8
freecads.com
100
AcDbLine
 10
164610.2430728003
 20
105967.3950285439
 30
0.0
 11
164613.5211204979
 21
105971.9317997239
 31
0.0
  0
LINE
  5
63C52
330
1F
100
AcDbEntity
  8
freecads.com
100
AcDbLine
 10
164613.5211204979
 20
105971.9317997239
 30
0.0
 11
164618.8163782591
 21
105975.9644492392
 31
0.0
  0
LINE
  5
63C53
330
1F
100
AcDbEntity
  8
freecads.com
100
AcDbLine
 10
164618.8163782591
 20
105975.9644492392
 30
0.0
 11
164623.6074074562
 21
105977.4766928073
 31
0.0
  0
LINE
  5
63C54
330
1F
100
AcDbEntity
  8
freecads.com
100
AcDbLine
 10
164623.6074074562
 20
105977.4766928073
 30
0.0
 11
164628.9026652174
 21
105977.4766928073
 31
0.0
  0
LINE
  5
63C55
330
1F
100
AcDbEntity
  8
freecads.com
100
AcDbLine
 10
164628.9026652174
 20
105977.4766928073
 30
0.0
 11
164631.1721374644
 21
105976.972611618
 31
0.0
  0
LINE
  5
63C56
330
1F
100
AcDbEntity
  8
freecads.com
100
AcDbLine
 10
164631.1721374644
 20
105976.972611618
 30
0.0
 11
164631.424281327
 21
105975.208327455
 31
0.0
  0
LINE
  5
63C57
330
1F
100
AcDbEntity
  8
freecads.com
100
AcDbLine
 10
164631.424281327
 20
105975.208327455
 30
0.0
 11
164631.6764251897
 21
105971.9317997239
 31
0.0
  0
LINE
  5
63C58
330
1F
100
AcDbEntity
  8
freecads.com
100
AcDbLine
 10
164631.6764251897
 20
105971.9317997239
 30
0.0
 11
164630.4156467151
 21
105967.6470691386
 31
0.0
  0
LINE
  5
63C59
330
1F
100
AcDbEntity
  8
freecads.com
100
AcDbLine
 10
164630.4156467151
 20
105967.6470691386
 30
0.0
 11
164627.1375990165
 21
105963.6143791479
 31
0.0
  0
LINE
  5
63C5A
330
1F
100
AcDbEntity
  8
freecads.com
100
AcDbLine
 10
164627.1375990165
 20
105963.6143791479
 30
0.0
 11
164624.768399707
 21
105962.3641963802
 31
0.0
  0
LINE
  5
63C5B
330
1F
100
AcDbEntity
  8
freecads.com
100
AcDbLine
 10
164606.7128220778
 20
105957.5653643996
 30
0.0
 11
164608.4427466886
 21
105964.4383782529
 31
0.0
  0
LINE
  5
63C5C
330
1F
100
AcDbEntity
  8
freecads.com
100
AcDbLine
 10
164608.4427466886
 20
105964.4383782529
 30
0.0
 11
164609.5394127565
 21
105968.3531632728
 31
0.0
  0
LINE
  5
63C5D
330
1F
100
AcDbEntity
  8
freecads.com
100
AcDbLine
 10
164609.5394127565
 20
105968.3531632728
 30
0.0
 11
164613.2993261907
 21
105973.520663309
 31
0.0
  0
LINE
  5
63C5E
330
1F
100
AcDbEntity
  8
freecads.com
100
AcDbLine
 10
164613.2993261907
 20
105973.520663309
 30
0.0
 11
164617.6858721422
 21
105976.4959323046
 31
0.0
  0
LINE
  5
63C5F
330
1F
100
AcDbEntity
  8
freecads.com
100
AcDbLine
 10
164617.6858721422
 20
105976.4959323046
 30
0.0
 11
164625.3623571377
 21
105978.375004829
 31
0.0
  0
LINE
  5
63C60
330
1F
100
AcDbEntity
  8
freecads.com
100
AcDbLine
 10
164625.3623571377
 20
105978.375004829
 30
0.0
 11
164631.1721374644
 21
105976.972611618
 31
0.0
  0
LINE
  5
63C61
330
1F
100
AcDbEntity
  8
freecads.com
100
AcDbLine
 10
164608.2258035764
 20
105957.5653643996
 30
0.0
 11
164612.6726936726
 21
105959.7406362288
 31
0.0
  0
LINE
  5
63C62
330
1F
100
AcDbEntity
  8
freecads.com
100
AcDbLine
 10
164612.6726936726
 20
105959.7406362288
 30
0.0
 11
164623.482400422
 21
105963.6554212487
 31
0.0
  0
LINE
  5
63C63
330
1F
100
AcDbEntity
  8
freecads.com
100
AcDbLine
 10
164623.482400422
 20
105963.6554212487
 30
0.0
 11
164626.9289975949
 21
105967.1004077813
 31
0.0
  0
LINE
  5
63C64
330
1F
100
AcDbEntity
  8
freecads.com
100
AcDbLine
 10
164626.9289975949
 20
105967.1004077813
 30
0.0
 11
164628.8089543115
 21
105970.7020342848
 31
0.0
  0
LINE
  5
63C65
330
1F
100
AcDbEntity
  8
freecads.com
100
AcDbLine
 10
164628.8089543115
 20
105970.7020342848
 30
0.0
 11
164630.2189366398
 21
105975.5563758048
 31
0.0
  0
LINE
  5
63C66
330
1F
100
AcDbEntity
  8
freecads.com
100
AcDbLine
 10
164630.2189366398
 20
105975.5563758048
 30
0.0
 11
164628.9026652174
 21
105977.4766928073
 31
0.0
  0
ARC
  5
63C67
330
1F
100
AcDbEntity
  8
freecads.com
100
AcDbCircle
 10
164612.5160355419
 20
105966.0042922609
 30
0.0
 40
8.124167563686256
100
AcDbArc
 50
231.5107602774088
 51
250.5770949823086
  0
ARC
  5
63C68
330
1F
100
AcDbEntity
  8
freecads.com
100
AcDbCircle
 10
164659.5148942955
 20
105999.3582849167
 30
0.0
 40
8.122347605925153
100
AcDbArc
 50
337.8613972577655
 51
61.60354058966342
  0
ARC
  5
63C69
330
1F
100
AcDbEntity
  8
freecads.com
100
AcDbCircle
 10
164612.5160355419
 20
105966.0042922609
 30
0.0
 40
8.124167563686256
100
AcDbArc
 50
332.8972860256159
 51
67.65592937588055
  0
LINE
  5
63C6A
330
1F
100
AcDbEntity
  8
freecads.com
100
AcDbLine
 10
164641.9955695485
 20
105999.0745520484
 30
0.0
 11
164652.6923380932
 21
105991.4776348652
 31
0.0
  0
LINE
  5
63C6B
330
1F
100
AcDbEntity
  8
freecads.com
100
AcDbLine
 10
164652.6923380932
 20
105991.4776348652
 30
0.0
 11
164663.6706534791
 21
105984.4434882663
 31
0.0
  0
LINE
  5
63C6C
330
1F
100
AcDbEntity
  8
freecads.com
100
AcDbLine
 10
164663.6706534791
 20
105984.4434882663
 30
0.0
 11
164673.5229589771
 21
105977.6907269595
 31
0.0
  0
LINE
  5
63C6D
330
1F
100
AcDbEntity
  8
freecads.com
100
AcDbLine
 10
164673.5229589771
 20
105977.6907269595
 30
0.0
 11
164675.493431909
 21
105974.5956911226
 31
0.0
  0
LINE
  5
63C6E
330
1F
100
AcDbEntity
  8
freecads.com
100
AcDbLine
 10
164675.493431909
 20
105974.5956911226
 30
0.0
 11
164675.493431909
 21
105971.500655286
 31
0.0
  0
LINE
  5
63C6F
330
1F
100
AcDbEntity
  8
freecads.com
100
AcDbLine
 10
164673.5229589771
 20
105980.2229922117
 30
0.0
 11
164679.7158062942
 21
105975.4397660483
 31
0.0
  0
LINE
  5
63C70
330
1F
100
AcDbEntity
  8
freecads.com
100
AcDbLine
 10
164679.7158062942
 20
105975.4397660483
 30
0.0
 11
164684.2197275218
 21
105971.500655286
 31
0.0
  0
LINE
  5
63C71
330
1F
100
AcDbEntity
  8
freecads.com
100
AcDbLine
 10
164684.2197275218
 20
105971.500655286
 30
0.0
 11
164684.7827028846
 21
105967.8428893405
 31
0.0
  0
LINE
  5
63C72
330
1F
100
AcDbEntity
  8
freecads.com
100
AcDbLine
 10
164684.7827028846
 20
105967.8428893405
 30
0.0
 11
164684.7827028846
 21
105964.7478535037
 31
0.0
  0
LINE
  5
63C73
330
1F
100
AcDbEntity
  8
freecads.com
100
AcDbLine
 10
164684.7827028846
 20
105964.7478535037
 30
0.0
 11
164684.5012152018
 21
105962.2155882514
 31
0.0
  0
LINE
  5
63C74
330
1F
100
AcDbEntity
  8
freecads.com
100
AcDbLine
 10
164684.5012152018
 20
105962.2155882514
 30
0.0
 11
164683.375264476
 21
105961.3714728502
 31
0.0
  0
LINE
  5
63C75
330
1F
100
AcDbEntity
  8
freecads.com
100
AcDbLine
 10
164682.5307422709
 20
105963.6223932858
 30
0.0
 11
164682.5307422709
 21
105966.9988144148
 31
0.0
  0
LINE
  5
63C76
330
1F
100
AcDbEntity
  8
freecads.com
100
AcDbLine
 10
164682.5307422709
 20
105966.9988144148
 30
0.0
 11
164679.9972939752
 21
105968.1242746325
 31
0.0
  0
LINE
  5
63C77
330
1F
100
AcDbEntity
  8
freecads.com
100
AcDbLine
 10
164679.9972939752
 20
105968.1242746325
 30
0.0
 11
164678.0268802047
 21
105966.9988144148
 31
0.0
  0
LINE
  5
63C78
330
1F
100
AcDbEntity
  8
freecads.com
100
AcDbLine
 10
164678.0268802047
 20
105966.9988144148
 30
0.0
 11
164677.4638456805
 21
105963.341048469
 31
0.0
  0
LINE
  5
63C79
330
1F
100
AcDbEntity
  8
freecads.com
100
AcDbLine
 10
164677.4638456805
 20
105963.341048469
 30
0.0
 11
164677.1823579985
 21
105960.8087427413
 31
0.0
  0
LINE
  5
63C7A
330
1F
100
AcDbEntity
  8
freecads.com
100
AcDbLine
 10
164677.1823579985
 20
105960.8087427413
 30
0.0
 11
164676.3378949538
 21
105958.5578223058
 31
0.0
  0
LINE
  5
63C7B
330
1F
100
AcDbEntity
  8
freecads.com
100
AcDbLine
 10
164672.678436772
 20
105954.9000563602
 30
0.0
 11
164669.0190377496
 21
105956.5882466869
 31
0.0
  0
LINE
  5
63C7C
330
1F
100
AcDbEntity
  8
freecads.com
100
AcDbLine
 10
164669.0190377496
 20
105956.5882466869
 30
0.0
 11
164668.4560623867
 21
105958.8391671225
 31
0.0
  0
LINE
  5
63C7D
330
1F
100
AcDbEntity
  8
freecads.com
100
AcDbLine
 10
164668.4560623867
 20
105958.8391671225
 30
0.0
 11
164666.7670771368
 21
105959.9646678157
 31
0.0
  0
LINE
  5
63C7E
330
1F
100
AcDbEntity
  8
freecads.com
100
AcDbLine
 10
164666.7670771368
 20
105959.9646678157
 30
0.0
 11
164665.0780918859
 21
105959.4018972313
 31
0.0
  0
LINE
  5
63C7F
330
1F
100
AcDbEntity
  8
freecads.com
100
AcDbLine
 10
164665.0780918859
 20
105959.4018972313
 30
0.0
 11
164663.1076189549
 21
105957.4323620878
 31
0.0
  0
LINE
  5
63C80
330
1F
100
AcDbEntity
  8
freecads.com
100
AcDbLine
 10
164663.1076189549
 20
105957.4323620878
 30
0.0
 11
164661.9816682283
 21
105953.7745961424
 31
0.0
  0
LINE
  5
63C81
330
1F
100
AcDbEntity
  8
freecads.com
100
AcDbLine
 10
164661.9816682283
 20
105953.7745961424
 30
0.0
 11
164661.9816682283
 21
105948.1472545778
 31
0.0
  0
LINE
  5
63C82
330
1F
100
AcDbEntity
  8
freecads.com
100
AcDbLine
 10
164661.9816682283
 20
105948.1472545778
 30
0.0
 11
164661.9816682283
 21
105945.8963341423
 31
0.0
  0
LINE
  5
63C83
330
1F
100
AcDbEntity
  8
freecads.com
100
AcDbLine
 10
164656.9147716379
 20
105946.1777194344
 30
0.0
 11
164654.944298706
 21
105948.991369979
 31
0.0
  0
LINE
  5
63C84
330
1F
100
AcDbEntity
  8
freecads.com
100
AcDbLine
 10
164654.944298706
 20
105948.991369979
 30
0.0
 11
164653.536801137
 21
105951.2422904146
 31
0.0
  0
LINE
  5
63C85
330
1F
100
AcDbEntity
  8
freecads.com
100
AcDbLine
 10
164653.536801137
 20
105951.2422904146
 30
0.0
 11
164652.6923380932
 21
105955.462786469
 31
0.0
  0
LINE
  5
63C86
330
1F
100
AcDbEntity
  8
freecads.com
100
AcDbLine
 10
164652.6923380932
 20
105955.462786469
 30
0.0
 11
164652.6923380932
 21
105959.9646678157
 31
0.0
  0
LINE
  5
63C87
330
1F
100
AcDbEntity
  8
freecads.com
100
AcDbLine
 10
164652.6923380932
 20
105959.9646678157
 30
0.0
 11
164654.3813233422
 21
105968.6870047414
 31
0.0
  0
LINE
  5
63C88
330
1F
100
AcDbEntity
  8
freecads.com
100
AcDbLine
 10
164662.5446435912
 20
105970.3751950682
 30
0.0
 11
164663.9521411592
 21
105969.2497348502
 31
0.0
  0
LINE
  5
63C89
330
1F
100
AcDbEntity
  8
freecads.com
100
AcDbLine
 10
164663.9521411592
 20
105969.2497348502
 30
0.0
 11
164666.204101773
 21
105969.2497348502
 31
0.0
  0
LINE
  5
63C8A
330
1F
100
AcDbEntity
  8
freecads.com
100
AcDbLine
 10
164652.9738257741
 20
105940.2690330532
 30
0.0
 11
164652.6923380932
 21
105935.4858068897
 31
0.0
  0
LINE
  5
63C8B
330
1F
100
AcDbEntity
  8
freecads.com
100
AcDbLine
 10
164652.6923380932
 20
105935.4858068897
 30
0.0
 11
164651.2848405233
 21
105930.1398506174
 31
0.0
  0
LINE
  5
63C8C
330
1F
100
AcDbEntity
  8
freecads.com
100
AcDbLine
 10
164651.2848405233
 20
105930.1398506174
 30
0.0
 11
164651.2848405233
 21
105922.8243187262
 31
0.0
  0
LINE
  5
63C8D
330
1F
100
AcDbEntity
  8
freecads.com
100
AcDbLine
 10
164688.4421610664
 20
105962.4969330681
 30
0.0
 11
164694.0720330197
 21
105963.059663177
 31
0.0
  0
LINE
  5
63C8E
330
1F
100
AcDbEntity
  8
freecads.com
100
AcDbLine
 10
164694.0720330197
 20
105963.059663177
 30
0.0
 11
164698.2944665653
 21
105961.6528581425
 31
0.0
  0
LINE
  5
63C8F
330
1F
100
AcDbEntity
  8
freecads.com
100
AcDbLine
 10
164698.2944665653
 20
105961.6528581425
 30
0.0
 11
164701.109402542
 21
105960.5273979248
 31
0.0
  0
LINE
  5
63C90
330
1F
100
AcDbEntity
  8
freecads.com
100
AcDbLine
 10
164706.7392744953
 20
105948.1472545778
 30
0.0
 11
164702.798387792
 21
105946.1777194344
 31
0.0
  0
LINE
  5
63C91
330
1F
100
AcDbEntity
  8
freecads.com
100
AcDbLine
 10
164702.798387792
 20
105946.1777194344
 30
0.0
 11
164696.8869689973
 21
105945.6149893255
 31
0.0
  0
LINE
  5
63C92
330
1F
100
AcDbEntity
  8
freecads.com
100
AcDbLine
 10
164696.8869689973
 20
105945.6149893255
 30
0.0
 11
164690.6941216802
 21
105943.6454137066
 31
0.0
  0
LINE
  5
63C93
330
1F
100
AcDbEntity
  8
freecads.com
100
AcDbLine
 10
164690.6941216802
 20
105943.6454137066
 30
0.0
 11
164682.8122891123
 21
105939.9876477611
 31
0.0
  0
LINE
  5
63C94
330
1F
100
AcDbEntity
  8
freecads.com
100
AcDbLine
 10
164682.8122891123
 20
105939.9876477611
 30
0.0
 11
164676.9008703176
 21
105935.7671517065
 31
0.0
  0
LINE
  5
63C95
330
1F
100
AcDbEntity
  8
freecads.com
100
AcDbLine
 10
164676.9008703176
 20
105935.7671517065
 30
0.0
 11
164674.08593434
 21
105930.1398506174
 31
0.0
  0
LINE
  5
63C96
330
1F
100
AcDbEntity
  8
freecads.com
100
AcDbLine
 10
164674.08593434
 20
105930.1398506174
 30
0.0
 11
164672.1154614082
 21
105926.2006993797
 31
0.0
  0
LINE
  5
63C97
330
1F
100
AcDbEntity
  8
freecads.com
100
AcDbLine
 10
164672.1154614082
 20
105926.2006993797
 30
0.0
 11
164668.1745155454
 21
105921.6988585085
 31
0.0
  0
LINE
  5
63C98
330
1F
100
AcDbEntity
  8
freecads.com
100
AcDbLine
 10
164668.1745155454
 20
105921.6988585085
 30
0.0
 11
164666.204101773
 21
105920.0106681819
 31
0.0
  0
LINE
  5
63C99
330
1F
100
AcDbEntity
  8
freecads.com
100
AcDbLine
 10
164666.204101773
 20
105920.0106681819
 30
0.0
 11
164666.7670771368
 21
105923.9497789441
 31
0.0
  0
LINE
  5
63C9A
330
1F
100
AcDbEntity
  8
freecads.com
100
AcDbLine
 10
164666.7670771368
 20
105923.9497789441
 30
0.0
 11
164670.4264761582
 21
105933.2348864543
 31
0.0
  0
LINE
  5
63C9B
330
1F
100
AcDbEntity
  8
freecads.com
100
AcDbLine
 10
164670.4264761582
 20
105933.2348864543
 30
0.0
 11
164674.08593434
 21
105940.831763162
 31
0.0
  0
LINE
  5
63C9C
330
1F
100
AcDbEntity
  8
freecads.com
100
AcDbLine
 10
164674.08593434
 20
105940.831763162
 30
0.0
 11
164678.3083678865
 21
105946.4590642511
 31
0.0
  0
LINE
  5
63C9D
330
1F
100
AcDbEntity
  8
freecads.com
100
AcDbLine
 10
164678.3083678865
 20
105946.4590642511
 30
0.0
 11
164683.9382398389
 21
105950.1168301967
 31
0.0
  0
LINE
  5
63C9E
330
1F
100
AcDbEntity
  8
freecads.com
100
AcDbLine
 10
164683.9382398389
 20
105950.1168301967
 30
0.0
 11
164686.1902004527
 21
105950.1168301967
 31
0.0
  0
LINE
  5
63C9F
330
1F
100
AcDbEntity
  8
freecads.com
100
AcDbLine
 10
164686.1902004527
 20
105950.1168301967
 30
0.0
 11
164689.0051364293
 21
105952.9304807413
 31
0.0
  0
LINE
  5
63CA0
330
1F
100
AcDbEntity
  8
freecads.com
100
AcDbLine
 10
164689.0051364293
 20
105952.9304807413
 30
0.0
 11
164693.2275699749
 21
105953.2118660335
 31
0.0
  0
LINE
  5
63CA1
330
1F
100
AcDbEntity
  8
freecads.com
100
AcDbLine
 10
164693.2275699749
 20
105953.2118660335
 30
0.0
 11
164699.1389296101
 21
105952.6491359244
 31
0.0
  0
LINE
  5
63CA2
330
1F
100
AcDbEntity
  8
freecads.com
100
AcDbLine
 10
164699.1389296101
 20
105952.6491359244
 30
0.0
 11
164702.798387792
 21
105950.398215489
 31
0.0
  0
LINE
  5
63CA3
330
1F
100
AcDbEntity
  8
freecads.com
100
AcDbLine
 10
164702.798387792
 20
105950.398215489
 30
0.0
 11
164705.6133237686
 21
105948.991369979
 31
0.0
  0
LINE
  5
63CA4
330
1F
100
AcDbEntity
  8
freecads.com
100
AcDbLine
 10
164674.6489097038
 20
105927.0448147808
 30
0.0
 11
164680.5603284994
 21
105930.4211954343
 31
0.0
  0
LINE
  5
63CA5
330
1F
100
AcDbEntity
  8
freecads.com
100
AcDbLine
 10
164680.5603284994
 20
105930.4211954343
 30
0.0
 11
164690.6941216802
 21
105933.5162312708
 31
0.0
  0
LINE
  5
63CA6
330
1F
100
AcDbEntity
  8
freecads.com
100
AcDbLine
 10
164690.6941216802
 20
105933.5162312708
 30
0.0
 11
164696.0425059516
 21
105936.3298818155
 31
0.0
  0
LINE
  5
63CA7
330
1F
100
AcDbEntity
  8
freecads.com
100
AcDbLine
 10
164696.0425059516
 20
105936.3298818155
 30
0.0
 11
164698.5759542473
 21
105939.7063029443
 31
0.0
  0
LINE
  5
63CA8
330
1F
100
AcDbEntity
  8
freecads.com
100
AcDbLine
 10
164698.5759542473
 20
105939.7063029443
 30
0.0
 11
164701.9538655877
 21
105944.2081438155
 31
0.0
  0
LINE
  5
63CA9
330
1F
100
AcDbEntity
  8
freecads.com
100
AcDbLine
 10
164705.8887178749
 20
105941.5687400608
 30
0.0
 11
164705.2230983078
 21
105935.5807218078
 31
0.0
  0
LINE
  5
63CAA
330
1F
100
AcDbEntity
  8
freecads.com
100
AcDbLine
 10
164705.2230983078
 20
105935.5807218078
 30
0.0
 11
164702.7824143432
 21
105929.149173631
 31
0.0
  0
LINE
  5
63CAB
330
1F
100
AcDbEntity
  8
freecads.com
100
AcDbLine
 10
164702.7824143432
 20
105929.149173631
 30
0.0
 11
164697.6791929444
 21
105925.8224968236
 31
0.0
  0
LINE
  5
63CAC
330
1F
100
AcDbEntity
  8
freecads.com
100
AcDbLine
 10
164697.6791929444
 20
105925.8224968236
 30
0.0
 11
164689.6915214825
 21
105924.2700206634
 31
0.0
  0
LINE
  5
63CAD
330
1F
100
AcDbEntity
  8
freecads.com
100
AcDbLine
 10
164689.6915214825
 20
105924.2700206634
 30
0.0
 11
164682.5913822194
 21
105924.0482557013
 31
0.0
  0
LINE
  5
63CAE
330
1F
100
AcDbEntity
  8
freecads.com
100
AcDbLine
 10
164696.3478946472
 20
105918.5038078478
 30
0.0
 11
164699.0104912417
 21
105921.8304846549
 31
0.0
  0
LINE
  5
63CAF
330
1F
100
AcDbEntity
  8
freecads.com
100
AcDbLine
 10
164699.0104912417
 20
105921.8304846549
 30
0.0
 11
164704.5574787389
 21
105925.6006913863
 31
0.0
  0
LINE
  5
63CB0
330
1F
100
AcDbEntity
  8
freecads.com
100
AcDbLine
 10
164704.5574787389
 20
105925.6006913863
 30
0.0
 11
164706.9981627045
 21
105926.487832185
 31
0.0
  0
LINE
  5
63CB1
330
1F
100
AcDbEntity
  8
freecads.com
100
AcDbLine
 10
164655.1525451625
 20
106035.1070477387
 30
0.0
 11
164662.6230318174
 21
106029.2257632336
 31
0.0
  0
LINE
  5
63CB2
330
1F
100
AcDbEntity
  8
freecads.com
100
AcDbLine
 10
164662.6230318174
 20
106029.2257632336
 30
0.0
 11
164669.0575515125
 21
106023.903080342
 31
0.0
  0
LINE
  5
63CB3
330
1F
100
AcDbEntity
  8
freecads.com
100
AcDbLine
 10
164669.0575515125
 20
106023.903080342
 30
0.0
 11
164672.8295337744
 21
106019.2457328121
 31
0.0
  0
LINE
  5
63CB4
330
1F
100
AcDbEntity
  8
freecads.com
100
AcDbLine
 10
164672.8295337744
 20
106019.2457328121
 30
0.0
 11
164675.27021774
 21
106012.37057376
 31
0.0
  0
LINE
  5
63CB5
330
1F
100
AcDbEntity
  8
freecads.com
100
AcDbLine
 10
164675.27021774
 20
106012.37057376
 30
0.0
 11
164676.601456875
 21
106009.0439374281
 31
0.0
  0
LINE
  5
63CB6
330
1F
100
AcDbEntity
  8
freecads.com
100
AcDbLine
 10
164676.601456875
 20
106009.0439374281
 30
0.0
 11
164678.5983747411
 21
106006.6043609444
 31
0.0
  0
LINE
  5
63CB7
330
1F
100
AcDbEntity
  8
freecads.com
100
AcDbLine
 10
164678.5983747411
 20
106006.6043609444
 30
0.0
 11
164683.2578300396
 21
106001.9470134144
 31
0.0
  0
LINE
  5
63CB8
330
1F
100
AcDbEntity
  8
freecads.com
100
AcDbLine
 10
164683.2578300396
 20
106001.9470134144
 30
0.0
 11
164689.6923497356
 21
105998.6203366072
 31
0.0
  0
LINE
  5
63CB9
330
1F
100
AcDbEntity
  8
freecads.com
100
AcDbLine
 10
164689.6923497356
 20
105998.6203366072
 30
0.0
 11
164698.3456999268
 21
105991.3016476313
 31
0.0
  0
LINE
  5
63CBA
330
1F
100
AcDbEntity
  8
freecads.com
100
AcDbLine
 10
164698.3456999268
 20
105991.3016476313
 30
0.0
 11
164702.339476496
 21
105985.9789647398
 31
0.0
  0
LINE
  5
63CBB
330
1F
100
AcDbEntity
  8
freecads.com
100
AcDbLine
 10
164702.339476496
 20
105985.9789647398
 30
0.0
 11
164710.9928266881
 21
105969.567386141
 31
0.0
  0
LINE
  5
63CBC
330
1F
100
AcDbEntity
  8
freecads.com
100
AcDbLine
 10
164710.9928266881
 20
105969.567386141
 30
0.0
 11
164715.6522819875
 21
105951.8250963442
 31
0.0
  0
LINE
  5
63CBD
330
1F
100
AcDbEntity
  8
freecads.com
100
AcDbLine
 10
164715.6522819875
 20
105951.8250963442
 30
0.0
 11
164719.6619136846
 21
105937.2981354057
 31
0.0
  0
LINE
  5
63CBE
330
1F
100
AcDbEntity
  8
freecads.com
100
AcDbLine
 10
164719.6619136846
 20
105937.2981354057
 30
0.0
 11
164720.7712993519
 21
105922.2172275298
 31
0.0
  0
LINE
  5
63CBF
330
1F
100
AcDbEntity
  8
freecads.com
100
AcDbLine
 10
164720.7712993519
 20
105922.2172275298
 30
0.0
 11
164717.8869084492
 21
105905.8056084559
 31
0.0
  0
LINE
  5
63CC0
330
1F
100
AcDbEntity
  8
freecads.com
100
AcDbLine
 10
164717.8869084492
 20
105905.8056084559
 30
0.0
 11
164716.3337566834
 21
105901.1483014012
 31
0.0
  0
LINE
  5
63CC1
330
1F
100
AcDbEntity
  8
freecads.com
100
AcDbLine
 10
164716.3337566834
 20
105901.1483014012
 30
0.0
 11
164708.1241725916
 21
105891.6118009034
 31
0.0
  0
LINE
  5
63CC2
330
1F
100
AcDbEntity
  8
freecads.com
100
AcDbLine
 10
164708.1241725916
 20
105891.6118009034
 30
0.0
 11
164694.5895136315
 21
105886.06735305
 31
0.0
  0
LINE
  5
63CC3
330
1F
100
AcDbEntity
  8
freecads.com
100
AcDbLine
 10
164694.5895136315
 20
105886.06735305
 30
0.0
 11
164675.5078671751
 21
105881.4100055198
 31
0.0
  0
LINE
  5
63CC4
330
1F
100
AcDbEntity
  8
freecads.com
100
AcDbLine
 10
164675.5078671751
 20
105881.4100055198
 30
0.0
 11
164660.4200564492
 21
105879.1922344734
 31
0.0
  0
LINE
  5
63CC5
330
1F
100
AcDbEntity
  8
freecads.com
100
AcDbLine
 10
164660.4200564492
 20
105879.1922344734
 30
0.0
 11
164644.6666261563
 21
105877.1962283891
 31
0.0
  0
LINE
  5
63CC6
330
1F
100
AcDbEntity
  8
freecads.com
100
AcDbLine
 10
164644.6666261563
 20
105877.1962283891
 30
0.0
 11
164628.9131367011
 21
105878.526899112
 31
0.0
  0
LINE
  5
63CC7
330
1F
100
AcDbEntity
  8
freecads.com
100
AcDbLine
 10
164659.2441630112
 20
106031.8858427799
 30
0.0
 11
164655.2817526227
 21
106038.5415511309
 31
0.0
  0
LINE
  5
63CC8
330
1F
100
AcDbEntity
  8
freecads.com
100
AcDbLine
 10
164655.2817526227
 20
106038.5415511309
 30
0.0
 11
164647.4466571864
 21
106049.169998178
 31
0.0
  0
LINE
  5
63CC9
330
1F
100
AcDbEntity
  8
freecads.com
100
AcDbLine
 10
164647.4466571864
 20
106049.169998178
 30
0.0
 11
164637.0931994915
 21
106060.3578158723
 31
0.0
  0
LINE
  5
63CCA
330
1F
100
AcDbEntity
  8
freecads.com
100
AcDbLine
 10
164637.0931994915
 20
106060.3578158723
 30
0.0
 11
164622.5423333216
 21
106070.1472069489
 31
0.0
  0
LINE
  5
63CCB
330
1F
100
AcDbEntity
  8
freecads.com
100
AcDbLine
 10
164622.5423333216
 20
106070.1472069489
 30
0.0
 11
164614.9871282224
 21
106072.1050446888
 31
0.0
  0
LINE
  5
63CCC
330
1F
100
AcDbEntity
  8
freecads.com
100
AcDbLine
 10
164614.9871282224
 20
106072.1050446888
 30
0.0
 11
164608.2713574888
 21
106072.3847704878
 31
0.0
  0
LINE
  5
63CCD
330
1F
100
AcDbEntity
  8
freecads.com
100
AcDbLine
 10
164608.2713574888
 20
106072.3847704878
 30
0.0
 11
164601.2757555796
 21
106074.0629229041
 31
0.0
  0
LINE
  5
63CCE
330
1F
100
AcDbEntity
  8
freecads.com
100
AcDbLine
 10
164601.2757555796
 20
106074.0629229041
 30
0.0
 11
164591.7617322495
 21
106072.3847704878
 31
0.0
  0
LINE
  5
63CCF
330
1F
100
AcDbEntity
  8
freecads.com
100
AcDbLine
 10
164591.7617322495
 20
106072.3847704878
 30
0.0
 11
164584.2065271511
 21
106070.1472069489
 31
0.0
  0
LINE
  5
63CD0
330
1F
100
AcDbEntity
  8
freecads.com
100
AcDbLine
 10
164584.2065271511
 20
106070.1472069489
 30
0.0
 11
164581.6881057303
 21
106065.3923540723
 31
0.0
  0
LINE
  5
63CD1
330
1F
100
AcDbEntity
  8
freecads.com
100
AcDbLine
 10
164581.6881057303
 20
106065.3923540723
 30
0.0
 11
164575.8117693635
 21
106065.9517651947
 31
0.0
  0
LINE
  5
63CD2
330
1F
100
AcDbEntity
  8
freecads.com
100
AcDbLine
 10
164575.8117693635
 20
106065.9517651947
 30
0.0
 11
164568.2565642632
 21
106066.2314505181
 31
0.0
  0
LINE
  5
63CD3
330
1F
100
AcDbEntity
  8
freecads.com
100
AcDbLine
 10
164568.2565642632
 20
106066.2314505181
 30
0.0
 11
164560.4214688279
 21
106063.1547905333
 31
0.0
  0
LINE
  5
63CD4
330
1F
100
AcDbEntity
  8
freecads.com
100
AcDbLine
 10
164560.4214688279
 20
106063.1547905333
 30
0.0
 11
164554.5451916223
 21
106058.3999376569
 31
0.0
  0
LINE
  5
63CD5
330
1F
100
AcDbEntity
  8
freecads.com
100
AcDbLine
 10
164554.5451916223
 20
106058.3999376569
 30
0.0
 11
164539.4346631011
 21
106050.2887799474
 31
0.0
  0
LINE
  5
63CD6
330
1F
100
AcDbEntity
  8
freecads.com
100
AcDbLine
 10
164539.4346631011
 20
106050.2887799474
 30
0.0
 11
164521.3500557141
 21
106037.150733897
 31
0.0
  0
LINE
  5
63CD7
330
1F
100
AcDbEntity
  8
freecads.com
100
AcDbLine
 10
164521.3500557141
 20
106037.150733897
 30
0.0
 11
164512.3956947373
 21
106027.6410686192
 31
0.0
  0
LINE
  5
63CD8
330
1F
100
AcDbEntity
  8
freecads.com
100
AcDbLine
 10
164512.3956947373
 20
106027.6410686192
 30
0.0
 11
164503.4413337586
 21
106010.2999309555
 31
0.0
  0
LINE
  5
63CD9
330
1F
100
AcDbEntity
  8
freecads.com
100
AcDbLine
 10
164503.4413337586
 20
106010.2999309555
 30
0.0
 11
164493.0878760638
 21
105992.3993821693
 31
0.0
  0
LINE
  5
63CDA
330
1F
100
AcDbEntity
  8
freecads.com
100
AcDbLine
 10
164493.0878760638
 20
105992.3993821693
 30
0.0
 11
164488.8905267501
 21
105982.6099910928
 31
0.0
  0
LINE
  5
63CDB
330
1F
100
AcDbEntity
  8
freecads.com
100
AcDbLine
 10
164488.8905267501
 20
105982.6099910928
 30
0.0
 11
164491.6887201853
 21
105983.1694022151
 31
0.0
  0
LINE
  5
63CDC
330
1F
100
AcDbEntity
  8
freecads.com
100
AcDbLine
 10
164491.6887201853
 20
105983.1694022151
 30
0.0
 11
164491.6887201853
 21
105971.701858722
 31
0.0
  0
LINE
  5
63CDD
330
1F
100
AcDbEntity
  8
freecads.com
100
AcDbLine
 10
164491.6887201853
 20
105971.701858722
 30
0.0
 11
164489.1703579258
 21
105963.5906605371
 31
0.0
  0
LINE
  5
63CDE
330
1F
100
AcDbEntity
  8
freecads.com
100
AcDbLine
 10
164489.1703579258
 20
105963.5906605371
 30
0.0
 11
164488.3308643978
 21
105952.6825281666
 31
0.0
  0
LINE
  5
63CDF
330
1F
100
AcDbEntity
  8
freecads.com
100
AcDbLine
 10
164488.3308643978
 20
105952.6825281666
 30
0.0
 11
164488.3308643978
 21
105940.9352993499
 31
0.0
  0
LINE
  5
63CE0
330
1F
100
AcDbEntity
  8
freecads.com
100
AcDbLine
 10
164488.3308643978
 20
105940.9352993499
 30
0.0
 11
164491.968551361
 21
105913.8047706096
 31
0.0
  0
LINE
  5
63CE1
330
1F
100
AcDbEntity
  8
freecads.com
100
AcDbLine
 10
164491.968551361
 20
105913.8047706096
 30
0.0
 11
164495.326466308
 21
105912.4063035167
 31
0.0
  0
LINE
  5
63CE2
330
1F
100
AcDbEntity
  8
freecads.com
100
AcDbLine
 10
164495.326466308
 20
105912.4063035167
 30
0.0
 11
164500.6431403234
 21
105906.5326688705
 31
0.0
  0
LINE
  5
63CE3
330
1F
100
AcDbEntity
  8
freecads.com
100
AcDbLine
 10
164500.6431403234
 20
105906.5326688705
 30
0.0
 11
164501.2027435144
 21
105908.7702324094
 31
0.0
  0
LINE
  5
63CE4
330
1F
100
AcDbEntity
  8
freecads.com
100
AcDbLine
 10
164501.2027435144
 20
105908.7702324094
 30
0.0
 11
164508.1983454237
 21
105901.2184453469
 31
0.0
  0
LINE
  5
63CE5
330
1F
100
AcDbEntity
  8
freecads.com
100
AcDbLine
 10
164508.1983454237
 20
105901.2184453469
 30
0.0
 11
164515.7536096833
 21
105896.1839071468
 31
0.0
  0
LINE
  5
63CE6
330
1F
100
AcDbEntity
  8
freecads.com
100
AcDbLine
 10
164515.7536096833
 20
105896.1839071468
 30
0.0
 11
164516.8728752257
 21
105897.0230035928
 31
0.0
  0
LINE
  5
63CE7
330
1F
100
AcDbEntity
  8
freecads.com
100
AcDbLine
 10
164516.8728752257
 20
105897.0230035928
 30
0.0
 11
164519.950958997
 21
105896.1839071468
 31
0.0
  0
LINE
  5
63CE8
330
1F
100
AcDbEntity
  8
freecads.com
100
AcDbLine
 10
164519.950958997
 20
105896.1839071468
 30
0.0
 11
164514.6342849806
 21
105903.1763235623
 31
0.0
  0
LINE
  5
63CE9
330
1F
100
AcDbEntity
  8
freecads.com
100
AcDbLine
 10
164514.6342849806
 20
105903.1763235623
 30
0.0
 11
164508.1983454237
 21
105908.7702324094
 31
0.0
  0
LINE
  5
63CEA
330
1F
100
AcDbEntity
  8
freecads.com
100
AcDbLine
 10
164508.1983454237
 20
105908.7702324094
 30
0.0
 11
164507.3589110579
 21
105914.3641412565
 31
0.0
  0
LINE
  5
63CEB
330
1F
100
AcDbEntity
  8
freecads.com
100
AcDbLine
 10
164507.3589110579
 20
105914.3641412565
 30
0.0
 11
164510.4369356679
 21
105911.2875217472
 31
0.0
  0
LINE
  5
63CEC
330
1F
100
AcDbEntity
  8
freecads.com
100
AcDbLine
 10
164510.4369356679
 20
105911.2875217472
 30
0.0
 11
164516.59304405
 21
105906.5326688705
 31
0.0
  0
LINE
  5
63CED
330
1F
100
AcDbEntity
  8
freecads.com
100
AcDbLine
 10
164516.59304405
 20
105906.5326688705
 30
0.0
 11
164523.5886459593
 21
105907.0920799931
 31
0.0
  0
LINE
  5
63CEE
330
1F
100
AcDbEntity
  8
freecads.com
100
AcDbLine
 10
164523.5886459593
 20
105907.0920799931
 30
0.0
 11
164528.3456576233
 21
105905.6935724247
 31
0.0
  0
LINE
  5
63CEF
330
1F
100
AcDbEntity
  8
freecads.com
100
AcDbLine
 10
164528.3456576233
 20
105905.6935724247
 30
0.0
 11
164529.1851511504
 21
105903.7356942093
 31
0.0
  0
LINE
  5
63CF0
330
1F
100
AcDbEntity
  8
freecads.com
100
AcDbLine
 10
164529.1851511504
 20
105903.7356942093
 30
0.0
 11
164531.7035725703
 21
105897.5823742398
 31
0.0
  0
LINE
  5
63CF1
330
1F
100
AcDbEntity
  8
freecads.com
100
AcDbLine
 10
164531.7035725703
 20
105897.5823742398
 30
0.0
 11
164526.9465609062
 21
105893.107247162
 31
0.0
  0
LINE
  5
63CF2
330
1F
100
AcDbEntity
  8
freecads.com
100
AcDbLine
 10
164526.9465609062
 20
105893.107247162
 30
0.0
 11
164523.9202429438
 21
105887.3142396021
 31
0.0
  0
LINE
  5
63CF3
330
1F
100
AcDbEntity
  8
freecads.com
100
AcDbLine
 10
164523.9202429438
 20
105887.3142396021
 30
0.0
 11
164523.6404709294
 21
105880.0421378632
 31
0.0
  0
LINE
  5
63CF4
330
1F
100
AcDbEntity
  8
freecads.com
100
AcDbLine
 10
164523.6404709294
 20
105880.0421378632
 30
0.0
 11
164523.6404709294
 21
105879.4827267409
 31
0.0
  0
LINE
  5
63CF5
330
1F
100
AcDbEntity
  8
freecads.com
100
AcDbLine
 10
164523.6404709294
 20
105879.4827267409
 30
0.0
 11
164513.8466164237
 21
105879.7624525397
 31
0.0
  0
LINE
  5
63CF6
330
1F
100
AcDbEntity
  8
freecads.com
100
AcDbLine
 10
164513.8466164237
 20
105879.7624525397
 30
0.0
 11
164504.3325930955
 21
105878.0842596479
 31
0.0
  0
LINE
  5
63CF7
330
1F
100
AcDbEntity
  8
freecads.com
100
AcDbLine
 10
164504.3325930955
 20
105878.0842596479
 30
0.0
 11
164494.538797751
 21
105873.6091325701
 31
0.0
  0
LINE
  5
63CF8
330
1F
100
AcDbEntity
  8
freecads.com
100
AcDbLine
 10
164494.538797751
 20
105873.6091325701
 30
0.0
 11
164479.1484380541
 21
105865.2182490618
 31
0.0
  0
LINE
  5
63CF9
330
1F
100
AcDbEntity
  8
freecads.com
100
AcDbLine
 10
164479.1484380541
 20
105865.2182490618
 30
0.0
 11
164468.2353180088
 21
105850.9537309075
 31
0.0
  0
LINE
  5
63CFA
330
1F
100
AcDbEntity
  8
freecads.com
100
AcDbLine
 10
164468.2353180088
 20
105850.9537309075
 30
0.0
 11
164465.4371245727
 21
105846.4786038297
 31
0.0
  0
LINE
  5
63CFB
330
1F
100
AcDbEntity
  8
freecads.com
100
AcDbLine
 10
164465.4371245727
 20
105846.4786038297
 30
0.0
 11
164462.6388719771
 21
105840.3252838602
 31
0.0
  0
LINE
  5
63CFC
330
1F
100
AcDbEntity
  8
freecads.com
100
AcDbLine
 10
164462.6388719771
 20
105840.3252838602
 30
0.0
 11
164460.6801129076
 21
105825.2217097353
 31
0.0
  0
LINE
  5
63CFD
330
1F
100
AcDbEntity
  8
freecads.com
100
AcDbLine
 10
164460.6801129076
 20
105825.2217097353
 30
0.0
 11
164460.1204505572
 21
105812.0759733505
 31
0.0
  0
LINE
  5
63CFE
330
1F
100
AcDbEntity
  8
freecads.com
100
AcDbLine
 10
164460.1204505572
 20
105812.0759733505
 30
0.0
 11
164467.6757148169
 21
105803.4054045185
 31
0.0
  0
LINE
  5
63CFF
330
1F
100
AcDbEntity
  8
freecads.com
100
AcDbLine
 10
164467.6757148169
 20
105803.4054045185
 30
0.0
 11
164471.8730641305
 21
105799.2099627644
 31
0.0
  0
LINE
  5
63D00
330
1F
100
AcDbEntity
  8
freecads.com
100
AcDbLine
 10
164471.8730641305
 20
105799.2099627644
 30
0.0
 11
164474.6712575657
 21
105792.4972721479
 31
0.0
  0
LINE
  5
63D01
330
1F
100
AcDbEntity
  8
freecads.com
100
AcDbLine
 10
164474.6712575657
 20
105792.4972721479
 30
0.0
 11
164477.4695101622
 21
105785.5048557325
 31
0.0
  0
LINE
  5
63D02
330
1F
100
AcDbEntity
  8
freecads.com
100
AcDbLine
 10
164477.4695101622
 20
105785.5048557325
 30
0.0
 11
164486.9835334904
 21
105775.4357793323
 31
0.0
  0
LINE
  5
63D03
330
1F
100
AcDbEntity
  8
freecads.com
100
AcDbLine
 10
164486.9835334904
 20
105775.4357793323
 30
0.0
 11
164495.6580632934
 21
105770.4012816077
 31
0.0
  0
LINE
  5
63D04
330
1F
100
AcDbEntity
  8
freecads.com
100
AcDbLine
 10
164495.6580632934
 20
105770.4012816077
 30
0.0
 11
164511.8878573551
 21
105766.2058398534
 31
0.0
  0
LINE
  5
63D05
330
1F
100
AcDbEntity
  8
freecads.com
100
AcDbLine
 10
164511.8878573551
 20
105766.2058398534
 30
0.0
 11
164538.191277937
 21
105760.6118905309
 31
0.0
  0
LINE
  5
63D06
330
1F
100
AcDbEntity
  8
freecads.com
100
AcDbLine
 10
164538.191277937
 20
105760.6118905309
 30
0.0
 11
164563.0956018027
 21
105755.0179816839
 31
0.0
  0
LINE
  5
63D07
330
1F
100
AcDbEntity
  8
freecads.com
100
AcDbLine
 10
164563.0956018027
 20
105755.0179816839
 30
0.0
 11
164582.123648461
 21
105749.7037581601
 31
0.0
  0
LINE
  5
63D08
330
1F
100
AcDbEntity
  8
freecads.com
100
AcDbLine
 10
164582.123648461
 20
105749.7037581601
 30
0.0
 11
164596.1488698115
 21
105745.7206505893
 31
0.0
  0
LINE
  5
63D09
330
1F
100
AcDbEntity
  8
freecads.com
100
AcDbLine
 10
164596.1488698115
 20
105745.7206505893
 30
0.0
 11
164603.3123704251
 21
105739.9029530081
 31
0.0
  0
LINE
  5
63D0A
330
1F
100
AcDbEntity
  8
freecads.com
100
AcDbLine
 10
164603.3123704251
 20
105739.9029530081
 30
0.0
 11
164632.8617734853
 21
105722.0024042219
 31
0.0
  0
LINE
  5
63D0B
330
1F
100
AcDbEntity
  8
freecads.com
100
AcDbLine
 10
164632.8617734853
 20
105722.0024042219
 30
0.0
 11
164665.5451673902
 21
105710.8145865279
 31
0.0
  0
LINE
  5
63D0C
330
1F
100
AcDbEntity
  8
freecads.com
100
AcDbLine
 10
164665.5451673902
 20
105710.8145865279
 30
0.0
 11
164680.767628381
 21
105707.6819894784
 31
0.0
  0
LINE
  5
63D0D
330
1F
100
AcDbEntity
  8
freecads.com
100
AcDbLine
 10
164680.767628381
 20
105707.6819894784
 30
0.0
 11
164696.8854308119
 21
105697.3891648194
 31
0.0
  0
LINE
  5
63D0E
330
1F
100
AcDbEntity
  8
freecads.com
100
AcDbLine
 10
164696.8854308119
 20
105697.3891648194
 30
0.0
 11
164708.0783820348
 21
105695.599097798
 31
0.0
  0
LINE
  5
63D0F
330
1F
100
AcDbEntity
  8
freecads.com
100
AcDbLine
 10
164708.0783820348
 20
105695.599097798
 30
0.0
 11
164739.8663753392
 21
105693.3615342593
 31
0.0
  0
LINE
  5
63D10
330
1F
100
AcDbEntity
  8
freecads.com
100
AcDbLine
 10
164739.8663753392
 20
105693.3615342593
 30
0.0
 11
164764.0431381473
 21
105695.1516012804
 31
0.0
  0
LINE
  5
63D11
330
1F
100
AcDbEntity
  8
freecads.com
100
AcDbLine
 10
164764.0431381473
 20
105695.1516012804
 30
0.0
 11
164777.0269497316
 21
105705.891922457
 31
0.0
  0
LINE
  5
63D12
330
1F
100
AcDbEntity
  8
freecads.com
100
AcDbLine
 10
164777.0269497316
 20
105705.891922457
 30
0.0
 11
164792.6970814438
 21
105735.8753629233
 31
0.0
  0
LINE
  5
63D13
330
1F
100
AcDbEntity
  8
freecads.com
100
AcDbLine
 10
164792.6970814438
 20
105735.8753629233
 30
0.0
 11
164797.1742619332
 21
105766.7537964251
 31
0.0
  0
LINE
  5
63D14
330
1F
100
AcDbEntity
  8
freecads.com
100
AcDbLine
 10
164797.1742619332
 20
105766.7537964251
 30
0.0
 11
164793.5925412057
 21
105789.5769688063
 31
0.0
  0
LINE
  5
63D15
330
1F
100
AcDbEntity
  8
freecads.com
100
AcDbLine
 10
164793.5925412057
 20
105789.5769688063
 30
0.0
 11
164774.7883594884
 21
105813.2952151738
 31
0.0
  0
LINE
  5
63D16
330
1F
100
AcDbEntity
  8
freecads.com
100
AcDbLine
 10
164774.7883594884
 20
105813.2952151738
 30
0.0
 11
164747.0298759527
 21
105827.6156299175
 31
0.0
  0
LINE
  5
63D17
330
1F
100
AcDbEntity
  8
freecads.com
100
AcDbLine
 10
164747.0298759527
 20
105827.6156299175
 30
0.0
 11
164728.6734241163
 21
105831.19576396
 31
0.0
  0
LINE
  5
63D18
330
1F
100
AcDbEntity
  8
freecads.com
100
AcDbLine
 10
164728.6734241163
 20
105831.19576396
 30
0.0
 11
164707.1829814333
 21
105831.19576396
 31
0.0
  0
LINE
  5
63D19
330
1F
100
AcDbEntity
  8
freecads.com
100
AcDbLine
 10
164707.1829814333
 20
105831.19576396
 30
0.0
 11
164694.6468405686
 21
105829.4056969386
 31
0.0
  0
LINE
  5
63D1A
330
1F
100
AcDbEntity
  8
freecads.com
100
AcDbLine
 10
164694.6468405686
 20
105829.4056969386
 30
0.0
 11
164657.9339960553
 21
105828.5106634282
 31
0.0
  0
LINE
  5
63D1B
330
1F
100
AcDbEntity
  8
freecads.com
100
AcDbLine
 10
164657.9339960553
 20
105828.5106634282
 30
0.0
 11
164640.4730039807
 21
105826.2730998891
 31
0.0
  0
LINE
  5
63D1C
330
1F
100
AcDbEntity
  8
freecads.com
100
AcDbLine
 10
164640.4730039807
 20
105826.2730998891
 30
0.0
 11
164629.7277234783
 21
105826.2730998891
 31
0.0
  0
LINE
  5
63D1D
330
1F
100
AcDbEntity
  8
freecads.com
100
AcDbLine
 10
164629.7277234783
 20
105826.2730998891
 30
0.0
 11
164614.505321648
 21
105833.4333274987
 31
0.0
  0
LINE
  5
63D1E
330
1F
100
AcDbEntity
  8
freecads.com
100
AcDbLine
 10
164614.505321648
 20
105833.4333274987
 30
0.0
 11
164594.8057393282
 21
105839.6985215976
 31
0.0
  0
LINE
  5
63D1F
330
1F
100
AcDbEntity
  8
freecads.com
100
AcDbLine
 10
164594.8057393282
 20
105839.6985215976
 30
0.0
 11
164578.2402070155
 21
105842.383581654
 31
0.0
  0
LINE
  5
63D20
330
1F
100
AcDbEntity
  8
freecads.com
100
AcDbLine
 10
164578.2402070155
 20
105842.383581654
 30
0.0
 11
164561.2268856615
 21
105844.621145193
 31
0.0
  0
LINE
  5
63D21
330
1F
100
AcDbEntity
  8
freecads.com
100
AcDbLine
 10
164561.2268856615
 20
105844.621145193
 30
0.0
 11
164549.138533839
 21
105847.3062457248
 31
0.0
  0
LINE
  5
63D22
330
1F
100
AcDbEntity
  8
freecads.com
100
AcDbLine
 10
164549.138533839
 20
105847.3062457248
 30
0.0
 11
164536.1546630915
 21
105850.8863392919
 31
0.0
  0
LINE
  5
63D23
330
1F
100
AcDbEntity
  8
freecads.com
100
AcDbLine
 10
164564.4812126476
 20
105844.1931415566
 30
0.0
 11
164587.6422387147
 21
105842.8311186471
 31
0.0
  0
LINE
  5
63D24
330
1F
100
AcDbEntity
  8
freecads.com
100
AcDbLine
 10
164587.6422387147
 20
105842.8311186471
 30
0.0
 11
164598.8351899376
 21
105843.2786151647
 31
0.0
  0
LINE
  5
63D25
330
1F
100
AcDbEntity
  8
freecads.com
100
AcDbLine
 10
164598.8351899376
 20
105843.2786151647
 30
0.0
 11
164609.1327405581
 21
105841.041051626
 31
0.0
  0
LINE
  5
63D26
330
1F
100
AcDbEntity
  8
freecads.com
100
AcDbLine
 10
164609.1327405581
 20
105841.041051626
 30
0.0
 11
164619.8779618991
 21
105839.2509846046
 31
0.0
  0
LINE
  5
63D27
330
1F
100
AcDbEntity
  8
freecads.com
100
AcDbLine
 10
164619.8779618991
 20
105839.2509846046
 30
0.0
 11
164634.6526338486
 21
105838.355951094
 31
0.0
  0
LINE
  5
63D28
330
1F
100
AcDbEntity
  8
freecads.com
100
AcDbLine
 10
164634.6526338486
 20
105838.355951094
 30
0.0
 11
164644.5024545882
 21
105837.0134210659
 31
0.0
  0
LINE
  5
63D29
330
1F
100
AcDbEntity
  8
freecads.com
100
AcDbLine
 10
164644.5024545882
 20
105837.0134210659
 30
0.0
 11
164649.875035678
 21
105839.6985215976
 31
0.0
  0
LINE
  5
63D2A
330
1F
100
AcDbEntity
  8
freecads.com
100
AcDbLine
 10
164649.875035678
 20
105839.6985215976
 30
0.0
 11
164650.3227655599
 21
105845.5161787036
 31
0.0
  0
LINE
  5
63D2B
330
1F
100
AcDbEntity
  8
freecads.com
100
AcDbLine
 10
164650.3227655599
 20
105845.5161787036
 30
0.0
 11
164644.95018447
 21
105849.5438092636
 31
0.0
  0
LINE
  5
63D2C
330
1F
100
AcDbEntity
  8
freecads.com
100
AcDbLine
 10
164644.95018447
 20
105849.5438092636
 30
0.0
 11
164634.2049039677
 21
105853.5714398237
 31
0.0
  0
LINE
  5
63D2D
330
1F
100
AcDbEntity
  8
freecads.com
100
AcDbLine
 10
164634.2049039677
 20
105853.5714398237
 30
0.0
 11
164618.5347722564
 21
105855.8090033624
 31
0.0
  0
LINE
  5
63D2E
330
1F
100
AcDbEntity
  8
freecads.com
100
AcDbLine
 10
164618.5347722564
 20
105855.8090033624
 30
0.0
 11
164607.7895509144
 21
105860.7316674333
 31
0.0
  0
LINE
  5
63D2F
330
1F
100
AcDbEntity
  8
freecads.com
100
AcDbLine
 10
164607.7895509144
 20
105860.7316674333
 30
0.0
 11
164599.7306496985
 21
105865.2067945111
 31
0.0
  0
LINE
  5
63D30
330
1F
100
AcDbEntity
  8
freecads.com
100
AcDbLine
 10
164599.7306496985
 20
105865.2067945111
 30
0.0
 11
164591.2240186026
 21
105868.7868880781
 31
0.0
  0
LINE
  5
63D31
330
1F
100
AcDbEntity
  8
freecads.com
100
AcDbLine
 10
164591.2240186026
 20
105868.7868880781
 30
0.0
 11
164585.4036484705
 21
105868.7868880781
 31
0.0
  0
LINE
  5
63D32
330
1F
100
AcDbEntity
  8
freecads.com
100
AcDbLine
 10
164585.4036484705
 20
105868.7868880781
 30
0.0
 11
164571.9721070034
 21
105871.4719886099
 31
0.0
  0
LINE
  5
63D33
330
1F
100
AcDbEntity
  8
freecads.com
100
AcDbLine
 10
164571.9721070034
 20
105871.4719886099
 30
0.0
 11
164561.2268856615
 21
105877.7371827088
 31
0.0
  0
LINE
  5
63D34
330
1F
100
AcDbEntity
  8
freecads.com
100
AcDbLine
 10
164561.2268856615
 20
105877.7371827088
 30
0.0
 11
164554.9588448098
 21
105883.5548398146
 31
0.0
  0
LINE
  5
63D35
330
1F
100
AcDbEntity
  8
freecads.com
100
AcDbLine
 10
164554.9588448098
 20
105883.5548398146
 30
0.0
 11
164547.3476143134
 21
105896.5327650055
 31
0.0
  0
LINE
  5
63D36
330
1F
100
AcDbEntity
  8
freecads.com
100
AcDbLine
 10
164547.3476143134
 20
105896.5327650055
 30
0.0
 11
164537.9455826162
 21
105901.4553886008
 31
0.0
  0
LINE
  5
63D37
330
1F
100
AcDbEntity
  8
freecads.com
100
AcDbLine
 10
164537.9455826162
 20
105901.4553886008
 30
0.0
 11
164538.8409832176
 21
105904.5879856503
 31
0.0
  0
LINE
  5
63D38
330
1F
100
AcDbEntity
  8
freecads.com
100
AcDbLine
 10
164538.8409832176
 20
105904.5879856503
 30
0.0
 11
164539.7364429785
 21
105907.7205826997
 31
0.0
  0
LINE
  5
63D39
330
1F
100
AcDbEntity
  8
freecads.com
100
AcDbLine
 10
164539.7364429785
 20
105907.7205826997
 30
0.0
 11
164533.0096091526
 21
105907.7658747223
 31
0.0
  0
LINE
  5
63D3A
330
1F
100
AcDbEntity
  8
freecads.com
100
AcDbLine
 10
164533.0096091526
 20
105907.7658747223
 30
0.0
 11
164528.3456576233
 21
105905.6935724247
 31
0.0
  0
LINE
  5
63D3B
330
1F
100
AcDbEntity
  8
freecads.com
100
AcDbLine
 10
164638.6710213637
 20
105846.9040412301
 30
0.0
 11
164634.1938408744
 21
105841.5338806417
 31
0.0
  0
LINE
  5
63D3C
330
1F
100
AcDbEntity
  8
freecads.com
100
AcDbLine
 10
164634.1938408744
 20
105841.5338806417
 30
0.0
 11
164636.4324311195
 21
105837.9537465991
 31
0.0
  0
LINE
  5
63D3D
330
1F
100
AcDbEntity
  8
freecads.com
100
AcDbLine
 10
164636.4324311195
 20
105837.9537465991
 30
0.0
 11
164644.0436616149
 21
105837.9537465991
 31
0.0
  0
LINE
  5
63D3E
330
1F
100
AcDbEntity
  8
freecads.com
100
AcDbLine
 10
164644.0436616149
 20
105837.9537465991
 30
0.0
 11
164649.4163018661
 21
105840.1913506136
 31
0.0
  0
LINE
  5
63D3F
330
1F
100
AcDbEntity
  8
freecads.com
100
AcDbLine
 10
164649.4163018661
 20
105840.1913506136
 30
0.0
 11
164649.4163018661
 21
105843.3239071876
 31
0.0
  0
LINE
  5
63D40
330
1F
100
AcDbEntity
  8
freecads.com
100
AcDbLine
 10
164649.4163018661
 20
105843.3239071876
 30
0.0
 11
164648.0731122224
 21
105846.456504237
 31
0.0
  0
LINE
  5
63D41
330
1F
100
AcDbEntity
  8
freecads.com
100
AcDbLine
 10
164648.0731122224
 20
105846.456504237
 30
0.0
 11
164641.8050713707
 21
105847.3515377474
 31
0.0
  0
LINE
  5
63D42
330
1F
100
AcDbEntity
  8
freecads.com
100
AcDbLine
 10
164641.8050713707
 20
105847.3515377474
 30
0.0
 11
164638.6710213637
 21
105846.9040412301
 31
0.0
  0
LINE
  5
63D43
330
1F
100
AcDbEntity
  8
freecads.com
100
AcDbLine
 10
164629.2689896654
 20
105827.6609624155
 30
0.0
 11
164636.8801610004
 21
105832.1360894933
 31
0.0
  0
LINE
  5
63D44
330
1F
100
AcDbEntity
  8
freecads.com
100
AcDbLine
 10
164636.8801610004
 20
105832.1360894933
 30
0.0
 11
164646.2822518581
 21
105833.9261565144
 31
0.0
  0
LINE
  5
63D45
330
1F
100
AcDbEntity
  8
freecads.com
100
AcDbLine
 10
164646.2822518581
 20
105833.9261565144
 30
0.0
 11
164647.1777116209
 21
105834.8211495497
 31
0.0
  0
LINE
  5
63D46
330
1F
100
AcDbEntity
  8
freecads.com
100
AcDbLine
 10
164705.8287286982
 20
105878.6775082421
 30
0.0
 11
164713.8876890745
 21
105864.804590016
 31
0.0
  0
LINE
  5
63D47
330
1F
100
AcDbEntity
  8
freecads.com
100
AcDbLine
 10
164713.8876890745
 20
105864.804590016
 30
0.0
 11
164726.8715006597
 21
105858.9868924348
 31
0.0
  0
LINE
  5
63D48
330
1F
100
AcDbEntity
  8
freecads.com
100
AcDbLine
 10
164726.8715006597
 20
105858.9868924348
 30
0.0
 11
164751.9437232297
 21
105853.6167318466
 31
0.0
  0
LINE
  5
63D49
330
1F
100
AcDbEntity
  8
freecads.com
100
AcDbLine
 10
164751.9437232297
 20
105853.6167318466
 30
0.0
 11
164766.7183951791
 21
105851.3791683075
 31
0.0
  0
LINE
  5
63D4A
330
1F
100
AcDbEntity
  8
freecads.com
100
AcDbLine
 10
164766.7183951791
 20
105851.3791683075
 30
0.0
 11
164772.0910354303
 21
105851.3791683075
 31
0.0
  0
LINE
  5
63D4B
330
1F
100
AcDbEntity
  8
freecads.com
100
AcDbLine
 10
164718.9891633205
 20
105912.0772226953
 30
0.0
 11
164726.8715006597
 21
105905.9758481766
 31
0.0
  0
LINE
  5
63D4C
330
1F
100
AcDbEntity
  8
freecads.com
100
AcDbLine
 10
164726.8715006597
 20
105905.9758481766
 30
0.0
 11
164733.5872713933
 21
105898.3681240495
 31
0.0
  0
LINE
  5
63D4D
330
1F
100
AcDbEntity
  8
freecads.com
100
AcDbLine
 10
164733.5872713933
 20
105898.3681240495
 30
0.0
 11
164740.3030421259
 21
105885.8377358516
 31
0.0
  0
LINE
  5
63D4E
330
1F
100
AcDbEntity
  8
freecads.com
100
AcDbLine
 10
164740.3030421259
 20
105885.8377358516
 30
0.0
 11
164747.9142134608
 21
105873.3073476539
 31
0.0
  0
LINE
  5
63D4F
330
1F
100
AcDbEntity
  8
freecads.com
100
AcDbLine
 10
164747.9142134608
 20
105873.3073476539
 30
0.0
 11
164755.9731738381
 21
105861.6719929665
 31
0.0
  0
LINE
  5
63D50
330
1F
100
AcDbEntity
  8
freecads.com
100
AcDbLine
 10
164755.9731738381
 20
105861.6719929665
 30
0.0
 11
164770.3001159057
 21
105852.7216983358
 31
0.0
  0
LINE
  5
63D51
330
1F
100
AcDbEntity
  8
freecads.com
100
AcDbLine
 10
164770.3001159057
 20
105852.7216983358
 30
0.0
 11
164782.3885268904
 21
105850.9316717899
 31
0.0
  0
LINE
  5
63D52
330
1F
100
AcDbEntity
  8
freecads.com
100
AcDbLine
 10
164724.1851805346
 20
105891.6553929575
 30
0.0
 11
164724.1851805346
 21
105887.1802658799
 31
0.0
  0
LINE
  5
63D53
330
1F
100
AcDbEntity
  8
freecads.com
100
AcDbLine
 10
164724.1851805346
 20
105887.1802658799
 30
0.0
 11
164715.6785494378
 21
105881.8101052915
 31
0.0
  0
LINE
  5
63D54
330
1F
100
AcDbEntity
  8
freecads.com
100
AcDbLine
 10
164725.9760408979
 20
105883.6001723129
 30
0.0
 11
164727.3192305416
 21
105879.5725417528
 31
0.0
  0
LINE
  5
63D55
330
1F
100
AcDbEntity
  8
freecads.com
100
AcDbLine
 10
164727.3192305416
 20
105879.5725417528
 30
0.0
 11
164724.6329104164
 21
105877.7824747314
 31
0.0
  0
LINE
  5
63D56
330
1F
100
AcDbEntity
  8
freecads.com
100
AcDbLine
 10
164724.6329104164
 20
105877.7824747314
 30
0.0
 11
164715.6785494378
 21
105877.7824747314
 31
0.0
  0
LINE
  5
63D57
330
1F
100
AcDbEntity
  8
freecads.com
100
AcDbLine
 10
164722.8420500522
 20
105874.649877682
 30
0.0
 11
164724.1851805346
 21
105869.7272136114
 31
0.0
  0
LINE
  5
63D58
330
1F
100
AcDbEntity
  8
freecads.com
100
AcDbLine
 10
164724.1851805346
 20
105869.7272136114
 30
0.0
 11
164729.5578207858
 21
105867.4896500724
 31
0.0
  0
LINE
  5
63D59
330
1F
100
AcDbEntity
  8
freecads.com
100
AcDbLine
 10
164729.5578207858
 20
105867.4896500724
 30
0.0
 11
164734.0350012742
 21
105863.9095565054
 31
0.0
  0
LINE
  5
63D5A
330
1F
100
AcDbEntity
  8
freecads.com
100
AcDbLine
 10
164734.0350012742
 20
105863.9095565054
 30
0.0
 11
164742.9893622519
 21
105858.091858924
 31
0.0
  0
LINE
  5
63D5B
330
1F
100
AcDbEntity
  8
freecads.com
100
AcDbLine
 10
164742.9893622519
 20
105858.091858924
 30
0.0
 11
164748.3619433418
 21
105856.749328896
 31
0.0
  0
LINE
  5
63D5C
330
1F
100
AcDbEntity
  8
freecads.com
100
AcDbLine
 10
164605.1514469432
 20
106058.871517064
 30
0.0
 11
164589.2990404218
 21
106043.4224445425
 31
0.0
  0
LINE
  5
63D5D
330
1F
100
AcDbEntity
  8
freecads.com
100
AcDbLine
 10
164589.2990404218
 20
106043.4224445425
 30
0.0
 11
164586.524866323
 21
106028.3695051991
 31
0.0
  0
LINE
  5
63D5E
330
1F
100
AcDbEntity
  8
freecads.com
100
AcDbLine
 10
164586.524866323
 20
106028.3695051991
 30
0.0
 11
164580.9765181234
 21
106013.3166063312
 31
0.0
  0
LINE
  5
63D5F
330
1F
100
AcDbEntity
  8
freecads.com
100
AcDbLine
 10
164580.9765181234
 20
106013.3166063312
 30
0.0
 11
164579.3912419751
 21
106006.9785159562
 31
0.0
  0
LINE
  5
63D60
330
1F
100
AcDbEntity
  8
freecads.com
100
AcDbLine
 10
164579.3912419751
 20
106006.9785159562
 30
0.0
 11
164578.9949229378
 21
106013.3166063312
 31
0.0
  0
LINE
  5
63D61
330
1F
100
AcDbEntity
  8
freecads.com
100
AcDbLine
 10
164578.9949229378
 20
106013.3166063312
 30
0.0
 11
164584.1469521001
 21
106038.6688868801
 31
0.0
  0
LINE
  5
63D62
330
1F
100
AcDbEntity
  8
freecads.com
100
AcDbLine
 10
164584.1469521001
 20
106038.6688868801
 30
0.0
 11
164592.0732145207
 21
106055.3063184608
 31
0.0
  0
LINE
  5
63D63
330
1F
100
AcDbEntity
  8
freecads.com
100
AcDbLine
 10
164592.0732145207
 20
106055.3063184608
 30
0.0
 11
164599.2067797072
 21
106060.8521424794
 31
0.0
  0
LINE
  5
63D64
330
1F
100
AcDbEntity
  8
freecads.com
100
AcDbLine
 10
164599.2067797072
 20
106060.8521424794
 30
0.0
 11
164605.5477659805
 21
106060.8521424794
 31
0.0
  0
LINE
  5
63D65
330
1F
100
AcDbEntity
  8
freecads.com
100
AcDbLine
 10
164605.5477659805
 20
106060.8521424794
 30
0.0
 11
164614.2665481549
 21
106060.8521424794
 31
0.0
  0
LINE
  5
63D66
330
1F
100
AcDbEntity
  8
freecads.com
100
AcDbLine
 10
164614.2665481549
 20
106060.8521424794
 30
0.0
 11
164621.0038534645
 21
106060.8521424794
 31
0.0
  0
LINE
  5
63D67
330
1F
100
AcDbEntity
  8
freecads.com
100
AcDbLine
 10
164621.0038534645
 20
106060.8521424794
 30
0.0
 11
164627.3448397377
 21
106055.3063184608
 31
0.0
  0
LINE
  5
63D68
330
1F
100
AcDbEntity
  8
freecads.com
100
AcDbLine
 10
164592.0732145207
 20
106060.8521424794
 30
0.0
 11
164577.8060249872
 21
106041.0456859489
 31
0.0
  0
LINE
  5
63D69
330
1F
100
AcDbEntity
  8
freecads.com
100
AcDbLine
 10
164577.8060249872
 20
106041.0456859489
 30
0.0
 11
164577.8060249872
 21
106027.5772793183
 31
0.0
  0
LINE
  5
63D6A
330
1F
100
AcDbEntity
  8
freecads.com
100
AcDbLine
 10
164577.8060249872
 20
106027.5772793183
 30
0.0
 11
164578.2023440236
 21
106013.3166063312
 31
0.0
  0
LINE
  5
63D6B
330
1F
100
AcDbEntity
  8
freecads.com
100
AcDbLine
 10
164576.6170678763
 20
106036.6882614648
 30
0.0
 11
164568.2945455778
 21
106011.3359404403
 31
0.0
  0
LINE
  5
63D6C
330
1F
100
AcDbEntity
  8
freecads.com
100
AcDbLine
 10
164568.2945455778
 20
106011.3359404403
 30
0.0
 11
164564.3314735275
 21
105991.9256170883
 31
0.0
  0
LINE
  5
63D6D
330
1F
100
AcDbEntity
  8
freecads.com
100
AcDbLine
 10
164564.3314735275
 20
105991.9256170883
 30
0.0
 11
164562.3498783419
 21
105971.7229869042
 31
0.0
  0
LINE
  5
63D6E
330
1F
100
AcDbEntity
  8
freecads.com
100
AcDbLine
 10
164562.3498783419
 20
105971.7229869042
 30
0.0
 11
164563.9351544902
 21
105952.7087562549
 31
0.0
  0
LINE
  5
63D6F
330
1F
100
AcDbEntity
  8
freecads.com
100
AcDbLine
 10
164563.9351544902
 20
105952.7087562549
 30
0.0
 11
164563.9351544902
 21
105932.1100333681
 31
0.0
  0
LINE
  5
63D70
330
1F
100
AcDbEntity
  8
freecads.com
100
AcDbLine
 10
164563.9351544902
 20
105932.1100333681
 30
0.0
 11
164563.5388354538
 21
105920.2261594498
 31
0.0
  0
LINE
  5
63D71
330
1F
100
AcDbEntity
  8
freecads.com
100
AcDbLine
 10
164563.5388354538
 20
105920.2261594498
 30
0.0
 11
164561.9536184659
 21
105911.9074031841
 31
0.0
  0
LINE
  5
63D72
330
1F
100
AcDbEntity
  8
freecads.com
100
AcDbLine
 10
164556.8015301432
 20
105902.0041951566
 30
0.0
 11
164554.0273560444
 21
105911.5112700059
 31
0.0
  0
LINE
  5
63D73
330
1F
100
AcDbEntity
  8
freecads.com
100
AcDbLine
 10
164554.0273560444
 20
105911.5112700059
 30
0.0
 11
164554.819994118
 21
105946.7668395333
 31
0.0
  0
LINE
  5
63D74
330
1F
100
AcDbEntity
  8
freecads.com
100
AcDbLine
 10
164554.819994118
 20
105946.7668395333
 30
0.0
 11
164554.819994118
 21
105990.3410843755
 31
0.0
  0
LINE
  5
63D75
330
1F
100
AcDbEntity
  8
freecads.com
100
AcDbLine
 10
164554.819994118
 20
105990.3410843755
 30
0.0
 11
164558.3868062915
 21
106018.0701639935
 31
0.0
  0
LINE
  5
63D76
330
1F
100
AcDbEntity
  8
freecads.com
100
AcDbLine
 10
164558.3868062915
 20
106018.0701639935
 30
0.0
 11
164565.9166905154
 21
106037.4804873456
 31
0.0
  0
LINE
  5
63D77
330
1F
100
AcDbEntity
  8
freecads.com
100
AcDbLine
 10
164565.9166905154
 20
106037.4804873456
 30
0.0
 11
164577.4097059499
 21
106057.2869843515
 31
0.0
  0
LINE
  5
63D78
330
1F
100
AcDbEntity
  8
freecads.com
100
AcDbLine
 10
164577.4097059499
 20
106057.2869843515
 30
0.0
 11
164586.921126198
 21
106067.5863660326
 31
0.0
  0
LINE
  5
63D79
330
1F
100
AcDbEntity
  8
freecads.com
100
AcDbLine
 10
164586.921126198
 20
106067.5863660326
 30
0.0
 11
164594.4510695832
 21
106069.9631246261
 31
0.0
  0
LINE
  5
63D7A
330
1F
100
AcDbEntity
  8
freecads.com
100
AcDbLine
 10
164594.4510695832
 20
106069.9631246261
 30
0.0
 11
164607.1329829683
 21
106070.3592578042
 31
0.0
  0
LINE
  5
63D7B
330
1F
100
AcDbEntity
  8
freecads.com
100
AcDbLine
 10
164607.1329829683
 20
106070.3592578042
 30
0.0
 11
164603.9624898322
 21
106067.5863660326
 31
0.0
  0
LINE
  5
63D7C
330
1F
100
AcDbEntity
  8
freecads.com
100
AcDbLine
 10
164603.9624898322
 20
106067.5863660326
 30
0.0
 11
164609.9071570672
 21
106067.5863660326
 31
0.0
  0
LINE
  5
63D7D
330
1F
100
AcDbEntity
  8
freecads.com
100
AcDbLine
 10
164609.9071570672
 20
106067.5863660326
 30
0.0
 11
164613.4739692416
 21
106066.3979664981
 31
0.0
  0
LINE
  5
63D7E
330
1F
100
AcDbEntity
  8
freecads.com
100
AcDbLine
 10
164613.4739692416
 20
106066.3979664981
 30
0.0
 11
164621.0038534645
 21
106065.6057001417
 31
0.0
  0
LINE
  5
63D7F
330
1F
100
AcDbEntity
  8
freecads.com
100
AcDbLine
 10
164621.0038534645
 20
106065.6057001417
 30
0.0
 11
164626.1558826258
 21
106062.0405420138
 31
0.0
  0
LINE
  5
63D80
330
1F
100
AcDbEntity
  8
freecads.com
100
AcDbLine
 10
164626.1558826258
 20
106062.0405420138
 30
0.0
 11
164633.2895069737
 21
106056.0985848171
 31
0.0
  0
LINE
  5
63D81
330
1F
100
AcDbEntity
  8
freecads.com
100
AcDbLine
 10
164633.2895069737
 20
106056.0985848171
 30
0.0
 11
164635.2710429979
 21
106054.1179594017
 31
0.0
  0
LINE
  5
63D82
330
1F
100
AcDbEntity
  8
freecads.com
100
AcDbLine
 10
164635.2710429979
 20
106054.1179594017
 30
0.0
 11
164630.5153328739
 21
106052.9295598674
 31
0.0
  0
LINE
  5
63D83
330
1F
100
AcDbEntity
  8
freecads.com
100
AcDbLine
 10
164630.5153328739
 20
106052.9295598674
 30
0.0
 11
164625.3632445522
 21
106052.9295598674
 31
0.0
  0
LINE
  5
63D84
330
1F
100
AcDbEntity
  8
freecads.com
100
AcDbLine
 10
164625.3632445522
 20
106052.9295598674
 30
0.0
 11
164617.437041291
 21
106056.4947179953
 31
0.0
  0
LINE
  5
63D85
330
1F
100
AcDbEntity
  8
freecads.com
100
AcDbLine
 10
164617.437041291
 20
106056.4947179953
 30
0.0
 11
164611.8886930924
 21
106056.4947179953
 31
0.0
  0
LINE
  5
63D86
330
1F
100
AcDbEntity
  8
freecads.com
100
AcDbLine
 10
164611.8886930924
 20
106056.4947179953
 30
0.0
 11
164607.5293020057
 21
106056.4947179953
 31
0.0
  0
LINE
  5
63D87
330
1F
100
AcDbEntity
  8
freecads.com
100
AcDbLine
 10
164607.5293020057
 20
106056.4947179953
 30
0.0
 11
164611.8886930924
 21
106057.6831175296
 31
0.0
  0
LINE
  5
63D88
330
1F
100
AcDbEntity
  8
freecads.com
100
AcDbLine
 10
164611.8886930924
 20
106057.6831175296
 30
0.0
 11
164614.2665481549
 21
106062.436675192
 31
0.0
  0
LINE
  5
63D89
330
1F
100
AcDbEntity
  8
freecads.com
100
AcDbLine
 10
164614.2665481549
 20
106062.436675192
 30
0.0
 11
164616.6444623777
 21
106063.6250747265
 31
0.0
  0
LINE
  5
63D8A
330
1F
100
AcDbEntity
  8
freecads.com
100
AcDbLine
 10
164581.7690970376
 20
106064.0212079047
 30
0.0
 11
164573.4465747391
 21
106061.6444088357
 31
0.0
  0
LINE
  5
63D8B
330
1F
100
AcDbEntity
  8
freecads.com
100
AcDbLine
 10
164573.4465747391
 20
106061.6444088357
 30
0.0
 11
164567.8982265405
 21
106052.9295598674
 31
0.0
  0
LINE
  5
63D8C
330
1F
100
AcDbEntity
  8
freecads.com
100
AcDbLine
 10
164567.8982265405
 20
106052.9295598674
 30
0.0
 11
164563.9351544902
 21
106039.8572864146
 31
0.0
  0
LINE
  5
63D8D
330
1F
100
AcDbEntity
  8
freecads.com
100
AcDbLine
 10
164563.9351544902
 20
106039.8572864146
 30
0.0
 11
164558.7831253298
 21
106021.2391889433
 31
0.0
  0
LINE
  5
63D8E
330
1F
100
AcDbEntity
  8
freecads.com
100
AcDbLine
 10
164563.5388354538
 20
106052.9295598674
 30
0.0
 11
164546.8937908579
 21
106029.1617715554
 31
0.0
  0
LINE
  5
63D8F
330
1F
100
AcDbEntity
  8
freecads.com
100
AcDbLine
 10
164546.8937908579
 20
106029.1617715554
 30
0.0
 11
164542.5343997702
 21
106004.9978905407
 31
0.0
  0
LINE
  5
63D90
330
1F
100
AcDbEntity
  8
freecads.com
100
AcDbLine
 10
164542.5343997702
 20
106004.9978905407
 30
0.0
 11
164546.8937908579
 21
105979.2494363382
 31
0.0
  0
LINE
  5
63D91
330
1F
100
AcDbEntity
  8
freecads.com
100
AcDbLine
 10
164546.8937908579
 20
105979.2494363382
 30
0.0
 11
164546.8937908579
 21
105993.9062425034
 31
0.0
  0
LINE
  5
63D92
330
1F
100
AcDbEntity
  8
freecads.com
100
AcDbLine
 10
164546.8937908579
 20
105993.9062425034
 30
0.0
 11
164546.4974718206
 21
106010.5436740841
 31
0.0
  0
LINE
  5
63D93
330
1F
100
AcDbEntity
  8
freecads.com
100
AcDbLine
 10
164546.4974718206
 20
106010.5436740841
 30
0.0
 11
164550.4606030313
 21
106028.3695051991
 31
0.0
  0
LINE
  5
63D94
330
1F
100
AcDbEntity
  8
freecads.com
100
AcDbLine
 10
164550.4606030313
 20
106028.3695051991
 30
0.0
 11
164561.9536184659
 21
106048.5721353831
 31
0.0
  0
LINE
  5
63D95
330
1F
100
AcDbEntity
  8
freecads.com
100
AcDbLine
 10
164543.7232977217
 20
106014.9010985682
 30
0.0
 11
164538.9675875977
 21
105996.2830415724
 31
0.0
  0
LINE
  5
63D96
330
1F
100
AcDbEntity
  8
freecads.com
100
AcDbLine
 10
164538.9675875977
 20
105996.2830415724
 30
0.0
 11
164540.5528045846
 21
105964.1965374703
 31
0.0
  0
LINE
  5
63D97
330
1F
100
AcDbEntity
  8
freecads.com
100
AcDbLine
 10
164540.5528045846
 20
105964.1965374703
 30
0.0
 11
164543.3269786844
 21
105938.8442164458
 31
0.0
  0
LINE
  5
63D98
330
1F
100
AcDbEntity
  8
freecads.com
100
AcDbLine
 10
164543.3269786844
 20
105938.8442164458
 30
0.0
 11
164544.5159357954
 21
105924.5835839342
 31
0.0
  0
LINE
  5
63D99
330
1F
100
AcDbEntity
  8
freecads.com
100
AcDbLine
 10
164544.5159357954
 20
105924.5835839342
 30
0.0
 11
164540.1564855473
 21
105932.9022997244
 31
0.0
  0
LINE
  5
63D9A
330
1F
100
AcDbEntity
  8
freecads.com
100
AcDbLine
 10
164540.1564855473
 20
105932.9022997244
 30
0.0
 11
164536.5897325351
 21
105955.8778216798
 31
0.0
  0
LINE
  5
63D9B
330
1F
100
AcDbEntity
  8
freecads.com
100
AcDbLine
 10
164536.5897325351
 20
105955.8778216798
 30
0.0
 11
164536.5897325351
 21
105989.1526848412
 31
0.0
  0
LINE
  5
63D9C
330
1F
100
AcDbEntity
  8
freecads.com
100
AcDbLine
 10
164536.5897325351
 20
105989.1526848412
 30
0.0
 11
164538.1749495221
 21
106015.6933649245
 31
0.0
  0
LINE
  5
63D9D
330
1F
100
AcDbEntity
  8
freecads.com
100
AcDbLine
 10
164538.1749495221
 20
106015.6933649245
 30
0.0
 11
164544.9122548318
 21
106031.9347038024
 31
0.0
  0
LINE
  5
63D9E
330
1F
100
AcDbEntity
  8
freecads.com
100
AcDbLine
 10
164551.2531819446
 20
106046.9876026704
 30
0.0
 11
164538.5712685594
 21
106027.1811461402
 31
0.0
  0
LINE
  5
63D9F
330
1F
100
AcDbEntity
  8
freecads.com
100
AcDbLine
 10
164538.5712685594
 20
106027.1811461402
 30
0.0
 11
164529.0598483114
 21
106004.2056241845
 31
0.0
  0
LINE
  5
63DA0
330
1F
100
AcDbEntity
  8
freecads.com
100
AcDbLine
 10
164529.0598483114
 20
106004.2056241845
 30
0.0
 11
164525.0967171006
 21
105984.795260357
 31
0.0
  0
LINE
  5
63DA1
330
1F
100
AcDbEntity
  8
freecads.com
100
AcDbLine
 10
164525.0967171006
 20
105984.795260357
 30
0.0
 11
164521.1335858889
 21
105959.4429798077
 31
0.0
  0
LINE
  5
63DA2
330
1F
100
AcDbEntity
  8
freecads.com
100
AcDbLine
 10
164521.1335858889
 20
105959.4429798077
 30
0.0
 11
164523.9077599887
 21
105940.4287491584
 31
0.0
  0
LINE
  5
63DA3
330
1F
100
AcDbEntity
  8
freecads.com
100
AcDbLine
 10
164523.9077599887
 20
105940.4287491584
 30
0.0
 11
164529.0598483114
 21
105920.6222521526
 31
0.0
  0
LINE
  5
63DA4
330
1F
100
AcDbEntity
  8
freecads.com
100
AcDbLine
 10
164529.0598483114
 20
105920.6222521526
 30
0.0
 11
164537.3823114485
 21
105908.7383782343
 31
0.0
  0
LINE
  5
63DA5
330
1F
100
AcDbEntity
  8
freecads.com
100
AcDbLine
 10
164537.3823114485
 20
105908.7383782343
 30
0.0
 11
164531.0413843356
 21
105912.3035363622
 31
0.0
  0
LINE
  5
63DA6
330
1F
100
AcDbEntity
  8
freecads.com
100
AcDbLine
 10
164531.0413843356
 20
105912.3035363622
 30
0.0
 11
164527.0782531258
 21
105918.2454935592
 31
0.0
  0
LINE
  5
63DA7
330
1F
100
AcDbEntity
  8
freecads.com
100
AcDbLine
 10
164527.0782531258
 20
105918.2454935592
 30
0.0
 11
164524.7003980633
 21
105912.3035363622
 31
0.0
  0
LINE
  5
63DA8
330
1F
100
AcDbEntity
  8
freecads.com
100
AcDbLine
 10
164524.7003980633
 20
105912.3035363622
 30
0.0
 11
164521.9262239644
 21
105914.2842022531
 31
0.0
  0
LINE
  5
63DA9
330
1F
100
AcDbEntity
  8
freecads.com
100
AcDbLine
 10
164521.9262239644
 20
105914.2842022531
 30
0.0
 11
164521.9262239644
 21
105936.4674578523
 31
0.0
  0
LINE
  5
63DAA
330
1F
100
AcDbEntity
  8
freecads.com
100
AcDbLine
 10
164521.9262239644
 20
105936.4674578523
 30
0.0
 11
164519.5483689019
 21
105972.1191200823
 31
0.0
  0
LINE
  5
63DAB
330
1F
100
AcDbEntity
  8
freecads.com
100
AcDbLine
 10
164519.5483689019
 20
105972.1191200823
 30
0.0
 11
164521.5299049262
 21
105991.9256170883
 31
0.0
  0
LINE
  5
63DAC
330
1F
100
AcDbEntity
  8
freecads.com
100
AcDbLine
 10
164521.5299049262
 20
105991.9256170883
 30
0.0
 11
164528.663529274
 21
106009.7514482033
 31
0.0
  0
LINE
  5
63DAD
330
1F
100
AcDbEntity
  8
freecads.com
100
AcDbLine
 10
164528.663529274
 20
106009.7514482033
 30
0.0
 11
164537.7786304848
 21
106030.3501710897
 31
0.0
  0
LINE
  5
63DAE
330
1F
100
AcDbEntity
  8
freecads.com
100
AcDbLine
 10
164537.7786304848
 20
106030.3501710897
 30
0.0
 11
164548.8753268821
 21
106045.7992436115
 31
0.0
  0
LINE
  5
63DAF
330
1F
100
AcDbEntity
  8
freecads.com
100
AcDbLine
 10
164533.0229203608
 20
106036.2921282867
 30
0.0
 11
164516.7741948021
 21
106015.6933649245
 31
0.0
  0
LINE
  5
63DB0
330
1F
100
AcDbEntity
  8
freecads.com
100
AcDbLine
 10
164516.7741948021
 20
106015.6933649245
 30
0.0
 11
164507.65903443
 21
105992.7178429691
 31
0.0
  0
LINE
  5
63DB1
330
1F
100
AcDbEntity
  8
freecads.com
100
AcDbLine
 10
164507.65903443
 20
105992.7178429691
 30
0.0
 11
164507.2627153927
 21
105968.9500951326
 31
0.0
  0
LINE
  5
63DB2
330
1F
100
AcDbEntity
  8
freecads.com
100
AcDbLine
 10
164507.2627153927
 20
105968.9500951326
 30
0.0
 11
164507.2627153927
 21
105949.9358644831
 31
0.0
  0
LINE
  5
63DB3
330
1F
100
AcDbEntity
  8
freecads.com
100
AcDbLine
 10
164507.2627153927
 20
105949.9358644831
 30
0.0
 11
164509.6406296156
 21
105929.7332342991
 31
0.0
  0
LINE
  5
63DB4
330
1F
100
AcDbEntity
  8
freecads.com
100
AcDbLine
 10
164509.6406296156
 20
105929.7332342991
 30
0.0
 11
164514.0000207024
 21
105917.4532272028
 31
0.0
  0
LINE
  5
63DB5
330
1F
100
AcDbEntity
  8
freecads.com
100
AcDbLine
 10
164514.0000207024
 20
105917.4532272028
 30
0.0
 11
164517.1705138395
 21
105913.8880690749
 31
0.0
  0
LINE
  5
63DB6
330
1F
100
AcDbEntity
  8
freecads.com
100
AcDbLine
 10
164517.1705138395
 20
105913.8880690749
 30
0.0
 11
164514.0000207024
 21
105913.0958027185
 31
0.0
  0
LINE
  5
63DB7
330
1F
100
AcDbEntity
  8
freecads.com
100
AcDbLine
 10
164514.0000207024
 20
105913.0958027185
 30
0.0
 11
164506.0738174421
 21
105918.6416267373
 31
0.0
  0
LINE
  5
63DB8
330
1F
100
AcDbEntity
  8
freecads.com
100
AcDbLine
 10
164506.0738174421
 20
105918.6416267373
 30
0.0
 11
164500.1291502062
 21
105925.771942993
 31
0.0
  0
LINE
  5
63DB9
330
1F
100
AcDbEntity
  8
freecads.com
100
AcDbLine
 10
164500.1291502062
 20
105925.771942993
 30
0.0
 11
164505.2811793685
 21
105943.20164093
 31
0.0
  0
LINE
  5
63DBA
330
1F
100
AcDbEntity
  8
freecads.com
100
AcDbLine
 10
164505.2811793685
 20
105943.20164093
 30
0.0
 11
164506.4701364795
 21
105951.9164898983
 31
0.0
  0
LINE
  5
63DBB
330
1F
100
AcDbEntity
  8
freecads.com
100
AcDbLine
 10
164505.6774984058
 20
105972.9113864386
 30
0.0
 11
164498.5439332193
 21
105952.3126230765
 31
0.0
  0
LINE
  5
63DBC
330
1F
100
AcDbEntity
  8
freecads.com
100
AcDbLine
 10
164498.5439332193
 20
105952.3126230765
 30
0.0
 11
164497.3549761064
 21
105936.0713246742
 31
0.0
  0
LINE
  5
63DBD
330
1F
100
AcDbEntity
  8
freecads.com
100
AcDbLine
 10
164497.3549761064
 20
105936.0713246742
 30
0.0
 11
164497.3549761064
 21
105931.3177670119
 31
0.0
  0
LINE
  5
63DBE
330
1F
100
AcDbEntity
  8
freecads.com
100
AcDbLine
 10
164494.9771210449
 20
105935.2790583179
 30
0.0
 11
164497.7512951447
 21
105957.066180739
 31
0.0
  0
LINE
  5
63DBF
330
1F
100
AcDbEntity
  8
freecads.com
100
AcDbLine
 10
164497.7512951447
 20
105957.066180739
 30
0.0
 11
164502.903324306
 21
105972.5152532605
 31
0.0
  0
LINE
  5
63DC0
330
1F
100
AcDbEntity
  8
freecads.com
100
AcDbLine
 10
164502.903324306
 20
105972.5152532605
 30
0.0
 11
164506.8664555158
 21
105985.5875267132
 31
0.0
  0
LINE
  5
63DC1
330
1F
100
AcDbEntity
  8
freecads.com
100
AcDbLine
 10
164506.8664555158
 20
105985.5875267132
 30
0.0
 11
164508.0553534673
 21
105995.0946420379
 31
0.0
  0
LINE
  5
63DC2
330
1F
100
AcDbEntity
  8
freecads.com
100
AcDbLine
 10
164508.0553534673
 20
105995.0946420379
 30
0.0
 11
164514.7926587779
 21
106005.7901164217
 31
0.0
  0
LINE
  5
63DC3
330
1F
100
AcDbEntity
  8
freecads.com
100
AcDbLine
 10
164514.7926587779
 20
106005.7901164217
 30
0.0
 11
164519.9446879393
 21
106015.6933649245
 31
0.0
  0
LINE
  5
63DC4
330
1F
100
AcDbEntity
  8
freecads.com
100
AcDbLine
 10
164519.9446879393
 20
106015.6933649245
 30
0.0
 11
164523.1151810754
 21
106022.0314552996
 31
0.0
  0
LINE
  5
63DC5
330
1F
100
AcDbEntity
  8
freecads.com
100
AcDbLine
 10
164523.1151810754
 20
106022.0314552996
 30
0.0
 11
164530.2487462619
 21
106029.9540379116
 31
0.0
  0
LINE
  5
63DC6
330
1F
100
AcDbEntity
  8
freecads.com
100
AcDbLine
 10
164513.603701666
 20
106017.6740308153
 30
0.0
 11
164502.5070052687
 21
106000.2443328785
 31
0.0
  0
LINE
  5
63DC7
330
1F
100
AcDbEntity
  8
freecads.com
100
AcDbLine
 10
164502.5070052687
 20
106000.2443328785
 30
0.0
 11
164493.391904057
 21
105984.3991271788
 31
0.0
  0
LINE
  5
63DC8
330
1F
100
AcDbEntity
  8
freecads.com
100
AcDbLine
 10
164506.4701364795
 20
106001.4326919374
 30
0.0
 11
164496.5623380327
 21
105984.3991271788
 31
0.0
  0
LINE
  5
63DC9
330
1F
100
AcDbEntity
  8
freecads.com
100
AcDbLine
 10
164496.5623380327
 20
105984.3991271788
 30
0.0
 11
164491.0139898341
 21
105951.1242640176
 31
0.0
  0
LINE
  5
63DCA
330
1F
100
AcDbEntity
  8
freecads.com
100
AcDbLine
 10
164491.0139898341
 20
105951.1242640176
 30
0.0
 11
164490.2214109199
 21
105944.7861736425
 31
0.0
  0
LINE
  5
63DCB
330
1F
100
AcDbEntity
  8
freecads.com
100
AcDbLine
 10
164748.6444723764
 20
105872.253015447
 30
0.0
 11
164756.4878147254
 21
105883.2907780128
 31
0.0
  0
LINE
  5
63DCC
330
1F
100
AcDbEntity
  8
freecads.com
100
AcDbLine
 10
164756.4878147254
 20
105883.2907780128
 30
0.0
 11
164770.9822413726
 21
105899.2773239658
 31
0.0
  0
LINE
  5
63DCD
330
1F
100
AcDbEntity
  8
freecads.com
100
AcDbLine
 10
164770.9822413726
 20
105899.2773239658
 30
0.0
 11
164773.9810495041
 21
105902.2748139804
 31
0.0
  0
LINE
  5
63DCE
330
1F
100
AcDbEntity
  8
freecads.com
100
AcDbLine
 10
164773.9810495041
 20
105902.2748139804
 30
0.0
 11
164777.4797082925
 21
105911.7668319645
 31
0.0
  0
LINE
  5
63DCF
330
1F
100
AcDbEntity
  8
freecads.com
100
AcDbLine
 10
164777.4797082925
 20
105911.7668319645
 30
0.0
 11
164781.9780092323
 21
105928.2529258569
 31
0.0
  0
LINE
  5
63DD0
330
1F
100
AcDbEntity
  8
freecads.com
100
AcDbLine
 10
164781.9780092323
 20
105928.2529258569
 30
0.0
 11
164785.9764595143
 21
105935.247042241
 31
0.0
  0
LINE
  5
63DD1
330
1F
100
AcDbEntity
  8
freecads.com
100
AcDbLine
 10
164785.9764595143
 20
105935.247042241
 30
0.0
 11
164789.9749097973
 21
105946.7373734095
 31
0.0
  0
LINE
  5
63DD2
330
1F
100
AcDbEntity
  8
freecads.com
100
AcDbLine
 10
164789.9749097973
 20
105946.7373734095
 30
0.0
 11
164791.4743434442
 21
105948.2361386546
 31
0.0
  0
LINE
  5
63DD3
330
1F
100
AcDbEntity
  8
freecads.com
100
AcDbLine
 10
164791.4743434442
 20
105948.2361386546
 30
0.0
 11
164785.4766680189
 21
105949.2352750094
 31
0.0
  0
LINE
  5
63DD4
330
1F
100
AcDbEntity
  8
freecads.com
100
AcDbLine
 10
164785.4766680189
 20
105949.2352750094
 30
0.0
 11
164777.4797082925
 21
105948.7356865942
 31
0.0
  0
LINE
  5
63DD5
330
1F
100
AcDbEntity
  8
freecads.com
100
AcDbLine
 10
164777.4797082925
 20
105948.7356865942
 30
0.0
 11
164769.4828077266
 21
105944.7390602248
 31
0.0
  0
LINE
  5
63DD6
330
1F
100
AcDbEntity
  8
freecads.com
100
AcDbLine
 10
164769.4828077266
 20
105944.7390602248
 30
0.0
 11
164759.9864735138
 21
105938.2445322557
 31
0.0
  0
LINE
  5
63DD7
330
1F
100
AcDbEntity
  8
freecads.com
100
AcDbLine
 10
164759.9864735138
 20
105938.2445322557
 30
0.0
 11
164749.4904971495
 21
105936.7458074861
 31
0.0
  0
LINE
  5
63DD8
330
1F
100
AcDbEntity
  8
freecads.com
100
AcDbLine
 10
164749.4904971495
 20
105936.7458074861
 30
0.0
 11
164745.4920468656
 21
105936.7458074861
 31
0.0
  0
LINE
  5
63DD9
330
1F
100
AcDbEntity
  8
freecads.com
100
AcDbLine
 10
164745.4920468656
 20
105936.7458074861
 30
0.0
 11
164737.4950871393
 21
105932.7491811168
 31
0.0
  0
LINE
  5
63DDA
330
1F
100
AcDbEntity
  8
freecads.com
100
AcDbLine
 10
164737.4950871393
 20
105932.7491811168
 30
0.0
 11
164729.9979780689
 21
105928.7525142718
 31
0.0
  0
LINE
  5
63DDB
330
1F
100
AcDbEntity
  8
freecads.com
100
AcDbLine
 10
164729.9979780689
 20
105928.7525142718
 30
0.0
 11
164725.4997362904
 21
105925.7550647325
 31
0.0
  0
LINE
  5
63DDC
330
1F
100
AcDbEntity
  8
freecads.com
100
AcDbLine
 10
164725.4997362904
 20
105925.7550647325
 30
0.0
 11
164720.735693126
 21
105922.7012559752
 31
0.0
  0
LINE
  5
63DDD
330
1F
100
AcDbEntity
  8
freecads.com
100
AcDbLine
 10
164791.4743434442
 20
105948.2361386546
 30
0.0
 11
164801.9702606471
 21
105956.2293913933
 31
0.0
  0
LINE
  5
63DDE
330
1F
100
AcDbEntity
  8
freecads.com
100
AcDbLine
 10
164801.9702606471
 20
105956.2293913933
 30
0.0
 11
164829.4596802946
 21
105971.7163489312
 31
0.0
  0
LINE
  5
63DDF
330
1F
100
AcDbEntity
  8
freecads.com
100
AcDbLine
 10
164829.4596802946
 20
105971.7163489312
 30
0.0
 11
164846.4531827392
 21
105983.7062685148
 31
0.0
  0
LINE
  5
63DE0
330
1F
100
AcDbEntity
  8
freecads.com
100
AcDbLine
 10
164846.4531827392
 20
105983.7062685148
 30
0.0
 11
164858.4485335881
 21
105993.1982864986
 31
0.0
  0
LINE
  5
63DE1
330
1F
100
AcDbEntity
  8
freecads.com
100
AcDbLine
 10
164858.4485335881
 20
105993.1982864986
 30
0.0
 11
164863.946417518
 21
106001.6911276524
 31
0.0
  0
LINE
  5
63DE2
330
1F
100
AcDbEntity
  8
freecads.com
100
AcDbLine
 10
164863.946417518
 20
106001.6911276524
 30
0.0
 11
164860.4477587305
 21
105992.6986980837
 31
0.0
  0
LINE
  5
63DE3
330
1F
100
AcDbEntity
  8
freecads.com
100
AcDbLine
 10
164860.4477587305
 20
105992.6986980837
 30
0.0
 11
164853.450500315
 21
105984.2058569299
 31
0.0
  0
LINE
  5
63DE4
330
1F
100
AcDbEntity
  8
freecads.com
100
AcDbLine
 10
164853.450500315
 20
105984.2058569299
 30
0.0
 11
164834.9575642235
 21
105972.7155257615
 31
0.0
  0
LINE
  5
63DE5
330
1F
100
AcDbEntity
  8
freecads.com
100
AcDbLine
 10
164834.9575642235
 20
105972.7155257615
 30
0.0
 11
164822.4624218801
 21
105967.2201341467
 31
0.0
  0
LINE
  5
63DE6
330
1F
100
AcDbEntity
  8
freecads.com
100
AcDbLine
 10
164822.4624218801
 20
105967.2201341467
 30
0.0
 11
164804.96912794
 21
105957.2285682233
 31
0.0
  0
LINE
  5
63DE7
330
1F
100
AcDbEntity
  8
freecads.com
100
AcDbLine
 10
164804.96912794
 20
105957.2285682233
 30
0.0
 11
164799.9710355047
 21
105952.2327650241
 31
0.0
  0
LINE
  5
63DE8
330
1F
100
AcDbEntity
  8
freecads.com
100
AcDbLine
 10
164799.9710355047
 20
105952.2327650241
 30
0.0
 11
164792.9737770902
 21
105946.7373734095
 31
0.0
  0
LINE
  5
63DE9
330
1F
100
AcDbEntity
  8
freecads.com
100
AcDbLine
 10
164792.9737770902
 20
105946.7373734095
 30
0.0
 11
164789.9749097973
 21
105946.7373734095
 31
0.0
  0
LINE
  5
63DEA
330
1F
100
AcDbEntity
  8
freecads.com
100
AcDbLine
 10
164851.9510666691
 20
105901.2756371505
 30
0.0
 11
164848.4524078807
 21
105888.7861696273
 31
0.0
  0
LINE
  5
63DEB
330
1F
100
AcDbEntity
  8
freecads.com
100
AcDbLine
 10
164848.4524078807
 20
105888.7861696273
 30
0.0
 11
164841.9548817994
 21
105876.2966616288
 31
0.0
  0
LINE
  5
63DEC
330
1F
100
AcDbEntity
  8
freecads.com
100
AcDbLine
 10
164841.9548817994
 20
105876.2966616288
 30
0.0
 11
164839.9556566579
 21
105872.7996236743
 31
0.0
  0
LINE
  5
63DED
330
1F
100
AcDbEntity
  8
freecads.com
100
AcDbLine
 10
164851.9510666691
 20
105901.2756371505
 30
0.0
 11
164851.4512160122
 21
105890.7844828119
 31
0.0
  0
LINE
  5
63DEE
330
1F
100
AcDbEntity
  8
freecads.com
100
AcDbLine
 10
164851.4512160122
 20
105890.7844828119
 30
0.0
 11
164850.9514245177
 21
105881.2924648281
 31
0.0
  0
LINE
  5
63DEF
330
1F
100
AcDbEntity
  8
freecads.com
100
AcDbLine
 10
164850.9514245177
 20
105881.2924648281
 30
0.0
 11
164849.4519908707
 21
105874.2983484441
 31
0.0
  0
LINE
  5
63DF0
330
1F
100
AcDbEntity
  8
freecads.com
100
AcDbLine
 10
164849.4519908707
 20
105874.2983484441
 30
0.0
 11
164843.4543154472
 21
105873.2992120894
 31
0.0
  0
LINE
  5
63DF1
330
1F
100
AcDbEntity
  8
freecads.com
100
AcDbLine
 10
164843.4543154472
 20
105873.2992120894
 30
0.0
 11
164839.9556566579
 21
105872.7996236743
 31
0.0
  0
LINE
  5
63DF2
330
1F
100
AcDbEntity
  8
freecads.com
100
AcDbLine
 10
164839.9556566579
 20
105872.7996236743
 30
0.0
 11
164826.9606636586
 21
105870.3017220747
 31
0.0
  0
LINE
  5
63DF3
330
1F
100
AcDbEntity
  8
freecads.com
100
AcDbLine
 10
164826.9606636586
 20
105870.3017220747
 30
0.0
 11
164806.9683530805
 21
105868.8029973049
 31
0.0
  0
LINE
  5
63DF4
330
1F
100
AcDbEntity
  8
freecads.com
100
AcDbLine
 10
164806.9683530805
 20
105868.8029973049
 30
0.0
 11
164795.9725852227
 21
105866.8046841202
 31
0.0
  0
LINE
  5
63DF5
330
1F
100
AcDbEntity
  8
freecads.com
100
AcDbLine
 10
164795.9725852227
 20
105866.8046841202
 30
0.0
 11
164775.9802746456
 21
105866.3050957054
 31
0.0
  0
LINE
  5
63DF6
330
1F
100
AcDbEntity
  8
freecads.com
100
AcDbLine
 10
164775.9802746456
 20
105866.3050957054
 30
0.0
 11
164765.9841489382
 21
105864.8063709356
 31
0.0
  0
LINE
  5
63DF7
330
1F
100
AcDbEntity
  8
freecads.com
100
AcDbLine
 10
164765.9841489382
 20
105864.8063709356
 30
0.0
 11
164755.0503445342
 21
105863.004354185
 31
0.0
  0
LINE
  5
63DF8
330
1F
100
AcDbEntity
  8
freecads.com
100
AcDbLine
 10
164757.944335578
 20
105860.4405732923
 30
0.0
 11
164772.4816158581
 21
105862.308469336
 31
0.0
  0
LINE
  5
63DF9
330
1F
100
AcDbEntity
  8
freecads.com
100
AcDbLine
 10
164772.4816158581
 20
105862.308469336
 30
0.0
 11
164800.970677657
 21
105862.308469336
 31
0.0
  0
LINE
  5
63DFA
330
1F
100
AcDbEntity
  8
freecads.com
100
AcDbLine
 10
164800.970677657
 20
105862.308469336
 30
0.0
 11
164810.9668033644
 21
105863.3076056906
 31
0.0
  0
LINE
  5
63DFB
330
1F
100
AcDbEntity
  8
freecads.com
100
AcDbLine
 10
164810.9668033644
 20
105863.3076056906
 30
0.0
 11
164821.9625712242
 21
105865.8055072903
 31
0.0
  0
LINE
  5
63DFC
330
1F
100
AcDbEntity
  8
freecads.com
100
AcDbLine
 10
164821.9625712242
 20
105865.8055072903
 30
0.0
 11
164834.4577727289
 21
105869.8021336597
 31
0.0
  0
LINE
  5
63DFD
330
1F
100
AcDbEntity
  8
freecads.com
100
AcDbLine
 10
164834.4577727289
 20
105869.8021336597
 30
0.0
 11
164842.9545239517
 21
105870.8013104896
 31
0.0
  0
LINE
  5
63DFE
330
1F
100
AcDbEntity
  8
freecads.com
100
AcDbLine
 10
164842.9545239517
 20
105870.8013104896
 30
0.0
 11
164840.9552988103
 21
105867.803820475
 31
0.0
  0
LINE
  5
63DFF
330
1F
100
AcDbEntity
  8
freecads.com
100
AcDbLine
 10
164840.9552988103
 20
105867.803820475
 30
0.0
 11
164819.4635545872
 21
105859.8105677363
 31
0.0
  0
LINE
  5
63E00
330
1F
100
AcDbEntity
  8
freecads.com
100
AcDbLine
 10
164819.4635545872
 20
105859.8105677363
 30
0.0
 11
164794.9730022317
 21
105851.3177265824
 31
0.0
  0
LINE
  5
63E01
330
1F
100
AcDbEntity
  8
freecads.com
100
AcDbLine
 10
164794.9730022317
 20
105851.3177265824
 30
0.0
 11
164767.4835825842
 21
105847.3210597376
 31
0.0
  0
LINE
  5
63E02
330
1F
100
AcDbEntity
  8
freecads.com
100
AcDbLine
 10
164767.4835825842
 20
105847.3210597376
 30
0.0
 11
164731.9972032094
 21
105839.3278069988
 31
0.0
  0
LINE
  5
63E03
330
1F
100
AcDbEntity
  8
freecads.com
100
AcDbLine
 10
164731.9972032094
 20
105839.3278069988
 30
0.0
 11
164718.5024187146
 21
105835.3311806294
 31
0.0
  0
LINE
  5
63E04
330
1F
100
AcDbEntity
  8
freecads.com
100
AcDbLine
 10
164718.5024187146
 20
105835.3311806294
 30
0.0
 11
164695.511300005
 21
105830.8349658452
 31
0.0
  0
LINE
  5
63E05
330
1F
100
AcDbEntity
  8
freecads.com
100
AcDbLine
 10
164695.511300005
 20
105830.8349658452
 30
0.0
 11
164657.9339960553
 21
105828.5106634282
 31
0.0
  0
LINE
  5
63E06
330
1F
100
AcDbEntity
  8
freecads.com
100
AcDbLine
 10
164835.4574148804
 20
105857.8122545515
 30
0.0
 11
164860.9476093855
 21
105865.8055072903
 31
0.0
  0
LINE
  5
63E07
330
1F
100
AcDbEntity
  8
freecads.com
100
AcDbLine
 10
164860.9476093855
 20
105865.8055072903
 30
0.0
 11
164875.9418275291
 21
105866.8046841202
 31
0.0
  0
LINE
  5
63E08
330
1F
100
AcDbEntity
  8
freecads.com
100
AcDbLine
 10
164875.9418275291
 20
105866.8046841202
 30
0.0
 11
164889.436612024
 21
105862.8080172754
 31
0.0
  0
LINE
  5
63E09
330
1F
100
AcDbEntity
  8
freecads.com
100
AcDbLine
 10
164889.436612024
 20
105862.8080172754
 30
0.0
 11
164904.4308301666
 21
105856.8130777214
 31
0.0
  0
LINE
  5
63E0A
330
1F
100
AcDbEntity
  8
freecads.com
100
AcDbLine
 10
164904.4308301666
 20
105856.8130777214
 30
0.0
 11
164909.428922601
 21
105849.8189613373
 31
0.0
  0
LINE
  5
63E0B
330
1F
100
AcDbEntity
  8
freecads.com
100
AcDbLine
 10
164909.428922601
 20
105849.8189613373
 30
0.0
 11
164917.425823167
 21
105839.8273954139
 31
0.0
  0
LINE
  5
63E0C
330
1F
100
AcDbEntity
  8
freecads.com
100
AcDbLine
 10
164917.425823167
 20
105839.8273954139
 30
0.0
 11
164920.4246904599
 21
105828.8366121851
 31
0.0
  0
LINE
  5
63E0D
330
1F
100
AcDbEntity
  8
freecads.com
100
AcDbLine
 10
164920.4246904599
 20
105828.8366121851
 30
0.0
 11
164920.4246904599
 21
105824.3403974005
 31
0.0
  0
LINE
  5
63E0E
330
1F
100
AcDbEntity
  8
freecads.com
100
AcDbLine
 10
164782.9775922215
 20
105883.2907780128
 30
0.0
 11
164789.9749097973
 21
105878.7945632284
 31
0.0
  0
LINE
  5
63E0F
330
1F
100
AcDbEntity
  8
freecads.com
100
AcDbLine
 10
164789.9749097973
 20
105878.7945632284
 30
0.0
 11
164795.9725852227
 21
105871.3008989047
 31
0.0
  0
LINE
  5
63E10
330
1F
100
AcDbEntity
  8
freecads.com
100
AcDbLine
 10
164795.9725852227
 20
105871.3008989047
 30
0.0
 11
164799.9710355047
 21
105868.8029973049
 31
0.0
  0
LINE
  5
63E11
330
1F
100
AcDbEntity
  8
freecads.com
100
AcDbLine
 10
164710.3036992699
 20
105970.8743561038
 30
0.0
 11
164724.9999447949
 21
105982.7070916849
 31
0.0
  0
LINE
  5
63E12
330
1F
100
AcDbEntity
  8
freecads.com
100
AcDbLine
 10
164724.9999447949
 20
105982.7070916849
 30
0.0
 11
164754.4885895839
 21
106003.1898524221
 31
0.0
  0
LINE
  5
63E13
330
1F
100
AcDbEntity
  8
freecads.com
100
AcDbLine
 10
164754.4885895839
 20
106003.1898524221
 30
0.0
 11
164791.4743434442
 21
106022.1738883898
 31
0.0
  0
LINE
  5
63E14
330
1F
100
AcDbEntity
  8
freecads.com
100
AcDbLine
 10
164791.4743434442
 20
106022.1738883898
 30
0.0
 11
164821.4627797287
 21
106031.1663179586
 31
0.0
  0
LINE
  5
63E15
330
1F
100
AcDbEntity
  8
freecads.com
100
AcDbLine
 10
164821.4627797287
 20
106031.1663179586
 30
0.0
 11
164847.4527657293
 21
106037.1612575126
 31
0.0
  0
LINE
  5
63E16
330
1F
100
AcDbEntity
  8
freecads.com
100
AcDbLine
 10
164847.4527657293
 20
106037.1612575126
 30
0.0
 11
164855.949516952
 21
106040.6583359424
 31
0.0
  0
LINE
  5
63E17
330
1F
100
AcDbEntity
  8
freecads.com
100
AcDbLine
 10
164855.949516952
 20
106040.6583359424
 30
0.0
 11
164862.446983872
 21
106040.6583359424
 31
0.0
  0
LINE
  5
63E18
330
1F
100
AcDbEntity
  8
freecads.com
100
AcDbLine
 10
164862.446983872
 20
106040.6583359424
 30
0.0
 11
164867.4450763063
 21
106038.6600227577
 31
0.0
  0
LINE
  5
63E19
330
1F
100
AcDbEntity
  8
freecads.com
100
AcDbLine
 10
164867.4450763063
 20
106038.6600227577
 30
0.0
 11
164876.4416190237
 21
106029.1680047739
 31
0.0
  0
LINE
  5
63E1A
330
1F
100
AcDbEntity
  8
freecads.com
100
AcDbLine
 10
164876.4416190237
 20
106029.1680047739
 30
0.0
 11
164885.9379532365
 21
106015.6793604208
 31
0.0
  0
LINE
  5
63E1B
330
1F
100
AcDbEntity
  8
freecads.com
100
AcDbLine
 10
164885.9379532365
 20
106015.6793604208
 30
0.0
 11
164887.937178378
 21
106006.187342437
 31
0.0
  0
LINE
  5
63E1C
330
1F
100
AcDbEntity
  8
freecads.com
100
AcDbLine
 10
164887.937178378
 20
106006.187342437
 30
0.0
 11
164887.937178378
 21
105991.1999733139
 31
0.0
  0
LINE
  5
63E1D
330
1F
100
AcDbEntity
  8
freecads.com
100
AcDbLine
 10
164887.937178378
 20
105991.1999733139
 30
0.0
 11
164882.4392944481
 21
105953.7314897936
 31
0.0
  0
LINE
  5
63E1E
330
1F
100
AcDbEntity
  8
freecads.com
100
AcDbLine
 10
164882.4392944481
 20
105953.7314897936
 30
0.0
 11
164870.9437350938
 21
105911.7668319645
 31
0.0
  0
LINE
  5
63E1F
330
1F
100
AcDbEntity
  8
freecads.com
100
AcDbLine
 10
164870.9437350938
 20
105911.7668319645
 30
0.0
 11
164864.4462090135
 21
105887.7869927973
 31
0.0
  0
LINE
  5
63E20
330
1F
100
AcDbEntity
  8
freecads.com
100
AcDbLine
 10
164864.4462090135
 20
105887.7869927973
 30
0.0
 11
164863.4466260224
 21
105875.7971136892
 31
0.0
  0
LINE
  5
63E21
330
1F
100
AcDbEntity
  8
freecads.com
100
AcDbLine
 10
164863.4466260224
 20
105875.7971136892
 30
0.0
 11
164849.4519908707
 21
105874.2983484441
 31
0.0
  0
LINE
  5
63E22
330
1F
100
AcDbEntity
  8
freecads.com
100
AcDbLine
 10
164863.4466260224
 20
105875.7971136892
 30
0.0
 11
164875.4419768723
 21
105878.2950152887
 31
0.0
  0
LINE
  5
63E23
330
1F
100
AcDbEntity
  8
freecads.com
100
AcDbLine
 10
164875.4419768723
 20
105878.2950152887
 30
0.0
 11
164892.9352708124
 21
105876.7962500437
 31
0.0
  0
LINE
  5
63E24
330
1F
100
AcDbEntity
  8
freecads.com
100
AcDbLine
 10
164892.9352708124
 20
105876.7962500437
 30
0.0
 11
164905.9302638117
 21
105873.7988005045
 31
0.0
  0
LINE
  5
63E25
330
1F
100
AcDbEntity
  8
freecads.com
100
AcDbLine
 10
164905.9302638117
 20
105873.7988005045
 30
0.0
 11
164918.9252568139
 21
105867.803820475
 31
0.0
  0
LINE
  5
63E26
330
1F
100
AcDbEntity
  8
freecads.com
100
AcDbLine
 10
164918.9252568139
 20
105867.803820475
 30
0.0
 11
164928.9214416817
 21
105859.8105677363
 31
0.0
  0
LINE
  5
63E27
330
1F
100
AcDbEntity
  8
freecads.com
100
AcDbLine
 10
164928.9214416817
 20
105859.8105677363
 30
0.0
 11
164937.418133744
 21
105851.3177265824
 31
0.0
  0
LINE
  5
63E28
330
1F
100
AcDbEntity
  8
freecads.com
100
AcDbLine
 10
164937.418133744
 20
105851.3177265824
 30
0.0
 11
164941.9164346829
 21
105843.8240217833
 31
0.0
  0
LINE
  5
63E29
330
1F
100
AcDbEntity
  8
freecads.com
100
AcDbLine
 10
164941.9164346829
 20
105843.8240217833
 30
0.0
 11
164943.4158091676
 21
105840.3269433535
 31
0.0
  0
LINE
  5
63E2A
330
1F
100
AcDbEntity
  8
freecads.com
100
AcDbLine
 10
164943.4158091676
 20
105840.3269433535
 30
0.0
 11
164950.4131267434
 21
105840.8265317686
 31
0.0
  0
LINE
  5
63E2B
330
1F
100
AcDbEntity
  8
freecads.com
100
AcDbLine
 10
164950.4131267434
 20
105840.8265317686
 30
0.0
 11
164959.9094609562
 21
105838.3286301688
 31
0.0
  0
LINE
  5
63E2C
330
1F
100
AcDbEntity
  8
freecads.com
100
AcDbLine
 10
164959.9094609562
 20
105838.3286301688
 30
0.0
 11
164964.407761896
 21
105836.3303169842
 31
0.0
  0
LINE
  5
63E2D
330
1F
100
AcDbEntity
  8
freecads.com
100
AcDbLine
 10
164964.407761896
 20
105836.3303169842
 30
0.0
 11
164962.9083282491
 21
105834.8315922146
 31
0.0
  0
LINE
  5
63E2E
330
1F
100
AcDbEntity
  8
freecads.com
100
AcDbLine
 10
164962.9083282491
 20
105834.8315922146
 30
0.0
 11
164955.9110106732
 21
105829.835789015
 31
0.0
  0
LINE
  5
63E2F
330
1F
100
AcDbEntity
  8
freecads.com
100
AcDbLine
 10
164955.9110106732
 20
105829.835789015
 30
0.0
 11
164943.9156598244
 21
105817.3463214918
 31
0.0
  0
LINE
  5
63E30
330
1F
100
AcDbEntity
  8
freecads.com
100
AcDbLine
 10
164943.9156598244
 20
105817.3463214918
 30
0.0
 11
164937.9179252386
 21
105798.8618739392
 31
0.0
  0
LINE
  5
63E31
330
1F
100
AcDbEntity
  8
freecads.com
100
AcDbLine
 10
164937.9179252386
 20
105798.8618739392
 30
0.0
 11
164931.9202498142
 21
105784.873641171
 31
0.0
  0
LINE
  5
63E32
330
1F
100
AcDbEntity
  8
freecads.com
100
AcDbLine
 10
164931.9202498142
 20
105784.873641171
 30
0.0
 11
164918.4521468952
 21
105742.1903418193
 31
0.0
  0
LINE
  5
63E33
330
1F
100
AcDbEntity
  8
freecads.com
100
AcDbLine
 10
164918.4521468952
 20
105742.1903418193
 30
0.0
 11
164913.4540544618
 21
105714.7134646979
 31
0.0
  0
LINE
  5
63E34
330
1F
100
AcDbEntity
  8
freecads.com
100
AcDbLine
 10
164913.4540544618
 20
105714.7134646979
 30
0.0
 11
164901.458703612
 21
105679.7428827773
 31
0.0
  0
LINE
  5
63E35
330
1F
100
AcDbEntity
  8
freecads.com
100
AcDbLine
 10
164901.458703612
 20
105679.7428827773
 30
0.0
 11
164894.9611775307
 21
105663.7563368244
 31
0.0
  0
LINE
  5
63E36
330
1F
100
AcDbEntity
  8
freecads.com
100
AcDbLine
 10
164894.9611775307
 20
105663.7563368244
 30
0.0
 11
164890.4629357522
 21
105657.2618088554
 31
0.0
  0
LINE
  5
63E37
330
1F
100
AcDbEntity
  8
freecads.com
100
AcDbLine
 10
164890.4629357522
 20
105657.2618088554
 30
0.0
 11
164886.9642769648
 21
105654.7639072557
 31
0.0
  0
LINE
  5
63E38
330
1F
100
AcDbEntity
  8
freecads.com
100
AcDbLine
 10
164886.9642769648
 20
105654.7639072557
 30
0.0
 11
164879.9669593889
 21
105651.2668693014
 31
0.0
  0
LINE
  5
63E39
330
1F
100
AcDbEntity
  8
freecads.com
100
AcDbLine
 10
164879.9669593889
 20
105651.2668693014
 30
0.0
 11
164853.4771818919
 21
105653.2651824861
 31
0.0
  0
LINE
  5
63E3A
330
1F
100
AcDbEntity
  8
freecads.com
100
AcDbLine
 10
164853.4771818919
 20
105653.2651824861
 30
0.0
 11
164779.5056741722
 21
105668.752140024
 31
0.0
  0
LINE
  5
63E3B
330
1F
100
AcDbEntity
  8
freecads.com
100
AcDbLine
 10
164779.5056741722
 20
105668.752140024
 30
0.0
 11
164721.5279675834
 21
105684.7386859769
 31
0.0
  0
LINE
  5
63E3C
330
1F
100
AcDbEntity
  8
freecads.com
100
AcDbLine
 10
164721.5279675834
 20
105684.7386859769
 30
0.0
 11
164710.5321997246
 21
105690.7336660064
 31
0.0
  0
LINE
  5
63E3D
330
1F
100
AcDbEntity
  8
freecads.com
100
AcDbLine
 10
164710.5321997246
 20
105690.7336660064
 30
0.0
 11
164696.8854308119
 21
105697.3891648194
 31
0.0
  0
LINE
  5
63E3E
330
1F
100
AcDbEntity
  8
freecads.com
100
AcDbLine
 10
164629.7277234783
 20
105826.2730998891
 30
0.0
 11
164645.0573840663
 21
105818.6259931543
 31
0.0
  0
LINE
  5
63E3F
330
1F
100
AcDbEntity
  8
freecads.com
100
AcDbLine
 10
164645.0573840663
 20
105818.6259931543
 30
0.0
 11
164663.5502609964
 21
105811.1322883553
 31
0.0
  0
LINE
  5
63E40
330
1F
100
AcDbEntity
  8
freecads.com
100
AcDbLine
 10
164663.5502609964
 20
105811.1322883553
 30
0.0
 11
164675.5456710067
 21
105807.1356619859
 31
0.0
  0
LINE
  5
63E41
330
1F
100
AcDbEntity
  8
freecads.com
100
AcDbLine
 10
164675.5456710067
 20
105807.1356619859
 30
0.0
 11
164689.0404555025
 21
105804.1381719711
 31
0.0
  0
LINE
  5
63E42
330
1F
100
AcDbEntity
  8
freecads.com
100
AcDbLine
 10
164689.0404555025
 20
105804.1381719711
 30
0.0
 11
164696.0377730783
 21
105801.6402703712
 31
0.0
  0
LINE
  5
63E43
330
1F
100
AcDbEntity
  8
freecads.com
100
AcDbLine
 10
164643.5580095798
 20
105795.6453308172
 30
0.0
 11
164661.0512443595
 21
105785.6537648937
 31
0.0
  0
LINE
  5
63E44
330
1F
100
AcDbEntity
  8
freecads.com
100
AcDbLine
 10
164661.0512443595
 20
105785.6537648937
 30
0.0
 11
164679.0443297941
 21
105775.16257008
 31
0.0
  0
LINE
  5
63E45
330
1F
100
AcDbEntity
  8
freecads.com
100
AcDbLine
 10
164679.0443297941
 20
105775.16257008
 30
0.0
 11
164687.04123036
 21
105767.6688652809
 31
0.0
  0
LINE
  5
63E46
330
1F
100
AcDbEntity
  8
freecads.com
100
AcDbLine
 10
164687.04123036
 20
105767.6688652809
 30
0.0
 11
164703.0350906542
 21
105757.1777109423
 31
0.0
  0
LINE
  5
63E47
330
1F
100
AcDbEntity
  8
freecads.com
100
AcDbLine
 10
164696.0377730783
 20
105783.6554112339
 30
0.0
 11
164699.5364318658
 21
105771.6655321257
 31
0.0
  0
LINE
  5
63E48
330
1F
100
AcDbEntity
  8
freecads.com
100
AcDbLine
 10
164699.5364318658
 20
105771.6655321257
 30
0.0
 11
164705.5341072902
 21
105762.1735141417
 31
0.0
  0
LINE
  5
63E49
330
1F
100
AcDbEntity
  8
freecads.com
100
AcDbLine
 10
164705.5341072902
 20
105762.1735141417
 30
0.0
 11
164707.0335409371
 21
105750.1835945584
 31
0.0
  0
LINE
  5
63E4A
330
1F
100
AcDbEntity
  8
freecads.com
100
AcDbLine
 10
164702.0354485027
 20
105726.7033842815
 30
0.0
 11
164701.5356570082
 21
105715.2130531129
 31
0.0
  0
LINE
  5
63E4B
330
1F
100
AcDbEntity
  8
freecads.com
100
AcDbLine
 10
164701.5356570082
 20
105715.2130531129
 30
0.0
 11
164696.5375645738
 21
105709.7176614986
 31
0.0
  0
LINE
  5
63E4C
330
1F
100
AcDbEntity
  8
freecads.com
100
AcDbLine
 10
164696.5375645738
 20
105709.7176614986
 30
0.0
 11
164690.0400976539
 21
105705.2214467141
 31
0.0
  0
LINE
  5
63E4D
330
1F
100
AcDbEntity
  8
freecads.com
100
AcDbLine
 10
164759.0135129392
 20
105797.144055587
 30
0.0
 11
164767.0104726665
 21
105783.6554112339
 31
0.0
  0
LINE
  5
63E4E
330
1F
100
AcDbEntity
  8
freecads.com
100
AcDbLine
 10
164767.0104726665
 20
105783.6554112339
 30
0.0
 11
164774.0077902423
 21
105775.16257008
 31
0.0
  0
LINE
  5
63E4F
330
1F
100
AcDbEntity
  8
freecads.com
100
AcDbLine
 10
164943.4158091676
 20
105840.3269433535
 30
0.0
 11
164935.4455901794
 21
105831.6150490924
 31
0.0
  0
LINE
  5
63E50
330
1F
100
AcDbEntity
  8
freecads.com
100
AcDbLine
 10
164935.4455901794
 20
105831.6150490924
 30
0.0
 11
164926.4491066225
 21
105816.6276799697
 31
0.0
  0
LINE
  5
63E51
330
1F
100
AcDbEntity
  8
freecads.com
100
AcDbLine
 10
164926.4491066225
 20
105816.6276799697
 30
0.0
 11
164913.9539051168
 21
105799.6419571865
 31
0.0
  0
LINE
  5
63E52
330
1F
100
AcDbEntity
  8
freecads.com
100
AcDbLine
 10
164913.9539051168
 20
105799.6419571865
 30
0.0
 11
164905.457153894
 21
105768.1684536957
 31
0.0
  0
LINE
  5
63E53
330
1F
100
AcDbEntity
  8
freecads.com
100
AcDbLine
 10
164905.457153894
 20
105768.1684536957
 30
0.0
 11
164900.9589121165
 21
105748.6848697885
 31
0.0
  0
LINE
  5
63E54
330
1F
100
AcDbEntity
  8
freecads.com
100
AcDbLine
 10
164900.9589121165
 20
105748.6848697885
 30
0.0
 11
164895.4610281866
 21
105711.2163862681
 31
0.0
  0
LINE
  5
63E55
330
1F
100
AcDbEntity
  8
freecads.com
100
AcDbLine
 10
164895.4610281866
 20
105711.2163862681
 30
0.0
 11
164888.9635021053
 21
105681.2416480224
 31
0.0
  0
LINE
  5
63E56
330
1F
100
AcDbEntity
  8
freecads.com
100
AcDbLine
 10
164888.9635021053
 20
105681.2416480224
 30
0.0
 11
164881.9661845304
 21
105658.7605741005
 31
0.0
  0
LINE
  5
63E57
330
1F
100
AcDbEntity
  8
freecads.com
100
AcDbLine
 10
164881.9661845304
 20
105658.7605741005
 30
0.0
 11
164879.9669593889
 21
105651.2668693014
 31
0.0
  0
LINE
  5
63E58
330
1F
100
AcDbEntity
  8
freecads.com
100
AcDbLine
 10
164809.9939019522
 20
105800.6411340168
 30
0.0
 11
164826.9873452354
 21
105789.1508028482
 31
0.0
  0
LINE
  5
63E59
330
1F
100
AcDbEntity
  8
freecads.com
100
AcDbLine
 10
164826.9873452354
 20
105789.1508028482
 30
0.0
 11
164847.9792979629
 21
105783.1558632942
 31
0.0
  0
LINE
  5
63E5A
330
1F
100
AcDbEntity
  8
freecads.com
100
AcDbLine
 10
164847.9792979629
 20
105783.1558632942
 30
0.0
 11
164862.4737246092
 21
105783.1558632942
 31
0.0
  0
LINE
  5
63E5B
330
1F
100
AcDbEntity
  8
freecads.com
100
AcDbLine
 10
164862.4737246092
 20
105783.1558632942
 30
0.0
 11
164883.4656181764
 21
105784.1549996487
 31
0.0
  0
LINE
  5
63E5C
330
1F
100
AcDbEntity
  8
freecads.com
100
AcDbLine
 10
164883.4656181764
 20
105784.1549996487
 30
0.0
 11
164897.9600448235
 21
105787.6520780784
 31
0.0
  0
LINE
  5
63E5D
330
1F
100
AcDbEntity
  8
freecads.com
100
AcDbLine
 10
164897.9600448235
 20
105787.6520780784
 30
0.0
 11
164908.9558126833
 21
105793.6470176325
 31
0.0
  0
LINE
  5
63E5E
330
1F
100
AcDbEntity
  8
freecads.com
100
AcDbLine
 10
164852.0857760953
 20
105871.3772355936
 30
0.0
 11
164863.1462660069
 21
105871.3772355936
 31
0.0
  0
LINE
  5
63E5F
330
1F
100
AcDbEntity
  8
freecads.com
100
AcDbLine
 10
164863.1462660069
 20
105871.3772355936
 30
0.0
 11
164869.7825836176
 21
105868.2817140515
 31
0.0
  0
LINE
  5
63E60
330
1F
100
AcDbEntity
  8
freecads.com
100
AcDbLine
 10
164962.2283309558
 20
105834.346101508
 30
0.0
 11
164975.9631921053
 21
105832.0199249667
 31
0.0
  0
LINE
  5
63E61
330
1F
100
AcDbEntity
  8
freecads.com
100
AcDbLine
 10
164975.9631921053
 20
105832.0199249667
 30
0.0
 11
165005.1628357768
 21
105823.175554575
 31
0.0
  0
LINE
  5
63E62
330
1F
100
AcDbEntity
  8
freecads.com
100
AcDbLine
 10
165005.1628357768
 20
105823.175554575
 30
0.0
 11
165022.8595841378
 21
105818.3111751447
 31
0.0
  0
LINE
  5
63E63
330
1F
100
AcDbEntity
  8
freecads.com
100
AcDbLine
 10
165022.8595841378
 20
105818.3111751447
 30
0.0
 11
165040.1139271017
 21
105811.2357031165
 31
0.0
  0
LINE
  5
63E64
330
1F
100
AcDbEntity
  8
freecads.com
100
AcDbLine
 10
165040.1139271017
 20
105811.2357031165
 30
0.0
 11
165058.2531400211
 21
105810.7934684069
 31
0.0
  0
LINE
  5
63E65
330
1F
100
AcDbEntity
  8
freecads.com
100
AcDbLine
 10
165058.2531400211
 20
105810.7934684069
 30
0.0
 11
165065.3318038694
 21
105807.6979468649
 31
0.0
  0
LINE
  5
63E66
330
1F
100
AcDbEntity
  8
freecads.com
100
AcDbLine
 10
165065.3318038694
 20
105807.6979468649
 30
0.0
 11
165069.1010647276
 21
105805.8625473453
 31
0.0
  0
LINE
  5
63E67
330
1F
100
AcDbEntity
  8
freecads.com
100
AcDbLine
 10
165069.1010647276
 20
105805.8625473453
 30
0.0
 11
165067.3313839762
 21
105795.6915537751
 31
0.0
  0
LINE
  5
63E68
330
1F
100
AcDbEntity
  8
freecads.com
100
AcDbLine
 10
165067.3313839762
 20
105795.6915537751
 30
0.0
 11
165059.3678501714
 21
105777.5606592329
 31
0.0
  0
LINE
  5
63E69
330
1F
100
AcDbEntity
  8
freecads.com
100
AcDbLine
 10
165059.3678501714
 20
105777.5606592329
 30
0.0
 11
165054.5012724735
 21
105763.8519094109
 31
0.0
  0
LINE
  5
63E6A
330
1F
100
AcDbEntity
  8
freecads.com
100
AcDbLine
 10
165054.5012724735
 20
105763.8519094109
 30
0.0
 11
165051.4043163676
 21
105751.9120579525
 31
0.0
  0
LINE
  5
63E6B
330
1F
100
AcDbEntity
  8
freecads.com
100
AcDbLine
 10
165051.4043163676
 20
105751.9120579525
 30
0.0
 11
165050.0770410122
 21
105739.9722064942
 31
0.0
  0
LINE
  5
63E6C
330
1F
100
AcDbEntity
  8
freecads.com
100
AcDbLine
 10
165050.0770410122
 20
105739.9722064942
 30
0.0
 11
165055.3860832695
 21
105725.3790277281
 31
0.0
  0
LINE
  5
63E6D
330
1F
100
AcDbEntity
  8
freecads.com
100
AcDbLine
 10
165055.3860832695
 20
105725.3790277281
 30
0.0
 11
165056.2709532259
 21
105716.0924631021
 31
0.0
  0
LINE
  5
63E6E
330
1F
100
AcDbEntity
  8
freecads.com
100
AcDbLine
 10
165056.2709532259
 20
105716.0924631021
 30
0.0
 11
165050.4853105573
 21
105690.3088357377
 31
0.0
  0
LINE
  5
63E6F
330
1F
100
AcDbEntity
  8
freecads.com
100
AcDbLine
 10
165050.4853105573
 20
105690.3088357377
 30
0.0
 11
165047.8307598475
 21
105677.9267495696
 31
0.0
  0
LINE
  5
63E70
330
1F
100
AcDbEntity
  8
freecads.com
100
AcDbLine
 10
165047.8307598475
 20
105677.9267495696
 30
0.0
 11
165050.4853105573
 21
105667.3135212897
 31
0.0
  0
LINE
  5
63E71
330
1F
100
AcDbEntity
  8
freecads.com
100
AcDbLine
 10
165050.4853105573
 20
105667.3135212897
 30
0.0
 11
165046.5035436544
 21
105648.7404325129
 31
0.0
  0
LINE
  5
63E72
330
1F
100
AcDbEntity
  8
freecads.com
100
AcDbLine
 10
165046.5035436544
 20
105648.7404325129
 30
0.0
 11
165044.733862902
 21
105641.6649200095
 31
0.0
  0
LINE
  5
63E73
330
1F
100
AcDbEntity
  8
freecads.com
100
AcDbLine
 10
165044.733862902
 20
105641.6649200095
 30
0.0
 11
165039.4248206457
 21
105637.6849695233
 31
0.0
  0
LINE
  5
63E74
330
1F
100
AcDbEntity
  8
freecads.com
100
AcDbLine
 10
165039.4248206457
 20
105637.6849695233
 30
0.0
 11
165009.3403070187
 21
105640.7804910654
 31
0.0
  0
LINE
  5
63E75
330
1F
100
AcDbEntity
  8
freecads.com
100
AcDbLine
 10
165009.3403070187
 20
105640.7804910654
 30
0.0
 11
164970.8498541899
 21
105646.9715341495
 31
0.0
  0
LINE
  5
63E76
330
1F
100
AcDbEntity
  8
freecads.com
100
AcDbLine
 10
164970.8498541899
 20
105646.9715341495
 30
0.0
 11
164922.1837222455
 21
105648.2981978033
 31
0.0
  0
LINE
  5
63E77
330
1F
100
AcDbEntity
  8
freecads.com
100
AcDbLine
 10
164922.1837222455
 20
105648.2981978033
 30
0.0
 11
164879.9669593889
 21
105651.2668693014
 31
0.0
  0
LINE
  5
63E78
330
1F
100
AcDbEntity
  8
freecads.com
100
AcDbLine
 10
165063.4515610412
 20
105808.5201828546
 30
0.0
 11
165067.7426707279
 21
105812.8925654491
 31
0.0
  0
LINE
  5
63E79
330
1F
100
AcDbEntity
  8
freecads.com
100
AcDbLine
 10
165067.7426707279
 20
105812.8925654491
 30
0.0
 11
165073.0517129842
 21
105812.8925654491
 31
0.0
  0
LINE
  5
63E7A
330
1F
100
AcDbEntity
  8
freecads.com
100
AcDbLine
 10
165073.0517129842
 20
105812.8925654491
 30
0.0
 11
165076.1486690901
 21
105810.2392381412
 31
0.0
  0
LINE
  5
63E7B
330
1F
100
AcDbEntity
  8
freecads.com
100
AcDbLine
 10
165076.1486690901
 20
105810.2392381412
 30
0.0
 11
165082.3425221425
 21
105806.701522365
 31
0.0
  0
LINE
  5
63E7C
330
1F
100
AcDbEntity
  8
freecads.com
100
AcDbLine
 10
165082.3425221425
 20
105806.701522365
 30
0.0
 11
165087.6515643988
 21
105801.8371429348
 31
0.0
  0
LINE
  5
63E7D
330
1F
100
AcDbEntity
  8
freecads.com
100
AcDbLine
 10
165087.6515643988
 20
105801.8371429348
 30
0.0
 11
165096.9423143975
 21
105800.9526735154
 31
0.0
  0
LINE
  5
63E7E
330
1F
100
AcDbEntity
  8
freecads.com
100
AcDbLine
 10
165096.9423143975
 20
105800.9526735154
 30
0.0
 11
165101.8089512558
 21
105802.7215718789
 31
0.0
  0
LINE
  5
63E7F
330
1F
100
AcDbEntity
  8
freecads.com
100
AcDbLine
 10
165101.8089512558
 20
105802.7215718789
 30
0.0
 11
165102.2513566539
 21
105807.1437165992
 31
0.0
  0
LINE
  5
63E80
330
1F
100
AcDbEntity
  8
freecads.com
100
AcDbLine
 10
165102.2513566539
 20
105807.1437165992
 30
0.0
 11
165097.3847789559
 21
105819.0836085331
 31
0.0
  0
LINE
  5
63E81
330
1F
100
AcDbEntity
  8
freecads.com
100
AcDbLine
 10
165097.3847789559
 20
105819.0836085331
 30
0.0
 11
165089.4211859899
 21
105836.7722683658
 31
0.0
  0
LINE
  5
63E82
330
1F
100
AcDbEntity
  8
freecads.com
100
AcDbLine
 10
165089.4211859899
 20
105836.7722683658
 30
0.0
 11
165108.8876742646
 21
105838.0989320195
 31
0.0
  0
LINE
  5
63E83
330
1F
100
AcDbEntity
  8
freecads.com
100
AcDbLine
 10
165108.8876742646
 20
105838.0989320195
 30
0.0
 11
165143.3963601915
 21
105838.0989320195
 31
0.0
  0
LINE
  5
63E84
330
1F
100
AcDbEntity
  8
freecads.com
100
AcDbLine
 10
165143.3963601915
 20
105838.0989320195
 30
0.0
 11
165180.1171322679
 21
105832.3501236454
 31
0.0
  0
LINE
  5
63E85
330
1F
100
AcDbEntity
  8
freecads.com
100
AcDbLine
 10
165180.1171322679
 20
105832.3501236454
 30
0.0
 11
165222.1469466016
 21
105819.5258027674
 31
0.0
  0
LINE
  5
63E86
330
1F
100
AcDbEntity
  8
freecads.com
100
AcDbLine
 10
165222.1469466016
 20
105819.5258027674
 30
0.0
 11
165260.6373994313
 21
105802.7215718789
 31
0.0
  0
LINE
  5
63E87
330
1F
100
AcDbEntity
  8
freecads.com
100
AcDbLine
 10
165260.6373994313
 20
105802.7215718789
 30
0.0
 11
165273.190696965
 21
105795.1731442783
 31
0.0
  0
LINE
  5
63E88
330
1F
100
AcDbEntity
  8
freecads.com
100
AcDbLine
 10
165273.190696965
 20
105795.1731442783
 30
0.0
 11
165282.4815061232
 21
105791.1931937923
 31
0.0
  0
LINE
  5
63E89
330
1F
100
AcDbEntity
  8
freecads.com
100
AcDbLine
 10
165282.4815061232
 20
105791.1931937923
 30
0.0
 11
165287.7905483795
 21
105791.1931937923
 31
0.0
  0
LINE
  5
63E8A
330
1F
100
AcDbEntity
  8
freecads.com
100
AcDbLine
 10
165287.7905483795
 20
105791.1931937923
 30
0.0
 11
165286.9056784231
 21
105799.5953294743
 31
0.0
  0
LINE
  5
63E8B
330
1F
100
AcDbEntity
  8
freecads.com
100
AcDbLine
 10
165286.9056784231
 20
105799.5953294743
 30
0.0
 11
165278.0573338242
 21
105821.2639802684
 31
0.0
  0
LINE
  5
63E8C
330
1F
100
AcDbEntity
  8
freecads.com
100
AcDbLine
 10
165278.0573338242
 20
105821.2639802684
 30
0.0
 11
165265.6695685582
 21
105844.2592542412
 31
0.0
  0
LINE
  5
63E8D
330
1F
100
AcDbEntity
  8
freecads.com
100
AcDbLine
 10
165265.6695685582
 20
105844.2592542412
 30
0.0
 11
165257.2636293555
 21
105867.2545686893
 31
0.0
  0
LINE
  5
63E8E
330
1F
100
AcDbEntity
  8
freecads.com
100
AcDbLine
 10
165257.2636293555
 20
105867.2545686893
 30
0.0
 11
165254.1666732496
 21
105876.5411333153
 31
0.0
  0
LINE
  5
63E8F
330
1F
100
AcDbEntity
  8
freecads.com
100
AcDbLine
 10
165254.1666732496
 20
105876.5411333153
 30
0.0
 11
165243.9935972141
 21
105905.6109620419
 31
0.0
  0
LINE
  5
63E90
330
1F
100
AcDbEntity
  8
freecads.com
100
AcDbLine
 10
165243.9935972141
 20
105905.6109620419
 30
0.0
 11
165232.4907019054
 21
105931.7017575565
 31
0.0
  0
LINE
  5
63E91
330
1F
100
AcDbEntity
  8
freecads.com
100
AcDbLine
 10
165232.4907019054
 20
105931.7017575565
 30
0.0
 11
165213.024272792
 21
105967.5213524069
 31
0.0
  0
LINE
  5
63E92
330
1F
100
AcDbEntity
  8
freecads.com
100
AcDbLine
 10
165213.024272792
 20
105967.5213524069
 30
0.0
 11
165187.3639906263
 21
106002.0142836037
 31
0.0
  0
LINE
  5
63E93
330
1F
100
AcDbEntity
  8
freecads.com
100
AcDbLine
 10
165187.3639906263
 20
106002.0142836037
 30
0.0
 11
165170.1096476633
 21
106033.4117337337
 31
0.0
  0
LINE
  5
63E94
330
1F
100
AcDbEntity
  8
freecads.com
100
AcDbLine
 10
165170.1096476633
 20
106033.4117337337
 30
0.0
 11
165165.685416203
 21
106049.7737703879
 31
0.0
  0
LINE
  5
63E95
330
1F
100
AcDbEntity
  8
freecads.com
100
AcDbLine
 10
165165.685416203
 20
106049.7737703879
 30
0.0
 11
165163.9157354496
 21
106061.2713871367
 31
0.0
  0
LINE
  5
63E96
330
1F
100
AcDbEntity
  8
freecads.com
100
AcDbLine
 10
165163.9157354496
 20
106061.2713871367
 30
0.0
 11
165163.9157354496
 21
106070.5579517627
 31
0.0
  0
LINE
  5
63E97
330
1F
100
AcDbEntity
  8
freecads.com
100
AcDbLine
 10
165163.9157354496
 20
106070.5579517627
 30
0.0
 11
165174.9762253612
 21
106080.2867510986
 31
0.0
  0
LINE
  5
63E98
330
1F
100
AcDbEntity
  8
freecads.com
100
AcDbLine
 10
165174.9762253612
 20
106080.2867510986
 30
0.0
 11
165210.8533034846
 21
106105.2403080409
 31
0.0
  0
LINE
  5
63E99
330
1F
100
AcDbEntity
  8
freecads.com
100
AcDbLine
 10
165210.8533034846
 20
106105.2403080409
 30
0.0
 11
165240.0529471561
 21
106139.2910045278
 31
0.0
  0
LINE
  5
63E9A
330
1F
100
AcDbEntity
  8
freecads.com
100
AcDbLine
 10
165240.0529471561
 20
106139.2910045278
 30
0.0
 11
165253.3255232163
 21
106161.4018900318
 31
0.0
  0
LINE
  5
63E9B
330
1F
100
AcDbEntity
  8
freecads.com
100
AcDbLine
 10
165253.3255232163
 20
106161.4018900318
 30
0.0
 11
165261.2891161824
 21
106186.1660623681
 31
0.0
  0
LINE
  5
63E9C
330
1F
100
AcDbEntity
  8
freecads.com
100
AcDbLine
 10
165261.2891161824
 20
106186.1660623681
 30
0.0
 11
165275.0040976405
 21
106214.4679504806
 31
0.0
  0
LINE
  5
63E9D
330
1F
100
AcDbEntity
  8
freecads.com
100
AcDbLine
 10
165275.0040976405
 20
106214.4679504806
 30
0.0
 11
165283.4100368433
 21
106232.1566507887
 31
0.0
  0
LINE
  5
63E9E
330
1F
100
AcDbEntity
  8
freecads.com
100
AcDbLine
 10
165283.4100368433
 20
106232.1566507887
 30
0.0
 11
165301.5671755234
 21
106278.8703330306
 31
0.0
  0
LINE
  5
63E9F
330
1F
100
AcDbEntity
  8
freecads.com
100
AcDbLine
 10
165301.5671755234
 20
106278.8703330306
 30
0.0
 11
165318.3791130883
 21
106322.6498288533
 31
0.0
  0
LINE
  5
63EA0
330
1F
100
AcDbEntity
  8
freecads.com
100
AcDbLine
 10
165318.3791130883
 20
106322.6498288533
 30
0.0
 11
165327.2275168495
 21
106347.8562358993
 31
0.0
  0
LINE
  5
63EA1
330
1F
100
AcDbEntity
  8
freecads.com
100
AcDbLine
 10
165327.2275168495
 20
106347.8562358993
 30
0.0
 11
165330.324413795
 21
106354.4894732176
 31
0.0
  0
LINE
  5
63EA2
330
1F
100
AcDbEntity
  8
freecads.com
100
AcDbLine
 10
165330.324413795
 20
106354.4894732176
 30
0.0
 11
165327.2275168495
 21
106344.3184796476
 31
0.0
  0
LINE
  5
63EA3
330
1F
100
AcDbEntity
  8
freecads.com
100
AcDbLine
 10
165327.2275168495
 20
106344.3184796476
 30
0.0
 11
165327.2275168495
 21
106340.3385291614
 31
0.0
  0
LINE
  5
63EA4
330
1F
100
AcDbEntity
  8
freecads.com
100
AcDbLine
 10
165327.2275168495
 20
106340.3385291614
 30
0.0
 11
165329.439602999
 21
106341.6651928152
 31
0.0
  0
LINE
  5
63EA5
330
1F
100
AcDbEntity
  8
freecads.com
100
AcDbLine
 10
165329.439602999
 20
106341.6651928152
 30
0.0
 11
165336.5183260078
 21
106350.5095227316
 31
0.0
  0
LINE
  5
63EA6
330
1F
100
AcDbEntity
  8
freecads.com
100
AcDbLine
 10
165336.5183260078
 20
106350.5095227316
 30
0.0
 11
165339.6152229542
 21
106363.7760378437
 31
0.0
  0
LINE
  5
63EA7
330
1F
100
AcDbEntity
  8
freecads.com
100
AcDbLine
 10
165339.6152229542
 20
106363.7760378437
 30
0.0
 11
165359.524116626
 21
106362.8916088996
 31
0.0
  0
LINE
  5
63EA8
330
1F
100
AcDbEntity
  8
freecads.com
100
AcDbLine
 10
165359.524116626
 20
106362.8916088996
 30
0.0
 11
165365.2755642812
 21
106363.333803134
 31
0.0
  0
LINE
  5
63EA9
330
1F
100
AcDbEntity
  8
freecads.com
100
AcDbLine
 10
165365.2755642812
 20
106363.333803134
 30
0.0
 11
165371.4694173336
 21
106366.8715593858
 31
0.0
  0
LINE
  5
63EAA
330
1F
100
AcDbEntity
  8
freecads.com
100
AcDbLine
 10
165371.4694173336
 20
106366.8715593858
 30
0.0
 11
165376.3359950315
 21
106365.9871304416
 31
0.0
  0
LINE
  5
63EAB
330
1F
100
AcDbEntity
  8
freecads.com
100
AcDbLine
 10
165376.3359950315
 20
106365.9871304416
 30
0.0
 11
165383.8571234383
 21
106367.3137940956
 31
0.0
  0
LINE
  5
63EAC
330
1F
100
AcDbEntity
  8
freecads.com
100
AcDbLine
 10
165383.8571234383
 20
106367.3137940956
 30
0.0
 11
165387.3964849422
 21
106369.9670809278
 31
0.0
  0
LINE
  5
63EAD
330
1F
100
AcDbEntity
  8
freecads.com
100
AcDbLine
 10
165387.3964849422
 20
106369.9670809278
 30
0.0
 11
165400.6690610032
 21
106366.429324676
 31
0.0
  0
LINE
  5
63EAE
330
1F
100
AcDbEntity
  8
freecads.com
100
AcDbLine
 10
165400.6690610032
 20
106366.429324676
 30
0.0
 11
165413.4992316663
 21
106365.9871304416
 31
0.0
  0
LINE
  5
63EAF
330
1F
100
AcDbEntity
  8
freecads.com
100
AcDbLine
 10
165413.4992316663
 20
106365.9871304416
 30
0.0
 11
165420.5779546751
 21
106365.9871304416
 31
0.0
  0
LINE
  5
63EB0
330
1F
100
AcDbEntity
  8
freecads.com
100
AcDbLine
 10
165420.5779546751
 20
106365.9871304416
 30
0.0
 11
165432.5232553817
 21
106382.7913613303
 31
0.0
  0
LINE
  5
63EB1
330
1F
100
AcDbEntity
  8
freecads.com
100
AcDbLine
 10
165432.5232553817
 20
106382.7913613303
 30
0.0
 11
165436.0626168866
 21
106402.2489195264
 31
0.0
  0
LINE
  5
63EB2
330
1F
100
AcDbEntity
  8
freecads.com
100
AcDbLine
 10
165436.0626168866
 20
106402.2489195264
 30
0.0
 11
165435.1777469301
 21
106418.6109561807
 31
0.0
  0
LINE
  5
63EB3
330
1F
100
AcDbEntity
  8
freecads.com
100
AcDbLine
 10
165435.1777469301
 20
106418.6109561807
 30
0.0
 11
165426.779202844
 21
106458.2453617026
 31
0.0
  0
LINE
  5
63EB4
330
1F
100
AcDbEntity
  8
freecads.com
100
AcDbLine
 10
165426.779202844
 20
106458.2453617026
 30
0.0
 11
165421.0277551888
 21
106471.0696421051
 31
0.0
  0
LINE
  5
63EB5
330
1F
100
AcDbEntity
  8
freecads.com
100
AcDbLine
 10
165421.0277551888
 20
106471.0696421051
 30
0.0
 11
165411.2945406316
 21
106476.3762562452
 31
0.0
  0
LINE
  5
63EB6
330
1F
100
AcDbEntity
  8
freecads.com
100
AcDbLine
 10
165411.2945406316
 20
106476.3762562452
 30
0.0
 11
165407.7551791276
 21
106481.6828703851
 31
0.0
  0
LINE
  5
63EB7
330
1F
100
AcDbEntity
  8
freecads.com
100
AcDbLine
 10
165407.7551791276
 20
106481.6828703851
 30
0.0
 11
165407.7551791276
 21
106493.6227218433
 31
0.0
  0
LINE
  5
63EB8
330
1F
100
AcDbEntity
  8
freecads.com
100
AcDbLine
 10
165407.7551791276
 20
106493.6227218433
 30
0.0
 11
165412.1793514276
 21
106504.2359501233
 31
0.0
  0
LINE
  5
63EB9
330
1F
100
AcDbEntity
  8
freecads.com
100
AcDbLine
 10
165412.1793514276
 20
106504.2359501233
 30
0.0
 11
165417.0459882868
 21
106516.6180362914
 31
0.0
  0
LINE
  5
63EBA
330
1F
100
AcDbEntity
  8
freecads.com
100
AcDbLine
 10
165417.0459882868
 20
106516.6180362914
 30
0.0
 11
165416.6035828888
 21
106534.3067365995
 31
0.0
  0
LINE
  5
63EBB
330
1F
100
AcDbEntity
  8
freecads.com
100
AcDbLine
 10
165416.6035828888
 20
106534.3067365995
 30
0.0
 11
165411.2945406316
 21
106555.9753873937
 31
0.0
  0
LINE
  5
63EBC
330
1F
100
AcDbEntity
  8
freecads.com
100
AcDbLine
 10
165411.2945406316
 20
106555.9753873937
 30
0.0
 11
165392.2705169171
 21
106587.8149912828
 31
0.0
  0
LINE
  5
63EBD
330
1F
100
AcDbEntity
  8
freecads.com
100
AcDbLine
 10
165392.2705169171
 20
106587.8149912828
 30
0.0
 11
165368.7968817027
 21
106620.6702455078
 31
0.0
  0
LINE
  5
63EBE
330
1F
100
AcDbEntity
  8
freecads.com
100
AcDbLine
 10
165368.7968817027
 20
106620.6702455078
 30
0.0
 11
165357.293986395
 21
106626.419053882
 31
0.0
  0
LINE
  5
63EBF
330
1F
100
AcDbEntity
  8
freecads.com
100
AcDbLine
 10
165357.293986395
 20
106626.419053882
 30
0.0
 11
165343.1365995379
 21
106629.9568101339
 31
0.0
  0
LINE
  5
63EC0
330
1F
100
AcDbEntity
  8
freecads.com
100
AcDbLine
 10
165343.1365995379
 20
106629.9568101339
 30
0.0
 11
165337.8275572806
 21
106628.1879522457
 31
0.0
  0
LINE
  5
63EC1
330
1F
100
AcDbEntity
  8
freecads.com
100
AcDbLine
 10
165337.8275572806
 20
106628.1879522457
 30
0.0
 11
165333.4033258194
 21
106621.1124802175
 31
0.0
  0
LINE
  5
63EC2
330
1F
100
AcDbEntity
  8
freecads.com
100
AcDbLine
 10
165333.4033258194
 20
106621.1124802175
 30
0.0
 11
165327.209472768
 21
106604.3082088534
 31
0.0
  0
LINE
  5
63EC3
330
1F
100
AcDbEntity
  8
freecads.com
100
AcDbLine
 10
165327.209472768
 20
106604.3082088534
 30
0.0
 11
165326.76706737
 21
106589.7150300875
 31
0.0
  0
LINE
  5
63EC4
330
1F
100
AcDbEntity
  8
freecads.com
100
AcDbLine
 10
165326.76706737
 20
106589.7150300875
 30
0.0
 11
165326.3246619711
 21
106569.8152776569
 31
0.0
  0
LINE
  5
63EC5
330
1F
100
AcDbEntity
  8
freecads.com
100
AcDbLine
 10
165326.3246619711
 20
106569.8152776569
 30
0.0
 11
165320.5732143177
 21
106550.3577194606
 31
0.0
  0
LINE
  5
63EC6
330
1F
100
AcDbEntity
  8
freecads.com
100
AcDbLine
 10
165320.5732143177
 20
106550.3577194606
 30
0.0
 11
165312.6096805129
 21
106529.5734976104
 31
0.0
  0
LINE
  5
63EC7
330
1F
100
AcDbEntity
  8
freecads.com
100
AcDbLine
 10
165312.6096805129
 20
106529.5734976104
 30
0.0
 11
165308.6278544506
 21
106521.1713619284
 31
0.0
  0
LINE
  5
63EC8
330
1F
100
AcDbEntity
  8
freecads.com
100
AcDbLine
 10
165308.6278544506
 20
106521.1713619284
 30
0.0
 11
165301.5491906022
 21
106526.4779760684
 31
0.0
  0
LINE
  5
63EC9
330
1F
100
AcDbEntity
  8
freecads.com
100
AcDbLine
 10
165301.5491906022
 20
106526.4779760684
 30
0.0
 11
165296.682553743
 21
106527.3624050125
 31
0.0
  0
LINE
  5
63ECA
330
1F
100
AcDbEntity
  8
freecads.com
100
AcDbLine
 10
165296.682553743
 20
106527.3624050125
 30
0.0
 11
165293.1431922382
 21
106520.7291676942
 31
0.0
  0
LINE
  5
63ECB
330
1F
100
AcDbEntity
  8
freecads.com
100
AcDbLine
 10
165293.1431922382
 20
106520.7291676942
 30
0.0
 11
165293.1431922382
 21
106514.5381246102
 31
0.0
  0
LINE
  5
63ECC
330
1F
100
AcDbEntity
  8
freecads.com
100
AcDbLine
 10
165293.1431922382
 20
106514.5381246102
 30
0.0
 11
165298.4522344954
 21
106510.1159394141
 31
0.0
  0
LINE
  5
63ECD
330
1F
100
AcDbEntity
  8
freecads.com
100
AcDbLine
 10
165298.4522344954
 20
106510.1159394141
 30
0.0
 11
165302.4340013973
 21
106509.2315104703
 31
0.0
  0
LINE
  5
63ECE
330
1F
100
AcDbEntity
  8
freecads.com
100
AcDbLine
 10
165302.4340013973
 20
106509.2315104703
 30
0.0
 11
165307.3006382566
 21
106504.8093252742
 31
0.0
  0
LINE
  5
63ECF
330
1F
100
AcDbEntity
  8
freecads.com
100
AcDbLine
 10
165307.3006382566
 20
106504.8093252742
 30
0.0
 11
165307.3006382566
 21
106499.5027111341
 31
0.0
  0
LINE
  5
63ED0
330
1F
100
AcDbEntity
  8
freecads.com
100
AcDbLine
 10
165307.3006382566
 20
106499.5027111341
 30
0.0
 11
165306.8581736972
 21
106493.75390276
 31
0.0
  0
LINE
  5
63ED1
330
1F
100
AcDbEntity
  8
freecads.com
100
AcDbLine
 10
165306.8581736972
 20
106493.75390276
 30
0.0
 11
165303.3188713537
 21
106489.7739522739
 31
0.0
  0
LINE
  5
63ED2
330
1F
100
AcDbEntity
  8
freecads.com
100
AcDbLine
 10
165303.3188713537
 20
106489.7739522739
 30
0.0
 11
165295.3552783886
 21
106478.7185297595
 31
0.0
  0
LINE
  5
63ED3
330
1F
100
AcDbEntity
  8
freecads.com
100
AcDbLine
 10
165295.3552783886
 20
106478.7185297595
 30
0.0
 11
165291.3735114867
 21
106467.2208725355
 31
0.0
  0
LINE
  5
63ED4
330
1F
100
AcDbEntity
  8
freecads.com
100
AcDbLine
 10
165291.3735114867
 20
106467.2208725355
 30
0.0
 11
165294.4704675935
 21
106459.7031657976
 31
0.0
  0
LINE
  5
63ED5
330
1F
100
AcDbEntity
  8
freecads.com
100
AcDbLine
 10
165294.4704675935
 20
106459.7031657976
 30
0.0
 11
165311.2824051585
 21
106449.5321722274
 31
0.0
  0
LINE
  5
63ED6
330
1F
100
AcDbEntity
  8
freecads.com
100
AcDbLine
 10
165311.2824051585
 20
106449.5321722274
 30
0.0
 11
165327.6518781651
 21
106444.6677927973
 31
0.0
  0
LINE
  5
63ED7
330
1F
100
AcDbEntity
  8
freecads.com
100
AcDbLine
 10
165327.6518781651
 20
106444.6677927973
 30
0.0
 11
165339.6295990581
 21
106432.9071666084
 31
0.0
  0
LINE
  5
63ED8
330
1F
100
AcDbEntity
  8
freecads.com
100
AcDbLine
 10
165339.6295990581
 20
106432.9071666084
 30
0.0
 11
165349.3628727775
 21
106416.5451299542
 31
0.0
  0
LINE
  5
63ED9
330
1F
100
AcDbEntity
  8
freecads.com
100
AcDbLine
 10
165349.3628727775
 20
106416.5451299542
 30
0.0
 11
165349.8052781736
 21
106408.5851885065
 31
0.0
  0
LINE
  5
63EDA
330
1F
100
AcDbEntity
  8
freecads.com
100
AcDbLine
 10
165349.8052781736
 20
106408.5851885065
 30
0.0
 11
165344.9386413153
 21
106391.338722908
 31
0.0
  0
LINE
  5
63EDB
330
1F
100
AcDbEntity
  8
freecads.com
100
AcDbLine
 10
165344.9386413153
 20
106391.338722908
 30
0.0
 11
165338.3023828659
 21
106385.1476798242
 31
0.0
  0
LINE
  5
63EDC
330
1F
100
AcDbEntity
  8
freecads.com
100
AcDbLine
 10
165338.3023828659
 20
106385.1476798242
 30
0.0
 11
165334.320615964
 21
106376.7455846175
 31
0.0
  0
LINE
  5
63EDD
330
1F
100
AcDbEntity
  8
freecads.com
100
AcDbLine
 10
165334.320615964
 20
106376.7455846175
 30
0.0
 11
165336.5327021135
 21
106366.5745505719
 31
0.0
  0
LINE
  5
63EDE
330
1F
100
AcDbEntity
  8
freecads.com
100
AcDbLine
 10
165336.5327021135
 20
106366.5745505719
 30
0.0
 11
165332.9933406087
 21
106358.1724553655
 31
0.0
  0
LINE
  5
63EDF
330
1F
100
AcDbEntity
  8
freecads.com
100
AcDbLine
 10
165332.9933406087
 20
106358.1724553655
 30
0.0
 11
165330.324413795
 21
106354.4894732176
 31
0.0
  0
LINE
  5
63EE0
330
1F
100
AcDbEntity
  8
freecads.com
100
AcDbLine
 10
165393.5698691802
 20
106368.3215881026
 30
0.0
 11
165398.4713509576
 21
106376.7455846175
 31
0.0
  0
LINE
  5
63EE1
330
1F
100
AcDbEntity
  8
freecads.com
100
AcDbLine
 10
165398.4713509576
 20
106376.7455846175
 30
0.0
 11
165401.1259016664
 21
106383.8210566457
 31
0.0
  0
LINE
  5
63EE2
330
1F
100
AcDbEntity
  8
freecads.com
100
AcDbLine
 10
165401.1259016664
 20
106383.8210566457
 30
0.0
 11
165398.0289455596
 21
106394.87647916
 31
0.0
  0
LINE
  5
63EE3
330
1F
100
AcDbEntity
  8
freecads.com
100
AcDbLine
 10
165398.0289455596
 20
106394.87647916
 30
0.0
 11
165394.0471786577
 21
106405.4896669645
 31
0.0
  0
LINE
  5
63EE4
330
1F
100
AcDbEntity
  8
freecads.com
100
AcDbLine
 10
165394.0471786577
 20
106405.4896669645
 30
0.0
 11
165394.0471786577
 21
106416.1028952444
 31
0.0
  0
LINE
  5
63EE5
330
1F
100
AcDbEntity
  8
freecads.com
100
AcDbLine
 10
165394.0471786577
 20
106416.1028952444
 30
0.0
 11
165397.1441347646
 21
106453.2491537488
 31
0.0
  0
LINE
  5
63EE6
330
1F
100
AcDbEntity
  8
freecads.com
100
AcDbLine
 10
165397.1441347646
 20
106453.2491537488
 30
0.0
 11
165395.8168594101
 21
106497.4708842812
 31
0.0
  0
LINE
  5
63EE7
330
1F
100
AcDbEntity
  8
freecads.com
100
AcDbLine
 10
165395.8168594101
 20
106497.4708842812
 30
0.0
 11
165388.7381364014
 21
106512.5062572817
 31
0.0
  0
LINE
  5
63EE8
330
1F
100
AcDbEntity
  8
freecads.com
100
AcDbLine
 10
165388.7381364014
 20
106512.5062572817
 30
0.0
 11
165388.7529857932
 21
106537.1283203312
 31
0.0
  0
LINE
  5
63EE9
330
1F
100
AcDbEntity
  8
freecads.com
100
AcDbLine
 10
165388.7529857932
 20
106537.1283203312
 30
0.0
 11
165386.5408996437
 21
106560.1235943037
 31
0.0
  0
LINE
  5
63EEA
330
1F
100
AcDbEntity
  8
freecads.com
100
AcDbLine
 10
165386.5408996437
 20
106560.1235943037
 30
0.0
 11
165379.4622357963
 21
106584.88776664
 31
0.0
  0
LINE
  5
63EEB
330
1F
100
AcDbEntity
  8
freecads.com
100
AcDbLine
 10
165379.4622357963
 20
106584.88776664
 30
0.0
 11
165366.1896597343
 21
106609.6519389764
 31
0.0
  0
LINE
  5
63EEC
330
1F
100
AcDbEntity
  8
freecads.com
100
AcDbLine
 10
165366.1896597343
 20
106609.6519389764
 30
0.0
 11
165355.5715752206
 21
106622.9184540886
 31
0.0
  0
LINE
  5
63EED
330
1F
100
AcDbEntity
  8
freecads.com
100
AcDbLine
 10
165355.5715752206
 20
106622.9184540886
 30
0.0
 11
165350.2625329643
 21
106626.0139756306
 31
0.0
  0
LINE
  5
63EEE
330
1F
100
AcDbEntity
  8
freecads.com
100
AcDbLine
 10
165350.2625329643
 20
106626.0139756306
 30
0.0
 11
165345.8383606644
 21
106626.4561698648
 31
0.0
  0
LINE
  5
63EEF
330
1F
100
AcDbEntity
  8
freecads.com
100
AcDbLine
 10
165345.8383606644
 20
106626.4561698648
 30
0.0
 11
165341.4141883636
 21
106626.4561698648
 31
0.0
  0
LINE
  5
63EF0
330
1F
100
AcDbEntity
  8
freecads.com
100
AcDbLine
 10
165341.4141883636
 20
106626.4561698648
 30
0.0
 11
165335.1234639594
 21
106623.8634188593
 31
0.0
  0
LINE
  5
63EF1
330
1F
100
AcDbEntity
  8
freecads.com
100
AcDbLine
 10
165333.8930599578
 20
106584.0033376959
 30
0.0
 11
165339.2020430537
 21
106579.5811525001
 31
0.0
  0
LINE
  5
63EF2
330
1F
100
AcDbEntity
  8
freecads.com
100
AcDbLine
 10
165339.2020430537
 20
106579.5811525001
 30
0.0
 11
165340.5293184072
 21
106568.083495276
 31
0.0
  0
LINE
  5
63EF3
330
1F
100
AcDbEntity
  8
freecads.com
100
AcDbLine
 10
165340.5293184072
 20
106568.083495276
 30
0.0
 11
165342.2989991605
 21
106551.7214586218
 31
0.0
  0
LINE
  5
63EF4
330
1F
100
AcDbEntity
  8
freecads.com
100
AcDbLine
 10
165342.2989991605
 20
106551.7214586218
 30
0.0
 11
165353.3594890712
 21
106533.5905640794
 31
0.0
  0
LINE
  5
63EF5
330
1F
100
AcDbEntity
  8
freecads.com
100
AcDbLine
 10
165353.3594890712
 20
106533.5905640794
 30
0.0
 11
165367.0744705302
 21
106523.4195705092
 31
0.0
  0
LINE
  5
63EF6
330
1F
100
AcDbEntity
  8
freecads.com
100
AcDbLine
 10
165367.0744705302
 20
106523.4195705092
 30
0.0
 11
165375.0380043341
 21
106517.2285274252
 31
0.0
  0
LINE
  5
63EF7
330
1F
100
AcDbEntity
  8
freecads.com
100
AcDbLine
 10
165323.2749754442
 20
106509.2686264531
 30
0.0
 11
165309.559993986
 21
106510.1530553969
 31
0.0
  0
LINE
  5
63EF8
330
1F
100
AcDbEntity
  8
freecads.com
100
AcDbLine
 10
165309.559993986
 20
106510.1530553969
 30
0.0
 11
165313.099355489
 21
106525.6306631071
 31
0.0
  0
LINE
  5
63EF9
330
1F
100
AcDbEntity
  8
freecads.com
100
AcDbLine
 10
165313.099355489
 20
106525.6306631071
 30
0.0
 11
165322.8325700471
 21
106525.6306631071
 31
0.0
  0
LINE
  5
63EFA
330
1F
100
AcDbEntity
  8
freecads.com
100
AcDbLine
 10
165324.1597862393
 20
106529.6106135933
 30
0.0
 11
165316.6387169948
 21
106532.7061351354
 31
0.0
  0
LINE
  5
63EFB
330
1F
100
AcDbEntity
  8
freecads.com
100
AcDbLine
 10
165316.6387169948
 20
106532.7061351354
 30
0.0
 11
165318.8508031452
 21
106542.8771287056
 31
0.0
  0
LINE
  5
63EFC
330
1F
100
AcDbEntity
  8
freecads.com
100
AcDbLine
 10
165318.8508031452
 20
106542.8771287056
 30
0.0
 11
165325.0446561966
 21
106541.9926997614
 31
0.0
  0
LINE
  5
63EFD
330
1F
100
AcDbEntity
  8
freecads.com
100
AcDbLine
 10
165327.699147745
 20
106547.2993139015
 30
0.0
 11
165321.9477000898
 21
106549.9526007337
 31
0.0
  0
LINE
  5
63EFE
330
1F
100
AcDbEntity
  8
freecads.com
100
AcDbLine
 10
165321.9477000898
 20
106549.9526007337
 30
0.0
 11
165325.4870615946
 21
106558.7969711254
 31
0.0
  0
LINE
  5
63EFF
330
1F
100
AcDbEntity
  8
freecads.com
100
AcDbLine
 10
165325.4870615946
 20
106558.7969711254
 30
0.0
 11
165329.9112338954
 21
106558.7969711254
 31
0.0
  0
LINE
  5
63F00
330
1F
100
AcDbEntity
  8
freecads.com
100
AcDbLine
 10
165291.528750822
 20
106467.66913802
 30
0.0
 11
165286.0977768302
 21
106457.8293550812
 31
0.0
  0
LINE
  5
63F01
330
1F
100
AcDbEntity
  8
freecads.com
100
AcDbLine
 10
165286.0977768302
 20
106457.8293550812
 30
0.0
 11
165282.1160099283
 21
106450.753883053
 31
0.0
  0
LINE
  5
63F02
330
1F
100
AcDbEntity
  8
freecads.com
100
AcDbLine
 10
165282.1160099283
 20
106450.753883053
 30
0.0
 11
165291.4068190874
 21
106449.4272193991
 31
0.0
  0
LINE
  5
63F03
330
1F
100
AcDbEntity
  8
freecads.com
100
AcDbLine
 10
165291.4068190874
 20
106449.4272193991
 30
0.0
 11
165294.061310634
 21
106445.8895036226
 31
0.0
  0
LINE
  5
63F04
330
1F
100
AcDbEntity
  8
freecads.com
100
AcDbLine
 10
165294.061310634
 20
106445.8895036226
 30
0.0
 11
165304.2369305892
 21
106448.9850251648
 31
0.0
  0
LINE
  5
63F05
330
1F
100
AcDbEntity
  8
freecads.com
100
AcDbLine
 10
165304.2369305892
 20
106448.9850251648
 30
0.0
 11
165308.3026925176
 21
106451.3348578483
 31
0.0
  0
LINE
  5
63F06
330
1F
100
AcDbEntity
  8
freecads.com
100
AcDbLine
 10
165295.4348293627
 20
106446.3073412416
 30
0.0
 11
165291.8492244845
 21
106429.9696612028
 31
0.0
  0
LINE
  5
63F07
330
1F
100
AcDbEntity
  8
freecads.com
100
AcDbLine
 10
165291.8492244845
 20
106429.9696612028
 30
0.0
 11
165276.3645622739
 21
106396.3611589503
 31
0.0
  0
LINE
  5
63F08
330
1F
100
AcDbEntity
  8
freecads.com
100
AcDbLine
 10
165276.3645622739
 20
106396.3611589503
 30
0.0
 11
165258.6677547516
 21
106357.0038483235
 31
0.0
  0
LINE
  5
63F09
330
1F
100
AcDbEntity
  8
freecads.com
100
AcDbLine
 10
165258.6677547516
 20
106357.0038483235
 30
0.0
 11
165242.6995111387
 21
106326.7193514986
 31
0.0
  0
LINE
  5
63F0A
330
1F
100
AcDbEntity
  8
freecads.com
100
AcDbLine
 10
165242.6995111387
 20
106326.7193514986
 30
0.0
 11
165209.5181005662
 21
106288.6886640503
 31
0.0
  0
LINE
  5
63F0B
330
1F
100
AcDbEntity
  8
freecads.com
100
AcDbLine
 10
165209.5181005662
 20
106288.6886640503
 30
0.0
 11
165166.6034162771
 21
106239.1603193778
 31
0.0
  0
LINE
  5
63F0C
330
1F
100
AcDbEntity
  8
freecads.com
100
AcDbLine
 10
165166.6034162771
 20
106239.1603193778
 30
0.0
 11
165137.4037726065
 21
106197.1496814432
 31
0.0
  0
LINE
  5
63F0D
330
1F
100
AcDbEntity
  8
freecads.com
100
AcDbLine
 10
165137.4037726065
 20
106197.1496814432
 30
0.0
 11
165127.1072277213
 21
106183.6457778474
 31
0.0
  0
LINE
  5
63F0E
330
1F
100
AcDbEntity
  8
freecads.com
100
AcDbLine
 10
165127.1072277213
 20
106183.6457778474
 30
0.0
 11
165101.0045401575
 21
106160.2082691649
 31
0.0
  0
LINE
  5
63F0F
330
1F
100
AcDbEntity
  8
freecads.com
100
AcDbLine
 10
165101.0045401575
 20
106160.2082691649
 30
0.0
 11
165071.3624319285
 21
106133.6752389406
 31
0.0
  0
LINE
  5
63F10
330
1F
100
AcDbEntity
  8
freecads.com
100
AcDbLine
 10
165071.3624319285
 20
106133.6752389406
 30
0.0
 11
165054.9929589219
 21
106115.9865386325
 31
0.0
  0
LINE
  5
63F11
330
1F
100
AcDbEntity
  8
freecads.com
100
AcDbLine
 10
165054.9929589219
 20
106115.9865386325
 30
0.0
 11
165045.7021497637
 21
106106.2577797719
 31
0.0
  0
LINE
  5
63F12
330
1F
100
AcDbEntity
  8
freecads.com
100
AcDbLine
 10
165045.7021497637
 20
106106.2577797719
 30
0.0
 11
165042.1627882588
 21
106094.3178878382
 31
0.0
  0
LINE
  5
63F13
330
1F
100
AcDbEntity
  8
freecads.com
100
AcDbLine
 10
165042.1627882588
 20
106094.3178878382
 30
0.0
 11
165044.3748744093
 21
106068.6692865578
 31
0.0
  0
LINE
  5
63F14
330
1F
100
AcDbEntity
  8
freecads.com
100
AcDbLine
 10
165044.3748744093
 20
106068.6692865578
 30
0.0
 11
165048.3435075851
 21
106049.0140058139
 31
0.0
  0
LINE
  5
63F15
330
1F
100
AcDbEntity
  8
freecads.com
100
AcDbLine
 10
165048.3435075851
 20
106049.0140058139
 30
0.0
 11
165052.767679886
 21
106030.4408765615
 31
0.0
  0
LINE
  5
63F16
330
1F
100
AcDbEntity
  8
freecads.com
100
AcDbLine
 10
165052.767679886
 20
106030.4408765615
 30
0.0
 11
165052.767679886
 21
106020.7120772258
 31
0.0
  0
LINE
  5
63F17
330
1F
100
AcDbEntity
  8
freecads.com
100
AcDbLine
 10
165052.767679886
 20
106020.7120772258
 30
0.0
 11
165056.7494467878
 21
105980.0281029452
 31
0.0
  0
LINE
  5
63F18
330
1F
100
AcDbEntity
  8
freecads.com
100
AcDbLine
 10
165056.7494467878
 20
105980.0281029452
 30
0.0
 11
165059.4039974967
 21
105945.5351717482
 31
0.0
  0
LINE
  5
63F19
330
1F
100
AcDbEntity
  8
freecads.com
100
AcDbLine
 10
165059.4039974967
 20
105945.5351717482
 30
0.0
 11
165064.713039753
 21
105908.3889132441
 31
0.0
  0
LINE
  5
63F1A
330
1F
100
AcDbEntity
  8
freecads.com
100
AcDbLine
 10
165064.713039753
 20
105908.3889132441
 30
0.0
 11
165075.3433114169
 21
105870.4516835975
 31
0.0
  0
LINE
  5
63F1B
330
1F
100
AcDbEntity
  8
freecads.com
100
AcDbLine
 10
165075.3433114169
 20
105870.4516835975
 30
0.0
 11
165082.4219752643
 21
105850.551931167
 31
0.0
  0
LINE
  5
63F1C
330
1F
100
AcDbEntity
  8
freecads.com
100
AcDbLine
 10
165082.4219752643
 20
105850.551931167
 30
0.0
 11
165089.4211859899
 21
105836.7722683658
 31
0.0
  0
LINE
  5
63F1D
330
1F
100
AcDbEntity
  8
freecads.com
100
AcDbLine
 10
165286.9056784231
 20
105799.5953294743
 30
0.0
 11
165292.2245413931
 21
105781.8745321384
 31
0.0
  0
LINE
  5
63F1E
330
1F
100
AcDbEntity
  8
freecads.com
100
AcDbLine
 10
165292.2245413931
 20
105781.8745321384
 30
0.0
 11
165296.6487136939
 21
105761.5325045226
 31
0.0
  0
LINE
  5
63F1F
330
1F
100
AcDbEntity
  8
freecads.com
100
AcDbLine
 10
165296.6487136939
 20
105761.5325045226
 30
0.0
 11
165301.5153505523
 21
105733.23061641
 31
0.0
  0
LINE
  5
63F20
330
1F
100
AcDbEntity
  8
freecads.com
100
AcDbLine
 10
165301.5153505523
 20
105733.23061641
 30
0.0
 11
165302.8425667472
 21
105696.9688273251
 31
0.0
  0
LINE
  5
63F21
330
1F
100
AcDbEntity
  8
freecads.com
100
AcDbLine
 10
165302.8425667472
 20
105696.9688273251
 30
0.0
 11
165299.7456698008
 21
105673.5312781675
 31
0.0
  0
LINE
  5
63F22
330
1F
100
AcDbEntity
  8
freecads.com
100
AcDbLine
 10
165299.7456698008
 20
105673.5312781675
 30
0.0
 11
165295.3214383395
 21
105658.495905167
 31
0.0
  0
LINE
  5
63F23
330
1F
100
AcDbEntity
  8
freecads.com
100
AcDbLine
 10
165295.3214383395
 20
105658.495905167
 30
0.0
 11
165288.6851798901
 21
105644.3449611107
 31
0.0
  0
LINE
  5
63F24
330
1F
100
AcDbEntity
  8
freecads.com
100
AcDbLine
 10
165288.6851798901
 20
105644.3449611107
 30
0.0
 11
165278.0670953756
 21
105630.1940170544
 31
0.0
  0
LINE
  5
63F25
330
1F
100
AcDbEntity
  8
freecads.com
100
AcDbLine
 10
165278.0670953756
 20
105630.1940170544
 30
0.0
 11
165262.582433165
 21
105616.9275019421
 31
0.0
  0
LINE
  5
63F26
330
1F
100
AcDbEntity
  8
freecads.com
100
AcDbLine
 10
165262.582433165
 20
105616.9275019421
 30
0.0
 11
165240.0190479457
 21
105604.9876100084
 31
0.0
  0
LINE
  5
63F27
330
1F
100
AcDbEntity
  8
freecads.com
100
AcDbLine
 10
165240.0190479457
 20
105604.9876100084
 30
0.0
 11
165221.4374887878
 21
105597.9121379802
 31
0.0
  0
LINE
  5
63F28
330
1F
100
AcDbEntity
  8
freecads.com
100
AcDbLine
 10
165221.4374887878
 20
105597.9121379802
 30
0.0
 11
165195.3347420636
 21
105597.469943746
 31
0.0
  0
LINE
  5
63F29
330
1F
100
AcDbEntity
  8
freecads.com
100
AcDbLine
 10
165195.3347420636
 20
105597.469943746
 30
0.0
 11
165170.1168652959
 21
105602.334323176
 31
0.0
  0
LINE
  5
63F2A
330
1F
100
AcDbEntity
  8
freecads.com
100
AcDbLine
 10
165170.1168652959
 20
105602.334323176
 30
0.0
 11
165125.8749056523
 21
105613.3897456904
 31
0.0
  0
LINE
  5
63F2B
330
1F
100
AcDbEntity
  8
freecads.com
100
AcDbLine
 10
165125.8749056523
 20
105613.3897456904
 30
0.0
 11
165086.4996420275
 21
105624.4451682047
 31
0.0
  0
LINE
  5
63F2C
330
1F
100
AcDbEntity
  8
freecads.com
100
AcDbLine
 10
165086.4996420275
 20
105624.4451682047
 30
0.0
 11
165054.2030422511
 21
105631.9628749427
 31
0.0
  0
LINE
  5
63F2D
330
1F
100
AcDbEntity
  8
freecads.com
100
AcDbLine
 10
165054.2030422511
 20
105631.9628749427
 30
0.0
 11
165039.4248206457
 21
105637.6849695233
 31
0.0
  0
LINE
  5
63F2E
330
1F
100
AcDbEntity
  8
freecads.com
100
AcDbLine
 10
165099.3297535293
 20
105799.5631919711
 30
0.0
 11
165103.3115204312
 21
105791.6032909988
 31
0.0
  0
LINE
  5
63F2F
330
1F
100
AcDbEntity
  8
freecads.com
100
AcDbLine
 10
165103.3115204312
 20
105791.6032909988
 30
0.0
 11
165101.9843042381
 21
105783.6433900267
 31
0.0
  0
LINE
  5
63F30
330
1F
100
AcDbEntity
  8
freecads.com
100
AcDbLine
 10
165101.9843042381
 20
105783.6433900267
 30
0.0
 11
165096.2328565838
 21
105757.5525540366
 31
0.0
  0
LINE
  5
63F31
330
1F
100
AcDbEntity
  8
freecads.com
100
AcDbLine
 10
165096.2328565838
 20
105757.5525540366
 30
0.0
 11
165095.3479866274
 21
105746.0549372878
 31
0.0
  0
LINE
  5
63F32
330
1F
100
AcDbEntity
  8
freecads.com
100
AcDbLine
 10
165103.3115204312
 20
105791.6032909988
 30
0.0
 11
165109.9478380428
 21
105777.4523469426
 31
0.0
  0
LINE
  5
63F33
330
1F
100
AcDbEntity
  8
freecads.com
100
AcDbLine
 10
165109.9478380428
 20
105777.4523469426
 30
0.0
 11
165118.796241804
 21
105768.1657823166
 31
0.0
  0
LINE
  5
63F34
330
1F
100
AcDbEntity
  8
freecads.com
100
AcDbLine
 10
165118.796241804
 20
105768.1657823166
 30
0.0
 11
165137.3778009601
 21
105756.225930858
 31
0.0
  0
LINE
  5
63F35
330
1F
100
AcDbEntity
  8
freecads.com
100
AcDbLine
 10
165105.5236657429
 20
105785.4122479147
 30
0.0
 11
165107.2933464944
 21
105773.0301617465
 31
0.0
  0
LINE
  5
63F36
330
1F
100
AcDbEntity
  8
freecads.com
100
AcDbLine
 10
165107.2933464944
 20
105773.0301617465
 30
0.0
 11
165107.7357518933
 21
105755.7836961484
 31
0.0
  0
LINE
  5
63F37
330
1F
100
AcDbEntity
  8
freecads.com
100
AcDbLine
 10
165107.7357518933
 20
105755.7836961484
 30
0.0
 11
165107.2933464944
 21
105744.2860389243
 31
0.0
  0
LINE
  5
63F38
330
1F
100
AcDbEntity
  8
freecads.com
100
AcDbLine
 10
164951.9480569456
 20
105667.1820570451
 30
0.0
 11
164973.4673701599
 21
105678.5027961
 31
0.0
  0
LINE
  5
63F39
330
1F
100
AcDbEntity
  8
freecads.com
100
AcDbLine
 10
164973.4673701599
 20
105678.5027961
 30
0.0
 11
164993.8539883019
 21
105692.0877315362
 31
0.0
  0
LINE
  5
63F3A
330
1F
100
AcDbEntity
  8
freecads.com
100
AcDbLine
 10
164949.6829034453
 20
105692.0877315362
 30
0.0
 11
164965.5392145887
 21
105702.276412876
 31
0.0
  0
LINE
  5
63F3B
330
1F
100
AcDbEntity
  8
freecads.com
100
AcDbLine
 10
164965.5392145887
 20
105702.276412876
 30
0.0
 11
164988.1910453913
 21
105718.1254637427
 31
0.0
  0
LINE
  5
63F3C
330
1F
100
AcDbEntity
  8
freecads.com
100
AcDbLine
 10
164945.1525372853
 20
105713.5971519308
 30
0.0
 11
164966.6717913383
 21
105724.917931461
 31
0.0
  0
LINE
  5
63F3D
330
1F
100
AcDbEntity
  8
freecads.com
100
AcDbLine
 10
164966.6717913383
 20
105724.917931461
 30
0.0
 11
164977.9977363199
 21
105736.238670516
 31
0.0
  0
LINE
  5
63F3E
330
1F
100
AcDbEntity
  8
freecads.com
100
AcDbLine
 10
164477.215650632
 20
105851.8217672965
 30
0.0
 11
164491.9393850248
 21
105847.2934959597
 31
0.0
  0
LINE
  5
63F3F
330
1F
100
AcDbEntity
  8
freecads.com
100
AcDbLine
 10
164524.7845840603
 20
105846.161397769
 30
0.0
 11
164528.1823734697
 21
105834.8406587142
 31
0.0
  0
LINE
  5
63F40
330
1F
100
AcDbEntity
  8
freecads.com
100
AcDbLine
 10
164528.1823734697
 20
105834.8406587142
 30
0.0
 11
164527.0497375596
 21
105828.0481909959
 31
0.0
  0
LINE
  5
63F41
330
1F
100
AcDbEntity
  8
freecads.com
100
AcDbLine
 10
164527.0497375596
 20
105828.0481909959
 30
0.0
 11
164521.3867946491
 21
105828.0481909959
 31
0.0
  0
LINE
  5
63F42
330
1F
100
AcDbEntity
  8
freecads.com
100
AcDbLine
 10
164521.3867946491
 20
105828.0481909959
 30
0.0
 11
164512.3260623272
 21
105824.6519773744
 31
0.0
  0
LINE
  5
63F43
330
1F
100
AcDbEntity
  8
freecads.com
100
AcDbLine
 10
164487.4090188639
 20
105824.6519773744
 30
0.0
 11
164494.2045385251
 21
105816.7274114657
 31
0.0
  0
LINE
  5
63F44
330
1F
100
AcDbEntity
  8
freecads.com
100
AcDbLine
 10
164494.2045385251
 20
105816.7274114657
 30
0.0
 11
164494.2045385251
 21
105812.1991401289
 31
0.0
  0
LINE
  5
63F45
330
1F
100
AcDbEntity
  8
freecads.com
100
AcDbLine
 10
164494.2045385251
 20
105812.1991401289
 30
0.0
 11
164490.8068082742
 21
105806.538730126
 31
0.0
  0
LINE
  5
63F46
330
1F
100
AcDbEntity
  8
freecads.com
100
AcDbLine
 10
164490.8068082742
 20
105806.538730126
 30
0.0
 11
164489.6741723641
 21
105800.8783605987
 31
0.0
  0
LINE
  5
63F47
330
1F
100
AcDbEntity
  8
freecads.com
100
AcDbLine
 10
164489.6741723641
 20
105800.8783605987
 30
0.0
 11
164484.0112294527
 21
105798.6142046926
 31
0.0
  0
LINE
  5
63F48
330
1F
100
AcDbEntity
  8
freecads.com
100
AcDbLine
 10
165175.0916899368
 20
106024.3459916087
 30
0.0
 11
165180.4858823139
 21
106045.9389648469
 31
0.0
  0
LINE
  5
63F49
330
1F
100
AcDbEntity
  8
freecads.com
100
AcDbLine
 10
165180.4858823139
 20
106045.9389648469
 30
0.0
 11
165183.2756748991
 21
106062.1123454529
 31
0.0
  0
LINE
  5
63F4A
330
1F
100
AcDbEntity
  8
freecads.com
100
AcDbLine
 10
165183.2756748991
 20
106062.1123454529
 30
0.0
 11
165186.6234141672
 21
106074.9395400873
 31
0.0
  0
LINE
  5
63F4B
330
1F
100
AcDbEntity
  8
freecads.com
100
AcDbLine
 10
165186.6234141672
 20
106074.9395400873
 30
0.0
 11
165186.7083409391
 21
106088.4467805503
 31
0.0
  0
LINE
  5
63F4C
330
1F
100
AcDbEntity
  8
freecads.com
100
AcDbLine
 10
165285.4036160894
 20
105803.2737196885
 30
0.0
 11
165293.687236106
 21
105793.5836330861
 31
0.0
  0
LINE
  5
63F4D
330
1F
100
AcDbEntity
  8
freecads.com
100
AcDbLine
 10
165293.687236106
 20
105793.5836330861
 30
0.0
 11
165301.9112554639
 21
105786.5376676572
 31
0.0
  0
LINE
  5
63F4E
330
1F
100
AcDbEntity
  8
freecads.com
100
AcDbLine
 10
165301.9112554639
 20
105786.5376676572
 30
0.0
 11
165303.477718438
 21
105783.4061634447
 31
0.0
  0
LINE
  5
63F4F
330
1F
100
AcDbEntity
  8
freecads.com
100
AcDbLine
 10
165303.477718438
 20
105783.4061634447
 30
0.0
 11
165303.477718438
 21
105768.9228350358
 31
0.0
  0
LINE
  5
63F50
330
1F
100
AcDbEntity
  8
freecads.com
100
AcDbLine
 10
165303.477718438
 20
105768.9228350358
 30
0.0
 11
165303.0861322749
 21
105744.2619965102
 31
0.0
  0
LINE
  5
63F51
330
1F
100
AcDbEntity
  8
freecads.com
100
AcDbLine
 10
165303.0861322749
 20
105744.2619965102
 30
0.0
 11
165301.7263310347
 21
105727.4662731467
 31
0.0
  0
LINE
  5
63F52
330
1F
100
AcDbEntity
  8
freecads.com
100
AcDbLine
 10
165303.477718438
 20
105783.4061634447
 30
0.0
 11
165300.344792489
 21
105822.1588518774
 31
0.0
  0
LINE
  5
63F53
330
1F
100
AcDbEntity
  8
freecads.com
100
AcDbLine
 10
165300.344792489
 20
105822.1588518774
 30
0.0
 11
165299.169915677
 21
105865.6088371039
 31
0.0
  0
LINE
  5
63F54
330
1F
100
AcDbEntity
  8
freecads.com
100
AcDbLine
 10
165299.169915677
 20
105865.6088371039
 30
0.0
 11
165299.169915677
 21
105905.1444015896
 31
0.0
  0
LINE
  5
63F55
330
1F
100
AcDbEntity
  8
freecads.com
100
AcDbLine
 10
165299.169915677
 20
105905.1444015896
 30
0.0
 11
165299.5615018401
 21
105919.6277299985
 31
0.0
  0
LINE
  5
63F56
330
1F
100
AcDbEntity
  8
freecads.com
100
AcDbLine
 10
165299.5615018401
 20
105919.6277299985
 30
0.0
 11
165296.4564998485
 21
105979.4666680504
 31
0.0
  0
LINE
  5
63F57
330
1F
100
AcDbEntity
  8
freecads.com
100
AcDbLine
 10
165296.4564998485
 20
105979.4666680504
 30
0.0
 11
165294.8899777122
 21
106019.3937110382
 31
0.0
  0
LINE
  5
63F58
330
1F
100
AcDbEntity
  8
freecads.com
100
AcDbLine
 10
165294.8899777122
 20
106019.3937110382
 30
0.0
 11
165293.7151600625
 21
106048.360367856
 31
0.0
  0
LINE
  5
63F59
330
1F
100
AcDbEntity
  8
freecads.com
100
AcDbLine
 10
165293.7151600625
 20
106048.360367856
 30
0.0
 11
165294.1067462256
 21
106057.3635234177
 31
0.0
  0
LINE
  5
63F5A
330
1F
100
AcDbEntity
  8
freecads.com
100
AcDbLine
 10
165294.1067462256
 20
106057.3635234177
 30
0.0
 11
165299.981071121
 21
106073.0211659062
 31
0.0
  0
LINE
  5
63F5B
330
1F
100
AcDbEntity
  8
freecads.com
100
AcDbLine
 10
165299.981071121
 20
106073.0211659062
 30
0.0
 11
165307.4218589915
 21
106096.5076498769
 31
0.0
  0
LINE
  5
63F5C
330
1F
100
AcDbEntity
  8
freecads.com
100
AcDbLine
 10
165307.4218589915
 20
106096.5076498769
 30
0.0
 11
165317.6039866479
 21
106115.2968370531
 31
0.0
  0
LINE
  5
63F5D
330
1F
100
AcDbEntity
  8
freecads.com
100
AcDbLine
 10
165317.6039866479
 20
106115.2968370531
 30
0.0
 11
165330.1358087659
 21
106138.7833210237
 31
0.0
  0
LINE
  5
63F5E
330
1F
100
AcDbEntity
  8
freecads.com
100
AcDbLine
 10
165330.1358087659
 20
106138.7833210237
 30
0.0
 11
165338.3598281238
 21
106152.0923353529
 31
0.0
  0
LINE
  5
63F5F
330
1F
100
AcDbEntity
  8
freecads.com
100
AcDbLine
 10
165338.3598281238
 20
106152.0923353529
 30
0.0
 11
165352.9132973738
 21
106189.9504759803
 31
0.0
  0
LINE
  5
63F60
330
1F
100
AcDbEntity
  8
freecads.com
100
AcDbLine
 10
165352.9132973738
 20
106189.9504759803
 30
0.0
 11
165356.8295139717
 21
106210.6968532896
 31
0.0
  0
LINE
  5
63F61
330
1F
100
AcDbEntity
  8
freecads.com
100
AcDbLine
 10
165356.8295139717
 20
106210.6968532896
 30
0.0
 11
165358.7876222692
 21
106234.9662133133
 31
0.0
  0
LINE
  5
63F62
330
1F
100
AcDbEntity
  8
freecads.com
100
AcDbLine
 10
165358.7876222692
 20
106234.9662133133
 30
0.0
 11
165358.7876222692
 21
106252.9725244366
 31
0.0
  0
LINE
  5
63F63
330
1F
100
AcDbEntity
  8
freecads.com
100
AcDbLine
 10
165358.7876222692
 20
106252.9725244366
 30
0.0
 11
165358.3959769457
 21
106274.893256301
 31
0.0
  0
LINE
  5
63F64
330
1F
100
AcDbEntity
  8
freecads.com
100
AcDbLine
 10
165358.3959769457
 20
106274.893256301
 30
0.0
 11
165359.1792084332
 21
106306.9914578067
 31
0.0
  0
LINE
  5
63F65
330
1F
100
AcDbEntity
  8
freecads.com
100
AcDbLine
 10
165359.1792084332
 20
106306.9914578067
 30
0.0
 11
165362.2620279724
 21
106363.1021104437
 31
0.0
  0
LINE
  5
63F66
330
1F
100
AcDbEntity
  8
freecads.com
100
AcDbLine
 10
165306.3140115086
 20
106110.7886820127
 30
0.0
 11
165296.1318838522
 21
106099.0454197896
 31
0.0
  0
LINE
  5
63F67
330
1F
100
AcDbEntity
  8
freecads.com
100
AcDbLine
 10
165296.1318838522
 20
106099.0454197896
 30
0.0
 11
165295.7402385287
 21
106071.644515078
 31
0.0
  0
LINE
  5
63F68
330
1F
100
AcDbEntity
  8
freecads.com
100
AcDbLine
 10
165308.272119808
 20
106105.30846869
 30
0.0
 11
165306.3140115086
 21
106097.87110571
 31
0.0
  0
LINE
  5
63F69
330
1F
100
AcDbEntity
  8
freecads.com
100
AcDbLine
 10
165306.3140115086
 20
106097.87110571
 30
0.0
 11
165301.2229180997
 21
106088.4765121217
 31
0.0
  0
LINE
  5
63F6A
330
1F
100
AcDbEntity
  8
freecads.com
100
AcDbLine
 10
165301.2229180997
 20
106088.4765121217
 30
0.0
 11
165299.2648098013
 21
106082.2134632214
 31
0.0
  0
LINE
  5
63F6B
330
1F
100
AcDbEntity
  8
freecads.com
100
AcDbLine
 10
165303.5726717226
 20
106118.6174830192
 30
0.0
 11
165292.9988987418
 21
106101.0026503979
 31
0.0
  0
LINE
  5
63F6C
330
1F
100
AcDbEntity
  8
freecads.com
100
AcDbLine
 10
165292.9988987418
 20
106101.0026503979
 30
0.0
 11
165287.9078644942
 21
106088.4765121217
 31
0.0
  0
LINE
  5
63F6D
330
1F
100
AcDbEntity
  8
freecads.com
100
AcDbLine
 10
165287.9078644942
 20
106088.4765121217
 30
0.0
 11
165287.1246330077
 21
106069.2958869187
 31
0.0
  0
LINE
  5
63F6E
330
1F
100
AcDbEntity
  8
freecads.com
100
AcDbLine
 10
165287.1246330077
 20
106069.2958869187
 30
0.0
 11
165287.1246330077
 21
106061.4670454367
 31
0.0
  0
LINE
  5
63F6F
330
1F
100
AcDbEntity
  8
freecads.com
100
AcDbLine
 10
165222.8988819606
 20
106103.3512785572
 30
0.0
 11
165211.9335228158
 21
106091.9994948362
 31
0.0
  0
LINE
  5
63F70
330
1F
100
AcDbEntity
  8
freecads.com
100
AcDbLine
 10
165211.9335228158
 20
106091.9994948362
 30
0.0
 11
165201.7513951594
 21
106085.7364054604
 31
0.0
  0
LINE
  5
63F71
330
1F
100
AcDbEntity
  8
freecads.com
100
AcDbLine
 10
165242.479905785
 20
106089.6508262014
 30
0.0
 11
165232.2977781295
 21
106079.4733565601
 31
0.0
  0
LINE
  5
63F72
330
1F
100
AcDbEntity
  8
freecads.com
100
AcDbLine
 10
165232.2977781295
 20
106079.4733565601
 30
0.0
 11
165225.6402217457
 21
106082.9963392746
 31
0.0
  0
LINE
  5
63F73
330
1F
100
AcDbEntity
  8
freecads.com
100
AcDbLine
 10
165225.6402217457
 20
106082.9963392746
 30
0.0
 11
165221.7240643091
 21
106090.8251402811
 31
0.0
  0
LINE
  5
63F74
330
1F
100
AcDbEntity
  8
freecads.com
100
AcDbLine
 10
165221.7240643091
 20
106090.8251402811
 30
0.0
 11
165215.4581532497
 21
106091.6080568096
 31
0.0
  0
LINE
  5
63F75
330
1F
100
AcDbEntity
  8
freecads.com
100
AcDbLine
 10
165200.17759623
 20
106201.7043022944
 30
0.0
 11
165227.1210788619
 21
106238.0300425819
 31
0.0
  0
LINE
  5
63F76
330
1F
100
AcDbEntity
  8
freecads.com
100
AcDbLine
 10
165227.1210788619
 20
106238.0300425819
 30
0.0
 11
165240.2794743376
 21
106262.4560021018
 31
0.0
  0
LINE
  5
63F77
330
1F
100
AcDbEntity
  8
freecads.com
100
AcDbLine
 10
165299.179144782
 20
106348.8862550184
 30
0.0
 11
165314.2173786526
 21
106370.8069464073
 31
0.0
  0
LINE
  5
63F78
330
1F
100
AcDbEntity
  8
freecads.com
100
AcDbLine
 10
165314.2173786526
 20
106370.8069464073
 30
0.0
 11
165321.1098630689
 21
106383.3330846834
 31
0.0
  0
LINE
  5
63F79
330
1F
100
AcDbEntity
  8
freecads.com
100
AcDbLine
 10
165321.1098630689
 20
106383.3330846834
 30
0.0
 11
165321.1098630689
 21
106398.9907271718
 31
0.0
  0
LINE
  5
63F7A
330
1F
100
AcDbEntity
  8
freecads.com
100
AcDbLine
 10
165311.7109669
 20
106348.8862550184
 30
0.0
 11
165324.2428481784
 21
106367.0491251621
 31
0.0
  0
LINE
  5
63F7B
330
1F
100
AcDbEntity
  8
freecads.com
100
AcDbLine
 10
165324.2428481784
 20
106367.0491251621
 30
0.0
 11
165327.3757741274
 21
106370.1806293744
 31
0.0
  0
LINE
  5
63F7C
330
1F
100
AcDbEntity
  8
freecads.com
100
AcDbLine
 10
165327.3757741274
 20
106370.1806293744
 30
0.0
 11
165326.1226274129
 21
106358.9071251637
 31
0.0
  0
LINE
  5
63F7D
330
1F
100
AcDbEntity
  8
freecads.com
100
AcDbLine
 10
165326.1226274129
 20
106358.9071251637
 30
0.0
 11
165325.4959948938
 21
106357.0282145412
 31
0.0
  0
LINE
  5
63F7E
330
1F
100
AcDbEntity
  8
freecads.com
100
AcDbLine
 10
165078.4326357636
 20
106116.3490367159
 30
0.0
 11
165066.5273870043
 21
106100.0650771947
 31
0.0
  0
LINE
  5
63F7F
330
1F
100
AcDbEntity
  8
freecads.com
100
AcDbLine
 10
165066.5273870043
 20
106100.0650771947
 30
0.0
 11
165064.6476077707
 21
106087.5389389186
 31
0.0
  0
LINE
  5
63F80
330
1F
100
AcDbEntity
  8
freecads.com
100
AcDbLine
 10
165064.6476077707
 20
106087.5389389186
 30
0.0
 11
165072.7932980629
 21
106068.7497517421
 31
0.0
  0
LINE
  5
63F81
330
1F
100
AcDbEntity
  8
freecads.com
100
AcDbLine
 10
165072.7932980629
 20
106068.7497517421
 30
0.0
 11
165079.6857824791
 21
106055.5973369089
 31
0.0
  0
LINE
  5
63F82
330
1F
100
AcDbEntity
  8
freecads.com
100
AcDbLine
 10
165103.4962799996
 20
106102.5703048499
 30
0.0
 11
165099.7367215324
 21
106095.0546218843
 31
0.0
  0
LINE
  5
63F83
330
1F
100
AcDbEntity
  8
freecads.com
100
AcDbLine
 10
165099.7367215324
 20
106095.0546218843
 30
0.0
 11
165103.4962799996
 21
106083.7811176734
 31
0.0
  0
LINE
  5
63F84
330
1F
100
AcDbEntity
  8
freecads.com
100
AcDbLine
 10
165103.4962799996
 20
106083.7811176734
 30
0.0
 11
165110.3888235781
 21
106073.7602070526
 31
0.0
  0
LINE
  5
63F85
330
1F
100
AcDbEntity
  8
freecads.com
100
AcDbLine
 10
165080.3124149982
 20
106105.0754920296
 30
0.0
 11
165080.3124149982
 21
106095.0546218843
 31
0.0
  0
LINE
  5
63F86
330
1F
100
AcDbEntity
  8
freecads.com
100
AcDbLine
 10
165080.3124149982
 20
106095.0546218843
 30
0.0
 11
165089.084678649
 21
106079.3969793957
 31
0.0
  0
LINE
  5
63F87
330
1F
100
AcDbEntity
  8
freecads.com
100
AcDbLine
 10
165089.084678649
 20
106079.3969793957
 30
0.0
 11
165094.7240163497
 21
106067.4971581522
 31
0.0
  0
LINE
  5
63F88
330
1F
100
AcDbEntity
  8
freecads.com
100
AcDbLine
 10
165425.2000881228
 20
106461.7663900035
 30
0.0
 11
165435.4481123574
 21
106466.7045272864
 31
0.0
  0
LINE
  5
63F89
330
1F
100
AcDbEntity
  8
freecads.com
100
AcDbLine
 10
165435.4481123574
 20
106466.7045272864
 30
0.0
 11
165444.6289413571
 21
106471.511350634
 31
0.0
  0
LINE
  5
63F8A
330
1F
100
AcDbEntity
  8
freecads.com
100
AcDbLine
 10
165444.6289413571
 20
106471.511350634
 30
0.0
 11
165455.1213680655
 21
106472.3853369134
 31
0.0
  0
LINE
  5
63F8B
330
1F
100
AcDbEntity
  8
freecads.com
100
AcDbLine
 10
165455.1213680655
 20
106472.3853369134
 30
0.0
 11
165455.1213680655
 21
106482.8729294128
 31
0.0
  0
LINE
  5
63F8C
330
1F
100
AcDbEntity
  8
freecads.com
100
AcDbLine
 10
165455.1213680655
 20
106482.8729294128
 30
0.0
 11
165449.8751547104
 21
106500.3522502449
 31
0.0
  0
LINE
  5
63F8D
330
1F
100
AcDbEntity
  8
freecads.com
100
AcDbLine
 10
165449.8751547104
 20
106500.3522502449
 30
0.0
 11
165417.0864543589
 21
106551.9163074131
 31
0.0
  0
LINE
  5
63F8E
330
1F
100
AcDbEntity
  8
freecads.com
100
AcDbLine
 10
165417.0864543589
 20
106551.9163074131
 30
0.0
 11
165411.2945406316
 21
106555.9753873937
 31
0.0
  0
LINE
  5
63F8F
330
1F
100
AcDbEntity
  8
freecads.com
100
AcDbLine
 10
165407.7551791276
 20
106492.92354901
 30
0.0
 11
165414.4633181021
 21
106483.3099023146
 31
0.0
  0
LINE
  5
63F90
330
1F
100
AcDbEntity
  8
freecads.com
100
AcDbLine
 10
165414.4633181021
 20
106483.3099023146
 30
0.0
 11
165419.6725774333
 21
106471.808494146
 31
0.0
  0
LINE
  5
63F91
330
1F
100
AcDbEntity
  8
freecads.com
100
AcDbLine
 10
165368.7968817027
 20
106620.6702455078
 30
0.0
 11
165358.909493776
 21
106633.7997512393
 31
0.0
  0
LINE
  5
63F92
330
1F
100
AcDbEntity
  8
freecads.com
100
AcDbLine
 10
165358.909493776
 20
106633.7997512393
 30
0.0
 11
165340.1106365416
 21
106656.5228683211
 31
0.0
  0
LINE
  5
63F93
330
1F
100
AcDbEntity
  8
freecads.com
100
AcDbLine
 10
165340.1106365416
 20
106656.5228683211
 30
0.0
 11
165314.316828167
 21
106672.6912704474
 31
0.0
  0
LINE
  5
63F94
330
1F
100
AcDbEntity
  8
freecads.com
100
AcDbLine
 10
165314.316828167
 20
106672.6912704474
 30
0.0
 11
165298.141048029
 21
106678.8090125011
 31
0.0
  0
LINE
  5
63F95
330
1F
100
AcDbEntity
  8
freecads.com
100
AcDbLine
 10
165298.141048029
 20
106678.8090125011
 30
0.0
 11
165286.7742820084
 21
106679.2460258786
 31
0.0
  0
LINE
  5
63F96
330
1F
100
AcDbEntity
  8
freecads.com
100
AcDbLine
 10
165286.7742820084
 20
106679.2460258786
 30
0.0
 11
165281.5281278156
 21
106677.4980937952
 31
0.0
  0
LINE
  5
63F97
330
1F
100
AcDbEntity
  8
freecads.com
100
AcDbLine
 10
165281.5281278156
 20
106677.4980937952
 30
0.0
 11
165279.3421907946
 21
106673.1282433495
 31
0.0
  0
LINE
  5
63F98
330
1F
100
AcDbEntity
  8
freecads.com
100
AcDbLine
 10
165279.3421907946
 20
106673.1282433495
 30
0.0
 11
165278.4678514833
 21
106662.2036779483
 31
0.0
  0
LINE
  5
63F99
330
1F
100
AcDbEntity
  8
freecads.com
100
AcDbLine
 10
165278.4678514833
 20
106662.2036779483
 30
0.0
 11
165285.0256033847
 21
106636.8586020284
 31
0.0
  0
LINE
  5
63F9A
330
1F
100
AcDbEntity
  8
freecads.com
100
AcDbLine
 10
165285.0256033847
 20
106636.8586020284
 30
0.0
 11
165294.6435724599
 21
106619.3792811962
 31
0.0
  0
LINE
  5
63F9B
330
1F
100
AcDbEntity
  8
freecads.com
100
AcDbLine
 10
165294.6435724599
 20
106619.3792811962
 30
0.0
 11
165297.7039079536
 21
106604.0848653492
 31
0.0
  0
LINE
  5
63F9C
330
1F
100
AcDbEntity
  8
freecads.com
100
AcDbLine
 10
165297.7039079536
 20
106604.0848653492
 30
0.0
 11
165302.5129220709
 21
106576.9918978216
 31
0.0
  0
LINE
  5
63F9D
330
1F
100
AcDbEntity
  8
freecads.com
100
AcDbLine
 10
165302.5129220709
 20
106576.9918978216
 30
0.0
 11
165302.5129220709
 21
106554.2687402641
 31
0.0
  0
LINE
  5
63F9E
330
1F
100
AcDbEntity
  8
freecads.com
100
AcDbLine
 10
165302.5129220709
 20
106554.2687402641
 30
0.0
 11
165303.8244606191
 21
106530.2346640011
 31
0.0
  0
LINE
  5
63F9F
330
1F
100
AcDbEntity
  8
freecads.com
100
AcDbLine
 10
165303.8244606191
 20
106530.2346640011
 30
0.0
 11
165304.6285977093
 21
106524.1694577305
 31
0.0
  0
LINE
  5
63FA0
330
1F
100
AcDbEntity
  8
freecads.com
100
AcDbLine
 10
165294.2064323844
 20
106673.1282433495
 30
0.0
 11
165311.2565518348
 21
106658.2708004045
 31
0.0
  0
LINE
  5
63FA1
330
1F
100
AcDbEntity
  8
freecads.com
100
AcDbLine
 10
165311.2565518348
 20
106658.2708004045
 30
0.0
 11
165320.4373808335
 21
106644.7243166405
 31
0.0
  0
LINE
  5
63FA2
330
1F
100
AcDbEntity
  8
freecads.com
100
AcDbLine
 10
165320.4373808335
 20
106644.7243166405
 30
0.0
 11
165330.0554090692
 21
106629.8668736955
 31
0.0
  0
LINE
  5
63FA3
330
1F
100
AcDbEntity
  8
freecads.com
100
AcDbLine
 10
165330.0554090692
 20
106629.8668736955
 30
0.0
 11
165335.1234639594
 21
106623.8634188593
 31
0.0
  0
LINE
  5
63FA4
330
1F
100
AcDbEntity
  8
freecads.com
100
AcDbLine
 10
165294.2064323844
 20
106673.1282433495
 30
0.0
 11
165295.9551701695
 21
106675.750161712
 31
0.0
  0
LINE
  5
63FA5
330
1F
100
AcDbEntity
  8
freecads.com
100
AcDbLine
 10
165295.9551701695
 20
106675.750161712
 30
0.0
 11
165305.5731984051
 21
106673.1282433495
 31
0.0
  0
LINE
  5
63FA6
330
1F
100
AcDbEntity
  8
freecads.com
100
AcDbLine
 10
165305.5731984051
 20
106673.1282433495
 30
0.0
 11
165328.7438705209
 21
106653.900990434
 31
0.0
  0
LINE
  5
63FA7
330
1F
100
AcDbEntity
  8
freecads.com
100
AcDbLine
 10
165328.7438705209
 20
106653.900990434
 30
0.0
 11
165346.2311892071
 21
106636.8586020284
 31
0.0
  0
LINE
  5
63FA8
330
1F
100
AcDbEntity
  8
freecads.com
100
AcDbLine
 10
165346.2311892071
 20
106636.8586020284
 30
0.0
 11
165353.0650197258
 21
106627.4758204606
 31
0.0
  0
LINE
  5
63FA9
330
1F
100
AcDbEntity
  8
freecads.com
100
AcDbLine
 10
165285.899942697
 20
106646.4722487239
 30
0.0
 11
165291.5832961267
 21
106656.9598412231
 31
0.0
  0
LINE
  5
63FAA
330
1F
100
AcDbEntity
  8
freecads.com
100
AcDbLine
 10
165291.5832961267
 20
106656.9598412231
 30
0.0
 11
165291.5832961267
 21
106665.2625287374
 31
0.0
  0
LINE
  5
63FAB
330
1F
100
AcDbEntity
  8
freecads.com
100
AcDbLine
 10
165291.5832961267
 20
106665.2625287374
 30
0.0
 11
165294.2064323844
 21
106665.6995421146
 31
0.0
  0
LINE
  5
63FAC
330
1F
100
AcDbEntity
  8
freecads.com
100
AcDbLine
 10
165294.2064323844
 20
106665.6995421146
 30
0.0
 11
165309.5078140497
 21
106647.3462350031
 31
0.0
  0
LINE
  5
63FAD
330
1F
100
AcDbEntity
  8
freecads.com
100
AcDbLine
 10
165293.1431922382
 20
106517.4280531303
 30
0.0
 11
165281.4792017303
 21
106510.8700374261
 31
0.0
  0
LINE
  5
63FAE
330
1F
100
AcDbEntity
  8
freecads.com
100
AcDbLine
 10
165281.4792017303
 20
106510.8700374261
 30
0.0
 11
165275.621086928
 21
106504.6701302196
 31
0.0
  0
LINE
  5
63FAF
330
1F
100
AcDbEntity
  8
freecads.com
100
AcDbLine
 10
165275.621086928
 20
106504.6701302196
 30
0.0
 11
165273.2089185295
 21
106497.092479348
 31
0.0
  0
LINE
  5
63FB0
330
1F
100
AcDbEntity
  8
freecads.com
100
AcDbLine
 10
165273.2089185295
 20
106497.092479348
 30
0.0
 11
165278.7224209439
 21
106490.2036800713
 31
0.0
  0
LINE
  5
63FB1
330
1F
100
AcDbEntity
  8
freecads.com
100
AcDbLine
 10
165278.7224209439
 20
106490.2036800713
 30
0.0
 11
165284.9251481341
 21
106487.1037467057
 31
0.0
  0
LINE
  5
63FB2
330
1F
100
AcDbEntity
  8
freecads.com
100
AcDbLine
 10
165284.9251481341
 20
106487.1037467057
 30
0.0
 11
165290.4387097089
 21
106487.7925983005
 31
0.0
  0
LINE
  5
63FB3
330
1F
100
AcDbEntity
  8
freecads.com
100
AcDbLine
 10
165290.4387097089
 20
106487.7925983005
 30
0.0
 11
165294.918434117
 21
106487.7925983005
 31
0.0
  0
LINE
  5
63FB4
330
1F
100
AcDbEntity
  8
freecads.com
100
AcDbLine
 10
165294.918434117
 20
106487.7925983005
 30
0.0
 11
165301.6083261734
 21
106487.3992955355
 31
0.0
  0
LINE
  5
63FB5
330
1F
100
AcDbEntity
  8
freecads.com
100
AcDbLine
 10
165297.7868174622
 20
106510.6702008449
 30
0.0
 11
165288.3711536992
 21
106506.3923199199
 31
0.0
  0
LINE
  5
63FB6
330
1F
100
AcDbEntity
  8
freecads.com
100
AcDbLine
 10
165288.3711536992
 20
106506.3923199199
 30
0.0
 11
165284.5805949066
 21
106496.4035872776
 31
0.0
  0
LINE
  5
63FB7
330
1F
100
AcDbEntity
  8
freecads.com
100
AcDbLine
 10
165284.5805949066
 20
106496.4035872776
 30
0.0
 11
165283.2022045124
 21
106486.4148546352
 31
0.0
  0
LINE
  5
63FB8
330
1F
100
AcDbEntity
  8
freecads.com
100
AcDbLine
 10
165283.2022045124
 20
106486.4148546352
 30
0.0
 11
165288.3711536992
 21
106480.9038394991
 31
0.0
  0
LINE
  5
63FB9
330
1F
100
AcDbEntity
  8
freecads.com
100
AcDbLine
 10
165288.3711536992
 20
106480.9038394991
 30
0.0
 11
165293.5401028851
 21
106481.9371371292
 31
0.0
  0
LINE
  5
63FBA
330
1F
100
AcDbEntity
  8
freecads.com
100
AcDbLine
 10
165293.5401028851
 20
106481.9371371292
 30
0.0
 11
165293.8846561136
 21
106488.4814903709
 31
0.0
  0
LINE
  5
63FBB
330
1F
100
AcDbEntity
  8
freecads.com
100
AcDbLine
 10
165293.8846561136
 20
106488.4814903709
 30
0.0
 11
165293.8846561136
 21
106497.7813309428
 31
0.0
  0
LINE
  5
63FBC
330
1F
100
AcDbEntity
  8
freecads.com
100
AcDbLine
 10
165293.8846561136
 20
106497.7813309428
 30
0.0
 11
165293.8846561136
 21
106502.9479405193
 31
0.0
  0
LINE
  5
63FBD
330
1F
100
AcDbEntity
  8
freecads.com
100
AcDbLine
 10
165293.8846561136
 20
106502.9479405193
 30
0.0
 11
165293.8846561136
 21
106505.3590222898
 31
0.0
  0
LINE
  5
63FBE
330
1F
100
AcDbEntity
  8
freecads.com
100
AcDbLine
 10
165293.8846561136
 20
106505.3590222898
 30
0.0
 11
165296.9077455783
 21
106511.4024268248
 31
0.0
  0
LINE
  5
63FBF
330
1F
100
AcDbEntity
  8
freecads.com
100
AcDbLine
 10
164542.2065299237
 20
105706.6094306669
 30
0.0
 11
164536.70965173
 21
105676.9397558486
 31
0.0
  0
LINE
  5
63FC0
330
1F
100
AcDbEntity
  8
freecads.com
100
AcDbLine
 10
164536.70965173
 20
105676.9397558486
 30
0.0
 11
164922.5914593413
 21
105595.6228872984
 31
0.0
  0
LINE
  5
63FC1
330
1F
100
AcDbEntity
  8
freecads.com
100
AcDbLine
 10
164922.5914593413
 20
105595.6228872984
 30
0.0
 11
164987.4547876781
 21
105591.2273754206
 31
0.0
  0
LINE
  5
63FC2
330
1F
100
AcDbEntity
  8
freecads.com
100
AcDbLine
 10
164987.4547876781
 20
105591.2273754206
 30
0.0
 11
165221.6223666798
 21
105558.2610970506
 31
0.0
  0
LINE
  5
63FC3
330
1F
100
AcDbEntity
  8
freecads.com
100
AcDbLine
 10
165221.6223666798
 20
105558.2610970506
 30
0.0
 11
165223.8211416201
 21
105586.8318635429
 31
0.0
  0
LINE
  5
63FC4
330
1F
100
AcDbEntity
  8
freecads.com
100
AcDbLine
 10
165223.8211416201
 20
105586.8318635429
 30
0.0
 11
165045.7218503514
 21
105620.897050239
 31
0.0
  0
LINE
  5
63FC5
330
1F
100
AcDbEntity
  8
freecads.com
100
AcDbLine
 10
165045.7218503514
 20
105620.897050239
 30
0.0
 11
164984.1566252662
 21
105631.8858096958
 31
0.0
  0
LINE
  5
63FC6
330
1F
100
AcDbEntity
  8
freecads.com
100
AcDbLine
 10
164984.1566252662
 20
105631.8858096958
 30
0.0
 11
164948.9765220005
 21
105631.8858096958
 31
0.0
  0
LINE
  5
63FC7
330
1F
100
AcDbEntity
  8
freecads.com
100
AcDbLine
 10
164948.9765220005
 20
105631.8858096958
 30
0.0
 11
164923.6908468119
 21
105631.8858096958
 31
0.0
  0
LINE
  5
63FC8
330
1F
100
AcDbEntity
  8
freecads.com
100
AcDbLine
 10
164923.6908468119
 20
105631.8858096958
 30
0.0
 11
164632.3555926094
 21
105686.8296474546
 31
0.0
  0
LINE
  5
63FC9
330
1F
100
AcDbEntity
  8
freecads.com
100
AcDbLine
 10
164632.3555926094
 20
105686.8296474546
 30
0.0
 11
164542.2065299237
 21
105706.6094306669
 31
0.0
  0
LINE
  5
63FCA
330
1F
100
AcDbEntity
  8
freecads.com
100
AcDbLine
 10
164542.2065299237
 20
105706.6094306669
 30
0.0
 11
164593.8773269318
 21
105706.6094306669
 31
0.0
  0
LINE
  5
63FCB
330
1F
100
AcDbEntity
  8
freecads.com
100
AcDbLine
 10
164593.8773269318
 20
105706.6094306669
 30
0.0
 11
164666.4363084054
 21
105696.7195390607
 31
0.0
  0
LINE
  5
63FCC
330
1F
100
AcDbEntity
  8
freecads.com
100
AcDbLine
 10
164666.4363084054
 20
105696.7195390607
 30
0.0
 11
164709.7858085027
 21
105691.0976793433
 31
0.0
  0
LINE
  5
63FCD
330
1F
100
AcDbEntity
  8
freecads.com
100
AcDbLine
 10
164980.0166885555
 20
105591.7314237617
 30
0.0
 11
164858.8275184752
 21
105590.1285075701
 31
0.0
  0
LINE
  5
63FCE
330
1F
100
AcDbEntity
  8
freecads.com
100
AcDbLine
 10
164858.8275184752
 20
105590.1285075701
 30
0.0
 11
164792.864802666
 21
105594.5240194477
 31
0.0
  0
LINE
  5
63FCF
330
1F
100
AcDbEntity
  8
freecads.com
100
AcDbLine
 10
164792.864802666
 20
105594.5240194477
 30
0.0
 11
164769.7779024197
 21
105601.1172670268
 31
0.0
  0
LINE
  5
63FD0
330
1F
100
AcDbEntity
  8
freecads.com
100
AcDbLine
 10
164769.7779024197
 20
105601.1172670268
 30
0.0
 11
164771.9766182015
 21
105607.7105146057
 31
0.0
  0
LINE
  5
63FD1
330
1F
100
AcDbEntity
  8
freecads.com
100
AcDbLine
 10
164771.9766182015
 20
105607.7105146057
 30
0.0
 11
164796.1629650797
 21
105611.0071586328
 31
0.0
  0
LINE
  5
63FD2
330
1F
100
AcDbEntity
  8
freecads.com
100
AcDbLine
 10
164796.1629650797
 20
105611.0071586328
 30
0.0
 11
164806.3632852752
 21
105611.0071586328
 31
0.0
  0
LINE
  5
63FD3
330
1F
100
AcDbEntity
  8
freecads.com
100
AcDbLine
 10
164805.5252571842
 20
105620.2922466325
 30
0.0
 11
164807.1567214671
 21
105602.2161348773
 31
0.0
  0
LINE
  5
63FD4
330
1F
100
AcDbEntity
  8
freecads.com
100
AcDbLine
 10
164807.1567214671
 20
105602.2161348773
 30
0.0
 11
164831.3430683445
 21
105600.018399176
 31
0.0
  0
LINE
  5
63FD5
330
1F
100
AcDbEntity
  8
freecads.com
100
AcDbLine
 10
164831.3430683445
 20
105600.018399176
 30
0.0
 11
164864.3243966689
 21
105598.9195313257
 31
0.0
  0
LINE
  5
63FD6
330
1F
100
AcDbEntity
  8
freecads.com
100
AcDbLine
 10
164864.3243966689
 20
105598.9195313257
 30
0.0
 11
164904.0315407375
 21
105599.5340187164
 31
0.0
  0
LINE
  5
63FD7
330
1F
100
AcDbEntity
  8
freecads.com
100
AcDbLine
 10
164769.7779024197
 20
105601.1172670268
 30
0.0
 11
164772.4991866518
 21
105582.063977573
 31
0.0
  0
LINE
  5
63FD8
330
1F
100
AcDbEntity
  8
freecads.com
100
AcDbLine
 10
164772.4991866518
 20
105582.063977573
 30
0.0
 11
164833.4435178293
 21
105576.2623892187
 31
0.0
  0
LINE
  5
63FD9
330
1F
100
AcDbEntity
  8
freecads.com
100
AcDbLine
 10
164833.4435178293
 20
105576.2623892187
 30
0.0
 11
164909.8657668717
 21
105574.3285534176
 31
0.0
  0
LINE
  5
63FDA
330
1F
100
AcDbEntity
  8
freecads.com
100
AcDbLine
 10
164909.8657668717
 20
105574.3285534176
 30
0.0
 11
164963.0711391158
 21
105578.1962654952
 31
0.0
  0
LINE
  5
63FDB
330
1F
100
AcDbEntity
  8
freecads.com
100
AcDbLine
 10
164963.0711391158
 20
105578.1962654952
 30
0.0
 11
164983.3858767338
 21
105581.0970191971
 31
0.0
  0
LINE
  5
63FDC
330
1F
100
AcDbEntity
  8
freecads.com
100
AcDbLine
 10
164983.3858767338
 20
105581.0970191971
 30
0.0
 11
164984.268103282
 21
105591.4433234683
 31
0.0
  0
LINE
  5
63FDD
330
1F
100
AcDbEntity
  8
freecads.com
100
AcDbLine
 10
164839.7314663334
 20
105520.1805438541
 30
0.0
 11
164921.9578754138
 21
105520.1805438541
 31
0.0
  0
LINE
  5
63FDE
330
1F
100
AcDbEntity
  8
freecads.com
100
AcDbLine
 10
164921.9578754138
 20
105520.1805438541
 30
0.0
 11
164921.9578754138
 21
105555.7915409078
 31
0.0
  0
ARC
  5
63FDF
330
1F
100
AcDbEntity
  8
freecads.com
100
AcDbCircle
 10
164916.9578754138
 20
105555.7915409079
 30
0.0
 40
5.000000000058207
100
AcDbArc
 50
359.9999999991662
 51
90.0
  0
LINE
  5
63FE0
330
1F
100
AcDbEntity
  8
freecads.com
100
AcDbLine
 10
164916.9578754138
 20
105560.7915409079
 30
0.0
 11
164844.7314663334
 21
105560.7915409079
 31
0.0
  0
ARC
  5
63FE1
330
1F
100
AcDbEntity
  8
freecads.com
100
AcDbCircle
 10
164844.7314663334
 20
105555.7915409079
 30
0.0
 40
5.000000000058207
100
AcDbArc
 50
90.0
 51
180.0000000008337
  0
LINE
  5
63FE2
330
1F
100
AcDbEntity
  8
freecads.com
100
AcDbLine
 10
164839.7314663334
 20
105555.7915409078
 30
0.0
 11
164839.7314663334
 21
105520.1805438541
 31
0.0
  0
LINE
  5
63FE3
330
1F
100
AcDbEntity
  8
freecads.com
100
AcDbLine
 10
165155.5778313121
 20
105520.1805438541
 30
0.0
 11
165155.5778313121
 21
105555.7915409078
 31
0.0
  0
ARC
  5
63FE4
330
1F
100
AcDbEntity
  8
freecads.com
100
AcDbCircle
 10
165160.5778313117
 20
105555.7915409083
 30
0.0
 40
4.999999999592546
100
AcDbArc
 50
90.00000000667011
 51
180.0000000058363
  0
LINE
  5
63FE5
330
1F
100
AcDbEntity
  8
freecads.com
100
AcDbLine
 10
165160.5778313111
 20
105560.7915409079
 30
0.0
 11
165232.8042403925
 21
105560.7915409079
 31
0.0
  0
ARC
  5
63FE6
330
1F
100
AcDbEntity
  8
freecads.com
100
AcDbCircle
 10
165232.8042403924
 20
105555.7915409079
 30
0.0
 40
5.000000000058207
100
AcDbArc
 50
359.9999999991662
 51
90.0
  0
LINE
  5
63FE7
330
1F
100
AcDbEntity
  8
freecads.com
100
AcDbLine
 10
165237.8042403925
 20
105555.7915409078
 30
0.0
 11
165237.8042403925
 21
105520.1805438541
 31
0.0
  0
LINE
  5
63FE8
330
1F
100
AcDbEntity
  8
freecads.com
100
AcDbLine
 10
165237.8042403925
 20
105520.1805438541
 30
0.0
 11
164880.8446708731
 21
105520.1805438541
 31
0.0
  0
LINE
  5
63FE9
330
1F
100
AcDbEntity
  8
freecads.com
100
AcDbLine
 10
164606.1115104351
 20
105520.1805438541
 30
0.0
 11
164606.1115104351
 21
105555.7915409078
 31
0.0
  0
ARC
  5
63FEA
330
1F
100
AcDbEntity
  8
freecads.com
100
AcDbCircle
 10
164601.111510435
 20
105555.7915409079
 30
0.0
 40
5.000000000058207
100
AcDbArc
 50
359.9999999991662
 51
90.0
  0
LINE
  5
63FEB
330
1F
100
AcDbEntity
  8
freecads.com
100
AcDbLine
 10
164601.1115104351
 20
105560.7915409079
 30
0.0
 11
164528.8851013547
 21
105560.7915409079
 31
0.0
  0
ARC
  5
63FEC
330
1F
100
AcDbEntity
  8
freecads.com
100
AcDbCircle
 10
164528.8851013547
 20
105555.7915409079
 30
0.0
 40
5.000000000058207
100
AcDbArc
 50
90.0
 51
180.0000000008337
  0
LINE
  5
63FED
330
1F
100
AcDbEntity
  8
freecads.com
100
AcDbLine
 10
164523.8851013546
 20
105555.7915409078
 30
0.0
 11
164523.8851013546
 21
105520.1805438541
 31
0.0
  0
LINE
  5
63FEE
330
1F
100
AcDbEntity
  8
freecads.com
100
AcDbLine
 10
164523.8851013546
 20
105520.1805438541
 30
0.0
 11
164880.8446708731
 21
105520.1805438541
 31
0.0
  0
LINE
  5
63FEF
330
1F
100
AcDbEntity
  8
freecads.com
100
AcDbLine
 10
165155.5778313121
 20
105555.7915409078
 30
0.0
 11
164984.3532761801
 21
105555.7915409078
 31
0.0
  0
LINE
  5
63FF0
330
1F
100
AcDbEntity
  8
freecads.com
100
AcDbLine
 10
164984.3532761801
 20
105555.7915409078
 30
0.0
 11
164981.4294744693
 21
105581.3252005045
 31
0.0
  0
LINE
  5
63FF1
330
1F
100
AcDbEntity
  8
freecads.com
100
AcDbLine
 10
164606.1115104351
 20
105555.7915409078
 30
0.0
 11
164777.3360655662
 21
105555.7915409078
 31
0.0
  0
LINE
  5
63FF2
330
1F
100
AcDbEntity
  8
freecads.com
100
AcDbLine
 10
164777.3360655662
 20
105555.7915409078
 30
0.0
 11
164780.2598672788
 21
105581.3252005045
 31
0.0
  0
ENDSEC
  0
SECTION
  2
OBJECTS
  0
DICTIONARY
  5
C
330
0
100
AcDbDictionary
281
     1
  3
ACAD_ASSOCPERSSUBENTMANAGER
350
2C1D4
  3
ACAD_CIP_PREVIOUS_PRODUCT_INFO
350
1A5
  3
ACAD_COLOR
350
73
  3
ACAD_DETAILVIEWSTYLE
350
1AB
  3
ACAD_GROUP
350
D
  3
ACAD_LAYOUT
350
1A
  3
ACAD_MATERIAL
350
72
  3
ACAD_MLEADERSTYLE
350
D7
  3
ACAD_MLINESTYLE
350
17
  3
ACAD_PLOTSETTINGS
350
19
  3
ACAD_PLOTSTYLENAME
350
E
  3
ACAD_SCALELIST
350
B6
  3
ACAD_SECTIONVIEWSTYLE
350
1A8
  3
ACAD_TABLESTYLE
350
86
  3
ACAD_VISUALSTYLE
350
99
  3
ACAD_WIPEOUT_VARS
350
59B06
  3
ACDB_RECOMPOSE_DATA
350
67411
  3
ACDBVARIABLEDICTIONARY
350
4A0D5
  3
AEC_PROPERTY_SET_DEFS
350
22D1
  0
DICTIONARY
  5
18E
330
2
100
AcDbDictionary
280
     1
281
     1
  3
ACAD_LAYERSTATES
360
18F
  0
DICTIONARY
  5
E6
330
10
100
AcDbDictionary
280
     1
281
     1
  0
DICTIONARY
  5
15D
330
1F
100
AcDbDictionary
280
     1
281
     1
  3
ACAD_SORTENTS
360
28E
  0
ACDBASSOCPERSSUBENTMANAGER
  5
2C1D4
102
{ACAD_REACTORS
330
C
102
}
330
C
100
AcDbAssocPersSubentManager
 90
        2
 90
        3
 90
        0
 90
        2
 90
     1260
 90
        0
 90
     1260
 90
        1
 90
        2
 90
        3
 90
        4
 90
        5
 90
        6
 90
        7
 90
        8
 90
        9
 90
       10
 90
       11
 90
       12
 90
       13
 90
       14
 90
       15
 90
       16
 90
       17
 90
       18
 90
       19
 90
       20
 90
       21
 90
       22
 90
       23
 90
       24
 90
       25
 90
       26
 90
       27
 90
       28
 90
       29
 90
       30
 90
       31
 90
       32
 90
       33
 90
       34
 90
       35
 90
       36
 90
       37
 90
       38
 90
       39
 90
       40
 90
       41
 90
       42
 90
       43
 90
       44
 90
       45
 90
       46
 90
       47
 90
       48
 90
       49
 90
       50
 90
       51
 90
       52
 90
       53
 90
       54
 90
       55
 90
       56
 90
       57
 90
       58
 90
       59
 90
       60
 90
       61
 90
       62
 90
       63
 90
       64
 90
       65
 90
       66
 90
       67
 90
       68
 90
       69
 90
       70
 90
       71
 90
       72
 90
       73
 90
       74
 90
       75
 90
       76
 90
       77
 90
       78
 90
       79
 90
       80
 90
       81
 90
       82
 90
       83
 90
       84
 90
       85
 90
       86
 90
       87
 90
       88
 90
       89
 90
       90
 90
       91
 90
       92
 90
       93
 90
       94
 90
       95
 90
       96
 90
       97
 90
       98
 90
       99
 90
      100
 90
      101
 90
      102
 90
      103
 90
      104
 90
      105
 90
      106
 90
      107
 90
      108
 90
      109
 90
      110
 90
      111
 90
      112
 90
      113
 90
      114
 90
      115
 90
      116
 90
      117
 90
      118
 90
      119
 90
      120
 90
      121
 90
      122
 90
      123
 90
      124
 90
      125
 90
      126
 90
      127
 90
      128
 90
      129
 90
      130
 90
      131
 90
      132
 90
      133
 90
      134
 90
      135
 90
      136
 90
      137
 90
      138
 90
      139
 90
      140
 90
      141
 90
      142
 90
      143
 90
      144
 90
      145
 90
      146
 90
      147
 90
      148
 90
      149
 90
      150
 90
      151
 90
      152
 90
      153
 90
      154
 90
      155
 90
      156
 90
      157
 90
      158
 90
      159
 90
      160
 90
      161
 90
      162
 90
      163
 90
      164
 90
      165
 90
      166
 90
      167
 90
      168
 90
      169
 90
      170
 90
      171
 90
      172
 90
      173
 90
      174
 90
      175
 90
      176
 90
      177
 90
      178
 90
      179
 90
      180
 90
      181
 90
      182
 90
      183
 90
      184
 90
      185
 90
      186
 90
      187
 90
      188
 90
      189
 90
      190
 90
      191
 90
      192
 90
      193
 90
      194
 90
      195
 90
      196
 90
      197
 90
      198
 90
      199
 90
      200
 90
      201
 90
      202
 90
      203
 90
      204
 90
      205
 90
      206
 90
      207
 90
      208
 90
      209
 90
      210
 90
      211
 90
      212
 90
      213
 90
      214
 90
      215
 90
      216
 90
      217
 90
      218
 90
      219
 90
      220
 90
      221
 90
      222
 90
      223
 90
      224
 90
      225
 90
      226
 90
      227
 90
      228
 90
      229
 90
      230
 90
      231
 90
      232
 90
      233
 90
      234
 90
      235
 90
      236
 90
      237
 90
      238
 90
      239
 90
      240
 90
      241
 90
      242
 90
      243
 90
      244
 90
      245
 90
      246
 90
      247
 90
      248
 90
      249
 90
      250
 90
      251
 90
      252
 90
      253
 90
      254
 90
      255
 90
      256
 90
      257
 90
      258
 90
      259
 90
      260
 90
      261
 90
      262
 90
      263
 90
      264
 90
      265
 90
      266
 90
      267
 90
      268
 90
      269
 90
      270
 90
      271
 90
      272
 90
      273
 90
      274
 90
      275
 90
      276
 90
      277
 90
      278
 90
      279
 90
      280
 90
      281
 90
      282
 90
      283
 90
      284
 90
      285
 90
      286
 90
      287
 90
      288
 90
      289
 90
      290
 90
      291
 90
      292
 90
      293
 90
      294
 90
      295
 90
      296
 90
      297
 90
      298
 90
      299
 90
      300
 90
      301
 90
      302
 90
      303
 90
      304
 90
      305
 90
      306
 90
      307
 90
      308
 90
      309
 90
      310
 90
      311
 90
      312
 90
      313
 90
      314
 90
      315
 90
      316
 90
      317
 90
      318
 90
      319
 90
      320
 90
      321
 90
      322
 90
      323
 90
      324
 90
      325
 90
      326
 90
      327
 90
      328
 90
      329
 90
      330
 90
      331
 90
      332
 90
      333
 90
      334
 90
      335
 90
      336
 90
      337
 90
      338
 90
      339
 90
      340
 90
      341
 90
      342
 90
      343
 90
      344
 90
      345
 90
      346
 90
      347
 90
      348
 90
      349
 90
      350
 90
      351
 90
      352
 90
      353
 90
      354
 90
      355
 90
      356
 90
      357
 90
      358
 90
      359
 90
      360
 90
      361
 90
      362
 90
      363
 90
      364
 90
      365
 90
      366
 90
      367
 90
      368
 90
      369
 90
      370
 90
      371
 90
      372
 90
      373
 90
      374
 90
      375
 90
      376
 90
      377
 90
      378
 90
      379
 90
      380
 90
      381
 90
      382
 90
      383
 90
      384
 90
      385
 90
      386
 90
      387
 90
      388
 90
      389
 90
      390
 90
      391
 90
      392
 90
      393
 90
      394
 90
      395
 90
      396
 90
      397
 90
      398
 90
      399
 90
      400
 90
      401
 90
      402
 90
      403
 90
      404
 90
      405
 90
      406
 90
      407
 90
      408
 90
      409
 90
      410
 90
      411
 90
      412
 90
      413
 90
      414
 90
      415
 90
      416
 90
      417
 90
      418
 90
      419
 90
      420
 90
      421
 90
      422
 90
      423
 90
      424
 90
      425
 90
      426
 90
      427
 90
      428
 90
      429
 90
      430
 90
      431
 90
      432
 90
      433
 90
      434
 90
      435
 90
      436
 90
      437
 90
      438
 90
      439
 90
      440
 90
      441
 90
      442
 90
      443
 90
      444
 90
      445
 90
      446
 90
      447
 90
      448
 90
      449
 90
      450
 90
      451
 90
      452
 90
      453
 90
      454
 90
      455
 90
      456
 90
      457
 90
      458
 90
      459
 90
      460
 90
      461
 90
      462
 90
      463
 90
      464
 90
      465
 90
      466
 90
      467
 90
      468
 90
      469
 90
      470
 90
      471
 90
      472
 90
      473
 90
      474
 90
      475
 90
      476
 90
      477
 90
      478
 90
      479
 90
      480
 90
      481
 90
      482
 90
      483
 90
      484
 90
      485
 90
      486
 90
      487
 90
      488
 90
      489
 90
      490
 90
      491
 90
      492
 90
      493
 90
      494
 90
      495
 90
      496
 90
      497
 90
      498
 90
      499
 90
      500
 90
      501
 90
      502
 90
      503
 90
      504
 90
      505
 90
      506
 90
      507
 90
      508
 90
      509
 90
      510
 90
      511
 90
      512
 90
      513
 90
      514
 90
      515
 90
      516
 90
      517
 90
      518
 90
      519
 90
      520
 90
      521
 90
      522
 90
      523
 90
      524
 90
      525
 90
      526
 90
      527
 90
      528
 90
      529
 90
      530
 90
      531
 90
      532
 90
      533
 90
      534
 90
      535
 90
      536
 90
      537
 90
      538
 90
      539
 90
      540
 90
      541
 90
      542
 90
      543
 90
      544
 90
      545
 90
      546
 90
      547
 90
      548
 90
      549
 90
      550
 90
      551
 90
      552
 90
      553
 90
      554
 90
      555
 90
      556
 90
      557
 90
      558
 90
      559
 90
      560
 90
      561
 90
      562
 90
      563
 90
      564
 90
      565
 90
      566
 90
      567
 90
      568
 90
      569
 90
      570
 90
      571
 90
      572
 90
      573
 90
      574
 90
      575
 90
      576
 90
      577
 90
      578
 90
      579
 90
      580
 90
      581
 90
      582
 90
      583
 90
      584
 90
      585
 90
      586
 90
      587
 90
      588
 90
      589
 90
      590
 90
      591
 90
      592
 90
      593
 90
      594
 90
      595
 90
      596
 90
      597
 90
      598
 90
      599
 90
      600
 90
      601
 90
      602
 90
      603
 90
      604
 90
      605
 90
      606
 90
      607
 90
      608
 90
      609
 90
      610
 90
      611
 90
      612
 90
      613
 90
      614
 90
      615
 90
      616
 90
      617
 90
      618
 90
      619
 90
      620
 90
      621
 90
      622
 90
      623
 90
      624
 90
      625
 90
      626
 90
      627
 90
      628
 90
      629
 90
      630
 90
      631
 90
      632
 90
      633
 90
      634
 90
      635
 90
      636
 90
      637
 90
      638
 90
      639
 90
      640
 90
      641
 90
      642
 90
      643
 90
      644
 90
      645
 90
      646
 90
      647
 90
      648
 90
      649
 90
      650
 90
      651
 90
      652
 90
      653
 90
      654
 90
      655
 90
      656
 90
      657
 90
      658
 90
      659
 90
      660
 90
      661
 90
      662
 90
      663
 90
      664
 90
      665
 90
      666
 90
      667
 90
      668
 90
      669
 90
      670
 90
      671
 90
      672
 90
      673
 90
      674
 90
      675
 90
      676
 90
      677
 90
      678
 90
      679
 90
      680
 90
      681
 90
      682
 90
      683
 90
      684
 90
      685
 90
      686
 90
      687
 90
      688
 90
      689
 90
      690
 90
      691
 90
      692
 90
      693
 90
      694
 90
      695
 90
      696
 90
      697
 90
      698
 90
      699
 90
      700
 90
      701
 90
      702
 90
      703
 90
      704
 90
      705
 90
      706
 90
      707
 90
      708
 90
      709
 90
      710
 90
      711
 90
      712
 90
      713
 90
      714
 90
      715
 90
      716
 90
      717
 90
      718
 90
      719
 90
      720
 90
      721
 90
      722
 90
      723
 90
      724
 90
      725
 90
      726
 90
      727
 90
      728
 90
      729
 90
      730
 90
      731
 90
      732
 90
      733
 90
      734
 90
      735
 90
      736
 90
      737
 90
      738
 90
      739
 90
      740
 90
      741
 90
      742
 90
      743
 90
      744
 90
      745
 90
      746
 90
      747
 90
      748
 90
      749
 90
      750
 90
      751
 90
      752
 90
      753
 90
      754
 90
      755
 90
      756
 90
      757
 90
      758
 90
      759
 90
      760
 90
      761
 90
      762
 90
      763
 90
      764
 90
      765
 90
      766
 90
      767
 90
      768
 90
      769
 90
      770
 90
      771
 90
      772
 90
      773
 90
      774
 90
      775
 90
      776
 90
      777
 90
      778
 90
      779
 90
      780
 90
      781
 90
      782
 90
      783
 90
      784
 90
      785
 90
      786
 90
      787
 90
      788
 90
      789
 90
      790
 90
      791
 90
      792
 90
      793
 90
      794
 90
      795
 90
      796
 90
      797
 90
      798
 90
      799
 90
      800
 90
      801
 90
      802
 90
      803
 90
      804
 90
      805
 90
      806
 90
      807
 90
      808
 90
      809
 90
      810
 90
      811
 90
      812
 90
      813
 90
      814
 90
      815
 90
      816
 90
      817
 90
      818
 90
      819
 90
      820
 90
      821
 90
      822
 90
      823
 90
      824
 90
      825
 90
      826
 90
      827
 90
      828
 90
      829
 90
      830
 90
      831
 90
      832
 90
      833
 90
      834
 90
      835
 90
      836
 90
      837
 90
      838
 90
      839
 90
      840
 90
      841
 90
      842
 90
      843
 90
      844
 90
      845
 90
      846
 90
      847
 90
      848
 90
      849
 90
      850
 90
      851
 90
      852
 90
      853
 90
      854
 90
      855
 90
      856
 90
      857
 90
      858
 90
      859
 90
      860
 90
      861
 90
      862
 90
      863
 90
      864
 90
      865
 90
      866
 90
      867
 90
      868
 90
      869
 90
      870
 90
      871
 90
      872
 90
      873
 90
      874
 90
      875
 90
      876
 90
      877
 90
      878
 90
      879
 90
      880
 90
      881
 90
      882
 90
      883
 90
      884
 90
      885
 90
      886
 90
      887
 90
      888
 90
      889
 90
      890
 90
      891
 90
      892
 90
      893
 90
      894
 90
      895
 90
      896
 90
      897
 90
      898
 90
      899
 90
      900
 90
      901
 90
      902
 90
      903
 90
      904
 90
      905
 90
      906
 90
      907
 90
      908
 90
      909
 90
      910
 90
      911
 90
      912
 90
      913
 90
      914
 90
      915
 90
      916
 90
      917
 90
      918
 90
      919
 90
      920
 90
      921
 90
      922
 90
      923
 90
      924
 90
      925
 90
      926
 90
      927
 90
      928
 90
      929
 90
      930
 90
      931
 90
      932
 90
      933
 90
      934
 90
      935
 90
      936
 90
      937
 90
      938
 90
      939
 90
      940
 90
      941
 90
      942
 90
      943
 90
      944
 90
      945
 90
      946
 90
      947
 90
      948
 90
      949
 90
      950
 90
      951
 90
      952
 90
      953
 90
      954
 90
      955
 90
      956
 90
      957
 90
      958
 90
      959
 90
      960
 90
      961
 90
      962
 90
      963
 90
      964
 90
      965
 90
      966
 90
      967
 90
      968
 90
      969
 90
      970
 90
      971
 90
      972
 90
      973
 90
      974
 90
      975
 90
      976
 90
      977
 90
      978
 90
      979
 90
      980
 90
      981
 90
      982
 90
      983
 90
      984
 90
      985
 90
      986
 90
      987
 90
      988
 90
      989
 90
      990
 90
      991
 90
      992
 90
      993
 90
      994
 90
      995
 90
      996
 90
      997
 90
      998
 90
      999
 90
     1000
 90
     1001
 90
     1002
 90
     1003
 90
     1004
 90
     1005
 90
     1006
 90
     1007
 90
     1008
 90
     1009
 90
     1010
 90
     1011
 90
     1012
 90
     1013
 90
     1014
 90
     1015
 90
     1016
 90
     1017
 90
     1018
 90
     1019
 90
     1020
 90
     1021
 90
     1022
 90
     1023
 90
     1024
 90
     1025
 90
     1026
 90
     1027
 90
     1028
 90
     1029
 90
     1030
 90
     1031
 90
     1032
 90
     1033
 90
     1034
 90
     1035
 90
     1036
 90
     1037
 90
     1038
 90
     1039
 90
     1040
 90
     1041
 90
     1042
 90
     1043
 90
     1044
 90
     1045
 90
     1046
 90
     1047
 90
     1048
 90
     1049
 90
     1050
 90
     1051
 90
     1052
 90
     1053
 90
     1054
 90
     1055
 90
     1056
 90
     1057
 90
     1058
 90
     1059
 90
     1060
 90
     1061
 90
     1062
 90
     1063
 90
     1064
 90
     1065
 90
     1066
 90
     1067
 90
     1068
 90
     1069
 90
     1070
 90
     1071
 90
     1072
 90
     1073
 90
     1074
 90
     1075
 90
     1076
 90
     1077
 90
     1078
 90
     1079
 90
     1080
 90
     1081
 90
     1082
 90
     1083
 90
     1084
 90
     1085
 90
     1086
 90
     1087
 90
     1088
 90
     1089
 90
     1090
 90
     1091
 90
     1092
 90
     1093
 90
     1094
 90
     1095
 90
     1096
 90
     1097
 90
     1098
 90
     1099
 90
     1100
 90
     1101
 90
     1102
 90
     1103
 90
     1104
 90
     1105
 90
     1106
 90
     1107
 90
     1108
 90
     1109
 90
     1110
 90
     1111
 90
     1112
 90
     1113
 90
     1114
 90
     1115
 90
     1116
 90
     1117
 90
     1118
 90
     1119
 90
     1120
 90
     1121
 90
     1122
 90
     1123
 90
     1124
 90
     1125
 90
     1126
 90
     1127
 90
     1128
 90
     1129
 90
     1130
 90
     1131
 90
     1132
 90
     1133
 90
     1134
 90
     1135
 90
     1136
 90
     1137
 90
     1138
 90
     1139
 90
     1140
 90
     1141
 90
     1142
 90
     1143
 90
     1144
 90
     1145
 90
     1146
 90
     1147
 90
     1148
 90
     1149
 90
     1150
 90
     1151
 90
     1152
 90
     1153
 90
     1154
 90
     1155
 90
     1156
 90
     1157
 90
     1158
 90
     1159
 90
     1160
 90
     1161
 90
     1162
 90
     1163
 90
     1164
 90
     1165
 90
     1166
 90
     1167
 90
     1168
 90
     1169
 90
     1170
 90
     1171
 90
     1172
 90
     1173
 90
     1174
 90
     1175
 90
     1176
 90
     1177
 90
     1178
 90
     1179
 90
     1180
 90
     1181
 90
     1182
 90
     1183
 90
     1184
 90
     1185
 90
     1186
 90
     1187
 90
     1188
 90
     1189
 90
     1190
 90
     1191
 90
     1192
 90
     1193
 90
     1194
 90
     1195
 90
     1196
 90
     1197
 90
     1198
 90
     1199
 90
     1200
 90
     1201
 90
     1202
 90
     1203
 90
     1204
 90
     1205
 90
     1206
 90
     1207
 90
     1208
 90
     1209
 90
     1210
 90
     1211
 90
     1212
 90
     1213
 90
     1214
 90
     1215
 90
     1216
 90
     1217
 90
     1218
 90
     1219
 90
     1220
 90
     1221
 90
     1222
 90
     1223
 90
     1224
 90
     1225
 90
     1226
 90
     1227
 90
     1228
 90
     1229
 90
     1230
 90
     1231
 90
     1232
 90
     1233
 90
     1234
 90
     1235
 90
     1236
 90
     1237
 90
     1238
 90
     1239
 90
     1240
 90
     1241
 90
     1242
 90
     1243
 90
     1244
 90
     1245
 90
     1246
 90
     1247
 90
     1248
 90
     1249
 90
     1250
 90
     1251
 90
     1252
 90
     1253
 90
     1254
 90
     1255
 90
     1256
 90
     1257
 90
     1258
 90
     1259
 90
     1260
 90
        0
 90
        0
290
     0
  0
XRECORD
  5
1A5
102
{ACAD_REACTORS
330
C
102
}
330
C
100
AcDbXrecord
280
     1
300
ACD
300
2022
300

  0
DICTIONARY
  5
73
102
{ACAD_REACTORS
330
C
102
}
330
C
100
AcDbDictionary
281
     1
  0
DICTIONARY
  5
1AB
102
{ACAD_REACTORS
330
C
102
}
330
C
100
AcDbDictionary
281
     1
  3
Imperial24
350
1AC
  3
Metric50
350
224
  0
DICTIONARY
  5
D
102
{ACAD_REACTORS
330
C
102
}
330
C
100
AcDbDictionary
281
     1
  0
DICTIONARY
  5
1A
102
{ACAD_REACTORS
330
C
102
}
330
C
100
AcDbDictionary
281
     1
  3
Layout1
350
59
  3
Layout2
350
5E
  3
Model
350
22
  0
DICTIONARY
  5
72
102
{ACAD_REACTORS
330
C
102
}
330
C
100
AcDbDictionary
281
     1
  3
ByBlock
350
97
  3
ByLayer
350
96
  3
Global
350
98
  0
DICTIONARY
  5
D7
102
{ACAD_REACTORS
330
C
102
}
330
C
100
AcDbDictionary
281
     1
  3
Standard
350
D8
  0
DICTIONARY
  5
17
102
{ACAD_REACTORS
330
C
102
}
330
C
100
AcDbDictionary
281
     1
  3
Standard
350
18
  0
DICTIONARY
  5
19
102
{ACAD_REACTORS
330
C
102
}
330
C
100
AcDbDictionary
281
     1
  0
ACDBDICTIONARYWDFLT
  5
E
102
{ACAD_REACTORS
330
C
102
}
330
C
100
AcDbDictionary
281
     1
  3
Normal
350
F
100
AcDbDictionaryWithDefault
340
F
  0
DICTIONARY
  5
B6
102
{ACAD_REACTORS
330
C
102
}
330
C
100
AcDbDictionary
281
     1
  3
*A1
350
2283
  3
A0
350
B7
  3
A1
350
124
  3
A2
350
125
  3
A3
350
126
  3
A4
350
127
  3
A5
350
128
  3
A6
350
129
  3
A7
350
12A
  3
A8
350
12B
  3
A9
350
12C
  3
B0
350
12D
  3
B1
350
12E
  3
B2
350
12F
  3
B3
350
130
  3
B4
350
131
  3
B5
350
132
  3
B6
350
133
  3
B7
350
134
  3
B8
350
135
  3
B9
350
136
  3
C0
350
137
  3
C1
350
138
  3
C2
350
139
  3
C3
350
13A
  3
C4
350
13B
  3
C5
350
13C
  3
C6
350
13D
  3
C7
350
13E
  3
C8
350
13F
  3
C9
350
140
  3
D0
350
141
  3
D1
350
142
  3
D2
350
143
  0
DICTIONARY
  5
1A8
102
{ACAD_REACTORS
330
C
102
}
330
C
100
AcDbDictionary
281
     1
  3
Imperial24
350
1AA
  3
Metric50
350
223
  0
DICTIONARY
  5
86
102
{ACAD_REACTORS
330
C
102
}
330
C
100
AcDbDictionary
281
     1
  3
Standard
350
87
  0
DICTIONARY
  5
99
102
{ACAD_REACTORS
330
C
102
}
330
C
100
AcDbDictionary
281
     1
  3
2dWireframe
350
9F
  3
3dWireframe
350
22946
  3
Basic
350
9E
  3
Brighten
350
A5
  3
ColorChange
350
A9
  3
Conceptual
350
A2
  3
Dim
350
A4
  3
EdgeColorOff
350
175
  3
Facepattern
350
A8
  3
Flat
350
9A
  3
FlatWithEdges
350
9B
  3
Gouraud
350
9C
  3
GouraudWithEdges
350
9D
  3
Hidden
350
A1
  3
JitterOff
350
173
  3
Linepattern
350
A7
  3
OverhangOff
350
174
  3
Realistic
350
A3
  3
Shaded
350
182
  3
Shaded with edges
350
181
  3
Shades of Gray
350
17E
  3
Sketchy
350
17F
  3
Thicken
350
A6
  3
Wireframe
350
A0
  3
X-Ray
350
180
  0
WIPEOUTVARIABLES
  5
59B06
102
{ACAD_REACTORS
330
C
102
}
330
C
100
AcDbWipeoutVariables
 70
     1
  0
XRECORD
  5
67411
102
{ACAD_REACTORS
330
C
102
}
330
C
100
AcDbXrecord
280
     1
 90
        1
330
87
  0
DICTIONARY
  5
4A0D5
102
{ACAD_REACTORS
330
C
102
}
330
C
100
AcDbDictionary
281
     2
  3
#COMPAREDIFFTOTAL
350
4A0D6
  3
#REVCLOUDAPPROXARCLEN
350
4A0D7
  3
ANNOALLVISIBLE
350
4A0D8
  3
CANNOSCALE
350
4A0D9
  3
CMLEADERSTYLE
350
4A0DA
  3
CTABLESTYLE
350
4A0DB
  3
CVIEWDETAILSTYLE
350
4A0DC
  3
CVIEWSECTIONSTYLE
350
4A0DD
  3
DIMADEC
350
4A0DE
  3
DIMASSOC
350
4A0DF
  3
DWFFRAME
350
4A0E0
  3
HIDETEXT
350
4A0E1
  3
HPCOLOR
350
4A0E2
  3
HPLAYER
350
4A0E3
  3
HPTRANSPARENCY
350
4A0E4
  3
INDEXCTL
350
4A0E5
  3
LAYEREVAL
350
4A0E6
  3
LAYERNOTIFY
350
4A0E7
  3
LIGHTINGUNITS
350
4A0E8
  3
MLEADERSCALE
350
4A0E9
  3
MSLTSCALE
350
4A0EA
  3
MSOLESCALE
350
4A0EB
  3
PDFFRAME
350
4A0EC
  3
POINTCLOUDCLIPFRAME
350
4A0ED
  3
PROJECTNAME
350
4A0EE
  3
SOLIDHIST
350
4A0EF
  3
SORTENTS
350
4A0F0
  0
DICTIONARY
  5
22D1
102
{ACAD_REACTORS
330
C
102
}
330
C
100
AcDbDictionary
281
     1
  0
DICTIONARY
  5
18F
102
{ACAD_REACTORS
330
18E
102
}
330
18E
100
AcDbDictionary
281
     1
  0
SORTENTSTABLE
  5
28E
102
{ACAD_REACTORS
330
15D
102
}
330
15D
100
AcDbSortentsTable
330
1F
  0
ACDBDETAILVIEWSTYLE
  5
1AC
102
{ACAD_REACTORS
330
1AB
102
}
330
1AB
100
AcDbModelDocViewStyle
 70
     0
  3
Imperial24
290
     0
300
Imperial24
 90
        0
100
AcDbDetailViewStyle
 70
     0
 71
     0
 90
        3
 71
     1
340
11
 62
   256
 40
0.24
340
0
 62
   256
 40
0.24
300

 40
0.36
280
     3
 71
     2
340
16
 90
       25
 62
   256
 71
     3
340
11
 62
   256
 40
0.24
 90
        1
 40
0.75
 90
        1
300
%<\AcVar ViewType \f "%tc1">% %<\AcVar ViewDetailId>%\PSCALE %<\AcVar ViewScale \f "%sn">%
 71
     4
340
16
 90
       25
 62
   256
340
16
 90
       25
 62
   256
280
     0
  0
ACDBDETAILVIEWSTYLE
  5
224
102
{ACAD_REACTORS
330
1AB
102
}
330
1AB
100
AcDbModelDocViewStyle
 70
     0
  3
Metric50
290
     0
300
Metric50
 90
        0
100
AcDbDetailViewStyle
 70
     0
 71
     0
 90
        3
 71
     1
340
11
 62
   256
 40
5.0
340
0
 62
   256
 40
5.0
300

 40
0.0
280
     1
 71
     2
340
16
 90
       25
 62
   256
 71
     3
340
11
 62
   256
 40
5.0
 90
        0
 40
15.0
 90
        1
300
%<\AcVar ViewDetailId>% (%<\AcVar ViewScale \f "%sn">%)
 71
     4
340
16
 90
       25
 62
   256
340
16
 90
       25
 62
   256
280
     0
  0
LAYOUT
  5
59
102
{ACAD_REACTORS
330
1A
102
}
330
1A
100
AcDbPlotSettings
  1

  2
None
  4

  6

 40
0.0
 41
0.0
 42
0.0
 43
0.0
 44
0.0
 45
0.0
 46
0.0
 47
0.0
 48
0.0
 49
0.0
140
0.0
141
0.0
142
1.0
143
1.0
 70
   688
 72
     0
 73
     0
 74
     5
  7

 75
    16
147
1.0
 76
     0
 77
     2
 78
   300
148
0.0
149
0.0
100
AcDbLayout
  1
Layout1
 70
     1
 71
     1
 10
0.0
 20
0.0
 11
12.0
 21
9.0
 12
0.0
 22
0.0
 32
0.0
 14
0.0
 24
0.0
 34
0.0
 15
0.0
 25
0.0
 35
0.0
146
0.0
 13
0.0
 23
0.0
 33
0.0
 16
1.0
 26
0.0
 36
0.0
 17
0.0
 27
1.0
 37
0.0
 76
     0
330
58
  0
LAYOUT
  5
5E
102
{ACAD_REACTORS
330
1A
102
}
330
1A
100
AcDbPlotSettings
  1

  2
None
  4

  6

 40
0.0
 41
0.0
 42
0.0
 43
0.0
 44
0.0
 45
0.0
 46
0.0
 47
0.0
 48
0.0
 49
0.0
140
0.0
141
0.0
142
1.0
143
1.0
 70
   688
 72
     0
 73
     0
 74
     5
  7

 75
    16
147
1.0
 76
     0
 77
     2
 78
   300
148
0.0
149
0.0
100
AcDbLayout
  1
Layout2
 70
     1
 71
     2
 10
0.0
 20
0.0
 11
12.0
 21
9.0
 12
0.0
 22
0.0
 32
0.0
 14
0.0
 24
0.0
 34
0.0
 15
0.0
 25
0.0
 35
0.0
146
0.0
 13
0.0
 23
0.0
 33
0.0
 16
1.0
 26
0.0
 36
0.0
 17
0.0
 27
1.0
 37
0.0
 76
     0
330
5D
  0
LAYOUT
  5
22
102
{ACAD_XDICTIONARY
360
194
102
}
102
{ACAD_REACTORS
330
1A
102
}
330
1A
100
AcDbPlotSettings
  1

  2
none_device
  4
ANSI_A_(8.50_x_11.00_Inches)
  6

 40
6.349999904632568
 41
19.04999923706055
 42
6.350006103515625
 43
19.04998779296875
 44
215.8999938964844
 45
279.3999938964844
 46
0.0
 47
0.0
 48
0.0
 49
0.0
140
0.0
141
0.0
142
1.0
143
2.584895464708373
 70
 11952
 72
     0
 73
     1
 74
     0
  7

 75
     0
147
0.3868628397755418
 76
     0
 77
     2
 78
   300
148
0.0
149
0.0
100
AcDbLayout
  1
Model
 70
     1
 71
     0
 10
0.0
 20
0.0
 11
12.0
 21
9.0
 12
0.0
 22
0.0
 32
0.0
 14
0.0
 24
0.0
 34
0.0
 15
0.0
 25
0.0
 35
0.0
146
0.0
 13
0.0
 23
0.0
 33
0.0
 16
1.0
 26
0.0
 36
0.0
 17
0.0
 27
1.0
 37
0.0
 76
     0
330
1F
331
94
  0
MATERIAL
  5
97
102
{ACAD_XDICTIONARY
360
188
102
}
102
{ACAD_REACTORS
330
72
102
}
330
72
100
AcDbMaterial
  1
ByBlock
 94
       63
  0
MATERIAL
  5
96
102
{ACAD_XDICTIONARY
360
186
102
}
102
{ACAD_REACTORS
330
72
102
}
330
72
100
AcDbMaterial
  1
ByLayer
 94
       63
  0
MATERIAL
  5
98
102
{ACAD_XDICTIONARY
360
110
102
}
102
{ACAD_REACTORS
330
72
102
}
330
72
100
AcDbMaterial
  1
Global
 43
0.0208000000566244
 43
0.0
 43
0.0
 43
0.0
 43
0.0
 43
0.0208000000566244
 43
0.0
 43
0.0
 43
0.0
 43
0.0
 43
1.0
 43
0.0
 43
0.0
 43
0.0
 43
0.0
 43
1.0
 49
0.0208000000566244
 49
0.0
 49
0.0
 49
0.0
 49
0.0
 49
0.0208000000566244
 49
0.0
 49
0.0
 49
0.0
 49
0.0
 49
1.0
 49
0.0
 49
0.0
 49
0.0
 49
0.0
 49
1.0
142
0.0208000000566244
142
0.0
142
0.0
142
0.0
142
0.0
142
0.0208000000566244
142
0.0
142
0.0
142
0.0
142
0.0
142
1.0
142
0.0
142
0.0
142
0.0
142
0.0
142
1.0
144
0.0208000000566244
144
0.0
144
0.0
144
0.0
144
0.0
144
0.0208000000566244
144
0.0
144
0.0
144
0.0
144
0.0
144
1.0
144
0.0
144
0.0
144
0.0
144
0.0
144
1.0
 94
       63
1001
ACAD
1070
    -1
1070
     3
1070
     0
1000

1071
        0
1070
     0
  0
MLEADERSTYLE
  5
D8
102
{ACAD_REACTORS
330
D7
102
}
330
D7
100
AcDbMLeaderStyle
179
     2
170
     2
171
     1
172
     0
 90
        2
 40
0.0
 41
0.0
173
     1
 91
-1056964608
340
14
 92
       -2
290
     1
 42
0.09
291
     1
 43
0.36
  3
Standard
 44
0.18
300

342
11
174
     1
178
     1
175
     1
176
     0
 93
-1056964608
 45
0.18
292
     0
297
     0
 46
0.18
 94
-1056964608
 47
1.0
 49
1.0
140
1.0
293
     1
141
0.0
294
     1
177
     0
142
1.0
295
     0
296
     0
143
0.125
271
     0
272
     9
273
     9
298
     0
  0
MLINESTYLE
  5
18
102
{ACAD_REACTORS
330
17
102
}
330
17
100
AcDbMlineStyle
  2
STANDARD
 70
     0
  3

 62
   256
 51
90.0
 52
90.0
 71
     2
 49
0.5
 62
   256
  6
BYLAYER
 49
-0.5
 62
   256
  6
BYLAYER
  0
ACDBPLACEHOLDER
  5
F
102
{ACAD_REACTORS
330
E
102
}
330
E
  0
SCALE
  5
2283
102
{ACAD_REACTORS
330
B6
102
}
330
B6
100
AcDbScale
 70
     0
300
1:75
140
1.0
141
75.0
290
     0
  0
SCALE
  5
B7
102
{ACAD_REACTORS
330
B6
102
}
330
B6
100
AcDbScale
 70
     0
300
1:1
140
1.0
141
1.0
290
     1
  0
SCALE
  5
124
102
{ACAD_REACTORS
330
B6
102
}
330
B6
100
AcDbScale
 70
     0
300
1:2
140
1.0
141
2.0
290
     0
  0
SCALE
  5
125
102
{ACAD_REACTORS
330
B6
102
}
330
B6
100
AcDbScale
 70
     0
300
1:4
140
1.0
141
4.0
290
     0
  0
SCALE
  5
126
102
{ACAD_REACTORS
330
B6
102
}
330
B6
100
AcDbScale
 70
     0
300
1:5
140
1.0
141
5.0
290
     0
  0
SCALE
  5
127
102
{ACAD_REACTORS
330
B6
102
}
330
B6
100
AcDbScale
 70
     0
300
1:8
140
1.0
141
8.0
290
     0
  0
SCALE
  5
128
102
{ACAD_REACTORS
330
B6
102
}
330
B6
100
AcDbScale
 70
     0
300
1:10
140
1.0
141
10.0
290
     0
  0
SCALE
  5
129
102
{ACAD_REACTORS
330
B6
102
}
330
B6
100
AcDbScale
 70
     0
300
1:16
140
1.0
141
16.0
290
     0
  0
SCALE
  5
12A
102
{ACAD_REACTORS
330
B6
102
}
330
B6
100
AcDbScale
 70
     0
300
1:20
140
1.0
141
20.0
290
     0
  0
SCALE
  5
12B
102
{ACAD_REACTORS
330
B6
102
}
330
B6
100
AcDbScale
 70
     0
300
1:30
140
1.0
141
30.0
290
     0
  0
SCALE
  5
12C
102
{ACAD_REACTORS
330
B6
102
}
330
B6
100
AcDbScale
 70
     0
300
1:40
140
1.0
141
40.0
290
     0
  0
SCALE
  5
12D
102
{ACAD_REACTORS
330
B6
102
}
330
B6
100
AcDbScale
 70
     0
300
1:50
140
1.0
141
50.0
290
     0
  0
SCALE
  5
12E
102
{ACAD_REACTORS
330
B6
102
}
330
B6
100
AcDbScale
 70
     0
300
1:100
140
1.0
141
100.0
290
     0
  0
SCALE
  5
12F
102
{ACAD_REACTORS
330
B6
102
}
330
B6
100
AcDbScale
 70
     0
300
2:1
140
2.0
141
1.0
290
     0
  0
SCALE
  5
130
102
{ACAD_REACTORS
330
B6
102
}
330
B6
100
AcDbScale
 70
     0
300
4:1
140
4.0
141
1.0
290
     0
  0
SCALE
  5
131
102
{ACAD_REACTORS
330
B6
102
}
330
B6
100
AcDbScale
 70
     0
300
8:1
140
8.0
141
1.0
290
     0
  0
SCALE
  5
132
102
{ACAD_REACTORS
330
B6
102
}
330
B6
100
AcDbScale
 70
     0
300
10:1
140
10.0
141
1.0
290
     0
  0
SCALE
  5
133
102
{ACAD_REACTORS
330
B6
102
}
330
B6
100
AcDbScale
 70
     0
300
100:1
140
100.0
141
1.0
290
     0
  0
SCALE
  5
134
102
{ACAD_REACTORS
330
B6
102
}
330
B6
100
AcDbScale
 70
     0
300
1/128" = 1'-0"
140
0.0078125
141
12.0
290
     0
  0
SCALE
  5
135
102
{ACAD_REACTORS
330
B6
102
}
330
B6
100
AcDbScale
 70
     0
300
1/64" = 1'-0"
140
0.015625
141
12.0
290
     0
  0
SCALE
  5
136
102
{ACAD_REACTORS
330
B6
102
}
330
B6
100
AcDbScale
 70
     0
300
1/32" = 1'-0"
140
0.03125
141
12.0
290
     0
  0
SCALE
  5
137
102
{ACAD_REACTORS
330
B6
102
}
330
B6
100
AcDbScale
 70
     0
300
1/16" = 1'-0"
140
0.0625
141
12.0
290
     0
  0
SCALE
  5
138
102
{ACAD_REACTORS
330
B6
102
}
330
B6
100
AcDbScale
 70
     0
300
3/32" = 1'-0"
140
0.09375
141
12.0
290
     0
  0
SCALE
  5
139
102
{ACAD_REACTORS
330
B6
102
}
330
B6
100
AcDbScale
 70
     0
300
1/8" = 1'-0"
140
0.125
141
12.0
290
     0
  0
SCALE
  5
13A
102
{ACAD_REACTORS
330
B6
102
}
330
B6
100
AcDbScale
 70
     0
300
3/16" = 1'-0"
140
0.1875
141
12.0
290
     0
  0
SCALE
  5
13B
102
{ACAD_REACTORS
330
B6
102
}
330
B6
100
AcDbScale
 70
     0
300
1/4" = 1'-0"
140
0.25
141
12.0
290
     0
  0
SCALE
  5
13C
102
{ACAD_REACTORS
330
B6
102
}
330
B6
100
AcDbScale
 70
     0
300
3/8" = 1'-0"
140
0.375
141
12.0
290
     0
  0
SCALE
  5
13D
102
{ACAD_REACTORS
330
B6
102
}
330
B6
100
AcDbScale
 70
     0
300
1/2" = 1'-0"
140
0.5
141
12.0
290
     0
  0
SCALE
  5
13E
102
{ACAD_REACTORS
330
B6
102
}
330
B6
100
AcDbScale
 70
     0
300
3/4" = 1'-0"
140
0.75
141
12.0
290
     0
  0
SCALE
  5
13F
102
{ACAD_REACTORS
330
B6
102
}
330
B6
100
AcDbScale
 70
     0
300
1" = 1'-0"
140
1.0
141
12.0
290
     0
  0
SCALE
  5
140
102
{ACAD_REACTORS
330
B6
102
}
330
B6
100
AcDbScale
 70
     0
300
1-1/2" = 1'-0"
140
1.5
141
12.0
290
     0
  0
SCALE
  5
141
102
{ACAD_REACTORS
330
B6
102
}
330
B6
100
AcDbScale
 70
     0
300
3" = 1'-0"
140
3.0
141
12.0
290
     0
  0
SCALE
  5
142
102
{ACAD_REACTORS
330
B6
102
}
330
B6
100
AcDbScale
 70
     0
300
6" = 1'-0"
140
6.0
141
12.0
290
     0
  0
SCALE
  5
143
102
{ACAD_REACTORS
330
B6
102
}
330
B6
100
AcDbScale
 70
     0
300
1'-0" = 1'-0"
140
12.0
141
12.0
290
     0
  0
ACDBSECTIONVIEWSTYLE
  5
1AA
102
{ACAD_REACTORS
330
1A8
102
}
330
1A8
100
AcDbModelDocViewStyle
 70
     0
  3
Imperial24
290
     0
300
Imperial24
 90
        0
100
AcDbSectionViewStyle
 70
     0
 71
     0
 90
       78
 71
     1
340
11
 62
   256
 40
0.24
340
0
340
0
 62
   256
 40
0.24
300
I, O, Q, S, X, Z
 40
0.48
 90
        3
 40
0.18
 90
        1
 71
     2
340
16
 90
       25
 62
   256
340
16
 90
       50
 62
   256
 40
0.24
 40
0.0
 40
0.24
 71
     3
340
11
 62
   256
 40
0.24
 90
        1
 40
0.75
 90
        1
300
%<\AcVar ViewType \f "%tc1">% %<\AcVar ViewSectionStartId>%-%<\AcVar ViewSectionEndId>%\PSCALE %<\AcVar ViewScale \f "%sn">%
 71
     4
 62
   256
 62
   257
300
ANSI31
 40
1.0
 90
        0
290
     0
290
     0
 90
        6
 40
0.0
 40
1.570796326794896
 40
0.2617993877991494
 40
1.308996938995747
 40
-0.2617993877991494
 40
1.832595714594046
  0
ACDBSECTIONVIEWSTYLE
  5
223
102
{ACAD_REACTORS
330
1A8
102
}
330
1A8
100
AcDbModelDocViewStyle
 70
     0
  3
Metric50
290
     0
300
Metric50
 90
        0
100
AcDbSectionViewStyle
 70
     0
 71
     0
 90
      102
 71
     1
340
11
 62
   256
 40
5.0
340
0
340
0
 62
   256
 40
5.0
300
I, O, Q, S, X, Z
 40
10.0
 90
        0
 40
2.5
 90
        0
 71
     2
340
16
 90
       25
 62
   256
340
16
 90
       50
 62
   256
 40
5.0
 40
2.5
 40
5.0
 71
     3
340
11
 62
   256
 40
5.0
 90
        0
 40
15.0
 90
        1
300
%<\AcVar ViewSectionStartId>%-%<\AcVar ViewSectionEndId>% (%<\AcVar ViewScale \f "%sn">%)
 71
     4
 62
   256
 62
   257
300
ANSI31
 40
1.0
 90
        0
290
     0
290
     0
 90
        6
 40
0.0
 40
1.570796326794896
 40
0.2617993877991494
 40
1.308996938995747
 40
-0.2617993877991494
 40
1.832595714594046
  0
TABLESTYLE
  5
87
102
{ACAD_XDICTIONARY
360
104
102
}
102
{ACAD_REACTORS
330
86
102
}
330
86
100
AcDbTableStyle
280
     0
  3
Standard
 70
     0
 71
     0
 40
0.06
 41
0.06
280
     0
281
     0
  7
Standard
140
0.18
170
     2
 62
     0
 63
     7
283
     0
 90
      512
 91
        0
  1

274
    -2
284
     1
 64
     0
275
    -2
285
     1
 65
     0
276
    -2
286
     1
 66
     0
277
    -2
287
     1
 67
     0
278
    -2
288
     1
 68
     0
279
    -2
289
     1
 69
     0
  7
Standard
140
0.25
170
     5
 62
     0
 63
     7
283
     0
 90
      512
 91
        0
  1

274
    -2
284
     1
 64
     0
275
    -2
285
     1
 65
     0
276
    -2
286
     1
 66
     0
277
    -2
287
     1
 67
     0
278
    -2
288
     1
 68
     0
279
    -2
289
     1
 69
     0
  7
Standard
140
0.18
170
     5
 62
     0
 63
     7
283
     0
 90
      512
 91
        0
  1

274
    -2
284
     1
 64
     0
275
    -2
285
     1
 65
     0
276
    -2
286
     1
 66
     0
277
    -2
287
     1
 67
     0
278
    -2
288
     1
 68
     0
279
    -2
289
     1
 69
     0
  0
VISUALSTYLE
  5
9F
102
{ACAD_REACTORS
330
99
102
}
330
99
100
AcDbVisualStyle
  2
2dWireframe
 70
     4
177
     3
291
     0
 70
    58
 90
        0
176
     1
 90
        2
176
     1
 90
        1
176
     1
 90
        0
176
     1
 40
0.6
176
     1
 40
30.0
176
     1
 62
     7
420
 16777215
176
     1
 90
        1
176
     1
 90
        4
176
     1
 62
     7
176
     1
 62
   257
176
     1
 90
        1
176
     1
 90
        1
176
     1
 40
1.0
176
     1
 90
        0
176
     1
 62
   257
176
     1
 40
1.0
176
     1
 90
        1
176
     1
 90
        6
176
     1
 90
        2
176
     1
 62
     7
176
     1
 90
        5
176
     1
 90
        0
176
     1
 90
        0
176
     1
290
     0
176
     1
 90
        1
176
     1
 40
0.0
176
     1
 90
        0
176
     1
290
     1
176
     1
290
     1
176
     1
290
     0
176
     1
290
     0
176
     1
290
     0
176
     1
290
     0
176
     1
290
     0
176
     1
290
     0
176
     1
290
     0
176
     1
 90
       50
176
     1
 40
0.0
176
     1
 40
1.0
176
     1
 90
        0
176
     1
 62
    18
420
        0
176
     1
 90
       50
176
     1
 90
        3
176
     1
 62
     5
420
      255
176
     1
290
     0
176
     1
 90
       50
176
     1
 90
       50
176
     1
 90
       50
176
     1
290
     0
176
     1
 90
       50
176
     1
 62
   256
176
     0
 40
1.0
176
     0
 90
        2
176
     1
  1
strokes_ogs.tif
176
     1
290
     0
176
     1
 40
1.0
176
     1
 40
1.0
176
     1
  0
VISUALSTYLE
  5
22946
102
{ACAD_REACTORS
330
99
102
}
330
99
100
AcDbVisualStyle
  2
3dWireframe
 70
     5
177
     3
291
     0
 70
    58
 90
        0
176
     1
 90
        2
176
     1
 90
        0
176
     1
 90
        0
176
     1
 40
0.6
176
     1
 40
30.0
176
     1
 62
     7
176
     1
 90
        1
176
     1
 90
        4
176
     1
 62
     7
176
     1
 62
   257
176
     1
 90
        1
176
     1
 90
        1
176
     1
 40
1.0
176
     1
 90
        0
176
     1
 62
   257
176
     1
 40
1.0
176
     1
 90
        1
176
     1
 90
        6
176
     1
 90
        2
176
     1
 62
     7
176
     1
 90
        5
176
     1
 90
        0
176
     1
 90
        0
176
     1
290
     0
176
     1
 90
        1
176
     1
 40
0.0
176
     1
 90
        0
176
     1
290
     0
176
     1
290
     1
176
     1
290
     1
176
     1
290
     0
176
     1
290
     0
176
     1
290
     0
176
     1
290
     0
176
     1
290
     0
176
     1
290
     0
176
     1
 90
       50
176
     1
 40
0.0
176
     1
 40
1.0
176
     1
 90
        0
176
     1
 62
    18
420
        0
176
     1
 90
       50
176
     1
 90
        3
176
     1
 62
     5
420
      255
176
     1
290
     0
176
     1
 90
       50
176
     1
 90
       50
176
     1
 90
       50
176
     1
290
     0
176
     1
 90
       50
176
     1
 62
   256
176
     0
 40
1.0
176
     0
 90
        2
176
     1
  1
strokes_ogs.tif
176
     1
290
     0
176
     1
 40
1.0
176
     1
 40
1.0
176
     1
  0
VISUALSTYLE
  5
9E
102
{ACAD_REACTORS
330
99
102
}
330
99
100
AcDbVisualStyle
  2
Basic
 70
     7
177
     3
291
     1
 70
    58
 90
        1
176
     1
 90
        0
176
     1
 90
        1
176
     1
 90
        0
176
     1
 40
0.6
176
     1
 40
30.0
176
     1
 62
     7
420
 16777215
176
     1
 90
        0
176
     1
 90
        4
176
     1
 62
     7
176
     1
 62
   257
176
     1
 90
        1
176
     1
 90
        1
176
     1
 40
1.0
176
     1
 90
        8
176
     1
 62
     7
176
     1
 40
1.0
176
     1
 90
        1
176
     1
 90
        6
176
     1
 90
        2
176
     1
 62
     7
176
     1
 90
        5
176
     1
 90
        0
176
     1
 90
        0
176
     1
290
     0
176
     1
 90
        1
176
     1
 40
0.0
176
     1
 90
        0
176
     1
290
     0
176
     1
290
     1
176
     1
290
     1
176
     1
290
     0
176
     1
290
     0
176
     1
290
     0
176
     1
290
     0
176
     1
290
     0
176
     1
290
     0
176
     1
 90
       50
176
     1
 40
0.0
176
     1
 40
1.0
176
     1
 90
        0
176
     1
 62
    18
420
        0
176
     1
 90
       50
176
     1
 90
        3
176
     1
 62
     5
420
      255
176
     1
290
     0
176
     1
 90
       50
176
     1
 90
       50
176
     1
 90
       50
176
     1
290
     0
176
     1
 90
       50
176
     1
 62
   256
176
     0
 40
1.0
176
     0
 90
        2
176
     1
  1
strokes_ogs.tif
176
     1
290
     0
176
     1
 40
1.0
176
     1
 40
1.0
176
     1
  0
VISUALSTYLE
  5
A5
102
{ACAD_REACTORS
330
99
102
}
330
99
100
AcDbVisualStyle
  2
Brighten
 70
    12
177
     3
291
     1
 70
    58
 90
        2
176
     1
 90
        2
176
     1
 90
        1
176
     1
 90
        0
176
     1
 40
0.6
176
     1
 40
30.0
176
     1
 62
     7
420
 16777215
176
     1
 90
        1
176
     1
 90
        4
176
     1
 62
     7
176
     1
 62
   257
176
     1
 90
        1
176
     1
 90
        1
176
     1
 40
1.0
176
     1
 90
        8
176
     1
 62
     7
176
     1
 40
1.0
176
     1
 90
        1
176
     1
 90
        6
176
     1
 90
        2
176
     1
 62
     7
176
     1
 90
        5
176
     1
 90
        0
176
     1
 90
        0
176
     1
290
     0
176
     1
 90
        1
176
     1
 40
50.0
176
     1
 90
        0
176
     1
290
     0
176
     1
290
     1
176
     1
290
     1
176
     1
290
     0
176
     1
290
     0
176
     1
290
     0
176
     1
290
     0
176
     1
290
     0
176
     1
290
     0
176
     1
 90
       50
176
     1
 40
0.0
176
     1
 40
1.0
176
     1
 90
        0
176
     1
 62
    18
420
        0
176
     1
 90
       50
176
     1
 90
        3
176
     1
 62
     5
420
      255
176
     1
290
     0
176
     1
 90
       50
176
     1
 90
       50
176
     1
 90
       50
176
     1
290
     0
176
     1
 90
       50
176
     1
 62
   256
176
     0
 40
1.0
176
     0
 90
        2
176
     1
  1
strokes_ogs.tif
176
     1
290
     0
176
     1
 40
1.0
176
     1
 40
1.0
176
     1
  0
VISUALSTYLE
  5
A9
102
{ACAD_REACTORS
330
99
102
}
330
99
100
AcDbVisualStyle
  2
ColorChange
 70
    16
177
     3
291
     1
 70
    58
 90
        2
176
     1
 90
        2
176
     1
 90
        3
176
     1
 90
        0
176
     1
 40
0.6
176
     1
 40
30.0
176
     1
 62
     8
420
  8421504
176
     1
 90
        1
176
     1
 90
        4
176
     1
 62
     7
176
     1
 62
   257
176
     1
 90
        1
176
     1
 90
        1
176
     1
 40
1.0
176
     1
 90
        8
176
     1
 62
     8
420
  8421504
176
     1
 40
1.0
176
     1
 90
        1
176
     1
 90
        6
176
     1
 90
        2
176
     1
 62
     7
176
     1
 90
        5
176
     1
 90
        0
176
     1
 90
        0
176
     1
290
     0
176
     1
 90
        1
176
     1
 40
0.0
176
     1
 90
        0
176
     1
290
     0
176
     1
290
     1
176
     1
290
     1
176
     1
290
     0
176
     1
290
     0
176
     1
290
     0
176
     1
290
     0
176
     1
290
     0
176
     1
290
     0
176
     1
 90
       50
176
     1
 40
0.0
176
     1
 40
1.0
176
     1
 90
        0
176
     1
 62
    18
420
        0
176
     1
 90
       50
176
     1
 90
        3
176
     1
 62
     5
420
      255
176
     1
290
     0
176
     1
 90
       50
176
     1
 90
       50
176
     1
 90
       50
176
     1
290
     0
176
     1
 90
       50
176
     1
 62
   256
176
     0
 40
1.0
176
     0
 90
        2
176
     1
  1
strokes_ogs.tif
176
     1
290
     0
176
     1
 40
1.0
176
     1
 40
1.0
176
     1
  0
VISUALSTYLE
  5
A2
102
{ACAD_REACTORS
330
99
102
}
330
99
100
AcDbVisualStyle
  2
Conceptual
 70
     9
177
     3
291
     0
 70
    58
 90
        3
176
     1
 90
        2
176
     1
 90
        1
176
     1
 90
        0
176
     1
 40
0.6
176
     1
 40
30.0
176
     1
 62
     7
420
 16777215
176
     1
 90
        2
176
     1
 90
        2
176
     1
 62
     7
176
     1
 62
   257
176
     1
 90
        1
176
     1
 90
        1
176
     1
 40
40.0
176
     1
 90
        8
176
     1
 62
     7
176
     1
 40
1.0
176
     1
 90
        1
176
     1
 90
        6
176
     1
 90
        2
176
     1
 62
     7
176
     1
 90
        3
176
     1
 90
        0
176
     1
 90
        0
176
     1
290
     0
176
     1
 90
        1
176
     1
 40
0.0
176
     1
 90
        0
176
     1
290
     0
176
     1
290
     1
176
     1
290
     1
176
     1
290
     0
176
     1
290
     0
176
     1
290
     0
176
     1
290
     0
176
     1
290
     0
176
     1
290
     0
176
     1
 90
       50
176
     1
 40
0.0
176
     1
 40
1.0
176
     1
 90
        0
176
     1
 62
    18
420
        0
176
     1
 90
       50
176
     1
 90
        3
176
     1
 62
     5
420
      255
176
     1
290
     0
176
     1
 90
       50
176
     1
 90
       50
176
     1
 90
       50
176
     1
290
     0
176
     1
 90
       50
176
     1
 62
   256
176
     0
 40
1.0
176
     0
 90
        2
176
     1
  1
strokes_ogs.tif
176
     1
290
     0
176
     1
 40
1.0
176
     1
 40
1.0
176
     1
  0
VISUALSTYLE
  5
A4
102
{ACAD_REACTORS
330
99
102
}
330
99
100
AcDbVisualStyle
  2
Dim
 70
    11
177
     3
291
     1
 70
    58
 90
        2
176
     1
 90
        2
176
     1
 90
        1
176
     1
 90
        0
176
     1
 40
0.6
176
     1
 40
30.0
176
     1
 62
     7
420
 16777215
176
     1
 90
        1
176
     1
 90
        4
176
     1
 62
     7
176
     1
 62
   257
176
     1
 90
        1
176
     1
 90
        1
176
     1
 40
1.0
176
     1
 90
        8
176
     1
 62
     7
176
     1
 40
1.0
176
     1
 90
        1
176
     1
 90
        6
176
     1
 90
        2
176
     1
 62
     7
176
     1
 90
        5
176
     1
 90
        0
176
     1
 90
        0
176
     1
290
     0
176
     1
 90
        1
176
     1
 40
-50.0
176
     1
 90
        0
176
     1
290
     0
176
     1
290
     1
176
     1
290
     1
176
     1
290
     0
176
     1
290
     0
176
     1
290
     0
176
     1
290
     0
176
     1
290
     0
176
     1
290
     0
176
     1
 90
       50
176
     1
 40
0.0
176
     1
 40
1.0
176
     1
 90
        0
176
     1
 62
    18
420
        0
176
     1
 90
       50
176
     1
 90
        3
176
     1
 62
     5
420
      255
176
     1
290
     0
176
     1
 90
       50
176
     1
 90
       50
176
     1
 90
       50
176
     1
290
     0
176
     1
 90
       50
176
     1
 62
   256
176
     0
 40
1.0
176
     0
 90
        2
176
     1
  1
strokes_ogs.tif
176
     1
290
     0
176
     1
 40
1.0
176
     1
 40
1.0
176
     1
  0
VISUALSTYLE
  5
175
102
{ACAD_REACTORS
330
99
102
}
330
99
100
AcDbVisualStyle
  2
EdgeColorOff
 70
    22
177
     3
291
     1
 70
    58
 90
        2
176
     0
 90
        2
176
     0
 90
        0
176
     0
 90
        0
176
     0
 40
0.6
176
     0
 40
30.0
176
     0
 62
     7
420
 16777215
176
     0
 90
        1
176
     0
 90
        4
176
     0
 62
     7
176
     0
 62
   257
176
     0
 90
        1
176
     0
 90
        1
176
     0
 40
1.0
176
     0
 90
        8
176
     2
 62
     7
176
     0
 40
1.0
176
     0
 90
        1
176
     0
 90
        6
176
     0
 90
        2
176
     0
 62
     7
176
     0
 90
        5
176
     0
 90
        0
176
     0
 90
        0
176
     0
290
     0
176
     0
 90
        1
176
     0
 40
0.0
176
     0
 90
        0
176
     0
290
     0
176
     1
290
     1
176
     1
290
     1
176
     1
290
     0
176
     1
290
     0
176
     1
290
     0
176
     1
290
     0
176
     1
290
     0
176
     1
290
     0
176
     1
 90
       50
176
     1
 40
0.0
176
     1
 40
1.0
176
     1
 90
        0
176
     1
 62
    18
420
        0
176
     1
 90
       50
176
     1
 90
        3
176
     1
 62
     5
420
      255
176
     1
290
     0
176
     1
 90
       50
176
     1
 90
       50
176
     1
 90
       50
176
     1
290
     0
176
     1
 90
       50
176
     1
 62
   256
176
     0
 40
1.0
176
     0
 90
        2
176
     1
  1
strokes_ogs.tif
176
     1
290
     0
176
     1
 40
1.0
176
     1
 40
1.0
176
     1
  0
VISUALSTYLE
  5
A8
102
{ACAD_REACTORS
330
99
102
}
330
99
100
AcDbVisualStyle
  2
Facepattern
 70
    15
177
     3
291
     1
 70
    58
 90
        2
176
     1
 90
        2
176
     1
 90
        1
176
     1
 90
        0
176
     1
 40
0.6
176
     1
 40
30.0
176
     1
 62
     7
420
 16777215
176
     1
 90
        1
176
     1
 90
        4
176
     1
 62
     7
176
     1
 62
   257
176
     1
 90
        1
176
     1
 90
        1
176
     1
 40
1.0
176
     1
 90
        8
176
     1
 62
     7
176
     1
 40
1.0
176
     1
 90
        1
176
     1
 90
        6
176
     1
 90
        2
176
     1
 62
     7
176
     1
 90
        5
176
     1
 90
        0
176
     1
 90
        0
176
     1
290
     0
176
     1
 90
        1
176
     1
 40
0.0
176
     1
 90
        0
176
     1
290
     0
176
     1
290
     1
176
     1
290
     1
176
     1
290
     0
176
     1
290
     0
176
     1
290
     0
176
     1
290
     0
176
     1
290
     0
176
     1
290
     0
176
     1
 90
       50
176
     1
 40
0.0
176
     1
 40
1.0
176
     1
 90
        0
176
     1
 62
    18
420
        0
176
     1
 90
       50
176
     1
 90
        3
176
     1
 62
     5
420
      255
176
     1
290
     0
176
     1
 90
       50
176
     1
 90
       50
176
     1
 90
       50
176
     1
290
     0
176
     1
 90
       50
176
     1
 62
   256
176
     0
 40
1.0
176
     0
 90
        2
176
     1
  1
strokes_ogs.tif
176
     1
290
     0
176
     1
 40
1.0
176
     1
 40
1.0
176
     1
  0
VISUALSTYLE
  5
9A
102
{ACAD_REACTORS
330
99
102
}
330
99
100
AcDbVisualStyle
  2
Flat
 70
     0
177
     3
291
     1
 70
    58
 90
        2
176
     1
 90
        1
176
     1
 90
        1
176
     1
 90
        2
176
     1
 40
0.6
176
     1
 40
30.0
176
     1
 62
     7
420
 16777215
176
     1
 90
        0
176
     1
 90
        0
176
     1
 62
     7
176
     1
 62
   257
176
     1
 90
        1
176
     1
 90
        1
176
     1
 40
1.0
176
     1
 90
        8
176
     1
 62
     7
176
     1
 40
1.0
176
     1
 90
        1
176
     1
 90
        6
176
     1
 90
        2
176
     1
 62
     7
176
     1
 90
        5
176
     1
 90
        0
176
     1
 90
        0
176
     1
290
     0
176
     1
 90
       13
176
     1
 40
0.0
176
     1
 90
        0
176
     1
290
     0
176
     1
290
     1
176
     1
290
     1
176
     1
290
     0
176
     1
290
     0
176
     1
290
     0
176
     1
290
     0
176
     1
290
     0
176
     1
290
     0
176
     1
 90
       50
176
     1
 40
0.0
176
     1
 40
1.0
176
     1
 90
        0
176
     1
 62
    18
420
        0
176
     1
 90
       50
176
     1
 90
        3
176
     1
 62
     5
420
      255
176
     1
290
     0
176
     1
 90
       50
176
     1
 90
       50
176
     1
 90
       50
176
     1
290
     0
176
     1
 90
       50
176
     1
 62
   256
176
     0
 40
1.0
176
     0
 90
        2
176
     1
  1
strokes_ogs.tif
176
     1
290
     0
176
     1
 40
1.0
176
     1
 40
1.0
176
     1
  0
VISUALSTYLE
  5
9B
102
{ACAD_REACTORS
330
99
102
}
330
99
100
AcDbVisualStyle
  2
FlatWithEdges
 70
     1
177
     3
291
     1
 70
    58
 90
        2
176
     1
 90
        1
176
     1
 90
        1
176
     1
 90
        2
176
     1
 40
0.6
176
     1
 40
30.0
176
     1
 62
     7
420
 16777215
176
     1
 90
        1
176
     1
 90
        0
176
     1
 62
     7
176
     1
 62
   257
176
     1
 90
        1
176
     1
 90
        1
176
     1
 40
1.0
176
     1
 90
        0
176
     1
 62
   257
176
     1
 40
1.0
176
     1
 90
        1
176
     1
 90
        6
176
     1
 90
        2
176
     1
 62
     7
176
     1
 90
        5
176
     1
 90
        0
176
     1
 90
        0
176
     1
290
     0
176
     1
 90
       13
176
     1
 40
0.0
176
     1
 90
        0
176
     1
290
     0
176
     1
290
     1
176
     1
290
     1
176
     1
290
     0
176
     1
290
     0
176
     1
290
     0
176
     1
290
     0
176
     1
290
     0
176
     1
290
     0
176
     1
 90
       50
176
     1
 40
0.0
176
     1
 40
1.0
176
     1
 90
        0
176
     1
 62
    18
420
        0
176
     1
 90
       50
176
     1
 90
        3
176
     1
 62
     5
420
      255
176
     1
290
     0
176
     1
 90
       50
176
     1
 90
       50
176
     1
 90
       50
176
     1
290
     0
176
     1
 90
       50
176
     1
 62
   256
176
     0
 40
1.0
176
     0
 90
        2
176
     1
  1
strokes_ogs.tif
176
     1
290
     0
176
     1
 40
1.0
176
     1
 40
1.0
176
     1
  0
VISUALSTYLE
  5
9C
102
{ACAD_REACTORS
330
99
102
}
330
99
100
AcDbVisualStyle
  2
Gouraud
 70
     2
177
     3
291
     1
 70
    58
 90
        2
176
     1
 90
        2
176
     1
 90
        1
176
     1
 90
        2
176
     1
 40
0.6
176
     1
 40
30.0
176
     1
 62
     7
420
 16777215
176
     1
 90
        0
176
     1
 90
        0
176
     1
 62
     7
176
     1
 62
   257
176
     1
 90
        1
176
     1
 90
        1
176
     1
 40
1.0
176
     1
 90
        0
176
     1
 62
     7
176
     1
 40
1.0
176
     1
 90
        1
176
     1
 90
        6
176
     1
 90
        2
176
     1
 62
     7
176
     1
 90
        5
176
     1
 90
        0
176
     1
 90
        0
176
     1
290
     0
176
     1
 90
       13
176
     1
 40
0.0
176
     1
 90
        0
176
     1
290
     0
176
     1
290
     1
176
     1
290
     1
176
     1
290
     0
176
     1
290
     0
176
     1
290
     0
176
     1
290
     0
176
     1
290
     0
176
     1
290
     0
176
     1
 90
       50
176
     1
 40
0.0
176
     1
 40
1.0
176
     1
 90
        0
176
     1
 62
    18
420
        0
176
     1
 90
       50
176
     1
 90
        3
176
     1
 62
     5
420
      255
176
     1
290
     0
176
     1
 90
       50
176
     1
 90
       50
176
     1
 90
       50
176
     1
290
     0
176
     1
 90
       50
176
     1
 62
   256
176
     0
 40
1.0
176
     0
 90
        2
176
     1
  1
strokes_ogs.tif
176
     1
290
     0
176
     1
 40
1.0
176
     1
 40
1.0
176
     1
  0
VISUALSTYLE
  5
9D
102
{ACAD_REACTORS
330
99
102
}
330
99
100
AcDbVisualStyle
  2
GouraudWithEdges
 70
     3
177
     3
291
     1
 70
    58
 90
        2
176
     1
 90
        2
176
     1
 90
        1
176
     1
 90
        2
176
     1
 40
0.6
176
     1
 40
30.0
176
     1
 62
     7
420
 16777215
176
     1
 90
        1
176
     1
 90
        0
176
     1
 62
     7
176
     1
 62
   257
176
     1
 90
        1
176
     1
 90
        1
176
     1
 40
1.0
176
     1
 90
        0
176
     1
 62
   257
176
     1
 40
1.0
176
     1
 90
        1
176
     1
 90
        6
176
     1
 90
        2
176
     1
 62
     7
176
     1
 90
        5
176
     1
 90
        0
176
     1
 90
        0
176
     1
290
     0
176
     1
 90
       13
176
     1
 40
0.0
176
     1
 90
        0
176
     1
290
     0
176
     1
290
     1
176
     1
290
     1
176
     1
290
     0
176
     1
290
     0
176
     1
290
     0
176
     1
290
     0
176
     1
290
     0
176
     1
290
     0
176
     1
 90
       50
176
     1
 40
0.0
176
     1
 40
1.0
176
     1
 90
        0
176
     1
 62
    18
420
        0
176
     1
 90
       50
176
     1
 90
        3
176
     1
 62
     5
420
      255
176
     1
290
     0
176
     1
 90
       50
176
     1
 90
       50
176
     1
 90
       50
176
     1
290
     0
176
     1
 90
       50
176
     1
 62
   256
176
     0
 40
1.0
176
     0
 90
        2
176
     1
  1
strokes_ogs.tif
176
     1
290
     0
176
     1
 40
1.0
176
     1
 40
1.0
176
     1
  0
VISUALSTYLE
  5
A1
102
{ACAD_REACTORS
330
99
102
}
330
99
100
AcDbVisualStyle
  2
Hidden
 70
     6
177
     3
291
     0
 70
    58
 90
        1
176
     1
 90
        2
176
     1
 90
        2
176
     1
 90
        0
176
     1
 40
0.6
176
     1
 40
30.0
176
     1
 62
     7
420
 16777215
176
     1
 90
        2
176
     1
 90
        2
176
     1
 62
     7
176
     1
 62
   257
176
     1
 90
        2
176
     1
 90
        1
176
     1
 40
40.0
176
     1
 90
        0
176
     1
 62
   257
176
     1
 40
1.0
176
     1
 90
        1
176
     1
 90
        6
176
     1
 90
        2
176
     1
 62
     7
176
     1
 90
        3
176
     1
 90
        0
176
     1
 90
        0
176
     1
290
     0
176
     1
 90
        1
176
     1
 40
0.0
176
     1
 90
        0
176
     1
290
     0
176
     1
290
     1
176
     1
290
     1
176
     1
290
     0
176
     1
290
     0
176
     1
290
     0
176
     1
290
     0
176
     1
290
     0
176
     1
290
     0
176
     1
 90
       50
176
     1
 40
0.0
176
     1
 40
1.0
176
     1
 90
        0
176
     1
 62
    18
420
        0
176
     1
 90
       50
176
     1
 90
        3
176
     1
 62
     5
420
      255
176
     1
290
     0
176
     1
 90
       50
176
     1
 90
       50
176
     1
 90
       50
176
     1
290
     0
176
     1
 90
       50
176
     1
 62
   256
176
     0
 40
1.0
176
     0
 90
        2
176
     1
  1
strokes_ogs.tif
176
     1
290
     0
176
     1
 40
1.0
176
     1
 40
1.0
176
     1
  0
VISUALSTYLE
  5
173
102
{ACAD_REACTORS
330
99
102
}
330
99
100
AcDbVisualStyle
  2
JitterOff
 70
    20
177
     3
291
     1
 70
    58
 90
        2
176
     0
 90
        2
176
     0
 90
        0
176
     0
 90
        0
176
     0
 40
0.6
176
     0
 40
30.0
176
     0
 62
     7
420
 16777215
176
     0
 90
        1
176
     0
 90
        4
176
     0
 62
     7
176
     0
 62
   257
176
     0
 90
        1
176
     0
 90
        1
176
     0
 40
1.0
176
     0
 90
       10
176
     2
 62
     7
176
     0
 40
1.0
176
     0
 90
        1
176
     0
 90
        6
176
     0
 90
        2
176
     0
 62
     7
176
     0
 90
        5
176
     0
 90
        0
176
     0
 90
        0
176
     0
290
     0
176
     0
 90
        1
176
     0
 40
0.0
176
     0
 90
        0
176
     0
290
     0
176
     1
290
     1
176
     1
290
     1
176
     1
290
     0
176
     1
290
     0
176
     1
290
     0
176
     1
290
     0
176
     1
290
     0
176
     1
290
     0
176
     1
 90
       50
176
     1
 40
0.0
176
     1
 40
1.0
176
     1
 90
        0
176
     1
 62
    18
420
        0
176
     1
 90
       50
176
     1
 90
        3
176
     1
 62
     5
420
      255
176
     1
290
     0
176
     1
 90
       50
176
     1
 90
       50
176
     1
 90
       50
176
     1
290
     0
176
     1
 90
       50
176
     1
 62
   256
176
     0
 40
1.0
176
     0
 90
        2
176
     1
  1
strokes_ogs.tif
176
     1
290
     0
176
     1
 40
1.0
176
     1
 40
1.0
176
     1
  0
VISUALSTYLE
  5
A7
102
{ACAD_REACTORS
330
99
102
}
330
99
100
AcDbVisualStyle
  2
Linepattern
 70
    14
177
     3
291
     1
 70
    58
 90
        2
176
     1
 90
        2
176
     1
 90
        1
176
     1
 90
        0
176
     1
 40
0.6
176
     1
 40
30.0
176
     1
 62
     7
420
 16777215
176
     1
 90
        1
176
     1
 90
        4
176
     1
 62
     7
176
     1
 62
   257
176
     1
 90
        7
176
     1
 90
        7
176
     1
 40
1.0
176
     1
 90
        8
176
     1
 62
     7
176
     1
 40
1.0
176
     1
 90
        1
176
     1
 90
        6
176
     1
 90
        2
176
     1
 62
     7
176
     1
 90
        5
176
     1
 90
        0
176
     1
 90
        0
176
     1
290
     0
176
     1
 90
        1
176
     1
 40
0.0
176
     1
 90
        0
176
     1
290
     0
176
     1
290
     1
176
     1
290
     1
176
     1
290
     0
176
     1
290
     0
176
     1
290
     0
176
     1
290
     0
176
     1
290
     0
176
     1
290
     0
176
     1
 90
       50
176
     1
 40
0.0
176
     1
 40
1.0
176
     1
 90
        0
176
     1
 62
    18
420
        0
176
     1
 90
       50
176
     1
 90
        3
176
     1
 62
     5
420
      255
176
     1
290
     0
176
     1
 90
       50
176
     1
 90
       50
176
     1
 90
       50
176
     1
290
     0
176
     1
 90
       50
176
     1
 62
   256
176
     0
 40
1.0
176
     0
 90
        2
176
     1
  1
strokes_ogs.tif
176
     1
290
     0
176
     1
 40
1.0
176
     1
 40
1.0
176
     1
  0
VISUALSTYLE
  5
174
102
{ACAD_REACTORS
330
99
102
}
330
99
100
AcDbVisualStyle
  2
OverhangOff
 70
    21
177
     3
291
     1
 70
    58
 90
        2
176
     0
 90
        2
176
     0
 90
        0
176
     0
 90
        0
176
     0
 40
0.6
176
     0
 40
30.0
176
     0
 62
     7
420
 16777215
176
     0
 90
        1
176
     0
 90
        4
176
     0
 62
     7
176
     0
 62
   257
176
     0
 90
        1
176
     0
 90
        1
176
     0
 40
1.0
176
     0
 90
        9
176
     2
 62
     7
176
     0
 40
1.0
176
     0
 90
        1
176
     0
 90
        6
176
     0
 90
        2
176
     0
 62
     7
176
     0
 90
        5
176
     0
 90
        0
176
     0
 90
        0
176
     0
290
     0
176
     0
 90
        1
176
     0
 40
0.0
176
     0
 90
        0
176
     0
290
     0
176
     1
290
     1
176
     1
290
     1
176
     1
290
     0
176
     1
290
     0
176
     1
290
     0
176
     1
290
     0
176
     1
290
     0
176
     1
290
     0
176
     1
 90
       50
176
     1
 40
0.0
176
     1
 40
1.0
176
     1
 90
        0
176
     1
 62
    18
420
        0
176
     1
 90
       50
176
     1
 90
        3
176
     1
 62
     5
420
      255
176
     1
290
     0
176
     1
 90
       50
176
     1
 90
       50
176
     1
 90
       50
176
     1
290
     0
176
     1
 90
       50
176
     1
 62
   256
176
     0
 40
1.0
176
     0
 90
        2
176
     1
  1
strokes_ogs.tif
176
     1
290
     0
176
     1
 40
1.0
176
     1
 40
1.0
176
     1
  0
VISUALSTYLE
  5
A3
102
{ACAD_REACTORS
330
99
102
}
330
99
100
AcDbVisualStyle
  2
Realistic
 70
     8
177
     3
291
     0
 70
    58
 90
        2
176
     1
 90
        2
176
     1
 90
        0
176
     1
 90
        2
176
     1
 40
0.6
176
     1
 40
30.0
176
     1
 62
     7
420
 16777215
176
     1
 90
        0
176
     1
 90
        0
176
     1
 62
     7
176
     1
 62
   257
176
     1
 90
        1
176
     1
 90
        1
176
     1
 40
1.0
176
     1
 90
        8
176
     1
 62
   257
176
     1
 40
1.0
176
     1
 90
        1
176
     1
 90
        6
176
     1
 90
        2
176
     1
 62
     7
176
     1
 90
        3
176
     1
 90
        0
176
     1
 90
        0
176
     1
290
     0
176
     1
 90
       13
176
     1
 40
0.0
176
     1
 90
        0
176
     1
290
     0
176
     1
290
     1
176
     1
290
     1
176
     1
290
     0
176
     1
290
     0
176
     1
290
     0
176
     1
290
     0
176
     1
290
     0
176
     1
290
     0
176
     1
 90
       50
176
     1
 40
0.0
176
     1
 40
1.0
176
     1
 90
        0
176
     1
 62
    18
420
        0
176
     1
 90
       50
176
     1
 90
        3
176
     1
 62
     5
420
      255
176
     1
290
     0
176
     1
 90
       50
176
     1
 90
       50
176
     1
 90
       50
176
     1
290
     0
176
     1
 90
       50
176
     1
 62
   256
176
     0
 40
1.0
176
     0
 90
        2
176
     1
  1
strokes_ogs.tif
176
     1
290
     0
176
     1
 40
1.0
176
     1
 40
1.0
176
     1
  0
VISUALSTYLE
  5
182
102
{ACAD_REACTORS
330
99
102
}
330
99
100
AcDbVisualStyle
  2
Shaded
 70
    27
177
     3
291
     0
 70
    58
 90
        2
176
     1
 90
        2
176
     1
 90
        1
176
     1
 90
        2
176
     1
 40
0.6
176
     1
 40
30.0
176
     1
 62
     7
420
 16777215
176
     1
 90
        0
176
     1
 90
        4
176
     1
 62
     7
176
     1
 62
   257
176
     1
 90
        1
176
     1
 90
        1
176
     1
 40
1.0
176
     1
 90
        8
176
     1
 62
   257
176
     1
 40
1.0
176
     1
 90
        1
176
     1
 90
        6
176
     1
 90
        2
176
     1
 62
     8
420
  7895160
176
     1
 90
        3
176
     1
 90
        0
176
     1
 90
        0
176
     1
290
     0
176
     1
 90
        5
176
     1
 40
0.0
176
     1
 90
        0
176
     1
290
     0
176
     1
290
     1
176
     1
290
     1
176
     1
290
     0
176
     1
290
     0
176
     1
290
     0
176
     1
290
     0
176
     1
290
     0
176
     1
290
     0
176
     1
 90
       50
176
     1
 40
0.0
176
     1
 40
1.0
176
     1
 90
        0
176
     1
 62
    18
420
        0
176
     1
 90
       50
176
     1
 90
        3
176
     1
 62
     5
420
      255
176
     1
290
     0
176
     1
 90
       50
176
     1
 90
       50
176
     1
 90
       50
176
     1
290
     0
176
     1
 90
       50
176
     1
 62
   256
176
     0
 40
1.0
176
     0
 90
        2
176
     1
  1
strokes_ogs.tif
176
     1
290
     0
176
     1
 40
1.0
176
     1
 40
1.0
176
     1
  0
VISUALSTYLE
  5
181
102
{ACAD_REACTORS
330
99
102
}
330
99
100
AcDbVisualStyle
  2
Shaded with edges
 70
    26
177
     3
291
     0
 70
    58
 90
        2
176
     1
 90
        2
176
     1
 90
        1
176
     1
 90
        2
176
     1
 40
0.6
176
     1
 40
30.0
176
     1
 62
     7
420
 16777215
176
     1
 90
        1
176
     1
 90
        2
176
     1
 62
     7
176
     1
 62
   257
176
     1
 90
        2
176
     1
 90
        1
176
     1
 40
1.0
176
     1
 90
        8
176
     1
 62
   257
176
     1
 40
1.0
176
     1
 90
        1
176
     1
 90
        6
176
     1
 90
        2
176
     1
 62
     7
176
     1
 90
        3
176
     1
 90
        0
176
     1
 90
        0
176
     1
290
     0
176
     1
 90
        5
176
     1
 40
0.0
176
     1
 90
        0
176
     1
290
     0
176
     1
290
     1
176
     1
290
     1
176
     1
290
     0
176
     1
290
     0
176
     1
290
     0
176
     1
290
     0
176
     1
290
     0
176
     1
290
     0
176
     1
 90
       50
176
     1
 40
0.0
176
     1
 40
1.0
176
     1
 90
        0
176
     1
 62
    18
420
        0
176
     1
 90
       50
176
     1
 90
        3
176
     1
 62
     5
420
      255
176
     1
290
     0
176
     1
 90
       50
176
     1
 90
       50
176
     1
 90
       50
176
     1
290
     0
176
     1
 90
       50
176
     1
 62
   256
176
     0
 40
1.0
176
     0
 90
        2
176
     1
  1
strokes_ogs.tif
176
     1
290
     0
176
     1
 40
1.0
176
     1
 40
1.0
176
     1
  0
VISUALSTYLE
  5
17E
102
{ACAD_REACTORS
330
99
102
}
330
99
100
AcDbVisualStyle
  2
Shades of Gray
 70
    23
177
     3
291
     0
 70
    58
 90
        2
176
     1
 90
        2
176
     1
 90
        3
176
     1
 90
        0
176
     1
 40
0.6
176
     1
 40
30.0
176
     1
 62
     7
420
 16777215
176
     1
 90
        2
176
     1
 90
        2
176
     1
 62
     7
176
     1
 62
     7
176
     1
 90
        1
176
     1
 90
        1
176
     1
 40
40.0
176
     1
 90
        8
176
     1
 62
     7
176
     1
 40
1.0
176
     1
 90
        1
176
     1
 90
        6
176
     1
 90
        2
176
     1
 62
     7
176
     1
 90
        3
176
     1
 90
        0
176
     1
 90
        0
176
     1
290
     0
176
     1
 90
        1
176
     1
 40
0.0
176
     1
 90
        0
176
     1
290
     0
176
     1
290
     1
176
     1
290
     1
176
     1
290
     0
176
     1
290
     0
176
     1
290
     0
176
     1
290
     0
176
     1
290
     0
176
     1
290
     0
176
     1
 90
       50
176
     1
 40
0.0
176
     1
 40
1.0
176
     1
 90
        0
176
     1
 62
    18
420
        0
176
     1
 90
       50
176
     1
 90
        3
176
     1
 62
     5
420
      255
176
     1
290
     0
176
     1
 90
       50
176
     1
 90
       50
176
     1
 90
       50
176
     1
290
     0
176
     1
 90
       50
176
     1
 62
   256
176
     0
 40
1.0
176
     0
 90
        2
176
     1
  1
strokes_ogs.tif
176
     1
290
     0
176
     1
 40
1.0
176
     1
 40
1.0
176
     1
  0
VISUALSTYLE
  5
17F
102
{ACAD_REACTORS
330
99
102
}
330
99
100
AcDbVisualStyle
  2
Sketchy
 70
    24
177
     3
291
     0
 70
    58
 90
        1
176
     1
 90
        2
176
     1
 90
        2
176
     1
 90
        0
176
     1
 40
0.6
176
     1
 40
30.0
176
     1
 62
     7
420
 16777215
176
     1
 90
        2
176
     1
 90
        2
176
     1
 62
     7
176
     1
 62
     7
176
     1
 90
        1
176
     1
 90
        1
176
     1
 40
40.0
176
     1
 90
       11
176
     1
 62
     7
176
     1
 40
1.0
176
     1
 90
        1
176
     1
 90
        6
176
     1
 90
        2
176
     1
 62
     7
176
     1
 90
        6
176
     1
 90
        0
176
     1
 90
        0
176
     1
290
     0
176
     1
 90
        1
176
     1
 40
0.0
176
     1
 90
        0
176
     1
290
     0
176
     1
290
     1
176
     1
290
     1
176
     1
290
     0
176
     1
290
     0
176
     1
290
     0
176
     1
290
     0
176
     1
290
     0
176
     1
290
     0
176
     1
 90
       50
176
     1
 40
0.0
176
     1
 40
1.0
176
     1
 90
        0
176
     1
 62
    18
420
        0
176
     1
 90
       50
176
     1
 90
        3
176
     1
 62
     5
420
      255
176
     1
290
     0
176
     1
 90
       50
176
     1
 90
       50
176
     1
 90
       50
176
     1
290
     0
176
     1
 90
       50
176
     1
 62
   256
176
     0
 40
1.0
176
     0
 90
        2
176
     1
  1
strokes_ogs.tif
176
     1
290
     0
176
     1
 40
1.0
176
     1
 40
1.0
176
     1
  0
VISUALSTYLE
  5
A6
102
{ACAD_REACTORS
330
99
102
}
330
99
100
AcDbVisualStyle
  2
Thicken
 70
    13
177
     3
291
     1
 70
    58
 90
        2
176
     1
 90
        2
176
     1
 90
        1
176
     1
 90
        0
176
     1
 40
0.6
176
     1
 40
30.0
176
     1
 62
     7
420
 16777215
176
     1
 90
        1
176
     1
 90
        4
176
     1
 62
     7
176
     1
 62
   257
176
     1
 90
        1
176
     1
 90
        1
176
     1
 40
1.0
176
     1
 90
       12
176
     1
 62
     7
176
     1
 40
1.0
176
     1
 90
        1
176
     1
 90
        6
176
     1
 90
        2
176
     1
 62
     7
176
     1
 90
        5
176
     1
 90
        0
176
     1
 90
        0
176
     1
290
     0
176
     1
 90
        1
176
     1
 40
0.0
176
     1
 90
        0
176
     1
290
     0
176
     1
290
     1
176
     1
290
     1
176
     1
290
     0
176
     1
290
     0
176
     1
290
     0
176
     1
290
     0
176
     1
290
     0
176
     1
290
     0
176
     1
 90
       50
176
     1
 40
0.0
176
     1
 40
1.0
176
     1
 90
        0
176
     1
 62
    18
420
        0
176
     1
 90
       50
176
     1
 90
        3
176
     1
 62
     5
420
      255
176
     1
290
     0
176
     1
 90
       50
176
     1
 90
       50
176
     1
 90
       50
176
     1
290
     0
176
     1
 90
       50
176
     1
 62
   256
176
     0
 40
1.0
176
     0
 90
        2
176
     1
  1
strokes_ogs.tif
176
     1
290
     0
176
     1
 40
1.0
176
     1
 40
1.0
176
     1
  0
VISUALSTYLE
  5
A0
102
{ACAD_REACTORS
330
99
102
}
330
99
100
AcDbVisualStyle
  2
Wireframe
 70
     5
177
     3
291
     0
 70
    58
 90
        0
176
     1
 90
        2
176
     1
 90
        0
176
     1
 90
        0
176
     1
 40
0.6
176
     1
 40
30.0
176
     1
 62
     7
420
 16777215
176
     1
 90
        1
176
     1
 90
        4
176
     1
 62
     7
176
     1
 62
   257
176
     1
 90
        1
176
     1
 90
        1
176
     1
 40
1.0
176
     1
 90
        0
176
     1
 62
   257
176
     1
 40
1.0
176
     1
 90
        1
176
     1
 90
        6
176
     1
 90
        2
176
     1
 62
     7
176
     1
 90
        3
176
     1
 90
        0
176
     1
 90
        0
176
     1
290
     0
176
     1
 90
        1
176
     1
 40
0.0
176
     1
 90
        0
176
     1
290
     0
176
     1
290
     1
176
     1
290
     1
176
     1
290
     0
176
     1
290
     0
176
     1
290
     0
176
     1
290
     0
176
     1
290
     0
176
     1
290
     0
176
     1
 90
       50
176
     1
 40
0.0
176
     1
 40
1.0
176
     1
 90
        0
176
     1
 62
    18
420
        0
176
     1
 90
       50
176
     1
 90
        3
176
     1
 62
     5
420
      255
176
     1
290
     0
176
     1
 90
       50
176
     1
 90
       50
176
     1
 90
       50
176
     1
290
     0
176
     1
 90
       50
176
     1
 62
   256
176
     0
 40
1.0
176
     0
 90
        2
176
     1
  1
strokes_ogs.tif
176
     1
290
     0
176
     1
 40
1.0
176
     1
 40
1.0
176
     1
  0
VISUALSTYLE
  5
180
102
{ACAD_REACTORS
330
99
102
}
330
99
100
AcDbVisualStyle
  2
X-Ray
 70
    25
177
     3
291
     0
 70
    58
 90
        2
176
     1
 90
        2
176
     1
 90
        1
176
     1
 90
        1
176
     1
 40
0.5
176
     1
 40
30.0
176
     1
 62
     7
420
 16777215
176
     1
 90
        1
176
     1
 90
        0
176
     1
 62
     7
176
     1
 62
   257
176
     1
 90
        1
176
     1
 90
        1
176
     1
 40
1.0
176
     1
 90
        8
176
     1
 62
     7
176
     1
 40
1.0
176
     1
 90
        1
176
     1
 90
        6
176
     1
 90
        2
176
     1
 62
     7
176
     1
 90
        3
176
     1
 90
        0
176
     1
 90
        0
176
     1
290
     0
176
     1
 90
       13
176
     1
 40
0.0
176
     1
 90
        0
176
     1
290
     0
176
     1
290
     1
176
     1
290
     1
176
     1
290
     0
176
     1
290
     0
176
     1
290
     0
176
     1
290
     0
176
     1
290
     0
176
     1
290
     0
176
     1
 90
       50
176
     1
 40
0.0
176
     1
 40
1.0
176
     1
 90
        0
176
     1
 62
    18
420
        0
176
     1
 90
       50
176
     1
 90
        3
176
     1
 62
     5
420
      255
176
     1
290
     0
176
     1
 90
       50
176
     1
 90
       50
176
     1
 90
       50
176
     1
290
     0
176
     1
 90
       50
176
     1
 62
   256
176
     0
 40
1.0
176
     0
 90
        2
176
     1
  1
strokes_ogs.tif
176
     1
290
     0
176
     1
 40
1.0
176
     1
 40
1.0
176
     1
  0
DICTIONARYVAR
  5
4A0D6
102
{ACAD_REACTORS
330
4A0D5
102
}
330
4A0D5
100
DictionaryVariables
280
     0
  1
2
  0
DICTIONARYVAR
  5
4A0D7
102
{ACAD_REACTORS
330
4A0D5
102
}
330
4A0D5
100
DictionaryVariables
280
     0
  1
400.000000
  0
DICTIONARYVAR
  5
4A0D8
102
{ACAD_REACTORS
330
4A0D5
102
}
330
4A0D5
100
DictionaryVariables
280
     0
  1
1
  0
DICTIONARYVAR
  5
4A0D9
102
{ACAD_REACTORS
330
4A0D5
102
}
330
4A0D5
100
DictionaryVariables
280
     0
  1
1:1
  0
DICTIONARYVAR
  5
4A0DA
102
{ACAD_REACTORS
330
4A0D5
102
}
330
4A0D5
100
DictionaryVariables
280
     0
  1
STANDARD
  0
DICTIONARYVAR
  5
4A0DB
102
{ACAD_REACTORS
330
4A0D5
102
}
330
4A0D5
100
DictionaryVariables
280
     0
  1
STANDARD
  0
DICTIONARYVAR
  5
4A0DC
102
{ACAD_REACTORS
330
4A0D5
102
}
330
4A0D5
100
DictionaryVariables
280
     0
  1
Imperial24
  0
DICTIONARYVAR
  5
4A0DD
102
{ACAD_REACTORS
330
4A0D5
102
}
330
4A0D5
100
DictionaryVariables
280
     0
  1
Imperial24
  0
DICTIONARYVAR
  5
4A0DE
102
{ACAD_REACTORS
330
4A0D5
102
}
330
4A0D5
100
DictionaryVariables
280
     0
  1
-1
  0
DICTIONARYVAR
  5
4A0DF
102
{ACAD_REACTORS
330
4A0D5
102
}
330
4A0D5
100
DictionaryVariables
280
     0
  1
1
  0
DICTIONARYVAR
  5
4A0E0
102
{ACAD_REACTORS
330
4A0D5
102
}
330
4A0D5
100
DictionaryVariables
280
     0
  1
2
  0
DICTIONARYVAR
  5
4A0E1
102
{ACAD_REACTORS
330
4A0D5
102
}
330
4A0D5
100
DictionaryVariables
280
     0
  1
0
  0
DICTIONARYVAR
  5
4A0E2
102
{ACAD_REACTORS
330
4A0D5
102
}
330
4A0D5
100
DictionaryVariables
280
     0
  1
4
  0
DICTIONARYVAR
  5
4A0E3
102
{ACAD_REACTORS
330
4A0D5
102
}
330
4A0D5
100
DictionaryVariables
280
     0
  1
V-Construction
  0
DICTIONARYVAR
  5
4A0E4
102
{ACAD_REACTORS
330
4A0D5
102
}
330
4A0D5
100
DictionaryVariables
280
     0
  1
ByLayer
  0
DICTIONARYVAR
  5
4A0E5
102
{ACAD_REACTORS
330
4A0D5
102
}
330
4A0D5
100
DictionaryVariables
280
     0
  1
0
  0
DICTIONARYVAR
  5
4A0E6
102
{ACAD_REACTORS
330
4A0D5
102
}
330
4A0D5
100
DictionaryVariables
280
     0
  1
0
  0
DICTIONARYVAR
  5
4A0E7
102
{ACAD_REACTORS
330
4A0D5
102
}
330
4A0D5
100
DictionaryVariables
280
     0
  1
0
  0
DICTIONARYVAR
  5
4A0E8
102
{ACAD_REACTORS
330
4A0D5
102
}
330
4A0D5
100
DictionaryVariables
280
     0
  1
2
  0
DICTIONARYVAR
  5
4A0E9
102
{ACAD_REACTORS
330
4A0D5
102
}
330
4A0D5
100
DictionaryVariables
280
     0
  1
1.000000
  0
DICTIONARYVAR
  5
4A0EA
102
{ACAD_REACTORS
330
4A0D5
102
}
330
4A0D5
100
DictionaryVariables
280
     0
  1
1
  0
DICTIONARYVAR
  5
4A0EB
102
{ACAD_REACTORS
330
4A0D5
102
}
330
4A0D5
100
DictionaryVariables
280
     0
  1
1.000000
  0
DICTIONARYVAR
  5
4A0EC
102
{ACAD_REACTORS
330
4A0D5
102
}
330
4A0D5
100
DictionaryVariables
280
     0
  1
1
  0
DICTIONARYVAR
  5
4A0ED
102
{ACAD_REACTORS
330
4A0D5
102
}
330
4A0D5
100
DictionaryVariables
280
     0
  1
0
  0
DICTIONARYVAR
  5
4A0EE
102
{ACAD_REACTORS
330
4A0D5
102
}
330
4A0D5
100
DictionaryVariables
280
     0
  1

  0
DICTIONARYVAR
  5
4A0EF
102
{ACAD_REACTORS
330
4A0D5
102
}
330
4A0D5
100
DictionaryVariables
280
     0
  1
0
  0
DICTIONARYVAR
  5
4A0F0
102
{ACAD_REACTORS
330
4A0D5
102
}
330
4A0D5
100
DictionaryVariables
280
     0
  1
127
  0
DICTIONARY
  5
194
330
22
100
AcDbDictionary
280
     1
281
     1
  0
DICTIONARY
  5
188
330
97
100
AcDbDictionary
280
     1
281
     1
  3
FBXASSET
360
189
  0
DICTIONARY
  5
186
330
96
100
AcDbDictionary
280
     1
281
     1
  3
FBXASSET
360
187
  0
DICTIONARY
  5
110
330
98
100
AcDbDictionary
280
     1
281
     1
  3
BUMPTILE
360
112
  3
DIFFUSETILE
360
111
  3
FBXASSET
360
18A
  3
OPACITYTILE
360
113
  3
REFLECTIONTILE
360
114
  0
DICTIONARY
  5
104
330
87
100
AcDbDictionary
280
     1
281
     1
  3
ACAD_ROUNDTRIP_2008_TABLESTYLE_CELLSTYLEMAP
360
67410
  0
XRECORD
  5
189
102
{ACAD_REACTORS
330
188
102
}
330
188
100
AcDbXrecord
280
     1
 70
     1
 90
429727718
  1
508B35C9-AEE7-456F-BE74-D52651303AC6
310
504B03040A0000080000B670623B3DEE336E79000000790000001B0000006175746F6465736B2D64657369676E2D7061636B6167652E786D6C3C3F786D6C2076657273696F6E3D22312E302220656E636F64696E673D227574662D3822203F3E3C666F726D6174733E3C666F726D61743E687474703A2F2F736368656D612E
310
6175746F6465736B2E636F6D2F64657369676E2D7061636B6167652F323030393C2F666F726D61743E3C2F666F726D6174733E504B0304140006080800B670623BD486FD9CA0000000F4000000130000005B436F6E74656E745F54797065735D2E786D6C7D8EC10E82300C865F65E91D8A1E8C310C0EEA1BF002731658846E
310
D98AC1B77784ABF1D8FE5FBFBF75BBCE937A534CCEB38643598122B6FEE978D0B0485F9C41B54DDD7D022595594E1A469170414C76A4D9A4D207E29CF43ECE46F218070CC6BECC4078ACAA135ACF422C856C0E68EA1BF5669944DDD7BCDE7B1F8E415D77AECB980613C2E4AC91FC167A2B244592486606FC29C8FD7F045B9A
310
EF7053A7E60B504B0304140006080800B670623B28ED286BEB0000007C01000008000000636F72652E786D6C8D90416EC3201045AF82665B6183218D6D61A254764FD00B204C5C94182C03558F5F9C3852BBEB6A467FFE9B197D71FA9E6FE8CBACC17AD7012D0820E3B41FAD9B3A48F1826B40272956EFE32F1B20A766D3C1
310
268314D3EAD3B24BDABB685CCCAAF3A3D94515828980F42D371D04FD696655A814B3235C8B45E9AB9A4C419F5D8653B2237A1CB163DE672FD6AC209BF3C08E0D1B30EB19C3FC9D72FCC6EB231EFA33EDE96BDD341517E5064B11EDFCBCAF57A3A2194156843498524CAA0FCA5B7268F9E185D42D21A2DCEC7FA0B48CFF8492
310
759155FBBB0F2C80A4F991FB408A72CB22977B50B96EB9C91F504B0304140006080800B670623B55019EA25F0000007C00000007000000636E782E786D6C4DCB3B0E80201045D1AD90E915ED2CF8AC45050C11660C8261F98AB1B07AC9C97D42D718D865D3E909258CFD00CCE24AC6E326A164D74DC0B4128928FF32603847
310
2BA13128B1252AC747C6BAB984FC68F0B87FE8960A5C09FE86CFB69FBA01504B0304140006080800B670623B7BC41AC871010000D40300000C0000006662782F636F72652E786D6CC553ED6E8320147D15C2DF4501B56B6D90A64BBB27D80B50A5CE54C120983EFEAE1F4DD7A56BBA5FF3879273EEE59E7310BE393735EA95
310
ED2AA333CC428A91D2B9292A5D66D8BB63B0C26823B835C67D2BC348CB46657880B1E0A535BE9DA1DC68A7B403549B42CDA0EC3AE530CA6B5864B8CB3F552343E91D5474A7B095F949962A6421D0502778E72C0840D390E18DC5F170E664C205F7BE2A66B62A605A75AC94C522DDEEE3651AEF837817C741F2CE92E02D592D
310
83FD6ECB76EC7595A651C2C9D02CB8AB9A8BBADC2AE954814544691A3016D0E883256BBA58278B17BA5A53CAC9507ED3E4DBE2C9265F691747B3DCA9ADC382819091F8E1162272A8933DE82182932144F88C09DF060D8140C84E1EEA8B8F1340BDCA9DB1093085F157AA97B557309586747CD0EF0B4EA64E983A6E0EAEEFCE
310
889E9EF17847386AA94B30211D2C0FDE0D3AF9A4610EAD5536E8DD1969631B593F67E381C33F5157F17725E5A636F6BF1491F980C8FC7B90E13E8A2F504B0304140006080800B670623B70102A487D0000009D0000000B0000006662782F636E782E786D6C4DCCD10A83201886E15B91FFDC95A5C30335ACCDFB886521330D
310
A76397BF1A1DECE883878F57749FD5A3B74D2F17830472A901D9F088930B8B849267CC01754AA418F3DF0D5018572BE160506249B16C274D761E8BCFBB7A179E27F65CB39A0F14D396184C9921B81F34C3ACA1B4B99ABB6E6F062A25AA5F69DF23ACBE504B0304140006080800B670623B3610CA3329010000120200003100
310
00006662782F42384135303843342D343331462D343546312D424341352D3532343432364645413344462F636F72652E786D6C8D515B6EC32010BC0AE22B55850D0E446E848992B43E412FE000495162B07854397EA176A4F62F3F2C9A9D991D58BEBB8F37F0AD7D30CE76905418026DA553C65E3A98E219B510EC04F7CEC5
310
3F3408EC30EA0E16180A7EF12E4D0B249D8DDAC68C5AA7F4020E21E80881BCE54B0783FCD2E3500D296646B856D320AFC34557A4CAEDCC133C449F0380794839A138B47B86DB2345744D7A44594FD0E1B867883594369BFE63BF7EEF793D0B054FC9A8456E548E63CE46FB674D8A58F068C6477CE9F510B582A2C1F80D1182
310
70F349E816B32D65AFB8DD62CCEB42FF274A937A52948C8DEB66893BCB021484D7734370E5D2E9F608A3EF93F3119479ABA0E50B14B8C298119A43CCC4FCFCECB8A18B6388CEE7EF5D5D4F994BD86CBBA182D76543B9FCAE2FD7B24DF103504B0304140006080800B670623B1B8617914E0100003303000030000000666278
310
2F42384135303843342D343331462D343546312D424341352D3532343432364645413344462F636E782E786D6CD593C16EC32010447F0571AD6CE3D489D20813A9877E410FBD62D82434182CC055F3F75D1292E692438FBD206B7698593D61BEFD1E2DF982108D773D6D6B460938E5B571FB9ECE6957AD29D90A1EBC4F7736
310
4A9C1CA1A759A682EF839FA72269D8C9D92654AD71C72206887E0E0A22CAF926B15E498B01E0AA19451807D01A34B919F16B070157417138917400F2F6FA41FCF0092A45DEE414C19BDC21783E4BD39D891265658C3D8DEA00A3ACE59CBC8678ACB54CB26EEB6BD7839D7E9348BE70AD9C8321B9BCA7F9A4A26C542347DEE0
310
50F09802D22BA6749A800A394DD62899107273365E3C82CFC6A55557BC06C10774B7ABE7AEC3B0F34CF06446280E154026D0542C187BA9DAB6628BF7B6DBB0E5A65B3EB1F58631DE64BBE083F7B65CC218087E22CABB042E51D1F2268F1FE12B3EA24D40D63E9CFE00120194D60B9D5BC67FE6D39CDF37E20AF817881F504B
310
0304140006080800B670623BBFEF2E3B690500003C100000340000006662782F42384135303843342D343331462D343546312D424341352D3532343432364645413344462F6F626A656374732E786D6CAD575D739B3814FD2B0CFB0C98D84E931D4227B6938EA793B6534F3BFB90198F0099B001899144EAECAFDF231018B0
310
D37A3FFC609090EEE7B94757C1FB7D915B2F54C88CB31BDB7727B64559CC938CA53776A576CE956DBD0F03C1B9EA2DB32D460A7A63EB693B0C52C1ABD24C257447AA5C8D66EF177F5832A68CDA569C13296F6C193FD182B8A4523CA1F2D94D88226EBADBBBBEDB2C1C8A4D05299F46424B222853B014F30C52ACC6287F389C
310
D85E1878FA7B18E87FB36AFAF62AAFF667A83F635211161F291B8999FAB3D5DDC5FCDA99CF6653677679E13B8BFBC5CAF1DF4D27CBCBE5F2FAF6EE1A8AA51290642C117467871F101B91C581D77CEA2C36869F3229E68CD1B8F61F1ED6361B89092D294B90C78C4A68EB793D190E7D1D9BDEE7A91E1B95FDE9F3BCEAEFE809
310
6A6D6F9F7D4B79F4275C90E7A04248AA51D5C4C738DAE06F72885AC4796EBE65D22A88A22223B995679120E2D50EB1542F098381188D4EA111AE3DB043FF20AF6F2B4AE3D7D83D65E5AECA730D4D3BAC91BD05FEA992B565D95F549CD6069B90AB2A63EACA38A45E4B6A87D781574F86817E4C2FCCC72690D62E2729520E37
310
9BAF234797BAF6D62B3BFC781FED37BA1E4F2B2F052FA9501A3E80569BB8F6A9A364D4FA67654E6F803383981F82F21591FF84F23D9882BC896C3FDBCF8C162508933B2E0AE4C69DD43F6BD2BE38DDDBF10BF86CB4FA784D37F3AF16075E67EC9030DECA1FC0A55373F5DFF3378C591FA9BDF485C10B0A8C8BA909E5262639
310
A8E72163488806A595734C81CB77D1DE0ED7604A303B76913CEC0272F412782FF88EFF4636D8AA56DF7B322474C4B767303F625997056C7B032C473C592B36CEBD15F3F9FF5233B7ABCDC74D257624A60F8658567497B14CE1EC3C80B76FD02011038F9EE9EB0F2E12387A9C844D3F09855125116D1D731DF8B43D2CF4E0A0
310
79A020C6BE946BCE0B7EA1E1219331CD73C228AF5A2DDD31A4B1DA918CE91350854D40A71723140BFA92E94E62B0626016CEFA5864A50E5977E8753CEDBEE1CBB7F52780D20E17AF0BA0F5F9B02A3AD07DCC732EB6D1EBB661421BE0C39E21BABF0FE16D22EA6929407C8DE596724C88B749B6DB5512BC7B228ADFD7CB7EA6
310
3A22397E690BA8D5D8D4E40CEC8CDA23C2C0B7D5898640101CEC9C6D331CE328CB93CAFBBAC70A642DF70DF95155945B52F08AA973C23469FD69ADEF84F7BB18F983A8F8C90E37F5D35980B2139A1C523540813E824EF83448CF7C72B598CE97D7CEEDDDDD3B6736BFBC771677EF66CE6A7E7139F7A793E9EDF2B2B3A8B624
310
0CDA13AA5F8388264EC4A0129909F3B7F5A16CEDF08128E97D680ACA4B9BE7B7B58BB638F0B00700EF36AE8B32A705658A68F83EE897FC2B41573190D1CCAF0B92D233A47CFEB019D9809933F67DD1A5467F8CF69AD9A5AE859342D45355448C64F968A371DC2D596ADC6E43D93D1B466F877A64E2893E54F23C4B40388995
310
525E5005DA3983ED45412510D3EFCA13737B3863F74BD30F2A12E5B4B5E489A025CE25500DB855B11ACE5BBFA185D35DD48D8DC3CE7DC69F2944DB42AA6F6CF09BCA622ADD08C7A36E7C6AE18000BAB08E040135C2D21C9D75B3A91B77BB746C403F38018DFE6EC939DD92F16B40BC05294B9CDA035AAD6D330AE27FE4786B
310
8E45145EA34A75BE1C263A676A35A8ACC6297337400BF16C54EF515F3F77CB77EB3583889C754FFA29081AA98E2222ADEF05DA3E63D2EDEA8B8756C05A7FB6CABC4A91CBF325398202CC952E70A008A830324BA200D5E5EF8F5F04C75DB4B0EE3340E071C98B823333B83577596BF3849B69F2085AA0FAFA212F26BEFF5877
310
FDE622B28D88A42E49E43326DA82D31E8CB006401E1DA726059ECEC168F97A6599036306A135688F9AD2E61A6EA178F4CD51974A9F2CCB9F36FE5EBD14601068D9C3BF01504B0304140006080000B670623B000000000000000000000000350000006662782F42384135303843342D343331462D343546312D424341352D35
310
32343432364645413344462F76657274696365732E62696E504B0304140006080800B670623BF270F1330600000004000000360000006662782F42384135303843342D343331462D343546312D424341352D3532343432364645413344462F747269616E676C65732E62696E636660600000504B0304140006080000B67062
310
3B000000000000000000000000370000006662782F42384135303843342D343331462D343546312D424341352D3532343432364645413344462F617474726962757465732E62696E504B0304140006080800B670623B08DA0BD19000000041010000360000006662782F42384135303843342D343331462D343546312D4243
310
41352D3532343432364645413344462F6469726563746F72792E786D6C858F410AC3201045AF22B36F53E9A60B35CBEEBAE80D244E44489C6234F4F835464A48035D0DF398FF9F8AF63D0E6CC63039F212F8F9020C7D47C6792B21C5FE7403D62A1188E2E60C98D7234A5830286103A55745067B9D86B8A3CF9C7F90C11DE6
310
07FB144396D7B6A82D282E9A152AD114D5EF2CB866EEE831B8EEA07A7BB5A8D7D61A2BAAEB7FD5F70921FF497D00504B0304140006080800B670623B3B4606F3FE000000A00100003B0000006662782F42384135303843342D343331462D343546312D424341352D3532343432364645413344462F7265736F75726365732F
310
636F72652E786D6C8D504B6E833010BD0A9A6D65B08134808CA354A427E8052C332156828DFCA97AFC9A40A576D7CDCCE87D344F8F9FBEE647F689CE6B6B7A6039850C8DB2A336530F315C4903D94970676DF82583CCC8197B5861107C72362E3BA4AC096842428D1D7107A5F71820538F74F4E0D50D6799CB1892C2DFF345
310
AABB9C306779A2934E701F5C0A906D4FD609C2A1B7D129F4BCD858C163D4E3AED163FAA9AF1A1D88F67CA98E6D35906AA82A52BFB39ABCD5CD915C86331BD86BD3B665CD8BD52C78D0F34F46E550061C419494B6843142CB0F5677F4D0D58717DA7494F26295FF31C565FCA7296A13AA728FBBD93C0896823C09C18BB5AFB4
310
9E65A6BD762BBE01504B010214000A0000080000B670623B3DEE336E79000000790000001B00000000000000000000000000000000006175746F6465736B2D64657369676E2D7061636B6167652E786D6C504B01021400140006080800B670623BD486FD9CA0000000F40000001300000000000000000000000000B2000000
310
5B436F6E74656E745F54797065735D2E786D6C504B01021400140006080800B670623B28ED286BEB0000007C010000080000000000000000000000000083010000636F72652E786D6C504B01021400140006080800B670623B55019EA25F0000007C000000070000000000000000000000000094020000636E782E786D6C50
310
4B01021400140006080800B670623B7BC41AC871010000D40300000C00000000000000000000000000180300006662782F636F72652E786D6C504B01021400140006080800B670623B70102A487D0000009D0000000B00000000000000000000000000B30400006662782F636E782E786D6C504B01021400140006080800B6
310
70623B3610CA3329010000120200003100000000000000000000000000590500006662782F42384135303843342D343331462D343546312D424341352D3532343432364645413344462F636F72652E786D6C504B01021400140006080800B670623B1B8617914E010000330300003000000000000000000000000000D10600
310
006662782F42384135303843342D343331462D343546312D424341352D3532343432364645413344462F636E782E786D6C504B01021400140006080800B670623BBFEF2E3B690500003C10000034000000000000000000000000006D0800006662782F42384135303843342D343331462D343546312D424341352D35323434
310
32364645413344462F6F626A656374732E786D6C504B01021400140006080000B670623B0000000000000000000000003500000000000000000000000000280E00006662782F42384135303843342D343331462D343546312D424341352D3532343432364645413344462F76657274696365732E62696E504B010214001400
310
06080800B670623BF270F133060000000400000036000000000000000000000000007B0E00006662782F42384135303843342D343331462D343546312D424341352D3532343432364645413344462F747269616E676C65732E62696E504B01021400140006080000B670623B00000000000000000000000037000000000000
310
00000000000000D50E00006662782F42384135303843342D343331462D343546312D424341352D3532343432364645413344462F617474726962757465732E62696E504B01021400140006080800B670623B08DA0BD1900000004101000036000000000000000000000000002A0F00006662782F42384135303843342D3433
310
31462D343546312D424341352D3532343432364645413344462F6469726563746F72792E786D6C504B01021400140006080800B670623B3B4606F3FE000000A00100003B000000000000000000000000000E1000006662782F42384135303843342D343331462D343546312D424341352D3532343432364645413344462F72
310
65736F75726365732F636F72652E786D6C504B0506000000000E000E0080040000651100000000
  0
XRECORD
  5
187
102
{ACAD_REACTORS
330
186
102
}
330
186
100
AcDbXrecord
280
     1
 70
     1
 90
429727718
  1
887D55A9-D0DD-414E-B741-A7DCD4DA2B4C
310
504B03040A0000080000B670623B3DEE336E79000000790000001B0000006175746F6465736B2D64657369676E2D7061636B6167652E786D6C3C3F786D6C2076657273696F6E3D22312E302220656E636F64696E673D227574662D3822203F3E3C666F726D6174733E3C666F726D61743E687474703A2F2F736368656D612E
310
6175746F6465736B2E636F6D2F64657369676E2D7061636B6167652F323030393C2F666F726D61743E3C2F666F726D6174733E504B0304140006080800B670623BD486FD9CA0000000F4000000130000005B436F6E74656E745F54797065735D2E786D6C7D8EC10E82300C865F65E91D8A1E8C310C0EEA1BF002731658846E
310
D98AC1B77784ABF1D8FE5FBFBF75BBCE937A534CCEB38643598122B6FEE978D0B0485F9C41B54DDD7D022595594E1A469170414C76A4D9A4D207E29CF43ECE46F218070CC6BECC4078ACAA135ACF422C856C0E68EA1BF5669944DDD7BCDE7B1F8E415D77AECB980613C2E4AC91FC167A2B244592486606FC29C8FD7F045B9A
310
EF7053A7E60B504B0304140006080800B670623BBC1638F5EC0000007C01000008000000636F72652E786D6C8D90416EC3201045AF82665B61836BE2D8C24471DB9CA01740401C94182C03558F5F9C3852BBEB6A467FFE9B197D7EF89E6EE8CB2CC17AD7032D0820E394D7D68D3DA478C67B4007C117EFE32F1B202727D3C3
310
2A83E0E3E2D3BC49CABB685CCCAAF3DA6CA20CC14440EA969B1E82BA98491632C5EC08D76296EA2A4753D06797E194AC468F2356E77DF66CCD02825543D50CACC62D39ED70FDC68EB8FD68F6F8787A6784342D1DDA1D2F5758F068A7E77DB518198D065111D2624A31A93E69DD11D6D5EC85EC3B4278B9DAFF4069D6FF8492
310
75F1B5DADE7D600104CD8FDC0782976B16B9DC83CA75CD4DFC00504B0304140006080800B670623B55019EA25F0000007C00000007000000636E782E786D6C4DCB3B0E80201045D1AD90E915ED2CF8AC45050C11660C8261F98AB1B07AC9C97D42D718D865D3E909258CFD00CCE24AC6E326A164D74DC0B4128928FF326038
310
472BA13128B1252AC747C6BAB984FC68F0B87FE8960A5C09FE86CFB69FBA01504B0304140006080800B670623B3586FFB671010000D40300000C0000006662782F636F72652E786D6CC553ED6E8320147D15C2DF4541A76D6D90A6DDD627D80B50A4CE54C120983EFEAE1F4DD7A55BBA5FF3879273EEE59E7310B6393735EA
310
95ED2AA3731C851423A5A5292A5DE6D8BB63B0C268C39935C67D29C3488B46E578803167A535BE9D2169B453DA01AA4DA16650749D7218C91A1639EEE4876A4428BC838AEE14B6429E44A9C228041AEA38EB9C0501681A32BC313F1ECE8C4C3867DE57C5CC56054CAB8E95B298A7F12E5EEED224C8E87E11242FE936C8DE96
310
AB60BB7F4D295D66D12E5B30323473E6AAE6A24E5A259C2A308F29CD82280A68FC1E256B9AAE93F489AED694323294DF34F9B678B0C957DA3DC7B3DCA9ADC33C022123F1CD2D44E450277AD04338234388F01913BE0D1A0281909D38D4171F27807A259DB1093085F157AA17B557309586747CD0CF0B46A64E983A6E0EAEEF
310
CE881F9EF1FB8E70D44297604238581EBC1B74B249C31C5AAB6CD0BB33D2C636A27ECCC62F0EFF445DC5DF95244D6DEC7F2922F30191F9F720C37DE49F504B0304140006080800B670623B4220A0FF7D0000009D0000000B0000006662782F636E782E786D6C4DCCD10A83201886E15B91FFDCE542CB0335D0EC3E6259C84A
310
C3E9D8E5AF46073BFAE0E1E315DD675BD1DBA5978F41C2FD4600B9F088930F8B849267CC01754AA418F3DF0D50183727E164506249B1EC174D6E1ECB9A0F5D7D785E68DB8151CD286E5A5363CA6B8A39E90D36D40E96B086F55A43A544F52B1D7B86D517504B0304140006080800B670623B2FA3FEDE290100001202000031
310
0000006662782F45374635344235342D363743322D343832342D383044432D4334454645303536354442422F636F72652E786D6C8D515B6EC32010BC0AE22B55850D2E386E848994D7097A0117488A1283C5A3CAF10BB523B57FF961D1ECCCECC0F2ED7DBC816FED8371B687A4C210682B9D32F6D2C314CFA883602BB8772E
310
FEA141608751F7B0C050F08B77695A20E96CD43666D43AA5177008414708E42D5F7A18E4971E876A483133C2B59A06791D2EBA22556E679EE021FA1C00CC43CA09C5717D6274C7286AD7FB06D1AEA1A8C3873DDAD3E3E98859CB0EBB1DAF67A1E02919B5C88DCA71CCD968FFAC49110B1ECDF8882FBD1EA256503418BF2342
310
106E3E08DD60B6A1EC15771B8C795DE8FF4469524F8A92B1F1AD59E2CEB20005E1F5DC105CB9F4797B84D1F7C9F908CABC55D0F2050A5C61CC1AD2F27A26E6E767C7962E8E213A9FBF7775FDCC5CC266DB960A5E970DE5F2BBBE5CCB36C50F504B0304140006080800B670623B1B8617914E01000033030000300000006662
310
782F45374635344235342D363743322D343832342D383044432D4334454645303536354442422F636E782E786D6CD593C16EC32010447F0571AD6CE3D489D20813A9877E410FBD62D82434182CC055F3F75D1292E692438FBD206B7698593D61BEFD1E2DF982108D773D6D6B460938E5B571FB9ECE6957AD29D90A1EBC4F77
310
364A9C1CA1A759A682EF839FA72269D8C9D92654AD71C72206887E0E0A22CAF926B15E498B01E0AA19451807D01A34B919F16B070157417138917400F2F6FA41FCF0092A45DEE414C19BDC21783E4BD39D891265658C3D8DEA00A3ACE59CBC8678ACB54CB26EEB6BD7839D7E9348BE70AD9C8321B9BCA7F9A4A26C542347DE
310
E050F09802D22BA6749A800A394DD62899107273365E3C82CFC6A55557BC06C10774B7ABE7AEC3B0F34CF06446280E154026D0542C187BA9DAB6628BF7B6DBB0E5A65B3EB1F58631DE64BBE083F7B65CC218087E22CABB042E51D1F2268F1FE12B3EA24D40D63E9CFE00120194D60B9D5BC67FE6D39CDF37E20AF817881F50
310
4B0304140006080800B670623B29652116630500003C100000340000006662782F45374635344235342D363743322D343832342D383044432D4334454645303536354442422F6F626A656374732E786D6CAD575D739B3814FD2B0CFB0C989834C90EA1639B24E3E9A6EDD4D3CE3E64C623834CD8006224913AFDF57B040203
310
B65BEF871F0C12D2FD3CF7E8CA7FBFCB33E3957291B2E2D674ED8969D02262715A24B76625B7D6B569BC0F7CCE98EC2D338D82E4F4D654D366E0279C55A59E8AE99654991CCDDECFFF3444440B6A1A514684B83545F44C7362934AB2988A173B2692D8C97667BB76B3702836E1A47C1E092D09A78584A5982F20C5688C7287
310
C389E904BEA3BE07BEFAD7ABA6A75739B53F43FD69212429A20365233153D70BEF2E2E6FAC4BCF9B5ADEBB0BD79ADFCF43CBBD9A4E16EF168B9BD9DD0D140BC921495BC2E9D60C1E101B9E46BED37CEA2CD6861F3329624541A3DA7F7858DBAC25C6B4A4458C3CA654405BCFEBC970E8AAD8F43E4FD558ABEC4F9FE7557F47
310
4F506B7BFBEC5BCA367FC105710E2AB8A00A554D7CB4A30DFE26FBA86D18CBF4B75418399194A72433B274C3097F33032C554B027F2046A1932B842B0FCCC0DDCBEBDB8AD2F835768F59B9ADB24C41D30C6A64AF817F2A456D59FA83F2E3DA60137255A585BCD60EC9B7929AC18DEFD49381AF1ED30BFDB109A4B1CD488294
310
C3CDE6EBC8D185AABD6568061FEE37BB95AAC7E3CA4BCE4ACAA5820FA0D526AE7DAA2869B5EE5999531BE0CC20E6FBA07C41E43FA27CF7A6206F3CDD793B4F6B919C1462CB788EDCD893FA674CDA17AB7B3B7C019F8D561FAEE966FED562DFE98C1D12C6A9FC015C2A35D7FF3D7FC398F591DA4B5FE0BFA2C0189FEA50AE22
310
92817A1ED3020951A03432862970F976B33383259812CC8E5D240BBA801CBCF8CE2BBEE3BF910DB6AAD5F79E05123AE2DB33981FB1ACCB02B69D00CB014FD68AB573A7627EF9BFD4CC2C5C7D58557C4B22FAA88925A4DBB44825CECE3D78FB060D1231F0E885BE7D673C86A3874958F593906B5502D1563157814FDAC3420D
310
F69A070A22EC4B98E23CFF171A1E5311D12C23056555ABA53B8614563B92D17D02AAB009E8F46284624E5F53D5490C560CCCC2591FF1B45421EB0EBD8EA7ED13BE7C5D7E0428CD60FEF60779EB13E6664FF711CB185F6FDED60D139A001FF60CD1FD6D086F1D51474901E26B2CB794A343BC8ED3EDB612E0DD2351FCB65CF4
310
33D511C9E14B5B40ADC6A6263DB0336A8F700DDF56271A024E70B0B3629DE21847591E55DED73D56206AB927E46FAABC5C939C55853C274C93D69FD6FA4E78BF8B11DF898C9ECD60553FAD39283BA6F18984AA23E8884F83F45C5F5F859797B31B2B9C84A1E5B9DE9D35BFF25C6B76152E422F9C5DCC3D847F5801ED09D5AF
310
41441327A25FF15487F9EB725FB666F048A4701E9A827292E6F97569A32DF61DEC01C0BB8DCBBCCC684E0B49147C1FD54BF685A0AB18C868E6973949E819523E3DAC463660E68C7D9F55A9D1EFA3BD7A76A16AE1A810F95CE59B82A4D968A376DC2E8B44BBDD86B27B368CDE0ED548C7137DA860591A83706223A12CA712B4
310
7306DBF39C0A20A6DF95C7FAF670C6EED7A61F946493D1D6926782963813403548A78AE470DEF80D2D9CEAA26E4D1C76F60BFE74219A06527D6B82DF641A51616F703CAAC6A7160E08A00BEB4810A0274592A1B36E3675E36E978A0DE80727A0D6DF2D39A75BD27E0D8837276589537B40ABB56D5A41F48F1C6FCD3188C4EB
310
A6929D2FFB89CE995A4D00AE813BDD032DC48B56BD437DFDDC2DD7AED70C2272D63DE9A72068A45A92F0A4BE17A8A06B9366E16707AD80B1FC649459952097E74BB23805982B55E0401150A165964402AA8BDF9F3E7386BB686EDCA780C0D382E5392BF460A6EFB2C6EA1937D3F809B440D5F5435C4C5CF7A9EEFAF54564BD
310
2182DA24162F98680B4E7930C21A0079709CEAEB99A372305ABE0C0D7D6078105A83F6A0296DAEE1068A47DD1C55A9F4C9B2FC69E3EFD44B81028E963DF81B504B0304140006080000B670623B000000000000000000000000350000006662782F45374635344235342D363743322D343832342D383044432D433445464530
310
3536354442422F76657274696365732E62696E504B0304140006080800B670623BF270F1330600000004000000360000006662782F45374635344235342D363743322D343832342D383044432D4334454645303536354442422F747269616E676C65732E62696E636660600000504B0304140006080000B670623B00000000
310
0000000000000000370000006662782F45374635344235342D363743322D343832342D383044432D4334454645303536354442422F617474726962757465732E62696E504B0304140006080800B670623B08DA0BD19000000041010000360000006662782F45374635344235342D363743322D343832342D383044432D4334
310
454645303536354442422F6469726563746F72792E786D6C858F410AC3201045AF22B36F53E9A60B35CBEEBAE80D244E44489C6234F4F835464A48035D0DF398FF9F8AF63D0E6CC63039F212F8F9020C7D47C6792B21C5FE7403D62A1188E2E60C98D7234A5830286103A55745067B9D86B8A3CF9C7F90C11DE607FB144396
310
D7B6A82D282E9A152AD114D5EF2CB866EEE831B8EEA07A7BB5A8D7D61A2BAAEB7FD5F70921FF497D00504B0304140006080800B670623B6378F24DFF000000A00100003B0000006662782F45374635344235342D363743322D343832342D383044432D4334454645303536354442422F7265736F75726365732F636F72652E
310
786D6C8D504B6E833010BD0A9A6D65B0094E42641C85B639412F6099496225D8C89FAAC7AF09546A77DDCC8CDE47F3F4C4F16B7C149FE88371B603565228D06A37187BED20C50BD9437194C23B177FC9A0B06AC40E6618A4B87A97A615D2CE46B431A3D60DB8822A048C50E8473E3A08FA86A32A558A5911EEE5A4F45D5DB1
310
6465A6B34E8A107D0E502C4FE609D26370C96B0CA25A58295232C3AA3143FE692E063D485EF7F5AEE71BD2D2F39634AFFC44DAF7DD9E9CCE6F9CD25DCBFA762BAAD92C4534E34F46ED51451C40D694B6843142EB0FD61C283F34FC85EE0F948A6A96FF31A569F8A729191B37F51A77B105902C0779125254735F793DCBCC7B
310
EE567E03504B010214000A0000080000B670623B3DEE336E79000000790000001B00000000000000000000000000000000006175746F6465736B2D64657369676E2D7061636B6167652E786D6C504B01021400140006080800B670623BD486FD9CA0000000F40000001300000000000000000000000000B20000005B436F6E
310
74656E745F54797065735D2E786D6C504B01021400140006080800B670623BBC1638F5EC0000007C010000080000000000000000000000000083010000636F72652E786D6C504B01021400140006080800B670623B55019EA25F0000007C000000070000000000000000000000000095020000636E782E786D6C504B010214
310
00140006080800B670623B3586FFB671010000D40300000C00000000000000000000000000190300006662782F636F72652E786D6C504B01021400140006080800B670623B4220A0FF7D0000009D0000000B00000000000000000000000000B40400006662782F636E782E786D6C504B01021400140006080800B670623B2F
310
A3FEDE290100001202000031000000000000000000000000005A0500006662782F45374635344235342D363743322D343832342D383044432D4334454645303536354442422F636F72652E786D6C504B01021400140006080800B670623B1B8617914E010000330300003000000000000000000000000000D2060000666278
310
2F45374635344235342D363743322D343832342D383044432D4334454645303536354442422F636E782E786D6C504B01021400140006080800B670623B29652116630500003C10000034000000000000000000000000006E0800006662782F45374635344235342D363743322D343832342D383044432D4334454645303536
310
354442422F6F626A656374732E786D6C504B01021400140006080000B670623B0000000000000000000000003500000000000000000000000000230E00006662782F45374635344235342D363743322D343832342D383044432D4334454645303536354442422F76657274696365732E62696E504B01021400140006080800
310
B670623BF270F13306000000040000003600000000000000000000000000760E00006662782F45374635344235342D363743322D343832342D383044432D4334454645303536354442422F747269616E676C65732E62696E504B01021400140006080000B670623B0000000000000000000000003700000000000000000000
310
000000D00E00006662782F45374635344235342D363743322D343832342D383044432D4334454645303536354442422F617474726962757465732E62696E504B01021400140006080800B670623B08DA0BD190000000410100003600000000000000000000000000250F00006662782F45374635344235342D363743322D34
310
3832342D383044432D4334454645303536354442422F6469726563746F72792E786D6C504B01021400140006080800B670623B6378F24DFF000000A00100003B00000000000000000000000000091000006662782F45374635344235342D363743322D343832342D383044432D4334454645303536354442422F7265736F75
310
726365732F636F72652E786D6C504B0506000000000E000E0080040000611100000000
  0
XRECORD
  5
112
102
{ACAD_REACTORS
330
110
102
}
330
110
100
AcDbXrecord
280
     1
270
     1
271
     1
  0
XRECORD
  5
111
102
{ACAD_REACTORS
330
110
102
}
330
110
100
AcDbXrecord
280
     1
270
     1
271
     1
  0
XRECORD
  5
18A
102
{ACAD_REACTORS
330
110
102
}
330
110
100
AcDbXrecord
280
     1
 70
     0
 90
1778669749
  1
9BF507EE-FAF7-4A99-A33D-4EE51894BC40
310
504B03040A0000080000B670623B3DEE336E79000000790000001B0000006175746F6465736B2D64657369676E2D7061636B6167652E786D6C3C3F786D6C2076657273696F6E3D22312E302220656E636F64696E673D227574662D3822203F3E3C666F726D6174733E3C666F726D61743E687474703A2F2F736368656D612E
310
6175746F6465736B2E636F6D2F64657369676E2D7061636B6167652F323030393C2F666F726D61743E3C2F666F726D6174733E504B0304140006080800B670623BD486FD9CA0000000F4000000130000005B436F6E74656E745F54797065735D2E786D6C7D8EC10E82300C865F65E91D8A1E8C310C0EEA1BF002731658846E
310
D98AC1B77784ABF1D8FE5FBFBF75BBCE937A534CCEB38643598122B6FEE978D0B0485F9C41B54DDD7D022595594E1A469170414C76A4D9A4D207E29CF43ECE46F218070CC6BECC4078ACAA135ACF422C856C0E68EA1BF5669944DDD7BCDE7B1F8E415D77AECB980613C2E4AC91FC167A2B244592486606FC29C8FD7F045B9A
310
EF7053A7E60B504B0304140006080800B670623BCA089DFFEC0000007C01000008000000636F72652E786D6C8D90416E83301045AF62CDB632D8402020E32882F604BD80653BC44AB011B6AB1EBF262152BBEB6A467FFE9B197D76FA9EEFE84BAFDE38DB03CD08206DA553C64E3DC470C1474027CE56E7C22F1B202B66DDC3
310
260367D3EAE2B24BD2D9A06D48AA754AEFA2F05E0740F29E9A1EBCBCEA59642286E4F0B76C11F226269DD15797E0188D42CF2346A57DE662F40ABCAEC77628C6120F654571D50C04B7F5B9C1E3997CD4F550BE3745C3F20DE62C98F9755FAE5A04AD801784B498524C8A4F5A75E4D055873772EC0861F966FF03C545FD138A
310
C686B2D8DF7D621E384D8F3C069CE55B16A93C824A75CB8DFF00504B0304140006080800B670623B55019EA25F0000007C00000007000000636E782E786D6C4DCB3B0E80201045D1AD90E915ED2CF8AC45050C11660C8261F98AB1B07AC9C97D42D718D865D3E909258CFD00CCE24AC6E326A164D74DC0B4128928FF326038
310
472BA13128B1252AC747C6BAB984FC68F0B87FE8960A5C09FE86CFB69FBA01504B0304140006080800B670623B68FC0B7272010000D40300000C0000006662782F636F72652E786D6CC5535B6E833010BC8AE5DF0A6C1E8124328E22D29EA01770C0A128602363A31CBFCB234A53A555FA553EC09AD9F5CE8C31DB5DDA060D
310
D2F4B556190E7C8A9154852E6B5565D8D993B7C668C799D1DA7E29C3488956667884316795D1AE5BA0422B2B950554E9522EA0E87B69312A1A5864B82F3E642B7CE12C54F467BF13C55954D20F7CA0A18EB3DE1A1080E621E31BF3D3F1C2C88C73E65C5D2E6C5DC2B4FA544B8379921C36797888BC3C8A032F4E73EA6D927D
310
EA1DF6F42D49F2E8350D5346C666CE6CDD5ED515460A2B4BCC434A375E1078347C0FE22D5D6DE3D50B5D6F2965642CBF6B725DF96493AB958DC245EEDCD6631E809089F8E61622B2A81703E8219C913144F84C09DF070D8140C8561C9BAB8F3340832CAC363130A576376A108D933095FA747AD0CF0B46E64E983A6D0EAE1F
310
CE089F9EF1FB8E70D44255604258581E9D1D75B259C3125A278D37D80B52DAB4A279CEC62F0EFF44DDC43F9454E8469BFF5244960322CBEF41C6FBC83F01504B0304140006080800B670623B0F71DDB67E0000009D0000000B0000006662782F636E782E786D6C4DCCD10A83201886E15B91FFDCA54DB73F502386BB8F5816
310
32D3703976F9ABD1C18E3E78F87855FB990379BBFCF2296AE02706C4C5471A7C9C349475A408A4352AA7B4FEDD80C47E761A7606A3A69CCA72D0E0C6BE8475D3E0E3F3409428EA6B27A84079A782899AA2EC1A7AE3ECCC2FD858CB2D544655BFD2B67BD87C01504B0304140006080800B670623BE134B4FB28010000120200
310
00310000006662782F38353834323741342D343835462D343034322D383541392D4331303331363839454531452F636F72652E786D6C8D515B6EC32010BC0AE22B55850D0EA424C24451959EA0172086A42831583CAA1CBF503B52FB971F16CDCECC0EACD8DFC71BF836215AEF7A481A0C817183D7D65D7A98D3197108F652
310
04EFD31F1A044E8DA6871586525C82CFD3020DDE25E352419DD76601558C264130DCCAA58771F832A36A544E8511AFCDA486ABBA988634A55D7852C4144A00300FA927949C71DABD1D28A29C7D208A6987383B6CD13BC16BB2E1DBE3911C453B0BA5C8D9EA456E758963CFD684674DAA588A64C747FC2118958C86B2C3788B
310
0841B8FB247487D98EB257CC77188BB6D2FF89F2A49F1465EBD2BA5BE2CEB2082511EDDC9042FB7CBA3DC298FBE4430275DE2A9AE1054ADC60CC08E3A29D89E5F9C5714317C7987C28DFBBBA9E0A97B0D97643A568EB864AF95D5FA9759BF207504B0304140006080800B670623B1B8617914E010000330300003000000066
310
62782F38353834323741342D343835462D343034322D383541392D4331303331363839454531452F636E782E786D6CD593C16EC32010447F0571AD6CE3D489D20813A9877E410FBD62D82434182CC055F3F75D1292E692438FBD206B7698593D61BEFD1E2DF982108D773D6D6B460938E5B571FB9ECE6957AD29D90A1EBC4F
310
77364A9C1CA1A759A682EF839FA72269D8C9D92654AD71C72206887E0E0A22CAF926B15E498B01E0AA19451807D01A34B919F16B070157417138917400F2F6FA41FCF0092A45DEE414C19BDC21783E4BD39D891265658C3D8DEA00A3ACE59CBC8678ACB54CB26EEB6BD7839D7E9348BE70AD9C8321B9BCA7F9A4A26C542347
310
DEE050F09802D22BA6749A800A394DD62899107273365E3C82CFC6A55557BC06C10774B7ABE7AEC3B0F34CF06446280E154026D0542C187BA9DAB6628BF7B6DBB0E5A65B3EB1F58631DE64BBE083F7B65CC218087E22CABB042E51D1F2268F1FE12B3EA24D40D63E9CFE00120194D60B9D5BC67FE6D39CDF37E20AF817881F
310
504B0304140006080800B670623B5933D422630500003B100000340000006662782F38353834323741342D343835462D343034322D383541392D4331303331363839454531452F6F626A656374732E786D6CAD575B6FA33814FE2B887D0642934E9B156594264D158D3A534DD4D13E548A0C38942D60649B4EBABF7E3F8321
310
40924EF6928780CDF1B97EE762EFF32E4B8D37CA45C2F21BD3B547A641F39045491EDF98A5DC5AD7A6F1D9F73863B243661A39C9E88DA9B64DDF8B392B0BBD15D12D295339D85DDEFE618890E6D434C2940871638AF08566C426A5641115AF764424B1E3EDCE76ED9AB0CF36E6A47819302D08A7B984A6D8CFC1C5A89572FB
310
CB91E9F89EA3BEFB9EFAD754E3D3544E654F5F7E920B49F2F040D880CDD89D2CEE2E2EA7D6E56432B6269F2E5CEB7679BBB0DCABF168FE693E9FCEEEA6102C240727AD09A75BD3BF876F78127A4EFDA9D5582B7E4CA590E5390D2BFB6161A5B3E618D182E611E2985001691DAB47FDA5AB7CD3F93C566B2DB2BB7D9E55DD13
310
1D468DEECDB3AB290BFE8409E21C54704115AA6AFF68436BFC8DF65E0B184BF5B74418199194272435D224E084BF9B3E481589EFF5D828747285706581E9BB7B7E5D5D911ABFC6EE312DB7659A2A689A7E85EC0DF04FA5A8344BFEA2FCB834E8845895492EAFB541F2BDA0A63FF59C6AD3F7D4637CA13FD68E34B629891172
310
98597F1D183A57B9B75A98FE9765B05BAB7C3C2EBCE0ACA05C2AF8005A4DE09AA7F29216EB9E15397500C6F47CBE77CA7778FE2BD277AF0AE2C693DD6437D1522427B9D8329E2136F6A8FA19A3E6C56ADF0E5F50CF06D48734EDCEBF22F69C56D97EC138153F804B85E6FABFC7AFEFB32E523BE1F3BD372418E363EDCA7548
310
52949E8724474014288D94610BB57C1BEC4C7F854A89CA8E5324F55B871CBC78CE1BBEE3BFE68D6A5589EF3C730474506FCFA8FCF0659516D0ED04580EEA6425581B77CAE797FF4BCECC16EB2FEB926F49481F746159D06D922712BD730FDEAE42BD40F42C7AA5EF3F198F60E86110D6DD20645A9480B795CF95E3E3A659A8
310
C55E724F408873315335CFFB8584874484344D494E59D94869DB90C26A5B64F49C802CAC1D3ABE18A098D3B7444D123D8A9E5AE8F5214F0AE5B2B6E9B575DA3E61CBD3EA2B4009FA940524DD1305FB6A1FB294F14DF0BEA90BA109ECE1481FDC3FFAE8D60E75141700BE82725371B4873751B2DD960265F788137FACE6DD40
310
B575E4F0A5C99F46629D92131467A41EE11ABD8D4CCC039CA0AFB37C93A08B232B8F0AEFCA1E0A1015DF13FC83322B362463652ECF71D3A8B1A7D1BE65DE1D62C44F22C317D35F574FEB16153BA2D13E543D10A80E74C4A65E78A6B7CBCBD1D5DD9DB59C2DAFACC96C3AB566E3F1C29ADCDD5DBAD7D3C9ED7C822ED74F80A6
310
41755310DE4443F44A9E68373FADF6596BFA0F440AE7BECE2727AE9F4F2B1B53B1E7E00CF0DD1E5C65454A339A4BA2D0FBA05ED2EF0443458F47BDBFCA484CCFE0F2ED7E3DD0013B679C7B5499467F0ECEEADDB9CA85A34CE44B99053949D2C1416DB85DE4B136BB7165FBAC0B7AB3542BED4F8CA182A549847A1319316519
310
95A83A67147B9E5101C47487F2485F1ECE38FD568F839204296D3479219888530154036E6528FBFBC66F98E0D4107563A2D7D9AFF8D389681A08F58D89F22693900A3B407754734FC51C10C010D6D640809EE4718AC1BA3ED4AEDB53CA37283F68805A7E4B72CEB0A4EDEAD5DD8C14059A76AFAA56BA6901E13F32BC51C720
310
12AF41295B5BF61BAD3195181FB506E6B40F4C10AF5AF40EF9F5B159AE5DD1F43C72D635E94310D45C2D49785C5D0B94D3B54AB3C5A38349C0587D338AB48C11CBF339599C02CCA54A70A008A8D03C0B2201D5F9EFCF8F9CE12A9A19CB0410789EB32C63B95ECCF455D658BFE0621A3DA32C5075FB101723D77DAE867E7D0F
310
D90444509B44E2151B4DC2290B065803200FBAA9BE9D392A0603F2D5C2D00D6302A615680F66D2FA166E2079D4C551A54AB758161FCEFD4E450A14704CECFEDF504B0304140006080000B670623B000000000000000000000000350000006662782F38353834323741342D343835462D343034322D383541392D4331303331
310
363839454531452F76657274696365732E62696E504B0304140006080800B670623BF270F1330600000004000000360000006662782F38353834323741342D343835462D343034322D383541392D4331303331363839454531452F747269616E676C65732E62696E636660600000504B0304140006080000B670623B000000
310
000000000000000000370000006662782F38353834323741342D343835462D343034322D383541392D4331303331363839454531452F617474726962757465732E62696E504B0304140006080800B670623B08DA0BD19000000041010000360000006662782F38353834323741342D343835462D343034322D383541392D43
310
31303331363839454531452F6469726563746F72792E786D6C858F410AC3201045AF22B36F53E9A60B35CBEEBAE80D244E44489C6234F4F835464A48035D0DF398FF9F8AF63D0E6CC63039F212F8F9020C7D47C6792B21C5FE7403D62A1188E2E60C98D7234A5830286103A55745067B9D86B8A3CF9C7F90C11DE607FB1443
310
96D7B6A82D282E9A152AD114D5EF2CB866EEE831B8EEA07A7BB5A8D7D61A2BAAEB7FD5F70921FF497D00504B0304140006080800B670623BD9A3B367FE000000A00100003B0000006662782F38353834323741342D343835462D343034322D383541392D4331303331363839454531452F7265736F75726365732F636F7265
310
2E786D6C8D504B6E833010BD0A9A6D65B01D0201194711694FD00B586642AD043BF2A7EAF16B122AB5BB6E6646EFA3797AE2F8B5DC8A4FF4C1383B002B291468B59B8C9D0748F1420E501CA5F0CEC55F3228AC5A708015062966EFD27D83B4B3116DCCA875136EA00A012314FA968F0182FEC045952AC5AC08D7F2AEF455CD
310
58B232D3592745883E07289E4FD609D26370C96B0CA27AB252A464A64D63A6FCD35C0C7A904D73EE467EE664DCD58CD4ED4849D79C5A723ED1B7A61977AF2D6F45B59AA58866F9C9A83DAA8813484E6947182394BFB3BAA7FBBEDEBFD0434FA9A856F91F53BA4FFF342563E38E6F719FB60092E5200F428A6AED2BAF479979
310
AFDDCA6F504B010214000A0000080000B670623B3DEE336E79000000790000001B00000000000000000000000000000000006175746F6465736B2D64657369676E2D7061636B6167652E786D6C504B01021400140006080800B670623BD486FD9CA0000000F40000001300000000000000000000000000B20000005B436F6E
310
74656E745F54797065735D2E786D6C504B01021400140006080800B670623BCA089DFFEC0000007C010000080000000000000000000000000083010000636F72652E786D6C504B01021400140006080800B670623B55019EA25F0000007C000000070000000000000000000000000095020000636E782E786D6C504B010214
310
00140006080800B670623B68FC0B7272010000D40300000C00000000000000000000000000190300006662782F636F72652E786D6C504B01021400140006080800B670623B0F71DDB67E0000009D0000000B00000000000000000000000000B50400006662782F636E782E786D6C504B01021400140006080800B670623BE1
310
34B4FB280100001202000031000000000000000000000000005C0500006662782F38353834323741342D343835462D343034322D383541392D4331303331363839454531452F636F72652E786D6C504B01021400140006080800B670623B1B8617914E010000330300003000000000000000000000000000D3060000666278
310
2F38353834323741342D343835462D343034322D383541392D4331303331363839454531452F636E782E786D6C504B01021400140006080800B670623B5933D422630500003B10000034000000000000000000000000006F0800006662782F38353834323741342D343835462D343034322D383541392D4331303331363839
310
454531452F6F626A656374732E786D6C504B01021400140006080000B670623B0000000000000000000000003500000000000000000000000000240E00006662782F38353834323741342D343835462D343034322D383541392D4331303331363839454531452F76657274696365732E62696E504B01021400140006080800
310
B670623BF270F13306000000040000003600000000000000000000000000770E00006662782F38353834323741342D343835462D343034322D383541392D4331303331363839454531452F747269616E676C65732E62696E504B01021400140006080000B670623B0000000000000000000000003700000000000000000000
310
000000D10E00006662782F38353834323741342D343835462D343034322D383541392D4331303331363839454531452F617474726962757465732E62696E504B01021400140006080800B670623B08DA0BD190000000410100003600000000000000000000000000260F00006662782F38353834323741342D343835462D34
310
3034322D383541392D4331303331363839454531452F6469726563746F72792E786D6C504B01021400140006080800B670623BD9A3B367FE000000A00100003B000000000000000000000000000A1000006662782F38353834323741342D343835462D343034322D383541392D4331303331363839454531452F7265736F75
310
726365732F636F72652E786D6C504B0506000000000E000E0080040000611100000000
  0
XRECORD
  5
113
102
{ACAD_REACTORS
330
110
102
}
330
110
100
AcDbXrecord
280
     1
270
     1
271
     1
  0
XRECORD
  5
114
102
{ACAD_REACTORS
330
110
102
}
330
110
100
AcDbXrecord
280
     1
270
     1
271
     1
  0
CELLSTYLEMAP
  5
67410
102
{ACAD_REACTORS
330
104
102
}
330
104
100
AcDbCellStyleMap
 90
        3
300
CELLSTYLE
  1
TABLEFORMAT_BEGIN
 90
        5
170
     1
 91
        0
 92
    32768
 62
   257
 93
        1
300
CONTENTFORMAT
  1
CONTENTFORMAT_BEGIN
 90
        0
 91
        0
 92
      512
 93
        0
300

 40
0.0
140
1.0
 94
        5
 62
     0
340
11
144
0.25
309
CONTENTFORMAT_END
171
     1
301
MARGIN
  1
CELLMARGIN_BEGIN
 40
0.06
 40
0.06
 40
0.06
 40
0.06
 40
0.18
 40
0.18
309
CELLMARGIN_END
 94
        6
 95
        1
302
GRIDFORMAT
  1
GRIDFORMAT_BEGIN
 90
        0
 91
        1
 62
     0
 92
       -2
340
0
 93
        0
 40
0.045
309
GRIDFORMAT_END
 95
        2
302
GRIDFORMAT
  1
GRIDFORMAT_BEGIN
 90
        0
 91
        1
 62
     0
 92
       -2
340
0
 93
        0
 40
0.045
309
GRIDFORMAT_END
 95
        4
302
GRIDFORMAT
  1
GRIDFORMAT_BEGIN
 90
        0
 91
        1
 62
     0
 92
       -2
340
0
 93
        0
 40
0.045
309
GRIDFORMAT_END
 95
        8
302
GRIDFORMAT
  1
GRIDFORMAT_BEGIN
 90
        0
 91
        1
 62
     0
 92
       -2
340
0
 93
        0
 40
0.045
309
GRIDFORMAT_END
 95
       16
302
GRIDFORMAT
  1
GRIDFORMAT_BEGIN
 90
        0
 91
        1
 62
     0
 92
       -2
340
0
 93
        0
 40
0.045
309
GRIDFORMAT_END
 95
       32
302
GRIDFORMAT
  1
GRIDFORMAT_BEGIN
 90
        0
 91
        1
 62
     0
 92
       -2
340
0
 93
        0
 40
0.045
309
GRIDFORMAT_END
309
TABLEFORMAT_END
  1
CELLSTYLE_BEGIN
 90
        1
 91
        1
300
_TITLE
309
CELLSTYLE_END
300
CELLSTYLE
  1
TABLEFORMAT_BEGIN
 90
        5
170
     1
 91
        0
 92
        0
 62
   257
 93
        1
300
CONTENTFORMAT
  1
CONTENTFORMAT_BEGIN
 90
        0
 91
        0
 92
      512
 93
        0
300

 40
0.0
140
1.0
 94
        5
 62
     0
340
11
144
0.18
309
CONTENTFORMAT_END
171
     1
301
MARGIN
  1
CELLMARGIN_BEGIN
 40
0.06
 40
0.06
 40
0.06
 40
0.06
 40
0.18
 40
0.18
309
CELLMARGIN_END
 94
        6
 95
        1
302
GRIDFORMAT
  1
GRIDFORMAT_BEGIN
 90
        0
 91
        1
 62
     0
 92
       -2
340
0
 93
        0
 40
0.045
309
GRIDFORMAT_END
 95
        2
302
GRIDFORMAT
  1
GRIDFORMAT_BEGIN
 90
        0
 91
        1
 62
     0
 92
       -2
340
0
 93
        0
 40
0.045
309
GRIDFORMAT_END
 95
        4
302
GRIDFORMAT
  1
GRIDFORMAT_BEGIN
 90
        0
 91
        1
 62
     0
 92
       -2
340
0
 93
        0
 40
0.045
309
GRIDFORMAT_END
 95
        8
302
GRIDFORMAT
  1
GRIDFORMAT_BEGIN
 90
        0
 91
        1
 62
     0
 92
       -2
340
0
 93
        0
 40
0.045
309
GRIDFORMAT_END
 95
       16
302
GRIDFORMAT
  1
GRIDFORMAT_BEGIN
 90
        0
 91
        1
 62
     0
 92
       -2
340
0
 93
        0
 40
0.045
309
GRIDFORMAT_END
 95
       32
302
GRIDFORMAT
  1
GRIDFORMAT_BEGIN
 90
        0
 91
        1
 62
     0
 92
       -2
340
0
 93
        0
 40
0.045
309
GRIDFORMAT_END
309
TABLEFORMAT_END
  1
CELLSTYLE_BEGIN
 90
        2
 91
        1
300
_HEADER
309
CELLSTYLE_END
300
CELLSTYLE
  1
TABLEFORMAT_BEGIN
 90
        5
170
     1
 91
        0
 92
        0
 62
   257
 93
        1
300
CONTENTFORMAT
  1
CONTENTFORMAT_BEGIN
 90
        0
 91
        0
 92
      512
 93
        0
300

 40
0.0
140
1.0
 94
        2
 62
     0
340
11
144
0.18
309
CONTENTFORMAT_END
171
     1
301
MARGIN
  1
CELLMARGIN_BEGIN
 40
0.06
 40
0.06
 40
0.06
 40
0.06
 40
0.18
 40
0.18
309
CELLMARGIN_END
 94
        6
 95
        1
302
GRIDFORMAT
  1
GRIDFORMAT_BEGIN
 90
        0
 91
        1
 62
     0
 92
       -2
340
0
 93
        0
 40
0.045
309
GRIDFORMAT_END
 95
        2
302
GRIDFORMAT
  1
GRIDFORMAT_BEGIN
 90
        0
 91
        1
 62
     0
 92
       -2
340
0
 93
        0
 40
0.045
309
GRIDFORMAT_END
 95
        4
302
GRIDFORMAT
  1
GRIDFORMAT_BEGIN
 90
        0
 91
        1
 62
     0
 92
       -2
340
0
 93
        0
 40
0.045
309
GRIDFORMAT_END
 95
        8
302
GRIDFORMAT
  1
GRIDFORMAT_BEGIN
 90
        0
 91
        1
 62
     0
 92
       -2
340
0
 93
        0
 40
0.045
309
GRIDFORMAT_END
 95
       16
302
GRIDFORMAT
  1
GRIDFORMAT_BEGIN
 90
        0
 91
        1
 62
     0
 92
       -2
340
0
 93
        0
 40
0.045
309
GRIDFORMAT_END
 95
       32
302
GRIDFORMAT
  1
GRIDFORMAT_BEGIN
 90
        0
 91
        1
 62
     0
 92
       -2
340
0
 93
        0
 40
0.045
309
GRIDFORMAT_END
309
TABLEFORMAT_END
  1
CELLSTYLE_BEGIN
 90
        3
 91
        2
300
_DATA
309
CELLSTYLE_END
  0
ENDSEC
  0
SECTION
  2
ACDSDATA
 70
     2
 71
     8
  0
ACDSSCHEMA
 90
        0
  1
AcDb_Thumbnail_Schema
  2
AcDbDs::ID
280
    10
 91
        8
  2
Thumbnail_Data
280
    15
 91
        0
101
ACDSRECORD
 95
        0
 90
        1
  2
AcDbDs::TreatedAsObjectData
280
     1
291
     1
101
ACDSRECORD
 95
        0
 90
        2
  2
AcDbDs::Legacy
280
     1
291
     1
101
ACDSRECORD
  1
AcDbDs::ID
 90
        3
  2
AcDs:Indexable
280
     1
291
     1
101
ACDSRECORD
  1
AcDbDs::ID
 90
        4
  2
AcDbDs::HandleAttribute
280
     7
282
     1
  0
ACDSSCHEMA
 90
        1
  1
AcDbDs::TreatedAsObjectDataSchema
  2
AcDbDs::TreatedAsObjectData
280
     1
 91
        0
  0
ACDSSCHEMA
 90
        2
  1
AcDbDs::LegacySchema
  2
AcDbDs::Legacy
280
     1
 91
        0
  0
ACDSSCHEMA
 90
        3
  1
AcDbDs::IndexedPropertySchema
  2
AcDs:Indexable
280
     1
 91
        0
  0
ACDSSCHEMA
 90
        4
  1
AcDbDs::HandleAttributeSchema
  2
AcDbDs::HandleAttribute
280
     7
 91
        1
284
     1
  0
ACDSSCHEMA
 90
        5
  1
AcDb3DSolid_ASM_Data
  2
AcDbDs::ID
280
    10
 91
        8
  2
ASM_Data
280
    15
 91
        0
101
ACDSRECORD
 95
        5
 90
        1
  2
AcDbDs::TreatedAsObjectData
280
     1
291
     1
101
ACDSRECORD
 95
        5
 90
        2
  2
AcDbDs::Legacy
280
     1
291
     1
101
ACDSRECORD
  1
AcDbDs::ID
 90
        3
  2
AcDs:Indexable
280
     1
291
     1
101
ACDSRECORD
  1
AcDbDs::ID
 90
        4
  2
AcDbDs::HandleAttribute
280
     7
282
     1
  0
ACDSRECORD
 90
        0
  2
AcDbDs::ID
280
    10
320
22
  2
Thumbnail_Data
280
    15
 94
     1666
310
89504E470D0A1A0A0000000D49484452000001000000006C0803000000B2ED9CC100000300504C5445212830FFFFFF2128300000000000000000000000000000000000000000000000000000330000660000990000CC0000FF0033000033330033660033990033CC0033FF0066000066330066660066990066CC0066FF0099
310
000099330099660099990099CC0099FF00CC0000CC3300CC6600CC9900CCCC00CCFF00FF0000FF3300FF6600FF9900FFCC00FFFF3300003300333300663300993300CC3300FF3333003333333333663333993333CC3333FF3366003366333366663366993366CC3366FF3399003399333399663399993399CC3399FF33CC00
310
33CC3333CC6633CC9933CCCC33CCFF33FF0033FF3333FF6633FF9933FFCC33FFFF6600006600336600666600996600CC6600FF6633006633336633666633996633CC6633FF6666006666336666666666996666CC6666FF6699006699336699666699996699CC6699FF66CC0066CC3366CC6666CC9966CCCC66CCFF66FF0066
310
FF3366FF6666FF9966FFCC66FFFF9900009900339900669900999900CC9900FF9933009933339933669933999933CC9933FF9966009966339966669966999966CC9966FF9999009999339999669999999999CC9999FF99CC0099CC3399CC6699CC9999CCCC99CCFF99FF0099FF3399FF6699FF9999FFCC99FFFFCC0000CC00
310
33CC0066CC0099CC00CCCC00FFCC3300CC3333CC3366CC3399CC33CCCC33FFCC6600CC6633CC6666CC6699CC66CCCC66FFCC9900CC9933CC9966CC9999CC99CCCC99FFCCCC00CCCC33CCCC66CCCC99CCCCCCCCCCFFCCFF00CCFF33CCFF66CCFF99CCFFCCCCFFFFFF0000FF0033FF0066FF0099FF00CCFF00FFFF3300FF3333
310
FF3366FF3399FF33CCFF33FFFF6600FF6633FF6666FF6699FF66CCFF66FFFF9900FF9933FF9966FF9999FF99CCFF99FFFFCC00FFCC33FFCC66FFCC99FFCCCCFFCCFFFFFF00FFFF33FFFF66FFFF99FFFFCCFFFFFF0000000D0D0D1A1A1A2828283535354343435050505D5D5D6B6B6B787878868686939393A1A1A1AEAEAEBB
310
BBBBC9C9C9D6D6D6E4E4E4F1F1F1FFFFFF0000000000000000000000000000000000000000000000000000000000002E4550F1000001634944415478DAED9BCB72C2301004F7FFFF77EE297044EC5816962E2133DD557040EC615BD25A0FA802000000000000000000804F43F2C842F3110D8FFC67F390D30858E848598D80
310
4712D302DACB640AD4FC14D056396C04AC960D93A7C08280168200042020514021000108400002C205F89C07AC0B28135605140210902D20BD06B4F7D875809C044CF37D969A2DC0A6126E53E094CB28B96788998053215085093876F938B526C0EC31B84B5A3742FC04B48BE2F723DB56C0D6F5BA17622AE0E7D66BB0E537
310
16703481808B9BD30C01BBB28880500117FB80B422D8DB0AA508B80890CAE7507CD4931A9E08D99C896994E8E808A122050C56072102DE8420C04A40A70501084040928073539A80F369F96B2F902AA0967E60FE7F05FC6E8C9B0217AB2104244D01E9CE67CE35205A40F7BF417102E247C07125142540DD6F070B50190AD0
310
FDDDE0EEBAC428FD4136FD7B212B0100000000000000000000F0F77C015593AD5B220BCA400000000049454E44AE4260829E009C02AB882400670008AA1A09C01F803DB482842B007804B0C60D91CF2F9E2F7FB1C23DC1579225015C3F890CE05202B8F9242E001C5FF3827301006B5440D9FC87A325E680CBB4BF3A80E341
310
024800126BCED8DCCAFE0BC89323148B0004169DB1773E315BC236EF7D16429C74C0FC8810FAB822E4686C54F4D26BA9A9E2DD7790D975BD451A1FD53D220800A0797E05CB04E203000DE41FA502A8BD05F61574D1160836078CE58FF12DE253CECF072C2F70EA6F011040B1F60060AF8009C658FE140940F746886607B0F5
310
F2D84660BD1618B88A08D2027100640B8C5D0B2DBC0AC45A06BBF6C2581840B855A0358D18E98F251203406F1A612A80B202BAD38891FF580B500000D49D4988F37FAC813E72214627000A3582A5C338FE00598ED82311F33F3A0000000049454E44AE4260820F467818FD4AC64A010000000049454E44AE42608200187F52
310
539FF6AC0FF2D01229B97F7B56AE64E8787DBF9E93B283504D4929EEDB336DE133B927D0B706F146D8FDD54728002424931276690CDE5FFA471401522320E6FA719CDCC9E90D234F422DA512220CD4066298BF969A4028B717C4D481E25C1BC6C59A99842240E2F24B1F92F8AC20F021F00EFE737AFD0FDF7E00E9E9886BC5
310
1247A50000000049454E44AE426082
  0
ENDSEC
  0
EOF
