  0
SECTION
  2
HEADER
  9
$ACADVER
  1
AC1032
  9
$ACADMAINTVER
 90
      197
  9
$DWGCODEPAGE
  3
ANSI_1252
  9
$LASTSAVEDBY
  1
gregb
  9
$REQUIREDVERSIONS
160
                 0
  9
$INSBASE
 10
0.0
 20
0.0
 30
0.0
  9
$EXTMIN
 10
161249.3710533157
 20
105464.2649210896
 30
-0.0421403970740357
  9
$EXTMAX
 10
163817.8906230669
 20
107298.3381276029
 30
0.0280978851196778
  9
$LIMMIN
 10
0.0
 20
0.0
  9
$LIMMAX
 10
12.0
 20
9.0
  9
$ORTHOMODE
 70
     0
  9
$REGENMODE
 70
     1
  9
$FILLMODE
 70
     1
  9
$QTEXTMODE
 70
     0
  9
$MIRRTEXT
 70
     0
  9
$LTSCALE
 40
1.0
  9
$ATTMODE
 70
     1
  9
$TEXTSIZE
 40
0.2
  9
$TRACEWID
 40
0.05
  9
$TEXTSTYLE
  7
Standard
  9
$CLAYER
  8
freecads.com
  9
$CELTYPE
  6
ByLayer
  9
$CECOLOR
 62
   256
  9
$CELTSCALE
 40
1.0
  9
$DISPSILH
 70
     1
  9
$DIMSCALE
 40
1.0
  9
$DIMASZ
 40
0.18
  9
$DIMEXO
 40
0.0625
  9
$DIMDLI
 40
0.38
  9
$DIMRND
 40
0.0
  9
$DIMDLE
 40
0.0
  9
$DIMEXE
 40
0.18
  9
$DIMTP
 40
0.0
  9
$DIMTM
 40
0.0
  9
$DIMTXT
 40
0.18
  9
$DIMCEN
 40
0.09
  9
$DIMTSZ
 40
0.0
  9
$DIMTOL
 70
     0
  9
$DIMLIM
 70
     0
  9
$DIMTIH
 70
     1
  9
$DIMTOH
 70
     1
  9
$DIMSE1
 70
     0
  9
$DIMSE2
 70
     0
  9
$DIMTAD
 70
     0
  9
$DIMZIN
 70
     0
  9
$DIMBLK
  1

  9
$DIMASO
 70
     1
  9
$DIMSHO
 70
     1
  9
$DIMPOST
  1

  9
$DIMAPOST
  1

  9
$DIMALT
 70
     0
  9
$DIMALTD
 70
     2
  9
$DIMALTF
 40
25.4
  9
$DIMLFAC
 40
1.0
  9
$DIMTOFL
 70
     0
  9
$DIMTVP
 40
0.0
  9
$DIMTIX
 70
     0
  9
$DIMSOXD
 70
     0
  9
$DIMSAH
 70
     0
  9
$DIMBLK1
  1

  9
$DIMBLK2
  1

  9
$DIMSTYLE
  2
Standard
  9
$DIMCLRD
 70
     0
  9
$DIMCLRE
 70
     0
  9
$DIMCLRT
 70
     0
  9
$DIMTFAC
 40
1.0
  9
$DIMGAP
 40
0.09
  9
$DIMJUST
 70
     0
  9
$DIMSD1
 70
     0
  9
$DIMSD2
 70
     0
  9
$DIMTOLJ
 70
     1
  9
$DIMTZIN
 70
     0
  9
$DIMALTZ
 70
     0
  9
$DIMALTTZ
 70
     0
  9
$DIMUPT
 70
     0
  9
$DIMDEC
 70
     4
  9
$DIMTDEC
 70
     4
  9
$DIMALTU
 70
     2
  9
$DIMALTTD
 70
     2
  9
$DIMTXSTY
  7
Standard
  9
$DIMAUNIT
 70
     0
  9
$DIMADEC
 70
     0
  9
$DIMALTRND
 40
0.0
  9
$DIMAZIN
 70
     0
  9
$DIMDSEP
 70
    46
  9
$DIMATFIT
 70
     3
  9
$DIMFRAC
 70
     0
  9
$DIMLDRBLK
  1

  9
$DIMLUNIT
 70
     2
  9
$DIMLWD
 70
    -2
  9
$DIMLWE
 70
    -2
  9
$DIMTMOVE
 70
     0
  9
$DIMFXL
 40
1.0
  9
$DIMFXLON
 70
     0
  9
$DIMJOGANG
 40
0.7853981633974483
  9
$DIMTFILL
 70
     0
  9
$DIMTFILLCLR
 70
     0
  9
$DIMARCSYM
 70
     0
  9
$DIMLTYPE
  6

  9
$DIMLTEX1
  6

  9
$DIMLTEX2
  6

  9
$DIMTXTDIRECTION
 70
     0
  9
$LUNITS
 70
     2
  9
$LUPREC
 70
     4
  9
$SKETCHINC
 40
0.1
  9
$FILLETRAD
 40
0.0
  9
$AUNITS
 70
     0
  9
$AUPREC
 70
     0
  9
$MENU
  1
.
  9
$ELEVATION
 40
0.0
  9
$PELEVATION
 40
0.0
  9
$THICKNESS
 40
0.0
  9
$LIMCHECK
 70
     0
  9
$CHAMFERA
 40
0.0
  9
$CHAMFERB
 40
0.0
  9
$CHAMFERC
 40
0.0
  9
$CHAMFERD
 40
0.0
  9
$SKPOLY
 70
     0
  9
$TDCREATE
 40
2458157.454583334
  9
$TDUCREATE
 40
2458157.287916667
  9
$TDUPDATE
 40
2460668.827060186
  9
$TDUUPDATE
 40
2460668.660393519
  9
$TDINDWG
 40
0.2125925926
  9
$TDUSRTIMER
 40
0.2125925926
  9
$USRTIMER
 70
     1
  9
$ANGBASE
 50
0.0
  9
$ANGDIR
 70
     0
  9
$PDMODE
 70
     0
  9
$PDSIZE
 40
0.0
  9
$PLINEWID
 40
0.0
  9
$SPLFRAME
 70
     0
  9
$SPLINETYPE
 70
     6
  9
$SPLINESEGS
 70
     8
  9
$HANDSEED
  5
67412
  9
$SURFTAB1
 70
     6
  9
$SURFTAB2
 70
     6
  9
$SURFTYPE
 70
     6
  9
$SURFU
 70
     6
  9
$SURFV
 70
     6
  9
$UCSBASE
  2

  9
$UCSNAME
  2

  9
$UCSORG
 10
0.0
 20
0.0
 30
0.0
  9
$UCSXDIR
 10
1.0
 20
0.0
 30
0.0
  9
$UCSYDIR
 10
0.0
 20
1.0
 30
0.0
  9
$UCSORTHOREF
  2

  9
$UCSORTHOVIEW
 70
     0
  9
$UCSORGTOP
 10
0.0
 20
0.0
 30
0.0
  9
$UCSORGBOTTOM
 10
0.0
 20
0.0
 30
0.0
  9
$UCSORGLEFT
 10
0.0
 20
0.0
 30
0.0
  9
$UCSORGRIGHT
 10
0.0
 20
0.0
 30
0.0
  9
$UCSORGFRONT
 10
0.0
 20
0.0
 30
0.0
  9
$UCSORGBACK
 10
0.0
 20
0.0
 30
0.0
  9
$PUCSBASE
  2

  9
$PUCSNAME
  2

  9
$PUCSORG
 10
0.0
 20
0.0
 30
0.0
  9
$PUCSXDIR
 10
1.0
 20
0.0
 30
0.0
  9
$PUCSYDIR
 10
0.0
 20
1.0
 30
0.0
  9
$PUCSORTHOREF
  2

  9
$PUCSORTHOVIEW
 70
     0
  9
$PUCSORGTOP
 10
0.0
 20
0.0
 30
0.0
  9
$PUCSORGBOTTOM
 10
0.0
 20
0.0
 30
0.0
  9
$PUCSORGLEFT
 10
0.0
 20
0.0
 30
0.0
  9
$PUCSORGRIGHT
 10
0.0
 20
0.0
 30
0.0
  9
$PUCSORGFRONT
 10
0.0
 20
0.0
 30
0.0
  9
$PUCSORGBACK
 10
0.0
 20
0.0
 30
0.0
  9
$USERI1
 70
     0
  9
$USERI2
 70
     0
  9
$USERI3
 70
     0
  9
$USERI4
 70
     0
  9
$USERI5
 70
     0
  9
$USERR1
 40
0.0
  9
$USERR2
 40
0.0
  9
$USERR3
 40
0.0
  9
$USERR4
 40
0.0
  9
$USERR5
 40
0.0
  9
$WORLDVIEW
 70
     1
  9
$SHADEDGE
 70
     3
  9
$SHADEDIF
 70
    70
  9
$TILEMODE
 70
     1
  9
$MAXACTVP
 70
    64
  9
$PINSBASE
 10
0.0
 20
0.0
 30
0.0
  9
$PLIMCHECK
 70
     0
  9
$PEXTMIN
 10
0.0
 20
0.0
 30
0.0
  9
$PEXTMAX
 10
0.0
 20
0.0
 30
0.0
  9
$PLIMMIN
 10
0.0
 20
0.0
  9
$PLIMMAX
 10
12.0
 20
9.0
  9
$UNITMODE
 70
     0
  9
$VISRETAIN
 70
     1
  9
$PLINEGEN
 70
     0
  9
$PSLTSCALE
 70
     1
  9
$TREEDEPTH
 70
  3020
  9
$CMLSTYLE
  2
Standard
  9
$CMLJUST
 70
     0
  9
$CMLSCALE
 40
1.0
  9
$PROXYGRAPHICS
 70
     1
  9
$MEASUREMENT
 70
     0
  9
$CELWEIGHT
370
    -1
  9
$ENDCAPS
280
     0
  9
$JOINSTYLE
280
     0
  9
$LWDISPLAY
290
     0
  9
$INSUNITS
 70
     1
  9
$HYPERLINKBASE
  1

  9
$STYLESHEET
  1
monochrome.ctb
  9
$XEDIT
290
     1
  9
$CEPSNTYPE
380
     0
  9
$PSTYLEMODE
290
     1
  9
$FINGERPRINTGUID
  2
{358EB121-6EE0-9143-8A3E-6E8E8869FDA6}
  9
$VERSIONGUID
  2
{DE8638D7-9C29-DE41-8E6F-8A47BED3191D}
  9
$EXTNAMES
290
     1
  9
$PSVPSCALE
 40
0.0
  9
$OLESTARTUP
290
     0
  9
$SORTENTS
280
   127
  9
$INDEXCTL
280
     0
  9
$HIDETEXT
280
     1
  9
$XCLIPFRAME
280
     2
  9
$HALOGAP
280
     0
  9
$OBSCOLOR
 70
   257
  9
$OBSLTYPE
280
     0
  9
$INTERSECTIONDISPLAY
280
     0
  9
$INTERSECTIONCOLOR
 70
   257
  9
$DIMASSOC
280
     2
  9
$PROJECTNAME
  1

  9
$CAMERADISPLAY
290
     0
  9
$LENSLENGTH
 40
50.0
  9
$CAMERAHEIGHT
 40
0.0
  9
$STEPSPERSEC
 40
2.0
  9
$STEPSIZE
 40
6.0
  9
$3DDWFPREC
 40
2.0
  9
$PSOLWIDTH
 40
0.25
  9
$PSOLHEIGHT
 40
4.0
  9
$LOFTANG1
 40
1.570796326794896
  9
$LOFTANG2
 40
1.570796326794896
  9
$LOFTMAG1
 40
0.0
  9
$LOFTMAG2
 40
0.0
  9
$LOFTPARAM
 70
     7
  9
$LOFTNORMALS
280
     1
  9
$LATITUDE
 40
37.795
  9
$LONGITUDE
 40
-122.394
  9
$NORTHDIRECTION
 40
0.0
  9
$TIMEZONE
 70
 -8000
  9
$LIGHTGLYPHDISPLAY
280
     1
  9
$TILEMODELIGHTSYNCH
280
     1
  9
$CMATERIAL
347
96
  9
$SOLIDHIST
280
     0
  9
$SHOWHIST
280
     1
  9
$DWFFRAME
280
     2
  9
$DGNFRAME
280
     0
  9
$REALWORLDSCALE
290
     1
  9
$INTERFERECOLOR
 62
     1
  9
$INTERFEREOBJVS
345
A3
  9
$INTERFEREVPVS
346
A0
  9
$CSHADOW
280
     0
  9
$SHADOWPLANELOCATION
 40
0.0
  0
ENDSEC
  0
SECTION
  2
CLASSES
  0
CLASS
  1
ACDBDICTIONARYWDFLT
  2
AcDbDictionaryWithDefault
  3
ObjectDBX Classes
 90
        0
 91
        1
280
     0
281
     0
  0
CLASS
  1
DICTIONARYVAR
  2
AcDbDictionaryVar
  3
ObjectDBX Classes
 90
        0
 91
       27
280
     0
281
     0
  0
CLASS
  1
TABLESTYLE
  2
AcDbTableStyle
  3
ObjectDBX Classes
 90
     4095
 91
        1
280
     0
281
     0
  0
CLASS
  1
MATERIAL
  2
AcDbMaterial
  3
ObjectDBX Classes
 90
     1153
 91
        3
280
     0
281
     0
  0
CLASS
  1
VISUALSTYLE
  2
AcDbVisualStyle
  3
ObjectDBX Classes
 90
     4095
 91
       25
280
     0
281
     0
  0
CLASS
  1
SCALE
  2
AcDbScale
  3
ObjectDBX Classes
 90
     1153
 91
       34
280
     0
281
     0
  0
CLASS
  1
MLEADERSTYLE
  2
AcDbMLeaderStyle
  3
ACDB_MLEADERSTYLE_CLASS
 90
     4095
 91
        1
280
     0
281
     0
  0
CLASS
  1
CELLSTYLEMAP
  2
AcDbCellStyleMap
  3
ObjectDBX Classes
 90
     1152
 91
        1
280
     0
281
     0
  0
CLASS
  1
EXACXREFPANELOBJECT
  2
ExAcXREFPanelObject
  3
EXAC_ESW
 90
     1025
 91
        1
280
     0
281
     0
  0
CLASS
  1
NPOCOLLECTION
  2
AcDbImpNonPersistentObjectsCollection
  3
ObjectDBX Classes
 90
     1153
 91
        1
280
     0
281
     0
  0
CLASS
  1
LAYER_INDEX
  2
AcDbLayerIndex
  3
ObjectDBX Classes
 90
        0
 91
        0
280
     0
281
     0
  0
CLASS
  1
SPATIAL_INDEX
  2
AcDbSpatialIndex
  3
ObjectDBX Classes
 90
        0
 91
        0
280
     0
281
     0
  0
CLASS
  1
IDBUFFER
  2
AcDbIdBuffer
  3
ObjectDBX Classes
 90
        0
 91
        0
280
     0
281
     0
  0
CLASS
  1
ACDBSECTIONVIEWSTYLE
  2
AcDbSectionViewStyle
  3
ObjectDBX Classes
 90
     1025
 91
        2
280
     0
281
     0
  0
CLASS
  1
ACDBDETAILVIEWSTYLE
  2
AcDbDetailViewStyle
  3
ObjectDBX Classes
 90
     1025
 91
        2
280
     0
281
     0
  0
CLASS
  1
SORTENTSTABLE
  2
AcDbSortentsTable
  3
ObjectDBX Classes
 90
        0
 91
        1
280
     0
281
     0
  0
CLASS
  1
ACAD_EVALUATION_GRAPH
  2
AcDbEvalGraph
  3
ObjectDBX Classes
 90
     1153
 91
        0
280
     0
281
     0
  0
CLASS
  1
BLOCKLINEARPARAMETER
  2
AcDbBlockLinearParameter
  3
ObjectDBX Classes
 90
     1153
 91
        0
280
     0
281
     0
  0
CLASS
  1
BLOCKLINEARGRIP
  2
AcDbBlockLinearGrip
  3
ObjectDBX Classes
 90
     1153
 91
        0
280
     0
281
     0
  0
CLASS
  1
BLOCKGRIPLOCATIONCOMPONENT
  2
AcDbBlockGripExpr
  3
ObjectDBX Classes
 90
     1153
 91
        0
280
     0
281
     0
  0
CLASS
  1
BLOCKSTRETCHACTION
  2
AcDbBlockStretchAction
  3
ObjectDBX Classes
 90
     1153
 91
        0
280
     0
281
     0
  0
CLASS
  1
ACDB_DYNAMICBLOCKPURGEPREVENTER_VERSION
  2
AcDbDynamicBlockPurgePreventer
  3
ObjectDBX Classes
 90
     1153
 91
        0
280
     0
281
     0
  0
CLASS
  1
BLOCKVISIBILITYPARAMETER
  2
AcDbBlockVisibilityParameter
  3
ObjectDBX Classes
 90
     1153
 91
        0
280
     0
281
     0
  0
CLASS
  1
BLOCKVISIBILITYGRIP
  2
AcDbBlockVisibilityGrip
  3
ObjectDBX Classes
 90
     1153
 91
        0
280
     0
281
     0
  0
CLASS
  1
ACDB_BLOCKREPRESENTATION_DATA
  2
AcDbBlockRepresentationData
  3
ObjectDBX Classes
 90
     1153
 91
        0
280
     0
281
     0
  0
CLASS
  1
SURFACE
  2
AcDbSurface
  3
ObjectDBX Classes
 90
     4095
 91
        0
280
     0
281
     1
  0
CLASS
  1
ACDBASSOCPERSSUBENTMANAGER
  2
AcDbAssocPersSubentManager
  3
ObjectDBX Classes
 90
     1024
 91
        1
280
     0
281
     0
  0
CLASS
  1
BLOCKARRAYACTION
  2
AcDbBlockArrayAction
  3
ObjectDBX Classes
 90
     1153
 91
        0
280
     0
281
     0
  0
CLASS
  1
BLOCKLOOKUPPARAMETER
  2
AcDbBlockLookupParameter
  3
ObjectDBX Classes
 90
     1153
 91
        0
280
     0
281
     0
  0
CLASS
  1
BLOCKLOOKUPGRIP
  2
AcDbBlockLookupGrip
  3
ObjectDBX Classes
 90
     1153
 91
        0
280
     0
281
     0
  0
CLASS
  1
BLOCKLOOKUPACTION
  2
AcDbBlockLookupAction
  3
ObjectDBX Classes
 90
     1153
 91
        0
280
     0
281
     0
  0
CLASS
  1
WIPEOUT
  2
AcDbWipeout
  3
WipeOut|Product Desc: Object Enabler for WipeOut entity | Company: Autodesk, Inc. | WEB Address: www.autodesk.com
 90
     2175
 91
        0
280
     0
281
     1
  0
CLASS
  1
WIPEOUTVARIABLES
  2
AcDbWipeoutVariables
  3
"WipeOut|Product Desc:     WipeOut Dbx Application|Company:          Autodesk, Inc.|WEB Address:      www.autodesk.com"
 90
        0
 91
        1
280
     0
281
     0
  0
ENDSEC
  0
SECTION
  2
TABLES
  0
TABLE
  2
VPORT
  5
8
330
0
100
AcDbSymbolTable
 70
     1
  0
VPORT
  5
94
330
8
100
AcDbSymbolTableRecord
100
AcDbViewportTableRecord
  2
*Active
 70
     0
 10
0.0
 20
0.0
 11
1.0
 21
1.0
 12
163474.1332230028
 22
106529.401092178
 13
0.0
 23
0.0
 14
0.5
 24
0.5
 15
0.5
 25
0.5
 16
0.0
 26
0.0
 36
1.0
 17
0.0
 27
0.0
 37
0.0
 40
7631.381826410605
 41
2.293369663941871
 42
50.0
 43
0.0
 44
0.0
 50
0.0
 51
0.0
 71
     0
 72
  1000
 73
     1
 74
     3
 75
     0
 76
     0
 77
     0
 78
     0
281
     0
 65
     1
110
0.0
120
0.0
130
0.0
111
1.0
121
0.0
131
0.0
112
0.0
122
1.0
132
0.0
 79
     0
146
0.0
348
9F
 60
     3
 61
     5
292
     1
282
     1
141
0.0
142
0.0
 63
   250
421
  3355443
1001
ACAD_NAV_VCDISPLAY
1070
     3
  0
ENDTAB
  0
TABLE
  2
LTYPE
  5
5
330
0
100
AcDbSymbolTable
 70
     1
  0
LTYPE
  5
14
330
5
100
AcDbSymbolTableRecord
100
AcDbLinetypeTableRecord
  2
ByBlock
 70
     0
  3

 72
    65
 73
     0
 40
0.0
  0
LTYPE
  5
15
330
5
100
AcDbSymbolTableRecord
100
AcDbLinetypeTableRecord
  2
ByLayer
 70
     0
  3

 72
    65
 73
     0
 40
0.0
  0
LTYPE
  5
16
330
5
100
AcDbSymbolTableRecord
100
AcDbLinetypeTableRecord
  2
Continuous
 70
     0
  3
Solid line
 72
    65
 73
     0
 40
0.0
  0
ENDTAB
  0
TABLE
  2
LAYER
  5
2
102
{ACAD_XDICTIONARY
360
18E
102
}
330
0
100
AcDbSymbolTable
 70
     2
  0
LAYER
  5
10
102
{ACAD_XDICTIONARY
360
E6
102
}
330
2
100
AcDbSymbolTableRecord
100
AcDbLayerTableRecord
  2
0
 70
     0
 62
     7
  6
Continuous
370
    -3
390
F
347
98
348
0
  0
LAYER
  5
204
330
2
100
AcDbSymbolTableRecord
100
AcDbLayerTableRecord
  2
freecads.com
 70
     0
 62
     7
  6
Continuous
370
    -3
390
F
347
98
348
0
1001
AcAecLayerStandard
1000

1000

1001
AcCmTransparency
1071
        0
  0
ENDTAB
  0
TABLE
  2
STYLE
  5
3
330
0
100
AcDbSymbolTable
 70
     2
  0
STYLE
  5
11
330
3
100
AcDbSymbolTableRecord
100
AcDbTextStyleTableRecord
  2
Standard
 70
     0
 40
0.0
 41
1.0
 50
0.0
 71
     0
 42
0.2
  3
arial.ttf
  4

1001
ACAD
1000
Arial
1071
       34
  0
ENDTAB
  0
TABLE
  2
VIEW
  5
6
330
0
100
AcDbSymbolTable
 70
     0
  0
ENDTAB
  0
TABLE
  2
UCS
  5
7
330
0
100
AcDbSymbolTable
 70
     0
  0
ENDTAB
  0
TABLE
  2
APPID
  5
9
330
0
100
AcDbSymbolTable
 70
    31
  0
APPID
  5
12
330
9
100
AcDbSymbolTableRecord
100
AcDbRegAppTableRecord
  2
ACAD
 70
     0
  0
APPID
  5
DD
330
9
100
AcDbSymbolTableRecord
100
AcDbRegAppTableRecord
  2
AcadAnnoPO
 70
     0
  0
APPID
  5
DE
330
9
100
AcDbSymbolTableRecord
100
AcDbRegAppTableRecord
  2
AcadAnnotative
 70
     0
  0
APPID
  5
DF
330
9
100
AcDbSymbolTableRecord
100
AcDbRegAppTableRecord
  2
ACAD_DSTYLE_DIMJAG
 70
     0
  0
APPID
  5
E0
330
9
100
AcDbSymbolTableRecord
100
AcDbRegAppTableRecord
  2
ACAD_DSTYLE_DIMTALN
 70
     0
  0
APPID
  5
107
330
9
100
AcDbSymbolTableRecord
100
AcDbRegAppTableRecord
  2
ACAD_MLEADERVER
 70
     0
  0
APPID
  5
1A6
330
9
100
AcDbSymbolTableRecord
100
AcDbRegAppTableRecord
  2
ACAD_NAV_VCDISPLAY
 70
     0
  0
APPID
  5
205
330
9
100
AcDbSymbolTableRecord
100
AcDbRegAppTableRecord
  2
AcAecLayerStandard
 70
     0
  0
APPID
  5
206
330
9
100
AcDbSymbolTableRecord
100
AcDbRegAppTableRecord
  2
AcCmTransparency
 70
     0
  0
APPID
  5
222
330
9
100
AcDbSymbolTableRecord
100
AcDbRegAppTableRecord
  2
ACAD_PSEXT
 70
     0
  0
APPID
  5
2DA
330
9
100
AcDbSymbolTableRecord
100
AcDbRegAppTableRecord
  2
GradientColor1ACI
 70
     0
  0
APPID
  5
2DB
330
9
100
AcDbSymbolTableRecord
100
AcDbRegAppTableRecord
  2
GradientColor2ACI
 70
     0
  0
APPID
  5
2F3
330
9
100
AcDbSymbolTableRecord
100
AcDbRegAppTableRecord
  2
ACAD_EXEMPT_FROM_CAD_STANDARDS
 70
     0
  0
APPID
  5
A1A
330
9
100
AcDbSymbolTableRecord
100
AcDbRegAppTableRecord
  2
AcDbBlockRepETag
 70
     0
  0
APPID
  5
2282
330
9
100
AcDbSymbolTableRecord
100
AcDbRegAppTableRecord
  2
RAK
 70
     0
  0
APPID
  5
39F4
330
9
100
AcDbSymbolTableRecord
100
AcDbRegAppTableRecord
  2
ACAD_DSTYLE_DIMJOGGED_JOGANGLE_SYMBOL
 70
     0
  0
APPID
  5
39F5
330
9
100
AcDbSymbolTableRecord
100
AcDbRegAppTableRecord
  2
AcDbDynamicBlockGUID
 70
     0
  0
APPID
  5
39F6
330
9
100
AcDbSymbolTableRecord
100
AcDbRegAppTableRecord
  2
ACAD_DSTYLE_DIMBREAK
 70
     0
  0
APPID
  5
3B59
330
9
100
AcDbSymbolTableRecord
100
AcDbRegAppTableRecord
  2
AEC_XDATA_BOUND_SPACE
 70
     0
  0
APPID
  5
75C5
330
9
100
AcDbSymbolTableRecord
100
AcDbRegAppTableRecord
  2
AcDbDynamicBlockTrueName
 70
     0
  0
APPID
  5
75C6
330
9
100
AcDbSymbolTableRecord
100
AcDbRegAppTableRecord
  2
AcDbBlockRepBTag
 70
     0
  0
APPID
  5
75C7
330
9
100
AcDbSymbolTableRecord
100
AcDbRegAppTableRecord
  2
ACAUTHENVIRON
 70
     0
  0
APPID
  5
AA90
330
9
100
AcDbSymbolTableRecord
100
AcDbRegAppTableRecord
  2
Acad_TC
 70
     0
  0
APPID
  5
AA9C
330
9
100
AcDbSymbolTableRecord
100
AcDbRegAppTableRecord
  2
AcDbBlockArrayActionTag
 70
     0
  0
APPID
  5
BEE4
330
9
100
AcDbSymbolTableRecord
100
AcDbRegAppTableRecord
  2
ACAD_DSTYLE_DIMTEXT_FILL
 70
     0
  0
APPID
  5
219E5
330
9
100
AcDbSymbolTableRecord
100
AcDbRegAppTableRecord
  2
AECLAY
 70
     0
  0
APPID
  5
26B46
330
9
100
AcDbSymbolTableRecord
100
AcDbRegAppTableRecord
  2
REVIT
 70
     0
  0
APPID
  5
280A5
330
9
100
AcDbSymbolTableRecord
100
AcDbRegAppTableRecord
  2
HATCHBACKGROUNDCOLOR
 70
     0
  0
APPID
  5
29EE0
330
9
100
AcDbSymbolTableRecord
100
AcDbRegAppTableRecord
  2
ACAD_STEPID
 70
     0
  0
APPID
  5
29EE1
330
9
100
AcDbSymbolTableRecord
100
AcDbRegAppTableRecord
  2
AcLayerTools
 70
     0
  0
APPID
  5
4D86C
330
9
100
AcDbSymbolTableRecord
100
AcDbRegAppTableRecord
  2
PE_URL
 70
     0
  0
ENDTAB
  0
TABLE
  2
DIMSTYLE
  5
A
330
0
100
AcDbSymbolTable
 70
     2
100
AcDbDimStyleTable
 71
     1
340
27
  0
DIMSTYLE
105
27
330
A
100
AcDbSymbolTableRecord
100
AcDbDimStyleTableRecord
  2
Standard
 70
     0
340
11
  0
ENDTAB
  0
TABLE
  2
BLOCK_RECORD
  5
1
330
0
100
AcDbSymbolTable
 70
     2
  0
BLOCK_RECORD
  5
1F
102
{ACAD_XDICTIONARY
360
15D
102
}
330
1
100
AcDbSymbolTableRecord
100
AcDbBlockTableRecord
  2
*Model_Space
340
22
 70
     0
280
     1
281
     0
  0
BLOCK_RECORD
  5
58
330
1
100
AcDbSymbolTableRecord
100
AcDbBlockTableRecord
  2
*Paper_Space
340
59
 70
     0
280
     1
281
     0
  0
BLOCK_RECORD
  5
5D
330
1
100
AcDbSymbolTableRecord
100
AcDbBlockTableRecord
  2
*Paper_Space0
340
5E
 70
     0
280
     1
281
     0
  0
ENDTAB
  0
ENDSEC
  0
SECTION
  2
BLOCKS
  0
BLOCK
  5
20
330
1F
100
AcDbEntity
  8
0
100
AcDbBlockBegin
  2
*Model_Space
 70
     0
 10
0.0
 20
0.0
 30
0.0
  3
*Model_Space
  1

  0
ENDBLK
  5
21
330
1F
100
AcDbEntity
  8
0
100
AcDbBlockEnd
  0
BLOCK
  5
5A
330
58
100
AcDbEntity
 67
     1
  8
0
100
AcDbBlockBegin
  2
*Paper_Space
 70
     0
 10
0.0
 20
0.0
 30
0.0
  3
*Paper_Space
  1

  0
ENDBLK
  5
5B
330
58
100
AcDbEntity
 67
     1
  8
0
100
AcDbBlockEnd
  0
BLOCK
  5
5F
330
5D
100
AcDbEntity
 67
     1
  8
0
100
AcDbBlockBegin
  2
*Paper_Space0
 70
     0
 10
0.0
 20
0.0
 30
0.0
  3
*Paper_Space0
  1

  0
ENDBLK
  5
60
330
5D
100
AcDbEntity
 67
     1
  8
0
100
AcDbBlockEnd
  0
ENDSEC
  0
SECTION
  2
ENTITIES
  0
LINE
  5
63622
330
1F
100
AcDbEntity
  8
freecads.com
100
AcDbLine
 10
163070.3866952657
 20
107246.619644097
 30
0.0
 11
163059.423880009
 21
107230.1866130195
 31
0.0
  0
LINE
  5
63623
330
1F
100
AcDbEntity
  8
freecads.com
100
AcDbLine
 10
163059.423880009
 20
107230.1866130195
 30
0.0
 11
163047.0898027159
 21
107205.5377800764
 31
0.0
  0
LINE
  5
63624
330
1F
100
AcDbEntity
  8
freecads.com
100
AcDbLine
 10
163047.0898027159
 20
107205.5377800764
 30
0.0
 11
163036.1245604465
 21
107200.0610546146
 31
0.0
  0
LINE
  5
63625
330
1F
100
AcDbEntity
  8
freecads.com
100
AcDbLine
 10
163036.1245604465
 20
107200.0610546146
 30
0.0
 11
163025.1617451897
 21
107200.0610546146
 31
0.0
  0
LINE
  5
63626
330
1F
100
AcDbEntity
  8
freecads.com
100
AcDbLine
 10
163025.1617451897
 20
107200.0610546146
 30
0.0
 11
163021.0503860926
 21
107200.0610546146
 31
0.0
  0
LINE
  5
63627
330
1F
100
AcDbEntity
  8
freecads.com
100
AcDbLine
 10
163021.0503860926
 20
107200.0610546146
 30
0.0
 11
163015.570191971
 21
107190.4750008739
 31
0.0
  0
LINE
  5
63628
330
1F
100
AcDbEntity
  8
freecads.com
100
AcDbLine
 10
163015.570191971
 20
107190.4750008739
 30
0.0
 11
163011.458832873
 21
107178.1498707295
 31
0.0
  0
LINE
  5
63629
330
1F
100
AcDbEntity
  8
freecads.com
100
AcDbLine
 10
163011.458832873
 20
107178.1498707295
 30
0.0
 11
163012.8276678975
 21
107156.24011419
 31
0.0
  0
LINE
  5
6362A
330
1F
100
AcDbEntity
  8
freecads.com
100
AcDbLine
 10
163012.8276678975
 20
107156.24011419
 30
0.0
 11
163004.6049497016
 21
107131.5912812467
 31
0.0
  0
LINE
  5
6362B
330
1F
100
AcDbEntity
  8
freecads.com
100
AcDbLine
 10
163004.6049497016
 20
107131.5912812467
 30
0.0
 11
162988.1619403241
 21
107123.3754793808
 31
0.0
  0
LINE
  5
6362C
330
1F
100
AcDbEntity
  8
freecads.com
100
AcDbLine
 10
162988.1619403241
 20
107123.3754793808
 30
0.0
 11
162944.3082522861
 21
107117.8973265731
 31
0.0
  0
LINE
  5
6362D
330
1F
100
AcDbEntity
  8
freecads.com
100
AcDbLine
 10
162944.3082522861
 20
107117.8973265731
 30
0.0
 11
162899.0833022101
 21
107120.6364029769
 31
0.0
  0
LINE
  5
6362E
330
1F
100
AcDbEntity
  8
freecads.com
100
AcDbLine
 10
162899.0833022101
 20
107120.6364029769
 30
0.0
 11
162879.8977687601
 21
107138.4382585833
 31
0.0
  0
LINE
  5
6362F
330
1F
100
AcDbEntity
  8
freecads.com
100
AcDbLine
 10
162879.8977687601
 20
107138.4382585833
 30
0.0
 11
162866.1924294299
 21
107158.9791905939
 31
0.0
  0
LINE
  5
63630
330
1F
100
AcDbEntity
  8
freecads.com
100
AcDbLine
 10
162866.1924294299
 20
107158.9791905939
 30
0.0
 11
162873.0463126013
 21
107195.9517263358
 31
0.0
  0
LINE
  5
63631
330
1F
100
AcDbEntity
  8
freecads.com
100
AcDbLine
 10
162873.0463126013
 20
107195.9517263358
 30
0.0
 11
162884.0091278581
 21
107228.8177884907
 31
0.0
  0
LINE
  5
63632
330
1F
100
AcDbEntity
  8
freecads.com
100
AcDbLine
 10
162884.0091278581
 20
107228.8177884907
 30
0.0
 11
162897.7120401738
 21
107258.9433468958
 31
0.0
  0
LINE
  5
63633
330
1F
100
AcDbEntity
  8
freecads.com
100
AcDbLine
 10
162897.7120401738
 20
107258.9433468958
 30
0.0
 11
162925.1227188343
 21
107286.331256243
 31
0.0
  0
LINE
  5
63634
330
1F
100
AcDbEntity
  8
freecads.com
100
AcDbLine
 10
162925.1227188343
 20
107286.331256243
 30
0.0
 11
162948.4196113842
 21
107297.2861345128
 31
0.0
  0
LINE
  5
63635
330
1F
100
AcDbEntity
  8
freecads.com
100
AcDbLine
 10
162948.4196113842
 20
107297.2861345128
 30
0.0
 11
162975.8278630301
 21
107297.2861345128
 31
0.0
  0
LINE
  5
63636
330
1F
100
AcDbEntity
  8
freecads.com
100
AcDbLine
 10
162975.8278630301
 20
107297.2861345128
 30
0.0
 11
163008.7163087996
 21
107287.7015081177
 31
0.0
  0
LINE
  5
63637
330
1F
100
AcDbEntity
  8
freecads.com
100
AcDbLine
 10
163008.7163087996
 20
107287.7015081177
 30
0.0
 11
163036.1245604465
 21
107275.3763779735
 31
0.0
  0
LINE
  5
63638
330
1F
100
AcDbEntity
  8
freecads.com
100
AcDbLine
 10
163036.1245604465
 20
107275.3763779735
 30
0.0
 11
163048.4586377405
 21
107263.0526751747
 31
0.0
  0
LINE
  5
63639
330
1F
100
AcDbEntity
  8
freecads.com
100
AcDbLine
 10
163048.4586377405
 20
107263.0526751747
 30
0.0
 11
163056.6813559355
 21
107257.5745223669
 31
0.0
  0
LINE
  5
6363A
330
1F
100
AcDbEntity
  8
freecads.com
100
AcDbLine
 10
163056.6813559355
 20
107257.5745223669
 30
0.0
 11
163070.3866952657
 21
107246.619644097
 31
0.0
  0
LINE
  5
6363B
330
1F
100
AcDbEntity
  8
freecads.com
100
AcDbLine
 10
162963.493785738
 20
107183.628023537
 30
0.0
 11
162951.159708444
 21
107171.3028933927
 31
0.0
  0
LINE
  5
6363C
330
1F
100
AcDbEntity
  8
freecads.com
100
AcDbLine
 10
162951.159708444
 20
107171.3028933927
 30
0.0
 11
162936.0855340911
 21
107156.24011419
 31
0.0
  0
LINE
  5
6363D
330
1F
100
AcDbEntity
  8
freecads.com
100
AcDbLine
 10
162936.0855340911
 20
107156.24011419
 30
0.0
 11
162931.9741749931
 21
107154.8712896608
 31
0.0
  0
LINE
  5
6363E
330
1F
100
AcDbEntity
  8
freecads.com
100
AcDbLine
 10
162931.9741749931
 20
107154.8712896608
 30
0.0
 11
162912.7886415403
 21
107154.8712896608
 31
0.0
  0
LINE
  5
6363F
330
1F
100
AcDbEntity
  8
freecads.com
100
AcDbLine
 10
162912.7886415403
 20
107154.8712896608
 30
0.0
 11
162886.7492249179
 21
107163.0870915268
 31
0.0
  0
LINE
  5
63640
330
1F
100
AcDbEntity
  8
freecads.com
100
AcDbLine
 10
162886.7492249179
 20
107163.0870915268
 30
0.0
 11
162884.0091278581
 21
107195.9517263358
 31
0.0
  0
LINE
  5
63641
330
1F
100
AcDbEntity
  8
freecads.com
100
AcDbLine
 10
162884.0091278581
 20
107195.9517263358
 30
0.0
 11
162892.2318460522
 21
107227.4475366159
 31
0.0
  0
LINE
  5
63642
330
1F
100
AcDbEntity
  8
freecads.com
100
AcDbLine
 10
162892.2318460522
 20
107227.4475366159
 30
0.0
 11
162919.6400976991
 21
107247.9884686263
 31
0.0
  0
LINE
  5
63643
330
1F
100
AcDbEntity
  8
freecads.com
100
AcDbLine
 10
162919.6400976991
 20
107247.9884686263
 30
0.0
 11
162937.4543691156
 21
107260.3135987707
 31
0.0
  0
LINE
  5
63644
330
1F
100
AcDbEntity
  8
freecads.com
100
AcDbLine
 10
162937.4543691156
 20
107260.3135987707
 30
0.0
 11
162948.4196113842
 21
107271.2684770403
 31
0.0
  0
LINE
  5
63645
330
1F
100
AcDbEntity
  8
freecads.com
100
AcDbLine
 10
162948.4196113842
 20
107271.2684770403
 30
0.0
 11
162962.1225237008
 21
107280.8545307809
 31
0.0
  0
LINE
  5
63646
330
1F
100
AcDbEntity
  8
freecads.com
100
AcDbLine
 10
162962.1225237008
 20
107280.8545307809
 30
0.0
 11
162984.0505812261
 21
107282.2233553101
 31
0.0
  0
LINE
  5
63647
330
1F
100
AcDbEntity
  8
freecads.com
100
AcDbLine
 10
162984.0505812261
 20
107282.2233553101
 30
0.0
 11
162995.0133964829
 21
107280.8545307809
 31
0.0
  0
LINE
  5
63648
330
1F
100
AcDbEntity
  8
freecads.com
100
AcDbLine
 10
162995.0133964829
 20
107280.8545307809
 30
0.0
 11
162989.5307753486
 21
107265.7903242329
 31
0.0
  0
LINE
  5
63649
330
1F
100
AcDbEntity
  8
freecads.com
100
AcDbLine
 10
162989.5307753486
 20
107265.7903242329
 30
0.0
 11
162984.0505812261
 21
107256.2056978376
 31
0.0
  0
LINE
  5
6364A
330
1F
100
AcDbEntity
  8
freecads.com
100
AcDbLine
 10
162984.0505812261
 20
107256.2056978376
 30
0.0
 11
162989.5307753486
 21
107252.0963695592
 31
0.0
  0
LINE
  5
6364B
330
1F
100
AcDbEntity
  8
freecads.com
100
AcDbLine
 10
162989.5307753486
 20
107252.0963695592
 30
0.0
 11
163015.570191971
 21
107269.8996525113
 31
0.0
  0
LINE
  5
6364C
330
1F
100
AcDbEntity
  8
freecads.com
100
AcDbLine
 10
163015.570191971
 20
107269.8996525113
 30
0.0
 11
163032.0132013494
 21
107258.9433468958
 31
0.0
  0
LINE
  5
6364D
330
1F
100
AcDbEntity
  8
freecads.com
100
AcDbLine
 10
163032.0132013494
 20
107258.9433468958
 30
0.0
 11
163041.6071815817
 21
107253.4666214342
 31
0.0
  0
LINE
  5
6364E
330
1F
100
AcDbEntity
  8
freecads.com
100
AcDbLine
 10
163041.6071815817
 20
107253.4666214342
 30
0.0
 11
163045.7185406787
 21
107246.619644097
 31
0.0
  0
LINE
  5
6364F
330
1F
100
AcDbEntity
  8
freecads.com
100
AcDbLine
 10
163045.7185406787
 20
107246.619644097
 30
0.0
 11
163048.4586377405
 21
107237.0335903565
 31
0.0
  0
LINE
  5
63650
330
1F
100
AcDbEntity
  8
freecads.com
100
AcDbLine
 10
163048.4586377405
 20
107237.0335903565
 30
0.0
 11
163045.7185406787
 21
107228.8177884907
 31
0.0
  0
LINE
  5
63651
330
1F
100
AcDbEntity
  8
freecads.com
100
AcDbLine
 10
163006.8002975108
 20
107057.9180763495
 30
0.0
 11
162967.6051448351
 21
107054.9057060131
 31
0.0
  0
LINE
  5
63652
330
1F
100
AcDbEntity
  8
freecads.com
100
AcDbLine
 10
162967.6051448351
 20
107054.9057060131
 30
0.0
 11
162907.3060204061
 21
107054.9057060131
 31
0.0
  0
LINE
  5
63653
330
1F
100
AcDbEntity
  8
freecads.com
100
AcDbLine
 10
162907.3060204061
 20
107054.9057060131
 30
0.0
 11
162888.1204869551
 21
107057.6447824169
 31
0.0
  0
LINE
  5
63654
330
1F
100
AcDbEntity
  8
freecads.com
100
AcDbLine
 10
162888.1204869551
 20
107057.6447824169
 30
0.0
 11
162899.0833022101
 21
107065.8605842826
 31
0.0
  0
LINE
  5
63655
330
1F
100
AcDbEntity
  8
freecads.com
100
AcDbLine
 10
162899.0833022101
 20
107065.8605842826
 30
0.0
 11
162901.8233992718
 21
107075.4466380232
 31
0.0
  0
LINE
  5
63656
330
1F
100
AcDbEntity
  8
freecads.com
100
AcDbLine
 10
162901.8233992718
 20
107075.4466380232
 30
0.0
 11
162910.0461174669
 21
107095.9875700339
 31
0.0
  0
LINE
  5
63657
330
1F
100
AcDbEntity
  8
freecads.com
100
AcDbLine
 10
162910.0461174669
 20
107095.9875700339
 30
0.0
 11
162908.4769309899
 21
107120.0674721789
 31
0.0
  0
LINE
  5
63658
330
1F
100
AcDbEntity
  8
freecads.com
100
AcDbLine
 10
162938.8256311519
 20
106919.3364111521
 30
0.0
 11
162973.0853389567
 21
106868.6684933906
 31
0.0
  0
LINE
  5
63659
330
1F
100
AcDbEntity
  8
freecads.com
100
AcDbLine
 10
162973.0853389567
 20
106868.6684933906
 30
0.0
 11
163003.236114678
 21
106848.1289887263
 31
0.0
  0
LINE
  5
6365A
330
1F
100
AcDbEntity
  8
freecads.com
100
AcDbLine
 10
163003.236114678
 20
106848.1289887263
 30
0.0
 11
163015.570191971
 21
106824.8489803122
 31
0.0
  0
LINE
  5
6365B
330
1F
100
AcDbEntity
  8
freecads.com
100
AcDbLine
 10
163015.570191971
 20
106824.8489803122
 30
0.0
 11
163025.1617451897
 21
106813.8941020424
 31
0.0
  0
LINE
  5
6365C
330
1F
100
AcDbEntity
  8
freecads.com
100
AcDbLine
 10
162929.2316509197
 20
106890.5796772759
 30
0.0
 11
162938.8256311519
 21
106852.2368896592
 31
0.0
  0
LINE
  5
6365D
330
1F
100
AcDbEntity
  8
freecads.com
100
AcDbLine
 10
162938.8256311519
 20
106852.2368896592
 30
0.0
 11
162964.8626207616
 21
106830.3257057739
 31
0.0
  0
LINE
  5
6365E
330
1F
100
AcDbEntity
  8
freecads.com
100
AcDbLine
 10
162964.8626207616
 20
106830.3257057739
 30
0.0
 11
162985.4194162507
 21
106820.7410793791
 31
0.0
  0
LINE
  5
6365F
330
1F
100
AcDbEntity
  8
freecads.com
100
AcDbLine
 10
162985.4194162507
 20
106820.7410793791
 30
0.0
 11
162999.1247555809
 21
106811.1550256385
 31
0.0
  0
LINE
  5
63660
330
1F
100
AcDbEntity
  8
freecads.com
100
AcDbLine
 10
162999.1247555809
 20
106811.1550256385
 30
0.0
 11
163014.1989299338
 21
106800.2001473689
 31
0.0
  0
LINE
  5
63661
330
1F
100
AcDbEntity
  8
freecads.com
100
AcDbLine
 10
163014.1989299338
 20
106800.2001473689
 30
0.0
 11
163018.3102890318
 21
106791.9829181571
 31
0.0
  0
LINE
  5
63662
330
1F
100
AcDbEntity
  8
freecads.com
100
AcDbLine
 10
162930.6029129559
 20
106738.5773513376
 30
0.0
 11
162931.9741749931
 21
106791.9829181571
 31
0.0
  0
LINE
  5
63663
330
1F
100
AcDbEntity
  8
freecads.com
100
AcDbLine
 10
162931.9741749931
 20
106791.9829181571
 30
0.0
 11
162925.1227188343
 21
106819.3708275043
 31
0.0
  0
LINE
  5
63664
330
1F
100
AcDbEntity
  8
freecads.com
100
AcDbLine
 10
162925.1227188343
 20
106819.3708275043
 30
0.0
 11
162971.7165039321
 21
106775.5513144256
 31
0.0
  0
LINE
  5
63665
330
1F
100
AcDbEntity
  8
freecads.com
100
AcDbLine
 10
162971.7165039321
 20
106775.5513144256
 30
0.0
 11
162990.9020373849
 21
106756.3792069442
 31
0.0
  0
LINE
  5
63666
330
1F
100
AcDbEntity
  8
freecads.com
100
AcDbLine
 10
162990.9020373849
 20
106756.3792069442
 30
0.0
 11
163011.458832873
 21
106742.6852522705
 31
0.0
  0
LINE
  5
63667
330
1F
100
AcDbEntity
  8
freecads.com
100
AcDbLine
 10
163011.458832873
 20
106742.6852522705
 30
0.0
 11
163022.4216481298
 21
106739.9476032125
 31
0.0
  0
LINE
  5
63668
330
1F
100
AcDbEntity
  8
freecads.com
100
AcDbLine
 10
162789.4502956225
 20
106907.0112810079
 30
0.0
 11
162801.7843729155
 21
106864.560592458
 31
0.0
  0
LINE
  5
63669
330
1F
100
AcDbEntity
  8
freecads.com
100
AcDbLine
 10
162801.7843729155
 20
106864.560592458
 30
0.0
 11
162808.6358290743
 21
106826.2178048412
 31
0.0
  0
LINE
  5
6366A
330
1F
100
AcDbEntity
  8
freecads.com
100
AcDbLine
 10
162808.6358290743
 20
106826.2178048412
 30
0.0
 11
162816.8585472703
 21
106785.1373681662
 31
0.0
  0
LINE
  5
6366B
330
1F
100
AcDbEntity
  8
freecads.com
100
AcDbLine
 10
162816.8585472703
 20
106785.1373681662
 30
0.0
 11
162810.0070911115
 21
106752.2713060111
 31
0.0
  0
LINE
  5
6366C
330
1F
100
AcDbEntity
  8
freecads.com
100
AcDbLine
 10
162810.0070911115
 20
106752.2713060111
 30
0.0
 11
162810.0070911115
 21
106719.4066712021
 31
0.0
  0
LINE
  5
6366D
330
1F
100
AcDbEntity
  8
freecads.com
100
AcDbLine
 10
162810.0070911115
 20
106719.4066712021
 30
0.0
 11
162823.7100034281
 21
106704.3424646538
 31
0.0
  0
LINE
  5
6366E
330
1F
100
AcDbEntity
  8
freecads.com
100
AcDbLine
 10
162823.7100034281
 20
106704.3424646538
 30
0.0
 11
162836.0440807203
 21
106697.4954873171
 31
0.0
  0
LINE
  5
6366F
330
1F
100
AcDbEntity
  8
freecads.com
100
AcDbLine
 10
162836.0440807203
 20
106697.4954873171
 30
0.0
 11
162868.9349535033
 21
106690.6485099802
 31
0.0
  0
LINE
  5
63670
330
1F
100
AcDbEntity
  8
freecads.com
100
AcDbLine
 10
162868.9349535033
 20
106690.6485099802
 30
0.0
 11
162901.8233992718
 21
106692.0187618549
 31
0.0
  0
LINE
  5
63671
330
1F
100
AcDbEntity
  8
freecads.com
100
AcDbLine
 10
162901.8233992718
 20
106692.0187618549
 30
0.0
 11
162929.2316509197
 21
106701.6048155955
 31
0.0
  0
LINE
  5
63672
330
1F
100
AcDbEntity
  8
freecads.com
100
AcDbLine
 10
162929.2316509197
 20
106701.6048155955
 30
0.0
 11
162970.3452418959
 21
106705.7127165287
 31
0.0
  0
LINE
  5
63673
330
1F
100
AcDbEntity
  8
freecads.com
100
AcDbLine
 10
162970.3452418959
 20
106705.7127165287
 30
0.0
 11
163032.0132013494
 21
106702.9736401248
 31
0.0
  0
LINE
  5
63674
330
1F
100
AcDbEntity
  8
freecads.com
100
AcDbLine
 10
163032.0132013494
 20
106702.9736401248
 30
0.0
 11
163045.7185406787
 21
106697.4954873171
 31
0.0
  0
LINE
  5
63675
330
1F
100
AcDbEntity
  8
freecads.com
100
AcDbLine
 10
163045.7185406787
 20
106697.4954873171
 30
0.0
 11
163048.4586377405
 21
106701.6048155955
 31
0.0
  0
LINE
  5
63676
330
1F
100
AcDbEntity
  8
freecads.com
100
AcDbLine
 10
163048.4586377405
 20
106701.6048155955
 30
0.0
 11
163044.3472786424
 21
106726.2536485388
 31
0.0
  0
LINE
  5
63677
330
1F
100
AcDbEntity
  8
freecads.com
100
AcDbLine
 10
163044.3472786424
 20
106726.2536485388
 30
0.0
 11
163038.8670845199
 21
106790.6140936281
 31
0.0
  0
LINE
  5
63678
330
1F
100
AcDbEntity
  8
freecads.com
100
AcDbLine
 10
163038.8670845199
 20
106790.6140936281
 30
0.0
 11
163038.8670845199
 21
106807.0471247055
 31
0.0
  0
LINE
  5
63679
330
1F
100
AcDbEntity
  8
freecads.com
100
AcDbLine
 10
163038.8670845199
 20
106807.0471247055
 30
0.0
 11
163027.9042692641
 21
106833.0647821778
 31
0.0
  0
LINE
  5
6367A
330
1F
100
AcDbEntity
  8
freecads.com
100
AcDbLine
 10
163027.9042692641
 20
106833.0647821778
 30
0.0
 11
163019.681551069
 21
106850.8666377845
 31
0.0
  0
LINE
  5
6367B
330
1F
100
AcDbEntity
  8
freecads.com
100
AcDbLine
 10
162867.5661184788
 20
106536.061260974
 30
0.0
 11
162877.1576716984
 21
106505.934275223
 31
0.0
  0
LINE
  5
6367C
330
1F
100
AcDbEntity
  8
freecads.com
100
AcDbLine
 10
162877.1576716984
 20
106505.934275223
 30
0.0
 11
162896.3432051502
 21
106447.0505555959
 31
0.0
  0
LINE
  5
6367D
330
1F
100
AcDbEntity
  8
freecads.com
100
AcDbLine
 10
162896.3432051502
 20
106447.0505555959
 30
0.0
 11
162931.9741749931
 21
106371.5982070495
 31
0.0
  0
LINE
  5
6367E
330
1F
100
AcDbEntity
  8
freecads.com
100
AcDbLine
 10
162931.9741749931
 20
106371.5982070495
 30
0.0
 11
162964.8650477743
 21
106301.8952069944
 31
0.0
  0
LINE
  5
6367F
330
1F
100
AcDbEntity
  8
freecads.com
100
AcDbLine
 10
162964.8650477743
 20
106301.8952069944
 30
0.0
 11
162977.1991250673
 21
106285.462175917
 31
0.0
  0
LINE
  5
63680
330
1F
100
AcDbEntity
  8
freecads.com
100
AcDbLine
 10
162977.1991250673
 20
106285.462175917
 30
0.0
 11
162977.1991250673
 21
106251.2272892331
 31
0.0
  0
LINE
  5
63681
330
1F
100
AcDbEntity
  8
freecads.com
100
AcDbLine
 10
162977.1991250673
 20
106251.2272892331
 30
0.0
 11
162988.1619403241
 21
106208.7766006832
 31
0.0
  0
LINE
  5
63682
330
1F
100
AcDbEntity
  8
freecads.com
100
AcDbLine
 10
162988.1619403241
 20
106208.7766006832
 30
0.0
 11
163008.7187358132
 21
106169.0649885374
 31
0.0
  0
LINE
  5
63683
330
1F
100
AcDbEntity
  8
freecads.com
100
AcDbLine
 10
163008.7187358132
 20
106169.0649885374
 30
0.0
 11
163005.9786387514
 21
106154.0007819892
 31
0.0
  0
LINE
  5
63684
330
1F
100
AcDbEntity
  8
freecads.com
100
AcDbLine
 10
163005.9786387514
 20
106154.0007819892
 30
0.0
 11
162999.1271825926
 21
106110.1812689103
 31
0.0
  0
LINE
  5
63685
330
1F
100
AcDbEntity
  8
freecads.com
100
AcDbLine
 10
162999.1271825926
 20
106110.1812689103
 30
0.0
 11
162995.0158234946
 21
106040.3412436677
 31
0.0
  0
LINE
  5
63686
330
1F
100
AcDbEntity
  8
freecads.com
100
AcDbLine
 10
162995.0158234946
 20
106040.3412436677
 30
0.0
 11
162999.1271825926
 21
105963.2488749087
 31
0.0
  0
LINE
  5
63687
330
1F
100
AcDbEntity
  8
freecads.com
100
AcDbLine
 10
162999.1271825926
 20
105963.2488749087
 30
0.0
 11
163001.8672796534
 21
105930.3842400997
 31
0.0
  0
LINE
  5
63688
330
1F
100
AcDbEntity
  8
freecads.com
100
AcDbLine
 10
163001.8672796534
 20
105930.3842400997
 30
0.0
 11
163012.8300949102
 21
105912.5823844931
 31
0.0
  0
LINE
  5
63689
330
1F
100
AcDbEntity
  8
freecads.com
100
AcDbLine
 10
163012.8300949102
 20
105912.5823844931
 30
0.0
 11
163014.2013569474
 21
105890.671200608
 31
0.0
  0
LINE
  5
6368A
330
1F
100
AcDbEntity
  8
freecads.com
100
AcDbLine
 10
163014.2013569474
 20
105890.671200608
 30
0.0
 11
163027.9042692641
 21
105883.8242232713
 31
0.0
  0
LINE
  5
6368B
330
1F
100
AcDbEntity
  8
freecads.com
100
AcDbLine
 10
163027.9042692641
 20
105883.8242232713
 30
0.0
 11
163067.646598205
 21
105882.4553987421
 31
0.0
  0
LINE
  5
6368C
330
1F
100
AcDbEntity
  8
freecads.com
100
AcDbLine
 10
163067.646598205
 20
105882.4553987421
 30
0.0
 11
163082.7231995715
 21
105889.302376079
 31
0.0
  0
LINE
  5
6368D
330
1F
100
AcDbEntity
  8
freecads.com
100
AcDbLine
 10
163082.7231995715
 20
105889.302376079
 30
0.0
 11
163084.0920345951
 21
105901.6275062233
 31
0.0
  0
LINE
  5
6368E
330
1F
100
AcDbEntity
  8
freecads.com
100
AcDbLine
 10
163084.0920345951
 20
105901.6275062233
 30
0.0
 11
163084.0920345951
 21
105918.0591099552
 31
0.0
  0
LINE
  5
6368F
330
1F
100
AcDbEntity
  8
freecads.com
100
AcDbLine
 10
163084.0920345951
 20
105918.0591099552
 30
0.0
 11
163097.7973739244
 21
105938.6000419654
 31
0.0
  0
LINE
  5
63690
330
1F
100
AcDbEntity
  8
freecads.com
100
AcDbLine
 10
163097.7973739244
 20
105938.6000419654
 30
0.0
 11
163110.1314512174
 21
105996.1149370635
 31
0.0
  0
LINE
  5
63691
330
1F
100
AcDbEntity
  8
freecads.com
100
AcDbLine
 10
163110.1314512174
 20
105996.1149370635
 30
0.0
 11
163118.3541694134
 21
106105.6665744519
 31
0.0
  0
LINE
  5
63692
330
1F
100
AcDbEntity
  8
freecads.com
100
AcDbLine
 10
163118.3541694134
 20
106105.6665744519
 30
0.0
 11
163129.3169846702
 21
106189.1991270226
 31
0.0
  0
LINE
  5
63693
330
1F
100
AcDbEntity
  8
freecads.com
100
AcDbLine
 10
163129.3169846702
 20
106189.1991270226
 30
0.0
 11
163119.723004438
 21
106320.6605209502
 31
0.0
  0
LINE
  5
63694
330
1F
100
AcDbEntity
  8
freecads.com
100
AcDbLine
 10
163119.723004438
 20
106320.6605209502
 30
0.0
 11
163101.9087330224
 21
106454.8609912821
 31
0.0
  0
LINE
  5
63695
330
1F
100
AcDbEntity
  8
freecads.com
100
AcDbLine
 10
163101.9087330224
 20
106454.8609912821
 30
0.0
 11
163100.5374709852
 21
106469.1001920143
 31
0.0
  0
LINE
  5
63696
330
1F
100
AcDbEntity
  8
freecads.com
100
AcDbLine
 10
162931.9741749931
 20
106389.6755403765
 30
0.0
 11
162959.3848536518
 21
106323.9448434128
 31
0.0
  0
LINE
  5
63697
330
1F
100
AcDbEntity
  8
freecads.com
100
AcDbLine
 10
162959.3848536518
 20
106323.9448434128
 30
0.0
 11
162984.0505812261
 21
106304.7727359314
 31
0.0
  0
LINE
  5
63698
330
1F
100
AcDbEntity
  8
freecads.com
100
AcDbLine
 10
162984.0505812261
 20
106304.7727359314
 30
0.0
 11
163000.4960176172
 21
106282.8629793918
 31
0.0
  0
LINE
  5
63699
330
1F
100
AcDbEntity
  8
freecads.com
100
AcDbLine
 10
163000.4960176172
 20
106282.8629793918
 30
0.0
 11
163012.8300949102
 21
106251.3671691119
 31
0.0
  0
LINE
  5
6369A
330
1F
100
AcDbEntity
  8
freecads.com
100
AcDbLine
 10
163012.8300949102
 20
106251.3671691119
 30
0.0
 11
163012.8300949102
 21
106243.151367246
 31
0.0
  0
LINE
  5
6369B
330
1F
100
AcDbEntity
  8
freecads.com
100
AcDbLine
 10
162899.0857292237
 20
106455.4062373405
 30
0.0
 11
162911.4198065167
 21
106454.0374128116
 31
0.0
  0
LINE
  5
6369C
330
1F
100
AcDbEntity
  8
freecads.com
100
AcDbLine
 10
162911.4198065167
 20
106454.0374128116
 30
0.0
 11
162949.7908734204
 21
106454.0374128116
 31
0.0
  0
LINE
  5
6369D
330
1F
100
AcDbEntity
  8
freecads.com
100
AcDbLine
 10
162918.2712626746
 20
106433.4964808012
 30
0.0
 11
162944.3082522861
 21
106443.081107196
 31
0.0
  0
LINE
  5
6369E
330
1F
100
AcDbEntity
  8
freecads.com
100
AcDbLine
 10
162944.3082522861
 20
106443.081107196
 30
0.0
 11
162955.2734945556
 21
106452.6671609366
 31
0.0
  0
LINE
  5
6369F
330
1F
100
AcDbEntity
  8
freecads.com
100
AcDbLine
 10
162955.2734945556
 20
106452.6671609366
 30
0.0
 11
162964.8650477743
 21
106458.1453137445
 31
0.0
  0
LINE
  5
636A0
330
1F
100
AcDbEntity
  8
freecads.com
100
AcDbLine
 10
162839.941248619
 20
106095.6699486716
 30
0.0
 11
162952.489433201
 21
105893.4800967447
 31
0.0
  0
ARC
  5
636A1
330
1F
100
AcDbEntity
  8
freecads.com
100
AcDbCircle
 10
162908.8018097539
 20
105869.161553253
 30
0.0
 40
50.00000000011269
100
AcDbArc
 50
276.6412037921932
 51
29.10232717029258
  0
LINE
  5
636A2
330
1F
100
AcDbEntity
  8
freecads.com
100
AcDbLine
 10
162914.5843845848
 20
105819.4970606216
 30
0.0
 11
162666.5806948421
 21
105790.621302141
 31
0.0
  0
LINE
  5
636A3
330
1F
100
AcDbEntity
  8
freecads.com
100
AcDbLine
 10
162903.9980919501
 20
106225.0872336934
 30
0.0
 11
162996.3520617829
 21
106063.0400431498
 31
0.0
  0
LINE
  5
636A4
330
1F
100
AcDbEntity
  8
freecads.com
100
AcDbLine
 10
163118.3517424008
 20
106896.0564027378
 30
0.0
 11
163182.7646529395
 21
106927.0226677621
 31
0.0
  0
LINE
  5
636A5
330
1F
100
AcDbEntity
  8
freecads.com
100
AcDbLine
 10
163182.7646529395
 20
106927.0226677621
 30
0.0
 11
163293.7689215643
 21
106948.9324243017
 31
0.0
  0
LINE
  5
636A6
330
1F
100
AcDbEntity
  8
freecads.com
100
AcDbLine
 10
163293.7689215643
 20
106948.9324243017
 30
0.0
 11
163410.2558113262
 21
106957.1482261675
 31
0.0
  0
LINE
  5
636A7
330
1F
100
AcDbEntity
  8
freecads.com
100
AcDbLine
 10
163410.2558113262
 20
106957.1482261675
 30
0.0
 11
163567.8562920615
 21
106922.9133394838
 31
0.0
  0
LINE
  5
636A8
330
1F
100
AcDbEntity
  8
freecads.com
100
AcDbLine
 10
163567.8562920615
 20
106922.9133394838
 30
0.0
 11
163619.9302712828
 21
106895.5254301364
 31
0.0
  0
LINE
  5
636A9
330
1F
100
AcDbEntity
  8
freecads.com
100
AcDbLine
 10
163619.9302712828
 20
106895.5254301364
 30
0.0
 11
163641.8583288081
 21
106907.8505602811
 31
0.0
  0
LINE
  5
636AA
330
1F
100
AcDbEntity
  8
freecads.com
100
AcDbLine
 10
163641.8583288081
 20
106907.8505602811
 30
0.0
 11
163661.0438622609
 21
106896.8956820112
 31
0.0
  0
LINE
  5
636AB
330
1F
100
AcDbEntity
  8
freecads.com
100
AcDbLine
 10
163661.0438622609
 20
106896.8956820112
 30
0.0
 11
163662.4151242971
 21
106885.9408037417
 31
0.0
  0
LINE
  5
636AC
330
1F
100
AcDbEntity
  8
freecads.com
100
AcDbLine
 10
163662.4151242971
 20
106885.9408037417
 30
0.0
 11
163513.037361755
 21
106557.2858915761
 31
0.0
  0
LINE
  5
636AD
330
1F
100
AcDbEntity
  8
freecads.com
100
AcDbLine
 10
163513.037361755
 20
106557.2858915761
 30
0.0
 11
163488.3692071689
 21
106516.2040275556
 31
0.0
  0
LINE
  5
636AE
330
1F
100
AcDbEntity
  8
freecads.com
100
AcDbLine
 10
163488.3692071689
 20
106516.2040275556
 30
0.0
 11
163451.3694023024
 21
106501.1412483529
 31
0.0
  0
LINE
  5
636AF
330
1F
100
AcDbEntity
  8
freecads.com
100
AcDbLine
 10
163451.3694023024
 20
106501.1412483529
 30
0.0
 11
163419.8497915575
 21
106491.5551946121
 31
0.0
  0
LINE
  5
636B0
330
1F
100
AcDbEntity
  8
freecads.com
100
AcDbLine
 10
163419.8497915575
 20
106491.5551946121
 30
0.0
 11
163100.5374709852
 21
106469.1001920143
 31
0.0
  0
LINE
  5
636B1
330
1F
100
AcDbEntity
  8
freecads.com
100
AcDbLine
 10
163100.5374709852
 20
106469.1001920143
 30
0.0
 11
162915.5311656138
 21
106461.4282088611
 31
0.0
  0
LINE
  5
636B2
330
1F
100
AcDbEntity
  8
freecads.com
100
AcDbLine
 10
162915.5311656138
 20
106461.4282088611
 30
0.0
 11
162912.7910685539
 21
106473.7533390056
 31
0.0
  0
LINE
  5
636B3
330
1F
100
AcDbEntity
  8
freecads.com
100
AcDbLine
 10
162912.7910685539
 20
106473.7533390056
 30
0.0
 11
162918.2712626746
 21
106494.294271016
 31
0.0
  0
LINE
  5
636B4
330
1F
100
AcDbEntity
  8
freecads.com
100
AcDbLine
 10
162918.2712626746
 20
106494.294271016
 30
0.0
 11
163440.404160033
 21
106523.0510048922
 31
0.0
  0
LINE
  5
636B5
330
1F
100
AcDbEntity
  8
freecads.com
100
AcDbLine
 10
163440.404160033
 20
106523.0510048922
 30
0.0
 11
163481.5177510101
 21
106543.5919369024
 31
0.0
  0
LINE
  5
636B6
330
1F
100
AcDbEntity
  8
freecads.com
100
AcDbLine
 10
163481.5177510101
 20
106543.5919369024
 30
0.0
 11
163487.0003721453
 21
106555.9170670469
 31
0.0
  0
LINE
  5
636B7
330
1F
100
AcDbEntity
  8
freecads.com
100
AcDbLine
 10
163487.0003721453
 20
106555.9170670469
 30
0.0
 11
163641.8583288081
 21
106907.8505602811
 31
0.0
  0
LINE
  5
636B8
330
1F
100
AcDbEntity
  8
freecads.com
100
AcDbLine
 10
162228.3901388813
 20
105640.1651331045
 30
0.0
 11
163370.8422405449
 21
105792.790084137
 31
0.0
  0
LINE
  5
636B9
330
1F
100
AcDbEntity
  8
freecads.com
100
AcDbLine
 10
162414.9255089089
 20
105469.4588690756
 30
0.0
 11
162755.8108544815
 21
105469.4588690756
 31
0.0
  0
LINE
  5
636BA
330
1F
100
AcDbEntity
  8
freecads.com
100
AcDbLine
 10
162888.1204869551
 20
107057.6447824169
 30
0.0
 11
162848.3781580143
 21
107024.778720262
 31
0.0
  0
LINE
  5
636BB
330
1F
100
AcDbEntity
  8
freecads.com
100
AcDbLine
 10
162848.3781580143
 20
107024.778720262
 30
0.0
 11
162803.15320794
 21
106987.8061845199
 31
0.0
  0
LINE
  5
636BC
330
1F
100
AcDbEntity
  8
freecads.com
100
AcDbLine
 10
162803.15320794
 20
106987.8061845199
 30
0.0
 11
162786.7101985607
 21
106950.8322214323
 31
0.0
  0
LINE
  5
636BD
330
1F
100
AcDbEntity
  8
freecads.com
100
AcDbLine
 10
162786.7101985607
 20
106950.8322214323
 30
0.0
 11
162775.7449562922
 21
106885.1015244683
 31
0.0
  0
LINE
  5
636BE
330
1F
100
AcDbEntity
  8
freecads.com
100
AcDbLine
 10
162775.7449562922
 20
106885.1015244683
 30
0.0
 11
162771.6335971942
 21
106863.191767929
 31
0.0
  0
LINE
  5
636BF
330
1F
100
AcDbEntity
  8
freecads.com
100
AcDbLine
 10
162771.6335971942
 20
106863.191767929
 30
0.0
 11
162775.7449562922
 21
106856.3447905921
 31
0.0
  0
LINE
  5
636C0
330
1F
100
AcDbEntity
  8
freecads.com
100
AcDbLine
 10
162775.7449562922
 20
106856.3447905921
 30
0.0
 11
162793.5616547195
 21
106854.9759660628
 31
0.0
  0
LINE
  5
636C1
330
1F
100
AcDbEntity
  8
freecads.com
100
AcDbLine
 10
162793.5616547195
 20
106854.9759660628
 30
0.0
 11
162789.4502956225
 21
106882.3624480644
 31
0.0
  0
LINE
  5
636C2
330
1F
100
AcDbEntity
  8
freecads.com
100
AcDbLine
 10
162789.4502956225
 20
106882.3624480644
 30
0.0
 11
162789.4502956225
 21
106889.2094254013
 31
0.0
  0
LINE
  5
636C3
330
1F
100
AcDbEntity
  8
freecads.com
100
AcDbLine
 10
162789.4502956225
 20
106889.2094254013
 30
0.0
 11
162789.4502956225
 21
106911.1206092864
 31
0.0
  0
LINE
  5
636C4
330
1F
100
AcDbEntity
  8
freecads.com
100
AcDbLine
 10
162842.89553688
 20
106815.2629265714
 30
0.0
 11
162840.1554398182
 21
106787.8750172243
 31
0.0
  0
LINE
  5
636C5
330
1F
100
AcDbEntity
  8
freecads.com
100
AcDbLine
 10
162840.1554398182
 20
106787.8750172243
 30
0.0
 11
162830.5614595869
 21
106776.9201389544
 31
0.0
  0
LINE
  5
636C6
330
1F
100
AcDbEntity
  8
freecads.com
100
AcDbLine
 10
162830.5614595869
 20
106776.9201389544
 30
0.0
 11
162818.2298093065
 21
106761.8573597522
 31
0.0
  0
LINE
  5
636C7
330
1F
100
AcDbEntity
  8
freecads.com
100
AcDbLine
 10
162808.3561259247
 20
106827.7831069019
 30
0.0
 11
162812.1385875288
 21
106762.4959782748
 31
0.0
  0
LINE
  5
636C8
330
1F
100
AcDbEntity
  8
freecads.com
100
AcDbLine
 10
162826.0340798385
 20
106703.0523074633
 30
0.0
 11
162807.264567038
 21
106696.1266627881
 31
0.0
  0
LINE
  5
636C9
330
1F
100
AcDbEntity
  8
freecads.com
100
AcDbLine
 10
162807.264567038
 20
106696.1266627881
 30
0.0
 11
162796.3017517813
 21
106686.5406090475
 31
0.0
  0
LINE
  5
636CA
330
1F
100
AcDbEntity
  8
freecads.com
100
AcDbLine
 10
162796.3017517813
 20
106686.5406090475
 30
0.0
 11
162796.3017517813
 21
106682.4327081144
 31
0.0
  0
LINE
  5
636CB
330
1F
100
AcDbEntity
  8
freecads.com
100
AcDbLine
 10
162796.3017517813
 20
106682.4327081144
 30
0.0
 11
162792.1903926832
 21
106675.5857307776
 31
0.0
  0
LINE
  5
636CC
330
1F
100
AcDbEntity
  8
freecads.com
100
AcDbLine
 10
162792.1903926832
 20
106675.5857307776
 30
0.0
 11
162783.9676744873
 21
106672.8466543738
 31
0.0
  0
LINE
  5
636CD
330
1F
100
AcDbEntity
  8
freecads.com
100
AcDbLine
 10
162783.9676744873
 20
106672.8466543738
 30
0.0
 11
162766.1534030726
 21
106689.279685451
 31
0.0
  0
LINE
  5
636CE
330
1F
100
AcDbEntity
  8
freecads.com
100
AcDbLine
 10
162766.1534030726
 20
106689.279685451
 30
0.0
 11
162767.5222380971
 21
106737.2085268086
 31
0.0
  0
LINE
  5
636CF
330
1F
100
AcDbEntity
  8
freecads.com
100
AcDbLine
 10
162767.5222380971
 20
106737.2085268086
 30
0.0
 11
162770.2647621706
 21
106801.5689718979
 31
0.0
  0
LINE
  5
636D0
330
1F
100
AcDbEntity
  8
freecads.com
100
AcDbLine
 10
162770.2647621706
 20
106801.5689718979
 30
0.0
 11
162775.7449562922
 21
106856.3447905921
 31
0.0
  0
LINE
  5
636D1
330
1F
100
AcDbEntity
  8
freecads.com
100
AcDbLine
 10
162792.1903926832
 20
106675.5857307776
 30
0.0
 11
162788.0790335852
 21
106665.5928835116
 31
0.0
  0
LINE
  5
636D2
330
1F
100
AcDbEntity
  8
freecads.com
100
AcDbLine
 10
162788.0790335852
 20
106665.5928835116
 30
0.0
 11
162770.2647621706
 21
106643.6831269723
 31
0.0
  0
LINE
  5
636D3
330
1F
100
AcDbEntity
  8
freecads.com
100
AcDbLine
 10
162770.2647621706
 20
106643.6831269723
 30
0.0
 11
162766.1534030726
 21
106583.4305828159
 31
0.0
  0
LINE
  5
636D4
330
1F
100
AcDbEntity
  8
freecads.com
100
AcDbLine
 10
162766.1534030726
 20
106583.4305828159
 30
0.0
 11
162755.1905878167
 21
106520.4389622558
 31
0.0
  0
LINE
  5
636D5
330
1F
100
AcDbEntity
  8
freecads.com
100
AcDbLine
 10
162755.1905878167
 20
106520.4389622558
 30
0.0
 11
162766.1534030726
 21
106364.7512297127
 31
0.0
  0
LINE
  5
636D6
330
1F
100
AcDbEntity
  8
freecads.com
100
AcDbLine
 10
162766.1534030726
 20
106364.7512297127
 30
0.0
 11
162764.784568049
 21
106255.1995923244
 31
0.0
  0
LINE
  5
636D7
330
1F
100
AcDbEntity
  8
freecads.com
100
AcDbLine
 10
162764.784568049
 20
106255.1995923244
 30
0.0
 11
162770.2647621706
 21
106236.027484843
 31
0.0
  0
LINE
  5
636D8
330
1F
100
AcDbEntity
  8
freecads.com
100
AcDbLine
 10
162770.2647621706
 20
106236.027484843
 30
0.0
 11
162771.6360242069
 21
106222.3335301693
 31
0.0
  0
LINE
  5
636D9
330
1F
100
AcDbEntity
  8
freecads.com
100
AcDbLine
 10
162771.6360242069
 20
106222.3335301693
 30
0.0
 11
162766.1534030726
 21
106204.5316745632
 31
0.0
  0
LINE
  5
636DA
330
1F
100
AcDbEntity
  8
freecads.com
100
AcDbLine
 10
162766.1534030726
 20
106204.5316745632
 30
0.0
 11
162755.1905878167
 21
106193.5767962931
 31
0.0
  0
LINE
  5
636DB
330
1F
100
AcDbEntity
  8
freecads.com
100
AcDbLine
 10
162755.1905878167
 20
106193.5767962931
 30
0.0
 11
162752.4504907559
 21
106178.5140170904
 31
0.0
  0
LINE
  5
636DC
330
1F
100
AcDbEntity
  8
freecads.com
100
AcDbLine
 10
162752.4504907559
 20
106178.5140170904
 30
0.0
 11
162733.2625302915
 21
106164.8200624169
 31
0.0
  0
LINE
  5
636DD
330
1F
100
AcDbEntity
  8
freecads.com
100
AcDbLine
 10
162733.2625302915
 20
106164.8200624169
 30
0.0
 11
162709.9656377416
 21
106137.43215307
 31
0.0
  0
LINE
  5
636DE
330
1F
100
AcDbEntity
  8
freecads.com
100
AcDbLine
 10
162709.9656377416
 20
106137.43215307
 30
0.0
 11
162701.7429195466
 21
106101.8284418569
 31
0.0
  0
LINE
  5
636DF
330
1F
100
AcDbEntity
  8
freecads.com
100
AcDbLine
 10
162701.7429195466
 20
106101.8284418569
 30
0.0
 11
162674.3346678996
 21
106059.3763259614
 31
0.0
  0
LINE
  5
636E0
330
1F
100
AcDbEntity
  8
freecads.com
100
AcDbLine
 10
162674.3346678996
 20
106059.3763259614
 30
0.0
 11
162655.1491344469
 21
106023.7726147486
 31
0.0
  0
LINE
  5
636E1
330
1F
100
AcDbEntity
  8
freecads.com
100
AcDbLine
 10
162655.1491344469
 20
106023.7726147486
 30
0.0
 11
162645.5551542155
 21
106012.8177364787
 31
0.0
  0
LINE
  5
636E2
330
1F
100
AcDbEntity
  8
freecads.com
100
AcDbLine
 10
162645.5551542155
 20
106012.8177364787
 30
0.0
 11
162642.8150571538
 21
105990.9079799395
 31
0.0
  0
LINE
  5
636E3
330
1F
100
AcDbEntity
  8
freecads.com
100
AcDbLine
 10
162642.8150571538
 20
105990.9079799395
 30
0.0
 11
162637.3348630331
 21
105974.474948862
 31
0.0
  0
LINE
  5
636E4
330
1F
100
AcDbEntity
  8
freecads.com
100
AcDbLine
 10
162637.3348630331
 20
105974.474948862
 30
0.0
 11
162631.852241898
 21
105962.1498187175
 31
0.0
  0
LINE
  5
636E5
330
1F
100
AcDbEntity
  8
freecads.com
100
AcDbLine
 10
162631.852241898
 20
105962.1498187175
 30
0.0
 11
162642.8150571538
 21
105958.0419177846
 31
0.0
  0
LINE
  5
636E6
330
1F
100
AcDbEntity
  8
freecads.com
100
AcDbLine
 10
162642.8150571538
 20
105958.0419177846
 30
0.0
 11
162683.928648131
 21
105940.2400621781
 31
0.0
  0
LINE
  5
636E7
330
1F
100
AcDbEntity
  8
freecads.com
100
AcDbLine
 10
162683.928648131
 20
105940.2400621781
 30
0.0
 11
162689.4088422535
 21
105925.1758556297
 31
0.0
  0
LINE
  5
636E8
330
1F
100
AcDbEntity
  8
freecads.com
100
AcDbLine
 10
162689.4088422535
 20
105925.1758556297
 30
0.0
 11
162690.7801042907
 21
105908.744251898
 31
0.0
  0
LINE
  5
636E9
330
1F
100
AcDbEntity
  8
freecads.com
100
AcDbLine
 10
162690.7801042907
 20
105908.744251898
 30
0.0
 11
162700.3740845229
 21
105921.0679546969
 31
0.0
  0
LINE
  5
636EA
330
1F
100
AcDbEntity
  8
freecads.com
100
AcDbLine
 10
162700.3740845229
 20
105921.0679546969
 30
0.0
 11
162741.4852484865
 21
105960.7809941883
 31
0.0
  0
LINE
  5
636EB
330
1F
100
AcDbEntity
  8
freecads.com
100
AcDbLine
 10
162741.4852484865
 20
105960.7809941883
 30
0.0
 11
162818.2298093065
 21
106044.3135467589
 31
0.0
  0
LINE
  5
636EC
330
1F
100
AcDbEntity
  8
freecads.com
100
AcDbLine
 10
162818.2298093065
 20
106044.3135467589
 30
0.0
 11
162834.6752456967
 21
106086.7642353086
 31
0.0
  0
LINE
  5
636ED
330
1F
100
AcDbEntity
  8
freecads.com
100
AcDbLine
 10
162834.6752456967
 20
106086.7642353086
 30
0.0
 11
162852.4895171123
 21
106116.8912210596
 31
0.0
  0
LINE
  5
636EE
330
1F
100
AcDbEntity
  8
freecads.com
100
AcDbLine
 10
162852.4895171123
 20
106116.8912210596
 30
0.0
 11
162875.7888366738
 21
106151.1261077437
 31
0.0
  0
LINE
  5
636EF
330
1F
100
AcDbEntity
  8
freecads.com
100
AcDbLine
 10
162875.7888366738
 20
106151.1261077437
 30
0.0
 11
162903.1970883217
 21
106218.2256292364
 31
0.0
  0
LINE
  5
636F0
330
1F
100
AcDbEntity
  8
freecads.com
100
AcDbLine
 10
162903.1970883217
 20
106218.2256292364
 30
0.0
 11
162912.7886415403
 21
106300.3893572779
 31
0.0
  0
LINE
  5
636F1
330
1F
100
AcDbEntity
  8
freecads.com
100
AcDbLine
 10
162912.7886415403
 20
106300.3893572779
 30
0.0
 11
162923.7538838098
 21
106356.5340005013
 31
0.0
  0
LINE
  5
636F2
330
1F
100
AcDbEntity
  8
freecads.com
100
AcDbLine
 10
162923.7538838098
 20
106356.5340005013
 30
0.0
 11
162931.9741749931
 21
106371.5982070495
 31
0.0
  0
LINE
  5
636F3
330
1F
100
AcDbEntity
  8
freecads.com
100
AcDbLine
 10
162781.2275774265
 20
106206.1774041583
 30
0.0
 11
162801.7843729155
 21
106210.2853050912
 31
0.0
  0
LINE
  5
636F4
330
1F
100
AcDbEntity
  8
freecads.com
100
AcDbLine
 10
162801.7843729155
 20
106210.2853050912
 30
0.0
 11
162825.0812654644
 21
106196.5913504177
 31
0.0
  0
LINE
  5
636F5
330
1F
100
AcDbEntity
  8
freecads.com
100
AcDbLine
 10
162825.0812654644
 20
106196.5913504177
 30
0.0
 11
162831.9351486358
 21
106200.6992513506
 31
0.0
  0
LINE
  5
636F6
330
1F
100
AcDbEntity
  8
freecads.com
100
AcDbLine
 10
162831.9351486358
 20
106200.6992513506
 30
0.0
 11
162782.5988394627
 21
106199.3304268216
 31
0.0
  0
LINE
  5
636F7
330
1F
100
AcDbEntity
  8
freecads.com
100
AcDbLine
 10
162782.5988394627
 20
106199.3304268216
 30
0.0
 11
162771.6360242069
 21
106195.2225258887
 31
0.0
  0
LINE
  5
636F8
330
1F
100
AcDbEntity
  8
freecads.com
100
AcDbLine
 10
162771.6360242069
 20
106195.2225258887
 30
0.0
 11
162767.5246651098
 21
106193.8522740138
 31
0.0
  0
LINE
  5
636F9
330
1F
100
AcDbEntity
  8
freecads.com
100
AcDbLine
 10
162816.8585472703
 20
106452.6671609366
 30
0.0
 11
162837.4153427584
 21
106452.6671609366
 31
0.0
  0
LINE
  5
636FA
330
1F
100
AcDbEntity
  8
freecads.com
100
AcDbLine
 10
162837.4153427584
 20
106452.6671609366
 30
0.0
 11
162867.5661184788
 21
106454.0374128116
 31
0.0
  0
LINE
  5
636FB
330
1F
100
AcDbEntity
  8
freecads.com
100
AcDbLine
 10
162867.5661184788
 20
106454.0374128116
 30
0.0
 11
162885.3803898944
 21
106459.5141382738
 31
0.0
  0
LINE
  5
636FC
330
1F
100
AcDbEntity
  8
freecads.com
100
AcDbLine
 10
162851.1206820877
 20
106448.559260004
 30
0.0
 11
162885.3803898944
 21
106449.9280845332
 31
0.0
  0
LINE
  5
636FD
330
1F
100
AcDbEntity
  8
freecads.com
100
AcDbLine
 10
162885.3803898944
 20
106449.9280845332
 30
0.0
 11
162896.3432051502
 21
106437.6043817341
 31
0.0
  0
LINE
  5
636FE
330
1F
100
AcDbEntity
  8
freecads.com
100
AcDbLine
 10
162762.1033390509
 20
106560.1591794245
 30
0.0
 11
162331.1890850263
 21
106554.5468151724
 31
0.0
  0
LINE
  5
636FF
330
1F
100
AcDbEntity
  8
freecads.com
100
AcDbLine
 10
162331.1890850263
 20
106554.5468151724
 30
0.0
 11
162316.1149106724
 21
106547.6998378355
 31
0.0
  0
LINE
  5
63700
330
1F
100
AcDbEntity
  8
freecads.com
100
AcDbLine
 10
162316.1149106724
 20
106547.6998378355
 30
0.0
 11
162309.2610275
 21
106529.8979822291
 31
0.0
  0
LINE
  5
63701
330
1F
100
AcDbEntity
  8
freecads.com
100
AcDbLine
 10
162309.2610275
 20
106529.8979822291
 30
0.0
 11
162316.1149106724
 21
106520.3119284883
 31
0.0
  0
LINE
  5
63702
330
1F
100
AcDbEntity
  8
freecads.com
100
AcDbLine
 10
162316.1149106724
 20
106520.3119284883
 30
0.0
 11
162324.3376288675
 21
106512.0961266224
 31
0.0
  0
LINE
  5
63703
330
1F
100
AcDbEntity
  8
freecads.com
100
AcDbLine
 10
162324.3376288675
 20
106512.0961266224
 30
0.0
 11
162755.1968304664
 21
106520.3503076613
 31
0.0
  0
LINE
  5
63704
330
1F
100
AcDbEntity
  8
freecads.com
100
AcDbLine
 10
162631.852241898
 20
105962.1498187175
 30
0.0
 11
162624.5954746585
 21
105944.6448510173
 31
0.0
  0
LINE
  5
63705
330
1F
100
AcDbEntity
  8
freecads.com
100
AcDbLine
 10
162624.5954746585
 20
105944.6448510173
 30
0.0
 11
162631.4469308173
 21
105940.5355227386
 31
0.0
  0
LINE
  5
63706
330
1F
100
AcDbEntity
  8
freecads.com
100
AcDbLine
 10
162631.4469308173
 20
105940.5355227386
 30
0.0
 11
162639.6696490133
 21
105925.4727435359
 31
0.0
  0
LINE
  5
63707
330
1F
100
AcDbEntity
  8
freecads.com
100
AcDbLine
 10
162639.6696490133
 20
105925.4727435359
 30
0.0
 11
162639.6696490133
 21
105910.4099643332
 31
0.0
  0
LINE
  5
63708
330
1F
100
AcDbEntity
  8
freecads.com
100
AcDbLine
 10
162639.6696490133
 20
105910.4099643332
 30
0.0
 11
162635.5582899153
 21
105893.9769332559
 31
0.0
  0
LINE
  5
63709
330
1F
100
AcDbEntity
  8
freecads.com
100
AcDbLine
 10
162635.5582899153
 20
105893.9769332559
 30
0.0
 11
162639.6696490133
 21
105878.9127267075
 31
0.0
  0
LINE
  5
6370A
330
1F
100
AcDbEntity
  8
freecads.com
100
AcDbLine
 10
162639.6696490133
 20
105878.9127267075
 30
0.0
 11
162653.3749883435
 21
105863.8499475048
 31
0.0
  0
LINE
  5
6370B
330
1F
100
AcDbEntity
  8
freecads.com
100
AcDbLine
 10
162653.3749883435
 20
105863.8499475048
 30
0.0
 11
162671.1892597582
 21
105863.8499475048
 31
0.0
  0
LINE
  5
6370C
330
1F
100
AcDbEntity
  8
freecads.com
100
AcDbLine
 10
162671.1892597582
 20
105863.8499475048
 30
0.0
 11
162676.6718808925
 21
105863.8499475048
 31
0.0
  0
LINE
  5
6370D
330
1F
100
AcDbEntity
  8
freecads.com
100
AcDbLine
 10
162676.6718808925
 20
105863.8499475048
 30
0.0
 11
162678.0431429297
 21
105837.8308626867
 31
0.0
  0
LINE
  5
6370E
330
1F
100
AcDbEntity
  8
freecads.com
100
AcDbLine
 10
162678.0431429297
 20
105837.8308626867
 30
0.0
 11
162668.4491626974
 21
105799.48807507
 31
0.0
  0
LINE
  5
6370F
330
1F
100
AcDbEntity
  8
freecads.com
100
AcDbLine
 10
162668.4491626974
 20
105799.48807507
 30
0.0
 11
162662.9665415632
 21
105773.4704175977
 31
0.0
  0
LINE
  5
63710
330
1F
100
AcDbEntity
  8
freecads.com
100
AcDbLine
 10
162662.9665415632
 20
105773.4704175977
 30
0.0
 11
162664.3378036003
 21
105757.0373865203
 31
0.0
  0
LINE
  5
63711
330
1F
100
AcDbEntity
  8
freecads.com
100
AcDbLine
 10
162664.3378036003
 20
105757.0373865203
 30
0.0
 11
162671.1892597582
 21
105731.018301702
 31
0.0
  0
LINE
  5
63712
330
1F
100
AcDbEntity
  8
freecads.com
100
AcDbLine
 10
162671.1892597582
 20
105731.018301702
 30
0.0
 11
162671.1892597582
 21
105714.5866979705
 31
0.0
  0
LINE
  5
63713
330
1F
100
AcDbEntity
  8
freecads.com
100
AcDbLine
 10
162671.1892597582
 20
105714.5866979705
 30
0.0
 11
162667.478861954
 21
105698.8248307497
 31
0.0
  0
LINE
  5
63714
330
1F
100
AcDbEntity
  8
freecads.com
100
AcDbLine
 10
162525.9252833268
 20
105874.8048257745
 30
0.0
 11
162551.9622729365
 21
105902.1927351218
 31
0.0
  0
LINE
  5
63715
330
1F
100
AcDbEntity
  8
freecads.com
100
AcDbLine
 10
162551.9622729365
 20
105902.1927351218
 30
0.0
 11
162573.8903304627
 21
105914.5178652663
 31
0.0
  0
LINE
  5
63716
330
1F
100
AcDbEntity
  8
freecads.com
100
AcDbLine
 10
162573.8903304627
 20
105914.5178652663
 30
0.0
 11
162604.0386791704
 21
105929.5806444688
 31
0.0
  0
LINE
  5
63717
330
1F
100
AcDbEntity
  8
freecads.com
100
AcDbLine
 10
162604.0386791704
 20
105929.5806444688
 30
0.0
 11
162610.8901353283
 21
105940.5355227386
 31
0.0
  0
LINE
  5
63718
330
1F
100
AcDbEntity
  8
freecads.com
100
AcDbLine
 10
162610.8901353283
 20
105940.5355227386
 30
0.0
 11
162624.5954746585
 21
105944.6448510173
 31
0.0
  0
LINE
  5
63719
330
1F
100
AcDbEntity
  8
freecads.com
100
AcDbLine
 10
162690.7801042907
 20
105908.744251898
 30
0.0
 11
162676.6718808925
 21
105878.9127267075
 31
0.0
  0
LINE
  5
6371A
330
1F
100
AcDbEntity
  8
freecads.com
100
AcDbLine
 10
162676.6718808925
 20
105878.9127267075
 30
0.0
 11
162671.1892597582
 21
105863.8499475048
 31
0.0
  0
LINE
  5
6371B
330
1F
100
AcDbEntity
  8
freecads.com
100
AcDbLine
 10
161260.7619479568
 20
105626.9379204758
 30
0.0
 11
161260.7619479568
 21
105626.9379204758
 31
0.0
  0
LINE
  5
6371C
330
1F
100
AcDbEntity
  8
freecads.com
100
AcDbLine
 10
161260.7619479568
 20
105626.9379204758
 30
0.0
 11
161257.1377851888
 21
105595.4421101957
 31
0.0
  0
LINE
  5
6371D
330
1F
100
AcDbEntity
  8
freecads.com
100
AcDbLine
 10
161257.1377851888
 20
105595.4421101957
 30
0.0
 11
161259.5286504598
 21
105469.4588690756
 31
0.0
  0
LINE
  5
6371E
330
1F
100
AcDbEntity
  8
freecads.com
100
AcDbLine
 10
161259.5286504598
 20
105469.4588690756
 30
0.0
 11
161421.6988010882
 21
105469.4588690756
 31
0.0
  0
LINE
  5
6371F
330
1F
100
AcDbEntity
  8
freecads.com
100
AcDbLine
 10
161421.6988010882
 20
105469.4588690756
 30
0.0
 11
161420.3275390519
 21
105626.9379204758
 31
0.0
  0
LINE
  5
63720
330
1F
100
AcDbEntity
  8
freecads.com
100
AcDbLine
 10
161420.3275390519
 20
105626.9379204758
 30
0.0
 11
161260.7619479568
 21
105626.9379204758
 31
0.0
  0
LINE
  5
63721
330
1F
100
AcDbEntity
  8
freecads.com
100
AcDbLine
 10
162605.1447464051
 20
106517.4756862942
 30
0.0
 11
162770.851827777
 21
106219.7872751446
 31
0.0
  0
LINE
  5
63722
330
1F
100
AcDbEntity
  8
freecads.com
100
AcDbLine
 10
162219.4144123644
 20
105520.1082313429
 30
0.0
 11
162219.4144123644
 21
105520.1082313429
 31
0.0
  0
LINE
  5
63723
330
1F
100
AcDbEntity
  8
freecads.com
100
AcDbLine
 10
162219.4144123644
 20
105520.1082313429
 30
0.0
 11
162219.4144123644
 21
105520.1082313429
 31
0.0
  0
LINE
  5
63724
330
1F
100
AcDbEntity
  8
freecads.com
100
AcDbLine
 10
162219.4144123644
 20
105520.1082313429
 30
0.0
 11
162228.3901388813
 21
105640.1651331045
 31
0.0
  0
LINE
  5
63725
330
1F
100
AcDbEntity
  8
freecads.com
100
AcDbLine
 10
162228.3901388813
 20
105640.1651331045
 30
0.0
 11
162427.4638150651
 21
105640.1651331045
 31
0.0
  0
LINE
  5
63726
330
1F
100
AcDbEntity
  8
freecads.com
100
AcDbLine
 10
162427.4638150651
 20
105640.1651331045
 30
0.0
 11
162414.9255089089
 21
105469.4588690756
 31
0.0
  0
LINE
  5
63727
330
1F
100
AcDbEntity
  8
freecads.com
100
AcDbLine
 10
162414.9255089089
 20
105469.4588690756
 30
0.0
 11
162221.321503913
 21
105469.4588690756
 31
0.0
  0
LINE
  5
63728
330
1F
100
AcDbEntity
  8
freecads.com
100
AcDbLine
 10
162221.321503913
 20
105469.4588690756
 30
0.0
 11
162219.4144123644
 21
105520.1082313429
 31
0.0
  0
LINE
  5
63729
330
1F
100
AcDbEntity
  8
freecads.com
100
AcDbLine
 10
163070.3866952657
 20
107246.619644097
 30
0.0
 11
163074.4980543628
 21
107213.7535819424
 31
0.0
  0
LINE
  5
6372A
330
1F
100
AcDbEntity
  8
freecads.com
100
AcDbLine
 10
163074.4980543628
 20
107213.7535819424
 30
0.0
 11
163071.7555302894
 21
107182.2577716622
 31
0.0
  0
LINE
  5
6372B
330
1F
100
AcDbEntity
  8
freecads.com
100
AcDbLine
 10
163071.7555302894
 20
107182.2577716622
 30
0.0
 11
163066.2753361678
 21
107178.1498707295
 31
0.0
  0
LINE
  5
6372C
330
1F
100
AcDbEntity
  8
freecads.com
100
AcDbLine
 10
163066.2753361678
 20
107178.1498707295
 30
0.0
 11
163051.2011618139
 21
107176.7810462003
 31
0.0
  0
LINE
  5
6372D
330
1F
100
AcDbEntity
  8
freecads.com
100
AcDbLine
 10
163051.2011618139
 20
107176.7810462003
 30
0.0
 11
163071.8739482509
 21
107183.6177121937
 31
0.0
  0
LINE
  5
6372E
330
1F
100
AcDbEntity
  8
freecads.com
100
AcDbLine
 10
163071.7555302894
 20
107182.2577716622
 30
0.0
 11
163066.2753361678
 21
107164.4559160558
 31
0.0
  0
LINE
  5
6372F
330
1F
100
AcDbEntity
  8
freecads.com
100
AcDbLine
 10
163066.2753361678
 20
107164.4559160558
 30
0.0
 11
163077.2381514236
 21
107134.3303576506
 31
0.0
  0
LINE
  5
63730
330
1F
100
AcDbEntity
  8
freecads.com
100
AcDbLine
 10
163077.2381514236
 20
107134.3303576506
 30
0.0
 11
163067.6441711914
 21
107127.4833803137
 31
0.0
  0
LINE
  5
63731
330
1F
100
AcDbEntity
  8
freecads.com
100
AcDbLine
 10
163067.6441711914
 20
107127.4833803137
 30
0.0
 11
163064.9040741315
 21
107120.6364029769
 31
0.0
  0
LINE
  5
63732
330
1F
100
AcDbEntity
  8
freecads.com
100
AcDbLine
 10
163064.9040741315
 20
107120.6364029769
 30
0.0
 11
163060.7927150335
 21
107104.2033718994
 31
0.0
  0
LINE
  5
63733
330
1F
100
AcDbEntity
  8
freecads.com
100
AcDbLine
 10
163060.7927150335
 20
107104.2033718994
 30
0.0
 11
163056.6813559355
 21
107094.6173181588
 31
0.0
  0
LINE
  5
63734
330
1F
100
AcDbEntity
  8
freecads.com
100
AcDbLine
 10
163056.6813559355
 20
107094.6173181588
 30
0.0
 11
163055.312520911
 21
107082.2936153601
 31
0.0
  0
LINE
  5
63735
330
1F
100
AcDbEntity
  8
freecads.com
100
AcDbLine
 10
163055.312520911
 20
107082.2936153601
 30
0.0
 11
163049.8298997767
 21
107069.9684852155
 31
0.0
  0
LINE
  5
63736
330
1F
100
AcDbEntity
  8
freecads.com
100
AcDbLine
 10
163049.8298997767
 20
107069.9684852155
 30
0.0
 11
163038.8670845199
 21
107067.2294088116
 31
0.0
  0
LINE
  5
63737
330
1F
100
AcDbEntity
  8
freecads.com
100
AcDbLine
 10
163038.8670845199
 20
107067.2294088116
 30
0.0
 11
163029.2731042876
 21
107069.9684852155
 31
0.0
  0
LINE
  5
63738
330
1F
100
AcDbEntity
  8
freecads.com
100
AcDbLine
 10
163029.2731042876
 20
107069.9684852155
 30
0.0
 11
163011.458832873
 21
107089.1405926967
 31
0.0
  0
LINE
  5
63739
330
1F
100
AcDbEntity
  8
freecads.com
100
AcDbLine
 10
163011.458832873
 20
107089.1405926967
 30
0.0
 11
162997.7534935437
 21
107104.2033718994
 31
0.0
  0
LINE
  5
6373A
330
1F
100
AcDbEntity
  8
freecads.com
100
AcDbLine
 10
163038.8670845199
 20
107067.2294088116
 30
0.0
 11
163029.2731042876
 21
107068.5996606867
 31
0.0
  0
LINE
  5
6373B
330
1F
100
AcDbEntity
  8
freecads.com
100
AcDbLine
 10
163029.2731042876
 20
107068.5996606867
 30
0.0
 11
163012.8276678975
 21
107068.5996606867
 31
0.0
  0
LINE
  5
6373C
330
1F
100
AcDbEntity
  8
freecads.com
100
AcDbLine
 10
163012.8276678975
 20
107068.5996606867
 30
0.0
 11
163000.4935906054
 21
107074.0763861488
 31
0.0
  0
LINE
  5
6373D
330
1F
100
AcDbEntity
  8
freecads.com
100
AcDbLine
 10
163049.8298997767
 20
107169.9340688635
 30
0.0
 11
163067.6441711914
 21
107172.6731452674
 31
0.0
  0
LINE
  5
6373E
330
1F
100
AcDbEntity
  8
freecads.com
100
AcDbLine
 10
163049.8298997767
 20
107169.9340688635
 30
0.0
 11
163062.1639770707
 21
107161.7182669976
 31
0.0
  0
LINE
  5
6373F
330
1F
100
AcDbEntity
  8
freecads.com
100
AcDbLine
 10
162978.5679600919
 20
107176.7810462003
 30
0.0
 11
162970.3452418959
 21
107169.9340688635
 31
0.0
  0
LINE
  5
63740
330
1F
100
AcDbEntity
  8
freecads.com
100
AcDbLine
 10
162970.3452418959
 20
107169.9340688635
 30
0.0
 11
162967.6051448351
 21
107156.24011419
 31
0.0
  0
LINE
  5
63741
330
1F
100
AcDbEntity
  8
freecads.com
100
AcDbLine
 10
162967.6051448351
 20
107156.24011419
 30
0.0
 11
162977.1966980547
 21
107143.9149840454
 31
0.0
  0
LINE
  5
63742
330
1F
100
AcDbEntity
  8
freecads.com
100
AcDbLine
 10
162977.1966980547
 20
107143.9149840454
 30
0.0
 11
162986.7906782869
 21
107132.9601057757
 31
0.0
  0
LINE
  5
63743
330
1F
100
AcDbEntity
  8
freecads.com
100
AcDbLine
 10
163055.312520911
 20
107154.8712896608
 30
0.0
 11
163064.9040741315
 21
107143.9149840454
 31
0.0
  0
LINE
  5
63744
330
1F
100
AcDbEntity
  8
freecads.com
100
AcDbLine
 10
163064.9040741315
 20
107143.9149840454
 30
0.0
 11
163064.9040741315
 21
107130.2210293717
 31
0.0
  0
LINE
  5
63745
330
1F
100
AcDbEntity
  8
freecads.com
100
AcDbLine
 10
162992.2732994212
 20
107112.4191737656
 30
0.0
 11
162996.3822315074
 21
107063.1215078788
 31
0.0
  0
LINE
  5
63746
330
1F
100
AcDbEntity
  8
freecads.com
100
AcDbLine
 10
162996.3822315074
 20
107063.1215078788
 30
0.0
 11
163007.3474737759
 21
107057.6447824169
 31
0.0
  0
LINE
  5
63747
330
1F
100
AcDbEntity
  8
freecads.com
100
AcDbLine
 10
163007.3474737759
 20
107057.6447824169
 30
0.0
 11
163033.3844633857
 21
107050.7978050799
 31
0.0
  0
LINE
  5
63748
330
1F
100
AcDbEntity
  8
freecads.com
100
AcDbLine
 10
163033.3844633857
 20
107050.7978050799
 30
0.0
 11
163062.1639770707
 21
107017.9317429253
 31
0.0
  0
LINE
  5
63749
330
1F
100
AcDbEntity
  8
freecads.com
100
AcDbLine
 10
163062.1639770707
 20
107017.9317429253
 30
0.0
 11
163103.2751410343
 21
106967.2652525097
 31
0.0
  0
LINE
  5
6374A
330
1F
100
AcDbEntity
  8
freecads.com
100
AcDbLine
 10
163103.2751410343
 20
106967.2652525097
 30
0.0
 11
163114.2403833037
 21
106937.1382667586
 31
0.0
  0
LINE
  5
6374B
330
1F
100
AcDbEntity
  8
freecads.com
100
AcDbLine
 10
163114.2403833037
 20
106937.1382667586
 30
0.0
 11
163115.6092183282
 21
106904.2736319497
 31
0.0
  0
LINE
  5
6374C
330
1F
100
AcDbEntity
  8
freecads.com
100
AcDbLine
 10
163115.6092183282
 20
106904.2736319497
 30
0.0
 11
163110.1290242057
 21
106900.1657310165
 31
0.0
  0
LINE
  5
6374D
330
1F
100
AcDbEntity
  8
freecads.com
100
AcDbLine
 10
163110.1290242057
 20
106900.1657310165
 30
0.0
 11
163118.3517424008
 21
106896.0564027378
 31
0.0
  0
LINE
  5
6374E
330
1F
100
AcDbEntity
  8
freecads.com
100
AcDbLine
 10
163118.3517424008
 20
106896.0564027378
 30
0.0
 11
163119.7205774253
 21
106887.8406008723
 31
0.0
  0
LINE
  5
6374F
330
1F
100
AcDbEntity
  8
freecads.com
100
AcDbLine
 10
163119.7205774253
 20
106887.8406008723
 30
0.0
 11
163110.1290242057
 21
106885.1015244683
 31
0.0
  0
LINE
  5
63750
330
1F
100
AcDbEntity
  8
freecads.com
100
AcDbLine
 10
163110.1290242057
 20
106885.1015244683
 30
0.0
 11
163082.7207725588
 21
106882.3624480644
 31
0.0
  0
LINE
  5
63751
330
1F
100
AcDbEntity
  8
freecads.com
100
AcDbLine
 10
163082.7207725588
 20
106882.3624480644
 30
0.0
 11
163036.1245604465
 21
106872.7778216696
 31
0.0
  0
LINE
  5
63752
330
1F
100
AcDbEntity
  8
freecads.com
100
AcDbLine
 10
163036.1245604465
 20
106872.7778216696
 30
0.0
 11
163022.4216481298
 21
106857.7136151211
 31
0.0
  0
LINE
  5
63753
330
1F
100
AcDbEntity
  8
freecads.com
100
AcDbLine
 10
163022.4216481298
 20
106857.7136151211
 30
0.0
 11
163019.681551069
 21
106850.8666377845
 31
0.0
  0
LINE
  5
63754
330
1F
100
AcDbEntity
  8
freecads.com
100
AcDbLine
 10
163019.681551069
 20
106850.8666377845
 30
0.0
 11
163012.8276678975
 21
106856.3447905921
 31
0.0
  0
LINE
  5
63755
330
1F
100
AcDbEntity
  8
freecads.com
100
AcDbLine
 10
163012.8276678975
 20
106856.3447905921
 30
0.0
 11
163012.8276678975
 21
106880.9936235351
 31
0.0
  0
LINE
  5
63756
330
1F
100
AcDbEntity
  8
freecads.com
100
AcDbLine
 10
163012.8276678975
 20
106880.9936235351
 30
0.0
 11
163018.3102890318
 21
106908.3815328824
 31
0.0
  0
LINE
  5
63757
330
1F
100
AcDbEntity
  8
freecads.com
100
AcDbLine
 10
163018.3102890318
 20
106908.3815328824
 30
0.0
 11
163022.4216481298
 21
106917.967586623
 31
0.0
  0
LINE
  5
63758
330
1F
100
AcDbEntity
  8
freecads.com
100
AcDbLine
 10
163022.4216481298
 20
106917.967586623
 30
0.0
 11
163022.4216481298
 21
106934.3991903546
 31
0.0
  0
LINE
  5
63759
330
1F
100
AcDbEntity
  8
freecads.com
100
AcDbLine
 10
163102.9364470588
 20
106884.3827256702
 30
0.0
 11
163118.3517424008
 21
106837.1726831107
 31
0.0
  0
LINE
  5
6375A
330
1F
100
AcDbEntity
  8
freecads.com
100
AcDbLine
 10
163118.3517424008
 20
106837.1726831107
 30
0.0
 11
163116.9804803645
 21
106802.9392237726
 31
0.0
  0
LINE
  5
6375B
330
1F
100
AcDbEntity
  8
freecads.com
100
AcDbLine
 10
163116.9804803645
 20
106802.9392237726
 30
0.0
 11
163127.9432956213
 21
106753.6401305403
 31
0.0
  0
LINE
  5
6375C
330
1F
100
AcDbEntity
  8
freecads.com
100
AcDbLine
 10
163127.9432956213
 20
106753.6401305403
 30
0.0
 11
163171.7969836583
 21
106686.5406090475
 31
0.0
  0
LINE
  5
6375D
330
1F
100
AcDbEntity
  8
freecads.com
100
AcDbLine
 10
163171.7969836583
 20
106686.5406090475
 30
0.0
 11
163200.5764973424
 21
106642.7210959686
 31
0.0
  0
LINE
  5
6375E
330
1F
100
AcDbEntity
  8
freecads.com
100
AcDbLine
 10
163200.5764973424
 20
106642.7210959686
 30
0.0
 11
163210.1704775747
 21
106632.7282487025
 31
0.0
  0
LINE
  5
6375F
330
1F
100
AcDbEntity
  8
freecads.com
100
AcDbLine
 10
163210.1704775747
 20
106632.7282487025
 30
0.0
 11
163225.2446519285
 21
106632.7282487025
 31
0.0
  0
LINE
  5
63760
330
1F
100
AcDbEntity
  8
freecads.com
100
AcDbLine
 10
163225.2446519285
 20
106632.7282487025
 30
0.0
 11
163237.5787292216
 21
106634.0970732315
 31
0.0
  0
LINE
  5
63761
330
1F
100
AcDbEntity
  8
freecads.com
100
AcDbLine
 10
163237.5787292216
 20
106634.0970732315
 30
0.0
 11
163254.0241656126
 21
106617.6654694998
 31
0.0
  0
LINE
  5
63762
330
1F
100
AcDbEntity
  8
freecads.com
100
AcDbLine
 10
163254.0241656126
 20
106617.6654694998
 30
0.0
 11
163264.9869808694
 21
106593.0152092109
 31
0.0
  0
LINE
  5
63763
330
1F
100
AcDbEntity
  8
freecads.com
100
AcDbLine
 10
163264.9869808694
 20
106593.0152092109
 30
0.0
 11
163264.9869808694
 21
106575.2133536045
 31
0.0
  0
LINE
  5
63764
330
1F
100
AcDbEntity
  8
freecads.com
100
AcDbLine
 10
163264.9869808694
 20
106575.2133536045
 30
0.0
 11
163260.8756217724
 21
106560.1505744018
 31
0.0
  0
LINE
  5
63765
330
1F
100
AcDbEntity
  8
freecads.com
100
AcDbLine
 10
163260.8756217724
 20
106560.1505744018
 30
0.0
 11
163248.5415444784
 21
106572.4757045463
 31
0.0
  0
LINE
  5
63766
330
1F
100
AcDbEntity
  8
freecads.com
100
AcDbLine
 10
163248.5415444784
 20
106572.4757045463
 30
0.0
 11
163233.4673701236
 21
106577.9524300084
 31
0.0
  0
LINE
  5
63767
330
1F
100
AcDbEntity
  8
freecads.com
100
AcDbLine
 10
163233.4673701236
 20
106577.9524300084
 30
0.0
 11
163196.4651382453
 21
106590.2775601529
 31
0.0
  0
LINE
  5
63768
330
1F
100
AcDbEntity
  8
freecads.com
100
AcDbLine
 10
163196.4651382453
 20
106590.2775601529
 30
0.0
 11
163192.3537791474
 21
106587.538483749
 31
0.0
  0
LINE
  5
63769
330
1F
100
AcDbEntity
  8
freecads.com
100
AcDbLine
 10
163192.3537791474
 20
106587.538483749
 30
0.0
 11
163215.6530987089
 21
106560.1505744018
 31
0.0
  0
LINE
  5
6376A
330
1F
100
AcDbEntity
  8
freecads.com
100
AcDbLine
 10
163215.6530987089
 20
106560.1505744018
 30
0.0
 11
163203.3190214159
 21
106562.8896508057
 31
0.0
  0
LINE
  5
6376B
330
1F
100
AcDbEntity
  8
freecads.com
100
AcDbLine
 10
163203.3190214159
 20
106562.8896508057
 30
0.0
 11
163181.3909638906
 21
106583.4305828159
 31
0.0
  0
LINE
  5
6376C
330
1F
100
AcDbEntity
  8
freecads.com
100
AcDbLine
 10
163181.3909638906
 20
106583.4305828159
 30
0.0
 11
163178.6508668298
 21
106598.4933620186
 31
0.0
  0
LINE
  5
6376D
330
1F
100
AcDbEntity
  8
freecads.com
100
AcDbLine
 10
163178.6508668298
 20
106598.4933620186
 30
0.0
 11
163175.910769769
 21
106616.2952176252
 31
0.0
  0
LINE
  5
6376E
330
1F
100
AcDbEntity
  8
freecads.com
100
AcDbLine
 10
163175.910769769
 20
106616.2952176252
 30
0.0
 11
163151.2426151829
 21
106627.2500958948
 31
0.0
  0
LINE
  5
6376F
330
1F
100
AcDbEntity
  8
freecads.com
100
AcDbLine
 10
163151.2426151829
 20
106627.2500958948
 30
0.0
 11
163088.2033936931
 21
106673.8101127231
 31
0.0
  0
LINE
  5
63770
330
1F
100
AcDbEntity
  8
freecads.com
100
AcDbLine
 10
163088.2033936931
 20
106673.8101127231
 30
0.0
 11
163077.2405784372
 21
106691.6119683299
 31
0.0
  0
LINE
  5
63771
330
1F
100
AcDbEntity
  8
freecads.com
100
AcDbLine
 10
163077.2405784372
 20
106691.6119683299
 30
0.0
 11
163077.2405784372
 21
106701.1980220704
 31
0.0
  0
LINE
  5
63772
330
1F
100
AcDbEntity
  8
freecads.com
100
AcDbLine
 10
163077.2405784372
 20
106701.1980220704
 30
0.0
 11
163071.757957303
 21
106714.8919767439
 31
0.0
  0
LINE
  5
63773
330
1F
100
AcDbEntity
  8
freecads.com
100
AcDbLine
 10
163071.757957303
 20
106714.8919767439
 30
0.0
 11
163060.7951420462
 21
106768.2975435634
 31
0.0
  0
LINE
  5
63774
330
1F
100
AcDbEntity
  8
freecads.com
100
AcDbLine
 10
163060.7951420462
 20
106768.2975435634
 30
0.0
 11
163038.8670845199
 21
106807.0471247055
 31
0.0
  0
LINE
  5
63775
330
1F
100
AcDbEntity
  8
freecads.com
100
AcDbLine
 10
163085.4632966323
 20
106517.0290333717
 30
0.0
 11
163075.8693164
 21
106562.2187983253
 31
0.0
  0
LINE
  5
63776
330
1F
100
AcDbEntity
  8
freecads.com
100
AcDbLine
 10
163075.8693164
 20
106562.2187983253
 30
0.0
 11
163069.0178602412
 21
106596.4536850091
 31
0.0
  0
LINE
  5
63777
330
1F
100
AcDbEntity
  8
freecads.com
100
AcDbLine
 10
163069.0178602412
 20
106596.4536850091
 30
0.0
 11
163069.0178602412
 21
106626.5806707604
 31
0.0
  0
LINE
  5
63778
330
1F
100
AcDbEntity
  8
freecads.com
100
AcDbLine
 10
163069.0178602412
 20
106626.5806707604
 30
0.0
 11
163059.423880009
 21
106677.2471611759
 31
0.0
  0
LINE
  5
63779
330
1F
100
AcDbEntity
  8
freecads.com
100
AcDbLine
 10
163059.423880009
 20
106677.2471611759
 30
0.0
 11
163045.7185406787
 21
106697.4954873171
 31
0.0
  0
LINE
  5
6377A
330
1F
100
AcDbEntity
  8
freecads.com
100
AcDbLine
 10
163015.570191971
 20
106169.2034410705
 30
0.0
 11
163036.1269874591
 21
106174.6815938783
 31
0.0
  0
LINE
  5
6377B
330
1F
100
AcDbEntity
  8
freecads.com
100
AcDbLine
 10
163036.1269874591
 20
106174.6815938783
 30
0.0
 11
163047.0922297276
 21
106182.8973957442
 31
0.0
  0
LINE
  5
6377C
330
1F
100
AcDbEntity
  8
freecads.com
100
AcDbLine
 10
163047.0922297276
 20
106182.8973957442
 30
0.0
 11
163073.1292193392
 21
106181.528571215
 31
0.0
  0
LINE
  5
6377D
330
1F
100
AcDbEntity
  8
freecads.com
100
AcDbLine
 10
163073.1292193392
 20
106181.528571215
 30
0.0
 11
163055.312520911
 21
106176.0504184075
 31
0.0
  0
LINE
  5
6377E
330
1F
100
AcDbEntity
  8
freecads.com
100
AcDbLine
 10
163055.312520911
 20
106176.0504184075
 30
0.0
 11
163037.4982494954
 21
106169.2034410705
 31
0.0
  0
LINE
  5
6377F
330
1F
100
AcDbEntity
  8
freecads.com
100
AcDbLine
 10
163037.4982494954
 20
106169.2034410705
 30
0.0
 11
163014.2013569474
 21
106169.2034410705
 31
0.0
  0
LINE
  5
63780
330
1F
100
AcDbEntity
  8
freecads.com
100
AcDbLine
 10
163029.2755313013
 20
106571.8048520658
 30
0.0
 11
163041.6096085934
 21
106554.0029964595
 31
0.0
  0
LINE
  5
63781
330
1F
100
AcDbEntity
  8
freecads.com
100
AcDbLine
 10
163041.6096085934
 20
106554.0029964595
 30
0.0
 11
163051.2035888256
 21
106547.1560191226
 31
0.0
  0
LINE
  5
63782
330
1F
100
AcDbEntity
  8
freecads.com
100
AcDbLine
 10
163051.2035888256
 20
106547.1560191226
 30
0.0
 11
163056.6837829482
 21
106544.4169427189
 31
0.0
  0
LINE
  5
63783
330
1F
100
AcDbEntity
  8
freecads.com
100
AcDbLine
 10
163056.6837829482
 20
106544.4169427189
 30
0.0
 11
163060.7951420462
 21
106543.0466908439
 31
0.0
  0
LINE
  5
63784
330
1F
100
AcDbEntity
  8
freecads.com
100
AcDbLine
 10
163110.1314512174
 20
106695.0490167821
 30
0.0
 11
163147.1312560849
 21
106690.9411158494
 31
0.0
  0
LINE
  5
63785
330
1F
100
AcDbEntity
  8
freecads.com
100
AcDbLine
 10
163147.1312560849
 20
106690.9411158494
 30
0.0
 11
163169.0593136093
 21
106666.2922829061
 31
0.0
  0
LINE
  5
63786
330
1F
100
AcDbEntity
  8
freecads.com
100
AcDbLine
 10
163169.0593136093
 20
106666.2922829061
 30
0.0
 11
163173.1706727072
 21
106660.815557444
 31
0.0
  0
LINE
  5
63787
330
1F
100
AcDbEntity
  8
freecads.com
100
AcDbLine
 10
163114.2428103154
 20
106681.3550621088
 30
0.0
 11
163143.0198969869
 21
106659.4453055692
 31
0.0
  0
LINE
  5
63788
330
1F
100
AcDbEntity
  8
freecads.com
100
AcDbLine
 10
163143.0198969869
 20
106659.4453055692
 30
0.0
 11
163177.2820318052
 21
106651.2295037034
 31
0.0
  0
LINE
  5
63789
330
1F
100
AcDbEntity
  8
freecads.com
100
AcDbLine
 10
163177.2820318052
 20
106651.2295037034
 30
0.0
 11
163185.5047500012
 21
106644.3825263665
 31
0.0
  0
LINE
  5
6378A
330
1F
100
AcDbEntity
  8
freecads.com
100
AcDbLine
 10
163208.8016425511
 20
106621.1025179524
 30
0.0
 11
163214.2842636853
 21
106610.1476396826
 31
0.0
  0
LINE
  5
6378B
330
1F
100
AcDbEntity
  8
freecads.com
100
AcDbLine
 10
163214.2842636853
 20
106610.1476396826
 30
0.0
 11
163218.3931957707
 21
106600.561585942
 31
0.0
  0
LINE
  5
6378C
330
1F
100
AcDbEntity
  8
freecads.com
100
AcDbLine
 10
163218.3931957707
 20
106600.561585942
 30
0.0
 11
163212.9130016491
 21
106593.7146086052
 31
0.0
  0
LINE
  5
6378D
330
1F
100
AcDbEntity
  8
freecads.com
100
AcDbLine
 10
163403.7418082226
 20
106521.0318072901
 30
0.0
 11
163358.1794050913
 21
106551.8077387684
 31
0.0
  0
LINE
  5
6378E
330
1F
100
AcDbEntity
  8
freecads.com
100
AcDbLine
 10
163358.1794050913
 20
106551.8077387684
 30
0.0
 11
163328.0310563836
 21
106595.6286791928
 31
0.0
  0
LINE
  5
6378F
330
1F
100
AcDbEntity
  8
freecads.com
100
AcDbLine
 10
163328.0310563836
 20
106595.6286791928
 30
0.0
 11
163321.1771732131
 21
106632.6026422807
 31
0.0
  0
LINE
  5
63790
330
1F
100
AcDbEntity
  8
freecads.com
100
AcDbLine
 10
163321.1771732131
 20
106632.6026422807
 30
0.0
 11
163286.9174654065
 21
106677.7924072343
 31
0.0
  0
LINE
  5
63791
330
1F
100
AcDbEntity
  8
freecads.com
100
AcDbLine
 10
163286.9174654065
 20
106677.7924072343
 30
0.0
 11
163215.6555257225
 21
106686.0096364457
 31
0.0
  0
LINE
  5
63792
330
1F
100
AcDbEntity
  8
freecads.com
100
AcDbLine
 10
163215.6555257225
 20
106686.0096364457
 30
0.0
 11
163176.0095640076
 21
106680.1265597436
 31
0.0
  0
LINE
  5
63793
330
1F
100
AcDbEntity
  8
freecads.com
100
AcDbLine
 10
163127.911575418
 20
106644.4821234861
 30
0.0
 11
163122.4655285114
 21
106614.8007866742
 31
0.0
  0
LINE
  5
63794
330
1F
100
AcDbEntity
  8
freecads.com
100
AcDbLine
 10
163122.4655285114
 20
106614.8007866742
 30
0.0
 11
163121.0942664742
 21
106594.2598546636
 31
0.0
  0
LINE
  5
63795
330
1F
100
AcDbEntity
  8
freecads.com
100
AcDbLine
 10
163121.0942664742
 20
106594.2598546636
 30
0.0
 11
163104.6512570959
 21
106580.5658999901
 31
0.0
  0
LINE
  5
63796
330
1F
100
AcDbEntity
  8
freecads.com
100
AcDbLine
 10
163104.6512570959
 20
106580.5658999901
 30
0.0
 11
163074.3939828751
 21
106569.590643795
 31
0.0
  0
LINE
  5
63797
330
1F
100
AcDbEntity
  8
freecads.com
100
AcDbLine
 10
163077.0488494793
 20
106556.6629371173
 30
0.0
 11
163133.4283437682
 21
106581.9347245191
 31
0.0
  0
LINE
  5
63798
330
1F
100
AcDbEntity
  8
freecads.com
100
AcDbLine
 10
163133.4283437682
 20
106581.9347245191
 30
0.0
 11
163138.9109649025
 21
106605.2147329337
 31
0.0
  0
LINE
  5
63799
330
1F
100
AcDbEntity
  8
freecads.com
100
AcDbLine
 10
163138.9109649025
 20
106605.2147329337
 30
0.0
 11
163152.9443557328
 21
106626.4943701064
 31
0.0
  0
LINE
  5
6379A
330
1F
100
AcDbEntity
  8
freecads.com
100
AcDbLine
 10
163133.4283437682
 20
106581.9347245191
 30
0.0
 11
163121.0942664742
 21
106594.2598546636
 31
0.0
  0
LINE
  5
6379B
330
1F
100
AcDbEntity
  8
freecads.com
100
AcDbLine
 10
163191.6475583082
 20
106656.316244417
 30
0.0
 11
163226.6183409784
 21
106658.6217270987
 31
0.0
  0
LINE
  5
6379C
330
1F
100
AcDbEntity
  8
freecads.com
100
AcDbLine
 10
163226.6183409784
 20
106658.6217270987
 30
0.0
 11
163280.0660092486
 21
106658.6217270987
 31
0.0
  0
LINE
  5
6379D
330
1F
100
AcDbEntity
  8
freecads.com
100
AcDbLine
 10
163280.0660092486
 20
106658.6217270987
 30
0.0
 11
163321.1771732131
 21
106632.6026422807
 31
0.0
  0
LINE
  5
6379E
330
1F
100
AcDbEntity
  8
freecads.com
100
AcDbLine
 10
163499.3344494374
 20
106879.0938264047
 30
0.0
 11
163448.6268782289
 21
106764.0640362084
 31
0.0
  0
LINE
  5
6379F
330
1F
100
AcDbEntity
  8
freecads.com
100
AcDbLine
 10
163448.6268782289
 20
106764.0640362084
 30
0.0
 11
163418.4785295203
 21
106766.8031126124
 31
0.0
  0
LINE
  5
637A0
330
1F
100
AcDbEntity
  8
freecads.com
100
AcDbLine
 10
163418.4785295203
 20
106766.8031126124
 30
0.0
 11
163402.0330931302
 21
106742.1542796691
 31
0.0
  0
LINE
  5
637A1
330
1F
100
AcDbEntity
  8
freecads.com
100
AcDbLine
 10
163402.0330931302
 20
106742.1542796691
 30
0.0
 11
163177.2820318052
 21
106751.7403334097
 31
0.0
  0
LINE
  5
637A2
330
1F
100
AcDbEntity
  8
freecads.com
100
AcDbLine
 10
163177.2820318052
 20
106751.7403334097
 30
0.0
 11
163236.2123212107
 21
106881.831475463
 31
0.0
  0
LINE
  5
637A3
330
1F
100
AcDbEntity
  8
freecads.com
100
AcDbLine
 10
163236.2123212107
 20
106881.831475463
 30
0.0
 11
163499.3344494374
 21
106879.0938264047
 31
0.0
  0
LINE
  5
637A4
330
1F
100
AcDbEntity
  8
freecads.com
100
AcDbLine
 10
163217.0243607461
 20
106877.7235745298
 30
0.0
 11
163166.3192165484
 21
106753.109157939
 31
0.0
  0
LINE
  5
637A5
330
1F
100
AcDbEntity
  8
freecads.com
100
AcDbLine
 10
163166.3192165484
 20
106753.109157939
 30
0.0
 11
163127.2819105051
 21
106756.6143379597
 31
0.0
  0
LINE
  5
637A6
330
1F
100
AcDbEntity
  8
freecads.com
100
AcDbLine
 10
163217.0243607461
 20
106877.7235745298
 30
0.0
 11
163136.1708678408
 21
106881.831475463
 31
0.0
  0
LINE
  5
637A7
330
1F
100
AcDbEntity
  8
freecads.com
100
AcDbLine
 10
163136.1708678408
 20
106881.831475463
 30
0.0
 11
163118.3517424008
 21
106837.1726831107
 31
0.0
  0
LINE
  5
637A8
330
1F
100
AcDbEntity
  8
freecads.com
100
AcDbLine
 10
163133.4283437682
 20
106888.6784527999
 30
0.0
 11
163115.4161295667
 21
106846.16313083
 31
0.0
  0
LINE
  5
637A9
330
1F
100
AcDbEntity
  8
freecads.com
100
AcDbLine
 10
163014.2013569474
 20
105890.671200608
 30
0.0
 11
163015.1673079031
 21
105841.9401909656
 31
0.0
  0
LINE
  5
637AA
330
1F
100
AcDbEntity
  8
freecads.com
100
AcDbLine
 10
163015.1673079031
 20
105841.9401909656
 30
0.0
 11
163017.9074049648
 21
105841.9401909656
 31
0.0
  0
LINE
  5
637AB
330
1F
100
AcDbEntity
  8
freecads.com
100
AcDbLine
 10
163017.9074049648
 20
105841.9401909656
 30
0.0
 11
163027.501385197
 21
105839.2011145617
 31
0.0
  0
LINE
  5
637AC
330
1F
100
AcDbEntity
  8
freecads.com
100
AcDbLine
 10
163027.501385197
 20
105839.2011145617
 30
0.0
 11
163039.8354624901
 21
105830.9838853501
 31
0.0
  0
LINE
  5
637AD
330
1F
100
AcDbEntity
  8
freecads.com
100
AcDbLine
 10
163039.8354624901
 20
105830.9838853501
 30
0.0
 11
163048.0581806861
 21
105825.507159888
 31
0.0
  0
LINE
  5
637AE
330
1F
100
AcDbEntity
  8
freecads.com
100
AcDbLine
 10
163048.0581806861
 20
105825.507159888
 30
0.0
 11
163067.2437141361
 21
105829.6150608212
 31
0.0
  0
LINE
  5
637AF
330
1F
100
AcDbEntity
  8
freecads.com
100
AcDbLine
 10
163067.2437141361
 20
105829.6150608212
 30
0.0
 11
163083.6891505271
 21
105840.5699390907
 31
0.0
  0
LINE
  5
637B0
330
1F
100
AcDbEntity
  8
freecads.com
100
AcDbLine
 10
163083.6891505271
 20
105840.5699390907
 30
0.0
 11
163089.1717716623
 21
105841.9401909656
 31
0.0
  0
LINE
  5
637B1
330
1F
100
AcDbEntity
  8
freecads.com
100
AcDbLine
 10
163089.1717716623
 20
105841.9401909656
 30
0.0
 11
163106.9860430779
 21
105843.3090154946
 31
0.0
  0
LINE
  5
637B2
330
1F
100
AcDbEntity
  8
freecads.com
100
AcDbLine
 10
163106.9860430779
 20
105843.3090154946
 30
0.0
 11
163126.1715765288
 21
105825.507159888
 31
0.0
  0
LINE
  5
637B3
330
1F
100
AcDbEntity
  8
freecads.com
100
AcDbLine
 10
163126.1715765288
 20
105825.507159888
 30
0.0
 11
163154.9510902129
 21
105817.2899306766
 31
0.0
  0
LINE
  5
637B4
330
1F
100
AcDbEntity
  8
freecads.com
100
AcDbLine
 10
163154.9510902129
 20
105817.2899306766
 30
0.0
 11
163176.8791477382
 21
105810.4443806854
 31
0.0
  0
LINE
  5
637B5
330
1F
100
AcDbEntity
  8
freecads.com
100
AcDbLine
 10
163176.8791477382
 20
105810.4443806854
 30
0.0
 11
163186.4707009578
 21
105795.380174137
 31
0.0
  0
LINE
  5
637B6
330
1F
100
AcDbEntity
  8
freecads.com
100
AcDbLine
 10
163186.4707009578
 20
105795.380174137
 30
0.0
 11
163186.4707009578
 21
105778.9471430598
 31
0.0
  0
LINE
  5
637B7
330
1F
100
AcDbEntity
  8
freecads.com
100
AcDbLine
 10
163186.4707009578
 20
105778.9471430598
 30
0.0
 11
163174.1366236657
 21
105769.3625166646
 31
0.0
  0
LINE
  5
637B8
330
1F
100
AcDbEntity
  8
freecads.com
100
AcDbLine
 10
163174.1366236657
 20
105769.3625166646
 30
0.0
 11
163126.1715765288
 21
105766.6234402611
 31
0.0
  0
LINE
  5
637B9
330
1F
100
AcDbEntity
  8
freecads.com
100
AcDbLine
 10
163126.1715765288
 20
105766.6234402611
 30
0.0
 11
163068.6149761732
 21
105763.8843638571
 31
0.0
  0
LINE
  5
637BA
330
1F
100
AcDbEntity
  8
freecads.com
100
AcDbLine
 10
163068.6149761732
 20
105763.8843638571
 30
0.0
 11
163043.9468215881
 21
105759.776462924
 31
0.0
  0
LINE
  5
637BB
330
1F
100
AcDbEntity
  8
freecads.com
100
AcDbLine
 10
163043.9468215881
 20
105759.776462924
 30
0.0
 11
163008.3158517443
 21
105759.776462924
 31
0.0
  0
LINE
  5
637BC
330
1F
100
AcDbEntity
  8
freecads.com
100
AcDbLine
 10
163008.3158517443
 20
105759.776462924
 30
0.0
 11
162997.3530364884
 21
105762.5155393278
 31
0.0
  0
LINE
  5
637BD
330
1F
100
AcDbEntity
  8
freecads.com
100
AcDbLine
 10
162997.3530364884
 20
105762.5155393278
 30
0.0
 11
162997.3530364884
 21
105796.7504260117
 31
0.0
  0
LINE
  5
637BE
330
1F
100
AcDbEntity
  8
freecads.com
100
AcDbLine
 10
162997.3530364884
 20
105796.7504260117
 30
0.0
 11
163001.4643955864
 21
105829.6150608212
 31
0.0
  0
LINE
  5
637BF
330
1F
100
AcDbEntity
  8
freecads.com
100
AcDbLine
 10
163001.4643955864
 20
105829.6150608212
 30
0.0
 11
163002.83323061
 21
105839.2011145617
 31
0.0
  0
LINE
  5
637C0
330
1F
100
AcDbEntity
  8
freecads.com
100
AcDbLine
 10
163002.83323061
 20
105839.2011145617
 30
0.0
 11
163015.1673079031
 21
105841.9401909656
 31
0.0
  0
LINE
  5
637C1
330
1F
100
AcDbEntity
  8
freecads.com
100
AcDbLine
 10
162997.3530364884
 20
105762.5155393278
 30
0.0
 11
162991.8704153551
 21
105757.0373865203
 31
0.0
  0
LINE
  5
637C2
330
1F
100
AcDbEntity
  8
freecads.com
100
AcDbLine
 10
162991.8704153551
 20
105757.0373865203
 30
0.0
 11
162991.8704153551
 21
105741.9746073176
 31
0.0
  0
LINE
  5
637C3
330
1F
100
AcDbEntity
  8
freecads.com
100
AcDbLine
 10
163073.4170175791
 20
105885.0760112873
 30
0.0
 11
163078.2065293929
 21
105865.2187720339
 31
0.0
  0
LINE
  5
637C4
330
1F
100
AcDbEntity
  8
freecads.com
100
AcDbLine
 10
163078.2065293929
 20
105865.2187720339
 30
0.0
 11
163083.6891505271
 21
105854.2638937642
 31
0.0
  0
LINE
  5
637C5
330
1F
100
AcDbEntity
  8
freecads.com
100
AcDbLine
 10
163083.6891505271
 20
105854.2638937642
 30
0.0
 11
163094.828922214
 21
105842.3748787649
 31
0.0
  0
LINE
  5
637C6
330
1F
100
AcDbEntity
  8
freecads.com
100
AcDbLine
 10
163120.1551738241
 20
106470.4797678712
 30
0.0
 11
163426.3371515404
 21
105865.8727234908
 31
0.0
  0
ARC
  5
637C7
330
1F
100
AcDbEntity
  8
freecads.com
100
AcDbCircle
 10
163381.7308347589
 20
105843.2834228564
 30
0.0
 40
49.99999999965158
100
AcDbArc
 50
272.3694565240222
 51
26.85833053450218
  0
LINE
  5
637C8
330
1F
100
AcDbEntity
  8
freecads.com
100
AcDbLine
 10
163383.7979863184
 20
105793.3261722876
 30
0.0
 11
163370.8422405449
 21
105792.790084137
 31
0.0
  0
LINE
  5
637C9
330
1F
100
AcDbEntity
  8
freecads.com
100
AcDbLine
 10
163111.2798321973
 20
106011.4148675213
 30
0.0
 11
163221.9366339538
 21
106016.3461350563
 31
0.0
  0
LINE
  5
637CA
330
1F
100
AcDbEntity
  8
freecads.com
100
AcDbLine
 10
163221.9366339538
 20
106016.3461350563
 30
0.0
 11
163348.1192306448
 21
106020.3269677388
 31
0.0
  0
LINE
  5
637CB
330
1F
100
AcDbEntity
  8
freecads.com
100
AcDbLine
 10
163367.9966704696
 20
105754.6665653077
 30
0.0
 11
163368.1259951554
 21
105756.3991924989
 31
0.0
  0
LINE
  5
637CC
330
1F
100
AcDbEntity
  8
freecads.com
100
AcDbLine
 10
163370.8422405449
 20
105792.790084137
 30
0.0
 11
163127.5661797831
 21
105825.1089678017
 31
0.0
  0
LINE
  5
637CD
330
1F
100
AcDbEntity
  8
freecads.com
100
AcDbLine
 10
163215.6530987089
 20
106560.1505744018
 30
0.0
 11
163236.9549870212
 21
106524.7124352903
 31
0.0
  0
LINE
  5
637CE
330
1F
100
AcDbEntity
  8
freecads.com
100
AcDbLine
 10
163236.9549870212
 20
106524.7124352903
 30
0.0
 11
163223.8403228307
 21
106511.1236418299
 31
0.0
  0
LINE
  5
637CF
330
1F
100
AcDbEntity
  8
freecads.com
100
AcDbLine
 10
163260.8756217724
 20
106560.1505744018
 30
0.0
 11
163282.010046225
 21
106526.5879675441
 31
0.0
  0
LINE
  5
637D0
330
1F
100
AcDbEntity
  8
freecads.com
100
AcDbLine
 10
163282.010046225
 20
106526.5879675441
 30
0.0
 11
163319.7060088292
 21
106516.4034930593
 31
0.0
  0
LINE
  5
637D1
330
1F
100
AcDbEntity
  8
freecads.com
100
AcDbLine
 10
163133.4283437682
 20
106888.6784527999
 30
0.0
 11
163613.0788151249
 21
106883.2017273378
 31
0.0
  0
LINE
  5
637D2
330
1F
100
AcDbEntity
  8
freecads.com
100
AcDbLine
 10
163613.0788151249
 20
106883.2017273378
 30
0.0
 11
163540.4456134029
 21
106738.0463787362
 31
0.0
  0
LINE
  5
637D3
330
1F
100
AcDbEntity
  8
freecads.com
100
AcDbLine
 10
163540.4456134029
 20
106738.0463787362
 30
0.0
 11
163459.5921204975
 21
106739.4152032651
 31
0.0
  0
LINE
  5
637D4
330
1F
100
AcDbEntity
  8
freecads.com
100
AcDbLine
 10
163459.5921204975
 20
106739.4152032651
 30
0.0
 11
163521.260079951
 21
106876.3547500009
 31
0.0
  0
LINE
  5
637D5
330
1F
100
AcDbEntity
  8
freecads.com
100
AcDbLine
 10
163521.260079951
 20
106876.3547500009
 30
0.0
 11
163610.3378583714
 21
106877.7240047047
 31
0.0
  0
LINE
  5
637D6
330
1F
100
AcDbEntity
  8
freecads.com
100
AcDbLine
 10
163754.0220843544
 20
105804.082909248
 30
0.0
 11
163736.3200805448
 21
105852.212797989
 31
0.0
  0
LINE
  5
637D7
330
1F
100
AcDbEntity
  8
freecads.com
100
AcDbLine
 10
163736.3200805448
 20
105852.212797989
 30
0.0
 11
163725.0563157443
 21
105951.6345629242
 31
0.0
  0
LINE
  5
637D8
330
1F
100
AcDbEntity
  8
freecads.com
100
AcDbLine
 10
163725.0563157443
 20
105951.6345629242
 30
0.0
 11
163648.0860427674
 21
105976.0207642582
 31
0.0
  0
LINE
  5
637D9
330
1F
100
AcDbEntity
  8
freecads.com
100
AcDbLine
 10
163648.0860427674
 20
105976.0207642582
 30
0.0
 11
163539.2029830264
 21
105996.6559010849
 31
0.0
  0
LINE
  5
637DA
330
1F
100
AcDbEntity
  8
freecads.com
100
AcDbLine
 10
163539.2029830264
 20
105996.6559010849
 30
0.0
 11
163488.5148279173
 21
106004.1594574449
 31
0.0
  0
LINE
  5
637DB
330
1F
100
AcDbEntity
  8
freecads.com
100
AcDbLine
 10
163268.5203685024
 20
106480.9132545149
 30
0.0
 11
163524.1846299581
 21
105945.0616359624
 31
0.0
  0
LINE
  5
637DC
330
1F
100
AcDbEntity
  8
freecads.com
100
AcDbLine
 10
163524.1846299581
 20
105945.0616359624
 30
0.0
 11
163725.0563157443
 21
105951.6345629242
 31
0.0
  0
LINE
  5
637DD
330
1F
100
AcDbEntity
  8
freecads.com
380
     2
100
AcDbLine
 10
162320.4568359517
 20
105469.4588690756
 30
0.0
 11
161421.6988010882
 21
105469.4588690756
 31
0.0
  0
LINE
  5
637DE
330
1F
100
AcDbEntity
  8
freecads.com
380
     2
100
AcDbLine
 10
162219.4144123644
 20
105520.1082313429
 30
0.0
 11
161421.2577675218
 21
105520.1082313429
 31
0.0
  0
LINE
  5
637DF
330
1F
100
AcDbEntity
  8
freecads.com
380
     2
100
AcDbLine
 10
162223.7362810364
 20
105577.9163833121
 30
0.0
 11
161420.7543981941
 21
105577.9163833121
 31
0.0
  0
LINE
  5
637E0
330
1F
100
AcDbEntity
  8
freecads.com
390
F
100
AcDbLine
 10
162589.7277007224
 20
105699.2338109994
 30
0.0
 11
161420.7543981941
 21
105577.9163833121
 31
0.0
  0
LINE
  5
637E1
330
1F
100
AcDbEntity
  8
freecads.com
100
AcDbLine
 10
162755.8108544815
 20
105469.4588690756
 30
0.0
 11
162755.8108544815
 21
105519.4588690755
 31
0.0
  0
ARC
  5
637E2
330
1F
100
AcDbEntity
  8
freecads.com
100
AcDbCircle
 10
162805.810854482
 20
105519.458869075
 30
0.0
 40
50.00000000046566
100
AcDbArc
 50
90.0
 51
179.9999999991662
  0
LINE
  5
637E3
330
1F
100
AcDbEntity
  8
freecads.com
100
AcDbLine
 10
162805.8108544825
 20
105569.4588690755
 30
0.0
 11
163488.6988652833
 21
105569.4588690755
 31
0.0
  0
ARC
  5
637E4
330
1F
100
AcDbEntity
  8
freecads.com
100
AcDbCircle
 10
163488.6988652837
 20
105519.458869075
 30
0.0
 40
50.00000000046566
100
AcDbArc
 50
0.0000000008337633
 51
90.0
  0
LINE
  5
637E5
330
1F
100
AcDbEntity
  8
freecads.com
100
AcDbLine
 10
163538.6988652842
 20
105519.4588690755
 30
0.0
 11
163538.6988652842
 21
105469.4588690756
 31
0.0
  0
LINE
  5
637E6
330
1F
100
AcDbEntity
  8
freecads.com
100
AcDbLine
 10
163538.6988652842
 20
105469.4588690756
 30
0.0
 11
163813.2903535217
 21
105469.4588690756
 31
0.0
  0
LINE
  5
637E7
330
1F
100
AcDbEntity
  8
freecads.com
100
AcDbLine
 10
163813.2903535217
 20
105469.4588690756
 30
0.0
 11
163810.1507391101
 21
105755.0100213213
 31
0.0
  0
ARC
  5
637E8
330
1F
100
AcDbEntity
  8
freecads.com
100
AcDbCircle
 10
163760.1537610469
 20
105754.4603081375
 30
0.0
 40
50.00000000034183
100
AcDbArc
 50
0.6299375984844798
 51
97.04411579346702
  0
LINE
  5
637E9
330
1F
100
AcDbEntity
  8
freecads.com
100
AcDbLine
 10
163754.0220843544
 20
105804.082909248
 30
0.0
 11
162427.4638150651
 21
105640.1651331045
 31
0.0
  0
LINE
  5
637EA
330
1F
100
AcDbEntity
  8
freecads.com
100
AcDbLine
 10
163370.8422405449
 20
105792.790084137
 30
0.0
 11
163381.5078488039
 21
105935.6825473489
 31
0.0
  0
LINE
  5
637EB
330
1F
100
AcDbEntity
  8
freecads.com
100
AcDbLine
 10
163381.5078488039
 20
105935.6825473489
 30
0.0
 11
163103.9953292562
 21
105967.5016567566
 31
0.0
  0
LINE
  5
637EC
330
1F
100
AcDbEntity
  8
freecads.com
390
F
100
AcDbLine
 10
162999.2821122771
 20
105812.1707213035
 30
0.0
 11
162663.004379645
 21
105773.0169708087
 31
0.0
  0
LINE
  5
637ED
330
1F
100
AcDbEntity
  8
freecads.com
390
F
100
AcDbLine
 10
162563.5391880218
 20
105761.4359622623
 30
0.0
 11
161420.3154413839
 21
105628.3272458901
 31
0.0
  0
LINE
  5
637EE
330
1F
100
AcDbEntity
  8
freecads.com
100
AcDbLine
 10
162557.5979263643
 20
105777.932135684
 30
0.0
 11
161260.7619479568
 21
105626.9379204758
 31
0.0
  0
LINE
  5
637EF
330
1F
100
AcDbEntity
  8
freecads.com
100
AcDbLine
 10
162645.0641500139
 20
105695.8303557016
 30
0.0
 11
162630.0780957928
 21
105728.2806526439
 31
0.0
  0
LINE
  5
637F0
330
1F
100
AcDbEntity
  8
freecads.com
100
AcDbLine
 10
162630.0780957928
 20
105728.2806526439
 30
0.0
 11
162604.0386791704
 21
105757.0373865203
 31
0.0
  0
LINE
  5
637F1
330
1F
100
AcDbEntity
  8
freecads.com
100
AcDbLine
 10
162604.0386791704
 20
105757.0373865203
 30
0.0
 11
162594.4471259517
 21
105780.3173949343
 31
0.0
  0
LINE
  5
637F2
330
1F
100
AcDbEntity
  8
freecads.com
100
AcDbLine
 10
162594.4471259517
 20
105780.3173949343
 30
0.0
 11
162591.7046018783
 21
105809.0741288105
 31
0.0
  0
LINE
  5
637F3
330
1F
100
AcDbEntity
  8
freecads.com
100
AcDbLine
 10
162591.7046018783
 20
105809.0741288105
 30
0.0
 11
162590.3357668537
 21
105835.0932136285
 31
0.0
  0
LINE
  5
637F4
330
1F
100
AcDbEntity
  8
freecads.com
100
AcDbLine
 10
162590.3357668537
 20
105835.0932136285
 30
0.0
 11
162578.0016895598
 21
105865.2187720339
 31
0.0
  0
LINE
  5
637F5
330
1F
100
AcDbEntity
  8
freecads.com
100
AcDbLine
 10
162578.0016895598
 20
105865.2187720339
 30
0.0
 11
162542.3707197187
 21
105881.6518031114
 31
0.0
  0
LINE
  5
637F6
330
1F
100
AcDbEntity
  8
freecads.com
100
AcDbLine
 10
162542.3707197187
 20
105881.6518031114
 30
0.0
 11
162525.9252833268
 21
105874.8048257745
 31
0.0
  0
LINE
  5
637F7
330
1F
100
AcDbEntity
  8
freecads.com
100
AcDbLine
 10
162525.9252833268
 20
105874.8048257745
 30
0.0
 11
162523.1827592542
 21
105848.7871683023
 31
0.0
  0
LINE
  5
637F8
330
1F
100
AcDbEntity
  8
freecads.com
100
AcDbLine
 10
162523.1827592542
 20
105848.7871683023
 30
0.0
 11
162530.0366424248
 21
105807.7053042815
 31
0.0
  0
LINE
  5
637F9
330
1F
100
AcDbEntity
  8
freecads.com
100
AcDbLine
 10
162530.0366424248
 20
105807.7053042815
 30
0.0
 11
162553.3335349746
 21
105787.1643722712
 31
0.0
  0
LINE
  5
637FA
330
1F
100
AcDbEntity
  8
freecads.com
100
AcDbLine
 10
162553.3335349746
 20
105787.1643722712
 30
0.0
 11
162561.5562531687
 21
105769.3625166646
 31
0.0
  0
LINE
  5
637FB
330
1F
100
AcDbEntity
  8
freecads.com
100
AcDbLine
 10
162561.5562531687
 20
105769.3625166646
 30
0.0
 11
162568.4077093275
 21
105741.9746073176
 31
0.0
  0
LINE
  5
637FC
330
1F
100
AcDbEntity
  8
freecads.com
100
AcDbLine
 10
162568.4077093275
 20
105741.9746073176
 30
0.0
 11
162578.0016895598
 21
105720.0634234324
 31
0.0
  0
LINE
  5
637FD
330
1F
100
AcDbEntity
  8
freecads.com
100
AcDbLine
 10
162578.0016895598
 20
105720.0634234324
 30
0.0
 11
162590.3357668537
 21
105698.1536668931
 31
0.0
  0
LINE
  5
637FE
330
1F
100
AcDbEntity
  8
freecads.com
100
AcDbLine
 10
162590.3357668537
 20
105698.1536668931
 30
0.0
 11
162608.700713126
 21
105690.97241219
 31
0.0
  0
LINE
  5
637FF
330
1F
100
AcDbEntity
  8
freecads.com
100
AcDbLine
 10
163181.0490891952
 20
105767.4348238256
 30
0.0
 11
163186.4707009578
 21
105778.9471430598
 31
0.0
  0
ENDSEC
  0
SECTION
  2
OBJECTS
  0
DICTIONARY
  5
C
330
0
100
AcDbDictionary
281
     1
  3
ACAD_ASSOCPERSSUBENTMANAGER
350
2C1D4
  3
ACAD_CIP_PREVIOUS_PRODUCT_INFO
350
1A5
  3
ACAD_COLOR
350
73
  3
ACAD_DETAILVIEWSTYLE
350
1AB
  3
ACAD_GROUP
350
D
  3
ACAD_LAYOUT
350
1A
  3
ACAD_MATERIAL
350
72
  3
ACAD_MLEADERSTYLE
350
D7
  3
ACAD_MLINESTYLE
350
17
  3
ACAD_PLOTSETTINGS
350
19
  3
ACAD_PLOTSTYLENAME
350
E
  3
ACAD_SCALELIST
350
B6
  3
ACAD_SECTIONVIEWSTYLE
350
1A8
  3
ACAD_TABLESTYLE
350
86
  3
ACAD_VISUALSTYLE
350
99
  3
ACAD_WIPEOUT_VARS
350
59B06
  3
ACDB_RECOMPOSE_DATA
350
67411
  3
ACDBVARIABLEDICTIONARY
350
4A0D5
  3
AEC_PROPERTY_SET_DEFS
350
22D1
  0
DICTIONARY
  5
18E
330
2
100
AcDbDictionary
280
     1
281
     1
  3
ACAD_LAYERSTATES
360
18F
  0
DICTIONARY
  5
E6
330
10
100
AcDbDictionary
280
     1
281
     1
  0
DICTIONARY
  5
15D
330
1F
100
AcDbDictionary
280
     1
281
     1
  3
ACAD_SORTENTS
360
28E
  0
ACDBASSOCPERSSUBENTMANAGER
  5
2C1D4
102
{ACAD_REACTORS
330
C
102
}
330
C
100
AcDbAssocPersSubentManager
 90
        2
 90
        3
 90
        0
 90
        2
 90
     1260
 90
        0
 90
     1260
 90
        1
 90
        2
 90
        3
 90
        4
 90
        5
 90
        6
 90
        7
 90
        8
 90
        9
 90
       10
 90
       11
 90
       12
 90
       13
 90
       14
 90
       15
 90
       16
 90
       17
 90
       18
 90
       19
 90
       20
 90
       21
 90
       22
 90
       23
 90
       24
 90
       25
 90
       26
 90
       27
 90
       28
 90
       29
 90
       30
 90
       31
 90
       32
 90
       33
 90
       34
 90
       35
 90
       36
 90
       37
 90
       38
 90
       39
 90
       40
 90
       41
 90
       42
 90
       43
 90
       44
 90
       45
 90
       46
 90
       47
 90
       48
 90
       49
 90
       50
 90
       51
 90
       52
 90
       53
 90
       54
 90
       55
 90
       56
 90
       57
 90
       58
 90
       59
 90
       60
 90
       61
 90
       62
 90
       63
 90
       64
 90
       65
 90
       66
 90
       67
 90
       68
 90
       69
 90
       70
 90
       71
 90
       72
 90
       73
 90
       74
 90
       75
 90
       76
 90
       77
 90
       78
 90
       79
 90
       80
 90
       81
 90
       82
 90
       83
 90
       84
 90
       85
 90
       86
 90
       87
 90
       88
 90
       89
 90
       90
 90
       91
 90
       92
 90
       93
 90
       94
 90
       95
 90
       96
 90
       97
 90
       98
 90
       99
 90
      100
 90
      101
 90
      102
 90
      103
 90
      104
 90
      105
 90
      106
 90
      107
 90
      108
 90
      109
 90
      110
 90
      111
 90
      112
 90
      113
 90
      114
 90
      115
 90
      116
 90
      117
 90
      118
 90
      119
 90
      120
 90
      121
 90
      122
 90
      123
 90
      124
 90
      125
 90
      126
 90
      127
 90
      128
 90
      129
 90
      130
 90
      131
 90
      132
 90
      133
 90
      134
 90
      135
 90
      136
 90
      137
 90
      138
 90
      139
 90
      140
 90
      141
 90
      142
 90
      143
 90
      144
 90
      145
 90
      146
 90
      147
 90
      148
 90
      149
 90
      150
 90
      151
 90
      152
 90
      153
 90
      154
 90
      155
 90
      156
 90
      157
 90
      158
 90
      159
 90
      160
 90
      161
 90
      162
 90
      163
 90
      164
 90
      165
 90
      166
 90
      167
 90
      168
 90
      169
 90
      170
 90
      171
 90
      172
 90
      173
 90
      174
 90
      175
 90
      176
 90
      177
 90
      178
 90
      179
 90
      180
 90
      181
 90
      182
 90
      183
 90
      184
 90
      185
 90
      186
 90
      187
 90
      188
 90
      189
 90
      190
 90
      191
 90
      192
 90
      193
 90
      194
 90
      195
 90
      196
 90
      197
 90
      198
 90
      199
 90
      200
 90
      201
 90
      202
 90
      203
 90
      204
 90
      205
 90
      206
 90
      207
 90
      208
 90
      209
 90
      210
 90
      211
 90
      212
 90
      213
 90
      214
 90
      215
 90
      216
 90
      217
 90
      218
 90
      219
 90
      220
 90
      221
 90
      222
 90
      223
 90
      224
 90
      225
 90
      226
 90
      227
 90
      228
 90
      229
 90
      230
 90
      231
 90
      232
 90
      233
 90
      234
 90
      235
 90
      236
 90
      237
 90
      238
 90
      239
 90
      240
 90
      241
 90
      242
 90
      243
 90
      244
 90
      245
 90
      246
 90
      247
 90
      248
 90
      249
 90
      250
 90
      251
 90
      252
 90
      253
 90
      254
 90
      255
 90
      256
 90
      257
 90
      258
 90
      259
 90
      260
 90
      261
 90
      262
 90
      263
 90
      264
 90
      265
 90
      266
 90
      267
 90
      268
 90
      269
 90
      270
 90
      271
 90
      272
 90
      273
 90
      274
 90
      275
 90
      276
 90
      277
 90
      278
 90
      279
 90
      280
 90
      281
 90
      282
 90
      283
 90
      284
 90
      285
 90
      286
 90
      287
 90
      288
 90
      289
 90
      290
 90
      291
 90
      292
 90
      293
 90
      294
 90
      295
 90
      296
 90
      297
 90
      298
 90
      299
 90
      300
 90
      301
 90
      302
 90
      303
 90
      304
 90
      305
 90
      306
 90
      307
 90
      308
 90
      309
 90
      310
 90
      311
 90
      312
 90
      313
 90
      314
 90
      315
 90
      316
 90
      317
 90
      318
 90
      319
 90
      320
 90
      321
 90
      322
 90
      323
 90
      324
 90
      325
 90
      326
 90
      327
 90
      328
 90
      329
 90
      330
 90
      331
 90
      332
 90
      333
 90
      334
 90
      335
 90
      336
 90
      337
 90
      338
 90
      339
 90
      340
 90
      341
 90
      342
 90
      343
 90
      344
 90
      345
 90
      346
 90
      347
 90
      348
 90
      349
 90
      350
 90
      351
 90
      352
 90
      353
 90
      354
 90
      355
 90
      356
 90
      357
 90
      358
 90
      359
 90
      360
 90
      361
 90
      362
 90
      363
 90
      364
 90
      365
 90
      366
 90
      367
 90
      368
 90
      369
 90
      370
 90
      371
 90
      372
 90
      373
 90
      374
 90
      375
 90
      376
 90
      377
 90
      378
 90
      379
 90
      380
 90
      381
 90
      382
 90
      383
 90
      384
 90
      385
 90
      386
 90
      387
 90
      388
 90
      389
 90
      390
 90
      391
 90
      392
 90
      393
 90
      394
 90
      395
 90
      396
 90
      397
 90
      398
 90
      399
 90
      400
 90
      401
 90
      402
 90
      403
 90
      404
 90
      405
 90
      406
 90
      407
 90
      408
 90
      409
 90
      410
 90
      411
 90
      412
 90
      413
 90
      414
 90
      415
 90
      416
 90
      417
 90
      418
 90
      419
 90
      420
 90
      421
 90
      422
 90
      423
 90
      424
 90
      425
 90
      426
 90
      427
 90
      428
 90
      429
 90
      430
 90
      431
 90
      432
 90
      433
 90
      434
 90
      435
 90
      436
 90
      437
 90
      438
 90
      439
 90
      440
 90
      441
 90
      442
 90
      443
 90
      444
 90
      445
 90
      446
 90
      447
 90
      448
 90
      449
 90
      450
 90
      451
 90
      452
 90
      453
 90
      454
 90
      455
 90
      456
 90
      457
 90
      458
 90
      459
 90
      460
 90
      461
 90
      462
 90
      463
 90
      464
 90
      465
 90
      466
 90
      467
 90
      468
 90
      469
 90
      470
 90
      471
 90
      472
 90
      473
 90
      474
 90
      475
 90
      476
 90
      477
 90
      478
 90
      479
 90
      480
 90
      481
 90
      482
 90
      483
 90
      484
 90
      485
 90
      486
 90
      487
 90
      488
 90
      489
 90
      490
 90
      491
 90
      492
 90
      493
 90
      494
 90
      495
 90
      496
 90
      497
 90
      498
 90
      499
 90
      500
 90
      501
 90
      502
 90
      503
 90
      504
 90
      505
 90
      506
 90
      507
 90
      508
 90
      509
 90
      510
 90
      511
 90
      512
 90
      513
 90
      514
 90
      515
 90
      516
 90
      517
 90
      518
 90
      519
 90
      520
 90
      521
 90
      522
 90
      523
 90
      524
 90
      525
 90
      526
 90
      527
 90
      528
 90
      529
 90
      530
 90
      531
 90
      532
 90
      533
 90
      534
 90
      535
 90
      536
 90
      537
 90
      538
 90
      539
 90
      540
 90
      541
 90
      542
 90
      543
 90
      544
 90
      545
 90
      546
 90
      547
 90
      548
 90
      549
 90
      550
 90
      551
 90
      552
 90
      553
 90
      554
 90
      555
 90
      556
 90
      557
 90
      558
 90
      559
 90
      560
 90
      561
 90
      562
 90
      563
 90
      564
 90
      565
 90
      566
 90
      567
 90
      568
 90
      569
 90
      570
 90
      571
 90
      572
 90
      573
 90
      574
 90
      575
 90
      576
 90
      577
 90
      578
 90
      579
 90
      580
 90
      581
 90
      582
 90
      583
 90
      584
 90
      585
 90
      586
 90
      587
 90
      588
 90
      589
 90
      590
 90
      591
 90
      592
 90
      593
 90
      594
 90
      595
 90
      596
 90
      597
 90
      598
 90
      599
 90
      600
 90
      601
 90
      602
 90
      603
 90
      604
 90
      605
 90
      606
 90
      607
 90
      608
 90
      609
 90
      610
 90
      611
 90
      612
 90
      613
 90
      614
 90
      615
 90
      616
 90
      617
 90
      618
 90
      619
 90
      620
 90
      621
 90
      622
 90
      623
 90
      624
 90
      625
 90
      626
 90
      627
 90
      628
 90
      629
 90
      630
 90
      631
 90
      632
 90
      633
 90
      634
 90
      635
 90
      636
 90
      637
 90
      638
 90
      639
 90
      640
 90
      641
 90
      642
 90
      643
 90
      644
 90
      645
 90
      646
 90
      647
 90
      648
 90
      649
 90
      650
 90
      651
 90
      652
 90
      653
 90
      654
 90
      655
 90
      656
 90
      657
 90
      658
 90
      659
 90
      660
 90
      661
 90
      662
 90
      663
 90
      664
 90
      665
 90
      666
 90
      667
 90
      668
 90
      669
 90
      670
 90
      671
 90
      672
 90
      673
 90
      674
 90
      675
 90
      676
 90
      677
 90
      678
 90
      679
 90
      680
 90
      681
 90
      682
 90
      683
 90
      684
 90
      685
 90
      686
 90
      687
 90
      688
 90
      689
 90
      690
 90
      691
 90
      692
 90
      693
 90
      694
 90
      695
 90
      696
 90
      697
 90
      698
 90
      699
 90
      700
 90
      701
 90
      702
 90
      703
 90
      704
 90
      705
 90
      706
 90
      707
 90
      708
 90
      709
 90
      710
 90
      711
 90
      712
 90
      713
 90
      714
 90
      715
 90
      716
 90
      717
 90
      718
 90
      719
 90
      720
 90
      721
 90
      722
 90
      723
 90
      724
 90
      725
 90
      726
 90
      727
 90
      728
 90
      729
 90
      730
 90
      731
 90
      732
 90
      733
 90
      734
 90
      735
 90
      736
 90
      737
 90
      738
 90
      739
 90
      740
 90
      741
 90
      742
 90
      743
 90
      744
 90
      745
 90
      746
 90
      747
 90
      748
 90
      749
 90
      750
 90
      751
 90
      752
 90
      753
 90
      754
 90
      755
 90
      756
 90
      757
 90
      758
 90
      759
 90
      760
 90
      761
 90
      762
 90
      763
 90
      764
 90
      765
 90
      766
 90
      767
 90
      768
 90
      769
 90
      770
 90
      771
 90
      772
 90
      773
 90
      774
 90
      775
 90
      776
 90
      777
 90
      778
 90
      779
 90
      780
 90
      781
 90
      782
 90
      783
 90
      784
 90
      785
 90
      786
 90
      787
 90
      788
 90
      789
 90
      790
 90
      791
 90
      792
 90
      793
 90
      794
 90
      795
 90
      796
 90
      797
 90
      798
 90
      799
 90
      800
 90
      801
 90
      802
 90
      803
 90
      804
 90
      805
 90
      806
 90
      807
 90
      808
 90
      809
 90
      810
 90
      811
 90
      812
 90
      813
 90
      814
 90
      815
 90
      816
 90
      817
 90
      818
 90
      819
 90
      820
 90
      821
 90
      822
 90
      823
 90
      824
 90
      825
 90
      826
 90
      827
 90
      828
 90
      829
 90
      830
 90
      831
 90
      832
 90
      833
 90
      834
 90
      835
 90
      836
 90
      837
 90
      838
 90
      839
 90
      840
 90
      841
 90
      842
 90
      843
 90
      844
 90
      845
 90
      846
 90
      847
 90
      848
 90
      849
 90
      850
 90
      851
 90
      852
 90
      853
 90
      854
 90
      855
 90
      856
 90
      857
 90
      858
 90
      859
 90
      860
 90
      861
 90
      862
 90
      863
 90
      864
 90
      865
 90
      866
 90
      867
 90
      868
 90
      869
 90
      870
 90
      871
 90
      872
 90
      873
 90
      874
 90
      875
 90
      876
 90
      877
 90
      878
 90
      879
 90
      880
 90
      881
 90
      882
 90
      883
 90
      884
 90
      885
 90
      886
 90
      887
 90
      888
 90
      889
 90
      890
 90
      891
 90
      892
 90
      893
 90
      894
 90
      895
 90
      896
 90
      897
 90
      898
 90
      899
 90
      900
 90
      901
 90
      902
 90
      903
 90
      904
 90
      905
 90
      906
 90
      907
 90
      908
 90
      909
 90
      910
 90
      911
 90
      912
 90
      913
 90
      914
 90
      915
 90
      916
 90
      917
 90
      918
 90
      919
 90
      920
 90
      921
 90
      922
 90
      923
 90
      924
 90
      925
 90
      926
 90
      927
 90
      928
 90
      929
 90
      930
 90
      931
 90
      932
 90
      933
 90
      934
 90
      935
 90
      936
 90
      937
 90
      938
 90
      939
 90
      940
 90
      941
 90
      942
 90
      943
 90
      944
 90
      945
 90
      946
 90
      947
 90
      948
 90
      949
 90
      950
 90
      951
 90
      952
 90
      953
 90
      954
 90
      955
 90
      956
 90
      957
 90
      958
 90
      959
 90
      960
 90
      961
 90
      962
 90
      963
 90
      964
 90
      965
 90
      966
 90
      967
 90
      968
 90
      969
 90
      970
 90
      971
 90
      972
 90
      973
 90
      974
 90
      975
 90
      976
 90
      977
 90
      978
 90
      979
 90
      980
 90
      981
 90
      982
 90
      983
 90
      984
 90
      985
 90
      986
 90
      987
 90
      988
 90
      989
 90
      990
 90
      991
 90
      992
 90
      993
 90
      994
 90
      995
 90
      996
 90
      997
 90
      998
 90
      999
 90
     1000
 90
     1001
 90
     1002
 90
     1003
 90
     1004
 90
     1005
 90
     1006
 90
     1007
 90
     1008
 90
     1009
 90
     1010
 90
     1011
 90
     1012
 90
     1013
 90
     1014
 90
     1015
 90
     1016
 90
     1017
 90
     1018
 90
     1019
 90
     1020
 90
     1021
 90
     1022
 90
     1023
 90
     1024
 90
     1025
 90
     1026
 90
     1027
 90
     1028
 90
     1029
 90
     1030
 90
     1031
 90
     1032
 90
     1033
 90
     1034
 90
     1035
 90
     1036
 90
     1037
 90
     1038
 90
     1039
 90
     1040
 90
     1041
 90
     1042
 90
     1043
 90
     1044
 90
     1045
 90
     1046
 90
     1047
 90
     1048
 90
     1049
 90
     1050
 90
     1051
 90
     1052
 90
     1053
 90
     1054
 90
     1055
 90
     1056
 90
     1057
 90
     1058
 90
     1059
 90
     1060
 90
     1061
 90
     1062
 90
     1063
 90
     1064
 90
     1065
 90
     1066
 90
     1067
 90
     1068
 90
     1069
 90
     1070
 90
     1071
 90
     1072
 90
     1073
 90
     1074
 90
     1075
 90
     1076
 90
     1077
 90
     1078
 90
     1079
 90
     1080
 90
     1081
 90
     1082
 90
     1083
 90
     1084
 90
     1085
 90
     1086
 90
     1087
 90
     1088
 90
     1089
 90
     1090
 90
     1091
 90
     1092
 90
     1093
 90
     1094
 90
     1095
 90
     1096
 90
     1097
 90
     1098
 90
     1099
 90
     1100
 90
     1101
 90
     1102
 90
     1103
 90
     1104
 90
     1105
 90
     1106
 90
     1107
 90
     1108
 90
     1109
 90
     1110
 90
     1111
 90
     1112
 90
     1113
 90
     1114
 90
     1115
 90
     1116
 90
     1117
 90
     1118
 90
     1119
 90
     1120
 90
     1121
 90
     1122
 90
     1123
 90
     1124
 90
     1125
 90
     1126
 90
     1127
 90
     1128
 90
     1129
 90
     1130
 90
     1131
 90
     1132
 90
     1133
 90
     1134
 90
     1135
 90
     1136
 90
     1137
 90
     1138
 90
     1139
 90
     1140
 90
     1141
 90
     1142
 90
     1143
 90
     1144
 90
     1145
 90
     1146
 90
     1147
 90
     1148
 90
     1149
 90
     1150
 90
     1151
 90
     1152
 90
     1153
 90
     1154
 90
     1155
 90
     1156
 90
     1157
 90
     1158
 90
     1159
 90
     1160
 90
     1161
 90
     1162
 90
     1163
 90
     1164
 90
     1165
 90
     1166
 90
     1167
 90
     1168
 90
     1169
 90
     1170
 90
     1171
 90
     1172
 90
     1173
 90
     1174
 90
     1175
 90
     1176
 90
     1177
 90
     1178
 90
     1179
 90
     1180
 90
     1181
 90
     1182
 90
     1183
 90
     1184
 90
     1185
 90
     1186
 90
     1187
 90
     1188
 90
     1189
 90
     1190
 90
     1191
 90
     1192
 90
     1193
 90
     1194
 90
     1195
 90
     1196
 90
     1197
 90
     1198
 90
     1199
 90
     1200
 90
     1201
 90
     1202
 90
     1203
 90
     1204
 90
     1205
 90
     1206
 90
     1207
 90
     1208
 90
     1209
 90
     1210
 90
     1211
 90
     1212
 90
     1213
 90
     1214
 90
     1215
 90
     1216
 90
     1217
 90
     1218
 90
     1219
 90
     1220
 90
     1221
 90
     1222
 90
     1223
 90
     1224
 90
     1225
 90
     1226
 90
     1227
 90
     1228
 90
     1229
 90
     1230
 90
     1231
 90
     1232
 90
     1233
 90
     1234
 90
     1235
 90
     1236
 90
     1237
 90
     1238
 90
     1239
 90
     1240
 90
     1241
 90
     1242
 90
     1243
 90
     1244
 90
     1245
 90
     1246
 90
     1247
 90
     1248
 90
     1249
 90
     1250
 90
     1251
 90
     1252
 90
     1253
 90
     1254
 90
     1255
 90
     1256
 90
     1257
 90
     1258
 90
     1259
 90
     1260
 90
        0
 90
        0
290
     0
  0
XRECORD
  5
1A5
102
{ACAD_REACTORS
330
C
102
}
330
C
100
AcDbXrecord
280
     1
300
ACD
300
2022
300

  0
DICTIONARY
  5
73
102
{ACAD_REACTORS
330
C
102
}
330
C
100
AcDbDictionary
281
     1
  0
DICTIONARY
  5
1AB
102
{ACAD_REACTORS
330
C
102
}
330
C
100
AcDbDictionary
281
     1
  3
Imperial24
350
1AC
  3
Metric50
350
224
  0
DICTIONARY
  5
D
102
{ACAD_REACTORS
330
C
102
}
330
C
100
AcDbDictionary
281
     1
  0
DICTIONARY
  5
1A
102
{ACAD_REACTORS
330
C
102
}
330
C
100
AcDbDictionary
281
     1
  3
Layout1
350
59
  3
Layout2
350
5E
  3
Model
350
22
  0
DICTIONARY
  5
72
102
{ACAD_REACTORS
330
C
102
}
330
C
100
AcDbDictionary
281
     1
  3
ByBlock
350
97
  3
ByLayer
350
96
  3
Global
350
98
  0
DICTIONARY
  5
D7
102
{ACAD_REACTORS
330
C
102
}
330
C
100
AcDbDictionary
281
     1
  3
Standard
350
D8
  0
DICTIONARY
  5
17
102
{ACAD_REACTORS
330
C
102
}
330
C
100
AcDbDictionary
281
     1
  3
Standard
350
18
  0
DICTIONARY
  5
19
102
{ACAD_REACTORS
330
C
102
}
330
C
100
AcDbDictionary
281
     1
  0
ACDBDICTIONARYWDFLT
  5
E
102
{ACAD_REACTORS
330
C
102
}
330
C
100
AcDbDictionary
281
     1
  3
Normal
350
F
100
AcDbDictionaryWithDefault
340
F
  0
DICTIONARY
  5
B6
102
{ACAD_REACTORS
330
C
102
}
330
C
100
AcDbDictionary
281
     1
  3
*A1
350
2283
  3
A0
350
B7
  3
A1
350
124
  3
A2
350
125
  3
A3
350
126
  3
A4
350
127
  3
A5
350
128
  3
A6
350
129
  3
A7
350
12A
  3
A8
350
12B
  3
A9
350
12C
  3
B0
350
12D
  3
B1
350
12E
  3
B2
350
12F
  3
B3
350
130
  3
B4
350
131
  3
B5
350
132
  3
B6
350
133
  3
B7
350
134
  3
B8
350
135
  3
B9
350
136
  3
C0
350
137
  3
C1
350
138
  3
C2
350
139
  3
C3
350
13A
  3
C4
350
13B
  3
C5
350
13C
  3
C6
350
13D
  3
C7
350
13E
  3
C8
350
13F
  3
C9
350
140
  3
D0
350
141
  3
D1
350
142
  3
D2
350
143
  0
DICTIONARY
  5
1A8
102
{ACAD_REACTORS
330
C
102
}
330
C
100
AcDbDictionary
281
     1
  3
Imperial24
350
1AA
  3
Metric50
350
223
  0
DICTIONARY
  5
86
102
{ACAD_REACTORS
330
C
102
}
330
C
100
AcDbDictionary
281
     1
  3
Standard
350
87
  0
DICTIONARY
  5
99
102
{ACAD_REACTORS
330
C
102
}
330
C
100
AcDbDictionary
281
     1
  3
2dWireframe
350
9F
  3
3dWireframe
350
22946
  3
Basic
350
9E
  3
Brighten
350
A5
  3
ColorChange
350
A9
  3
Conceptual
350
A2
  3
Dim
350
A4
  3
EdgeColorOff
350
175
  3
Facepattern
350
A8
  3
Flat
350
9A
  3
FlatWithEdges
350
9B
  3
Gouraud
350
9C
  3
GouraudWithEdges
350
9D
  3
Hidden
350
A1
  3
JitterOff
350
173
  3
Linepattern
350
A7
  3
OverhangOff
350
174
  3
Realistic
350
A3
  3
Shaded
350
182
  3
Shaded with edges
350
181
  3
Shades of Gray
350
17E
  3
Sketchy
350
17F
  3
Thicken
350
A6
  3
Wireframe
350
A0
  3
X-Ray
350
180
  0
WIPEOUTVARIABLES
  5
59B06
102
{ACAD_REACTORS
330
C
102
}
330
C
100
AcDbWipeoutVariables
 70
     1
  0
XRECORD
  5
67411
102
{ACAD_REACTORS
330
C
102
}
330
C
100
AcDbXrecord
280
     1
 90
        1
330
87
  0
DICTIONARY
  5
4A0D5
102
{ACAD_REACTORS
330
C
102
}
330
C
100
AcDbDictionary
281
     2
  3
#COMPAREDIFFTOTAL
350
4A0D6
  3
#REVCLOUDAPPROXARCLEN
350
4A0D7
  3
ANNOALLVISIBLE
350
4A0D8
  3
CANNOSCALE
350
4A0D9
  3
CMLEADERSTYLE
350
4A0DA
  3
CTABLESTYLE
350
4A0DB
  3
CVIEWDETAILSTYLE
350
4A0DC
  3
CVIEWSECTIONSTYLE
350
4A0DD
  3
DIMADEC
350
4A0DE
  3
DIMASSOC
350
4A0DF
  3
DWFFRAME
350
4A0E0
  3
HIDETEXT
350
4A0E1
  3
HPCOLOR
350
4A0E2
  3
HPLAYER
350
4A0E3
  3
HPTRANSPARENCY
350
4A0E4
  3
INDEXCTL
350
4A0E5
  3
LAYEREVAL
350
4A0E6
  3
LAYERNOTIFY
350
4A0E7
  3
LIGHTINGUNITS
350
4A0E8
  3
MLEADERSCALE
350
4A0E9
  3
MSLTSCALE
350
4A0EA
  3
MSOLESCALE
350
4A0EB
  3
PDFFRAME
350
4A0EC
  3
POINTCLOUDCLIPFRAME
350
4A0ED
  3
PROJECTNAME
350
4A0EE
  3
SOLIDHIST
350
4A0EF
  3
SORTENTS
350
4A0F0
  0
DICTIONARY
  5
22D1
102
{ACAD_REACTORS
330
C
102
}
330
C
100
AcDbDictionary
281
     1
  0
DICTIONARY
  5
18F
102
{ACAD_REACTORS
330
18E
102
}
330
18E
100
AcDbDictionary
281
     1
  0
SORTENTSTABLE
  5
28E
102
{ACAD_REACTORS
330
15D
102
}
330
15D
100
AcDbSortentsTable
330
1F
  0
ACDBDETAILVIEWSTYLE
  5
1AC
102
{ACAD_REACTORS
330
1AB
102
}
330
1AB
100
AcDbModelDocViewStyle
 70
     0
  3
Imperial24
290
     0
300
Imperial24
 90
        0
100
AcDbDetailViewStyle
 70
     0
 71
     0
 90
        3
 71
     1
340
11
 62
   256
 40
0.24
340
0
 62
   256
 40
0.24
300

 40
0.36
280
     3
 71
     2
340
16
 90
       25
 62
   256
 71
     3
340
11
 62
   256
 40
0.24
 90
        1
 40
0.75
 90
        1
300
%<\AcVar ViewType \f "%tc1">% %<\AcVar ViewDetailId>%\PSCALE %<\AcVar ViewScale \f "%sn">%
 71
     4
340
16
 90
       25
 62
   256
340
16
 90
       25
 62
   256
280
     0
  0
ACDBDETAILVIEWSTYLE
  5
224
102
{ACAD_REACTORS
330
1AB
102
}
330
1AB
100
AcDbModelDocViewStyle
 70
     0
  3
Metric50
290
     0
300
Metric50
 90
        0
100
AcDbDetailViewStyle
 70
     0
 71
     0
 90
        3
 71
     1
340
11
 62
   256
 40
5.0
340
0
 62
   256
 40
5.0
300

 40
0.0
280
     1
 71
     2
340
16
 90
       25
 62
   256
 71
     3
340
11
 62
   256
 40
5.0
 90
        0
 40
15.0
 90
        1
300
%<\AcVar ViewDetailId>% (%<\AcVar ViewScale \f "%sn">%)
 71
     4
340
16
 90
       25
 62
   256
340
16
 90
       25
 62
   256
280
     0
  0
LAYOUT
  5
59
102
{ACAD_REACTORS
330
1A
102
}
330
1A
100
AcDbPlotSettings
  1

  2
None
  4

  6

 40
0.0
 41
0.0
 42
0.0
 43
0.0
 44
0.0
 45
0.0
 46
0.0
 47
0.0
 48
0.0
 49
0.0
140
0.0
141
0.0
142
1.0
143
1.0
 70
   688
 72
     0
 73
     0
 74
     5
  7

 75
    16
147
1.0
 76
     0
 77
     2
 78
   300
148
0.0
149
0.0
100
AcDbLayout
  1
Layout1
 70
     1
 71
     1
 10
0.0
 20
0.0
 11
12.0
 21
9.0
 12
0.0
 22
0.0
 32
0.0
 14
0.0
 24
0.0
 34
0.0
 15
0.0
 25
0.0
 35
0.0
146
0.0
 13
0.0
 23
0.0
 33
0.0
 16
1.0
 26
0.0
 36
0.0
 17
0.0
 27
1.0
 37
0.0
 76
     0
330
58
  0
LAYOUT
  5
5E
102
{ACAD_REACTORS
330
1A
102
}
330
1A
100
AcDbPlotSettings
  1

  2
None
  4

  6

 40
0.0
 41
0.0
 42
0.0
 43
0.0
 44
0.0
 45
0.0
 46
0.0
 47
0.0
 48
0.0
 49
0.0
140
0.0
141
0.0
142
1.0
143
1.0
 70
   688
 72
     0
 73
     0
 74
     5
  7

 75
    16
147
1.0
 76
     0
 77
     2
 78
   300
148
0.0
149
0.0
100
AcDbLayout
  1
Layout2
 70
     1
 71
     2
 10
0.0
 20
0.0
 11
12.0
 21
9.0
 12
0.0
 22
0.0
 32
0.0
 14
0.0
 24
0.0
 34
0.0
 15
0.0
 25
0.0
 35
0.0
146
0.0
 13
0.0
 23
0.0
 33
0.0
 16
1.0
 26
0.0
 36
0.0
 17
0.0
 27
1.0
 37
0.0
 76
     0
330
5D
  0
LAYOUT
  5
22
102
{ACAD_XDICTIONARY
360
194
102
}
102
{ACAD_REACTORS
330
1A
102
}
330
1A
100
AcDbPlotSettings
  1

  2
none_device
  4
ANSI_A_(8.50_x_11.00_Inches)
  6

 40
6.349999904632568
 41
19.04999923706055
 42
6.350006103515625
 43
19.04998779296875
 44
215.8999938964844
 45
279.3999938964844
 46
0.0
 47
0.0
 48
0.0
 49
0.0
140
0.0
141
0.0
142
1.0
143
2.584895464708373
 70
 11952
 72
     0
 73
     1
 74
     0
  7

 75
     0
147
0.3868628397755418
 76
     0
 77
     2
 78
   300
148
0.0
149
0.0
100
AcDbLayout
  1
Model
 70
     1
 71
     0
 10
0.0
 20
0.0
 11
12.0
 21
9.0
 12
0.0
 22
0.0
 32
0.0
 14
0.0
 24
0.0
 34
0.0
 15
0.0
 25
0.0
 35
0.0
146
0.0
 13
0.0
 23
0.0
 33
0.0
 16
1.0
 26
0.0
 36
0.0
 17
0.0
 27
1.0
 37
0.0
 76
     0
330
1F
331
94
  0
MATERIAL
  5
97
102
{ACAD_XDICTIONARY
360
188
102
}
102
{ACAD_REACTORS
330
72
102
}
330
72
100
AcDbMaterial
  1
ByBlock
 94
       63
  0
MATERIAL
  5
96
102
{ACAD_XDICTIONARY
360
186
102
}
102
{ACAD_REACTORS
330
72
102
}
330
72
100
AcDbMaterial
  1
ByLayer
 94
       63
  0
MATERIAL
  5
98
102
{ACAD_XDICTIONARY
360
110
102
}
102
{ACAD_REACTORS
330
72
102
}
330
72
100
AcDbMaterial
  1
Global
 43
0.0208000000566244
 43
0.0
 43
0.0
 43
0.0
 43
0.0
 43
0.0208000000566244
 43
0.0
 43
0.0
 43
0.0
 43
0.0
 43
1.0
 43
0.0
 43
0.0
 43
0.0
 43
0.0
 43
1.0
 49
0.0208000000566244
 49
0.0
 49
0.0
 49
0.0
 49
0.0
 49
0.0208000000566244
 49
0.0
 49
0.0
 49
0.0
 49
0.0
 49
1.0
 49
0.0
 49
0.0
 49
0.0
 49
0.0
 49
1.0
142
0.0208000000566244
142
0.0
142
0.0
142
0.0
142
0.0
142
0.0208000000566244
142
0.0
142
0.0
142
0.0
142
0.0
142
1.0
142
0.0
142
0.0
142
0.0
142
0.0
142
1.0
144
0.0208000000566244
144
0.0
144
0.0
144
0.0
144
0.0
144
0.0208000000566244
144
0.0
144
0.0
144
0.0
144
0.0
144
1.0
144
0.0
144
0.0
144
0.0
144
0.0
144
1.0
 94
       63
1001
ACAD
1070
    -1
1070
     3
1070
     0
1000

1071
        0
1070
     0
  0
MLEADERSTYLE
  5
D8
102
{ACAD_REACTORS
330
D7
102
}
330
D7
100
AcDbMLeaderStyle
179
     2
170
     2
171
     1
172
     0
 90
        2
 40
0.0
 41
0.0
173
     1
 91
-1056964608
340
14
 92
       -2
290
     1
 42
0.09
291
     1
 43
0.36
  3
Standard
 44
0.18
300

342
11
174
     1
178
     1
175
     1
176
     0
 93
-1056964608
 45
0.18
292
     0
297
     0
 46
0.18
 94
-1056964608
 47
1.0
 49
1.0
140
1.0
293
     1
141
0.0
294
     1
177
     0
142
1.0
295
     0
296
     0
143
0.125
271
     0
272
     9
273
     9
298
     0
  0
MLINESTYLE
  5
18
102
{ACAD_REACTORS
330
17
102
}
330
17
100
AcDbMlineStyle
  2
STANDARD
 70
     0
  3

 62
   256
 51
90.0
 52
90.0
 71
     2
 49
0.5
 62
   256
  6
BYLAYER
 49
-0.5
 62
   256
  6
BYLAYER
  0
ACDBPLACEHOLDER
  5
F
102
{ACAD_REACTORS
330
E
102
}
330
E
  0
SCALE
  5
2283
102
{ACAD_REACTORS
330
B6
102
}
330
B6
100
AcDbScale
 70
     0
300
1:75
140
1.0
141
75.0
290
     0
  0
SCALE
  5
B7
102
{ACAD_REACTORS
330
B6
102
}
330
B6
100
AcDbScale
 70
     0
300
1:1
140
1.0
141
1.0
290
     1
  0
SCALE
  5
124
102
{ACAD_REACTORS
330
B6
102
}
330
B6
100
AcDbScale
 70
     0
300
1:2
140
1.0
141
2.0
290
     0
  0
SCALE
  5
125
102
{ACAD_REACTORS
330
B6
102
}
330
B6
100
AcDbScale
 70
     0
300
1:4
140
1.0
141
4.0
290
     0
  0
SCALE
  5
126
102
{ACAD_REACTORS
330
B6
102
}
330
B6
100
AcDbScale
 70
     0
300
1:5
140
1.0
141
5.0
290
     0
  0
SCALE
  5
127
102
{ACAD_REACTORS
330
B6
102
}
330
B6
100
AcDbScale
 70
     0
300
1:8
140
1.0
141
8.0
290
     0
  0
SCALE
  5
128
102
{ACAD_REACTORS
330
B6
102
}
330
B6
100
AcDbScale
 70
     0
300
1:10
140
1.0
141
10.0
290
     0
  0
SCALE
  5
129
102
{ACAD_REACTORS
330
B6
102
}
330
B6
100
AcDbScale
 70
     0
300
1:16
140
1.0
141
16.0
290
     0
  0
SCALE
  5
12A
102
{ACAD_REACTORS
330
B6
102
}
330
B6
100
AcDbScale
 70
     0
300
1:20
140
1.0
141
20.0
290
     0
  0
SCALE
  5
12B
102
{ACAD_REACTORS
330
B6
102
}
330
B6
100
AcDbScale
 70
     0
300
1:30
140
1.0
141
30.0
290
     0
  0
SCALE
  5
12C
102
{ACAD_REACTORS
330
B6
102
}
330
B6
100
AcDbScale
 70
     0
300
1:40
140
1.0
141
40.0
290
     0
  0
SCALE
  5
12D
102
{ACAD_REACTORS
330
B6
102
}
330
B6
100
AcDbScale
 70
     0
300
1:50
140
1.0
141
50.0
290
     0
  0
SCALE
  5
12E
102
{ACAD_REACTORS
330
B6
102
}
330
B6
100
AcDbScale
 70
     0
300
1:100
140
1.0
141
100.0
290
     0
  0
SCALE
  5
12F
102
{ACAD_REACTORS
330
B6
102
}
330
B6
100
AcDbScale
 70
     0
300
2:1
140
2.0
141
1.0
290
     0
  0
SCALE
  5
130
102
{ACAD_REACTORS
330
B6
102
}
330
B6
100
AcDbScale
 70
     0
300
4:1
140
4.0
141
1.0
290
     0
  0
SCALE
  5
131
102
{ACAD_REACTORS
330
B6
102
}
330
B6
100
AcDbScale
 70
     0
300
8:1
140
8.0
141
1.0
290
     0
  0
SCALE
  5
132
102
{ACAD_REACTORS
330
B6
102
}
330
B6
100
AcDbScale
 70
     0
300
10:1
140
10.0
141
1.0
290
     0
  0
SCALE
  5
133
102
{ACAD_REACTORS
330
B6
102
}
330
B6
100
AcDbScale
 70
     0
300
100:1
140
100.0
141
1.0
290
     0
  0
SCALE
  5
134
102
{ACAD_REACTORS
330
B6
102
}
330
B6
100
AcDbScale
 70
     0
300
1/128" = 1'-0"
140
0.0078125
141
12.0
290
     0
  0
SCALE
  5
135
102
{ACAD_REACTORS
330
B6
102
}
330
B6
100
AcDbScale
 70
     0
300
1/64" = 1'-0"
140
0.015625
141
12.0
290
     0
  0
SCALE
  5
136
102
{ACAD_REACTORS
330
B6
102
}
330
B6
100
AcDbScale
 70
     0
300
1/32" = 1'-0"
140
0.03125
141
12.0
290
     0
  0
SCALE
  5
137
102
{ACAD_REACTORS
330
B6
102
}
330
B6
100
AcDbScale
 70
     0
300
1/16" = 1'-0"
140
0.0625
141
12.0
290
     0
  0
SCALE
  5
138
102
{ACAD_REACTORS
330
B6
102
}
330
B6
100
AcDbScale
 70
     0
300
3/32" = 1'-0"
140
0.09375
141
12.0
290
     0
  0
SCALE
  5
139
102
{ACAD_REACTORS
330
B6
102
}
330
B6
100
AcDbScale
 70
     0
300
1/8" = 1'-0"
140
0.125
141
12.0
290
     0
  0
SCALE
  5
13A
102
{ACAD_REACTORS
330
B6
102
}
330
B6
100
AcDbScale
 70
     0
300
3/16" = 1'-0"
140
0.1875
141
12.0
290
     0
  0
SCALE
  5
13B
102
{ACAD_REACTORS
330
B6
102
}
330
B6
100
AcDbScale
 70
     0
300
1/4" = 1'-0"
140
0.25
141
12.0
290
     0
  0
SCALE
  5
13C
102
{ACAD_REACTORS
330
B6
102
}
330
B6
100
AcDbScale
 70
     0
300
3/8" = 1'-0"
140
0.375
141
12.0
290
     0
  0
SCALE
  5
13D
102
{ACAD_REACTORS
330
B6
102
}
330
B6
100
AcDbScale
 70
     0
300
1/2" = 1'-0"
140
0.5
141
12.0
290
     0
  0
SCALE
  5
13E
102
{ACAD_REACTORS
330
B6
102
}
330
B6
100
AcDbScale
 70
     0
300
3/4" = 1'-0"
140
0.75
141
12.0
290
     0
  0
SCALE
  5
13F
102
{ACAD_REACTORS
330
B6
102
}
330
B6
100
AcDbScale
 70
     0
300
1" = 1'-0"
140
1.0
141
12.0
290
     0
  0
SCALE
  5
140
102
{ACAD_REACTORS
330
B6
102
}
330
B6
100
AcDbScale
 70
     0
300
1-1/2" = 1'-0"
140
1.5
141
12.0
290
     0
  0
SCALE
  5
141
102
{ACAD_REACTORS
330
B6
102
}
330
B6
100
AcDbScale
 70
     0
300
3" = 1'-0"
140
3.0
141
12.0
290
     0
  0
SCALE
  5
142
102
{ACAD_REACTORS
330
B6
102
}
330
B6
100
AcDbScale
 70
     0
300
6" = 1'-0"
140
6.0
141
12.0
290
     0
  0
SCALE
  5
143
102
{ACAD_REACTORS
330
B6
102
}
330
B6
100
AcDbScale
 70
     0
300
1'-0" = 1'-0"
140
12.0
141
12.0
290
     0
  0
ACDBSECTIONVIEWSTYLE
  5
1AA
102
{ACAD_REACTORS
330
1A8
102
}
330
1A8
100
AcDbModelDocViewStyle
 70
     0
  3
Imperial24
290
     0
300
Imperial24
 90
        0
100
AcDbSectionViewStyle
 70
     0
 71
     0
 90
       78
 71
     1
340
11
 62
   256
 40
0.24
340
0
340
0
 62
   256
 40
0.24
300
I, O, Q, S, X, Z
 40
0.48
 90
        3
 40
0.18
 90
        1
 71
     2
340
16
 90
       25
 62
   256
340
16
 90
       50
 62
   256
 40
0.24
 40
0.0
 40
0.24
 71
     3
340
11
 62
   256
 40
0.24
 90
        1
 40
0.75
 90
        1
300
%<\AcVar ViewType \f "%tc1">% %<\AcVar ViewSectionStartId>%-%<\AcVar ViewSectionEndId>%\PSCALE %<\AcVar ViewScale \f "%sn">%
 71
     4
 62
   256
 62
   257
300
ANSI31
 40
1.0
 90
        0
290
     0
290
     0
 90
        6
 40
0.0
 40
1.570796326794896
 40
0.2617993877991494
 40
1.308996938995747
 40
-0.2617993877991494
 40
1.832595714594046
  0
ACDBSECTIONVIEWSTYLE
  5
223
102
{ACAD_REACTORS
330
1A8
102
}
330
1A8
100
AcDbModelDocViewStyle
 70
     0
  3
Metric50
290
     0
300
Metric50
 90
        0
100
AcDbSectionViewStyle
 70
     0
 71
     0
 90
      102
 71
     1
340
11
 62
   256
 40
5.0
340
0
340
0
 62
   256
 40
5.0
300
I, O, Q, S, X, Z
 40
10.0
 90
        0
 40
2.5
 90
        0
 71
     2
340
16
 90
       25
 62
   256
340
16
 90
       50
 62
   256
 40
5.0
 40
2.5
 40
5.0
 71
     3
340
11
 62
   256
 40
5.0
 90
        0
 40
15.0
 90
        1
300
%<\AcVar ViewSectionStartId>%-%<\AcVar ViewSectionEndId>% (%<\AcVar ViewScale \f "%sn">%)
 71
     4
 62
   256
 62
   257
300
ANSI31
 40
1.0
 90
        0
290
     0
290
     0
 90
        6
 40
0.0
 40
1.570796326794896
 40
0.2617993877991494
 40
1.308996938995747
 40
-0.2617993877991494
 40
1.832595714594046
  0
TABLESTYLE
  5
87
102
{ACAD_XDICTIONARY
360
104
102
}
102
{ACAD_REACTORS
330
86
102
}
330
86
100
AcDbTableStyle
280
     0
  3
Standard
 70
     0
 71
     0
 40
0.06
 41
0.06
280
     0
281
     0
  7
Standard
140
0.18
170
     2
 62
     0
 63
     7
283
     0
 90
      512
 91
        0
  1

274
    -2
284
     1
 64
     0
275
    -2
285
     1
 65
     0
276
    -2
286
     1
 66
     0
277
    -2
287
     1
 67
     0
278
    -2
288
     1
 68
     0
279
    -2
289
     1
 69
     0
  7
Standard
140
0.25
170
     5
 62
     0
 63
     7
283
     0
 90
      512
 91
        0
  1

274
    -2
284
     1
 64
     0
275
    -2
285
     1
 65
     0
276
    -2
286
     1
 66
     0
277
    -2
287
     1
 67
     0
278
    -2
288
     1
 68
     0
279
    -2
289
     1
 69
     0
  7
Standard
140
0.18
170
     5
 62
     0
 63
     7
283
     0
 90
      512
 91
        0
  1

274
    -2
284
     1
 64
     0
275
    -2
285
     1
 65
     0
276
    -2
286
     1
 66
     0
277
    -2
287
     1
 67
     0
278
    -2
288
     1
 68
     0
279
    -2
289
     1
 69
     0
  0
VISUALSTYLE
  5
9F
102
{ACAD_REACTORS
330
99
102
}
330
99
100
AcDbVisualStyle
  2
2dWireframe
 70
     4
177
     3
291
     0
 70
    58
 90
        0
176
     1
 90
        2
176
     1
 90
        1
176
     1
 90
        0
176
     1
 40
0.6
176
     1
 40
30.0
176
     1
 62
     7
420
 16777215
176
     1
 90
        1
176
     1
 90
        4
176
     1
 62
     7
176
     1
 62
   257
176
     1
 90
        1
176
     1
 90
        1
176
     1
 40
1.0
176
     1
 90
        0
176
     1
 62
   257
176
     1
 40
1.0
176
     1
 90
        1
176
     1
 90
        6
176
     1
 90
        2
176
     1
 62
     7
176
     1
 90
        5
176
     1
 90
        0
176
     1
 90
        0
176
     1
290
     0
176
     1
 90
        1
176
     1
 40
0.0
176
     1
 90
        0
176
     1
290
     1
176
     1
290
     1
176
     1
290
     0
176
     1
290
     0
176
     1
290
     0
176
     1
290
     0
176
     1
290
     0
176
     1
290
     0
176
     1
290
     0
176
     1
 90
       50
176
     1
 40
0.0
176
     1
 40
1.0
176
     1
 90
        0
176
     1
 62
    18
420
        0
176
     1
 90
       50
176
     1
 90
        3
176
     1
 62
     5
420
      255
176
     1
290
     0
176
     1
 90
       50
176
     1
 90
       50
176
     1
 90
       50
176
     1
290
     0
176
     1
 90
       50
176
     1
 62
   256
176
     0
 40
1.0
176
     0
 90
        2
176
     1
  1
strokes_ogs.tif
176
     1
290
     0
176
     1
 40
1.0
176
     1
 40
1.0
176
     1
  0
VISUALSTYLE
  5
22946
102
{ACAD_REACTORS
330
99
102
}
330
99
100
AcDbVisualStyle
  2
3dWireframe
 70
     5
177
     3
291
     0
 70
    58
 90
        0
176
     1
 90
        2
176
     1
 90
        0
176
     1
 90
        0
176
     1
 40
0.6
176
     1
 40
30.0
176
     1
 62
     7
176
     1
 90
        1
176
     1
 90
        4
176
     1
 62
     7
176
     1
 62
   257
176
     1
 90
        1
176
     1
 90
        1
176
     1
 40
1.0
176
     1
 90
        0
176
     1
 62
   257
176
     1
 40
1.0
176
     1
 90
        1
176
     1
 90
        6
176
     1
 90
        2
176
     1
 62
     7
176
     1
 90
        5
176
     1
 90
        0
176
     1
 90
        0
176
     1
290
     0
176
     1
 90
        1
176
     1
 40
0.0
176
     1
 90
        0
176
     1
290
     0
176
     1
290
     1
176
     1
290
     1
176
     1
290
     0
176
     1
290
     0
176
     1
290
     0
176
     1
290
     0
176
     1
290
     0
176
     1
290
     0
176
     1
 90
       50
176
     1
 40
0.0
176
     1
 40
1.0
176
     1
 90
        0
176
     1
 62
    18
420
        0
176
     1
 90
       50
176
     1
 90
        3
176
     1
 62
     5
420
      255
176
     1
290
     0
176
     1
 90
       50
176
     1
 90
       50
176
     1
 90
       50
176
     1
290
     0
176
     1
 90
       50
176
     1
 62
   256
176
     0
 40
1.0
176
     0
 90
        2
176
     1
  1
strokes_ogs.tif
176
     1
290
     0
176
     1
 40
1.0
176
     1
 40
1.0
176
     1
  0
VISUALSTYLE
  5
9E
102
{ACAD_REACTORS
330
99
102
}
330
99
100
AcDbVisualStyle
  2
Basic
 70
     7
177
     3
291
     1
 70
    58
 90
        1
176
     1
 90
        0
176
     1
 90
        1
176
     1
 90
        0
176
     1
 40
0.6
176
     1
 40
30.0
176
     1
 62
     7
420
 16777215
176
     1
 90
        0
176
     1
 90
        4
176
     1
 62
     7
176
     1
 62
   257
176
     1
 90
        1
176
     1
 90
        1
176
     1
 40
1.0
176
     1
 90
        8
176
     1
 62
     7
176
     1
 40
1.0
176
     1
 90
        1
176
     1
 90
        6
176
     1
 90
        2
176
     1
 62
     7
176
     1
 90
        5
176
     1
 90
        0
176
     1
 90
        0
176
     1
290
     0
176
     1
 90
        1
176
     1
 40
0.0
176
     1
 90
        0
176
     1
290
     0
176
     1
290
     1
176
     1
290
     1
176
     1
290
     0
176
     1
290
     0
176
     1
290
     0
176
     1
290
     0
176
     1
290
     0
176
     1
290
     0
176
     1
 90
       50
176
     1
 40
0.0
176
     1
 40
1.0
176
     1
 90
        0
176
     1
 62
    18
420
        0
176
     1
 90
       50
176
     1
 90
        3
176
     1
 62
     5
420
      255
176
     1
290
     0
176
     1
 90
       50
176
     1
 90
       50
176
     1
 90
       50
176
     1
290
     0
176
     1
 90
       50
176
     1
 62
   256
176
     0
 40
1.0
176
     0
 90
        2
176
     1
  1
strokes_ogs.tif
176
     1
290
     0
176
     1
 40
1.0
176
     1
 40
1.0
176
     1
  0
VISUALSTYLE
  5
A5
102
{ACAD_REACTORS
330
99
102
}
330
99
100
AcDbVisualStyle
  2
Brighten
 70
    12
177
     3
291
     1
 70
    58
 90
        2
176
     1
 90
        2
176
     1
 90
        1
176
     1
 90
        0
176
     1
 40
0.6
176
     1
 40
30.0
176
     1
 62
     7
420
 16777215
176
     1
 90
        1
176
     1
 90
        4
176
     1
 62
     7
176
     1
 62
   257
176
     1
 90
        1
176
     1
 90
        1
176
     1
 40
1.0
176
     1
 90
        8
176
     1
 62
     7
176
     1
 40
1.0
176
     1
 90
        1
176
     1
 90
        6
176
     1
 90
        2
176
     1
 62
     7
176
     1
 90
        5
176
     1
 90
        0
176
     1
 90
        0
176
     1
290
     0
176
     1
 90
        1
176
     1
 40
50.0
176
     1
 90
        0
176
     1
290
     0
176
     1
290
     1
176
     1
290
     1
176
     1
290
     0
176
     1
290
     0
176
     1
290
     0
176
     1
290
     0
176
     1
290
     0
176
     1
290
     0
176
     1
 90
       50
176
     1
 40
0.0
176
     1
 40
1.0
176
     1
 90
        0
176
     1
 62
    18
420
        0
176
     1
 90
       50
176
     1
 90
        3
176
     1
 62
     5
420
      255
176
     1
290
     0
176
     1
 90
       50
176
     1
 90
       50
176
     1
 90
       50
176
     1
290
     0
176
     1
 90
       50
176
     1
 62
   256
176
     0
 40
1.0
176
     0
 90
        2
176
     1
  1
strokes_ogs.tif
176
     1
290
     0
176
     1
 40
1.0
176
     1
 40
1.0
176
     1
  0
VISUALSTYLE
  5
A9
102
{ACAD_REACTORS
330
99
102
}
330
99
100
AcDbVisualStyle
  2
ColorChange
 70
    16
177
     3
291
     1
 70
    58
 90
        2
176
     1
 90
        2
176
     1
 90
        3
176
     1
 90
        0
176
     1
 40
0.6
176
     1
 40
30.0
176
     1
 62
     8
420
  8421504
176
     1
 90
        1
176
     1
 90
        4
176
     1
 62
     7
176
     1
 62
   257
176
     1
 90
        1
176
     1
 90
        1
176
     1
 40
1.0
176
     1
 90
        8
176
     1
 62
     8
420
  8421504
176
     1
 40
1.0
176
     1
 90
        1
176
     1
 90
        6
176
     1
 90
        2
176
     1
 62
     7
176
     1
 90
        5
176
     1
 90
        0
176
     1
 90
        0
176
     1
290
     0
176
     1
 90
        1
176
     1
 40
0.0
176
     1
 90
        0
176
     1
290
     0
176
     1
290
     1
176
     1
290
     1
176
     1
290
     0
176
     1
290
     0
176
     1
290
     0
176
     1
290
     0
176
     1
290
     0
176
     1
290
     0
176
     1
 90
       50
176
     1
 40
0.0
176
     1
 40
1.0
176
     1
 90
        0
176
     1
 62
    18
420
        0
176
     1
 90
       50
176
     1
 90
        3
176
     1
 62
     5
420
      255
176
     1
290
     0
176
     1
 90
       50
176
     1
 90
       50
176
     1
 90
       50
176
     1
290
     0
176
     1
 90
       50
176
     1
 62
   256
176
     0
 40
1.0
176
     0
 90
        2
176
     1
  1
strokes_ogs.tif
176
     1
290
     0
176
     1
 40
1.0
176
     1
 40
1.0
176
     1
  0
VISUALSTYLE
  5
A2
102
{ACAD_REACTORS
330
99
102
}
330
99
100
AcDbVisualStyle
  2
Conceptual
 70
     9
177
     3
291
     0
 70
    58
 90
        3
176
     1
 90
        2
176
     1
 90
        1
176
     1
 90
        0
176
     1
 40
0.6
176
     1
 40
30.0
176
     1
 62
     7
420
 16777215
176
     1
 90
        2
176
     1
 90
        2
176
     1
 62
     7
176
     1
 62
   257
176
     1
 90
        1
176
     1
 90
        1
176
     1
 40
40.0
176
     1
 90
        8
176
     1
 62
     7
176
     1
 40
1.0
176
     1
 90
        1
176
     1
 90
        6
176
     1
 90
        2
176
     1
 62
     7
176
     1
 90
        3
176
     1
 90
        0
176
     1
 90
        0
176
     1
290
     0
176
     1
 90
        1
176
     1
 40
0.0
176
     1
 90
        0
176
     1
290
     0
176
     1
290
     1
176
     1
290
     1
176
     1
290
     0
176
     1
290
     0
176
     1
290
     0
176
     1
290
     0
176
     1
290
     0
176
     1
290
     0
176
     1
 90
       50
176
     1
 40
0.0
176
     1
 40
1.0
176
     1
 90
        0
176
     1
 62
    18
420
        0
176
     1
 90
       50
176
     1
 90
        3
176
     1
 62
     5
420
      255
176
     1
290
     0
176
     1
 90
       50
176
     1
 90
       50
176
     1
 90
       50
176
     1
290
     0
176
     1
 90
       50
176
     1
 62
   256
176
     0
 40
1.0
176
     0
 90
        2
176
     1
  1
strokes_ogs.tif
176
     1
290
     0
176
     1
 40
1.0
176
     1
 40
1.0
176
     1
  0
VISUALSTYLE
  5
A4
102
{ACAD_REACTORS
330
99
102
}
330
99
100
AcDbVisualStyle
  2
Dim
 70
    11
177
     3
291
     1
 70
    58
 90
        2
176
     1
 90
        2
176
     1
 90
        1
176
     1
 90
        0
176
     1
 40
0.6
176
     1
 40
30.0
176
     1
 62
     7
420
 16777215
176
     1
 90
        1
176
     1
 90
        4
176
     1
 62
     7
176
     1
 62
   257
176
     1
 90
        1
176
     1
 90
        1
176
     1
 40
1.0
176
     1
 90
        8
176
     1
 62
     7
176
     1
 40
1.0
176
     1
 90
        1
176
     1
 90
        6
176
     1
 90
        2
176
     1
 62
     7
176
     1
 90
        5
176
     1
 90
        0
176
     1
 90
        0
176
     1
290
     0
176
     1
 90
        1
176
     1
 40
-50.0
176
     1
 90
        0
176
     1
290
     0
176
     1
290
     1
176
     1
290
     1
176
     1
290
     0
176
     1
290
     0
176
     1
290
     0
176
     1
290
     0
176
     1
290
     0
176
     1
290
     0
176
     1
 90
       50
176
     1
 40
0.0
176
     1
 40
1.0
176
     1
 90
        0
176
     1
 62
    18
420
        0
176
     1
 90
       50
176
     1
 90
        3
176
     1
 62
     5
420
      255
176
     1
290
     0
176
     1
 90
       50
176
     1
 90
       50
176
     1
 90
       50
176
     1
290
     0
176
     1
 90
       50
176
     1
 62
   256
176
     0
 40
1.0
176
     0
 90
        2
176
     1
  1
strokes_ogs.tif
176
     1
290
     0
176
     1
 40
1.0
176
     1
 40
1.0
176
     1
  0
VISUALSTYLE
  5
175
102
{ACAD_REACTORS
330
99
102
}
330
99
100
AcDbVisualStyle
  2
EdgeColorOff
 70
    22
177
     3
291
     1
 70
    58
 90
        2
176
     0
 90
        2
176
     0
 90
        0
176
     0
 90
        0
176
     0
 40
0.6
176
     0
 40
30.0
176
     0
 62
     7
420
 16777215
176
     0
 90
        1
176
     0
 90
        4
176
     0
 62
     7
176
     0
 62
   257
176
     0
 90
        1
176
     0
 90
        1
176
     0
 40
1.0
176
     0
 90
        8
176
     2
 62
     7
176
     0
 40
1.0
176
     0
 90
        1
176
     0
 90
        6
176
     0
 90
        2
176
     0
 62
     7
176
     0
 90
        5
176
     0
 90
        0
176
     0
 90
        0
176
     0
290
     0
176
     0
 90
        1
176
     0
 40
0.0
176
     0
 90
        0
176
     0
290
     0
176
     1
290
     1
176
     1
290
     1
176
     1
290
     0
176
     1
290
     0
176
     1
290
     0
176
     1
290
     0
176
     1
290
     0
176
     1
290
     0
176
     1
 90
       50
176
     1
 40
0.0
176
     1
 40
1.0
176
     1
 90
        0
176
     1
 62
    18
420
        0
176
     1
 90
       50
176
     1
 90
        3
176
     1
 62
     5
420
      255
176
     1
290
     0
176
     1
 90
       50
176
     1
 90
       50
176
     1
 90
       50
176
     1
290
     0
176
     1
 90
       50
176
     1
 62
   256
176
     0
 40
1.0
176
     0
 90
        2
176
     1
  1
strokes_ogs.tif
176
     1
290
     0
176
     1
 40
1.0
176
     1
 40
1.0
176
     1
  0
VISUALSTYLE
  5
A8
102
{ACAD_REACTORS
330
99
102
}
330
99
100
AcDbVisualStyle
  2
Facepattern
 70
    15
177
     3
291
     1
 70
    58
 90
        2
176
     1
 90
        2
176
     1
 90
        1
176
     1
 90
        0
176
     1
 40
0.6
176
     1
 40
30.0
176
     1
 62
     7
420
 16777215
176
     1
 90
        1
176
     1
 90
        4
176
     1
 62
     7
176
     1
 62
   257
176
     1
 90
        1
176
     1
 90
        1
176
     1
 40
1.0
176
     1
 90
        8
176
     1
 62
     7
176
     1
 40
1.0
176
     1
 90
        1
176
     1
 90
        6
176
     1
 90
        2
176
     1
 62
     7
176
     1
 90
        5
176
     1
 90
        0
176
     1
 90
        0
176
     1
290
     0
176
     1
 90
        1
176
     1
 40
0.0
176
     1
 90
        0
176
     1
290
     0
176
     1
290
     1
176
     1
290
     1
176
     1
290
     0
176
     1
290
     0
176
     1
290
     0
176
     1
290
     0
176
     1
290
     0
176
     1
290
     0
176
     1
 90
       50
176
     1
 40
0.0
176
     1
 40
1.0
176
     1
 90
        0
176
     1
 62
    18
420
        0
176
     1
 90
       50
176
     1
 90
        3
176
     1
 62
     5
420
      255
176
     1
290
     0
176
     1
 90
       50
176
     1
 90
       50
176
     1
 90
       50
176
     1
290
     0
176
     1
 90
       50
176
     1
 62
   256
176
     0
 40
1.0
176
     0
 90
        2
176
     1
  1
strokes_ogs.tif
176
     1
290
     0
176
     1
 40
1.0
176
     1
 40
1.0
176
     1
  0
VISUALSTYLE
  5
9A
102
{ACAD_REACTORS
330
99
102
}
330
99
100
AcDbVisualStyle
  2
Flat
 70
     0
177
     3
291
     1
 70
    58
 90
        2
176
     1
 90
        1
176
     1
 90
        1
176
     1
 90
        2
176
     1
 40
0.6
176
     1
 40
30.0
176
     1
 62
     7
420
 16777215
176
     1
 90
        0
176
     1
 90
        0
176
     1
 62
     7
176
     1
 62
   257
176
     1
 90
        1
176
     1
 90
        1
176
     1
 40
1.0
176
     1
 90
        8
176
     1
 62
     7
176
     1
 40
1.0
176
     1
 90
        1
176
     1
 90
        6
176
     1
 90
        2
176
     1
 62
     7
176
     1
 90
        5
176
     1
 90
        0
176
     1
 90
        0
176
     1
290
     0
176
     1
 90
       13
176
     1
 40
0.0
176
     1
 90
        0
176
     1
290
     0
176
     1
290
     1
176
     1
290
     1
176
     1
290
     0
176
     1
290
     0
176
     1
290
     0
176
     1
290
     0
176
     1
290
     0
176
     1
290
     0
176
     1
 90
       50
176
     1
 40
0.0
176
     1
 40
1.0
176
     1
 90
        0
176
     1
 62
    18
420
        0
176
     1
 90
       50
176
     1
 90
        3
176
     1
 62
     5
420
      255
176
     1
290
     0
176
     1
 90
       50
176
     1
 90
       50
176
     1
 90
       50
176
     1
290
     0
176
     1
 90
       50
176
     1
 62
   256
176
     0
 40
1.0
176
     0
 90
        2
176
     1
  1
strokes_ogs.tif
176
     1
290
     0
176
     1
 40
1.0
176
     1
 40
1.0
176
     1
  0
VISUALSTYLE
  5
9B
102
{ACAD_REACTORS
330
99
102
}
330
99
100
AcDbVisualStyle
  2
FlatWithEdges
 70
     1
177
     3
291
     1
 70
    58
 90
        2
176
     1
 90
        1
176
     1
 90
        1
176
     1
 90
        2
176
     1
 40
0.6
176
     1
 40
30.0
176
     1
 62
     7
420
 16777215
176
     1
 90
        1
176
     1
 90
        0
176
     1
 62
     7
176
     1
 62
   257
176
     1
 90
        1
176
     1
 90
        1
176
     1
 40
1.0
176
     1
 90
        0
176
     1
 62
   257
176
     1
 40
1.0
176
     1
 90
        1
176
     1
 90
        6
176
     1
 90
        2
176
     1
 62
     7
176
     1
 90
        5
176
     1
 90
        0
176
     1
 90
        0
176
     1
290
     0
176
     1
 90
       13
176
     1
 40
0.0
176
     1
 90
        0
176
     1
290
     0
176
     1
290
     1
176
     1
290
     1
176
     1
290
     0
176
     1
290
     0
176
     1
290
     0
176
     1
290
     0
176
     1
290
     0
176
     1
290
     0
176
     1
 90
       50
176
     1
 40
0.0
176
     1
 40
1.0
176
     1
 90
        0
176
     1
 62
    18
420
        0
176
     1
 90
       50
176
     1
 90
        3
176
     1
 62
     5
420
      255
176
     1
290
     0
176
     1
 90
       50
176
     1
 90
       50
176
     1
 90
       50
176
     1
290
     0
176
     1
 90
       50
176
     1
 62
   256
176
     0
 40
1.0
176
     0
 90
        2
176
     1
  1
strokes_ogs.tif
176
     1
290
     0
176
     1
 40
1.0
176
     1
 40
1.0
176
     1
  0
VISUALSTYLE
  5
9C
102
{ACAD_REACTORS
330
99
102
}
330
99
100
AcDbVisualStyle
  2
Gouraud
 70
     2
177
     3
291
     1
 70
    58
 90
        2
176
     1
 90
        2
176
     1
 90
        1
176
     1
 90
        2
176
     1
 40
0.6
176
     1
 40
30.0
176
     1
 62
     7
420
 16777215
176
     1
 90
        0
176
     1
 90
        0
176
     1
 62
     7
176
     1
 62
   257
176
     1
 90
        1
176
     1
 90
        1
176
     1
 40
1.0
176
     1
 90
        0
176
     1
 62
     7
176
     1
 40
1.0
176
     1
 90
        1
176
     1
 90
        6
176
     1
 90
        2
176
     1
 62
     7
176
     1
 90
        5
176
     1
 90
        0
176
     1
 90
        0
176
     1
290
     0
176
     1
 90
       13
176
     1
 40
0.0
176
     1
 90
        0
176
     1
290
     0
176
     1
290
     1
176
     1
290
     1
176
     1
290
     0
176
     1
290
     0
176
     1
290
     0
176
     1
290
     0
176
     1
290
     0
176
     1
290
     0
176
     1
 90
       50
176
     1
 40
0.0
176
     1
 40
1.0
176
     1
 90
        0
176
     1
 62
    18
420
        0
176
     1
 90
       50
176
     1
 90
        3
176
     1
 62
     5
420
      255
176
     1
290
     0
176
     1
 90
       50
176
     1
 90
       50
176
     1
 90
       50
176
     1
290
     0
176
     1
 90
       50
176
     1
 62
   256
176
     0
 40
1.0
176
     0
 90
        2
176
     1
  1
strokes_ogs.tif
176
     1
290
     0
176
     1
 40
1.0
176
     1
 40
1.0
176
     1
  0
VISUALSTYLE
  5
9D
102
{ACAD_REACTORS
330
99
102
}
330
99
100
AcDbVisualStyle
  2
GouraudWithEdges
 70
     3
177
     3
291
     1
 70
    58
 90
        2
176
     1
 90
        2
176
     1
 90
        1
176
     1
 90
        2
176
     1
 40
0.6
176
     1
 40
30.0
176
     1
 62
     7
420
 16777215
176
     1
 90
        1
176
     1
 90
        0
176
     1
 62
     7
176
     1
 62
   257
176
     1
 90
        1
176
     1
 90
        1
176
     1
 40
1.0
176
     1
 90
        0
176
     1
 62
   257
176
     1
 40
1.0
176
     1
 90
        1
176
     1
 90
        6
176
     1
 90
        2
176
     1
 62
     7
176
     1
 90
        5
176
     1
 90
        0
176
     1
 90
        0
176
     1
290
     0
176
     1
 90
       13
176
     1
 40
0.0
176
     1
 90
        0
176
     1
290
     0
176
     1
290
     1
176
     1
290
     1
176
     1
290
     0
176
     1
290
     0
176
     1
290
     0
176
     1
290
     0
176
     1
290
     0
176
     1
290
     0
176
     1
 90
       50
176
     1
 40
0.0
176
     1
 40
1.0
176
     1
 90
        0
176
     1
 62
    18
420
        0
176
     1
 90
       50
176
     1
 90
        3
176
     1
 62
     5
420
      255
176
     1
290
     0
176
     1
 90
       50
176
     1
 90
       50
176
     1
 90
       50
176
     1
290
     0
176
     1
 90
       50
176
     1
 62
   256
176
     0
 40
1.0
176
     0
 90
        2
176
     1
  1
strokes_ogs.tif
176
     1
290
     0
176
     1
 40
1.0
176
     1
 40
1.0
176
     1
  0
VISUALSTYLE
  5
A1
102
{ACAD_REACTORS
330
99
102
}
330
99
100
AcDbVisualStyle
  2
Hidden
 70
     6
177
     3
291
     0
 70
    58
 90
        1
176
     1
 90
        2
176
     1
 90
        2
176
     1
 90
        0
176
     1
 40
0.6
176
     1
 40
30.0
176
     1
 62
     7
420
 16777215
176
     1
 90
        2
176
     1
 90
        2
176
     1
 62
     7
176
     1
 62
   257
176
     1
 90
        2
176
     1
 90
        1
176
     1
 40
40.0
176
     1
 90
        0
176
     1
 62
   257
176
     1
 40
1.0
176
     1
 90
        1
176
     1
 90
        6
176
     1
 90
        2
176
     1
 62
     7
176
     1
 90
        3
176
     1
 90
        0
176
     1
 90
        0
176
     1
290
     0
176
     1
 90
        1
176
     1
 40
0.0
176
     1
 90
        0
176
     1
290
     0
176
     1
290
     1
176
     1
290
     1
176
     1
290
     0
176
     1
290
     0
176
     1
290
     0
176
     1
290
     0
176
     1
290
     0
176
     1
290
     0
176
     1
 90
       50
176
     1
 40
0.0
176
     1
 40
1.0
176
     1
 90
        0
176
     1
 62
    18
420
        0
176
     1
 90
       50
176
     1
 90
        3
176
     1
 62
     5
420
      255
176
     1
290
     0
176
     1
 90
       50
176
     1
 90
       50
176
     1
 90
       50
176
     1
290
     0
176
     1
 90
       50
176
     1
 62
   256
176
     0
 40
1.0
176
     0
 90
        2
176
     1
  1
strokes_ogs.tif
176
     1
290
     0
176
     1
 40
1.0
176
     1
 40
1.0
176
     1
  0
VISUALSTYLE
  5
173
102
{ACAD_REACTORS
330
99
102
}
330
99
100
AcDbVisualStyle
  2
JitterOff
 70
    20
177
     3
291
     1
 70
    58
 90
        2
176
     0
 90
        2
176
     0
 90
        0
176
     0
 90
        0
176
     0
 40
0.6
176
     0
 40
30.0
176
     0
 62
     7
420
 16777215
176
     0
 90
        1
176
     0
 90
        4
176
     0
 62
     7
176
     0
 62
   257
176
     0
 90
        1
176
     0
 90
        1
176
     0
 40
1.0
176
     0
 90
       10
176
     2
 62
     7
176
     0
 40
1.0
176
     0
 90
        1
176
     0
 90
        6
176
     0
 90
        2
176
     0
 62
     7
176
     0
 90
        5
176
     0
 90
        0
176
     0
 90
        0
176
     0
290
     0
176
     0
 90
        1
176
     0
 40
0.0
176
     0
 90
        0
176
     0
290
     0
176
     1
290
     1
176
     1
290
     1
176
     1
290
     0
176
     1
290
     0
176
     1
290
     0
176
     1
290
     0
176
     1
290
     0
176
     1
290
     0
176
     1
 90
       50
176
     1
 40
0.0
176
     1
 40
1.0
176
     1
 90
        0
176
     1
 62
    18
420
        0
176
     1
 90
       50
176
     1
 90
        3
176
     1
 62
     5
420
      255
176
     1
290
     0
176
     1
 90
       50
176
     1
 90
       50
176
     1
 90
       50
176
     1
290
     0
176
     1
 90
       50
176
     1
 62
   256
176
     0
 40
1.0
176
     0
 90
        2
176
     1
  1
strokes_ogs.tif
176
     1
290
     0
176
     1
 40
1.0
176
     1
 40
1.0
176
     1
  0
VISUALSTYLE
  5
A7
102
{ACAD_REACTORS
330
99
102
}
330
99
100
AcDbVisualStyle
  2
Linepattern
 70
    14
177
     3
291
     1
 70
    58
 90
        2
176
     1
 90
        2
176
     1
 90
        1
176
     1
 90
        0
176
     1
 40
0.6
176
     1
 40
30.0
176
     1
 62
     7
420
 16777215
176
     1
 90
        1
176
     1
 90
        4
176
     1
 62
     7
176
     1
 62
   257
176
     1
 90
        7
176
     1
 90
        7
176
     1
 40
1.0
176
     1
 90
        8
176
     1
 62
     7
176
     1
 40
1.0
176
     1
 90
        1
176
     1
 90
        6
176
     1
 90
        2
176
     1
 62
     7
176
     1
 90
        5
176
     1
 90
        0
176
     1
 90
        0
176
     1
290
     0
176
     1
 90
        1
176
     1
 40
0.0
176
     1
 90
        0
176
     1
290
     0
176
     1
290
     1
176
     1
290
     1
176
     1
290
     0
176
     1
290
     0
176
     1
290
     0
176
     1
290
     0
176
     1
290
     0
176
     1
290
     0
176
     1
 90
       50
176
     1
 40
0.0
176
     1
 40
1.0
176
     1
 90
        0
176
     1
 62
    18
420
        0
176
     1
 90
       50
176
     1
 90
        3
176
     1
 62
     5
420
      255
176
     1
290
     0
176
     1
 90
       50
176
     1
 90
       50
176
     1
 90
       50
176
     1
290
     0
176
     1
 90
       50
176
     1
 62
   256
176
     0
 40
1.0
176
     0
 90
        2
176
     1
  1
strokes_ogs.tif
176
     1
290
     0
176
     1
 40
1.0
176
     1
 40
1.0
176
     1
  0
VISUALSTYLE
  5
174
102
{ACAD_REACTORS
330
99
102
}
330
99
100
AcDbVisualStyle
  2
OverhangOff
 70
    21
177
     3
291
     1
 70
    58
 90
        2
176
     0
 90
        2
176
     0
 90
        0
176
     0
 90
        0
176
     0
 40
0.6
176
     0
 40
30.0
176
     0
 62
     7
420
 16777215
176
     0
 90
        1
176
     0
 90
        4
176
     0
 62
     7
176
     0
 62
   257
176
     0
 90
        1
176
     0
 90
        1
176
     0
 40
1.0
176
     0
 90
        9
176
     2
 62
     7
176
     0
 40
1.0
176
     0
 90
        1
176
     0
 90
        6
176
     0
 90
        2
176
     0
 62
     7
176
     0
 90
        5
176
     0
 90
        0
176
     0
 90
        0
176
     0
290
     0
176
     0
 90
        1
176
     0
 40
0.0
176
     0
 90
        0
176
     0
290
     0
176
     1
290
     1
176
     1
290
     1
176
     1
290
     0
176
     1
290
     0
176
     1
290
     0
176
     1
290
     0
176
     1
290
     0
176
     1
290
     0
176
     1
 90
       50
176
     1
 40
0.0
176
     1
 40
1.0
176
     1
 90
        0
176
     1
 62
    18
420
        0
176
     1
 90
       50
176
     1
 90
        3
176
     1
 62
     5
420
      255
176
     1
290
     0
176
     1
 90
       50
176
     1
 90
       50
176
     1
 90
       50
176
     1
290
     0
176
     1
 90
       50
176
     1
 62
   256
176
     0
 40
1.0
176
     0
 90
        2
176
     1
  1
strokes_ogs.tif
176
     1
290
     0
176
     1
 40
1.0
176
     1
 40
1.0
176
     1
  0
VISUALSTYLE
  5
A3
102
{ACAD_REACTORS
330
99
102
}
330
99
100
AcDbVisualStyle
  2
Realistic
 70
     8
177
     3
291
     0
 70
    58
 90
        2
176
     1
 90
        2
176
     1
 90
        0
176
     1
 90
        2
176
     1
 40
0.6
176
     1
 40
30.0
176
     1
 62
     7
420
 16777215
176
     1
 90
        0
176
     1
 90
        0
176
     1
 62
     7
176
     1
 62
   257
176
     1
 90
        1
176
     1
 90
        1
176
     1
 40
1.0
176
     1
 90
        8
176
     1
 62
   257
176
     1
 40
1.0
176
     1
 90
        1
176
     1
 90
        6
176
     1
 90
        2
176
     1
 62
     7
176
     1
 90
        3
176
     1
 90
        0
176
     1
 90
        0
176
     1
290
     0
176
     1
 90
       13
176
     1
 40
0.0
176
     1
 90
        0
176
     1
290
     0
176
     1
290
     1
176
     1
290
     1
176
     1
290
     0
176
     1
290
     0
176
     1
290
     0
176
     1
290
     0
176
     1
290
     0
176
     1
290
     0
176
     1
 90
       50
176
     1
 40
0.0
176
     1
 40
1.0
176
     1
 90
        0
176
     1
 62
    18
420
        0
176
     1
 90
       50
176
     1
 90
        3
176
     1
 62
     5
420
      255
176
     1
290
     0
176
     1
 90
       50
176
     1
 90
       50
176
     1
 90
       50
176
     1
290
     0
176
     1
 90
       50
176
     1
 62
   256
176
     0
 40
1.0
176
     0
 90
        2
176
     1
  1
strokes_ogs.tif
176
     1
290
     0
176
     1
 40
1.0
176
     1
 40
1.0
176
     1
  0
VISUALSTYLE
  5
182
102
{ACAD_REACTORS
330
99
102
}
330
99
100
AcDbVisualStyle
  2
Shaded
 70
    27
177
     3
291
     0
 70
    58
 90
        2
176
     1
 90
        2
176
     1
 90
        1
176
     1
 90
        2
176
     1
 40
0.6
176
     1
 40
30.0
176
     1
 62
     7
420
 16777215
176
     1
 90
        0
176
     1
 90
        4
176
     1
 62
     7
176
     1
 62
   257
176
     1
 90
        1
176
     1
 90
        1
176
     1
 40
1.0
176
     1
 90
        8
176
     1
 62
   257
176
     1
 40
1.0
176
     1
 90
        1
176
     1
 90
        6
176
     1
 90
        2
176
     1
 62
     8
420
  7895160
176
     1
 90
        3
176
     1
 90
        0
176
     1
 90
        0
176
     1
290
     0
176
     1
 90
        5
176
     1
 40
0.0
176
     1
 90
        0
176
     1
290
     0
176
     1
290
     1
176
     1
290
     1
176
     1
290
     0
176
     1
290
     0
176
     1
290
     0
176
     1
290
     0
176
     1
290
     0
176
     1
290
     0
176
     1
 90
       50
176
     1
 40
0.0
176
     1
 40
1.0
176
     1
 90
        0
176
     1
 62
    18
420
        0
176
     1
 90
       50
176
     1
 90
        3
176
     1
 62
     5
420
      255
176
     1
290
     0
176
     1
 90
       50
176
     1
 90
       50
176
     1
 90
       50
176
     1
290
     0
176
     1
 90
       50
176
     1
 62
   256
176
     0
 40
1.0
176
     0
 90
        2
176
     1
  1
strokes_ogs.tif
176
     1
290
     0
176
     1
 40
1.0
176
     1
 40
1.0
176
     1
  0
VISUALSTYLE
  5
181
102
{ACAD_REACTORS
330
99
102
}
330
99
100
AcDbVisualStyle
  2
Shaded with edges
 70
    26
177
     3
291
     0
 70
    58
 90
        2
176
     1
 90
        2
176
     1
 90
        1
176
     1
 90
        2
176
     1
 40
0.6
176
     1
 40
30.0
176
     1
 62
     7
420
 16777215
176
     1
 90
        1
176
     1
 90
        2
176
     1
 62
     7
176
     1
 62
   257
176
     1
 90
        2
176
     1
 90
        1
176
     1
 40
1.0
176
     1
 90
        8
176
     1
 62
   257
176
     1
 40
1.0
176
     1
 90
        1
176
     1
 90
        6
176
     1
 90
        2
176
     1
 62
     7
176
     1
 90
        3
176
     1
 90
        0
176
     1
 90
        0
176
     1
290
     0
176
     1
 90
        5
176
     1
 40
0.0
176
     1
 90
        0
176
     1
290
     0
176
     1
290
     1
176
     1
290
     1
176
     1
290
     0
176
     1
290
     0
176
     1
290
     0
176
     1
290
     0
176
     1
290
     0
176
     1
290
     0
176
     1
 90
       50
176
     1
 40
0.0
176
     1
 40
1.0
176
     1
 90
        0
176
     1
 62
    18
420
        0
176
     1
 90
       50
176
     1
 90
        3
176
     1
 62
     5
420
      255
176
     1
290
     0
176
     1
 90
       50
176
     1
 90
       50
176
     1
 90
       50
176
     1
290
     0
176
     1
 90
       50
176
     1
 62
   256
176
     0
 40
1.0
176
     0
 90
        2
176
     1
  1
strokes_ogs.tif
176
     1
290
     0
176
     1
 40
1.0
176
     1
 40
1.0
176
     1
  0
VISUALSTYLE
  5
17E
102
{ACAD_REACTORS
330
99
102
}
330
99
100
AcDbVisualStyle
  2
Shades of Gray
 70
    23
177
     3
291
     0
 70
    58
 90
        2
176
     1
 90
        2
176
     1
 90
        3
176
     1
 90
        0
176
     1
 40
0.6
176
     1
 40
30.0
176
     1
 62
     7
420
 16777215
176
     1
 90
        2
176
     1
 90
        2
176
     1
 62
     7
176
     1
 62
     7
176
     1
 90
        1
176
     1
 90
        1
176
     1
 40
40.0
176
     1
 90
        8
176
     1
 62
     7
176
     1
 40
1.0
176
     1
 90
        1
176
     1
 90
        6
176
     1
 90
        2
176
     1
 62
     7
176
     1
 90
        3
176
     1
 90
        0
176
     1
 90
        0
176
     1
290
     0
176
     1
 90
        1
176
     1
 40
0.0
176
     1
 90
        0
176
     1
290
     0
176
     1
290
     1
176
     1
290
     1
176
     1
290
     0
176
     1
290
     0
176
     1
290
     0
176
     1
290
     0
176
     1
290
     0
176
     1
290
     0
176
     1
 90
       50
176
     1
 40
0.0
176
     1
 40
1.0
176
     1
 90
        0
176
     1
 62
    18
420
        0
176
     1
 90
       50
176
     1
 90
        3
176
     1
 62
     5
420
      255
176
     1
290
     0
176
     1
 90
       50
176
     1
 90
       50
176
     1
 90
       50
176
     1
290
     0
176
     1
 90
       50
176
     1
 62
   256
176
     0
 40
1.0
176
     0
 90
        2
176
     1
  1
strokes_ogs.tif
176
     1
290
     0
176
     1
 40
1.0
176
     1
 40
1.0
176
     1
  0
VISUALSTYLE
  5
17F
102
{ACAD_REACTORS
330
99
102
}
330
99
100
AcDbVisualStyle
  2
Sketchy
 70
    24
177
     3
291
     0
 70
    58
 90
        1
176
     1
 90
        2
176
     1
 90
        2
176
     1
 90
        0
176
     1
 40
0.6
176
     1
 40
30.0
176
     1
 62
     7
420
 16777215
176
     1
 90
        2
176
     1
 90
        2
176
     1
 62
     7
176
     1
 62
     7
176
     1
 90
        1
176
     1
 90
        1
176
     1
 40
40.0
176
     1
 90
       11
176
     1
 62
     7
176
     1
 40
1.0
176
     1
 90
        1
176
     1
 90
        6
176
     1
 90
        2
176
     1
 62
     7
176
     1
 90
        6
176
     1
 90
        0
176
     1
 90
        0
176
     1
290
     0
176
     1
 90
        1
176
     1
 40
0.0
176
     1
 90
        0
176
     1
290
     0
176
     1
290
     1
176
     1
290
     1
176
     1
290
     0
176
     1
290
     0
176
     1
290
     0
176
     1
290
     0
176
     1
290
     0
176
     1
290
     0
176
     1
 90
       50
176
     1
 40
0.0
176
     1
 40
1.0
176
     1
 90
        0
176
     1
 62
    18
420
        0
176
     1
 90
       50
176
     1
 90
        3
176
     1
 62
     5
420
      255
176
     1
290
     0
176
     1
 90
       50
176
     1
 90
       50
176
     1
 90
       50
176
     1
290
     0
176
     1
 90
       50
176
     1
 62
   256
176
     0
 40
1.0
176
     0
 90
        2
176
     1
  1
strokes_ogs.tif
176
     1
290
     0
176
     1
 40
1.0
176
     1
 40
1.0
176
     1
  0
VISUALSTYLE
  5
A6
102
{ACAD_REACTORS
330
99
102
}
330
99
100
AcDbVisualStyle
  2
Thicken
 70
    13
177
     3
291
     1
 70
    58
 90
        2
176
     1
 90
        2
176
     1
 90
        1
176
     1
 90
        0
176
     1
 40
0.6
176
     1
 40
30.0
176
     1
 62
     7
420
 16777215
176
     1
 90
        1
176
     1
 90
        4
176
     1
 62
     7
176
     1
 62
   257
176
     1
 90
        1
176
     1
 90
        1
176
     1
 40
1.0
176
     1
 90
       12
176
     1
 62
     7
176
     1
 40
1.0
176
     1
 90
        1
176
     1
 90
        6
176
     1
 90
        2
176
     1
 62
     7
176
     1
 90
        5
176
     1
 90
        0
176
     1
 90
        0
176
     1
290
     0
176
     1
 90
        1
176
     1
 40
0.0
176
     1
 90
        0
176
     1
290
     0
176
     1
290
     1
176
     1
290
     1
176
     1
290
     0
176
     1
290
     0
176
     1
290
     0
176
     1
290
     0
176
     1
290
     0
176
     1
290
     0
176
     1
 90
       50
176
     1
 40
0.0
176
     1
 40
1.0
176
     1
 90
        0
176
     1
 62
    18
420
        0
176
     1
 90
       50
176
     1
 90
        3
176
     1
 62
     5
420
      255
176
     1
290
     0
176
     1
 90
       50
176
     1
 90
       50
176
     1
 90
       50
176
     1
290
     0
176
     1
 90
       50
176
     1
 62
   256
176
     0
 40
1.0
176
     0
 90
        2
176
     1
  1
strokes_ogs.tif
176
     1
290
     0
176
     1
 40
1.0
176
     1
 40
1.0
176
     1
  0
VISUALSTYLE
  5
A0
102
{ACAD_REACTORS
330
99
102
}
330
99
100
AcDbVisualStyle
  2
Wireframe
 70
     5
177
     3
291
     0
 70
    58
 90
        0
176
     1
 90
        2
176
     1
 90
        0
176
     1
 90
        0
176
     1
 40
0.6
176
     1
 40
30.0
176
     1
 62
     7
420
 16777215
176
     1
 90
        1
176
     1
 90
        4
176
     1
 62
     7
176
     1
 62
   257
176
     1
 90
        1
176
     1
 90
        1
176
     1
 40
1.0
176
     1
 90
        0
176
     1
 62
   257
176
     1
 40
1.0
176
     1
 90
        1
176
     1
 90
        6
176
     1
 90
        2
176
     1
 62
     7
176
     1
 90
        3
176
     1
 90
        0
176
     1
 90
        0
176
     1
290
     0
176
     1
 90
        1
176
     1
 40
0.0
176
     1
 90
        0
176
     1
290
     0
176
     1
290
     1
176
     1
290
     1
176
     1
290
     0
176
     1
290
     0
176
     1
290
     0
176
     1
290
     0
176
     1
290
     0
176
     1
290
     0
176
     1
 90
       50
176
     1
 40
0.0
176
     1
 40
1.0
176
     1
 90
        0
176
     1
 62
    18
420
        0
176
     1
 90
       50
176
     1
 90
        3
176
     1
 62
     5
420
      255
176
     1
290
     0
176
     1
 90
       50
176
     1
 90
       50
176
     1
 90
       50
176
     1
290
     0
176
     1
 90
       50
176
     1
 62
   256
176
     0
 40
1.0
176
     0
 90
        2
176
     1
  1
strokes_ogs.tif
176
     1
290
     0
176
     1
 40
1.0
176
     1
 40
1.0
176
     1
  0
VISUALSTYLE
  5
180
102
{ACAD_REACTORS
330
99
102
}
330
99
100
AcDbVisualStyle
  2
X-Ray
 70
    25
177
     3
291
     0
 70
    58
 90
        2
176
     1
 90
        2
176
     1
 90
        1
176
     1
 90
        1
176
     1
 40
0.5
176
     1
 40
30.0
176
     1
 62
     7
420
 16777215
176
     1
 90
        1
176
     1
 90
        0
176
     1
 62
     7
176
     1
 62
   257
176
     1
 90
        1
176
     1
 90
        1
176
     1
 40
1.0
176
     1
 90
        8
176
     1
 62
     7
176
     1
 40
1.0
176
     1
 90
        1
176
     1
 90
        6
176
     1
 90
        2
176
     1
 62
     7
176
     1
 90
        3
176
     1
 90
        0
176
     1
 90
        0
176
     1
290
     0
176
     1
 90
       13
176
     1
 40
0.0
176
     1
 90
        0
176
     1
290
     0
176
     1
290
     1
176
     1
290
     1
176
     1
290
     0
176
     1
290
     0
176
     1
290
     0
176
     1
290
     0
176
     1
290
     0
176
     1
290
     0
176
     1
 90
       50
176
     1
 40
0.0
176
     1
 40
1.0
176
     1
 90
        0
176
     1
 62
    18
420
        0
176
     1
 90
       50
176
     1
 90
        3
176
     1
 62
     5
420
      255
176
     1
290
     0
176
     1
 90
       50
176
     1
 90
       50
176
     1
 90
       50
176
     1
290
     0
176
     1
 90
       50
176
     1
 62
   256
176
     0
 40
1.0
176
     0
 90
        2
176
     1
  1
strokes_ogs.tif
176
     1
290
     0
176
     1
 40
1.0
176
     1
 40
1.0
176
     1
  0
DICTIONARYVAR
  5
4A0D6
102
{ACAD_REACTORS
330
4A0D5
102
}
330
4A0D5
100
DictionaryVariables
280
     0
  1
2
  0
DICTIONARYVAR
  5
4A0D7
102
{ACAD_REACTORS
330
4A0D5
102
}
330
4A0D5
100
DictionaryVariables
280
     0
  1
400.000000
  0
DICTIONARYVAR
  5
4A0D8
102
{ACAD_REACTORS
330
4A0D5
102
}
330
4A0D5
100
DictionaryVariables
280
     0
  1
1
  0
DICTIONARYVAR
  5
4A0D9
102
{ACAD_REACTORS
330
4A0D5
102
}
330
4A0D5
100
DictionaryVariables
280
     0
  1
1:1
  0
DICTIONARYVAR
  5
4A0DA
102
{ACAD_REACTORS
330
4A0D5
102
}
330
4A0D5
100
DictionaryVariables
280
     0
  1
STANDARD
  0
DICTIONARYVAR
  5
4A0DB
102
{ACAD_REACTORS
330
4A0D5
102
}
330
4A0D5
100
DictionaryVariables
280
     0
  1
STANDARD
  0
DICTIONARYVAR
  5
4A0DC
102
{ACAD_REACTORS
330
4A0D5
102
}
330
4A0D5
100
DictionaryVariables
280
     0
  1
Imperial24
  0
DICTIONARYVAR
  5
4A0DD
102
{ACAD_REACTORS
330
4A0D5
102
}
330
4A0D5
100
DictionaryVariables
280
     0
  1
Imperial24
  0
DICTIONARYVAR
  5
4A0DE
102
{ACAD_REACTORS
330
4A0D5
102
}
330
4A0D5
100
DictionaryVariables
280
     0
  1
-1
  0
DICTIONARYVAR
  5
4A0DF
102
{ACAD_REACTORS
330
4A0D5
102
}
330
4A0D5
100
DictionaryVariables
280
     0
  1
1
  0
DICTIONARYVAR
  5
4A0E0
102
{ACAD_REACTORS
330
4A0D5
102
}
330
4A0D5
100
DictionaryVariables
280
     0
  1
2
  0
DICTIONARYVAR
  5
4A0E1
102
{ACAD_REACTORS
330
4A0D5
102
}
330
4A0D5
100
DictionaryVariables
280
     0
  1
0
  0
DICTIONARYVAR
  5
4A0E2
102
{ACAD_REACTORS
330
4A0D5
102
}
330
4A0D5
100
DictionaryVariables
280
     0
  1
4
  0
DICTIONARYVAR
  5
4A0E3
102
{ACAD_REACTORS
330
4A0D5
102
}
330
4A0D5
100
DictionaryVariables
280
     0
  1
V-Construction
  0
DICTIONARYVAR
  5
4A0E4
102
{ACAD_REACTORS
330
4A0D5
102
}
330
4A0D5
100
DictionaryVariables
280
     0
  1
ByLayer
  0
DICTIONARYVAR
  5
4A0E5
102
{ACAD_REACTORS
330
4A0D5
102
}
330
4A0D5
100
DictionaryVariables
280
     0
  1
0
  0
DICTIONARYVAR
  5
4A0E6
102
{ACAD_REACTORS
330
4A0D5
102
}
330
4A0D5
100
DictionaryVariables
280
     0
  1
0
  0
DICTIONARYVAR
  5
4A0E7
102
{ACAD_REACTORS
330
4A0D5
102
}
330
4A0D5
100
DictionaryVariables
280
     0
  1
0
  0
DICTIONARYVAR
  5
4A0E8
102
{ACAD_REACTORS
330
4A0D5
102
}
330
4A0D5
100
DictionaryVariables
280
     0
  1
2
  0
DICTIONARYVAR
  5
4A0E9
102
{ACAD_REACTORS
330
4A0D5
102
}
330
4A0D5
100
DictionaryVariables
280
     0
  1
1.000000
  0
DICTIONARYVAR
  5
4A0EA
102
{ACAD_REACTORS
330
4A0D5
102
}
330
4A0D5
100
DictionaryVariables
280
     0
  1
1
  0
DICTIONARYVAR
  5
4A0EB
102
{ACAD_REACTORS
330
4A0D5
102
}
330
4A0D5
100
DictionaryVariables
280
     0
  1
1.000000
  0
DICTIONARYVAR
  5
4A0EC
102
{ACAD_REACTORS
330
4A0D5
102
}
330
4A0D5
100
DictionaryVariables
280
     0
  1
1
  0
DICTIONARYVAR
  5
4A0ED
102
{ACAD_REACTORS
330
4A0D5
102
}
330
4A0D5
100
DictionaryVariables
280
     0
  1
0
  0
DICTIONARYVAR
  5
4A0EE
102
{ACAD_REACTORS
330
4A0D5
102
}
330
4A0D5
100
DictionaryVariables
280
     0
  1

  0
DICTIONARYVAR
  5
4A0EF
102
{ACAD_REACTORS
330
4A0D5
102
}
330
4A0D5
100
DictionaryVariables
280
     0
  1
0
  0
DICTIONARYVAR
  5
4A0F0
102
{ACAD_REACTORS
330
4A0D5
102
}
330
4A0D5
100
DictionaryVariables
280
     0
  1
127
  0
DICTIONARY
  5
194
330
22
100
AcDbDictionary
280
     1
281
     1
  0
DICTIONARY
  5
188
330
97
100
AcDbDictionary
280
     1
281
     1
  3
FBXASSET
360
189
  0
DICTIONARY
  5
186
330
96
100
AcDbDictionary
280
     1
281
     1
  3
FBXASSET
360
187
  0
DICTIONARY
  5
110
330
98
100
AcDbDictionary
280
     1
281
     1
  3
BUMPTILE
360
112
  3
DIFFUSETILE
360
111
  3
FBXASSET
360
18A
  3
OPACITYTILE
360
113
  3
REFLECTIONTILE
360
114
  0
DICTIONARY
  5
104
330
87
100
AcDbDictionary
280
     1
281
     1
  3
ACAD_ROUNDTRIP_2008_TABLESTYLE_CELLSTYLEMAP
360
67410
  0
XRECORD
  5
189
102
{ACAD_REACTORS
330
188
102
}
330
188
100
AcDbXrecord
280
     1
 70
     1
 90
429727718
  1
508B35C9-AEE7-456F-BE74-D52651303AC6
310
504B03040A0000080000B670623B3DEE336E79000000790000001B0000006175746F6465736B2D64657369676E2D7061636B6167652E786D6C3C3F786D6C2076657273696F6E3D22312E302220656E636F64696E673D227574662D3822203F3E3C666F726D6174733E3C666F726D61743E687474703A2F2F736368656D612E
310
6175746F6465736B2E636F6D2F64657369676E2D7061636B6167652F323030393C2F666F726D61743E3C2F666F726D6174733E504B0304140006080800B670623BD486FD9CA0000000F4000000130000005B436F6E74656E745F54797065735D2E786D6C7D8EC10E82300C865F65E91D8A1E8C310C0EEA1BF002731658846E
310
D98AC1B77784ABF1D8FE5FBFBF75BBCE937A534CCEB38643598122B6FEE978D0B0485F9C41B54DDD7D022595594E1A469170414C76A4D9A4D207E29CF43ECE46F218070CC6BECC4078ACAA135ACF422C856C0E68EA1BF5669944DDD7BCDE7B1F8E415D77AECB980613C2E4AC91FC167A2B244592486606FC29C8FD7F045B9A
310
EF7053A7E60B504B0304140006080800B670623B28ED286BEB0000007C01000008000000636F72652E786D6C8D90416EC3201045AF82665B6183218D6D61A254764FD00B204C5C94182C03558F5F9C3852BBEB6A467FFE9B197D71FA9E6FE8CBACC17AD7012D0820E3B41FAD9B3A48F1826B40272956EFE32F1B20A766D3C1
310
268314D3EAD3B24BDABB685CCCAAF3A3D94515828980F42D371D04FD696655A814B3235C8B45E9AB9A4C419F5D8653B2237A1CB163DE672FD6AC209BF3C08E0D1B30EB19C3FC9D72FCC6EB231EFA33EDE96BDD341517E5064B11EDFCBCAF57A3A2194156843498524CAA0FCA5B7268F9E185D42D21A2DCEC7FA0B48CFF8492
310
759155FBBB0F2C80A4F991FB408A72CB22977B50B96EB9C91F504B0304140006080800B670623B55019EA25F0000007C00000007000000636E782E786D6C4DCB3B0E80201045D1AD90E915ED2CF8AC45050C11660C8261F98AB1B07AC9C97D42D718D865D3E909258CFD00CCE24AC6E326A164D74DC0B4128928FF32603847
310
2BA13128B1252AC747C6BAB984FC68F0B87FE8960A5C09FE86CFB69FBA01504B0304140006080800B670623B7BC41AC871010000D40300000C0000006662782F636F72652E786D6CC553ED6E8320147D15C2DF4501B56B6D90A64BBB27D80B50A5CE54C120983EFEAE1F4DD7A56BBA5FF3879273EEE59E7310BE393735EA95
310
ED2AA333CC428A91D2B9292A5D66D8BB63B0C26823B835C67D2BC348CB46657880B1E0A535BE9DA1DC68A7B403549B42CDA0EC3AE530CA6B5864B8CB3F552343E91D5474A7B095F949962A6421D0502778E72C0840D390E18DC5F170E664C205F7BE2A66B62A605A75AC94C522DDEEE3651AEF837817C741F2CE92E02D592D
310
83FD6ECB76EC7595A651C2C9D02CB8AB9A8BBADC2AE954814544691A3016D0E883256BBA58278B17BA5A53CAC9507ED3E4DBE2C9265F691747B3DCA9ADC382819091F8E1162272A8933DE82182932144F88C09DF060D8140C84E1EEA8B8F1340BDCA9DB1093085F157AA97B557309586747CD0EF0B4EA64E983A6E0EAEEFCE
310
889E9EF17847386AA94B30211D2C0FDE0D3AF9A4610EAD5536E8DD1969631B593F67E381C33F5157F17725E5A636F6BF1491F980C8FC7B90E13E8A2F504B0304140006080800B670623B70102A487D0000009D0000000B0000006662782F636E782E786D6C4DCCD10A83201886E15B91FFDC95A5C30335ACCDFB886521330D
310
A76397BF1A1DECE883878F57749FD5A3B74D2F17830472A901D9F088930B8B849267CC01754AA418F3DF0D5018572BE160506249B16C274D761E8BCFBB7A179E27F65CB39A0F14D396184C9921B81F34C3ACA1B4B99ABB6E6F062A25AA5F69DF23ACBE504B0304140006080800B670623B3610CA3329010000120200003100
310
00006662782F42384135303843342D343331462D343546312D424341352D3532343432364645413344462F636F72652E786D6C8D515B6EC32010BC0AE22B55850D0E446E848992B43E412FE000495162B07854397EA176A4F62F3F2C9A9D991D58BEBB8F37F0AD7D30CE76905418026DA553C65E3A98E219B510EC04F7CEC5
310
3F3408EC30EA0E16180A7EF12E4D0B249D8DDAC68C5AA7F4020E21E80881BCE54B0783FCD2E3500D296646B856D320AFC34557A4CAEDCC133C449F0380794839A138B47B86DB2345744D7A44594FD0E1B867883594369BFE63BF7EEF793D0B054FC9A8456E548E63CE46FB674D8A58F068C6477CE9F510B582A2C1F80D1182
310
70F349E816B32D65AFB8DD62CCEB42FF274A937A52948C8DEB66893BCB021484D7734370E5D2E9F608A3EF93F3119479ABA0E50B14B8C298119A43CCC4FCFCECB8A18B6388CEE7EF5D5D4F994BD86CBBA182D76543B9FCAE2FD7B24DF103504B0304140006080800B670623B1B8617914E0100003303000030000000666278
310
2F42384135303843342D343331462D343546312D424341352D3532343432364645413344462F636E782E786D6CD593C16EC32010447F0571AD6CE3D489D20813A9877E410FBD62D82434182CC055F3F75D1292E692438FBD206B7698593D61BEFD1E2DF982108D773D6D6B460938E5B571FB9ECE6957AD29D90A1EBC4F7736
310
4A9C1CA1A759A682EF839FA72269D8C9D92654AD71C72206887E0E0A22CAF926B15E498B01E0AA19451807D01A34B919F16B070157417138917400F2F6FA41FCF0092A45DEE414C19BDC21783E4BD39D891265658C3D8DEA00A3ACE59CBC8678ACB54CB26EEB6BD7839D7E9348BE70AD9C8321B9BCA7F9A4A26C542347DEE0
310
50F09802D22BA6749A800A394DD62899107273365E3C82CFC6A55557BC06C10774B7ABE7AEC3B0F34CF06446280E154026D0542C187BA9DAB6628BF7B6DBB0E5A65B3EB1F58631DE64BBE083F7B65CC218087E22CABB042E51D1F2268F1FE12B3EA24D40D63E9CFE00120194D60B9D5BC67FE6D39CDF37E20AF817881F504B
310
0304140006080800B670623BBFEF2E3B690500003C100000340000006662782F42384135303843342D343331462D343546312D424341352D3532343432364645413344462F6F626A656374732E786D6CAD575D739B3814FD2B0CFB0C98D84E931D4227B6938EA793B6534F3BFB90198F0099B001899144EAECAFDF231018B0
310
D37A3FFC609090EEE7B94757C1FB7D915B2F54C88CB31BDB7727B64559CC938CA53776A576CE956DBD0F03C1B9EA2DB32D460A7A63EB693B0C52C1ABD24C257447AA5C8D66EF177F5832A68CDA569C13296F6C193FD182B8A4523CA1F2D94D88226EBADBBBBEDB2C1C8A4D05299F46424B222853B014F30C52ACC6287F389C
310
D85E1878FA7B18E87FB36AFAF62AAFF667A83F635211161F291B8999FAB3D5DDC5FCDA99CF6653677679E13B8BFBC5CAF1DF4D27CBCBE5F2FAF6EE1A8AA51290642C117467871F101B91C581D77CEA2C36869F3229E68CD1B8F61F1ED6361B89092D294B90C78C4A68EB793D190E7D1D9BDEE7A91E1B95FDE9F3BCEAEFE809
310
6A6D6F9F7D4B79F4275C90E7A04248AA51D5C4C738DAE06F72885AC4796EBE65D22A88A22223B995679120E2D50EB1542F098381188D4EA111AE3DB043FF20AF6F2B4AE3D7D83D65E5AECA730D4D3BAC91BD05FEA992B565D95F549CD6069B90AB2A63EACA38A45E4B6A87D781574F86817E4C2FCCC72690D62E2729520E37
310
9BAF234797BAF6D62B3BFC781FED37BA1E4F2B2F052FA9501A3E80569BB8F6A9A364D4FA67654E6F803383981F82F21591FF84F23D9882BC896C3FDBCF8C162508933B2E0AE4C69DD43F6BD2BE38DDDBF10BF86CB4FA784D37F3AF16075E67EC9030DECA1FC0A55373F5DFF3378C591FA9BDF485C10B0A8C8BA909E5262639
310
A8E72163488806A595734C81CB77D1DE0ED7604A303B76913CEC0272F412782FF88EFF4636D8AA56DF7B322474C4B767303F625997056C7B032C473C592B36CEBD15F3F9FF5233B7ABCDC74D257624A60F8658567497B14CE1EC3C80B76FD02011038F9EE9EB0F2E12387A9C844D3F09855125116D1D731DF8B43D2CF4E0A0
310
79A020C6BE946BCE0B7EA1E1219331CD73C228AF5A2DDD31A4B1DA918CE91350854D40A71723140BFA92E94E62B0626016CEFA5864A50E5977E8753CEDBEE1CBB7F52780D20E17AF0BA0F5F9B02A3AD07DCC732EB6D1EBB661421BE0C39E21BABF0FE16D22EA6929407C8DE596724C88B749B6DB5512BC7B228ADFD7CB7EA6
310
3A22397E690BA8D5D8D4E40CEC8CDA23C2C0B7D5898640101CEC9C6D331CE328CB93CAFBBAC70A642DF70DF95155945B52F08AA973C23469FD69ADEF84F7BB18F983A8F8C90E37F5D35980B2139A1C523540813E824EF83448CF7C72B598CE97D7CEEDDDDD3B6736BFBC771677EF66CE6A7E7139F7A793E9EDF2B2B3A8B624
310
0CDA13AA5F8388264EC4A0129909F3B7F5A16CEDF08128E97D680ACA4B9BE7B7B58BB638F0B00700EF36AE8B32A705658A68F83EE897FC2B41573190D1CCAF0B92D233A47CFEB019D9809933F67DD1A5467F8CF69AD9A5AE859342D45355448C64F968A371DC2D596ADC6E43D93D1B466F877A64E2893E54F23C4B40388995
310
525E5005DA3983ED45412510D3EFCA13737B3863F74BD30F2A12E5B4B5E489A025CE25500DB855B11ACE5BBFA185D35DD48D8DC3CE7DC69F2944DB42AA6F6CF09BCA622ADD08C7A36E7C6AE18000BAB08E040135C2D21C9D75B3A91B77BB746C403F38018DFE6EC939DD92F16B40BC05294B9CDA035AAD6D330AE27FE4786B
310
8E45145EA34A75BE1C263A676A35A8ACC6297337400BF16C54EF515F3F77CB77EB3583889C754FFA29081AA98E2222ADEF05DA3E63D2EDEA8B8756C05A7FB6CABC4A91CBF325398202CC952E70A008A830324BA200D5E5EF8F5F04C75DB4B0EE3340E071C98B823333B83577596BF3849B69F2085AA0FAFA212F26BEFF5877
310
FDE622B28D88A42E49E43326DA82D31E8CB006401E1DA726059ECEC168F97A6599036306A135688F9AD2E61A6EA178F4CD51974A9F2CCB9F36FE5EBD14601068D9C3BF01504B0304140006080000B670623B000000000000000000000000350000006662782F42384135303843342D343331462D343546312D424341352D35
310
32343432364645413344462F76657274696365732E62696E504B0304140006080800B670623BF270F1330600000004000000360000006662782F42384135303843342D343331462D343546312D424341352D3532343432364645413344462F747269616E676C65732E62696E636660600000504B0304140006080000B67062
310
3B000000000000000000000000370000006662782F42384135303843342D343331462D343546312D424341352D3532343432364645413344462F617474726962757465732E62696E504B0304140006080800B670623B08DA0BD19000000041010000360000006662782F42384135303843342D343331462D343546312D4243
310
41352D3532343432364645413344462F6469726563746F72792E786D6C858F410AC3201045AF22B36F53E9A60B35CBEEBAE80D244E44489C6234F4F835464A48035D0DF398FF9F8AF63D0E6CC63039F212F8F9020C7D47C6792B21C5FE7403D62A1188E2E60C98D7234A5830286103A55745067B9D86B8A3CF9C7F90C11DE6
310
07FB144396D7B6A82D282E9A152AD114D5EF2CB866EEE831B8EEA07A7BB5A8D7D61A2BAAEB7FD5F70921FF497D00504B0304140006080800B670623B3B4606F3FE000000A00100003B0000006662782F42384135303843342D343331462D343546312D424341352D3532343432364645413344462F7265736F75726365732F
310
636F72652E786D6C8D504B6E833010BD0A9A6D65B08134808CA354A427E8052C332156828DFCA97AFC9A40A576D7CDCCE87D344F8F9FBEE647F689CE6B6B7A6039850C8DB2A336530F315C4903D94970676DF82583CCC8197B5861107C72362E3BA4AC096842428D1D7107A5F71820538F74F4E0D50D6799CB1892C2DFF345
310
AABB9C306779A2934E701F5C0A906D4FD609C2A1B7D129F4BCD858C163D4E3AED163FAA9AF1A1D88F67CA98E6D35906AA82A52BFB39ABCD5CD915C86331BD86BD3B665CD8BD52C78D0F34F46E550061C419494B6843142CB0F5677F4D0D58717DA7494F26295FF31C565FCA7296A13AA728FBBD93C0896823C09C18BB5AFB4
310
9E65A6BD762BBE01504B010214000A0000080000B670623B3DEE336E79000000790000001B00000000000000000000000000000000006175746F6465736B2D64657369676E2D7061636B6167652E786D6C504B01021400140006080800B670623BD486FD9CA0000000F40000001300000000000000000000000000B2000000
310
5B436F6E74656E745F54797065735D2E786D6C504B01021400140006080800B670623B28ED286BEB0000007C010000080000000000000000000000000083010000636F72652E786D6C504B01021400140006080800B670623B55019EA25F0000007C000000070000000000000000000000000094020000636E782E786D6C50
310
4B01021400140006080800B670623B7BC41AC871010000D40300000C00000000000000000000000000180300006662782F636F72652E786D6C504B01021400140006080800B670623B70102A487D0000009D0000000B00000000000000000000000000B30400006662782F636E782E786D6C504B01021400140006080800B6
310
70623B3610CA3329010000120200003100000000000000000000000000590500006662782F42384135303843342D343331462D343546312D424341352D3532343432364645413344462F636F72652E786D6C504B01021400140006080800B670623B1B8617914E010000330300003000000000000000000000000000D10600
310
006662782F42384135303843342D343331462D343546312D424341352D3532343432364645413344462F636E782E786D6C504B01021400140006080800B670623BBFEF2E3B690500003C10000034000000000000000000000000006D0800006662782F42384135303843342D343331462D343546312D424341352D35323434
310
32364645413344462F6F626A656374732E786D6C504B01021400140006080000B670623B0000000000000000000000003500000000000000000000000000280E00006662782F42384135303843342D343331462D343546312D424341352D3532343432364645413344462F76657274696365732E62696E504B010214001400
310
06080800B670623BF270F133060000000400000036000000000000000000000000007B0E00006662782F42384135303843342D343331462D343546312D424341352D3532343432364645413344462F747269616E676C65732E62696E504B01021400140006080000B670623B00000000000000000000000037000000000000
310
00000000000000D50E00006662782F42384135303843342D343331462D343546312D424341352D3532343432364645413344462F617474726962757465732E62696E504B01021400140006080800B670623B08DA0BD1900000004101000036000000000000000000000000002A0F00006662782F42384135303843342D3433
310
31462D343546312D424341352D3532343432364645413344462F6469726563746F72792E786D6C504B01021400140006080800B670623B3B4606F3FE000000A00100003B000000000000000000000000000E1000006662782F42384135303843342D343331462D343546312D424341352D3532343432364645413344462F72
310
65736F75726365732F636F72652E786D6C504B0506000000000E000E0080040000651100000000
  0
XRECORD
  5
187
102
{ACAD_REACTORS
330
186
102
}
330
186
100
AcDbXrecord
280
     1
 70
     1
 90
429727718
  1
887D55A9-D0DD-414E-B741-A7DCD4DA2B4C
310
504B03040A0000080000B670623B3DEE336E79000000790000001B0000006175746F6465736B2D64657369676E2D7061636B6167652E786D6C3C3F786D6C2076657273696F6E3D22312E302220656E636F64696E673D227574662D3822203F3E3C666F726D6174733E3C666F726D61743E687474703A2F2F736368656D612E
310
6175746F6465736B2E636F6D2F64657369676E2D7061636B6167652F323030393C2F666F726D61743E3C2F666F726D6174733E504B0304140006080800B670623BD486FD9CA0000000F4000000130000005B436F6E74656E745F54797065735D2E786D6C7D8EC10E82300C865F65E91D8A1E8C310C0EEA1BF002731658846E
310
D98AC1B77784ABF1D8FE5FBFBF75BBCE937A534CCEB38643598122B6FEE978D0B0485F9C41B54DDD7D022595594E1A469170414C76A4D9A4D207E29CF43ECE46F218070CC6BECC4078ACAA135ACF422C856C0E68EA1BF5669944DDD7BCDE7B1F8E415D77AECB980613C2E4AC91FC167A2B244592486606FC29C8FD7F045B9A
310
EF7053A7E60B504B0304140006080800B670623BBC1638F5EC0000007C01000008000000636F72652E786D6C8D90416EC3201045AF82665B61836BE2D8C24471DB9CA01740401C94182C03558F5F9C3852BBEB6A467FFE9B197D7EF89E6EE8CB2CC17AD7032D0820E394D7D68D3DA478C67B4007C117EFE32F1B202727D3C3
310
2A83E0E3E2D3BC49CABB685CCCAAF3DA6CA20CC14440EA969B1E82BA98491632C5EC08D76296EA2A4753D06797E194AC468F2356E77DF66CCD02825543D50CACC62D39ED70FDC68EB8FD68F6F8787A6784342D1DDA1D2F5758F068A7E77DB518198D065111D2624A31A93E69DD11D6D5EC85EC3B4278B9DAFF4069D6FF8492
310
75F1B5DADE7D600104CD8FDC0782976B16B9DC83CA75CD4DFC00504B0304140006080800B670623B55019EA25F0000007C00000007000000636E782E786D6C4DCB3B0E80201045D1AD90E915ED2CF8AC45050C11660C8261F98AB1B07AC9C97D42D718D865D3E909258CFD00CCE24AC6E326A164D74DC0B4128928FF326038
310
472BA13128B1252AC747C6BAB984FC68F0B87FE8960A5C09FE86CFB69FBA01504B0304140006080800B670623B3586FFB671010000D40300000C0000006662782F636F72652E786D6CC553ED6E8320147D15C2DF4541A76D6D90A6DDD627D80B50A4CE54C120983EFEAE1F4DD7A55BBA5FF3879273EEE59E7310B6393735EA
310
95ED2AA3731C851423A5A5292A5DE6D8BB63B0C268C39935C67D29C3488B46E578803167A535BE9D2169B453DA01AA4DA16650749D7218C91A1639EEE4876A4428BC838AEE14B6429E44A9C228041AEA38EB9C0501681A32BC313F1ECE8C4C3867DE57C5CC56054CAB8E95B298A7F12E5EEED224C8E87E11242FE936C8DE96
310
AB60BB7F4D295D66D12E5B30323473E6AAE6A24E5A259C2A308F29CD82280A68FC1E256B9AAE93F489AED694323294DF34F9B678B0C957DA3DC7B3DCA9ADC33C022123F1CD2D44E450277AD04338234388F01913BE0D1A0281909D38D4171F27807A259DB1093085F157AA17B557309586747CD0CF0B46A64E983A6E0EAEEF
310
CE881F9EF1FB8E70D44297604238581EBC1B74B249C31C5AAB6CD0BB33D2C636A27ECCC62F0EFF445DC5DF95244D6DEC7F2922F30191F9F720C37DE49F504B0304140006080800B670623B4220A0FF7D0000009D0000000B0000006662782F636E782E786D6C4DCCD10A83201886E15B91FFDCE542CB0335D0EC3E6259C84A
310
C3E9D8E5AF46073BFAE0E1E315DD675BD1DBA5978F41C2FD4600B9F088930F8B849267CC01754AA418F3DF0D50183727E164506249B1EC174D6E1ECB9A0F5D7D785E68DB8151CD286E5A5363CA6B8A39E90D36D40E96B086F55A43A544F52B1D7B86D517504B0304140006080800B670623B2FA3FEDE290100001202000031
310
0000006662782F45374635344235342D363743322D343832342D383044432D4334454645303536354442422F636F72652E786D6C8D515B6EC32010BC0AE22B55850D2E386E848994D7097A0117488A1283C5A3CAF10BB523B57FF961D1ECCCECC0F2ED7DBC816FED8371B687A4C210682B9D32F6D2C314CFA883602BB8772E
310
FEA141608751F7B0C050F08B77695A20E96CD43666D43AA5177008414708E42D5F7A18E4971E876A483133C2B59A06791D2EBA22556E679EE021FA1C00CC43CA09C5717D6274C7286AD7FB06D1AEA1A8C3873DDAD3E3E98859CB0EBB1DAF67A1E02919B5C88DCA71CCD968FFAC49110B1ECDF8882FBD1EA256503418BF2342
310
106E3E08DD60B6A1EC15771B8C795DE8FF4469524F8A92B1F1AD59E2CEB20005E1F5DC105CB9F4797B84D1F7C9F908CABC55D0F2050A5C61CC1AD2F27A26E6E767C7962E8E213A9FBF7775FDCC5CC266DB960A5E970DE5F2BBBE5CCB36C50F504B0304140006080800B670623B1B8617914E01000033030000300000006662
310
782F45374635344235342D363743322D343832342D383044432D4334454645303536354442422F636E782E786D6CD593C16EC32010447F0571AD6CE3D489D20813A9877E410FBD62D82434182CC055F3F75D1292E692438FBD206B7698593D61BEFD1E2DF982108D773D6D6B460938E5B571FB9ECE6957AD29D90A1EBC4F77
310
364A9C1CA1A759A682EF839FA72269D8C9D92654AD71C72206887E0E0A22CAF926B15E498B01E0AA19451807D01A34B919F16B070157417138917400F2F6FA41FCF0092A45DEE414C19BDC21783E4BD39D891265658C3D8DEA00A3ACE59CBC8678ACB54CB26EEB6BD7839D7E9348BE70AD9C8321B9BCA7F9A4A26C542347DE
310
E050F09802D22BA6749A800A394DD62899107273365E3C82CFC6A55557BC06C10774B7ABE7AEC3B0F34CF06446280E154026D0542C187BA9DAB6628BF7B6DBB0E5A65B3EB1F58631DE64BBE083F7B65CC218087E22CABB042E51D1F2268F1FE12B3EA24D40D63E9CFE00120194D60B9D5BC67FE6D39CDF37E20AF817881F50
310
4B0304140006080800B670623B29652116630500003C100000340000006662782F45374635344235342D363743322D343832342D383044432D4334454645303536354442422F6F626A656374732E786D6CAD575D739B3814FD2B0CFB0C989834C90EA1639B24E3E9A6EDD4D3CE3E64C623834CD8006224913AFDF57B040203
310
B65BEF871F0C12D2FD3CF7E8CA7FBFCB33E3957291B2E2D674ED8969D02262715A24B76625B7D6B569BC0F7CCE98EC2D338D82E4F4D654D366E0279C55A59E8AE99654991CCDDECFFF3444440B6A1A514684B83545F44C7362934AB2988A173B2692D8C97667BB76B3702836E1A47C1E092D09A78584A5982F20C5688C7287
310
C389E904BEA3BE07BEFAD7ABA6A75739B53F43FD69212429A20365233153D70BEF2E2E6FAC4BCF9B5ADEBB0BD79ADFCF43CBBD9A4E16EF168B9BD9DD0D140BC921495BC2E9D60C1E101B9E46BED37CEA2CD6861F3329624541A3DA7F7858DBAC25C6B4A4458C3CA654405BCFEBC970E8AAD8F43E4FD558ABEC4F9FE7557F47
310
4F506B7BFBEC5BCA367FC105710E2AB8A00A554D7CB4A30DFE26FBA86D18CBF4B75418399194A72433B274C3097F33032C554B027F2046A1932B842B0FCCC0DDCBEBDB8AD2F835768F59B9ADB24C41D30C6A64AF817F2A456D59FA83F2E3DA60137255A585BCD60EC9B7929AC18DEFD49381AF1ED30BFDB109A4B1CD488294
310
C3CDE6EBC8D185AABD6568061FEE37BB95AAC7E3CA4BCE4ACAA5820FA0D526AE7DAA2869B5EE5999531BE0CC20E6FBA07C41E43FA27CF7A6206F3CDD793B4F6B919C1462CB788EDCD893FA674CDA17AB7B3B7C019F8D561FAEE966FED562DFE98C1D12C6A9FC015C2A35D7FF3D7FC398F591DA4B5FE0BFA2C0189FEA50AE22
310
92817A1ED3020951A03432862970F976B33383259812CC8E5D240BBA801CBCF8CE2BBEE3BF910DB6AAD5F79E05123AE2DB33981FB1ACCB02B69D00CB014FD68AB573A7627EF9BFD4CC2C5C7D58557C4B22FAA88925A4DBB44825CECE3D78FB060D1231F0E885BE7D673C86A3874958F593906B5502D1563157814FDAC3420D
310
F69A070A22EC4B98E23CFF171A1E5311D12C23056555ABA53B8614563B92D17D02AAB009E8F46284624E5F53D5490C560CCCC2591FF1B45421EB0EBD8EA7ED13BE7C5D7E0428CD60FEF60779EB13E6664FF711CB185F6FDED60D139A001FF60CD1FD6D086F1D51474901E26B2CB794A343BC8ED3EDB612E0DD2351FCB65CF4
310
33D511C9E14B5B40ADC6A6263DB0336A8F700DDF56271A024E70B0B3629DE21847591E55DED73D56206AB927E46FAABC5C939C55853C274C93D69FD6FA4E78BF8B11DF898C9ECD60553FAD39283BA6F18984AA23E8884F83F45C5F5F859797B31B2B9C84A1E5B9DE9D35BFF25C6B76152E422F9C5DCC3D847F5801ED09D5AF
310
41441327A25FF15487F9EB725FB666F048A4701E9A827292E6F97569A32DF61DEC01C0BB8DCBBCCC684E0B49147C1FD54BF685A0AB18C868E6973949E819523E3DAC463660E68C7D9F55A9D1EFA3BD7A76A16AE1A810F95CE59B82A4D968A376DC2E8B44BBDD86B27B368CDE0ED548C7137DA860591A83706223A12CA712B4
310
7306DBF39C0A20A6DF95C7FAF670C6EED7A61F946493D1D6926782963813403548A78AE470DEF80D2D9CEAA26E4D1C76F60BFE74219A06527D6B82DF641A51616F703CAAC6A7160E08A00BEB4810A0274592A1B36E3675E36E978A0DE80727A0D6DF2D39A75BD27E0D8837276589537B40ABB56D5A41F48F1C6FCD3188C4EB
310
A6929D2FFB89CE995A4D00AE813BDD032DC48B56BD437DFDDC2DD7AED70C2272D63DE9A72068A45A92F0A4BE17A8A06B9366E16707AD80B1FC649459952097E74BB23805982B55E0401150A165964402AA8BDF9F3E7386BB686EDCA780C0D382E5392BF460A6EFB2C6EA1937D3F809B440D5F5435C4C5CF7A9EEFAF54564BD
310
2182DA24162F98680B4E7930C21A0079709CEAEB99A372305ABE0C0D7D6078105A83F6A0296DAEE1068A47DD1C55A9F4C9B2FC69E3EFD44B81028E963DF81B504B0304140006080000B670623B000000000000000000000000350000006662782F45374635344235342D363743322D343832342D383044432D433445464530
310
3536354442422F76657274696365732E62696E504B0304140006080800B670623BF270F1330600000004000000360000006662782F45374635344235342D363743322D343832342D383044432D4334454645303536354442422F747269616E676C65732E62696E636660600000504B0304140006080000B670623B00000000
310
0000000000000000370000006662782F45374635344235342D363743322D343832342D383044432D4334454645303536354442422F617474726962757465732E62696E504B0304140006080800B670623B08DA0BD19000000041010000360000006662782F45374635344235342D363743322D343832342D383044432D4334
310
454645303536354442422F6469726563746F72792E786D6C858F410AC3201045AF22B36F53E9A60B35CBEEBAE80D244E44489C6234F4F835464A48035D0DF398FF9F8AF63D0E6CC63039F212F8F9020C7D47C6792B21C5FE7403D62A1188E2E60C98D7234A5830286103A55745067B9D86B8A3CF9C7F90C11DE607FB144396
310
D7B6A82D282E9A152AD114D5EF2CB866EEE831B8EEA07A7BB5A8D7D61A2BAAEB7FD5F70921FF497D00504B0304140006080800B670623B6378F24DFF000000A00100003B0000006662782F45374635344235342D363743322D343832342D383044432D4334454645303536354442422F7265736F75726365732F636F72652E
310
786D6C8D504B6E833010BD0A9A6D65B0094E42641C85B639412F6099496225D8C89FAAC7AF09546A77DDCC8CDE47F3F4C4F16B7C149FE88371B603565228D06A37187BED20C50BD9437194C23B177FC9A0B06AC40E6618A4B87A97A615D2CE46B431A3D60DB8822A048C50E8473E3A08FA86A32A558A5911EEE5A4F45D5DB1
310
6465A6B34E8A107D0E502C4FE609D26370C96B0CA25A58295232C3AA3143FE692E063D485EF7F5AEE71BD2D2F39634AFFC44DAF7DD9E9CCE6F9CD25DCBFA762BAAD92C4534E34F46ED51451C40D694B6843142EB0FD61C283F34FC85EE0F948A6A96FF31A569F8A729191B37F51A77B105902C0779125254735F793DCBCC7B
310
EE567E03504B010214000A0000080000B670623B3DEE336E79000000790000001B00000000000000000000000000000000006175746F6465736B2D64657369676E2D7061636B6167652E786D6C504B01021400140006080800B670623BD486FD9CA0000000F40000001300000000000000000000000000B20000005B436F6E
310
74656E745F54797065735D2E786D6C504B01021400140006080800B670623BBC1638F5EC0000007C010000080000000000000000000000000083010000636F72652E786D6C504B01021400140006080800B670623B55019EA25F0000007C000000070000000000000000000000000095020000636E782E786D6C504B010214
310
00140006080800B670623B3586FFB671010000D40300000C00000000000000000000000000190300006662782F636F72652E786D6C504B01021400140006080800B670623B4220A0FF7D0000009D0000000B00000000000000000000000000B40400006662782F636E782E786D6C504B01021400140006080800B670623B2F
310
A3FEDE290100001202000031000000000000000000000000005A0500006662782F45374635344235342D363743322D343832342D383044432D4334454645303536354442422F636F72652E786D6C504B01021400140006080800B670623B1B8617914E010000330300003000000000000000000000000000D2060000666278
310
2F45374635344235342D363743322D343832342D383044432D4334454645303536354442422F636E782E786D6C504B01021400140006080800B670623B29652116630500003C10000034000000000000000000000000006E0800006662782F45374635344235342D363743322D343832342D383044432D4334454645303536
310
354442422F6F626A656374732E786D6C504B01021400140006080000B670623B0000000000000000000000003500000000000000000000000000230E00006662782F45374635344235342D363743322D343832342D383044432D4334454645303536354442422F76657274696365732E62696E504B01021400140006080800
310
B670623BF270F13306000000040000003600000000000000000000000000760E00006662782F45374635344235342D363743322D343832342D383044432D4334454645303536354442422F747269616E676C65732E62696E504B01021400140006080000B670623B0000000000000000000000003700000000000000000000
310
000000D00E00006662782F45374635344235342D363743322D343832342D383044432D4334454645303536354442422F617474726962757465732E62696E504B01021400140006080800B670623B08DA0BD190000000410100003600000000000000000000000000250F00006662782F45374635344235342D363743322D34
310
3832342D383044432D4334454645303536354442422F6469726563746F72792E786D6C504B01021400140006080800B670623B6378F24DFF000000A00100003B00000000000000000000000000091000006662782F45374635344235342D363743322D343832342D383044432D4334454645303536354442422F7265736F75
310
726365732F636F72652E786D6C504B0506000000000E000E0080040000611100000000
  0
XRECORD
  5
112
102
{ACAD_REACTORS
330
110
102
}
330
110
100
AcDbXrecord
280
     1
270
     1
271
     1
  0
XRECORD
  5
111
102
{ACAD_REACTORS
330
110
102
}
330
110
100
AcDbXrecord
280
     1
270
     1
271
     1
  0
XRECORD
  5
18A
102
{ACAD_REACTORS
330
110
102
}
330
110
100
AcDbXrecord
280
     1
 70
     0
 90
1778669749
  1
9BF507EE-FAF7-4A99-A33D-4EE51894BC40
310
504B03040A0000080000B670623B3DEE336E79000000790000001B0000006175746F6465736B2D64657369676E2D7061636B6167652E786D6C3C3F786D6C2076657273696F6E3D22312E302220656E636F64696E673D227574662D3822203F3E3C666F726D6174733E3C666F726D61743E687474703A2F2F736368656D612E
310
6175746F6465736B2E636F6D2F64657369676E2D7061636B6167652F323030393C2F666F726D61743E3C2F666F726D6174733E504B0304140006080800B670623BD486FD9CA0000000F4000000130000005B436F6E74656E745F54797065735D2E786D6C7D8EC10E82300C865F65E91D8A1E8C310C0EEA1BF002731658846E
310
D98AC1B77784ABF1D8FE5FBFBF75BBCE937A534CCEB38643598122B6FEE978D0B0485F9C41B54DDD7D022595594E1A469170414C76A4D9A4D207E29CF43ECE46F218070CC6BECC4078ACAA135ACF422C856C0E68EA1BF5669944DDD7BCDE7B1F8E415D77AECB980613C2E4AC91FC167A2B244592486606FC29C8FD7F045B9A
310
EF7053A7E60B504B0304140006080800B670623BCA089DFFEC0000007C01000008000000636F72652E786D6C8D90416E83301045AF62CDB632D8402020E32882F604BD80653BC44AB011B6AB1EBF262152BBEB6A467FFE9B197D76FA9EEFE84BAFDE38DB03CD08206DA553C64E3DC470C1474027CE56E7C22F1B202B66DDC3
310
260367D3EAE2B24BD2D9A06D48AA754AEFA2F05E0740F29E9A1EBCBCEA59642286E4F0B76C11F226269DD15797E0188D42CF2346A57DE662F40ABCAEC77628C6120F654571D50C04B7F5B9C1E3997CD4F550BE3745C3F20DE62C98F9755FAE5A04AD801784B498524C8A4F5A75E4D055873772EC0861F966FF03C545FD138A
310
C686B2D8DF7D621E384D8F3C069CE55B16A93C824A75CB8DFF00504B0304140006080800B670623B55019EA25F0000007C00000007000000636E782E786D6C4DCB3B0E80201045D1AD90E915ED2CF8AC45050C11660C8261F98AB1B07AC9C97D42D718D865D3E909258CFD00CCE24AC6E326A164D74DC0B4128928FF326038
310
472BA13128B1252AC747C6BAB984FC68F0B87FE8960A5C09FE86CFB69FBA01504B0304140006080800B670623B68FC0B7272010000D40300000C0000006662782F636F72652E786D6CC5535B6E833010BC8AE5DF0A6C1E8124328E22D29EA01770C0A128602363A31CBFCB234A53A555FA553EC09AD9F5CE8C31DB5DDA060D
310
D2F4B556190E7C8A9154852E6B5565D8D993B7C668C799D1DA7E29C3488956667884316795D1AE5BA0422B2B950554E9522EA0E87B69312A1A5864B82F3E642B7CE12C54F467BF13C55954D20F7CA0A18EB3DE1A1080E621E31BF3D3F1C2C88C73E65C5D2E6C5DC2B4FA544B8379921C36797888BC3C8A032F4E73EA6D927D
310
EA1DF6F42D49F2E8350D5346C666CE6CDD5ED515460A2B4BCC434A375E1078347C0FE22D5D6DE3D50B5D6F2965642CBF6B725DF96493AB958DC245EEDCD6631E809089F8E61622B2A81703E8219C913144F84C09DF070D8140C8561C9BAB8F3340832CAC363130A576376A108D933095FA747AD0CF0B46E64E983A6D0EAE1F
310
CE089F9EF1FB8E70D44255604258581E9D1D75B259C3125A278D37D80B52DAB4A279CEC62F0EFF44DDC43F9454E8469BFF5244960322CBEF41C6FBC83F01504B0304140006080800B670623B0F71DDB67E0000009D0000000B0000006662782F636E782E786D6C4DCCD10A83201886E15B91FFDCA54DB73F502386BB8F5816
310
32D3703976F9ABD1C18E3E78F87855FB990379BBFCF2296AE02706C4C5471A7C9C349475A408A4352AA7B4FEDD80C47E761A7606A3A69CCA72D0E0C6BE8475D3E0E3F3409428EA6B27A84079A782899AA2EC1A7AE3ECCC2FD858CB2D544655BFD2B67BD87C01504B0304140006080800B670623BE134B4FB28010000120200
310
00310000006662782F38353834323741342D343835462D343034322D383541392D4331303331363839454531452F636F72652E786D6C8D515B6EC32010BC0AE22B55850D0EA424C24451959EA0172086A42831583CAA1CBF503B52FB971F16CDCECC0EACD8DFC71BF836215AEF7A481A0C817183D7D65D7A98D3197108F652
310
04EFD31F1A044E8DA6871586525C82CFD3020DDE25E352419DD76601558C264130DCCAA58771F832A36A544E8511AFCDA486ABBA988634A55D7852C4144A00300FA927949C71DABD1D28A29C7D208A6987383B6CD13BC16BB2E1DBE3911C453B0BA5C8D9EA456E758963CFD684674DAA588A64C747FC2118958C86B2C3788B
310
0841B8FB247487D98EB257CC77188BB6D2FF89F2A49F1465EBD2BA5BE2CEB2082511EDDC9042FB7CBA3DC298FBE4430275DE2A9AE1054ADC60CC08E3A29D89E5F9C5714317C7987C28DFBBBA9E0A97B0D97643A568EB864AF95D5FA9759BF207504B0304140006080800B670623B1B8617914E010000330300003000000066
310
62782F38353834323741342D343835462D343034322D383541392D4331303331363839454531452F636E782E786D6CD593C16EC32010447F0571AD6CE3D489D20813A9877E410FBD62D82434182CC055F3F75D1292E692438FBD206B7698593D61BEFD1E2DF982108D773D6D6B460938E5B571FB9ECE6957AD29D90A1EBC4F
310
77364A9C1CA1A759A682EF839FA72269D8C9D92654AD71C72206887E0E0A22CAF926B15E498B01E0AA19451807D01A34B919F16B070157417138917400F2F6FA41FCF0092A45DEE414C19BDC21783E4BD39D891265658C3D8DEA00A3ACE59CBC8678ACB54CB26EEB6BD7839D7E9348BE70AD9C8321B9BCA7F9A4A26C542347
310
DEE050F09802D22BA6749A800A394DD62899107273365E3C82CFC6A55557BC06C10774B7ABE7AEC3B0F34CF06446280E154026D0542C187BA9DAB6628BF7B6DBB0E5A65B3EB1F58631DE64BBE083F7B65CC218087E22CABB042E51D1F2268F1FE12B3EA24D40D63E9CFE00120194D60B9D5BC67FE6D39CDF37E20AF817881F
310
504B0304140006080800B670623B5933D422630500003B100000340000006662782F38353834323741342D343835462D343034322D383541392D4331303331363839454531452F6F626A656374732E786D6CAD575B6FA33814FE2B887D0642934E9B156594264D158D3A534DD4D13E548A0C38942D60649B4EBABF7E3F8321
310
40924EF6928780CDF1B97EE762EFF32E4B8D37CA45C2F21BD3B547A641F39045491EDF98A5DC5AD7A6F1D9F73863B243661A39C9E88DA9B64DDF8B392B0BBD15D12D295339D85DDEFE618890E6D434C2940871638AF08566C426A5641115AF764424B1E3EDCE76ED9AB0CF36E6A47819302D08A7B984A6D8CFC1C5A89572FB
310
CB91E9F89EA3BEFB9EFAD754E3D3544E654F5F7E920B49F2F040D880CDD89D2CEE2E2EA7D6E56432B6269F2E5CEB7679BBB0DCABF168FE693E9FCEEEA6102C240727AD09A75BD3BF876F78127A4EFDA9D5582B7E4CA590E5390D2BFB6161A5B3E618D182E611E2985001691DAB47FDA5AB7CD3F93C566B2DB2BB7D9E55DD13
310
1D468DEECDB3AB290BFE8409E21C54704115AA6AFF68436BFC8DF65E0B184BF5B74418199194272435D224E084BF9B3E481589EFF5D828747285706581E9BB7B7E5D5D911ABFC6EE312DB7659A2A689A7E85EC0DF04FA5A8344BFEA2FCB834E8845895492EAFB541F2BDA0A63FF59C6AD3F7D4637CA13FD68E34B629891172
310
98597F1D183A57B9B75A98FE9765B05BAB7C3C2EBCE0ACA05C2AF8005A4DE09AA7F29216EB9E15397500C6F47CBE77CA7778FE2BD277AF0AE2C693DD6437D1522427B9D8329E2136F6A8FA19A3E6C56ADF0E5F50CF06D48734EDCEBF22F69C56D97EC138153F804B85E6FABFC7AFEFB32E523BE1F3BD372418E363EDCA7548
310
52949E8724474014288D94610BB57C1BEC4C7F854A89CA8E5324F55B871CBC78CE1BBEE3BFE68D6A5589EF3C730474506FCFA8FCF0659516D0ED04580EEA6425581B77CAE797FF4BCECC16EB2FEB926F49481F746159D06D922712BD730FDEAE42BD40F42C7AA5EF3F198F60E86110D6DD20645A9480B795CF95E3E3A659A8
310
C55E724F408873315335CFFB8584874484344D494E59D94869DB90C26A5B64F49C802CAC1D3ABE18A098D3B7444D123D8A9E5AE8F5214F0AE5B2B6E9B575DA3E61CBD3EA2B4009FA940524DD1305FB6A1FB294F14DF0BEA90BA109ECE1481FDC3FFAE8D60E75141700BE82725371B4873751B2DD960265F788137FACE6DD40
310
B575E4F0A5C99F46629D92131467A41EE11ABD8D4CCC039CA0AFB37C93A08B232B8F0AEFCA1E0A1015DF13FC83322B362463652ECF71D3A8B1A7D1BE65DE1D62C44F22C317D35F574FEB16153BA2D13E543D10A80E74C4A65E78A6B7CBCBD1D5DD9DB59C2DAFACC96C3AB566E3F1C29ADCDD5DBAD7D3C9ED7C822ED74F80A6
310
41755310DE4443F44A9E68373FADF6596BFA0F440AE7BECE2727AE9F4F2B1B53B1E7E00CF0DD1E5C65454A339A4BA2D0FBA05ED2EF0443458F47BDBFCA484CCFE0F2ED7E3DD0013B679C7B5499467F0ECEEADDB9CA85A34CE44B99053949D2C1416DB85DE4B136BB7165FBAC0B7AB3542BED4F8CA182A549847A1319316519
310
95A83A67147B9E5101C47487F2485F1ECE38FD568F839204296D3479219888530154036E6528FBFBC66F98E0D4107563A2D7D9AFF8D389681A08F58D89F22693900A3B407754734FC51C10C010D6D640809EE4718AC1BA3ED4AEDB53CA37283F68805A7E4B72CEB0A4EDEAD5DD8C14059A76AFAA56BA6901E13F32BC51C720
310
12AF41295B5BF61BAD3195181FB506E6B40F4C10AF5AF40EF9F5B159AE5DD1F43C72D635E94310D45C2D49785C5D0B94D3B54AB3C5A38349C0587D338AB48C11CBF339599C02CCA54A70A008A8D03C0B2201D5F9EFCF8F9CE12A9A19CB0410789EB32C63B95ECCF455D658BFE0621A3DA32C5075FB101723D77DAE867E7D0F
310
D90444509B44E2151B4DC2290B065803200FBAA9BE9D392A0603F2D5C2D00D6302A615680F66D2FA166E2079D4C551A54AB758161FCEFD4E450A14704CECFEDF504B0304140006080000B670623B000000000000000000000000350000006662782F38353834323741342D343835462D343034322D383541392D4331303331
310
363839454531452F76657274696365732E62696E504B0304140006080800B670623BF270F1330600000004000000360000006662782F38353834323741342D343835462D343034322D383541392D4331303331363839454531452F747269616E676C65732E62696E636660600000504B0304140006080000B670623B000000
310
000000000000000000370000006662782F38353834323741342D343835462D343034322D383541392D4331303331363839454531452F617474726962757465732E62696E504B0304140006080800B670623B08DA0BD19000000041010000360000006662782F38353834323741342D343835462D343034322D383541392D43
310
31303331363839454531452F6469726563746F72792E786D6C858F410AC3201045AF22B36F53E9A60B35CBEEBAE80D244E44489C6234F4F835464A48035D0DF398FF9F8AF63D0E6CC63039F212F8F9020C7D47C6792B21C5FE7403D62A1188E2E60C98D7234A5830286103A55745067B9D86B8A3CF9C7F90C11DE607FB1443
310
96D7B6A82D282E9A152AD114D5EF2CB866EEE831B8EEA07A7BB5A8D7D61A2BAAEB7FD5F70921FF497D00504B0304140006080800B670623BD9A3B367FE000000A00100003B0000006662782F38353834323741342D343835462D343034322D383541392D4331303331363839454531452F7265736F75726365732F636F7265
310
2E786D6C8D504B6E833010BD0A9A6D65B01D0201194711694FD00B586642AD043BF2A7EAF16B122AB5BB6E6646EFA3797AE2F8B5DC8A4FF4C1383B002B291468B59B8C9D0748F1420E501CA5F0CEC55F3228AC5A708015062966EFD27D83B4B3116DCCA875136EA00A012314FA968F0182FEC045952AC5AC08D7F2AEF455CD
310
58B232D3592745883E07289E4FD609D26370C96B0CA27AB252A464A64D63A6FCD35C0C7A904D73EE467EE664DCD58CD4ED4849D79C5A723ED1B7A61977AF2D6F45B59AA58866F9C9A83DAA8813484E6947182394BFB3BAA7FBBEDEBFD0434FA9A856F91F53BA4FFF342563E38E6F719FB60092E5200F428A6AED2BAF479979
310
AFDDCA6F504B010214000A0000080000B670623B3DEE336E79000000790000001B00000000000000000000000000000000006175746F6465736B2D64657369676E2D7061636B6167652E786D6C504B01021400140006080800B670623BD486FD9CA0000000F40000001300000000000000000000000000B20000005B436F6E
310
74656E745F54797065735D2E786D6C504B01021400140006080800B670623BCA089DFFEC0000007C010000080000000000000000000000000083010000636F72652E786D6C504B01021400140006080800B670623B55019EA25F0000007C000000070000000000000000000000000095020000636E782E786D6C504B010214
310
00140006080800B670623B68FC0B7272010000D40300000C00000000000000000000000000190300006662782F636F72652E786D6C504B01021400140006080800B670623B0F71DDB67E0000009D0000000B00000000000000000000000000B50400006662782F636E782E786D6C504B01021400140006080800B670623BE1
310
34B4FB280100001202000031000000000000000000000000005C0500006662782F38353834323741342D343835462D343034322D383541392D4331303331363839454531452F636F72652E786D6C504B01021400140006080800B670623B1B8617914E010000330300003000000000000000000000000000D3060000666278
310
2F38353834323741342D343835462D343034322D383541392D4331303331363839454531452F636E782E786D6C504B01021400140006080800B670623B5933D422630500003B10000034000000000000000000000000006F0800006662782F38353834323741342D343835462D343034322D383541392D4331303331363839
310
454531452F6F626A656374732E786D6C504B01021400140006080000B670623B0000000000000000000000003500000000000000000000000000240E00006662782F38353834323741342D343835462D343034322D383541392D4331303331363839454531452F76657274696365732E62696E504B01021400140006080800
310
B670623BF270F13306000000040000003600000000000000000000000000770E00006662782F38353834323741342D343835462D343034322D383541392D4331303331363839454531452F747269616E676C65732E62696E504B01021400140006080000B670623B0000000000000000000000003700000000000000000000
310
000000D10E00006662782F38353834323741342D343835462D343034322D383541392D4331303331363839454531452F617474726962757465732E62696E504B01021400140006080800B670623B08DA0BD190000000410100003600000000000000000000000000260F00006662782F38353834323741342D343835462D34
310
3034322D383541392D4331303331363839454531452F6469726563746F72792E786D6C504B01021400140006080800B670623BD9A3B367FE000000A00100003B000000000000000000000000000A1000006662782F38353834323741342D343835462D343034322D383541392D4331303331363839454531452F7265736F75
310
726365732F636F72652E786D6C504B0506000000000E000E0080040000611100000000
  0
XRECORD
  5
113
102
{ACAD_REACTORS
330
110
102
}
330
110
100
AcDbXrecord
280
     1
270
     1
271
     1
  0
XRECORD
  5
114
102
{ACAD_REACTORS
330
110
102
}
330
110
100
AcDbXrecord
280
     1
270
     1
271
     1
  0
CELLSTYLEMAP
  5
67410
102
{ACAD_REACTORS
330
104
102
}
330
104
100
AcDbCellStyleMap
 90
        3
300
CELLSTYLE
  1
TABLEFORMAT_BEGIN
 90
        5
170
     1
 91
        0
 92
    32768
 62
   257
 93
        1
300
CONTENTFORMAT
  1
CONTENTFORMAT_BEGIN
 90
        0
 91
        0
 92
      512
 93
        0
300

 40
0.0
140
1.0
 94
        5
 62
     0
340
11
144
0.25
309
CONTENTFORMAT_END
171
     1
301
MARGIN
  1
CELLMARGIN_BEGIN
 40
0.06
 40
0.06
 40
0.06
 40
0.06
 40
0.18
 40
0.18
309
CELLMARGIN_END
 94
        6
 95
        1
302
GRIDFORMAT
  1
GRIDFORMAT_BEGIN
 90
        0
 91
        1
 62
     0
 92
       -2
340
0
 93
        0
 40
0.045
309
GRIDFORMAT_END
 95
        2
302
GRIDFORMAT
  1
GRIDFORMAT_BEGIN
 90
        0
 91
        1
 62
     0
 92
       -2
340
0
 93
        0
 40
0.045
309
GRIDFORMAT_END
 95
        4
302
GRIDFORMAT
  1
GRIDFORMAT_BEGIN
 90
        0
 91
        1
 62
     0
 92
       -2
340
0
 93
        0
 40
0.045
309
GRIDFORMAT_END
 95
        8
302
GRIDFORMAT
  1
GRIDFORMAT_BEGIN
 90
        0
 91
        1
 62
     0
 92
       -2
340
0
 93
        0
 40
0.045
309
GRIDFORMAT_END
 95
       16
302
GRIDFORMAT
  1
GRIDFORMAT_BEGIN
 90
        0
 91
        1
 62
     0
 92
       -2
340
0
 93
        0
 40
0.045
309
GRIDFORMAT_END
 95
       32
302
GRIDFORMAT
  1
GRIDFORMAT_BEGIN
 90
        0
 91
        1
 62
     0
 92
       -2
340
0
 93
        0
 40
0.045
309
GRIDFORMAT_END
309
TABLEFORMAT_END
  1
CELLSTYLE_BEGIN
 90
        1
 91
        1
300
_TITLE
309
CELLSTYLE_END
300
CELLSTYLE
  1
TABLEFORMAT_BEGIN
 90
        5
170
     1
 91
        0
 92
        0
 62
   257
 93
        1
300
CONTENTFORMAT
  1
CONTENTFORMAT_BEGIN
 90
        0
 91
        0
 92
      512
 93
        0
300

 40
0.0
140
1.0
 94
        5
 62
     0
340
11
144
0.18
309
CONTENTFORMAT_END
171
     1
301
MARGIN
  1
CELLMARGIN_BEGIN
 40
0.06
 40
0.06
 40
0.06
 40
0.06
 40
0.18
 40
0.18
309
CELLMARGIN_END
 94
        6
 95
        1
302
GRIDFORMAT
  1
GRIDFORMAT_BEGIN
 90
        0
 91
        1
 62
     0
 92
       -2
340
0
 93
        0
 40
0.045
309
GRIDFORMAT_END
 95
        2
302
GRIDFORMAT
  1
GRIDFORMAT_BEGIN
 90
        0
 91
        1
 62
     0
 92
       -2
340
0
 93
        0
 40
0.045
309
GRIDFORMAT_END
 95
        4
302
GRIDFORMAT
  1
GRIDFORMAT_BEGIN
 90
        0
 91
        1
 62
     0
 92
       -2
340
0
 93
        0
 40
0.045
309
GRIDFORMAT_END
 95
        8
302
GRIDFORMAT
  1
GRIDFORMAT_BEGIN
 90
        0
 91
        1
 62
     0
 92
       -2
340
0
 93
        0
 40
0.045
309
GRIDFORMAT_END
 95
       16
302
GRIDFORMAT
  1
GRIDFORMAT_BEGIN
 90
        0
 91
        1
 62
     0
 92
       -2
340
0
 93
        0
 40
0.045
309
GRIDFORMAT_END
 95
       32
302
GRIDFORMAT
  1
GRIDFORMAT_BEGIN
 90
        0
 91
        1
 62
     0
 92
       -2
340
0
 93
        0
 40
0.045
309
GRIDFORMAT_END
309
TABLEFORMAT_END
  1
CELLSTYLE_BEGIN
 90
        2
 91
        1
300
_HEADER
309
CELLSTYLE_END
300
CELLSTYLE
  1
TABLEFORMAT_BEGIN
 90
        5
170
     1
 91
        0
 92
        0
 62
   257
 93
        1
300
CONTENTFORMAT
  1
CONTENTFORMAT_BEGIN
 90
        0
 91
        0
 92
      512
 93
        0
300

 40
0.0
140
1.0
 94
        2
 62
     0
340
11
144
0.18
309
CONTENTFORMAT_END
171
     1
301
MARGIN
  1
CELLMARGIN_BEGIN
 40
0.06
 40
0.06
 40
0.06
 40
0.06
 40
0.18
 40
0.18
309
CELLMARGIN_END
 94
        6
 95
        1
302
GRIDFORMAT
  1
GRIDFORMAT_BEGIN
 90
        0
 91
        1
 62
     0
 92
       -2
340
0
 93
        0
 40
0.045
309
GRIDFORMAT_END
 95
        2
302
GRIDFORMAT
  1
GRIDFORMAT_BEGIN
 90
        0
 91
        1
 62
     0
 92
       -2
340
0
 93
        0
 40
0.045
309
GRIDFORMAT_END
 95
        4
302
GRIDFORMAT
  1
GRIDFORMAT_BEGIN
 90
        0
 91
        1
 62
     0
 92
       -2
340
0
 93
        0
 40
0.045
309
GRIDFORMAT_END
 95
        8
302
GRIDFORMAT
  1
GRIDFORMAT_BEGIN
 90
        0
 91
        1
 62
     0
 92
       -2
340
0
 93
        0
 40
0.045
309
GRIDFORMAT_END
 95
       16
302
GRIDFORMAT
  1
GRIDFORMAT_BEGIN
 90
        0
 91
        1
 62
     0
 92
       -2
340
0
 93
        0
 40
0.045
309
GRIDFORMAT_END
 95
       32
302
GRIDFORMAT
  1
GRIDFORMAT_BEGIN
 90
        0
 91
        1
 62
     0
 92
       -2
340
0
 93
        0
 40
0.045
309
GRIDFORMAT_END
309
TABLEFORMAT_END
  1
CELLSTYLE_BEGIN
 90
        3
 91
        2
300
_DATA
309
CELLSTYLE_END
  0
ENDSEC
  0
SECTION
  2
ACDSDATA
 70
     2
 71
     8
  0
ACDSSCHEMA
 90
        0
  1
AcDb_Thumbnail_Schema
  2
AcDbDs::ID
280
    10
 91
        8
  2
Thumbnail_Data
280
    15
 91
        0
101
ACDSRECORD
 95
        0
 90
        1
  2
AcDbDs::TreatedAsObjectData
280
     1
291
     1
101
ACDSRECORD
 95
        0
 90
        2
  2
AcDbDs::Legacy
280
     1
291
     1
101
ACDSRECORD
  1
AcDbDs::ID
 90
        3
  2
AcDs:Indexable
280
     1
291
     1
101
ACDSRECORD
  1
AcDbDs::ID
 90
        4
  2
AcDbDs::HandleAttribute
280
     7
282
     1
  0
ACDSSCHEMA
 90
        1
  1
AcDbDs::TreatedAsObjectDataSchema
  2
AcDbDs::TreatedAsObjectData
280
     1
 91
        0
  0
ACDSSCHEMA
 90
        2
  1
AcDbDs::LegacySchema
  2
AcDbDs::Legacy
280
     1
 91
        0
  0
ACDSSCHEMA
 90
        3
  1
AcDbDs::IndexedPropertySchema
  2
AcDs:Indexable
280
     1
 91
        0
  0
ACDSSCHEMA
 90
        4
  1
AcDbDs::HandleAttributeSchema
  2
AcDbDs::HandleAttribute
280
     7
 91
        1
284
     1
  0
ACDSSCHEMA
 90
        5
  1
AcDb3DSolid_ASM_Data
  2
AcDbDs::ID
280
    10
 91
        8
  2
ASM_Data
280
    15
 91
        0
101
ACDSRECORD
 95
        5
 90
        1
  2
AcDbDs::TreatedAsObjectData
280
     1
291
     1
101
ACDSRECORD
 95
        5
 90
        2
  2
AcDbDs::Legacy
280
     1
291
     1
101
ACDSRECORD
  1
AcDbDs::ID
 90
        3
  2
AcDs:Indexable
280
     1
291
     1
101
ACDSRECORD
  1
AcDbDs::ID
 90
        4
  2
AcDbDs::HandleAttribute
280
     7
282
     1
  0
ACDSRECORD
 90
        0
  2
AcDbDs::ID
280
    10
320
22
  2
Thumbnail_Data
280
    15
 94
     1666
310
89504E470D0A1A0A0000000D49484452000001000000006C0803000000B2ED9CC100000300504C5445212830FFFFFF2128300000000000000000000000000000000000000000000000000000330000660000990000CC0000FF0033000033330033660033990033CC0033FF0066000066330066660066990066CC0066FF0099
310
000099330099660099990099CC0099FF00CC0000CC3300CC6600CC9900CCCC00CCFF00FF0000FF3300FF6600FF9900FFCC00FFFF3300003300333300663300993300CC3300FF3333003333333333663333993333CC3333FF3366003366333366663366993366CC3366FF3399003399333399663399993399CC3399FF33CC00
310
33CC3333CC6633CC9933CCCC33CCFF33FF0033FF3333FF6633FF9933FFCC33FFFF6600006600336600666600996600CC6600FF6633006633336633666633996633CC6633FF6666006666336666666666996666CC6666FF6699006699336699666699996699CC6699FF66CC0066CC3366CC6666CC9966CCCC66CCFF66FF0066
310
FF3366FF6666FF9966FFCC66FFFF9900009900339900669900999900CC9900FF9933009933339933669933999933CC9933FF9966009966339966669966999966CC9966FF9999009999339999669999999999CC9999FF99CC0099CC3399CC6699CC9999CCCC99CCFF99FF0099FF3399FF6699FF9999FFCC99FFFFCC0000CC00
310
33CC0066CC0099CC00CCCC00FFCC3300CC3333CC3366CC3399CC33CCCC33FFCC6600CC6633CC6666CC6699CC66CCCC66FFCC9900CC9933CC9966CC9999CC99CCCC99FFCCCC00CCCC33CCCC66CCCC99CCCCCCCCCCFFCCFF00CCFF33CCFF66CCFF99CCFFCCCCFFFFFF0000FF0033FF0066FF0099FF00CCFF00FFFF3300FF3333
310
FF3366FF3399FF33CCFF33FFFF6600FF6633FF6666FF6699FF66CCFF66FFFF9900FF9933FF9966FF9999FF99CCFF99FFFFCC00FFCC33FFCC66FFCC99FFCCCCFFCCFFFFFF00FFFF33FFFF66FFFF99FFFFCCFFFFFF0000000D0D0D1A1A1A2828283535354343435050505D5D5D6B6B6B787878868686939393A1A1A1AEAEAEBB
310
BBBBC9C9C9D6D6D6E4E4E4F1F1F1FFFFFF0000000000000000000000000000000000000000000000000000000000002E4550F1000001634944415478DAED9BCB72C2301004F7FFFF77EE297044EC5816962E2133DD557040EC615BD25A0FA802000000000000000000804F43F2C842F3110D8FFC67F390D30858E848598D80
310
4712D302DACB640AD4FC14D056396C04AC960D93A7C08280168200042020514021000108400002C205F89C07AC0B28135605140210902D20BD06B4F7D875809C044CF37D969A2DC0A6126E53E094CB28B96788998053215085093876F938B526C0EC31B84B5A3742FC04B48BE2F723DB56C0D6F5BA17622AE0E7D66BB0E537
310
16703481808B9BD30C01BBB28880500117FB80B422D8DB0AA508B80890CAE7507CD4931A9E08D99C896994E8E808A122050C56072102DE8420C04A40A70501084040928073539A80F369F96B2F902AA0967E60FE7F05FC6E8C9B0217AB2104244D01E9CE67CE35205A40F7BF417102E247C07125142540DD6F070B50190AD0
310
FDDDE0EEBAC428FD4136FD7B212B0100000000000000000000F0F77C015593AD5B220BCA400000000049454E44AE4260829E009C02AB882400670008AA1A09C01F803DB482842B007804B0C60D91CF2F9E2F7FB1C23DC1579225015C3F890CE05202B8F9242E001C5FF3827301006B5440D9FC87A325E680CBB4BF3A80E341
310
024800126BCED8DCCAFE0BC89323148B0004169DB1773E315BC236EF7D16429C74C0FC8810FAB822E4686C54F4D26BA9A9E2DD7790D975BD451A1FD53D220800A0797E05CB04E203000DE41FA502A8BD05F61574D1160836078CE58FF12DE253CECF072C2F70EA6F011040B1F60060AF8009C658FE140940F746886607B0F5
310
F2D84660BD1618B88A08D2027100640B8C5D0B2DBC0AC45A06BBF6C2581840B855A0358D18E98F251203406F1A612A80B202BAD38891FF580B500000D49D4988F37FAC813E72214627000A3582A5C338FE00598ED82311F33F3A0000000049454E44AE4260820F467818FD4AC64A010000000049454E44AE42608200187F52
310
539FF6AC0FF2D01229B97F7B56AE64E8787DBF9E93B283504D4929EEDB336DE133B927D0B706F146D8FDD54728002424931276690CDE5FFA471401522320E6FA719CDCC9E90D234F422DA512220CD4066298BF969A4028B717C4D481E25C1BC6C59A99842240E2F24B1F92F8AC20F021F00EFE737AFD0FDF7E00E9E9886BC5
310
1247A50000000049454E44AE426082
  0
ENDSEC
  0
EOF
