  0
SECTION
  2
HEADER
  9
$ACADVER
  1
AC1032
  9
$ACADMAINTVER
 90
      197
  9
$DWGCODEPAGE
  3
ANSI_1252
  9
$LASTSAVEDBY
  1
gregb
  9
$REQUIREDVERSIONS
160
                 0
  9
$INSBASE
 10
0.0
 20
0.0
 30
0.0
  9
$EXTMIN
 10
155217.8221530339
 20
105985.8821080762
 30
-920.4586347029458
  9
$EXTMAX
 10
156904.6110572776
 20
106734.65503844
 30
-920.3883964207523
  9
$LIMMIN
 10
0.0
 20
0.0
  9
$LIMMAX
 10
12.0
 20
9.0
  9
$ORTHOMODE
 70
     0
  9
$REGENMODE
 70
     1
  9
$FILLMODE
 70
     1
  9
$QTEXTMODE
 70
     0
  9
$MIRRTEXT
 70
     0
  9
$LTSCALE
 40
1.0
  9
$ATTMODE
 70
     1
  9
$TEXTSIZE
 40
0.2
  9
$TRACEWID
 40
0.05
  9
$TEXTSTYLE
  7
Standard
  9
$CLAYER
  8
freecads.com
  9
$CELTYPE
  6
ByLayer
  9
$CECOLOR
 62
   256
  9
$CELTSCALE
 40
1.0
  9
$DISPSILH
 70
     1
  9
$DIMSCALE
 40
1.0
  9
$DIMASZ
 40
0.18
  9
$DIMEXO
 40
0.0625
  9
$DIMDLI
 40
0.38
  9
$DIMRND
 40
0.0
  9
$DIMDLE
 40
0.0
  9
$DIMEXE
 40
0.18
  9
$DIMTP
 40
0.0
  9
$DIMTM
 40
0.0
  9
$DIMTXT
 40
0.18
  9
$DIMCEN
 40
0.09
  9
$DIMTSZ
 40
0.0
  9
$DIMTOL
 70
     0
  9
$DIMLIM
 70
     0
  9
$DIMTIH
 70
     1
  9
$DIMTOH
 70
     1
  9
$DIMSE1
 70
     0
  9
$DIMSE2
 70
     0
  9
$DIMTAD
 70
     0
  9
$DIMZIN
 70
     0
  9
$DIMBLK
  1

  9
$DIMASO
 70
     1
  9
$DIMSHO
 70
     1
  9
$DIMPOST
  1

  9
$DIMAPOST
  1

  9
$DIMALT
 70
     0
  9
$DIMALTD
 70
     2
  9
$DIMALTF
 40
25.4
  9
$DIMLFAC
 40
1.0
  9
$DIMTOFL
 70
     0
  9
$DIMTVP
 40
0.0
  9
$DIMTIX
 70
     0
  9
$DIMSOXD
 70
     0
  9
$DIMSAH
 70
     0
  9
$DIMBLK1
  1

  9
$DIMBLK2
  1

  9
$DIMSTYLE
  2
Standard
  9
$DIMCLRD
 70
     0
  9
$DIMCLRE
 70
     0
  9
$DIMCLRT
 70
     0
  9
$DIMTFAC
 40
1.0
  9
$DIMGAP
 40
0.09
  9
$DIMJUST
 70
     0
  9
$DIMSD1
 70
     0
  9
$DIMSD2
 70
     0
  9
$DIMTOLJ
 70
     1
  9
$DIMTZIN
 70
     0
  9
$DIMALTZ
 70
     0
  9
$DIMALTTZ
 70
     0
  9
$DIMUPT
 70
     0
  9
$DIMDEC
 70
     4
  9
$DIMTDEC
 70
     4
  9
$DIMALTU
 70
     2
  9
$DIMALTTD
 70
     2
  9
$DIMTXSTY
  7
Standard
  9
$DIMAUNIT
 70
     0
  9
$DIMADEC
 70
     0
  9
$DIMALTRND
 40
0.0
  9
$DIMAZIN
 70
     0
  9
$DIMDSEP
 70
    46
  9
$DIMATFIT
 70
     3
  9
$DIMFRAC
 70
     0
  9
$DIMLDRBLK
  1

  9
$DIMLUNIT
 70
     2
  9
$DIMLWD
 70
    -2
  9
$DIMLWE
 70
    -2
  9
$DIMTMOVE
 70
     0
  9
$DIMFXL
 40
1.0
  9
$DIMFXLON
 70
     0
  9
$DIMJOGANG
 40
0.7853981633974483
  9
$DIMTFILL
 70
     0
  9
$DIMTFILLCLR
 70
     0
  9
$DIMARCSYM
 70
     0
  9
$DIMLTYPE
  6

  9
$DIMLTEX1
  6

  9
$DIMLTEX2
  6

  9
$DIMTXTDIRECTION
 70
     0
  9
$LUNITS
 70
     2
  9
$LUPREC
 70
     4
  9
$SKETCHINC
 40
0.1
  9
$FILLETRAD
 40
0.0
  9
$AUNITS
 70
     0
  9
$AUPREC
 70
     0
  9
$MENU
  1
.
  9
$ELEVATION
 40
0.0
  9
$PELEVATION
 40
0.0
  9
$THICKNESS
 40
0.0
  9
$LIMCHECK
 70
     0
  9
$CHAMFERA
 40
0.0
  9
$CHAMFERB
 40
0.0
  9
$CHAMFERC
 40
0.0
  9
$CHAMFERD
 40
0.0
  9
$SKPOLY
 70
     0
  9
$TDCREATE
 40
2458157.454583334
  9
$TDUCREATE
 40
2458157.287916667
  9
$TDUPDATE
 40
2460668.826550926
  9
$TDUUPDATE
 40
2460668.659884259
  9
$TDINDWG
 40
0.2119212963
  9
$TDUSRTIMER
 40
0.2119212963
  9
$USRTIMER
 70
     1
  9
$ANGBASE
 50
0.0
  9
$ANGDIR
 70
     0
  9
$PDMODE
 70
     0
  9
$PDSIZE
 40
0.0
  9
$PLINEWID
 40
0.0
  9
$SPLFRAME
 70
     0
  9
$SPLINETYPE
 70
     6
  9
$SPLINESEGS
 70
     8
  9
$HANDSEED
  5
67412
  9
$SURFTAB1
 70
     6
  9
$SURFTAB2
 70
     6
  9
$SURFTYPE
 70
     6
  9
$SURFU
 70
     6
  9
$SURFV
 70
     6
  9
$UCSBASE
  2

  9
$UCSNAME
  2

  9
$UCSORG
 10
0.0
 20
0.0
 30
0.0
  9
$UCSXDIR
 10
1.0
 20
0.0
 30
0.0
  9
$UCSYDIR
 10
0.0
 20
1.0
 30
0.0
  9
$UCSORTHOREF
  2

  9
$UCSORTHOVIEW
 70
     0
  9
$UCSORGTOP
 10
0.0
 20
0.0
 30
0.0
  9
$UCSORGBOTTOM
 10
0.0
 20
0.0
 30
0.0
  9
$UCSORGLEFT
 10
0.0
 20
0.0
 30
0.0
  9
$UCSORGRIGHT
 10
0.0
 20
0.0
 30
0.0
  9
$UCSORGFRONT
 10
0.0
 20
0.0
 30
0.0
  9
$UCSORGBACK
 10
0.0
 20
0.0
 30
0.0
  9
$PUCSBASE
  2

  9
$PUCSNAME
  2

  9
$PUCSORG
 10
0.0
 20
0.0
 30
0.0
  9
$PUCSXDIR
 10
1.0
 20
0.0
 30
0.0
  9
$PUCSYDIR
 10
0.0
 20
1.0
 30
0.0
  9
$PUCSORTHOREF
  2

  9
$PUCSORTHOVIEW
 70
     0
  9
$PUCSORGTOP
 10
0.0
 20
0.0
 30
0.0
  9
$PUCSORGBOTTOM
 10
0.0
 20
0.0
 30
0.0
  9
$PUCSORGLEFT
 10
0.0
 20
0.0
 30
0.0
  9
$PUCSORGRIGHT
 10
0.0
 20
0.0
 30
0.0
  9
$PUCSORGFRONT
 10
0.0
 20
0.0
 30
0.0
  9
$PUCSORGBACK
 10
0.0
 20
0.0
 30
0.0
  9
$USERI1
 70
     0
  9
$USERI2
 70
     0
  9
$USERI3
 70
     0
  9
$USERI4
 70
     0
  9
$USERI5
 70
     0
  9
$USERR1
 40
0.0
  9
$USERR2
 40
0.0
  9
$USERR3
 40
0.0
  9
$USERR4
 40
0.0
  9
$USERR5
 40
0.0
  9
$WORLDVIEW
 70
     1
  9
$SHADEDGE
 70
     3
  9
$SHADEDIF
 70
    70
  9
$TILEMODE
 70
     1
  9
$MAXACTVP
 70
    64
  9
$PINSBASE
 10
0.0
 20
0.0
 30
0.0
  9
$PLIMCHECK
 70
     0
  9
$PEXTMIN
 10
0.0
 20
0.0
 30
0.0
  9
$PEXTMAX
 10
0.0
 20
0.0
 30
0.0
  9
$PLIMMIN
 10
0.0
 20
0.0
  9
$PLIMMAX
 10
12.0
 20
9.0
  9
$UNITMODE
 70
     0
  9
$VISRETAIN
 70
     1
  9
$PLINEGEN
 70
     0
  9
$PSLTSCALE
 70
     1
  9
$TREEDEPTH
 70
  3020
  9
$CMLSTYLE
  2
Standard
  9
$CMLJUST
 70
     0
  9
$CMLSCALE
 40
1.0
  9
$PROXYGRAPHICS
 70
     1
  9
$MEASUREMENT
 70
     0
  9
$CELWEIGHT
370
    -1
  9
$ENDCAPS
280
     0
  9
$JOINSTYLE
280
     0
  9
$LWDISPLAY
290
     0
  9
$INSUNITS
 70
     1
  9
$HYPERLINKBASE
  1

  9
$STYLESHEET
  1
monochrome.ctb
  9
$XEDIT
290
     1
  9
$CEPSNTYPE
380
     0
  9
$PSTYLEMODE
290
     1
  9
$FINGERPRINTGUID
  2
{358EB121-6EE0-9143-8A3E-6E8E8869FDA6}
  9
$VERSIONGUID
  2
{E54A643F-55E3-744A-B5AC-E4ACD430CA8F}
  9
$EXTNAMES
290
     1
  9
$PSVPSCALE
 40
0.0
  9
$OLESTARTUP
290
     0
  9
$SORTENTS
280
   127
  9
$INDEXCTL
280
     0
  9
$HIDETEXT
280
     1
  9
$XCLIPFRAME
280
     2
  9
$HALOGAP
280
     0
  9
$OBSCOLOR
 70
   257
  9
$OBSLTYPE
280
     0
  9
$INTERSECTIONDISPLAY
280
     0
  9
$INTERSECTIONCOLOR
 70
   257
  9
$DIMASSOC
280
     2
  9
$PROJECTNAME
  1

  9
$CAMERADISPLAY
290
     0
  9
$LENSLENGTH
 40
50.0
  9
$CAMERAHEIGHT
 40
0.0
  9
$STEPSPERSEC
 40
2.0
  9
$STEPSIZE
 40
6.0
  9
$3DDWFPREC
 40
2.0
  9
$PSOLWIDTH
 40
0.25
  9
$PSOLHEIGHT
 40
4.0
  9
$LOFTANG1
 40
1.570796326794896
  9
$LOFTANG2
 40
1.570796326794896
  9
$LOFTMAG1
 40
0.0
  9
$LOFTMAG2
 40
0.0
  9
$LOFTPARAM
 70
     7
  9
$LOFTNORMALS
280
     1
  9
$LATITUDE
 40
37.795
  9
$LONGITUDE
 40
-122.394
  9
$NORTHDIRECTION
 40
0.0
  9
$TIMEZONE
 70
 -8000
  9
$LIGHTGLYPHDISPLAY
280
     1
  9
$TILEMODELIGHTSYNCH
280
     1
  9
$CMATERIAL
347
96
  9
$SOLIDHIST
280
     0
  9
$SHOWHIST
280
     1
  9
$DWFFRAME
280
     2
  9
$DGNFRAME
280
     0
  9
$REALWORLDSCALE
290
     1
  9
$INTERFERECOLOR
 62
     1
  9
$INTERFEREOBJVS
345
A3
  9
$INTERFEREVPVS
346
A0
  9
$CSHADOW
280
     0
  9
$SHADOWPLANELOCATION
 40
0.0
  0
ENDSEC
  0
SECTION
  2
CLASSES
  0
CLASS
  1
ACDBDICTIONARYWDFLT
  2
AcDbDictionaryWithDefault
  3
ObjectDBX Classes
 90
        0
 91
        1
280
     0
281
     0
  0
CLASS
  1
DICTIONARYVAR
  2
AcDbDictionaryVar
  3
ObjectDBX Classes
 90
        0
 91
       27
280
     0
281
     0
  0
CLASS
  1
TABLESTYLE
  2
AcDbTableStyle
  3
ObjectDBX Classes
 90
     4095
 91
        1
280
     0
281
     0
  0
CLASS
  1
MATERIAL
  2
AcDbMaterial
  3
ObjectDBX Classes
 90
     1153
 91
        3
280
     0
281
     0
  0
CLASS
  1
VISUALSTYLE
  2
AcDbVisualStyle
  3
ObjectDBX Classes
 90
     4095
 91
       25
280
     0
281
     0
  0
CLASS
  1
SCALE
  2
AcDbScale
  3
ObjectDBX Classes
 90
     1153
 91
       34
280
     0
281
     0
  0
CLASS
  1
MLEADERSTYLE
  2
AcDbMLeaderStyle
  3
ACDB_MLEADERSTYLE_CLASS
 90
     4095
 91
        1
280
     0
281
     0
  0
CLASS
  1
CELLSTYLEMAP
  2
AcDbCellStyleMap
  3
ObjectDBX Classes
 90
     1152
 91
        1
280
     0
281
     0
  0
CLASS
  1
EXACXREFPANELOBJECT
  2
ExAcXREFPanelObject
  3
EXAC_ESW
 90
     1025
 91
        1
280
     0
281
     0
  0
CLASS
  1
NPOCOLLECTION
  2
AcDbImpNonPersistentObjectsCollection
  3
ObjectDBX Classes
 90
     1153
 91
        1
280
     0
281
     0
  0
CLASS
  1
LAYER_INDEX
  2
AcDbLayerIndex
  3
ObjectDBX Classes
 90
        0
 91
        0
280
     0
281
     0
  0
CLASS
  1
SPATIAL_INDEX
  2
AcDbSpatialIndex
  3
ObjectDBX Classes
 90
        0
 91
        0
280
     0
281
     0
  0
CLASS
  1
IDBUFFER
  2
AcDbIdBuffer
  3
ObjectDBX Classes
 90
        0
 91
        0
280
     0
281
     0
  0
CLASS
  1
ACDBSECTIONVIEWSTYLE
  2
AcDbSectionViewStyle
  3
ObjectDBX Classes
 90
     1025
 91
        2
280
     0
281
     0
  0
CLASS
  1
ACDBDETAILVIEWSTYLE
  2
AcDbDetailViewStyle
  3
ObjectDBX Classes
 90
     1025
 91
        2
280
     0
281
     0
  0
CLASS
  1
SORTENTSTABLE
  2
AcDbSortentsTable
  3
ObjectDBX Classes
 90
        0
 91
        1
280
     0
281
     0
  0
CLASS
  1
ACAD_EVALUATION_GRAPH
  2
AcDbEvalGraph
  3
ObjectDBX Classes
 90
     1153
 91
        0
280
     0
281
     0
  0
CLASS
  1
BLOCKLINEARPARAMETER
  2
AcDbBlockLinearParameter
  3
ObjectDBX Classes
 90
     1153
 91
        0
280
     0
281
     0
  0
CLASS
  1
BLOCKLINEARGRIP
  2
AcDbBlockLinearGrip
  3
ObjectDBX Classes
 90
     1153
 91
        0
280
     0
281
     0
  0
CLASS
  1
BLOCKGRIPLOCATIONCOMPONENT
  2
AcDbBlockGripExpr
  3
ObjectDBX Classes
 90
     1153
 91
        0
280
     0
281
     0
  0
CLASS
  1
BLOCKSTRETCHACTION
  2
AcDbBlockStretchAction
  3
ObjectDBX Classes
 90
     1153
 91
        0
280
     0
281
     0
  0
CLASS
  1
ACDB_DYNAMICBLOCKPURGEPREVENTER_VERSION
  2
AcDbDynamicBlockPurgePreventer
  3
ObjectDBX Classes
 90
     1153
 91
        0
280
     0
281
     0
  0
CLASS
  1
BLOCKVISIBILITYPARAMETER
  2
AcDbBlockVisibilityParameter
  3
ObjectDBX Classes
 90
     1153
 91
        0
280
     0
281
     0
  0
CLASS
  1
BLOCKVISIBILITYGRIP
  2
AcDbBlockVisibilityGrip
  3
ObjectDBX Classes
 90
     1153
 91
        0
280
     0
281
     0
  0
CLASS
  1
ACDB_BLOCKREPRESENTATION_DATA
  2
AcDbBlockRepresentationData
  3
ObjectDBX Classes
 90
     1153
 91
        0
280
     0
281
     0
  0
CLASS
  1
SURFACE
  2
AcDbSurface
  3
ObjectDBX Classes
 90
     4095
 91
        0
280
     0
281
     1
  0
CLASS
  1
ACDBASSOCPERSSUBENTMANAGER
  2
AcDbAssocPersSubentManager
  3
ObjectDBX Classes
 90
     1024
 91
        1
280
     0
281
     0
  0
CLASS
  1
BLOCKARRAYACTION
  2
AcDbBlockArrayAction
  3
ObjectDBX Classes
 90
     1153
 91
        0
280
     0
281
     0
  0
CLASS
  1
BLOCKLOOKUPPARAMETER
  2
AcDbBlockLookupParameter
  3
ObjectDBX Classes
 90
     1153
 91
        0
280
     0
281
     0
  0
CLASS
  1
BLOCKLOOKUPGRIP
  2
AcDbBlockLookupGrip
  3
ObjectDBX Classes
 90
     1153
 91
        0
280
     0
281
     0
  0
CLASS
  1
BLOCKLOOKUPACTION
  2
AcDbBlockLookupAction
  3
ObjectDBX Classes
 90
     1153
 91
        0
280
     0
281
     0
  0
CLASS
  1
WIPEOUT
  2
AcDbWipeout
  3
WipeOut|Product Desc: Object Enabler for WipeOut entity | Company: Autodesk, Inc. | WEB Address: www.autodesk.com
 90
     2175
 91
        0
280
     0
281
     1
  0
CLASS
  1
WIPEOUTVARIABLES
  2
AcDbWipeoutVariables
  3
"WipeOut|Product Desc:     WipeOut Dbx Application|Company:          Autodesk, Inc.|WEB Address:      www.autodesk.com"
 90
        0
 91
        1
280
     0
281
     0
  0
ENDSEC
  0
SECTION
  2
TABLES
  0
TABLE
  2
VPORT
  5
8
330
0
100
AcDbSymbolTable
 70
     1
  0
VPORT
  5
94
330
8
100
AcDbSymbolTableRecord
100
AcDbViewportTableRecord
  2
*Active
 70
     0
 10
0.0
 20
0.0
 11
1.0
 21
1.0
 12
156028.3178854819
 22
105920.8190108974
 13
0.0
 23
0.0
 14
0.5
 24
0.5
 15
0.5
 25
0.5
 16
0.0
 26
0.0
 36
1.0
 17
0.0
 27
0.0
 37
0.0
 40
4770.204903814117
 41
2.293369663941871
 42
50.0
 43
0.0
 44
0.0
 50
0.0
 51
0.0
 71
     0
 72
  1000
 73
     1
 74
     3
 75
     0
 76
     0
 77
     0
 78
     0
281
     0
 65
     1
110
0.0
120
0.0
130
0.0
111
1.0
121
0.0
131
0.0
112
0.0
122
1.0
132
0.0
 79
     0
146
0.0
348
9F
 60
     3
 61
     5
292
     1
282
     1
141
0.0
142
0.0
 63
   250
421
  3355443
1001
ACAD_NAV_VCDISPLAY
1070
     3
  0
ENDTAB
  0
TABLE
  2
LTYPE
  5
5
330
0
100
AcDbSymbolTable
 70
     1
  0
LTYPE
  5
14
330
5
100
AcDbSymbolTableRecord
100
AcDbLinetypeTableRecord
  2
ByBlock
 70
     0
  3

 72
    65
 73
     0
 40
0.0
  0
LTYPE
  5
15
330
5
100
AcDbSymbolTableRecord
100
AcDbLinetypeTableRecord
  2
ByLayer
 70
     0
  3

 72
    65
 73
     0
 40
0.0
  0
LTYPE
  5
16
330
5
100
AcDbSymbolTableRecord
100
AcDbLinetypeTableRecord
  2
Continuous
 70
     0
  3
Solid line
 72
    65
 73
     0
 40
0.0
  0
ENDTAB
  0
TABLE
  2
LAYER
  5
2
102
{ACAD_XDICTIONARY
360
18E
102
}
330
0
100
AcDbSymbolTable
 70
     2
  0
LAYER
  5
10
102
{ACAD_XDICTIONARY
360
E6
102
}
330
2
100
AcDbSymbolTableRecord
100
AcDbLayerTableRecord
  2
0
 70
     0
 62
     7
  6
Continuous
370
    -3
390
F
347
98
348
0
  0
LAYER
  5
204
330
2
100
AcDbSymbolTableRecord
100
AcDbLayerTableRecord
  2
freecads.com
 70
     0
 62
     7
  6
Continuous
370
    -3
390
F
347
98
348
0
1001
AcAecLayerStandard
1000

1000

1001
AcCmTransparency
1071
        0
  0
ENDTAB
  0
TABLE
  2
STYLE
  5
3
330
0
100
AcDbSymbolTable
 70
     2
  0
STYLE
  5
11
330
3
100
AcDbSymbolTableRecord
100
AcDbTextStyleTableRecord
  2
Standard
 70
     0
 40
0.0
 41
1.0
 50
0.0
 71
     0
 42
0.2
  3
arial.ttf
  4

1001
ACAD
1000
Arial
1071
       34
  0
ENDTAB
  0
TABLE
  2
VIEW
  5
6
330
0
100
AcDbSymbolTable
 70
     0
  0
ENDTAB
  0
TABLE
  2
UCS
  5
7
330
0
100
AcDbSymbolTable
 70
     0
  0
ENDTAB
  0
TABLE
  2
APPID
  5
9
330
0
100
AcDbSymbolTable
 70
    31
  0
APPID
  5
12
330
9
100
AcDbSymbolTableRecord
100
AcDbRegAppTableRecord
  2
ACAD
 70
     0
  0
APPID
  5
DD
330
9
100
AcDbSymbolTableRecord
100
AcDbRegAppTableRecord
  2
AcadAnnoPO
 70
     0
  0
APPID
  5
DE
330
9
100
AcDbSymbolTableRecord
100
AcDbRegAppTableRecord
  2
AcadAnnotative
 70
     0
  0
APPID
  5
DF
330
9
100
AcDbSymbolTableRecord
100
AcDbRegAppTableRecord
  2
ACAD_DSTYLE_DIMJAG
 70
     0
  0
APPID
  5
E0
330
9
100
AcDbSymbolTableRecord
100
AcDbRegAppTableRecord
  2
ACAD_DSTYLE_DIMTALN
 70
     0
  0
APPID
  5
107
330
9
100
AcDbSymbolTableRecord
100
AcDbRegAppTableRecord
  2
ACAD_MLEADERVER
 70
     0
  0
APPID
  5
1A6
330
9
100
AcDbSymbolTableRecord
100
AcDbRegAppTableRecord
  2
ACAD_NAV_VCDISPLAY
 70
     0
  0
APPID
  5
205
330
9
100
AcDbSymbolTableRecord
100
AcDbRegAppTableRecord
  2
AcAecLayerStandard
 70
     0
  0
APPID
  5
206
330
9
100
AcDbSymbolTableRecord
100
AcDbRegAppTableRecord
  2
AcCmTransparency
 70
     0
  0
APPID
  5
222
330
9
100
AcDbSymbolTableRecord
100
AcDbRegAppTableRecord
  2
ACAD_PSEXT
 70
     0
  0
APPID
  5
2DA
330
9
100
AcDbSymbolTableRecord
100
AcDbRegAppTableRecord
  2
GradientColor1ACI
 70
     0
  0
APPID
  5
2DB
330
9
100
AcDbSymbolTableRecord
100
AcDbRegAppTableRecord
  2
GradientColor2ACI
 70
     0
  0
APPID
  5
2F3
330
9
100
AcDbSymbolTableRecord
100
AcDbRegAppTableRecord
  2
ACAD_EXEMPT_FROM_CAD_STANDARDS
 70
     0
  0
APPID
  5
A1A
330
9
100
AcDbSymbolTableRecord
100
AcDbRegAppTableRecord
  2
AcDbBlockRepETag
 70
     0
  0
APPID
  5
2282
330
9
100
AcDbSymbolTableRecord
100
AcDbRegAppTableRecord
  2
RAK
 70
     0
  0
APPID
  5
39F4
330
9
100
AcDbSymbolTableRecord
100
AcDbRegAppTableRecord
  2
ACAD_DSTYLE_DIMJOGGED_JOGANGLE_SYMBOL
 70
     0
  0
APPID
  5
39F5
330
9
100
AcDbSymbolTableRecord
100
AcDbRegAppTableRecord
  2
AcDbDynamicBlockGUID
 70
     0
  0
APPID
  5
39F6
330
9
100
AcDbSymbolTableRecord
100
AcDbRegAppTableRecord
  2
ACAD_DSTYLE_DIMBREAK
 70
     0
  0
APPID
  5
3B59
330
9
100
AcDbSymbolTableRecord
100
AcDbRegAppTableRecord
  2
AEC_XDATA_BOUND_SPACE
 70
     0
  0
APPID
  5
75C5
330
9
100
AcDbSymbolTableRecord
100
AcDbRegAppTableRecord
  2
AcDbDynamicBlockTrueName
 70
     0
  0
APPID
  5
75C6
330
9
100
AcDbSymbolTableRecord
100
AcDbRegAppTableRecord
  2
AcDbBlockRepBTag
 70
     0
  0
APPID
  5
75C7
330
9
100
AcDbSymbolTableRecord
100
AcDbRegAppTableRecord
  2
ACAUTHENVIRON
 70
     0
  0
APPID
  5
AA90
330
9
100
AcDbSymbolTableRecord
100
AcDbRegAppTableRecord
  2
Acad_TC
 70
     0
  0
APPID
  5
AA9C
330
9
100
AcDbSymbolTableRecord
100
AcDbRegAppTableRecord
  2
AcDbBlockArrayActionTag
 70
     0
  0
APPID
  5
BEE4
330
9
100
AcDbSymbolTableRecord
100
AcDbRegAppTableRecord
  2
ACAD_DSTYLE_DIMTEXT_FILL
 70
     0
  0
APPID
  5
219E5
330
9
100
AcDbSymbolTableRecord
100
AcDbRegAppTableRecord
  2
AECLAY
 70
     0
  0
APPID
  5
26B46
330
9
100
AcDbSymbolTableRecord
100
AcDbRegAppTableRecord
  2
REVIT
 70
     0
  0
APPID
  5
280A5
330
9
100
AcDbSymbolTableRecord
100
AcDbRegAppTableRecord
  2
HATCHBACKGROUNDCOLOR
 70
     0
  0
APPID
  5
29EE0
330
9
100
AcDbSymbolTableRecord
100
AcDbRegAppTableRecord
  2
ACAD_STEPID
 70
     0
  0
APPID
  5
29EE1
330
9
100
AcDbSymbolTableRecord
100
AcDbRegAppTableRecord
  2
AcLayerTools
 70
     0
  0
APPID
  5
4D86C
330
9
100
AcDbSymbolTableRecord
100
AcDbRegAppTableRecord
  2
PE_URL
 70
     0
  0
ENDTAB
  0
TABLE
  2
DIMSTYLE
  5
A
330
0
100
AcDbSymbolTable
 70
     2
100
AcDbDimStyleTable
 71
     1
340
27
  0
DIMSTYLE
105
27
330
A
100
AcDbSymbolTableRecord
100
AcDbDimStyleTableRecord
  2
Standard
 70
     0
340
11
  0
ENDTAB
  0
TABLE
  2
BLOCK_RECORD
  5
1
330
0
100
AcDbSymbolTable
 70
     2
  0
BLOCK_RECORD
  5
1F
102
{ACAD_XDICTIONARY
360
15D
102
}
330
1
100
AcDbSymbolTableRecord
100
AcDbBlockTableRecord
  2
*Model_Space
340
22
 70
     0
280
     1
281
     0
  0
BLOCK_RECORD
  5
58
330
1
100
AcDbSymbolTableRecord
100
AcDbBlockTableRecord
  2
*Paper_Space
340
59
 70
     0
280
     1
281
     0
  0
BLOCK_RECORD
  5
5D
330
1
100
AcDbSymbolTableRecord
100
AcDbBlockTableRecord
  2
*Paper_Space0
340
5E
 70
     0
280
     1
281
     0
  0
ENDTAB
  0
ENDSEC
  0
SECTION
  2
BLOCKS
  0
BLOCK
  5
20
330
1F
100
AcDbEntity
  8
0
100
AcDbBlockBegin
  2
*Model_Space
 70
     0
 10
0.0
 20
0.0
 30
0.0
  3
*Model_Space
  1

  0
ENDBLK
  5
21
330
1F
100
AcDbEntity
  8
0
100
AcDbBlockEnd
  0
BLOCK
  5
5A
330
58
100
AcDbEntity
 67
     1
  8
0
100
AcDbBlockBegin
  2
*Paper_Space
 70
     0
 10
0.0
 20
0.0
 30
0.0
  3
*Paper_Space
  1

  0
ENDBLK
  5
5B
330
58
100
AcDbEntity
 67
     1
  8
0
100
AcDbBlockEnd
  0
BLOCK
  5
5F
330
5D
100
AcDbEntity
 67
     1
  8
0
100
AcDbBlockBegin
  2
*Paper_Space0
 70
     0
 10
0.0
 20
0.0
 30
0.0
  3
*Paper_Space0
  1

  0
ENDBLK
  5
60
330
5D
100
AcDbEntity
 67
     1
  8
0
100
AcDbBlockEnd
  0
ENDSEC
  0
SECTION
  2
ENTITIES
  0
LINE
  5
6104A
330
1F
100
AcDbEntity
  8
freecads.com
100
AcDbLine
 10
155673.2920409098
 20
105997.6746087465
 30
-920.4026280692678
 11
155941.4563825342
 21
106031.0175460976
 31
-920.4026280692678
  0
ARC
  5
6104B
330
1F
100
AcDbEntity
  8
freecads.com
100
AcDbCircle
 10
155639.8518565407
 20
109064.0620493855
 30
-920.4026280692678
 40
3071.482336726248
100
AcDbArc
 50
269.973302450425
 51
271.3275282268296
  0
LINE
  5
6104C
330
1F
100
AcDbEntity
  8
freecads.com
100
AcDbLine
 10
156199.3834635091
 20
106108.7267056292
 30
-920.4026280692678
 11
155452.1228619867
 21
106108.411450523
 31
-920.4026280692678
  0
LINE
  5
6104D
330
1F
100
AcDbEntity
  8
freecads.com
100
AcDbLine
 10
156210.1193737475
 20
106160.0116119257
 30
-920.4026280692678
 11
155248.9563825342
 21
106160.0116119257
 31
-920.4026280692678
  0
LINE
  5
6104E
330
1F
100
AcDbEntity
  8
freecads.com
100
AcDbLine
 10
155261.4624846623
 20
106124.6229908253
 30
-920.4026280692678
 11
156201.4049034773
 21
106125.0080390983
 31
-920.4026280692678
  0
LINE
  5
6104F
330
1F
100
AcDbEntity
  8
freecads.com
100
AcDbLine
 10
155936.1438825342
 20
106071.0175460976
 30
-920.4026280692678
 11
155668.432146915
 21
106037.3782789844
 31
-920.4026280692678
  0
LINE
  5
61050
330
1F
100
AcDbEntity
  8
freecads.com
100
AcDbLine
 10
155451.8401594505
 20
106613.483097056
 30
-920.4026280692678
 11
156199.4778743059
 21
106613.8870753816
 31
-920.4026280692678
  0
LINE
  5
61051
330
1F
100
AcDbEntity
  8
freecads.com
100
AcDbLine
 10
156210.8248546264
 20
106560.0119344894
 30
-920.4026280692678
 11
155249.2688825342
 21
106560.0119344894
 31
-920.4026280692678
  0
LINE
  5
61052
330
1F
100
AcDbEntity
  8
freecads.com
100
AcDbLine
 10
155261.2699487479
 20
106594.6229513891
 30
-920.4026280692678
 11
156201.8395082169
 21
106595.0082565707
 31
-920.4026280692678
  0
LINE
  5
61053
330
1F
100
AcDbEntity
  8
freecads.com
100
AcDbLine
 10
155668.6747242401
 20
106684.6333834578
 30
-920.4026280692678
 11
155944.2688825342
 21
106650.7050460976
 31
-920.4026280692678
  0
LINE
  5
61054
330
1F
100
AcDbEntity
  8
freecads.com
100
AcDbLine
 10
155676.7688825342
 20
106723.5175460976
 30
-920.4026280692678
 11
155943.0188825342
 21
106690.3925460976
 31
-920.4026280692678
  0
ARC
  5
61055
330
1F
100
AcDbEntity
  8
freecads.com
100
AcDbCircle
 10
155639.8518565415
 20
103654.8926856677
 30
-920.4026280692678
 40
3071.482336725339
100
AcDbArc
 50
88.6724717731704
 51
90.02669754957507
  0
LINE
  5
614C9
330
1F
100
AcDbEntity
  8
freecads.com
100
AcDbLine
 10
155235.7652304249
 20
106698.7152324682
 30
-920.4026280692678
 11
155235.8053815697
 21
106600.7021602913
 31
-920.4026280692678
  0
LINE
  5
614CA
330
1F
100
AcDbEntity
  8
freecads.com
100
AcDbLine
 10
155221.2261142521
 20
106701.6183294966
 30
-920.4026280692678
 11
155221.2671486356
 21
106601.4491809946
 31
-920.4026280692678
  0
LINE
  5
614CB
330
1F
100
AcDbEntity
  8
freecads.com
100
AcDbLine
 10
155261.267900511
 20
106595.3925460976
 30
-920.4026280692678
 11
155261.267900511
 21
106714.1425460976
 31
-920.4026280692678
  0
LINE
  5
614CC
330
1F
100
AcDbEntity
  8
freecads.com
100
AcDbLine
 10
155437.3045968199
 20
106624.4996889547
 30
-920.4026280692678
 11
155437.3045968199
 21
106678.5175460976
 31
-920.4026280692678
  0
LINE
  5
614CD
330
1F
100
AcDbEntity
  8
freecads.com
100
AcDbLine
 10
155261.5075086304
 20
106014.7148641301
 30
-920.4026280692678
 11
155656.0921059951
 21
106014.8765060719
 31
-920.4026280692678
  0
LINE
  5
614CE
330
1F
100
AcDbEntity
  8
freecads.com
100
AcDbLine
 10
155261.511976043
 20
106003.8089685931
 30
-920.4026280692678
 11
155453.0823319161
 21
106003.8874455648
 31
-920.4026280692678
  0
LINE
  5
614CF
330
1F
100
AcDbEntity
  8
freecads.com
100
AcDbLine
 10
155248.1842874635
 20
106559.6175878992
 30
-920.4026280692678
 11
155248.3481478162
 21
106159.6176214619
 31
-920.4026280692678
  0
LINE
  5
614D0
330
1F
100
AcDbEntity
  8
freecads.com
100
AcDbLine
 10
155236.0430578817
 20
106020.5098486234
 30
-920.4026280692678
 11
155236.0029067369
 21
106118.5229208003
 31
-920.4026280692678
  0
LINE
  5
614D1
330
1F
100
AcDbEntity
  8
freecads.com
100
AcDbLine
 10
155222.0813825342
 20
106010.3925460976
 30
-920.4026280692678
 11
155221.4652907014
 21
106117.7640285424
 31
-920.4026280692678
  0
LINE
  5
614D2
330
1F
100
AcDbEntity
  8
freecads.com
100
AcDbLine
 10
155261.5054980224
 20
106123.5175460976
 30
-920.4026280692678
 11
155261.5054980224
 21
106003.5175460976
 31
-920.4026280692678
  0
LINE
  5
614D3
330
1F
100
AcDbEntity
  8
freecads.com
100
AcDbLine
 10
155261.5075080909
 20
106014.7161810502
 30
-920.4026280692678
 11
155240.6123511673
 21
106015.6103105398
 31
-920.4026280692678
  0
ARC
  5
614D4
330
1F
100
AcDbEntity
  8
freecads.com
100
AcDbCircle
 10
155241.1816756887
 20
106020.7492094202
 30
-920.4026280692678
 40
5.144188332085162
100
AcDbArc
 50
182.6669769774642
 51
202.9979842536258
  0
ARC
  5
614D5
330
1F
100
AcDbEntity
  8
freecads.com
100
AcDbCircle
 10
155241.2777454557
 20
106020.7841342174
 30
-920.4026280692678
 40
5.246270177953883
100
AcDbArc
 50
202.9391688635529
 51
223.0053545467439
  0
ARC
  5
614D6
330
1F
100
AcDbEntity
  8
freecads.com
100
AcDbCircle
 10
155241.2184758983
 20
106020.721472377
 30
-920.4026280692678
 40
5.160190214105892
100
AcDbArc
 50
222.9454162187903
 51
243.234339257155
  0
ARC
  5
614D7
330
1F
100
AcDbEntity
  8
freecads.com
100
AcDbCircle
 10
155241.1189207434
 20
106020.5172388222
 30
-920.4026280692678
 40
4.933006131041256
100
AcDbArc
 50
243.1984885583561
 51
264.1059228768276
  0
LINE
  5
614D8
330
1F
100
AcDbEntity
  8
freecads.com
100
AcDbLine
 10
155261.5119790747
 20
106003.8015581462
 30
-920.4026280692678
 11
155229.633277028
 21
106005.4591554006
 31
-920.4026280692678
  0
ARC
  5
614D9
330
1F
100
AcDbEntity
  8
freecads.com
100
AcDbCircle
 10
155227.0812208473
 20
106010.3903449317
 30
-920.4026280692678
 40
4.999838797638962
100
AcDbArc
 50
179.9747756828595
 51
266.9782817827084
  0
LINE
  5
614DA
330
1F
100
AcDbEntity
  8
freecads.com
100
AcDbLine
 10
155227.700279815
 20
106123.0385441865
 30
-920.4026280692678
 11
155259.5813825342
 21
106123.8300460976
 31
-920.4026280692678
  0
ARC
  5
614DB
330
1F
100
AcDbEntity
  8
freecads.com
100
AcDbCircle
 10
155240.8176349632
 20
106118.838070378
 30
-920.4026280692678
 40
4.686514179736833
100
AcDbArc
 50
93.05160380113552
 51
115.5248433857996
  0
ARC
  5
614DC
330
1F
100
AcDbEntity
  8
freecads.com
100
AcDbCircle
 10
155240.8751577278
 20
106118.7251023096
 30
-920.4026280692678
 40
4.813244180870983
100
AcDbArc
 50
115.5632954967427
 51
137.6405869480708
  0
ARC
  5
614DD
330
1F
100
AcDbEntity
  8
freecads.com
100
AcDbCircle
 10
155241.0125496325
 20
106118.59975031
 30
-920.4026280692678
 40
4.999227127345056
100
AcDbArc
 50
137.6399576277768
 51
159.1663181901403
  0
ARC
  5
614DE
330
1F
100
AcDbEntity
  8
freecads.com
100
AcDbCircle
 10
155241.1451447859
 20
106118.5459423985
 30
-920.4026280692678
 40
5.142290864380615
100
AcDbArc
 50
159.1314272878672
 51
180.2564935148695
  0
ARC
  5
614DF
330
1F
100
AcDbEntity
  8
freecads.com
100
AcDbCircle
 10
155226.4651290145
 20
106117.7662297083
 30
-920.4026280692678
 40
4.999838797641839
100
AcDbArc
 50
93.02171821729157
 51
180.0252243171404
  0
LINE
  5
614E0
330
1F
100
AcDbEntity
  8
freecads.com
100
AcDbLine
 10
155258.9024847557
 20
106158.5175460976
 30
-920.4026280692678
 11
155258.9024847557
 21
106124.621942119
 31
-920.4026280692678
  0
LINE
  5
614E1
330
1F
100
AcDbEntity
  8
freecads.com
100
AcDbLine
 10
155352.9881391929
 20
106159.6604873303
 30
-920.4026280692678
 11
155353.0024769737
 21
106124.660490267
 31
-920.4026280692678
  0
LINE
  5
614E2
330
1F
100
AcDbEntity
  8
freecads.com
100
AcDbLine
 10
155227.0813825342
 20
106595.7050460976
 30
-920.4026280692678
 11
155261.2699481568
 21
106594.6243942057
 31
-920.4026280692678
  0
ARC
  5
614E3
330
1F
100
AcDbEntity
  8
freecads.com
100
AcDbCircle
 10
155240.9476367544
 20
106600.6833517452
 30
-920.4026280692678
 40
5.142290864380575
100
AcDbArc
 50
179.7904490189359
 51
200.9155152463533
  0
ARC
  5
614E4
330
1F
100
AcDbEntity
  8
freecads.com
100
AcDbCircle
 10
155240.8150857304
 20
106600.6294352164
 30
-920.4026280692678
 40
4.999227127324988
100
AcDbArc
 50
200.880624344606
 51
222.4069849080401
  0
ARC
  5
614E5
330
1F
100
AcDbEntity
  8
freecads.com
100
AcDbCircle
 10
155240.677796573
 20
106600.5039706933
 30
-920.4026280692678
 40
4.813244180843682
100
AcDbArc
 50
222.4063555865358
 51
244.4836470375768
  0
ARC
  5
614E6
330
1F
100
AcDbEntity
  8
freecads.com
100
AcDbCircle
 10
155240.6203663825
 20
106600.3909555344
 30
-920.4026280692678
 40
4.686514179747804
100
AcDbArc
 50
244.5220991489416
 51
266.9953387342384
  0
ARC
  5
614E7
330
1F
100
AcDbEntity
  8
freecads.com
100
AcDbCircle
 10
155226.8953782811
 20
106600.6415961013
 30
-920.4026280692678
 40
5.142290864380841
100
AcDbArc
 50
179.7904490181022
 51
200.9155152455745
  0
ARC
  5
614E8
330
1F
100
AcDbEntity
  8
freecads.com
100
AcDbCircle
 10
155226.7628272571
 20
106600.5876795725
 30
-920.4026280692678
 40
4.99922712730151
100
AcDbArc
 50
200.880624344606
 51
222.4069849080401
  0
ARC
  5
614E9
330
1F
100
AcDbEntity
  8
freecads.com
100
AcDbCircle
 10
155226.6255380997
 20
106600.4622150495
 30
-920.4026280692678
 40
4.813244180817983
100
AcDbArc
 50
222.4063555865358
 51
244.4836470375768
  0
ARC
  5
614EA
330
1F
100
AcDbEntity
  8
freecads.com
100
AcDbCircle
 10
155226.5681079093
 20
106600.3491998905
 30
-920.4026280692678
 40
4.686514179788471
100
AcDbArc
 50
244.5220991489416
 51
266.9953387342384
  0
LINE
  5
614EB
330
1F
100
AcDbEntity
  8
freecads.com
100
AcDbLine
 10
155266.7688825342
 20
106593.6665066756
 30
-920.4026280692678
 11
155266.7688825342
 21
106560.0800460976
 31
-920.4026280692678
  0
LINE
  5
614EC
330
1F
100
AcDbEntity
  8
freecads.com
100
AcDbLine
 10
155352.8699410543
 20
106594.6604754098
 30
-920.4026280692678
 11
155352.8842788352
 21
106559.6604783465
 31
-920.4026280692678
  0
ARC
  5
614ED
330
1F
100
AcDbEntity
  8
freecads.com
100
AcDbCircle
 10
155605.3698287662
 20
107838.2892334833
 30
-920.4026280692678
 40
1845.308769538615
100
AcDbArc
 50
266.8599996499971
 51
268.7722295870795
  0
ARC
  5
614EE
330
1F
100
AcDbEntity
  8
freecads.com
100
AcDbCircle
 10
155613.3701383982
 20
103955.7817624743
 30
-920.4026280692678
 40
2058.190667252924
100
AcDbArc
 50
90.97722576947042
 51
92.85943377886018
  0
LINE
  5
614EF
330
1F
100
AcDbEntity
  8
freecads.com
100
AcDbLine
 10
155664.8938825342
 20
106034.4996889547
 30
-920.4026280692678
 11
155447.3045968199
 21
106034.4996889547
 31
-920.4026280692678
  0
LINE
  5
614F0
330
1F
100
AcDbEntity
  8
freecads.com
100
AcDbLine
 10
155447.3045968199
 20
106108.5175460976
 30
-920.4026280692678
 11
155664.8938825342
 21
106108.5175460976
 31
-920.4026280692678
  0
ARC
  5
614F1
330
1F
100
AcDbEntity
  8
freecads.com
100
AcDbCircle
 10
155447.3045968199
 20
106044.4996889547
 30
-920.4026280692678
 40
10.0
100
AcDbArc
 50
180.0
 51
270.0
  0
ARC
  5
614F2
330
1F
100
AcDbEntity
  8
freecads.com
100
AcDbCircle
 10
155527.6588814807
 20
106511.7871878975
 30
-920.4026280692678
 40
516.5651129976713
100
AcDbArc
 50
262.8286378169881
 51
267.4072621159207
  0
ARC
  5
614F3
330
1F
100
AcDbEntity
  8
freecads.com
100
AcDbCircle
 10
155535.1974387915
 20
105411.6690210304
 30
-920.4026280692678
 40
600.2411024289305
100
AcDbArc
 50
92.33946256380537
 51
96.7243131688396
  0
ARC
  5
614F4
330
1F
100
AcDbEntity
  8
freecads.com
100
AcDbCircle
 10
155458.3291473034
 20
106009.6169954826
 30
-920.4026280692678
 40
11.43066215118539
100
AcDbArc
 50
212.9132118309805
 51
295.068131818115
  0
ARC
  5
614F5
330
1F
100
AcDbEntity
  8
freecads.com
100
AcDbCircle
 10
155459.3118662682
 20
105996.3908724663
 30
-920.4026280692678
 40
12.69330570137125
100
AcDbArc
 50
63.81072248245749
 51
146.450393632804
  0
LINE
  5
614F6
330
1F
100
AcDbEntity
  8
freecads.com
100
AcDbLine
 10
155437.3045968199
 20
106044.4996889547
 30
-920.4026280692678
 11
155437.3045968199
 21
106098.5175460976
 31
-920.4026280692678
  0
ARC
  5
614F7
330
1F
100
AcDbEntity
  8
freecads.com
100
AcDbCircle
 10
155447.3045968199
 20
106098.5175460976
 30
-920.4026280692678
 40
10.0
100
AcDbArc
 50
90.0
 51
180.0
  0
ARC
  5
614F8
330
1F
100
AcDbEntity
  8
freecads.com
100
AcDbCircle
 10
155636.9894799562
 20
109064.0620493847
 30
-920.4026280692678
 40
3071.482336725484
100
AcDbArc
 50
268.6724717731704
 51
270.026697549575
  0
ARC
  5
614F9
330
1F
100
AcDbEntity
  8
freecads.com
100
AcDbCircle
 10
155638.1312667008
 20
102827.32549037
 30
-920.4026280692678
 40
3186.909875852077
100
AcDbArc
 50
89.67690825189743
 51
91.07631827263428
  0
LINE
  5
614FA
330
1F
100
AcDbEntity
  8
freecads.com
100
AcDbLine
 10
155676.1438825342
 20
105999.7675460976
 30
-920.4026280692678
 11
155668.432146915
 21
106037.3782789844
 31
-920.4026280692678
  0
ARC
  5
614FB
330
1F
100
AcDbEntity
  8
freecads.com
100
AcDbCircle
 10
155675.8250355404
 20
106018.1339285154
 30
-920.4026280692678
 40
19.99999568006695
100
AcDbArc
 50
111.4559910272503
 51
262.5010625167065
  0
LINE
  5
614FC
330
1F
100
AcDbEntity
  8
freecads.com
100
AcDbLine
 10
155668.432146915
 20
106037.3782789844
 30
-920.4026280692678
 11
155668.5093078324
 21
106036.7479005604
 31
-920.4026280692678
  0
LINE
  5
614FD
330
1F
100
AcDbEntity
  8
freecads.com
100
AcDbLine
 10
155664.8938825342
 20
106614.4996889547
 30
-920.4026280692678
 11
155447.3045968199
 21
106614.4996889547
 31
-920.4026280692678
  0
ARC
  5
614FE
330
1F
100
AcDbEntity
  8
freecads.com
100
AcDbCircle
 10
155447.3045968199
 20
106624.4996889547
 30
-920.4026280692678
 40
10.0
100
AcDbArc
 50
180.0
 51
270.0
  0
LINE
  5
614FF
330
1F
100
AcDbEntity
  8
freecads.com
100
AcDbLine
 10
155261.2249247864
 20
106704.5310780842
 30
-920.4026280692678
 11
155656.0988965754
 21
106704.6928385685
 31
-920.4026280692678
  0
LINE
  5
61500
330
1F
100
AcDbEntity
  8
freecads.com
100
AcDbLine
 10
155452.7892495333
 20
106715.5154499525
 30
-920.4026280692678
 11
155261.2204569788
 21
106715.4369736211
 31
-920.4026280692678
  0
LINE
  5
61501
330
1F
100
AcDbEntity
  8
freecads.com
100
AcDbLine
 10
155261.2249253259
 20
106704.5297611641
 30
-920.4026280692678
 11
155240.3305079771
 21
106703.6185125372
 31
-920.4026280692678
  0
ARC
  5
61502
330
1F
100
AcDbEntity
  8
freecads.com
100
AcDbCircle
 10
155240.8410976378
 20
106698.7120009349
 30
-920.4026280692678
 40
4.933006131072615
100
AcDbArc
 50
95.94101965649683
 51
116.8484539754227
  0
ARC
  5
61503
330
1F
100
AcDbEntity
  8
freecads.com
100
AcDbCircle
 10
155240.9408200882
 20
106698.5078490145
 30
-920.4026280692678
 40
5.160190214077987
100
AcDbArc
 50
116.8126032771005
 51
137.101526315718
  0
ARC
  5
61504
330
1F
100
AcDbEntity
  8
freecads.com
100
AcDbCircle
 10
155241.0001409646
 20
106698.4452357548
 30
-920.4026280692678
 40
5.24627017797253
100
AcDbArc
 50
137.0415879895936
 51
157.1077736708276
  0
ARC
  5
61505
330
1F
100
AcDbEntity
  8
freecads.com
100
AcDbCircle
 10
155240.9040426159
 20
106698.4800818301
 30
-920.4026280692678
 40
5.144188332083202
100
AcDbArc
 50
157.0489582801732
 51
177.3799655571107
  0
LINE
  5
61506
330
1F
100
AcDbEntity
  8
freecads.com
100
AcDbLine
 10
155229.5911704628
 20
106713.4985502385
 30
-920.4026280692678
 11
155261.220566691
 21
106715.1691695324
 31
-920.4026280692678
  0
ARC
  5
61507
330
1F
100
AcDbEntity
  8
freecads.com
100
AcDbCircle
 10
155227.6096639954
 20
106707.8307926671
 30
-920.4026280692678
 40
5.142290864380575
100
AcDbArc
 50
159.0844847536466
 51
180.2095509810641
  0
ARC
  5
61508
330
1F
100
AcDbEntity
  8
freecads.com
100
AcDbCircle
 10
155227.4771129714
 20
106707.8847091959
 30
-920.4026280692678
 40
4.999227127324988
100
AcDbArc
 50
137.5930150919599
 51
159.119375655394
  0
ARC
  5
61509
330
1F
100
AcDbEntity
  8
freecads.com
100
AcDbCircle
 10
155227.339823814
 20
106708.010173719
 30
-920.4026280692678
 40
4.813244180843682
100
AcDbArc
 50
115.5163529624232
 51
137.5936444134642
  0
ARC
  5
6150A
330
1F
100
AcDbEntity
  8
freecads.com
100
AcDbCircle
 10
155227.2823936236
 20
106708.1231888779
 30
-920.4026280692678
 40
4.686514179764225
100
AcDbArc
 50
93.00466126576163
 51
115.4779008510584
  0
ARC
  5
6150B
330
1F
100
AcDbEntity
  8
freecads.com
100
AcDbCircle
 10
155613.3701383982
 20
108763.1729725776
 30
-920.4026280692678
 40
2058.190667252542
100
AcDbArc
 50
267.1405662211398
 51
269.0227742305296
  0
ARC
  5
6150C
330
1F
100
AcDbEntity
  8
freecads.com
100
AcDbCircle
 10
155605.3698287662
 20
104880.6655015692
 30
-920.4026280692678
 40
1845.308769538469
100
AcDbArc
 50
91.22777041292048
 51
93.14000035000285
  0
LINE
  5
6150D
330
1F
100
AcDbEntity
  8
freecads.com
100
AcDbLine
 10
155447.3045968199
 20
106688.5175460976
 30
-920.4026280692678
 11
155664.8938825342
 21
106688.5175460976
 31
-920.4026280692678
  0
ARC
  5
6150E
330
1F
100
AcDbEntity
  8
freecads.com
100
AcDbCircle
 10
155535.1974387916
 20
107307.285714022
 30
-920.4026280692678
 40
600.2411024290221
100
AcDbArc
 50
263.2756868311604
 51
267.6605374361946
  0
ARC
  5
6150F
330
1F
100
AcDbEntity
  8
freecads.com
100
AcDbCircle
 10
155527.6588814809
 20
106207.1675471549
 30
-920.4026280692678
 40
516.5651129975903
100
AcDbArc
 50
92.59273788407927
 51
97.17136218301185
  0
ARC
  5
61510
330
1F
100
AcDbEntity
  8
freecads.com
100
AcDbCircle
 10
155459.3118662682
 20
106722.563862586
 30
-920.4026280692678
 40
12.69330570137928
100
AcDbArc
 50
213.5496063671959
 51
296.1892775175425
  0
ARC
  5
61511
330
1F
100
AcDbEntity
  8
freecads.com
100
AcDbCircle
 10
155458.3291473034
 20
106709.3377395697
 30
-920.4026280692678
 40
11.43066215118539
100
AcDbArc
 50
64.93186818188502
 51
147.0867881690195
  0
ARC
  5
61512
330
1F
100
AcDbEntity
  8
freecads.com
100
AcDbCircle
 10
155447.3045968199
 20
106678.5175460976
 30
-920.4026280692678
 40
10.0
100
AcDbArc
 50
90.0
 51
180.0
  0
ARC
  5
61513
330
1F
100
AcDbEntity
  8
freecads.com
100
AcDbCircle
 10
155638.1312667008
 20
109891.6292446821
 30
-920.4026280692678
 40
3186.909875851841
100
AcDbArc
 50
268.9236817273657
 51
270.3230917481026
  0
ARC
  5
61514
330
1F
100
AcDbEntity
  8
freecads.com
100
AcDbCircle
 10
155636.9894799555
 20
103654.8926856677
 30
-920.4026280692678
 40
3071.482336725339
100
AcDbArc
 50
89.97330245042494
 51
91.32752822682958
  0
LINE
  5
61515
330
1F
100
AcDbEntity
  8
freecads.com
100
AcDbLine
 10
155672.7722478632
 20
106704.9019040831
 30
-920.4026280692678
 11
155668.6438825342
 21
106684.7675460976
 31
-920.4026280692678
  0
LINE
  5
61516
330
1F
100
AcDbEntity
  8
freecads.com
100
AcDbLine
 10
155676.3556181534
 20
106722.3782789844
 30
-920.4026280692678
 11
155672.7722478632
 21
106704.9019040831
 31
-920.4026280692678
  0
ARC
  5
61517
330
1F
100
AcDbEntity
  8
freecads.com
100
AcDbCircle
 10
155676.082035526
 20
106703.8721871295
 30
-920.4026280692678
 40
19.9999956800852
100
AcDbArc
 50
177.4269809821772
 51
248.5010625166824
  0
ARC
  5
61518
330
1F
100
AcDbEntity
  8
freecads.com
100
AcDbCircle
 10
155676.082035526
 20
106703.8721871295
 30
-920.4026280692678
 40
19.99999568005514
100
AcDbArc
 50
97.45599102732892
 51
177.4269809830102
  0
LINE
  5
61519
330
1F
100
AcDbEntity
  8
freecads.com
100
AcDbLine
 10
156864.5813825342
 20
106593.8300460976
 30
-920.4026280692678
 11
156702.1126097917
 21
106595.4191068137
 31
-920.4026280692678
  0
LINE
  5
6151A
330
1F
100
AcDbEntity
  8
freecads.com
100
AcDbLine
 10
156681.4563825342
 20
106601.3300460976
 30
-920.4026280692678
 11
156865.5188825342
 21
106601.3300460976
 31
-920.4026280692678
  0
LINE
  5
6151B
330
1F
100
AcDbEntity
  8
freecads.com
100
AcDbLine
 10
155814.3553139925
 20
106014.94133874
 30
-920.4026280692678
 11
156841.5073760575
 21
106015.3621125232
 31
-920.4026280692678
  0
LINE
  5
6151C
330
1F
100
AcDbEntity
  8
freecads.com
100
AcDbLine
 10
155829.7045496761
 20
106004.1078713465
 30
-920.4026280692678
 11
156841.5118163773
 21
106004.5223591203
 31
-920.4026280692678
  0
LINE
  5
6151D
330
1F
100
AcDbEntity
  8
freecads.com
100
AcDbLine
 10
155829.9431195839
 20
106004.0418269317
 30
-920.4026280692678
 11
156876.4563825342
 21
106004.4550460976
 31
-920.4026280692678
  0
LINE
  5
6151E
330
1F
100
AcDbEntity
  8
freecads.com
100
AcDbLine
 10
155832.4432828396
 20
106704.7650782079
 30
-920.4026280692678
 11
156841.2247922134
 21
106705.1783264774
 31
-920.4026280692678
  0
LINE
  5
6151F
330
1F
100
AcDbEntity
  8
freecads.com
100
AcDbLine
 10
155829.4130848023
 20
106715.6035921065
 30
-920.4026280692678
 11
156841.2203515035
 21
106716.0180798802
 31
-920.4026280692678
  0
LINE
  5
61520
330
1F
100
AcDbEntity
  8
freecads.com
100
AcDbLine
 10
156841.2203244059
 20
106716.0842220142
 30
-920.4026280692678
 11
155829.6500372012
 21
106715.6698313194
 31
-920.4026280692678
  0
LINE
  5
61521
330
1F
100
AcDbEntity
  8
freecads.com
100
AcDbLine
 10
156871.7688825342
 20
106126.3300460976
 30
-920.4026280692678
 11
156702.3053144109
 21
106125.0073205019
 31
-920.4026280692678
  0
LINE
  5
61522
330
1F
100
AcDbEntity
  8
freecads.com
100
AcDbLine
 10
156681.1438825342
 20
106118.8300460976
 30
-920.4026280692678
 11
156865.2063825342
 21
106119.4550460976
 31
-920.4026280692678
  0
LINE
  5
61523
330
1F
100
AcDbEntity
  8
freecads.com
100
AcDbLine
 10
156250.4619596383
 20
106340.0569986407
 30
-920.4026280692678
 11
156249.3120410938
 21
106356.6977760832
 31
-920.4026280692678
  0
LINE
  5
61524
330
1F
100
AcDbEntity
  8
freecads.com
100
AcDbLine
 10
156249.3120410938
 20
106356.6977760832
 30
-920.4026280692678
 11
156249.6319940879
 21
106373.3671739682
 31
-920.4026280692678
  0
LINE
  5
61525
330
1F
100
AcDbEntity
  8
freecads.com
100
AcDbLine
 10
156253.4711684601
 20
106108.7495242083
 30
-920.4026280692678
 11
156232.0095738836
 21
106108.7404699677
 31
-920.4026280692678
  0
LINE
  5
61526
330
1F
100
AcDbEntity
  8
freecads.com
100
AcDbLine
 10
156350.2063825342
 20
106160.0258864301
 30
-920.4026280692678
 11
156244.9649065581
 21
106160.0258864301
 31
-920.4026280692678
  0
LINE
  5
61527
330
1F
100
AcDbEntity
  8
freecads.com
100
AcDbLine
 10
156234.3807000986
 20
106125.0215476635
 30
-920.4026280692678
 11
156348.5346601098
 21
106125.0683109378
 31
-920.4026280692678
  0
LINE
  5
61528
330
1F
100
AcDbEntity
  8
freecads.com
100
AcDbLine
 10
156351.3667979629
 20
106070.7499070574
 30
-920.4026280692678
 11
156238.9563825342
 21
106070.7499070574
 31
-920.4026280692678
  0
LINE
  5
61529
330
1F
100
AcDbEntity
  8
freecads.com
100
AcDbLine
 10
155941.1438825342
 20
106031.0175460976
 30
-920.4026280692678
 11
156797.3938825342
 21
106029.7675460976
 31
-920.4026280692678
  0
LINE
  5
6152A
330
1F
100
AcDbEntity
  8
freecads.com
100
AcDbLine
 10
156246.7542623424
 20
106163.9090083711
 30
-920.4026280692678
 11
156288.1906280582
 21
106249.9212818226
 31
-920.4026280692678
  0
LINE
  5
6152B
330
1F
100
AcDbEntity
  8
freecads.com
100
AcDbLine
 10
156232.0852907058
 20
106613.9046944626
 30
-920.4026280692678
 11
156253.1884281916
 21
106613.9160973252
 31
-920.4026280692678
  0
LINE
  5
6152C
330
1F
100
AcDbEntity
  8
freecads.com
100
AcDbLine
 10
156349.8938825342
 20
106560.0262660503
 30
-920.4026280692678
 11
156245.8096682786
 21
106560.0262660503
 31
-920.4026280692678
  0
LINE
  5
6152D
330
1F
100
AcDbEntity
  8
freecads.com
100
AcDbLine
 10
156234.8636628312
 20
106595.0217849459
 30
-920.4026280692678
 11
156351.7688825342
 21
106595.0217849459
 31
-920.4026280692678
  0
LINE
  5
6152E
330
1F
100
AcDbEntity
  8
freecads.com
100
AcDbLine
 10
156238.5994681751
 20
106650.792210566
 30
-920.4026280692678
 11
156351.1438825342
 21
106650.792210566
 31
-920.4026280692678
  0
LINE
  5
6152F
330
1F
100
AcDbEntity
  8
freecads.com
100
AcDbLine
 10
156797.3938825342
 20
106689.1425460976
 30
-920.4026280692678
 11
155941.1438825342
 21
106691.6425460976
 31
-920.4026280692678
  0
LINE
  5
61530
330
1F
100
AcDbEntity
  8
freecads.com
100
AcDbLine
 10
156258.9111412695
 20
106264.0266585772
 30
-920.4026280692678
 11
156217.4747755536
 21
106178.0143851257
 31
-920.4026280692678
  0
LINE
  5
61531
330
1F
100
AcDbEntity
  8
freecads.com
100
AcDbLine
 10
156217.6117838677
 20
106543.5857780886
 30
-920.4026280692678
 11
156258.9836668433
 21
106457.5424698826
 31
-920.4026280692678
  0
LINE
  5
61532
330
1F
100
AcDbEntity
  8
freecads.com
100
AcDbLine
 10
156288.2737181906
 20
106471.6258960311
 30
-920.4026280692678
 11
156246.9018352149
 21
106557.6692042371
 31
-920.4026280692678
  0
LINE
  5
61533
330
1F
100
AcDbEntity
  8
freecads.com
100
AcDbLine
 10
156188.9563825342
 20
106070.8100532787
 30
-920.4026280692678
 11
155936.4563825342
 21
106070.8100532787
 31
-920.4026280692678
  0
LINE
  5
61534
330
1F
100
AcDbEntity
  8
freecads.com
100
AcDbLine
 10
155944.8938825342
 20
106650.8100125456
 30
-920.4026280692678
 11
156191.099471511
 21
106650.8100125456
 31
-920.4026280692678
  0
ARC
  5
61535
330
1F
100
AcDbEntity
  8
freecads.com
100
AcDbCircle
 10
155818.5121891936
 20
106009.6169954826
 30
-920.4026280692678
 40
11.43066215118258
100
AcDbArc
 50
244.931868181885
 51
327.0867881690195
  0
ARC
  5
61536
330
1F
100
AcDbEntity
  8
freecads.com
100
AcDbCircle
 10
155821.9082699412
 20
105999.8842922937
 30
-920.4026280692678
 40
7.130268874714032
100
AcDbArc
 50
29.59730465005277
 51
109.1897438826674
  0
ARC
  5
61537
330
1F
100
AcDbEntity
  8
freecads.com
100
AcDbCircle
 10
155671.4715077314
 20
107838.2892334833
 30
-920.4026280692678
 40
1845.308769538603
100
AcDbArc
 50
271.2277704129205
 51
273.1400003500028
  0
ARC
  5
61538
330
1F
100
AcDbEntity
  8
freecads.com
100
AcDbCircle
 10
155749.1824550161
 20
106511.7871878975
 30
-920.4026280692678
 40
516.5651129976812
100
AcDbArc
 50
272.5927378840793
 51
277.1713621830118
  0
ARC
  5
61539
330
1F
100
AcDbEntity
  8
freecads.com
100
AcDbCircle
 10
155777.592708624
 20
105756.8250763982
 30
-920.4026280692678
 40
253.2949390902934
100
AcDbArc
 50
80.46189509508703
 51
86.12658491583779
  0
ARC
  5
6153A
330
1F
100
AcDbEntity
  8
freecads.com
100
AcDbCircle
 10
156242.6744316292
 20
106165.8751520683
 30
-920.4026280692678
 40
4.528878413698078
100
AcDbArc
 50
330.7837495521158
 51
334.2697477509828
  0
ARC
  5
6153B
330
1F
100
AcDbEntity
  8
freecads.com
100
AcDbCircle
 10
156240.8900215724
 20
106189.4262066173
 30
-920.4026280692678
 40
28.9990636977519
100
AcDbArc
 50
231.7473738545816
 51
243.9740401602024
  0
ARC
  5
6153C
330
1F
100
AcDbEntity
  8
freecads.com
100
AcDbCircle
 10
156241.2201763382
 20
106189.7108795144
 30
-920.4026280692678
 40
29.40023596100325
100
AcDbArc
 50
243.6392947685092
 51
255.7534651901746
  0
ARC
  5
6153D
330
1F
100
AcDbEntity
  8
freecads.com
100
AcDbCircle
 10
156239.4068559225
 20
106181.8847206485
 30
-920.4026280692678
 40
21.3691796205234
100
AcDbArc
 50
255.3018794271707
 51
270.3167405936922
  0
ARC
  5
6153E
330
1F
100
AcDbEntity
  8
freecads.com
100
AcDbCircle
 10
156239.6293944459
 20
106171.849333181
 30
-920.4026280692678
 40
11.33394652658388
100
AcDbArc
 50
269.4721917379498
 51
292.4609772433269
  0
ARC
  5
6153F
330
1F
100
AcDbEntity
  8
freecads.com
100
AcDbCircle
 10
156241.8591033307
 20
106166.5214627756
 30
-920.4026280692678
 40
5.558435512994684
100
AcDbArc
 50
292.2029875318123
 51
329.0711281340536
  0
LINE
  5
61540
330
1F
100
AcDbEntity
  8
freecads.com
100
AcDbLine
 10
156233.3775272953
 20
106058.6008680683
 30
-920.4026280692678
 11
156195.8775299289
 21
106058.6149222627
 31
-920.4026280692678
  0
LINE
  5
61541
330
1F
100
AcDbEntity
  8
freecads.com
100
AcDbLine
 10
156225.8831418797
 20
106073.5889348338
 30
-920.4026280692678
 11
156225.8776049726
 21
106073.5862049368
 31
-920.4026280692678
  0
LINE
  5
61542
330
1F
100
AcDbEntity
  8
freecads.com
100
AcDbLine
 10
156225.8776049726
 20
106073.5862049368
 30
-920.4026280692678
 11
156225.2504793639
 21
106073.2836801244
 31
-920.4026280692678
  0
LINE
  5
61543
330
1F
100
AcDbEntity
  8
freecads.com
100
AcDbLine
 10
156225.2504793639
 20
106073.2836801244
 30
-920.4026280692678
 11
156223.6630409256
 21
106072.5798392607
 31
-920.4026280692678
  0
LINE
  5
61544
330
1F
100
AcDbEntity
  8
freecads.com
100
AcDbLine
 10
156223.6630409256
 20
106072.5798392607
 30
-920.4026280692678
 11
156221.0427103455
 21
106071.631529593
 31
-920.4026280692678
  0
LINE
  5
61545
330
1F
100
AcDbEntity
  8
freecads.com
100
AcDbLine
 10
156221.0427103455
 20
106071.631529593
 30
-920.4026280692678
 11
156217.4582634112
 21
106070.8225786248
 31
-920.4026280692678
  0
LINE
  5
61546
330
1F
100
AcDbEntity
  8
freecads.com
100
AcDbLine
 10
156217.4582634112
 20
106070.8225786248
 30
-920.4026280692678
 11
156213.7214549522
 21
106070.6444250121
 31
-920.4026280692678
  0
LINE
  5
61547
330
1F
100
AcDbEntity
  8
freecads.com
100
AcDbLine
 10
156213.7214549522
 20
106070.6444250121
 30
-920.4026280692678
 11
156210.4975440756
 21
106071.0513580039
 31
-920.4026280692678
  0
LINE
  5
61548
330
1F
100
AcDbEntity
  8
freecads.com
100
AcDbLine
 10
156210.4975440756
 20
106071.0513580039
 30
-920.4026280692678
 11
156207.5984694193
 21
106071.8368612637
 31
-920.4026280692678
  0
LINE
  5
61549
330
1F
100
AcDbEntity
  8
freecads.com
100
AcDbLine
 10
156207.5984694193
 20
106071.8368612637
 30
-920.4026280692678
 11
156205.1060317565
 21
106072.79728837
 31
-920.4026280692678
  0
LINE
  5
6154A
330
1F
100
AcDbEntity
  8
freecads.com
100
AcDbLine
 10
156205.1060317565
 20
106072.79728837
 30
-920.4026280692678
 11
156203.6256036359
 21
106073.4785604735
 31
-920.4026280692678
  0
LINE
  5
6154B
330
1F
100
AcDbEntity
  8
freecads.com
100
AcDbLine
 10
156203.6256036359
 20
106073.4785604735
 30
-920.4026280692678
 11
156203.3831472376
 21
106073.5973674872
 31
-920.4026280692678
  0
LINE
  5
6154C
330
1F
100
AcDbEntity
  8
freecads.com
100
AcDbLine
 10
156231.0625155605
 20
106095.8773279695
 30
-920.4026280692678
 11
156231.2228209968
 21
106099.1704437972
 31
-920.4026280692678
  0
LINE
  5
6154D
330
1F
100
AcDbEntity
  8
freecads.com
100
AcDbLine
 10
156231.2228209968
 20
106099.1704437972
 30
-920.4026280692678
 11
156231.8629555311
 21
106107.4981878585
 31
-920.4026280692678
  0
LINE
  5
6154E
330
1F
100
AcDbEntity
  8
freecads.com
100
AcDbLine
 10
156231.8629555311
 20
106107.4981878585
 30
-920.4026280692678
 11
156232.8323648255
 21
106115.7118923685
 31
-920.4026280692678
  0
LINE
  5
6154F
330
1F
100
AcDbEntity
  8
freecads.com
100
AcDbLine
 10
156232.8323648255
 20
106115.7118923685
 30
-920.4026280692678
 11
156234.1234057847
 21
106123.7625559039
 31
-920.4026280692678
  0
LINE
  5
61550
330
1F
100
AcDbEntity
  8
freecads.com
100
AcDbLine
 10
156234.1234057847
 20
106123.7625559039
 30
-920.4026280692678
 11
156235.7258472552
 21
106131.6036176672
 31
-920.4026280692678
  0
LINE
  5
61551
330
1F
100
AcDbEntity
  8
freecads.com
100
AcDbLine
 10
156235.7258472552
 20
106131.6036176672
 30
-920.4026280692678
 11
156237.6267570724
 21
106139.1898000079
 31
-920.4026280692678
  0
LINE
  5
61552
330
1F
100
AcDbEntity
  8
freecads.com
100
AcDbLine
 10
156237.6267570724
 20
106139.1898000079
 30
-920.4026280692678
 11
156239.8104742792
 21
106146.4774695868
 31
-920.4026280692678
  0
LINE
  5
61553
330
1F
100
AcDbEntity
  8
freecads.com
100
AcDbLine
 10
156239.8104742792
 20
106146.4774695868
 30
-920.4026280692678
 11
156242.2585920965
 21
106153.4250454019
 31
-920.4026280692678
  0
LINE
  5
61554
330
1F
100
AcDbEntity
  8
freecads.com
100
AcDbLine
 10
156242.2585920965
 20
106153.4250454019
 30
-920.4026280692678
 11
156244.9499671195
 21
106159.9934660124
 31
-920.4026280692678
  0
LINE
  5
61555
330
1F
100
AcDbEntity
  8
freecads.com
100
AcDbLine
 10
156244.9499671195
 20
106159.9934660124
 30
-920.4026280692678
 11
156246.7542623424
 21
106163.9090083711
 31
-920.4026280692678
  0
LINE
  5
61556
330
1F
100
AcDbEntity
  8
freecads.com
100
AcDbLine
 10
156212.2751284794
 20
106166.0035781667
 30
-920.4026280692678
 11
156209.3082914723
 21
106157.7571914487
 31
-920.4026280692678
  0
LINE
  5
61557
330
1F
100
AcDbEntity
  8
freecads.com
100
AcDbLine
 10
156209.3082914723
 20
106157.7571914487
 30
-920.4026280692678
 11
156206.686037667
 21
106149.2279819564
 31
-920.4026280692678
  0
LINE
  5
61558
330
1F
100
AcDbEntity
  8
freecads.com
100
AcDbLine
 10
156206.686037667
 20
106149.2279819564
 30
-920.4026280692678
 11
156204.4148252874
 21
106140.452035481
 31
-920.4026280692678
  0
LINE
  5
61559
330
1F
100
AcDbEntity
  8
freecads.com
100
AcDbLine
 10
156204.4148252874
 20
106140.452035481
 30
-920.4026280692678
 11
156202.5001020347
 21
106131.4655021909
 31
-920.4026280692678
  0
LINE
  5
6155A
330
1F
100
AcDbEntity
  8
freecads.com
100
AcDbLine
 10
156202.5001020347
 20
106131.4655021909
 30
-920.4026280692678
 11
156200.9464176989
 21
106122.3047347775
 31
-920.4026280692678
  0
LINE
  5
6155B
330
1F
100
AcDbEntity
  8
freecads.com
100
AcDbLine
 10
156200.9464176989
 20
106122.3047347775
 30
-920.4026280692678
 11
156199.7574638763
 21
106113.0063570289
 31
-920.4026280692678
  0
LINE
  5
6155C
330
1F
100
AcDbEntity
  8
freecads.com
100
AcDbLine
 10
156199.7574638763
 20
106113.0063570289
 30
-920.4026280692678
 11
156198.9360740049
 21
106103.6072691622
 31
-920.4026280692678
  0
LINE
  5
6155D
330
1F
100
AcDbEntity
  8
freecads.com
100
AcDbLine
 10
156198.9360740049
 20
106103.6072691622
 30
-920.4026280692678
 11
156198.5685482161
 21
106096.6734101488
 31
-920.4026280692678
  0
LINE
  5
6155E
330
1F
100
AcDbEntity
  8
freecads.com
100
AcDbLine
 10
156227.0330647137
 20
106091.1631117847
 30
-920.4026280692678
 11
156228.5865065837
 21
106091.7667433304
 31
-920.4026280692678
  0
LINE
  5
6155F
330
1F
100
AcDbEntity
  8
freecads.com
100
AcDbLine
 10
156228.5865065837
 20
106091.7667433304
 30
-920.4026280692678
 11
156229.8621082654
 21
106092.836364104
 31
-920.4026280692678
  0
LINE
  5
61560
330
1F
100
AcDbEntity
  8
freecads.com
100
AcDbLine
 10
156229.8621082654
 20
106092.836364104
 30
-920.4026280692678
 11
156230.7194027335
 21
106094.2583097322
 31
-920.4026280692678
  0
LINE
  5
61561
330
1F
100
AcDbEntity
  8
freecads.com
100
AcDbLine
 10
156230.7194027335
 20
106094.2583097322
 30
-920.4026280692678
 11
156227.0330647137
 21
106091.1631117847
 31
-920.4026280692678
  0
LINE
  5
61562
330
1F
100
AcDbEntity
  8
freecads.com
100
AcDbLine
 10
156198.5684515633
 20
106096.6708958501
 30
-920.4026280692678
 11
156198.7955894789
 21
106094.9830840461
 31
-920.4026280692678
  0
LINE
  5
61563
330
1F
100
AcDbEntity
  8
freecads.com
100
AcDbLine
 10
156198.7955894789
 20
106094.9830840461
 30
-920.4026280692678
 11
156199.5786886499
 21
106093.4675642837
 31
-920.4026280692678
  0
LINE
  5
61564
330
1F
100
AcDbEntity
  8
freecads.com
100
AcDbLine
 10
156199.5786886499
 20
106093.4675642837
 30
-920.4026280692678
 11
156200.8254605239
 21
106092.2968644098
 31
-920.4026280692678
  0
LINE
  5
61565
330
1F
100
AcDbEntity
  8
freecads.com
100
AcDbLine
 10
156200.8254605239
 20
106092.2968644098
 30
-920.4026280692678
 11
156198.5684515633
 21
106096.6708958501
 31
-920.4026280692678
  0
LINE
  5
61566
330
1F
100
AcDbEntity
  8
freecads.com
100
AcDbLine
 10
156203.3831484872
 20
106073.6053683505
 30
-920.4026280692678
 11
156190.8831493651
 21
106073.610053082
 31
-920.4026280692678
  0
LINE
  5
61567
330
1F
100
AcDbEntity
  8
freecads.com
100
AcDbLine
 10
156238.3831460292
 20
106073.5922511024
 30
-920.4026280692678
 11
156225.8831469071
 21
106073.5969358339
 31
-920.4026280692678
  0
LINE
  5
61568
330
1F
100
AcDbEntity
  8
freecads.com
100
AcDbLine
 10
156225.8831469071
 20
106073.5969358339
 30
-920.4026280692678
 11
156225.8831469071
 21
106090.3925460976
 31
-920.4026280692678
  0
LINE
  5
61569
330
1F
100
AcDbEntity
  8
freecads.com
100
AcDbLine
 10
156203.3831484872
 20
106091.0175460976
 30
-920.4026280692678
 11
156203.3831484872
 21
106073.6053683505
 31
-920.4026280692678
  0
LINE
  5
6156A
330
1F
100
AcDbEntity
  8
freecads.com
100
AcDbLine
 10
156240.2063825342
 20
106073.5175460976
 30
-920.4026280692678
 11
156233.9563825342
 21
106058.5175460976
 31
-920.4026280692678
  0
LINE
  5
6156B
330
1F
100
AcDbEntity
  8
freecads.com
100
AcDbLine
 10
156189.2688825342
 20
106073.5175460976
 30
-920.4026280692678
 11
156195.5188825342
 21
106058.5175460976
 31
-920.4026280692678
  0
LINE
  5
6156C
330
1F
100
AcDbEntity
  8
freecads.com
100
AcDbLine
 10
156227.3938792564
 20
106091.3216135816
 30
-920.4026280692678
 11
156201.4563825342
 21
106091.3216135816
 31
-920.4026280692678
  0
ARC
  5
6156D
330
1F
100
AcDbEntity
  8
freecads.com
100
AcDbCircle
 10
156235.496749326
 20
106182.8594757229
 30
-920.4026280692678
 40
20.50385031901386
100
AcDbArc
 50
216.7830804414526
 51
232.2213505864858
  0
LINE
  5
6156E
330
1F
100
AcDbEntity
  8
freecads.com
100
AcDbLine
 10
156215.5798426843
 20
106173.9331380941
 30
-920.4026280692678
 11
156212.2751284794
 21
106166.0035781667
 31
-920.4026280692678
  0
ARC
  5
6156F
330
1F
100
AcDbEntity
  8
freecads.com
100
AcDbCircle
 10
156222.3409198101
 20
106175.8312083522
 30
-920.4026280692678
 40
5.333443610735352
100
AcDbArc
 50
155.8367956426126
 51
193.7101002844699
  0
ARC
  5
61570
330
1F
100
AcDbEntity
  8
freecads.com
100
AcDbCircle
 10
156227.5010653221
 20
106177.085316421
 30
-920.4026280692678
 40
10.64379934466444
100
AcDbArc
 50
193.6851885719157
 51
217.6613052408663
  0
LINE
  5
61571
330
1F
100
AcDbEntity
  8
freecads.com
100
AcDbLine
 10
156217.4747755536
 20
106178.0143851257
 30
-920.4026280692678
 11
156215.5798426843
 21
106173.9331380941
 31
-920.4026280692678
  0
ARC
  5
61572
330
1F
100
AcDbEntity
  8
freecads.com
100
AcDbCircle
 10
156242.8205319146
 20
106555.7061191595
 30
-920.4026280692678
 40
4.528878409797645
100
AcDbArc
 50
25.68730579388517
 51
29.17330399507272
  0
ARC
  5
61573
330
1F
100
AcDbEntity
  8
freecads.com
100
AcDbCircle
 10
156242.004719395
 20
106555.060419767
 30
-920.4026280692678
 40
5.558435513042331
100
AcDbArc
 50
30.88592541046914
 51
67.75406601216592
  0
ARC
  5
61574
330
1F
100
AcDbEntity
  8
freecads.com
100
AcDbCircle
 10
156239.771017594
 20
106549.7342221522
 30
-920.4026280692678
 40
11.33394652664636
100
AcDbArc
 50
67.49607630004075
 51
90.48486180469101
  0
ARC
  5
61575
330
1F
100
AcDbEntity
  8
freecads.com
100
AcDbCircle
 10
156239.5409570384
 20
106539.6990043094
 30
-920.4026280692678
 40
21.36917962031768
100
AcDbArc
 50
89.64031295054216
 51
104.6551741186816
  0
ARC
  5
61576
330
1F
100
AcDbEntity
  8
freecads.com
100
AcDbCircle
 10
156241.3484107926
 20
106531.8714884549
 30
-920.4026280692678
 40
29.40023596086764
100
AcDbArc
 50
104.2035883550042
 51
116.3177587754347
  0
ARC
  5
61577
330
1F
100
AcDbEntity
  8
freecads.com
100
AcDbCircle
 10
156241.0184694981
 20
106532.156408742
 30
-920.4026280692678
 40
28.99906369744419
100
AcDbArc
 50
115.9830133830482
 51
128.2096796901758
  0
ARC
  5
61578
330
1F
100
AcDbEntity
  8
freecads.com
100
AcDbCircle
 10
156235.6301209059
 20
106538.7271803564
 30
-920.4026280692678
 40
20.50385031890235
100
AcDbArc
 50
127.7357029576038
 51
143.1739731030411
  0
ARC
  5
61579
330
1F
100
AcDbEntity
  8
freecads.com
100
AcDbCircle
 10
156227.6387672096
 20
106544.5073312569
 30
-920.4026280692678
 40
10.64379934471262
100
AcDbArc
 50
142.2957483043116
 51
166.2718649727768
  0
ARC
  5
6157A
330
1F
100
AcDbEntity
  8
freecads.com
100
AcDbCircle
 10
156222.4795631727
 20
106545.7653067964
 30
-920.4026280692678
 40
5.333443610800552
100
AcDbArc
 50
166.2469532596383
 51
204.1202579017831
  0
LINE
  5
6157B
330
1F
100
AcDbEntity
  8
freecads.com
100
AcDbLine
 10
156196.104041011
 20
106663.0013957764
 30
-920.4026280692678
 11
156233.6040383774
 21
106662.987341582
 31
-920.4026280692678
  0
LINE
  5
6157C
330
1F
100
AcDbEntity
  8
freecads.com
100
AcDbLine
 10
156226.098418206
 20
106648.0048977067
 30
-920.4026280692678
 11
156226.071947205
 21
106648.0179643379
 31
-920.4026280692678
  0
LINE
  5
6157D
330
1F
100
AcDbEntity
  8
freecads.com
100
AcDbLine
 10
156226.071947205
 20
106648.0179643379
 30
-920.4026280692678
 11
156225.3274165834
 21
106648.37578477
 31
-920.4026280692678
  0
LINE
  5
6157E
330
1F
100
AcDbEntity
  8
freecads.com
100
AcDbLine
 10
156225.3274165834
 20
106648.37578477
 30
-920.4026280692678
 11
156223.624145383
 21
106649.1202137108
 31
-920.4026280692678
  0
LINE
  5
6157F
330
1F
100
AcDbEntity
  8
freecads.com
100
AcDbLine
 10
156223.624145383
 20
106649.1202137108
 30
-920.4026280692678
 11
156220.8764445827
 21
106650.0807341502
 31
-920.4026280692678
  0
LINE
  5
61580
330
1F
100
AcDbEntity
  8
freecads.com
100
AcDbLine
 10
156220.8764445827
 20
106650.0807341502
 30
-920.4026280692678
 11
156217.2165860922
 21
106650.8373604415
 31
-920.4026280692678
  0
LINE
  5
61581
330
1F
100
AcDbEntity
  8
freecads.com
100
AcDbLine
 10
156217.2165860922
 20
106650.8373604415
 30
-920.4026280692678
 11
156213.5287676818
 21
106650.9356267903
 31
-920.4026280692678
  0
LINE
  5
61582
330
1F
100
AcDbEntity
  8
freecads.com
100
AcDbLine
 10
156213.5287676818
 20
106650.9356267903
 30
-920.4026280692678
 11
156210.3574356369
 21
106650.4781783114
 31
-920.4026280692678
  0
LINE
  5
61583
330
1F
100
AcDbEntity
  8
freecads.com
100
AcDbLine
 10
156210.3574356369
 20
106650.4781783114
 30
-920.4026280692678
 11
156207.4888782417
 21
106649.6594909699
 31
-920.4026280692678
  0
LINE
  5
61584
330
1F
100
AcDbEntity
  8
freecads.com
100
AcDbLine
 10
156207.4888782417
 20
106649.6594909699
 30
-920.4026280692678
 11
156205.0796856251
 21
106648.7062187845
 31
-920.4026280692678
  0
LINE
  5
61585
330
1F
100
AcDbEntity
  8
freecads.com
100
AcDbLine
 10
156205.0796856251
 20
106648.7062187845
 30
-920.4026280692678
 11
156203.7553855094
 21
106648.0903200723
 31
-920.4026280692678
  0
LINE
  5
61586
330
1F
100
AcDbEntity
  8
freecads.com
100
AcDbLine
 10
156203.7553855094
 20
106648.0903200723
 30
-920.4026280692678
 11
156203.5984242975
 21
106648.0133280259
 31
-920.4026280692678
  0
LINE
  5
61587
330
1F
100
AcDbEntity
  8
freecads.com
100
AcDbLine
 10
156246.9018352149
 20
106557.6692042371
 30
-920.4026280692678
 11
156245.3968485948
 21
106561.1404674238
 31
-920.4026280692678
  0
LINE
  5
61588
330
1F
100
AcDbEntity
  8
freecads.com
100
AcDbLine
 10
156245.3968485948
 20
106561.1404674238
 30
-920.4026280692678
 11
156242.689401861
 21
106568.1083464363
 31
-920.4026280692678
  0
LINE
  5
61589
330
1F
100
AcDbEntity
  8
freecads.com
100
AcDbLine
 10
156242.689401861
 20
106568.1083464363
 30
-920.4026280692678
 11
156240.2236497273
 21
106575.4806439066
 31
-920.4026280692678
  0
LINE
  5
6158A
330
1F
100
AcDbEntity
  8
freecads.com
100
AcDbLine
 10
156240.2236497273
 20
106575.4806439066
 30
-920.4026280692678
 11
156238.0196295624
 21
106583.2188959499
 31
-920.4026280692678
  0
LINE
  5
6158B
330
1F
100
AcDbEntity
  8
freecads.com
100
AcDbLine
 10
156238.0196295624
 20
106583.2188959499
 30
-920.4026280692678
 11
156236.0955424149
 21
106591.2804755907
 31
-920.4026280692678
  0
LINE
  5
6158C
330
1F
100
AcDbEntity
  8
freecads.com
100
AcDbLine
 10
156236.0955424149
 20
106591.2804755907
 30
-920.4026280692678
 11
156234.4671581709
 21
106599.6201615521
 31
-920.4026280692678
  0
LINE
  5
6158D
330
1F
100
AcDbEntity
  8
freecads.com
100
AcDbLine
 10
156234.4671581709
 20
106599.6201615521
 30
-920.4026280692678
 11
156233.1477209123
 21
106608.1906319972
 31
-920.4026280692678
  0
LINE
  5
6158E
330
1F
100
AcDbEntity
  8
freecads.com
100
AcDbLine
 10
156233.1477209123
 20
106608.1906319972
 30
-920.4026280692678
 11
156232.1479002275
 21
106616.942908121
 31
-920.4026280692678
  0
LINE
  5
6158F
330
1F
100
AcDbEntity
  8
freecads.com
100
AcDbLine
 10
156232.1479002275
 20
106616.942908121
 30
-920.4026280692678
 11
156231.4757695183
 21
106625.8267537465
 31
-920.4026280692678
  0
LINE
  5
61590
330
1F
100
AcDbEntity
  8
freecads.com
100
AcDbLine
 10
156231.4757695183
 20
106625.8267537465
 30
-920.4026280692678
 11
156231.2609941875
 21
106630.3925460976
 31
-920.4026280692678
  0
LINE
  5
61591
330
1F
100
AcDbEntity
  8
freecads.com
100
AcDbLine
 10
156198.7665236772
 20
106624.9411092532
 30
-920.4026280692678
 11
156198.9694953886
 21
106620.6070411356
 31
-920.4026280692678
  0
LINE
  5
61592
330
1F
100
AcDbEntity
  8
freecads.com
100
AcDbLine
 10
156198.9694953886
 20
106620.6070411356
 30
-920.4026280692678
 11
156199.6819828298
 21
106611.1890833052
 31
-920.4026280692678
  0
LINE
  5
61593
330
1F
100
AcDbEntity
  8
freecads.com
100
AcDbLine
 10
156199.6819828298
 20
106611.1890833052
 30
-920.4026280692678
 11
156200.7624437549
 21
106601.8617319635
 31
-920.4026280692678
  0
LINE
  5
61594
330
1F
100
AcDbEntity
  8
freecads.com
100
AcDbLine
 10
156200.7624437549
 20
106601.8617319635
 30
-920.4026280692678
 11
156202.2081718469
 21
106592.6624107961
 31
-920.4026280692678
  0
LINE
  5
61595
330
1F
100
AcDbEntity
  8
freecads.com
100
AcDbLine
 10
156202.2081718469
 20
106592.6624107961
 30
-920.4026280692678
 11
156204.0157509693
 21
106583.6271907521
 31
-920.4026280692678
  0
LINE
  5
61596
330
1F
100
AcDbEntity
  8
freecads.com
100
AcDbLine
 10
156204.0157509693
 20
106583.6271907521
 30
-920.4026280692678
 11
156206.1810816509
 21
106574.7915880349
 31
-920.4026280692678
  0
LINE
  5
61597
330
1F
100
AcDbEntity
  8
freecads.com
100
AcDbLine
 10
156206.1810816509
 20
106574.7915880349
 30
-920.4026280692678
 11
156208.6994601282
 21
106566.1905372188
 31
-920.4026280692678
  0
LINE
  5
61598
330
1F
100
AcDbEntity
  8
freecads.com
100
AcDbLine
 10
156208.6994601282
 20
106566.1905372188
 30
-920.4026280692678
 11
156211.5656458758
 21
106557.8584261222
 31
-920.4026280692678
  0
LINE
  5
61599
330
1F
100
AcDbEntity
  8
freecads.com
100
AcDbLine
 10
156211.5656458758
 20
106557.8584261222
 30
-920.4026280692678
 11
156214.773891557
 21
106549.8292108881
 31
-920.4026280692678
  0
LINE
  5
6159A
330
1F
100
AcDbEntity
  8
freecads.com
100
AcDbLine
 10
156214.773891557
 20
106549.8292108881
 30
-920.4026280692678
 11
156217.6117838677
 21
106543.5857780886
 31
-920.4026280692678
  0
LINE
  5
6159B
330
1F
100
AcDbEntity
  8
freecads.com
100
AcDbLine
 10
156202.5916215546
 20
106630.0079731761
 30
-920.4026280692678
 11
156201.0258043952
 21
106629.3153563345
 31
-920.4026280692678
  0
LINE
  5
6159C
330
1F
100
AcDbEntity
  8
freecads.com
100
AcDbLine
 10
156201.0258043952
 20
106629.3153563345
 30
-920.4026280692678
 11
156199.778441952
 21
106628.1455495936
 31
-920.4026280692678
  0
LINE
  5
6159D
330
1F
100
AcDbEntity
  8
freecads.com
100
AcDbLine
 10
156199.778441952
 20
106628.1455495936
 30
-920.4026280692678
 11
156198.9945673709
 21
106626.6306792949
 31
-920.4026280692678
  0
LINE
  5
6159E
330
1F
100
AcDbEntity
  8
freecads.com
100
AcDbLine
 10
156198.9945673709
 20
106626.6306792949
 30
-920.4026280692678
 11
156202.5916215546
 21
106630.0079731761
 31
-920.4026280692678
  0
LINE
  5
6159F
330
1F
100
AcDbEntity
  8
freecads.com
100
AcDbLine
 10
156226.0984196872
 20
106647.9968954941
 30
-920.4026280692678
 11
156238.5984188093
 21
106647.9922107626
 31
-920.4026280692678
  0
LINE
  5
615A0
330
1F
100
AcDbEntity
  8
freecads.com
100
AcDbLine
 10
156191.0984221452
 20
106648.0100127422
 30
-920.4026280692678
 11
156203.5984212673
 21
106648.0053280107
 31
-920.4026280692678
  0
LINE
  5
615A1
330
1F
100
AcDbEntity
  8
freecads.com
100
AcDbLine
 10
156203.5984212673
 20
106648.0053280107
 30
-920.4026280692678
 11
156203.5984212673
 21
106631.0175460976
 31
-920.4026280692678
  0
LINE
  5
615A2
330
1F
100
AcDbEntity
  8
freecads.com
100
AcDbLine
 10
156226.0984196872
 20
106631.0175460976
 30
-920.4026280692678
 11
156226.0984196872
 21
106647.9968954941
 31
-920.4026280692678
  0
LINE
  5
615A3
330
1F
100
AcDbEntity
  8
freecads.com
100
AcDbLine
 10
156231.4563825342
 20
106631.0175460976
 30
-920.4026280692678
 11
156203.0188825342
 21
106631.0175460976
 31
-920.4026280692678
  0
LINE
  5
615A4
330
1F
100
AcDbEntity
  8
freecads.com
100
AcDbLine
 10
156233.9563825342
 20
106663.2050460976
 30
-920.4026280692678
 11
156238.6438825342
 21
106648.2050460976
 31
-920.4026280692678
  0
LINE
  5
615A5
330
1F
100
AcDbEntity
  8
freecads.com
100
AcDbLine
 10
156196.1438825342
 20
106663.2050460976
 30
-920.4026280692678
 11
156191.4563825342
 21
106648.2050460976
 31
-920.4026280692678
  0
ARC
  5
615A6
330
1F
100
AcDbEntity
  8
freecads.com
100
AcDbCircle
 10
155818.5121891936
 20
106709.3377395697
 30
-920.4026280692678
 40
11.43066215117487
100
AcDbArc
 50
32.91321183098047
 51
115.068131818115
  0
ARC
  5
615A7
330
1F
100
AcDbEntity
  8
freecads.com
100
AcDbCircle
 10
155821.9082699413
 20
106719.0704427585
 30
-920.4026280692678
 40
7.130268874646464
100
AcDbArc
 50
250.8102561173325
 51
330.4026953499473
  0
ARC
  5
615A8
330
1F
100
AcDbEntity
  8
freecads.com
100
AcDbCircle
 10
155671.4715077309
 20
104880.6655015692
 30
-920.4026280692678
 40
1845.308769538487
100
AcDbArc
 50
86.85999964999714
 51
88.77222958707951
  0
ARC
  5
615A9
330
1F
100
AcDbEntity
  8
freecads.com
100
AcDbCircle
 10
155749.1824550161
 20
106207.1675471549
 30
-920.4026280692678
 40
516.5651129975903
100
AcDbArc
 50
82.82863781698816
 51
87.40726211592074
  0
ARC
  5
615AA
330
1F
100
AcDbEntity
  8
freecads.com
100
AcDbCircle
 10
155777.5927086242
 20
106962.1296586538
 30
-920.4026280692678
 40
253.2949390899523
100
AcDbArc
 50
273.8734150841622
 51
279.5381049049129
  0
ARC
  5
615AB
330
1F
100
AcDbEntity
  8
freecads.com
100
AcDbCircle
 10
156376.1707163968
 20
106670.7386127728
 30
-920.4026280692678
 40
24.67901964166735
100
AcDbArc
 50
174.5970838661524
 51
191.4407035482194
  0
LINE
  5
615AC
330
1F
100
AcDbEntity
  8
freecads.com
100
AcDbLine
 10
156268.0875757401
 20
106628.8272754339
 30
-920.4026280692678
 11
156268.0875757401
 21
106689.4550460976
 31
-920.4026280692678
  0
LINE
  5
615AD
330
1F
100
AcDbEntity
  8
freecads.com
100
AcDbLine
 10
156637.8608929661
 20
106678.2291003369
 30
-920.4026280692678
 11
156637.6618497953
 21
106620.861451584
 31
-920.4026280692678
  0
LINE
  5
615AE
330
1F
100
AcDbEntity
  8
freecads.com
100
AcDbLine
 10
156806.2627192553
 20
106612.5873840314
 30
-920.4026280692678
 11
156806.2339107369
 21
106682.9119389502
 31
-920.4026280692678
  0
ARC
  5
615AF
330
1F
100
AcDbEntity
  8
freecads.com
100
AcDbCircle
 10
156583.7022718204
 20
106670.3667439354
 30
-920.4026280692678
 40
23.33451748022783
100
AcDbArc
 50
341.4429990304052
 51
0.1181631718245164
  0
ARC
  5
615B0
330
1F
100
AcDbEntity
  8
freecads.com
100
AcDbCircle
 10
156598.4962075338
 20
106670.3667439354
 30
-920.4026280692678
 40
23.33451748022748
100
AcDbArc
 50
179.8818368281755
 51
198.5570009695948
  0
LINE
  5
615B1
330
1F
100
AcDbEntity
  8
freecads.com
100
AcDbLine
 10
156558.3557024479
 20
106655.4477911259
 30
-920.4026280692678
 11
156462.6176064617
 21
106655.4836924681
 31
-920.4026280692678
  0
LINE
  5
615B2
330
1F
100
AcDbEntity
  8
freecads.com
100
AcDbLine
 10
156569.9202327342
 20
106526.8885660885
 30
-920.4026280692678
 11
156482.9107512344
 21
106526.9211942408
 31
-920.4026280692678
  0
LINE
  5
615B3
330
1F
100
AcDbEntity
  8
freecads.com
100
AcDbLine
 10
156352.3938825342
 20
106668.5291668185
 30
-920.4026280692678
 11
156574.2688825342
 21
106668.5291668185
 31
-920.4026280692678
  0
LINE
  5
615B4
330
1F
100
AcDbEntity
  8
freecads.com
100
AcDbLine
 10
156570.3122017672
 20
106520.8750483103
 30
-920.4026280692678
 11
156481.8805103045
 21
106520.9082097847
 31
-920.4026280692678
  0
LINE
  5
615B5
330
1F
100
AcDbEntity
  8
freecads.com
100
AcDbLine
 10
156569.794999894
 20
106193.9747295386
 30
-920.4026280692678
 11
156481.7579699454
 21
106194.0077430167
 31
-920.4026280692678
  0
LINE
  5
615B6
330
1F
100
AcDbEntity
  8
freecads.com
100
AcDbLine
 10
156570.1897704047
 20
106199.96646354
 30
-920.4026280692678
 11
156481.7602160336
 21
106199.999624213
 31
-920.4026280692678
  0
LINE
  5
615B7
330
1F
100
AcDbEntity
  8
freecads.com
100
AcDbLine
 10
156558.1345209488
 20
106065.4027169566
 30
-920.4026280692678
 11
156462.3964249626
 21
106065.4386182988
 31
-920.4026280692678
  0
LINE
  5
615B8
330
1F
100
AcDbEntity
  8
freecads.com
100
AcDbLine
 10
156356.6058525373
 20
106052.3803391424
 30
-920.4026280692678
 11
156573.9563825342
 21
106052.2675460976
 31
-920.4026280692678
  0
LINE
  5
615B9
330
1F
100
AcDbEntity
  8
freecads.com
100
AcDbLine
 10
156481.7952755188
 20
106519.8468444195
 30
-920.4026280692678
 11
156481.6757769884
 21
106201.0610530068
 31
-920.4026280692678
  0
ARC
  5
615BA
330
1F
100
AcDbEntity
  8
freecads.com
100
AcDbCircle
 10
156283.3657282843
 20
106252.4390068428
 30
-920.4026280692678
 40
5.442297043118183
100
AcDbArc
 50
292.5118003561109
 51
332.4435854858354
  0
ARC
  5
615BB
330
1F
100
AcDbEntity
  8
freecads.com
100
AcDbCircle
 10
156282.2403272181
 20
106275.304393689
 30
-920.4026280692678
 40
28.84002490832145
100
AcDbArc
 50
231.4018809364895
 51
243.5647201672533
  0
ARC
  5
615BC
330
1F
100
AcDbEntity
  8
freecads.com
100
AcDbCircle
 10
156283.0138473684
 20
106253.3510010303
 30
-920.4026280692678
 40
5.55850340530076
100
AcDbArc
 50
290.2439332073233
 51
325.732931554859
  0
LINE
  5
615BD
330
1F
100
AcDbEntity
  8
freecads.com
100
AcDbLine
 10
156398.5862268484
 20
106250.3769128439
 30
-920.4026280692678
 11
156394.3943172643
 21
106243.6238489523
 31
-920.4026280692678
  0
LINE
  5
615BE
330
1F
100
AcDbEntity
  8
freecads.com
100
AcDbLine
 10
156462.6176064617
 20
106655.4836924681
 30
-920.4026280692678
 11
156462.3964249626
 21
106065.4386182988
 31
-920.4026280692678
  0
LINE
  5
615BF
330
1F
100
AcDbEntity
  8
freecads.com
100
AcDbLine
 10
156394.3943172643
 20
106243.6238489523
 30
-920.4026280692678
 11
156389.966667432
 21
106237.3326410796
 31
-920.4026280692678
  0
ARC
  5
615C0
330
1F
100
AcDbEntity
  8
freecads.com
100
AcDbCircle
 10
156415.1068437343
 20
106162.4033929244
 30
-920.4026280692678
 40
59.12404568803515
100
AcDbArc
 50
112.0676878281897
 51
137.0143092757238
  0
ARC
  5
615C1
330
1F
100
AcDbEntity
  8
freecads.com
100
AcDbCircle
 10
156415.0389697073
 20
106142.0352187147
 30
-920.4026280692678
 40
59.00698847626025
100
AcDbArc
 50
223.2326468074141
 51
248.3439032135157
  0
ARC
  5
615C2
330
1F
100
AcDbEntity
  8
freecads.com
100
AcDbCircle
 10
156371.4663895296
 20
106049.0488055383
 30
-920.4026280692678
 40
19.87487065570405
100
AcDbArc
 50
202.9575058439737
 51
222.1985664749371
  0
LINE
  5
615C3
330
1F
100
AcDbEntity
  8
freecads.com
100
AcDbLine
 10
156268.3930843159
 20
106031.6425460976
 30
-920.4026280692678
 11
156268.3930843159
 21
106093.8365162114
 31
-920.4026280692678
  0
ARC
  5
615C4
330
1F
100
AcDbEntity
  8
freecads.com
100
AcDbCircle
 10
156368.495389749
 20
106046.326952323
 30
-920.4026280692678
 40
15.84562966155862
100
AcDbArc
 50
222.1234269571722
 51
244.5022954100912
  0
ARC
  5
615C5
330
1F
100
AcDbEntity
  8
freecads.com
100
AcDbCircle
 10
156367.3836341737
 20
106044.1092063445
 30
-920.4026280692678
 40
13.365392668637
100
AcDbArc
 50
244.7114497037361
 51
269.769732937501
  0
ARC
  5
615C6
330
1F
100
AcDbEntity
  8
freecads.com
100
AcDbCircle
 10
156281.0177933229
 20
106257.9974868829
 30
-920.4026280692678
 40
11.47625995631285
100
AcDbArc
 50
268.3480755022647
 51
292.7156371609513
  0
ARC
  5
615C7
330
1F
100
AcDbEntity
  8
freecads.com
100
AcDbCircle
 10
156282.7199125215
 20
106275.890826579
 30
-920.4026280692678
 40
29.57912323576687
100
AcDbArc
 50
243.2385862559086
 51
255.1961447485762
  0
ARC
  5
615C8
330
1F
100
AcDbEntity
  8
freecads.com
100
AcDbCircle
 10
156280.9108582836
 20
106268.4052870251
 30
-920.4026280692678
 40
21.88043614282335
100
AcDbArc
 50
254.7676579416709
 51
269.4136960544461
  0
ARC
  5
615C9
330
1F
100
AcDbEntity
  8
freecads.com
100
AcDbCircle
 10
156280.9165834008
 20
106258.8022717676
 30
-920.4026280692678
 40
11.39901979913679
100
AcDbArc
 50
268.6252671711203
 51
290.653463305113
  0
ARC
  5
615CA
330
1F
100
AcDbEntity
  8
freecads.com
100
AcDbCircle
 10
156253.4775347968
 20
106093.8339758315
 30
-920.4026280692678
 40
14.91554973545458
100
AcDbArc
 50
0.009758476909992
 51
90.0244552996328
  0
LINE
  5
615CB
330
1F
100
AcDbEntity
  8
freecads.com
100
AcDbLine
 10
156389.966667432
 20
106237.3326410796
 30
-920.4026280692678
 11
156385.3217617001
 21
106231.5273422881
 31
-920.4026280692678
  0
LINE
  5
615CC
330
1F
100
AcDbEntity
  8
freecads.com
100
AcDbLine
 10
156385.3217617001
 20
106231.5273422881
 30
-920.4026280692678
 11
156380.478741914
 21
106226.2297185905
 31
-920.4026280692678
  0
LINE
  5
615CD
330
1F
100
AcDbEntity
  8
freecads.com
100
AcDbLine
 10
156380.478741914
 20
106226.2297185905
 30
-920.4026280692678
 11
156377.0410717767
 21
106222.889197856
 31
-920.4026280692678
  0
LINE
  5
615CE
330
1F
100
AcDbEntity
  8
freecads.com
100
AcDbLine
 10
156377.0410717767
 20
106222.889197856
 30
-920.4026280692678
 11
156375.0380171009
 21
106220.936054493
 31
-920.4026280692678
  0
LINE
  5
615CF
330
1F
100
AcDbEntity
  8
freecads.com
100
AcDbLine
 10
156375.0380171009
 20
106220.936054493
 30
-920.4026280692678
 11
156371.4380594574
 21
106216.8671094589
 31
-920.4026280692678
  0
LINE
  5
615D0
330
1F
100
AcDbEntity
  8
freecads.com
100
AcDbLine
 10
156371.4380594574
 20
106216.8671094589
 30
-920.4026280692678
 11
156368.0711175017
 21
106212.3020412055
 31
-920.4026280692678
  0
LINE
  5
615D1
330
1F
100
AcDbEntity
  8
freecads.com
100
AcDbLine
 10
156368.0711175017
 20
106212.3020412055
 30
-920.4026280692678
 11
156364.9598530743
 21
106207.2737145633
 31
-920.4026280692678
  0
LINE
  5
615D2
330
1F
100
AcDbEntity
  8
freecads.com
100
AcDbLine
 10
156364.9598530743
 20
106207.2737145633
 30
-920.4026280692678
 11
156362.1275477066
 21
106201.8221738431
 31
-920.4026280692678
  0
LINE
  5
615D3
330
1F
100
AcDbEntity
  8
freecads.com
100
AcDbLine
 10
156362.1275477066
 20
106201.8221738431
 30
-920.4026280692678
 11
156359.5947708838
 21
106195.9906557097
 31
-920.4026280692678
  0
LINE
  5
615D4
330
1F
100
AcDbEntity
  8
freecads.com
100
AcDbLine
 10
156359.5947708838
 20
106195.9906557097
 30
-920.4026280692678
 11
156357.3788764066
 21
106189.8235290893
 31
-920.4026280692678
  0
LINE
  5
615D5
330
1F
100
AcDbEntity
  8
freecads.com
100
AcDbLine
 10
156357.3788764066
 20
106189.8235290893
 30
-920.4026280692678
 11
156355.4948155275
 21
106183.367048045
 31
-920.4026280692678
  0
LINE
  5
615D6
330
1F
100
AcDbEntity
  8
freecads.com
100
AcDbLine
 10
156355.4948155275
 20
106183.367048045
 30
-920.4026280692678
 11
156353.9552033309
 21
106176.6691627739
 31
-920.4026280692678
  0
ARC
  5
615D7
330
1F
100
AcDbEntity
  8
freecads.com
100
AcDbCircle
 10
156422.5357977958
 20
106155.408834882
 30
-920.4026280692678
 40
69.32752244390602
100
AcDbArc
 50
136.9717390598556
 51
159.4063223456547
  0
LINE
  5
615D8
330
1F
100
AcDbEntity
  8
freecads.com
100
AcDbLine
 10
156353.9552033309
 20
106176.6691627739
 30
-920.4026280692678
 11
156352.770318055
 21
106169.7793044705
 31
-920.4026280692678
  0
ARC
  5
615D9
330
1F
100
AcDbEntity
  8
freecads.com
100
AcDbCircle
 10
156429.8501434591
 20
106152.4060906745
 30
-920.4026280692678
 40
77.23101680648418
100
AcDbArc
 50
159.2296608040678
 51
180.1027828470096
  0
ARC
  5
615DA
330
1F
100
AcDbEntity
  8
freecads.com
100
AcDbCircle
 10
156375.9696582148
 20
106050.7414401616
 30
-920.4026280692678
 40
24.71021618738294
100
AcDbArc
 50
169.4967182238943
 51
186.13084452547
  0
ARC
  5
615DB
330
1F
100
AcDbEntity
  8
freecads.com
100
AcDbCircle
 10
156374.7915148756
 20
106050.5366371074
 30
-920.4026280692678
 40
23.51706700901877
100
AcDbArc
 50
185.9412797587325
 51
203.1354264005404
  0
LINE
  5
615DC
330
1F
100
AcDbEntity
  8
freecads.com
100
AcDbLine
 10
156352.770318055
 20
106169.7793044705
 30
-920.4026280692678
 11
156351.9480648627
 21
106162.7481275866
 31
-920.4026280692678
  0
LINE
  5
615DD
330
1F
100
AcDbEntity
  8
freecads.com
100
AcDbLine
 10
156351.9480648627
 20
106162.7481275866
 30
-920.4026280692678
 11
156351.493929175
 21
106155.6272106339
 31
-920.4026280692678
  0
LINE
  5
615DE
330
1F
100
AcDbEntity
  8
freecads.com
100
AcDbLine
 10
156351.493929175
 20
106155.6272106339
 30
-920.4026280692678
 11
156351.3966937567
 21
106150.5028065593
 31
-920.4026280692678
  0
LINE
  5
615DF
330
1F
100
AcDbEntity
  8
freecads.com
100
AcDbLine
 10
156351.3966937567
 20
106150.5028065593
 30
-920.4026280692678
 11
156351.3618192112
 21
106057.4681095193
 31
-920.4026280692678
  0
ARC
  5
615E0
330
1F
100
AcDbEntity
  8
freecads.com
100
AcDbCircle
 10
156422.4639588015
 20
106149.0835033829
 30
-920.4026280692678
 40
69.24450287493669
100
AcDbArc
 50
200.7025841557492
 51
223.27351443496
  0
ARC
  5
615E1
330
1F
100
AcDbEntity
  8
freecads.com
100
AcDbCircle
 10
156429.8343206379
 20
106152.1268491526
 30
-920.4026280692678
 40
77.21519790267712
100
AcDbArc
 50
179.8955989774774
 51
200.8816227506395
  0
LINE
  5
615E2
330
1F
100
AcDbEntity
  8
freecads.com
100
AcDbLine
 10
156453.0258559817
 20
106221.1162421303
 30
-920.4026280692678
 11
156416.4563825342
 21
106221.1162421303
 31
-920.4026280692678
  0
ARC
  5
615E3
330
1F
100
AcDbEntity
  8
freecads.com
100
AcDbCircle
 10
156447.6433366536
 20
106215.8444301145
 30
-920.4026280692678
 40
8.322019575828544
100
AcDbArc
 50
359.8100393312575
 51
13.52966080997632
  0
ARC
  5
615E4
330
1F
100
AcDbEntity
  8
freecads.com
100
AcDbCircle
 10
156449.6856555092
 20
106216.3840725088
 30
-920.4026280692678
 40
6.210305452911583
100
AcDbArc
 50
13.09724809912146
 51
29.79863969148384
  0
ARC
  5
615E5
330
1F
100
AcDbEntity
  8
freecads.com
100
AcDbCircle
 10
156451.9168316123
 20
106217.7081020884
 30
-920.4026280692678
 40
3.616383770796457
100
AcDbArc
 50
29.16216129334062
 51
53.15663514791108
  0
ARC
  5
615E6
330
1F
100
AcDbEntity
  8
freecads.com
100
AcDbCircle
 10
156452.8276316311
 20
106218.914648112
 30
-920.4026280692678
 40
2.104676244344282
100
AcDbArc
 50
53.30397898102974
 51
87.64455459105331
  0
ARC
  5
615E7
330
1F
100
AcDbEntity
  8
freecads.com
100
AcDbCircle
 10
156412.6579000733
 20
106167.914259541
 30
-920.4026280692678
 40
53.0972025470699
100
AcDbArc
 50
85.05844634704098
 51
111.8528505126278
  0
LINE
  5
615E8
330
1F
100
AcDbEntity
  8
freecads.com
100
AcDbLine
 10
156456.1548609093
 20
106085.3383553042
 30
-920.4026280692678
 11
156456.2038090381
 21
106215.9170990811
 31
-920.4026280692678
  0
LINE
  5
615E9
330
1F
100
AcDbEntity
  8
freecads.com
100
AcDbLine
 10
156417.0813825342
 20
106083.8300460976
 30
-920.4026280692678
 11
156455.5188825342
 21
106083.8300460976
 31
-920.4026280692678
  0
ARC
  5
615EA
330
1F
100
AcDbEntity
  8
freecads.com
100
AcDbCircle
 10
156412.6514832975
 20
106136.5797831563
 30
-920.4026280692678
 40
53.05595497847125
100
AcDbArc
 50
248.5660656629969
 51
275.5155731359329
  0
LINE
  5
615EB
330
1F
100
AcDbEntity
  8
freecads.com
100
AcDbLine
 10
156481.348881275
 20
106192.9986834552
 30
-920.4026280692678
 11
156464.9093351849
 21
106066.9239376888
 31
-920.4026280692678
  0
LINE
  5
615EC
330
1F
100
AcDbEntity
  8
freecads.com
100
AcDbLine
 10
156389.3267115913
 20
106484.6118247122
 30
-920.4026280692678
 11
156393.7902430915
 21
106478.3874419767
 31
-920.4026280692678
  0
ARC
  5
615ED
330
1F
100
AcDbEntity
  8
freecads.com
100
AcDbCircle
 10
156419.8136013214
 20
106559.5352187147
 30
-920.4026280692678
 40
59.00698847628735
100
AcDbArc
 50
223.2326468074141
 51
248.3439032135157
  0
ARC
  5
615EE
330
1F
100
AcDbEntity
  8
freecads.com
100
AcDbCircle
 10
156419.8814753484
 20
106579.9033929244
 30
-920.4026280692678
 40
59.12404568807326
100
AcDbArc
 50
112.0676878281897
 51
137.0143092757238
  0
LINE
  5
615EF
330
1F
100
AcDbEntity
  8
freecads.com
100
AcDbLine
 10
156258.0188825342
 20
106462.2675460976
 30
-920.4026280692678
 11
156270.2163068702
 21
106441.6870270708
 31
-920.4026280692678
  0
ARC
  5
615F0
330
1F
100
AcDbEntity
  8
freecads.com
100
AcDbCircle
 10
156265.0352373785
 20
106459.4620674059
 30
-920.4026280692678
 40
5.697452136582557
100
AcDbArc
 50
159.1967132080995
 51
196.9375591053045
  0
LINE
  5
615F1
330
1F
100
AcDbEntity
  8
freecads.com
100
AcDbLine
 10
156298.0087068319
 20
106451.3795217352
 30
-920.4026280692678
 11
156289.3236608804
 21
106469.4422743063
 31
-920.4026280692678
  0
LINE
  5
615F2
330
1F
100
AcDbEntity
  8
freecads.com
100
AcDbLine
 10
156257.850687573
 20
106459.4279567101
 30
-920.4026280692678
 11
156256.8521363679
 21
106460.1842127642
 31
-920.4026280692678
  0
LINE
  5
615F3
330
1F
100
AcDbEntity
  8
freecads.com
100
AcDbLine
 10
156253.0600599288
 20
106323.7577909163
 30
-920.4026280692678
 11
156250.4619596383
 21
106340.0569986407
 31
-920.4026280692678
  0
LINE
  5
615F4
330
1F
100
AcDbEntity
  8
freecads.com
100
AcDbLine
 10
156249.6319940879
 20
106373.3671739682
 30
-920.4026280692678
 11
156251.4394290938
 21
106389.9058899793
 31
-920.4026280692678
  0
LINE
  5
615F5
330
1F
100
AcDbEntity
  8
freecads.com
100
AcDbLine
 10
156262.8105492009
 20
106292.10649469
 30
-920.4026280692678
 11
156257.4613662375
 21
106306.7769822476
 31
-920.4026280692678
  0
LINE
  5
615F6
330
1F
100
AcDbEntity
  8
freecads.com
100
AcDbLine
 10
156254.6965827755
 20
106406.15946758
 30
-920.4026280692678
 11
156259.3420852433
 21
106421.8222422635
 31
-920.4026280692678
  0
LINE
  5
615F7
330
1F
100
AcDbEntity
  8
freecads.com
100
AcDbLine
 10
156259.3420852433
 20
106421.8222422635
 30
-920.4026280692678
 11
156260.8374350092
 21
106425.9446542237
 31
-920.4026280692678
  0
LINE
  5
615F8
330
1F
100
AcDbEntity
  8
freecads.com
100
AcDbLine
 10
156270.2163068702
 20
106441.6870270708
 30
-920.4026280692678
 11
156280.5087767739
 21
106417.8035388164
 31
-920.4026280692678
  0
LINE
  5
615F9
330
1F
100
AcDbEntity
  8
freecads.com
100
AcDbLine
 10
156280.5087767739
 20
106417.8035388164
 30
-920.4026280692678
 11
156286.9121901562
 21
106394.8224542654
 31
-920.4026280692678
  0
LINE
  5
615FA
330
1F
100
AcDbEntity
  8
freecads.com
100
AcDbLine
 10
156286.9121901562
 20
106394.8224542654
 30
-920.4026280692678
 11
156290.2386726788
 21
106371.3077923924
 31
-920.4026280692678
  0
LINE
  5
615FB
330
1F
100
AcDbEntity
  8
freecads.com
100
AcDbLine
 10
156290.2386726788
 20
106371.3077923924
 30
-920.4026280692678
 11
156290.4255286888
 21
106347.7017716841
 31
-920.4026280692678
  0
LINE
  5
615FC
330
1F
100
AcDbEntity
  8
freecads.com
100
AcDbLine
 10
156290.4255286888
 20
106347.7017716841
 30
-920.4026280692678
 11
156287.4268046138
 21
106324.2292698221
 31
-920.4026280692678
  0
LINE
  5
615FD
330
1F
100
AcDbEntity
  8
freecads.com
100
AcDbLine
 10
156287.4268046138
 20
106324.2292698221
 30
-920.4026280692678
 11
156281.3151340118
 21
106301.110221013
 31
-920.4026280692678
  0
LINE
  5
615FE
330
1F
100
AcDbEntity
  8
freecads.com
100
AcDbLine
 10
156281.3151340118
 20
106301.110221013
 30
-920.4026280692678
 11
156272.2057005619
 21
106278.7794057092
 31
-920.4026280692678
  0
LINE
  5
615FF
330
1F
100
AcDbEntity
  8
freecads.com
100
AcDbLine
 10
156272.2057005619
 20
106278.7794057092
 30
-920.4026280692678
 11
156269.2254344529
 21
106272.8925460976
 31
-920.4026280692678
  0
ARC
  5
61600
330
1F
100
AcDbEntity
  8
freecads.com
100
AcDbCircle
 10
156263.7633750212
 20
106261.8462138902
 30
-920.4026280692678
 40
5.319634518891758
100
AcDbArc
 50
155.8023148149138
 51
193.4014935950693
  0
ARC
  5
61601
330
1F
100
AcDbEntity
  8
freecads.com
100
AcDbCircle
 10
156268.8400833301
 20
106263.0550020041
 30
-920.4026280692678
 40
10.53826802352984
100
AcDbArc
 50
193.3972928719628
 51
217.3168845618179
  0
ARC
  5
61602
330
1F
100
AcDbEntity
  8
freecads.com
100
AcDbCircle
 10
156276.7676864855
 20
106268.7142707575
 30
-920.4026280692678
 40
20.27612351363082
100
AcDbArc
 50
216.4546899140162
 51
231.8704526216216
  0
ARC
  5
61603
330
1F
100
AcDbEntity
  8
freecads.com
100
AcDbCircle
 10
156263.1469355256
 20
106459.5530969375
 30
-920.4026280692678
 40
4.62335671072912
100
AcDbArc
 50
205.7779568204881
 51
220.9722187262461
  0
ARC
  5
61604
330
1F
100
AcDbEntity
  8
freecads.com
100
AcDbCircle
 10
156263.790006053
 20
106262.2928168325
 30
-920.4026280692678
 40
4.524512241554599
100
AcDbArc
 50
161.1099769002753
 51
169.6279932196276
  0
LINE
  5
61605
330
1F
100
AcDbEntity
  8
freecads.com
100
AcDbLine
 10
156297.940789776
 20
106270.1603535023
 30
-920.4026280692678
 11
156299.8357226454
 21
106274.2416005338
 31
-920.4026280692678
  0
LINE
  5
61606
330
1F
100
AcDbEntity
  8
freecads.com
100
AcDbLine
 10
156299.8357226454
 20
106274.2416005338
 30
-920.4026280692678
 11
156303.1404368502
 21
106282.1711604613
 31
-920.4026280692678
  0
LINE
  5
61607
330
1F
100
AcDbEntity
  8
freecads.com
100
AcDbLine
 10
156303.1404368502
 20
106282.1711604613
 30
-920.4026280692678
 11
156306.1072738573
 21
106290.4175471793
 31
-920.4026280692678
  0
LINE
  5
61608
330
1F
100
AcDbEntity
  8
freecads.com
100
AcDbLine
 10
156306.1072738573
 20
106290.4175471793
 30
-920.4026280692678
 11
156308.7295276627
 21
106298.9467566715
 31
-920.4026280692678
  0
LINE
  5
61609
330
1F
100
AcDbEntity
  8
freecads.com
100
AcDbLine
 10
156308.7295276627
 20
106298.9467566715
 30
-920.4026280692678
 11
156311.0007400422
 21
106307.722703147
 31
-920.4026280692678
  0
LINE
  5
6160A
330
1F
100
AcDbEntity
  8
freecads.com
100
AcDbLine
 10
156311.0007400422
 20
106307.722703147
 30
-920.4026280692678
 11
156312.9154632949
 21
106316.7092364371
 31
-920.4026280692678
  0
LINE
  5
6160B
330
1F
100
AcDbEntity
  8
freecads.com
100
AcDbLine
 10
156312.9154632949
 20
106316.7092364371
 30
-920.4026280692678
 11
156314.4691476307
 21
106325.8700038505
 31
-920.4026280692678
  0
LINE
  5
6160C
330
1F
100
AcDbEntity
  8
freecads.com
100
AcDbLine
 10
156314.4691476307
 20
106325.8700038505
 30
-920.4026280692678
 11
156315.6581014533
 21
106335.168381599
 31
-920.4026280692678
  0
LINE
  5
6160D
330
1F
100
AcDbEntity
  8
freecads.com
100
AcDbLine
 10
156315.6581014533
 20
106335.168381599
 30
-920.4026280692678
 11
156316.4794913248
 21
106344.5674694657
 31
-920.4026280692678
  0
LINE
  5
6160E
330
1F
100
AcDbEntity
  8
freecads.com
100
AcDbLine
 10
156316.4794913248
 20
106344.5674694657
 30
-920.4026280692678
 11
156316.9313583551
 21
106354.0301367709
 31
-920.4026280692678
  0
LINE
  5
6160F
330
1F
100
AcDbEntity
  8
freecads.com
100
AcDbLine
 10
156316.9313583551
 20
106354.0301367709
 30
-920.4026280692678
 11
156317.0126356517
 21
106363.5191063918
 31
-920.4026280692678
  0
LINE
  5
61610
330
1F
100
AcDbEntity
  8
freecads.com
100
AcDbLine
 10
156317.0126356517
 20
106363.5191063918
 30
-920.4026280692678
 11
156316.7231571761
 21
106372.9970642603
 31
-920.4026280692678
  0
LINE
  5
61611
330
1F
100
AcDbEntity
  8
freecads.com
100
AcDbLine
 10
156316.7231571761
 20
106372.9970642603
 30
-920.4026280692678
 11
156316.0637207734
 21
106382.4260210649
 31
-920.4026280692678
  0
LINE
  5
61612
330
1F
100
AcDbEntity
  8
freecads.com
100
AcDbLine
 10
156316.0637207734
 20
106382.4260210649
 30
-920.4026280692678
 11
156315.0360434201
 21
106391.7687933459
 31
-920.4026280692678
  0
LINE
  5
61613
330
1F
100
AcDbEntity
  8
freecads.com
100
AcDbLine
 10
156315.0360434201
 20
106391.7687933459
 30
-920.4026280692678
 11
156313.6426682511
 21
106400.9887661473
 31
-920.4026280692678
  0
LINE
  5
61614
330
1F
100
AcDbEntity
  8
freecads.com
100
AcDbLine
 10
156313.6426682511
 20
106400.9887661473
 30
-920.4026280692678
 11
156311.8869066788
 21
106410.0497939843
 31
-920.4026280692678
  0
LINE
  5
61615
330
1F
100
AcDbEntity
  8
freecads.com
100
AcDbLine
 10
156311.8869066788
 20
106410.0497939843
 30
-920.4026280692678
 11
156309.7727647739
 21
106418.9162779783
 31
-920.4026280692678
  0
LINE
  5
61616
330
1F
100
AcDbEntity
  8
freecads.com
100
AcDbLine
 10
156309.7727647739
 20
106418.9162779783
 30
-920.4026280692678
 11
156307.304864023
 21
106427.5532003793
 31
-920.4026280692678
  0
LINE
  5
61617
330
1F
100
AcDbEntity
  8
freecads.com
100
AcDbLine
 10
156307.304864023
 20
106427.5532003793
 30
-920.4026280692678
 11
156304.4883708278
 21
106435.9260997199
 31
-920.4026280692678
  0
LINE
  5
61618
330
1F
100
AcDbEntity
  8
freecads.com
100
AcDbLine
 10
156304.4883708278
 20
106435.9260997199
 30
-920.4026280692678
 11
156301.3289590231
 21
106444.0009683772
 31
-920.4026280692678
  0
LINE
  5
61619
330
1F
100
AcDbEntity
  8
freecads.com
100
AcDbLine
 10
156301.3289590231
 20
106444.0009683772
 30
-920.4026280692678
 11
156298.0087068319
 21
106451.3795217352
 31
-920.4026280692678
  0
LINE
  5
6161A
330
1F
100
AcDbEntity
  8
freecads.com
100
AcDbLine
 10
156289.242207202
 20
106252.1041159421
 30
-920.4026280692678
 11
156297.940789776
 21
106270.1603535023
 31
-920.4026280692678
  0
LINE
  5
6161B
330
1F
100
AcDbEntity
  8
freecads.com
100
AcDbLine
 10
156277.1244482926
 20
106292.10649469
 30
-920.4026280692678
 11
156271.7752653293
 21
106306.7769822476
 31
-920.4026280692678
  0
LINE
  5
6161C
330
1F
100
AcDbEntity
  8
freecads.com
100
AcDbLine
 10
156271.7752653293
 20
106306.7769822476
 30
-920.4026280692678
 11
156267.3739590205
 21
106323.7577909163
 31
-920.4026280692678
  0
LINE
  5
6161D
330
1F
100
AcDbEntity
  8
freecads.com
100
AcDbLine
 10
156267.3739590205
 20
106323.7577909163
 30
-920.4026280692678
 11
156264.77585873
 21
106340.0569986407
 31
-920.4026280692678
  0
LINE
  5
6161E
330
1F
100
AcDbEntity
  8
freecads.com
100
AcDbLine
 10
156264.77585873
 20
106340.0569986407
 30
-920.4026280692678
 11
156263.6259401855
 21
106356.6977760832
 31
-920.4026280692678
  0
LINE
  5
6161F
330
1F
100
AcDbEntity
  8
freecads.com
100
AcDbLine
 10
156263.6259401855
 20
106356.6977760832
 30
-920.4026280692678
 11
156263.9458931797
 21
106373.3671739682
 31
-920.4026280692678
  0
LINE
  5
61620
330
1F
100
AcDbEntity
  8
freecads.com
100
AcDbLine
 10
156263.9458931797
 20
106373.3671739682
 30
-920.4026280692678
 11
156265.7533281856
 21
106389.9058899793
 31
-920.4026280692678
  0
LINE
  5
61621
330
1F
100
AcDbEntity
  8
freecads.com
100
AcDbLine
 10
156265.7533281856
 20
106389.9058899793
 30
-920.4026280692678
 11
156269.0104818672
 21
106406.15946758
 31
-920.4026280692678
  0
LINE
  5
61622
330
1F
100
AcDbEntity
  8
freecads.com
100
AcDbLine
 10
156269.0104818672
 20
106406.15946758
 30
-920.4026280692678
 11
156273.655984335
 21
106421.8222422635
 31
-920.4026280692678
  0
LINE
  5
61623
330
1F
100
AcDbEntity
  8
freecads.com
100
AcDbLine
 10
156273.655984335
 20
106421.8222422635
 30
-920.4026280692678
 11
156275.1513341009
 21
106425.9446542237
 31
-920.4026280692678
  0
LINE
  5
61624
330
1F
100
AcDbEntity
  8
freecads.com
100
AcDbLine
 10
156261.8769372521
 20
106292.6842127642
 30
-920.4026280692678
 11
156264.02136739
 21
106288.5303400008
 31
-920.4026280692678
  0
LINE
  5
61625
330
1F
100
AcDbEntity
  8
freecads.com
100
AcDbLine
 10
156264.02136739
 20
106288.5303400008
 30
-920.4026280692678
 11
156265.5475279371
 21
106283.9676940194
 31
-920.4026280692678
  0
LINE
  5
61626
330
1F
100
AcDbEntity
  8
freecads.com
100
AcDbLine
 10
156265.5475279371
 20
106283.9676940194
 30
-920.4026280692678
 11
156266.1438825342
 21
106279.8111309223
 31
-920.4026280692678
  0
LINE
  5
61627
330
1F
100
AcDbEntity
  8
freecads.com
100
AcDbLine
 10
156266.1438825342
 20
106279.8111309223
 30
-920.4026280692678
 11
156265.9503547378
 21
106275.7734187255
 31
-920.4026280692678
  0
LINE
  5
61628
330
1F
100
AcDbEntity
  8
freecads.com
100
AcDbLine
 10
156265.9503547378
 20
106275.7734187255
 30
-920.4026280692678
 11
156264.9705497666
 21
106271.930500131
 31
-920.4026280692678
  0
LINE
  5
61629
330
1F
100
AcDbEntity
  8
freecads.com
100
AcDbLine
 10
156264.9705497666
 20
106271.930500131
 30
-920.4026280692678
 11
156263.2027947438
 21
106268.3219331341
 31
-920.4026280692678
  0
LINE
  5
6162A
330
1F
100
AcDbEntity
  8
freecads.com
100
AcDbLine
 10
156263.2027947438
 20
106268.3219331341
 30
-920.4026280692678
 11
156260.6747503721
 21
106264.9785560735
 31
-920.4026280692678
  0
LINE
  5
6162B
330
1F
100
AcDbEntity
  8
freecads.com
100
AcDbLine
 10
156260.6747503721
 20
106264.9785560735
 30
-920.4026280692678
 11
156257.4340209064
 21
106261.9632285543
 31
-920.4026280692678
  0
LINE
  5
6162C
330
1F
100
AcDbEntity
  8
freecads.com
100
AcDbLine
 10
156257.4340209064
 20
106261.9632285543
 30
-920.4026280692678
 11
156256.4354697012
 21
106261.2069725001
 31
-920.4026280692678
  0
LINE
  5
6162D
330
1F
100
AcDbEntity
  8
freecads.com
100
AcDbLine
 10
156262.2936039188
 20
106428.7069725001
 30
-920.4026280692678
 11
156264.4380340566
 21
106432.8608452635
 31
-920.4026280692678
  0
LINE
  5
6162E
330
1F
100
AcDbEntity
  8
freecads.com
100
AcDbLine
 10
156264.4380340566
 20
106432.8608452635
 30
-920.4026280692678
 11
156265.9641946037
 21
106437.4234912449
 31
-920.4026280692678
  0
LINE
  5
6162F
330
1F
100
AcDbEntity
  8
freecads.com
100
AcDbLine
 10
156265.9641946037
 20
106437.4234912449
 30
-920.4026280692678
 11
156266.5605492009
 21
106441.580054342
 31
-920.4026280692678
  0
LINE
  5
61630
330
1F
100
AcDbEntity
  8
freecads.com
100
AcDbLine
 10
156266.5605492009
 20
106441.580054342
 30
-920.4026280692678
 11
156266.3670214045
 21
106445.6177665388
 31
-920.4026280692678
  0
LINE
  5
61631
330
1F
100
AcDbEntity
  8
freecads.com
100
AcDbLine
 10
156266.3670214045
 20
106445.6177665388
 30
-920.4026280692678
 11
156265.3872164332
 21
106449.4606851333
 31
-920.4026280692678
  0
LINE
  5
61632
330
1F
100
AcDbEntity
  8
freecads.com
100
AcDbLine
 10
156265.3872164332
 20
106449.4606851333
 30
-920.4026280692678
 11
156263.6194614105
 21
106453.0692521302
 31
-920.4026280692678
  0
LINE
  5
61633
330
1F
100
AcDbEntity
  8
freecads.com
100
AcDbLine
 10
156263.6194614105
 20
106453.0692521302
 30
-920.4026280692678
 11
156261.0914170387
 21
106456.4126291909
 31
-920.4026280692678
  0
LINE
  5
61634
330
1F
100
AcDbEntity
  8
freecads.com
100
AcDbLine
 10
156261.0914170387
 20
106456.4126291909
 30
-920.4026280692678
 11
156257.850687573
 21
106459.4279567101
 31
-920.4026280692678
  0
ARC
  5
61635
330
1F
100
AcDbEntity
  8
freecads.com
100
AcDbCircle
 10
156478.7523512123
 20
106360.7021860521
 30
-920.4026280692678
 40
227.7564114034925
100
AcDbArc
 50
173.1572534109955
 51
186.7998001330825
  0
LINE
  5
61636
330
1F
100
AcDbEntity
  8
freecads.com
100
AcDbLine
 10
156252.5397984375
 20
106388.5307687871
 30
-920.4026280692678
 11
156261.1930284545
 21
106384.4844162668
 31
-920.4026280692678
  0
LINE
  5
61637
330
1F
100
AcDbEntity
  8
freecads.com
100
AcDbLine
 10
156261.1752634342
 20
106337.0830356273
 30
-920.4026280692678
 11
156252.5190028762
 21
106333.0431703327
 31
-920.4026280692678
  0
LINE
  5
61638
330
1F
100
AcDbEntity
  8
freecads.com
100
AcDbLine
 10
156257.4613662375
 20
106306.7769822476
 30
-920.4026280692678
 11
156253.0600599288
 21
106323.7577909163
 31
-920.4026280692678
  0
LINE
  5
61639
330
1F
100
AcDbEntity
  8
freecads.com
100
AcDbLine
 10
156251.4394290938
 20
106389.9058899793
 30
-920.4026280692678
 11
156254.6965827755
 21
106406.15946758
 31
-920.4026280692678
  0
ARC
  5
6163A
330
1F
100
AcDbEntity
  8
freecads.com
100
AcDbCircle
 10
156282.3255447109
 20
106467.0270307455
 30
-920.4026280692678
 40
6.944190276260081
100
AcDbArc
 50
46.67184816773494
 51
79.81133017142299
  0
ARC
  5
6163B
330
1F
100
AcDbEntity
  8
freecads.com
100
AcDbCircle
 10
156280.5899507243
 20
106458.9586554186
 30
-920.4026280692678
 40
15.19494029190752
100
AcDbArc
 50
78.75166548044146
 51
98.38588953143313
  0
ARC
  5
6163C
330
1F
100
AcDbEntity
  8
freecads.com
100
AcDbCircle
 10
156281.7477663001
 20
106448.8170615815
 30
-920.4026280692678
 40
25.3991491530955
100
AcDbArc
 50
97.63331147100792
 51
111.5250413206375
  0
ARC
  5
6163D
330
1F
100
AcDbEntity
  8
freecads.com
100
AcDbCircle
 10
156282.90514774
 20
106445.2863147735
 30
-920.4026280692678
 40
29.10912674980863
100
AcDbArc
 50
111.0943786936363
 51
123.7670914990732
  0
ARC
  5
6163E
330
1F
100
AcDbEntity
  8
freecads.com
100
AcDbCircle
 10
156279.2615256094
 20
106450.3920668491
 30
-920.4026280692678
 40
22.84030312579201
100
AcDbArc
 50
123.2877368831867
 51
138.2096751772717
  0
ARC
  5
6163F
330
1F
100
AcDbEntity
  8
freecads.com
100
AcDbCircle
 10
156271.3297375506
 20
106457.2174289608
 30
-920.4026280692678
 40
12.37955234551624
100
AcDbArc
 50
137.2984068015184
 51
159.8319939868119
  0
ARC
  5
61640
330
1F
100
AcDbEntity
  8
freecads.com
100
AcDbCircle
 10
156283.8182932901
 20
106468.8533083105
 30
-920.4026280692678
 40
4.594448616641985
100
AcDbArc
 50
32.56577530003158
 51
44.58543367487294
  0
ARC
  5
61641
330
1F
100
AcDbEntity
  8
freecads.com
100
AcDbCircle
 10
156284.1035619254
 20
106469.6295934491
 30
-920.4026280692678
 40
4.623356710698788
100
AcDbArc
 50
10.38672163252809
 51
25.58098353774149
  0
ARC
  5
61642
330
1F
100
AcDbEntity
  8
freecads.com
100
AcDbCircle
 10
156253.1824036356
 20
106628.8212694222
 30
-920.4026280692678
 40
14.90517331456329
100
AcDbArc
 50
270.0231585124009
 51
0.0230872272980875
  0
LINE
  5
61643
330
1F
100
AcDbEntity
  8
freecads.com
100
AcDbLine
 10
156377.1442346565
 20
106498.097173543
 30
-920.4026280692678
 11
156379.7679893054
 21
106495.5738699791
 31
-920.4026280692678
  0
LINE
  5
61644
330
1F
100
AcDbEntity
  8
freecads.com
100
AcDbLine
 10
156379.7679893054
 20
106495.5738699791
 30
-920.4026280692678
 11
156384.6459172727
 21
106490.3484099992
 31
-920.4026280692678
  0
LINE
  5
61645
330
1F
100
AcDbEntity
  8
freecads.com
100
AcDbLine
 10
156384.6459172727
 20
106490.3484099992
 30
-920.4026280692678
 11
156389.3267115913
 21
106484.6118247122
 31
-920.4026280692678
  0
LINE
  5
61646
330
1F
100
AcDbEntity
  8
freecads.com
100
AcDbLine
 10
156352.079365319
 20
106663.5372901235
 30
-920.4026280692678
 11
156352.0444907735
 21
106570.5025930835
 31
-920.4026280692678
  0
LINE
  5
61647
330
1F
100
AcDbEntity
  8
freecads.com
100
AcDbLine
 10
156351.5541329543
 20
106570.5027770508
 30
-920.4026280692678
 11
156351.6044287738
 21
106566.7274317771
 31
-920.4026280692678
  0
LINE
  5
61648
330
1F
100
AcDbEntity
  8
freecads.com
100
AcDbLine
 10
156351.6044287738
 20
106566.7274317771
 30
-920.4026280692678
 11
156351.9832189432
 21
106559.5969256846
 31
-920.4026280692678
  0
LINE
  5
61649
330
1F
100
AcDbEntity
  8
freecads.com
100
AcDbLine
 10
156351.9832189432
 20
106559.5969256846
 30
-920.4026280692678
 11
156352.7309173317
 21
106552.5448526432
 31
-920.4026280692678
  0
LINE
  5
6164A
330
1F
100
AcDbEntity
  8
freecads.com
100
AcDbLine
 10
156352.7309173317
 20
106552.5448526432
 30
-920.4026280692678
 11
156353.842452918
 21
106545.6244101497
 31
-920.4026280692678
  0
LINE
  5
6164B
330
1F
100
AcDbEntity
  8
freecads.com
100
AcDbLine
 10
156353.842452918
 20
106545.6244101497
 30
-920.4026280692678
 11
156355.3104177884
 21
106538.8862209083
 31
-920.4026280692678
  0
LINE
  5
6164C
330
1F
100
AcDbEntity
  8
freecads.com
100
AcDbLine
 10
156355.3104177884
 20
106538.8862209083
 30
-920.4026280692678
 11
156357.1251104263
 21
106532.3796135084
 31
-920.4026280692678
  0
LINE
  5
6164D
330
1F
100
AcDbEntity
  8
freecads.com
100
AcDbLine
 10
156357.1251104263
 20
106532.3796135084
 30
-920.4026280692678
 11
156359.2746406684
 21
106526.1523239211
 31
-920.4026280692678
  0
LINE
  5
6164E
330
1F
100
AcDbEntity
  8
freecads.com
100
AcDbLine
 10
156359.2746406684
 20
106526.1523239211
 30
-920.4026280692678
 11
156361.7450405855
 21
106520.2502449894
 31
-920.4026280692678
  0
LINE
  5
6164F
330
1F
100
AcDbEntity
  8
freecads.com
100
AcDbLine
 10
156361.7450405855
 20
106520.2502449894
 30
-920.4026280692678
 11
156364.5203583794
 21
106514.7172390196
 31
-920.4026280692678
  0
LINE
  5
61650
330
1F
100
AcDbEntity
  8
freecads.com
100
AcDbLine
 10
156364.5203583794
 20
106514.7172390196
 30
-920.4026280692678
 11
156367.582696749
 21
106509.595022676
 31
-920.4026280692678
  0
LINE
  5
61651
330
1F
100
AcDbEntity
  8
freecads.com
100
AcDbLine
 10
156367.582696749
 20
106509.595022676
 30
-920.4026280692678
 11
156370.9121366843
 21
106504.9231167551
 31
-920.4026280692678
  0
LINE
  5
61652
330
1F
100
AcDbEntity
  8
freecads.com
100
AcDbLine
 10
156370.9121366843
 20
106504.9231167551
 30
-920.4026280692678
 11
156374.4858952479
 21
106500.7394261765
 31
-920.4026280692678
  0
LINE
  5
61653
330
1F
100
AcDbEntity
  8
freecads.com
100
AcDbLine
 10
156374.4858952479
 20
106500.7394261765
 30
-920.4026280692678
 11
156377.1442346565
 21
106498.097173543
 31
-920.4026280692678
  0
ARC
  5
61654
330
1F
100
AcDbEntity
  8
freecads.com
100
AcDbCircle
 10
156427.2385904156
 20
106566.5835033829
 30
-920.4026280692678
 40
69.24450287489927
100
AcDbArc
 50
200.7025841557492
 51
223.27351443496
  0
ARC
  5
61655
330
1F
100
AcDbEntity
  8
freecads.com
100
AcDbCircle
 10
156434.608952252
 20
106569.6268491527
 30
-920.4026280692678
 40
77.21519790269657
100
AcDbArc
 50
179.8955989774774
 51
200.8816227506395
  0
ARC
  5
61656
330
1F
100
AcDbEntity
  8
freecads.com
100
AcDbCircle
 10
156434.6247750732
 20
106569.9060906744
 30
-920.4026280692678
 40
77.23101680650223
100
AcDbArc
 50
159.2296608032882
 51
180.1027828470096
  0
ARC
  5
61657
330
1F
100
AcDbEntity
  8
freecads.com
100
AcDbCircle
 10
156427.3104294099
 20
106572.908834882
 30
-920.4026280692678
 40
69.32752244386979
100
AcDbArc
 50
136.9717390598556
 51
159.4063223456547
  0
LINE
  5
61658
330
1F
100
AcDbEntity
  8
freecads.com
100
AcDbLine
 10
156401.9951859515
 20
106464.5712453429
 30
-920.4026280692678
 11
156405.7031391938
 21
106457.0326477129
 31
-920.4026280692678
  0
LINE
  5
61659
330
1F
100
AcDbEntity
  8
freecads.com
100
AcDbLine
 10
156439.9692110922
 20
106265.3925460976
 30
-920.4026280692678
 11
156439.8938825342
 21
106293.8300460976
 31
-920.4026280692678
  0
LINE
  5
6165A
330
1F
100
AcDbEntity
  8
freecads.com
100
AcDbLine
 10
156447.2567463561
 20
106298.5175460976
 30
-920.4026280692678
 11
156447.2567463561
 21
106262.8925460976
 31
-920.4026280692678
  0
LINE
  5
6165B
330
1F
100
AcDbEntity
  8
freecads.com
100
AcDbLine
 10
156439.2688825342
 20
106294.1425460976
 30
-920.4026280692678
 11
156429.4120510314
 21
106294.5830180937
 31
-920.4026280692678
  0
LINE
  5
6165C
330
1F
100
AcDbEntity
  8
freecads.com
100
AcDbLine
 10
156445.5925457615
 20
106298.7574938924
 30
-920.4026280692678
 11
156433.9563825342
 21
106298.8300460976
 31
-920.4026280692678
  0
ARC
  5
6165D
330
1F
100
AcDbEntity
  8
freecads.com
100
AcDbCircle
 10
156440.6802909928
 20
106431.299533178
 30
-920.4026280692678
 40
6.13124559341664
100
AcDbArc
 50
271.0427815468027
 51
305.8947706937429
  0
ARC
  5
6165E
330
1F
100
AcDbEntity
  8
freecads.com
100
AcDbCircle
 10
156438.085398857
 20
106434.8203924152
 30
-920.4026280692678
 40
10.50492590342221
100
AcDbArc
 50
306.1011319090895
 51
330.5039964813146
  0
ARC
  5
6165F
330
1F
100
AcDbEntity
  8
freecads.com
100
AcDbCircle
 10
156431.5166092396
 20
106438.7740567718
 30
-920.4026280692678
 40
18.17015158646365
100
AcDbArc
 50
329.8512444403355
 51
346.7553249411937
  0
ARC
  5
61660
330
1F
100
AcDbEntity
  8
freecads.com
100
AcDbCircle
 10
156425.4326770607
 20
106440.4012717283
 30
-920.4026280692678
 40
24.46580375557966
100
AcDbArc
 50
346.3102648209023
 51
0.1513306000859649
  0
ARC
  5
61661
330
1F
100
AcDbEntity
  8
freecads.com
100
AcDbCircle
 10
156425.4327323695
 20
106440.5488490151
 30
-920.4026280692678
 40
24.46580375559099
100
AcDbArc
 50
359.805722944263
 51
13.64678872329983
  0
ARC
  5
61662
330
1F
100
AcDbEntity
  8
freecads.com
100
AcDbCircle
 10
156431.5178825296
 20
106442.1715032604
 30
-920.4026280692678
 40
18.1701515865027
100
AcDbArc
 50
13.20172860377811
 51
30.10580910420376
  0
ARC
  5
61663
330
1F
100
AcDbEntity
  8
freecads.com
100
AcDbCircle
 10
156438.0896337984
 20
106446.1202428243
 30
-920.4026280692678
 40
10.50492590344698
100
AcDbArc
 50
29.45305706303135
 51
53.85592163573867
  0
ARC
  5
61664
330
1F
100
AcDbEntity
  8
freecads.com
100
AcDbCircle
 10
156440.68716429
 20
106449.6391560529
 30
-920.4026280692678
 40
6.131245593387948
100
AcDbArc
 50
54.06228284985707
 51
88.91427199724976
  0
LINE
  5
61665
330
1F
100
AcDbEntity
  8
freecads.com
100
AcDbLine
 10
156434.6292148879
 20
106445.3682198562
 30
-920.4026280692678
 11
156434.6255438523
 21
106435.5750116291
 31
-920.4026280692678
  0
LINE
  5
61666
330
1F
100
AcDbEntity
  8
freecads.com
100
AcDbLine
 10
156428.9842417831
 20
106293.9632729158
 30
-920.4026280692678
 11
156428.9741360212
 21
106267.00416885
 31
-920.4026280692678
  0
ARC
  5
61667
330
1F
100
AcDbEntity
  8
freecads.com
100
AcDbCircle
 10
156434.1942023002
 20
106294.9263771415
 30
-920.4026280692678
 40
4.251932797098882
100
AcDbArc
 50
97.43654814615219
 51
186.1718220157373
  0
LINE
  5
61668
330
1F
100
AcDbEntity
  8
freecads.com
100
AcDbLine
 10
156436.2982332072
 20
106452.7896996047
 30
-920.4026280692678
 11
156432.6039503292
 21
106446.5810637126
 31
-920.4026280692678
  0
LINE
  5
61669
330
1F
100
AcDbEntity
  8
freecads.com
100
AcDbLine
 10
156432.5993705586
 20
106434.3636864902
 30
-920.4026280692678
 11
156436.2889977191
 21
106428.1522816661
 31
-920.4026280692678
  0
LINE
  5
6166A
330
1F
100
AcDbEntity
  8
freecads.com
100
AcDbLine
 10
156405.7031391938
 20
106457.0326477129
 30
-920.4026280692678
 11
156409.1274250184
 21
106449.1121403954
 31
-920.4026280692678
  0
LINE
  5
6166B
330
1F
100
AcDbEntity
  8
freecads.com
100
AcDbLine
 10
156409.1274250184
 20
106449.1121403954
 30
-920.4026280692678
 11
156412.2539079054
 21
106440.8406228236
 31
-920.4026280692678
  0
LINE
  5
6166C
330
1F
100
AcDbEntity
  8
freecads.com
100
AcDbLine
 10
156412.2539079054
 20
106440.8406228236
 30
-920.4026280692678
 11
156415.0696286131
 21
106432.2505411418
 31
-920.4026280692678
  0
LINE
  5
6166D
330
1F
100
AcDbEntity
  8
freecads.com
100
AcDbLine
 10
156415.0696286131
 20
106432.2505411418
 30
-920.4026280692678
 11
156417.562888579
 21
106423.3757292424
 31
-920.4026280692678
  0
LINE
  5
6166E
330
1F
100
AcDbEntity
  8
freecads.com
100
AcDbLine
 10
156417.562888579
 20
106423.3757292424
 30
-920.4026280692678
 11
156419.7233168345
 21
106414.2512463608
 31
-920.4026280692678
  0
LINE
  5
6166F
330
1F
100
AcDbEntity
  8
freecads.com
100
AcDbLine
 10
156419.7233168345
 20
106414.2512463608
 30
-920.4026280692678
 11
156421.5419227102
 21
106404.9132138552
 31
-920.4026280692678
  0
LINE
  5
61670
330
1F
100
AcDbEntity
  8
freecads.com
100
AcDbLine
 10
156421.5419227102
 20
106404.9132138552
 30
-920.4026280692678
 11
156423.0111370823
 21
106395.3986524168
 31
-920.4026280692678
  0
LINE
  5
61671
330
1F
100
AcDbEntity
  8
freecads.com
100
AcDbLine
 10
156423.0111370823
 20
106395.3986524168
 30
-920.4026280692678
 11
156424.1248442992
 21
106385.7453201843
 31
-920.4026280692678
  0
LINE
  5
61672
330
1F
100
AcDbEntity
  8
freecads.com
100
AcDbLine
 10
156424.1248442992
 20
106385.7453201843
 30
-920.4026280692678
 11
156424.8784063611
 21
106375.9915518411
 31
-920.4026280692678
  0
LINE
  5
61673
330
1F
100
AcDbEntity
  8
freecads.com
100
AcDbLine
 10
156424.8784063611
 20
106375.9915518411
 30
-920.4026280692678
 11
156425.2686804681
 21
106366.1760986162
 31
-920.4026280692678
  0
LINE
  5
61674
330
1F
100
AcDbEntity
  8
freecads.com
100
AcDbLine
 10
156425.2686804681
 20
106366.1760986162
 30
-920.4026280692678
 11
156425.2940307091
 21
106356.3379690614
 31
-920.4026280692678
  0
LINE
  5
61675
330
1F
100
AcDbEntity
  8
freecads.com
100
AcDbLine
 10
156425.2940307091
 20
106356.3379690614
 30
-920.4026280692678
 11
156424.9543344082
 21
106346.5162704928
 31
-920.4026280692678
  0
LINE
  5
61676
330
1F
100
AcDbEntity
  8
freecads.com
100
AcDbLine
 10
156424.9543344082
 20
106346.5162704928
 30
-920.4026280692678
 11
156424.2509925582
 21
106336.7501509931
 31
-920.4026280692678
  0
LINE
  5
61677
330
1F
100
AcDbEntity
  8
freecads.com
100
AcDbLine
 10
156424.2509925582
 20
106336.7501509931
 30
-920.4026280692678
 11
156423.1869202691
 21
106327.0784464034
 31
-920.4026280692678
  0
LINE
  5
61678
330
1F
100
AcDbEntity
  8
freecads.com
100
AcDbLine
 10
156423.1869202691
 20
106327.0784464034
 30
-920.4026280692678
 11
156421.7665348656
 21
106317.5396066246
 31
-920.4026280692678
  0
LINE
  5
61679
330
1F
100
AcDbEntity
  8
freecads.com
100
AcDbLine
 10
156421.7665348656
 20
106317.5396066246
 30
-920.4026280692678
 11
156419.9957426834
 21
106308.1715473487
 31
-920.4026280692678
  0
LINE
  5
6167A
330
1F
100
AcDbEntity
  8
freecads.com
100
AcDbLine
 10
156419.9957426834
 20
106308.1715473487
 30
-920.4026280692678
 11
156417.8819206506
 21
106299.0114929942
 31
-920.4026280692678
  0
LINE
  5
6167B
330
1F
100
AcDbEntity
  8
freecads.com
100
AcDbLine
 10
156417.8819206506
 20
106299.0114929942
 30
-920.4026280692678
 11
156415.4338923374
 21
106290.0958193494
 31
-920.4026280692678
  0
LINE
  5
6167C
330
1F
100
AcDbEntity
  8
freecads.com
100
AcDbLine
 10
156415.4338923374
 20
106290.0958193494
 30
-920.4026280692678
 11
156412.6618977029
 21
106281.4598955923
 31
-920.4026280692678
  0
LINE
  5
6167D
330
1F
100
AcDbEntity
  8
freecads.com
100
AcDbLine
 10
156412.6618977029
 20
106281.4598955923
 30
-920.4026280692678
 11
156409.5775553122
 21
106273.1379253117
 31
-920.4026280692678
  0
LINE
  5
6167E
330
1F
100
AcDbEntity
  8
freecads.com
100
AcDbLine
 10
156409.5775553122
 20
106273.1379253117
 30
-920.4026280692678
 11
156406.1938151563
 21
106265.1627862235
 31
-920.4026280692678
  0
LINE
  5
6167F
330
1F
100
AcDbEntity
  8
freecads.com
100
AcDbLine
 10
156406.1938151563
 20
106265.1627862235
 30
-920.4026280692678
 11
156402.524899344
 21
106257.5658685659
 31
-920.4026280692678
  0
LINE
  5
61680
330
1F
100
AcDbEntity
  8
freecads.com
100
AcDbLine
 10
156402.524899344
 20
106257.5658685659
 30
-920.4026280692678
 11
156398.5862268484
 21
106250.3769128439
 31
-920.4026280692678
  0
LINE
  5
61681
330
1F
100
AcDbEntity
  8
freecads.com
100
AcDbLine
 10
156429.2688825342
 20
106265.7050460976
 30
-920.4026280692678
 11
156439.5813825342
 21
106265.7050460976
 31
-920.4026280692678
  0
LINE
  5
61682
330
1F
100
AcDbEntity
  8
freecads.com
100
AcDbLine
 10
156446.1438825342
 20
106262.2675460976
 30
-920.4026280692678
 11
156432.7063825342
 21
106262.2675460976
 31
-920.4026280692678
  0
ARC
  5
61683
330
1F
100
AcDbEntity
  8
freecads.com
100
AcDbCircle
 10
156432.4545264629
 20
106265.067002135
 30
-920.4026280692678
 40
2.800112817689556
100
AcDbArc
 50
180.0237358260179
 51
268.7590096946064
  0
LINE
  5
61684
330
1F
100
AcDbEntity
  8
freecads.com
100
AcDbLine
 10
156393.7902430915
 20
106478.3874419767
 30
-920.4026280692678
 11
156398.0187719397
 21
106471.698731059
 31
-920.4026280692678
  0
LINE
  5
61685
330
1F
100
AcDbEntity
  8
freecads.com
100
AcDbLine
 10
156398.0187719397
 20
106471.698731059
 30
-920.4026280692678
 11
156401.9951859515
 21
106464.5712453429
 31
-920.4026280692678
  0
ARC
  5
61686
330
1F
100
AcDbEntity
  8
freecads.com
100
AcDbCircle
 10
156453.1106525664
 20
106501.8193435947
 30
-920.4026280692678
 40
2.026862968074608
100
AcDbArc
 50
271.1890895399529
 51
307.5534820590182
  0
ARC
  5
61687
330
1F
100
AcDbEntity
  8
freecads.com
100
AcDbCircle
 10
156452.1471300828
 20
106503.0583378061
 30
-920.4026280692678
 40
3.596397805536156
100
AcDbArc
 50
307.692035409708
 51
332.5692447316998
  0
ARC
  5
61688
330
1F
100
AcDbEntity
  8
freecads.com
100
AcDbCircle
 10
156449.8220071258
 20
106504.3564989352
 30
-920.4026280692678
 40
6.258660295868281
100
AcDbArc
 50
331.8269879359841
 51
348.9824012367688
  0
ARC
  5
61689
330
1F
100
AcDbEntity
  8
freecads.com
100
AcDbCircle
 10
156451.9066178967
 20
106638.9431726601
 30
-920.4026280692678
 40
1.760092724093165
100
AcDbArc
 50
89.97196869408726
 51
92.68962190219049
  0
ARC
  5
6168A
330
1F
100
AcDbEntity
  8
freecads.com
100
AcDbCircle
 10
156453.4128880108
 20
106638.7728817824
 30
-920.4026280692678
 40
1.92993545561049
100
AcDbArc
 50
60.02998203430488
 51
89.34925889645908
  0
LINE
  5
6168B
330
1F
100
AcDbEntity
  8
freecads.com
100
AcDbLine
 10
156422.5256570054
 20
106501.2694713876
 30
-920.4026280692678
 11
156416.6220588033
 21
106501.5503956367
 31
-920.4026280692678
  0
LINE
  5
6168C
330
1F
100
AcDbEntity
  8
freecads.com
100
AcDbLine
 10
156453.1303269796
 20
106499.8131402423
 30
-920.4026280692678
 11
156422.5256570054
 21
106501.2694713876
 31
-920.4026280692678
  0
LINE
  5
6168D
330
1F
100
AcDbEntity
  8
freecads.com
100
AcDbLine
 10
156456.3560501182
 20
106622.0500703187
 30
-920.4026280692678
 11
156456.3168389909
 21
106517.4466899163
 31
-920.4026280692678
  0
LINE
  5
6168E
330
1F
100
AcDbEntity
  8
freecads.com
100
AcDbLine
 10
156456.3168389909
 20
106517.4466899163
 30
-920.4026280692678
 11
156456.3121769942
 21
106505.0098983948
 31
-920.4026280692678
  0
LINE
  5
6168F
330
1F
100
AcDbEntity
  8
freecads.com
100
AcDbLine
 10
156456.361125123
 20
106635.5886421717
 30
-920.4026280692678
 11
156456.3560501182
 21
106622.0500703187
 31
-920.4026280692678
  0
ARC
  5
61690
330
1F
100
AcDbEntity
  8
freecads.com
100
AcDbCircle
 10
156453.2691549615
 20
106638.9575700503
 30
-920.4026280692678
 40
1.832233989394706
100
AcDbArc
 50
88.72432705440848
 51
92.68975409924543
  0
LINE
  5
61691
330
1F
100
AcDbEntity
  8
freecads.com
100
AcDbLine
 10
156415.9648533804
 20
106639.0447174713
 30
-920.4026280692678
 11
156453.1831720666
 21
106640.7877852209
 31
-920.4026280692678
  0
LINE
  5
61692
330
1F
100
AcDbEntity
  8
freecads.com
100
AcDbLine
 10
156452.8615971249
 20
106640.7029075905
 30
-920.4026280692678
 11
156453.6891792079
 21
106640.7416662365
 31
-920.4026280692678
  0
ARC
  5
61693
330
1F
100
AcDbEntity
  8
freecads.com
100
AcDbCircle
 10
156448.0391512859
 20
106635.616233941
 30
-920.4026280692678
 40
8.322019575737595
100
AcDbArc
 50
359.8100393312575
 51
13.52966080997632
  0
ARC
  5
61694
330
1F
100
AcDbEntity
  8
freecads.com
100
AcDbCircle
 10
156450.0814701414
 20
106636.1558763353
 30
-920.4026280692678
 40
6.210305452923949
100
AcDbArc
 50
13.09724809993353
 51
29.79863969303604
  0
ARC
  5
61695
330
1F
100
AcDbEntity
  8
freecads.com
100
AcDbCircle
 10
156452.3126462444
 20
106637.4799059149
 30
-920.4026280692678
 40
3.616383770762845
100
AcDbArc
 50
29.16216129261254
 51
53.15663514791108
  0
ARC
  5
61696
330
1F
100
AcDbEntity
  8
freecads.com
100
AcDbCircle
 10
156453.2234462633
 20
106638.6864519385
 30
-920.4026280692678
 40
2.104676244358867
100
AcDbArc
 50
53.30397898236679
 51
87.64455459271943
  0
LINE
  5
61697
330
1F
100
AcDbEntity
  8
freecads.com
100
AcDbLine
 10
156453.4365824236
 20
106640.782191775
 30
-920.4026280692678
 11
156453.1831720666
 21
106640.7877852209
 31
-920.4026280692678
  0
LINE
  5
61698
330
1F
100
AcDbEntity
  8
freecads.com
100
AcDbLine
 10
156453.4348069259
 20
106640.7026927638
 30
-920.4026280692678
 11
156451.9074790019
 21
106640.7032651736
 31
-920.4026280692678
  0
ARC
  5
61699
330
1F
100
AcDbEntity
  8
freecads.com
100
AcDbCircle
 10
156417.4261149117
 20
106554.0797831563
 30
-920.4026280692678
 40
53.05595497847125
100
AcDbArc
 50
248.5660656629969
 51
275.5155731359329
  0
ARC
  5
6169A
330
1F
100
AcDbEntity
  8
freecads.com
100
AcDbCircle
 10
156417.4325316874
 20
106585.414259541
 30
-920.4026280692678
 40
53.09720254702937
100
AcDbArc
 50
85.05844634704098
 51
111.8528505126278
  0
LINE
  5
6169B
330
1F
100
AcDbEntity
  8
freecads.com
100
AcDbLine
 10
156465.6561963318
 20
106653.9651539271
 30
-920.4026280692678
 11
156482.0012182629
 21
106527.8781209426
 31
-920.4026280692678
  0
LINE
  5
6169C
330
1F
100
AcDbEntity
  8
freecads.com
100
AcDbLine
 10
156605.4453770543
 20
106260.7881361104
 30
-920.4026280692678
 11
156602.7014972468
 21
106232.4620987403
 31
-920.4026280692678
  0
LINE
  5
6169D
330
1F
100
AcDbEntity
  8
freecads.com
100
AcDbLine
 10
156571.0284813523
 20
106212.6962211261
 30
-920.4026280692678
 11
156573.9508670509
 21
106286.4725149225
 31
-920.4026280692678
  0
LINE
  5
6169E
330
1F
100
AcDbEntity
  8
freecads.com
100
AcDbLine
 10
156700.555621881
 20
106284.0328491403
 30
-920.4026280692678
 11
156695.9057418085
 21
106246.1454845095
 31
-920.4026280692678
  0
LINE
  5
6169F
330
1F
100
AcDbEntity
  8
freecads.com
100
AcDbLine
 10
156719.8224802057
 20
106278.6051016981
 30
-920.4026280692678
 11
156715.1726001332
 21
106238.3909119372
 31
-920.4026280692678
  0
LINE
  5
616A0
330
1F
100
AcDbEntity
  8
freecads.com
100
AcDbLine
 10
156641.4136729753
 20
106263.2648392922
 30
-920.4026280692678
 11
156638.6697931678
 21
106235.6348893465
 31
-920.4026280692678
  0
LINE
  5
616A1
330
1F
100
AcDbEntity
  8
freecads.com
100
AcDbLine
 10
156680.3753706837
 20
106171.5146171582
 30
-920.4026280692678
 11
156669.7624932272
 21
106171.4165670233
 31
-920.4026280692678
  0
LINE
  5
616A2
330
1F
100
AcDbEntity
  8
freecads.com
100
AcDbLine
 10
156706.7688825342
 20
106042.2675460976
 30
-920.4026280692678
 11
156606.1438825342
 21
106041.9550460976
 31
-920.4026280692678
  0
LINE
  5
616A3
330
1F
100
AcDbEntity
  8
freecads.com
100
AcDbLine
 10
156638.0188825342
 20
106158.8300460976
 30
-920.4026280692678
 11
156699.5813825342
 21
106158.5175460976
 31
-920.4026280692678
  0
ARC
  5
616A4
330
1F
100
AcDbEntity
  8
freecads.com
100
AcDbCircle
 10
156595.856824238
 20
106049.7464087782
 30
-920.4026280692678
 40
21.44203802464792
100
AcDbArc
 50
194.6885154118943
 51
215.8436313350522
  0
ARC
  5
616A5
330
1F
100
AcDbEntity
  8
freecads.com
100
AcDbCircle
 10
156584.8402599955
 20
106049.7415690404
 30
-920.4026280692678
 40
21.4603598874679
100
AcDbArc
 50
325.5901452135969
 51
343.648387959633
  0
ARC
  5
616A6
330
1F
100
AcDbEntity
  8
freecads.com
100
AcDbCircle
 10
156588.5135269117
 20
106047.1097217347
 30
-920.4026280692678
 40
16.94284365861724
100
AcDbArc
 50
300.2940733532382
 51
325.9131715048547
  0
ARC
  5
616A7
330
1F
100
AcDbEntity
  8
freecads.com
100
AcDbCircle
 10
156592.0537030157
 20
106046.9316116643
 30
-920.4026280692678
 40
16.71097335626796
100
AcDbArc
 50
215.6560425084096
 51
240.6419357358499
  0
ARC
  5
616A8
330
1F
100
AcDbEntity
  8
freecads.com
100
AcDbCircle
 10
156590.4331041895
 20
106044.1679024179
 30
-920.4026280692678
 40
13.50779734157676
100
AcDbArc
 50
240.8859069858609
 51
269.6642537198942
  0
ARC
  5
616A9
330
1F
100
AcDbEntity
  8
freecads.com
100
AcDbCircle
 10
156590.2772917637
 20
106044.2072363062
 30
-920.4026280692678
 40
13.54711620977368
100
AcDbArc
 50
270.324220374826
 51
300.0454112980853
  0
LINE
  5
616AA
330
1F
100
AcDbEntity
  8
freecads.com
100
AcDbLine
 10
156602.7014972468
 20
106232.4620987403
 30
-920.4026280692678
 11
156599.2783910199
 21
106204.3559889756
 31
-920.4026280692678
  0
ARC
  5
616AB
330
1F
100
AcDbEntity
  8
freecads.com
100
AcDbCircle
 10
156588.5161888182
 20
106054.2123335638
 30
-920.4026280692678
 40
16.94284365862753
100
AcDbArc
 50
34.04388203946066
 51
59.66298019161811
  0
LINE
  5
616AC
330
1F
100
AcDbEntity
  8
freecads.com
100
AcDbLine
 10
156599.2783910199
 20
106204.3559889756
 30
-920.4026280692678
 11
156595.1831726284
 21
106176.5177372985
 31
-920.4026280692678
  0
LINE
  5
616AD
330
1F
100
AcDbEntity
  8
freecads.com
100
AcDbLine
 10
156595.1831726284
 20
106176.5177372985
 30
-920.4026280692678
 11
156587.632682448
 21
106134.5719552875
 31
-920.4026280692678
  0
LINE
  5
616AE
330
1F
100
AcDbEntity
  8
freecads.com
100
AcDbLine
 10
156566.1692249388
 20
106138.9435696707
 30
-920.4026280692678
 11
156571.0284813523
 21
106212.6962211261
 31
-920.4026280692678
  0
LINE
  5
616AF
330
1F
100
AcDbEntity
  8
freecads.com
100
AcDbLine
 10
156587.632682448
 20
106134.5719552875
 30
-920.4026280692678
 11
156578.5502608388
 21
106093.4900322449
 31
-920.4026280692678
  0
LINE
  5
616B0
330
1F
100
AcDbEntity
  8
freecads.com
100
AcDbLine
 10
156578.5502608388
 20
106093.4900322449
 30
-920.4026280692678
 11
156567.9917388563
 21
106053.5175460976
 31
-920.4026280692678
  0
LINE
  5
616B1
330
1F
100
AcDbEntity
  8
freecads.com
100
AcDbLine
 10
156559.38372942
 20
106065.4462637173
 30
-920.4026280692678
 11
156566.1692249388
 21
106138.9435696707
 31
-920.4026280692678
  0
ARC
  5
616B2
330
1F
100
AcDbEntity
  8
freecads.com
100
AcDbCircle
 10
156597.8594839837
 20
106050.8392025141
 30
-920.4026280692678
 40
23.56533939000487
100
AcDbArc
 50
156.0732504631662
 51
175.9326469845591
  0
ARC
  5
616B3
330
1F
100
AcDbEntity
  8
freecads.com
100
AcDbCircle
 10
156598.8019057087
 20
106050.6463871868
 30
-920.4026280692678
 40
24.51938481311521
100
AcDbArc
 50
175.6394190727993
 51
194.9778046052455
  0
ARC
  5
616B4
330
1F
100
AcDbEntity
  8
freecads.com
100
AcDbCircle
 10
156590.4105228493
 20
106057.3075668987
 30
-920.4026280692678
 40
13.35283202689879
100
AcDbArc
 50
90.17842102950551
 51
114.8836320260215
  0
ARC
  5
616B5
330
1F
100
AcDbEntity
  8
freecads.com
100
AcDbCircle
 10
156591.477816342
 20
106055.1405252432
 30
-920.4026280692678
 40
15.76788772910022
100
AcDbArc
 50
115.0884638719925
 51
137.2102779359894
  0
ARC
  5
616B6
330
1F
100
AcDbEntity
  8
freecads.com
100
AcDbCircle
 10
156594.3634157532
 20
106052.4380786673
 30
-920.4026280692678
 40
19.72130134983488
100
AcDbArc
 50
137.1435161568915
 51
156.1998668787284
  0
ARC
  5
616B7
330
1F
100
AcDbEntity
  8
freecads.com
100
AcDbCircle
 10
156590.282128753
 20
106057.1134961347
 30
-920.4026280692678
 40
13.54711620977586
100
AcDbArc
 50
59.91164224633837
 51
89.63283317096168
  0
LINE
  5
616B8
330
1F
100
AcDbEntity
  8
freecads.com
100
AcDbLine
 10
156669.7624932272
 20
106171.4165670233
 30
-920.4026280692678
 11
156657.1217340195
 21
106171.3661479944
 31
-920.4026280692678
  0
LINE
  5
616B9
330
1F
100
AcDbEntity
  8
freecads.com
100
AcDbLine
 10
156657.1217340195
 20
106171.3661479944
 30
-920.4026280692678
 11
156644.7530171275
 21
106171.3888266487
 31
-920.4026280692678
  0
LINE
  5
616BA
330
1F
100
AcDbEntity
  8
freecads.com
100
AcDbLine
 10
156644.7530171275
 20
106171.3888266487
 30
-920.4026280692678
 11
156632.8866117347
 21
106171.4835667081
 31
-920.4026280692678
  0
LINE
  5
616BB
330
1F
100
AcDbEntity
  8
freecads.com
100
AcDbLine
 10
156632.8866117347
 20
106171.4835667081
 30
-920.4026280692678
 11
156629.2688825342
 21
106171.5283293897
 31
-920.4026280692678
  0
LINE
  5
616BC
330
1F
100
AcDbEntity
  8
freecads.com
100
AcDbLine
 10
156638.6697931678
 20
106235.6348893465
 30
-920.4026280692678
 11
156635.2466869408
 21
106208.2194624791
 31
-920.4026280692678
  0
LINE
  5
616BD
330
1F
100
AcDbEntity
  8
freecads.com
100
AcDbLine
 10
156635.2466869408
 20
106208.2194624791
 30
-920.4026280692678
 11
156631.1514685494
 21
106181.0653113225
 31
-920.4026280692678
  0
LINE
  5
616BE
330
1F
100
AcDbEntity
  8
freecads.com
100
AcDbLine
 10
156631.1514685494
 20
106181.0653113225
 30
-920.4026280692678
 11
156623.600978369
 21
106140.150309967
 31
-920.4026280692678
  0
ARC
  5
616BF
330
1F
100
AcDbEntity
  8
freecads.com
100
AcDbCircle
 10
156582.1022844249
 20
106050.6246172442
 30
-920.4026280692678
 40
24.33631589895024
100
AcDbArc
 50
343.4682689255794
 51
0.0699071602470863
  0
ARC
  5
616C0
330
1F
100
AcDbEntity
  8
freecads.com
100
AcDbCircle
 10
156582.102313518
 20
106050.7022446333
 30
-920.4026280692678
 40
24.33631589898283
100
AcDbArc
 50
359.8871463847353
 51
16.48878462011968
  0
ARC
  5
616C1
330
1F
100
AcDbEntity
  8
freecads.com
100
AcDbCircle
 10
156584.8409502144
 20
106051.5832403204
 30
-920.4026280692678
 40
21.46035988746551
100
AcDbArc
 50
16.30866558466806
 51
34.36690833149138
  0
LINE
  5
616C2
330
1F
100
AcDbEntity
  8
freecads.com
100
AcDbLine
 10
156638.1214655179
 20
106042.1447132315
 30
-920.4026280692678
 11
156637.8754210022
 21
106099.5121796539
 31
-920.4026280692678
  0
LINE
  5
616C3
330
1F
100
AcDbEntity
  8
freecads.com
100
AcDbLine
 10
156637.8754210022
 20
106099.5121796539
 30
-920.4026280692678
 11
156637.6795790844
 21
106157.2953113423
 31
-920.4026280692678
  0
LINE
  5
616C4
330
1F
100
AcDbEntity
  8
freecads.com
100
AcDbLine
 10
156623.600978369
 20
106140.150309967
 30
-920.4026280692678
 11
156614.5185567597
 21
106100.0779390065
 31
-920.4026280692678
  0
LINE
  5
616C5
330
1F
100
AcDbEntity
  8
freecads.com
100
AcDbLine
 10
156614.5185567597
 20
106100.0779390065
 30
-920.4026280692678
 11
156603.9600347772
 21
106061.0877415064
 31
-920.4026280692678
  0
LINE
  5
616C6
330
1F
100
AcDbEntity
  8
freecads.com
100
AcDbLine
 10
156806.4694549174
 20
106107.9243794075
 30
-920.4026280692678
 11
156806.4982634358
 21
106037.5998244887
 31
-920.4026280692678
  0
LINE
  5
616C7
330
1F
100
AcDbEntity
  8
freecads.com
100
AcDbLine
 10
156806.4982634358
 20
106037.5998244887
 30
-920.4026280692678
 11
156708.0188825342
 21
106042.8925460976
 31
-920.4026280692678
  0
ARC
  5
616C8
330
1F
100
AcDbEntity
  8
freecads.com
100
AcDbCircle
 10
156796.6713193031
 20
106043.2734092881
 30
-920.4026280692678
 40
13.021598329725
100
AcDbArc
 50
269.8296488747142
 51
286.7987512692323
  0
ARC
  5
616C9
330
1F
100
AcDbEntity
  8
freecads.com
100
AcDbCircle
 10
156797.4712399398
 20
106040.8086297197
 30
-920.4026280692678
 40
10.43095233155519
100
AcDbArc
 50
286.505231120882
 51
306.1915519698865
  0
ARC
  5
616CA
330
1F
100
AcDbEntity
  8
freecads.com
100
AcDbCircle
 10
156799.2103861661
 20
106038.4742902047
 30
-920.4026280692678
 40
7.520129196195326
100
AcDbArc
 50
305.9997281076586
 51
330.489185113119
  0
ARC
  5
616CB
330
1F
100
AcDbEntity
  8
freecads.com
100
AcDbCircle
 10
156800.6268219569
 20
106037.6296665997
 30
-920.4026280692678
 40
5.871525240973921
100
AcDbArc
 50
330.8534180096169
 51
359.7088273913485
  0
LINE
  5
616CC
330
1F
100
AcDbEntity
  8
freecads.com
100
AcDbLine
 10
156680.5188825342
 20
106118.2050460976
 30
-920.4026280692678
 11
156806.4694549174
 21
106107.9243794075
 31
-920.4026280692678
  0
LINE
  5
616CD
330
1F
100
AcDbEntity
  8
freecads.com
100
AcDbLine
 10
156683.5586222611
 20
106171.2910663478
 30
-920.4026280692678
 11
156681.6285412704
 21
106171.482492396
 31
-920.4026280692678
  0
LINE
  5
616CE
330
1F
100
AcDbEntity
  8
freecads.com
100
AcDbLine
 10
156695.9057418085
 20
106246.1454845095
 30
-920.4026280692678
 11
156689.5633204434
 21
106208.5816846785
 31
-920.4026280692678
  0
LINE
  5
616CF
330
1F
100
AcDbEntity
  8
freecads.com
100
AcDbLine
 10
156689.5633204434
 20
106208.5816846785
 30
-920.4026280692678
 11
156681.6285412704
 21
106171.482492396
 31
-920.4026280692678
  0
LINE
  5
616D0
330
1F
100
AcDbEntity
  8
freecads.com
100
AcDbLine
 10
156715.1726001332
 20
106238.3909119372
 30
-920.4026280692678
 11
156708.8301787681
 21
106198.5201584746
 31
-920.4026280692678
  0
LINE
  5
616D1
330
1F
100
AcDbEntity
  8
freecads.com
100
AcDbLine
 10
156690.2932932657
 20
106169.1986920966
 30
-920.4026280692678
 11
156683.5586222611
 21
106171.2910663478
 31
-920.4026280692678
  0
LINE
  5
616D2
330
1F
100
AcDbEntity
  8
freecads.com
100
AcDbLine
 10
156708.8301787681
 20
106198.5201584746
 30
-920.4026280692678
 11
156700.8953995951
 21
106159.1425460976
 31
-920.4026280692678
  0
LINE
  5
616D3
330
1F
100
AcDbEntity
  8
freecads.com
100
AcDbLine
 10
156698.0105698833
 20
106159.4670236649
 30
-920.4026280692678
 11
156696.9013903451
 21
106163.0147045244
 31
-920.4026280692678
  0
LINE
  5
616D4
330
1F
100
AcDbEntity
  8
freecads.com
100
AcDbLine
 10
156696.9013903451
 20
106163.0147045244
 30
-920.4026280692678
 11
156694.71213216
 21
106166.000327063
 31
-920.4026280692678
  0
LINE
  5
616D5
330
1F
100
AcDbEntity
  8
freecads.com
100
AcDbLine
 10
156694.71213216
 20
106166.000327063
 30
-920.4026280692678
 11
156690.2932932657
 21
106169.1986920966
 31
-920.4026280692678
  0
LINE
  5
616D6
330
1F
100
AcDbEntity
  8
freecads.com
100
AcDbLine
 10
156680.2207701522
 20
106548.900148083
 30
-920.4026280692678
 11
156669.6679160548
 21
106548.9823323038
 31
-920.4026280692678
  0
LINE
  5
616D7
330
1F
100
AcDbEntity
  8
freecads.com
100
AcDbLine
 10
156637.513349761
 20
106563.0781788355
 30
-920.4026280692678
 11
156699.2688825342
 21
106561.6425460976
 31
-920.4026280692678
  0
LINE
  5
616D8
330
1F
100
AcDbEntity
  8
freecads.com
100
AcDbLine
 10
156605.2450991808
 20
106463.1755715699
 30
-920.4026280692678
 11
156607.4143574204
 21
106433.8554062016
 31
-920.4026280692678
  0
LINE
  5
616D9
330
1F
100
AcDbEntity
  8
freecads.com
100
AcDbLine
 10
156574.0046986779
 20
106434.4285065418
 30
-920.4026280692678
 11
156571.1283638134
 21
106508.3536382968
 31
-920.4026280692678
  0
LINE
  5
616DA
330
1F
100
AcDbEntity
  8
freecads.com
100
AcDbLine
 10
156641.2133951017
 20
106460.6787817475
 30
-920.4026280692678
 11
156643.3826533414
 21
106432.0791336239
 31
-920.4026280692678
  0
LINE
  5
616DB
330
1F
100
AcDbEntity
  8
freecads.com
100
AcDbLine
 10
156574.9457145146
 20
106360.4189948784
 30
-920.4026280692678
 11
156574.0046986779
 21
106434.4285065418
 31
-920.4026280692678
  0
LINE
  5
616DC
330
1F
100
AcDbEntity
  8
freecads.com
100
AcDbLine
 10
156573.9508670509
 20
106286.4725149225
 30
-920.4026280692678
 11
156574.9457145146
 21
106360.4189948784
 31
-920.4026280692678
  0
LINE
  5
616DD
330
1F
100
AcDbEntity
  8
freecads.com
100
AcDbLine
 10
156607.4143574204
 20
106433.8554062016
 30
-920.4026280692678
 11
156608.8571941669
 21
106404.4021301563
 31
-920.4026280692678
  0
LINE
  5
616DE
330
1F
100
AcDbEntity
  8
freecads.com
100
AcDbLine
 10
156608.8571941669
 20
106404.4021301563
 30
-920.4026280692678
 11
156609.6398723275
 21
106366.0171398635
 31
-920.4026280692678
  0
LINE
  5
616DF
330
1F
100
AcDbEntity
  8
freecads.com
100
AcDbLine
 10
156609.6398723275
 20
106366.0171398635
 30
-920.4026280692678
 11
156609.1892859862
 21
106327.5859098915
 31
-920.4026280692678
  0
LINE
  5
616E0
330
1F
100
AcDbEntity
  8
freecads.com
100
AcDbLine
 10
156609.1892859862
 20
106327.5859098915
 30
-920.4026280692678
 11
156607.5068666859
 21
106289.285178101
 31
-920.4026280692678
  0
LINE
  5
616E1
330
1F
100
AcDbEntity
  8
freecads.com
100
AcDbLine
 10
156607.5068666859
 20
106289.285178101
 30
-920.4026280692678
 11
156605.4453770543
 21
106260.7881361104
 31
-920.4026280692678
  0
LINE
  5
616E2
330
1F
100
AcDbEntity
  8
freecads.com
100
AcDbLine
 10
156643.3826533414
 20
106432.0791336239
 30
-920.4026280692678
 11
156644.8254900878
 21
106403.3496459008
 31
-920.4026280692678
  0
LINE
  5
616E3
330
1F
100
AcDbEntity
  8
freecads.com
100
AcDbLine
 10
156644.8254900878
 20
106403.3496459008
 30
-920.4026280692678
 11
156645.6081682485
 21
106365.9079329426
 31
-920.4026280692678
  0
LINE
  5
616E4
330
1F
100
AcDbEntity
  8
freecads.com
100
AcDbLine
 10
156645.6081682485
 20
106365.9079329426
 30
-920.4026280692678
 11
156645.1575819071
 21
106328.4211166046
 31
-920.4026280692678
  0
LINE
  5
616E5
330
1F
100
AcDbEntity
  8
freecads.com
100
AcDbLine
 10
156645.1575819071
 20
106328.4211166046
 30
-920.4026280692678
 11
156643.4751626069
 21
106291.0615915703
 31
-920.4026280692678
  0
LINE
  5
616E6
330
1F
100
AcDbEntity
  8
freecads.com
100
AcDbLine
 10
156643.4751626069
 20
106291.0615915703
 30
-920.4026280692678
 11
156641.4136729753
 21
106263.2648392922
 31
-920.4026280692678
  0
LINE
  5
616E7
330
1F
100
AcDbEntity
  8
freecads.com
100
AcDbLine
 10
156598.7407871214
 20
106521.203004387
 30
-920.4026280692678
 11
156602.352010952
 21
106492.3090745656
 31
-920.4026280692678
  0
ARC
  5
616E8
330
1F
100
AcDbEntity
  8
freecads.com
100
AcDbCircle
 10
156589.769414298
 20
106666.7167783609
 30
-920.4026280692678
 40
16.15573708072232
100
AcDbArc
 50
297.3759385738983
 51
321.2484761156756
  0
LINE
  5
616E9
330
1F
100
AcDbEntity
  8
freecads.com
100
AcDbLine
 10
156568.2161524545
 20
106667.2675460976
 30
-920.4026280692678
 11
156570.0885540136
 21
106660.6301809881
 31
-920.4026280692678
  0
LINE
  5
616EA
330
1F
100
AcDbEntity
  8
freecads.com
100
AcDbLine
 10
156570.0885540136
 20
106660.6301809881
 30
-920.4026280692678
 11
156577.1676622565
 21
106633.7411347714
 31
-920.4026280692678
  0
LINE
  5
616EB
330
1F
100
AcDbEntity
  8
freecads.com
100
AcDbLine
 10
156577.1676622565
 20
106633.7411347714
 30
-920.4026280692678
 11
156585.593067863
 21
106596.9658843287
 31
-920.4026280692678
  0
LINE
  5
616EC
330
1F
100
AcDbEntity
  8
freecads.com
100
AcDbLine
 10
156585.593067863
 20
106596.9658843287
 30
-920.4026280692678
 11
156592.7959889175
 21
106559.3922760387
 31
-920.4026280692678
  0
LINE
  5
616ED
330
1F
100
AcDbEntity
  8
freecads.com
100
AcDbLine
 10
156592.7959889175
 20
106559.3922760387
 30
-920.4026280692678
 11
156598.7407871214
 21
106521.203004387
 31
-920.4026280692678
  0
LINE
  5
616EE
330
1F
100
AcDbEntity
  8
freecads.com
100
AcDbLine
 10
156571.1283638134
 20
106508.3536382968
 30
-920.4026280692678
 11
156566.3304109579
 21
106581.9629603796
 31
-920.4026280692678
  0
LINE
  5
616EF
330
1F
100
AcDbEntity
  8
freecads.com
100
AcDbLine
 10
156566.3304109579
 20
106581.9629603796
 30
-920.4026280692678
 11
156559.6048779205
 21
106655.4033074838
 31
-920.4026280692678
  0
ARC
  5
616F0
330
1F
100
AcDbEntity
  8
freecads.com
100
AcDbCircle
 10
156591.0420277155
 20
106664.3717092728
 30
-920.4026280692678
 40
13.48821308309294
100
AcDbArc
 50
270.2430280224658
 51
297.1560453448734
  0
ARC
  5
616F1
330
1F
100
AcDbEntity
  8
freecads.com
100
AcDbCircle
 10
156591.1564516386
 20
106664.3717092728
 30
-920.4026280692678
 40
13.48821308308879
100
AcDbArc
 50
242.8439546551266
 51
269.7569719775342
  0
ARC
  5
616F2
330
1F
100
AcDbEntity
  8
freecads.com
100
AcDbCircle
 10
156592.4290650561
 20
106666.7167783609
 30
-920.4026280692678
 40
16.15573708072339
100
AcDbArc
 50
218.7515238843244
 51
242.6240614261017
  0
ARC
  5
616F3
330
1F
100
AcDbEntity
  8
freecads.com
100
AcDbCircle
 10
156595.5884413322
 20
106669.3064101717
 30
-920.4026280692678
 40
20.24064159581565
100
AcDbArc
 50
198.3310692204502
 51
218.8703502143871
  0
LINE
  5
616F4
330
1F
100
AcDbEntity
  8
freecads.com
100
AcDbLine
 10
156602.352010952
 20
106492.3090745656
 30
-920.4026280692678
 11
156605.2450991808
 21
106463.1755715699
 31
-920.4026280692678
  0
LINE
  5
616F5
330
1F
100
AcDbEntity
  8
freecads.com
100
AcDbLine
 10
156669.6679160548
 20
106548.9823323038
 30
-920.4026280692678
 11
156657.098699688
 21
106549.0187407344
 31
-920.4026280692678
  0
LINE
  5
616F6
330
1F
100
AcDbEntity
  8
freecads.com
100
AcDbLine
 10
156657.098699688
 20
106549.0187407344
 30
-920.4026280692678
 11
156644.8000406158
 21
106548.9876557115
 31
-920.4026280692678
  0
LINE
  5
616F7
330
1F
100
AcDbEntity
  8
freecads.com
100
AcDbLine
 10
156644.8000406158
 20
106548.9876557115
 30
-920.4026280692678
 11
156633.0009032849
 21
106548.8902247975
 31
-920.4026280692678
  0
LINE
  5
616F8
330
1F
100
AcDbEntity
  8
freecads.com
100
AcDbLine
 10
156633.0009032849
 20
106548.8902247975
 30
-920.4026280692678
 11
156630.2063825342
 21
106548.8563514782
 31
-920.4026280692678
  0
LINE
  5
616F9
330
1F
100
AcDbEntity
  8
freecads.com
100
AcDbLine
 10
156637.6618497953
 20
106620.861451584
 30
-920.4026280692678
 11
156637.513349761
 21
106563.0781788355
 31
-920.4026280692678
  0
LINE
  5
616FA
330
1F
100
AcDbEntity
  8
freecads.com
100
AcDbLine
 10
156604.1844483755
 20
106659.7553757245
 30
-920.4026280692678
 11
156606.0568499345
 21
106653.2811180178
 31
-920.4026280692678
  0
LINE
  5
616FB
330
1F
100
AcDbEntity
  8
freecads.com
100
AcDbLine
 10
156606.0568499345
 20
106653.2811180178
 30
-920.4026280692678
 11
156613.1359581775
 21
106627.0528464333
 31
-920.4026280692678
  0
LINE
  5
616FC
330
1F
100
AcDbEntity
  8
freecads.com
100
AcDbLine
 10
156613.1359581775
 20
106627.0528464333
 30
-920.4026280692678
 11
156621.5613637839
 21
106591.181315386
 31
-920.4026280692678
  0
LINE
  5
616FD
330
1F
100
AcDbEntity
  8
freecads.com
100
AcDbLine
 10
156621.5613637839
 20
106591.181315386
 30
-920.4026280692678
 11
156628.7642848384
 21
106554.5310454324
 31
-920.4026280692678
  0
LINE
  5
616FE
330
1F
100
AcDbEntity
  8
freecads.com
100
AcDbLine
 10
156628.7642848384
 20
106554.5310454324
 30
-920.4026280692678
 11
156634.7090830423
 21
106517.2802415021
 31
-920.4026280692678
  0
LINE
  5
616FF
330
1F
100
AcDbEntity
  8
freecads.com
100
AcDbLine
 10
156634.7090830423
 20
106517.2802415021
 30
-920.4026280692678
 11
156638.3203068729
 21
106489.0963545621
 31
-920.4026280692678
  0
LINE
  5
61700
330
1F
100
AcDbEntity
  8
freecads.com
100
AcDbLine
 10
156638.3203068729
 20
106489.0963545621
 30
-920.4026280692678
 11
156641.2133951017
 21
106460.6787817475
 31
-920.4026280692678
  0
ARC
  5
61701
330
1F
100
AcDbEntity
  8
freecads.com
100
AcDbCircle
 10
156586.610038022
 20
106669.3064101717
 30
-920.4026280692678
 40
20.24064159581207
100
AcDbArc
 50
321.1296497856129
 51
341.6689307795498
  0
LINE
  5
61702
330
1F
100
AcDbEntity
  8
freecads.com
100
AcDbLine
 10
156693.9477875752
 20
106486.4884539052
 30
-920.4026280692678
 11
156698.3780208444
 21
106455.5254335424
 31
-920.4026280692678
  0
LINE
  5
61703
330
1F
100
AcDbEntity
  8
freecads.com
100
AcDbLine
 10
156717.644879169
 20
106460.6297792897
 30
-920.4026280692678
 11
156720.9344303291
 21
106427.0300817088
 31
-920.4026280692678
  0
LINE
  5
61704
330
1F
100
AcDbEntity
  8
freecads.com
100
AcDbLine
 10
156698.3780208444
 20
106455.5254335424
 30
-920.4026280692678
 11
156701.6675720044
 21
106423.8698412923
 31
-920.4026280692678
  0
LINE
  5
61705
330
1F
100
AcDbEntity
  8
freecads.com
100
AcDbLine
 10
156701.6675720044
 20
106423.8698412923
 30
-920.4026280692678
 11
156703.6845052646
 21
106392.0676227601
 31
-920.4026280692678
  0
LINE
  5
61706
330
1F
100
AcDbEntity
  8
freecads.com
100
AcDbLine
 10
156703.6845052646
 20
106392.0676227601
 30
-920.4026280692678
 11
156704.3770242095
 21
106360.2141018064
 31
-920.4026280692678
  0
LINE
  5
61707
330
1F
100
AcDbEntity
  8
freecads.com
100
AcDbLine
 10
156704.3770242095
 20
106360.2141018064
 30
-920.4026280692678
 11
156703.4127771762
 21
106322.1027358222
 31
-920.4026280692678
  0
LINE
  5
61708
330
1F
100
AcDbEntity
  8
freecads.com
100
AcDbLine
 10
156703.4127771762
 20
106322.1027358222
 30
-920.4026280692678
 11
156700.555621881
 21
106284.0328491403
 31
-920.4026280692678
  0
LINE
  5
61709
330
1F
100
AcDbEntity
  8
freecads.com
100
AcDbLine
 10
156720.9344303291
 20
106427.0300817088
 30
-920.4026280692678
 11
156722.9513635893
 21
106393.2747528983
 31
-920.4026280692678
  0
LINE
  5
6170C
330
1F
100
AcDbEntity
  8
freecads.com
100
AcDbLine
 10
156722.9513635893
 20
106393.2747528983
 30
-920.4026280692678
 11
156723.6438825342
 21
106359.4649709655
 31
-920.4026280692678
  0
LINE
  5
6170D
330
1F
100
AcDbEntity
  8
freecads.com
100
AcDbLine
 10
156723.6438825342
 20
106359.4649709655
 30
-920.4026280692678
 11
156722.6796355009
 21
106319.0130229699
 31
-920.4026280692678
  0
LINE
  5
6170E
330
1F
100
AcDbEntity
  8
freecads.com
100
AcDbLine
 10
156722.6796355009
 20
106319.0130229699
 30
-920.4026280692678
 11
156719.8224802057
 21
106278.6051016981
 31
-920.4026280692678
  0
LINE
  5
6170F
330
1F
100
AcDbEntity
  8
freecads.com
100
AcDbLine
 10
156682.0813825342
 20
106601.9550460976
 30
-920.4026280692678
 11
156806.2627192553
 21
106612.5873840314
 31
-920.4026280692678
  0
LINE
  5
61710
330
1F
100
AcDbEntity
  8
freecads.com
100
AcDbLine
 10
156681.473920778
 20
106548.9270100026
 30
-920.4026280692678
 11
156681.7627904421
 21
106547.7048535974
 31
-920.4026280692678
  0
LINE
  5
61711
330
1F
100
AcDbEntity
  8
freecads.com
100
AcDbLine
 10
156681.7627904421
 20
106547.7048535974
 30
-920.4026280692678
 11
156688.3895404151
 21
106517.2368713359
 31
-920.4026280692678
  0
LINE
  5
61712
330
1F
100
AcDbEntity
  8
freecads.com
100
AcDbLine
 10
156688.3895404151
 20
106517.2368713359
 30
-920.4026280692678
 11
156693.9477875752
 21
106486.4884539052
 31
-920.4026280692678
  0
LINE
  5
61713
330
1F
100
AcDbEntity
  8
freecads.com
100
AcDbLine
 10
156697.8460995987
 20
106560.9558965248
 30
-920.4026280692678
 11
156696.7398270538
 21
106557.4073081033
 31
-920.4026280692678
  0
LINE
  5
61714
330
1F
100
AcDbEntity
  8
freecads.com
100
AcDbLine
 10
156696.7398270538
 20
106557.4073081033
 30
-920.4026280692678
 11
156694.553015729
 21
106554.4198929038
 31
-920.4026280692678
  0
LINE
  5
61715
330
1F
100
AcDbEntity
  8
freecads.com
100
AcDbLine
 10
156694.553015729
 20
106554.4198929038
 30
-920.4026280692678
 11
156690.1367987437
 21
106551.2179085815
 31
-920.4026280692678
  0
LINE
  5
61716
330
1F
100
AcDbEntity
  8
freecads.com
100
AcDbLine
 10
156690.1367987437
 20
106551.2179085815
 30
-920.4026280692678
 11
156683.4038442852
 21
106549.1200173052
 31
-920.4026280692678
  0
LINE
  5
61717
330
1F
100
AcDbEntity
  8
freecads.com
100
AcDbLine
 10
156683.4038442852
 20
106549.1200173052
 30
-920.4026280692678
 11
156681.473920778
 21
106548.9270100026
 31
-920.4026280692678
  0
LINE
  5
61719
330
1F
100
AcDbEntity
  8
freecads.com
100
AcDbLine
 10
156700.7407791027
 20
106559.7675460976
 30
-920.4026280692678
 11
156701.0296487667
 21
106558.4703318396
 31
-920.4026280692678
  0
LINE
  5
6171A
330
1F
100
AcDbEntity
  8
freecads.com
100
AcDbLine
 10
156701.0296487667
 20
106558.4703318396
 30
-920.4026280692678
 11
156707.6563987398
 21
106526.1311804567
 31
-920.4026280692678
  0
LINE
  5
6171B
330
1F
100
AcDbEntity
  8
freecads.com
100
AcDbLine
 10
156707.6563987398
 20
106526.1311804567
 30
-920.4026280692678
 11
156713.2146458999
 21
106493.4943711814
 31
-920.4026280692678
  0
LINE
  5
6171C
330
1F
100
AcDbEntity
  8
freecads.com
100
AcDbLine
 10
156713.2146458999
 20
106493.4943711814
 30
-920.4026280692678
 11
156717.644879169
 21
106460.6297792897
 31
-920.4026280692678
  0
ARC
  5
6171E
330
1F
100
AcDbEntity
  8
freecads.com
100
AcDbCircle
 10
156367.6226436788
 20
106677.3684932618
 30
-920.4026280692678
 40
13.37545894783113
100
AcDbArc
 50
90.19434939179097
 51
115.5341230483177
  0
ARC
  5
6171F
330
1F
100
AcDbEntity
  8
freecads.com
100
AcDbCircle
 10
156368.7675236659
 20
106675.1087551703
 30
-920.4026280692678
 40
15.9080938372253
100
AcDbArc
 50
115.7466268283687
 51
138.3292073234647
  0
ARC
  5
61720
330
1F
100
AcDbEntity
  8
freecads.com
100
AcDbCircle
 10
156371.8026788565
 20
106672.368946311
 30
-920.4026280692678
 40
19.99686706381863
100
AcDbArc
 50
138.2471100807111
 51
157.6348186150033
  0
ARC
  5
61721
330
1F
100
AcDbEntity
  8
freecads.com
100
AcDbCircle
 10
156375.1264660516
 20
106670.9186810957
 30
-920.4026280692678
 40
23.62259234475555
100
AcDbArc
 50
157.4494074596381
 51
174.7934081100071
  0
LINE
  5
61722
330
1F
100
AcDbEntity
  8
freecads.com
100
AcDbLine
 10
156708.0188825342
 20
106678.2050460976
 30
-920.4026280692678
 11
156607.7063825342
 21
106678.2050460976
 31
-920.4026280692678
  0
ARC
  5
61723
330
1F
100
AcDbEntity
  8
freecads.com
100
AcDbCircle
 10
156589.769414298
 20
106674.1129566914
 30
-920.4026280692678
 40
16.15573708072339
100
AcDbArc
 50
38.75152388432441
 51
62.62406142610168
  0
ARC
  5
61724
330
1F
100
AcDbEntity
  8
freecads.com
100
AcDbCircle
 10
156598.4962075338
 20
106670.4629911169
 30
-920.4026280692678
 40
23.33451748022783
100
AcDbArc
 50
161.4429990304052
 51
180.1181631718245
  0
ARC
  5
61725
330
1F
100
AcDbEntity
  8
freecads.com
100
AcDbCircle
 10
156595.5884413322
 20
106671.5233248806
 30
-920.4026280692678
 40
20.24064159581207
100
AcDbArc
 50
141.1296497856129
 51
161.6689307795498
  0
ARC
  5
61726
330
1F
100
AcDbEntity
  8
freecads.com
100
AcDbCircle
 10
156592.4290650561
 20
106674.1129566914
 30
-920.4026280692678
 40
16.15573708072232
100
AcDbArc
 50
117.3759385738983
 51
141.2484761156756
  0
ARC
  5
61727
330
1F
100
AcDbEntity
  8
freecads.com
100
AcDbCircle
 10
156591.1564516386
 20
106676.4580257795
 30
-920.4026280692678
 40
13.48821308309294
100
AcDbArc
 50
90.24302802246582
 51
117.1560453448734
  0
ARC
  5
61728
330
1F
100
AcDbEntity
  8
freecads.com
100
AcDbCircle
 10
156591.0420277155
 20
106676.4580257795
 30
-920.4026280692678
 40
13.48821308308879
100
AcDbArc
 50
62.84395465512662
 51
89.75697197753417
  0
ARC
  5
61729
330
1F
100
AcDbEntity
  8
freecads.com
100
AcDbCircle
 10
156586.610038022
 20
106671.5233248806
 30
-920.4026280692678
 40
20.24064159581565
100
AcDbArc
 50
18.33106922045021
 51
38.87035021438708
  0
ARC
  5
6172A
330
1F
100
AcDbEntity
  8
freecads.com
100
AcDbCircle
 10
156583.7022718204
 20
106670.4629911169
 30
-920.4026280692678
 40
23.33451748022748
100
AcDbArc
 50
359.8818368281754
 51
18.55700096959479
  0
LINE
  5
6172B
330
1F
100
AcDbEntity
  8
freecads.com
100
AcDbLine
 10
156806.2339107369
 20
106682.9119389502
 30
-920.4026280692678
 11
156707.7063825342
 21
106676.9550460976
 31
-920.4026280692678
  0
ARC
  5
6172C
330
1F
100
AcDbEntity
  8
freecads.com
100
AcDbCircle
 10
156800.0843168536
 20
106682.3207939604
 30
-920.4026280692678
 40
5.45385333205909
100
AcDbArc
 50
0.3381151435574941
 51
29.19352452555595
  0
ARC
  5
6172D
330
1F
100
AcDbEntity
  8
freecads.com
100
AcDbCircle
 10
156798.7692826721
 20
106681.5351751204
 30
-920.4026280692678
 40
6.985183575088908
100
AcDbArc
 50
29.55775742122094
 51
54.04721442715179
  0
ARC
  5
6172E
330
1F
100
AcDbEntity
  8
freecads.com
100
AcDbCircle
 10
156797.1556279197
 20
106679.3655664306
 30
-920.4026280692678
 40
9.688944830289498
100
AcDbArc
 50
53.85539056495319
 51
73.54171141393883
  0
ARC
  5
6172F
330
1F
100
AcDbEntity
  8
freecads.com
100
AcDbCircle
 10
156796.4144857656
 20
106677.0755113724
 30
-920.4026280692678
 40
12.09530480148668
100
AcDbArc
 50
73.24819126590333
 51
90.21729365952095
  0
LINE
  5
61730
330
1F
100
AcDbEntity
  8
freecads.com
100
AcDbLine
 10
156866.689251741
 20
106699.3618991691
 30
-920.4026280692678
 11
156866.7273718522
 21
106606.3067887433
 31
-920.4026280692678
  0
LINE
  5
61731
330
1F
100
AcDbEntity
  8
freecads.com
100
AcDbLine
 10
156881.4563825342
 20
106708.8300460976
 30
-920.4026280692678
 11
156881.2670181502
 21
106602.1077192498
 31
-920.4026280692678
  0
LINE
  5
61732
330
1F
100
AcDbEntity
  8
freecads.com
100
AcDbLine
 10
156866.3444403556
 20
106241.7031725999
 30
-920.4026280692678
 11
156866.4415258238
 21
106299.7011275853
 31
-920.4026280692678
  0
LINE
  5
61733
330
1F
100
AcDbEntity
  8
freecads.com
100
AcDbLine
 10
156873.3400948296
 20
106286.8052245826
 30
-920.4026280692678
 11
156873.2889263554
 21
106246.8001636495
 31
-920.4026280692678
  0
ARC
  5
61734
330
1F
100
AcDbEntity
  8
freecads.com
100
AcDbCircle
 10
155240.0856564698
 20
106363.1319091466
 30
-920.4026280692678
 40
1658.570877528567
100
AcDbArc
 50
351.5187920635067
 51
8.333538483399198
  0
LINE
  5
61735
330
1F
100
AcDbEntity
  8
freecads.com
100
AcDbLine
 10
156866.9670616297
 20
106021.1994009542
 30
-920.4026280692678
 11
156866.9289415185
 21
106114.25451138
 31
-920.4026280692678
  0
LINE
  5
61736
330
1F
100
AcDbEntity
  8
freecads.com
100
AcDbLine
 10
156881.7688825342
 20
106009.7675460976
 30
-920.4026280692678
 11
156881.4651426318
 21
106118.465491821
 31
-920.4026280692678
  0
LINE
  5
61737
330
1F
100
AcDbEntity
  8
freecads.com
100
AcDbLine
 10
156841.5073667339
 20
106015.3848722583
 30
-920.4026280692678
 11
156862.4017840751
 21
106016.2961208852
 31
-920.4026280692678
  0
ARC
  5
61738
330
1F
100
AcDbEntity
  8
freecads.com
100
AcDbCircle
 10
156861.891194417
 20
106021.20263249
 30
-920.4026280692678
 40
4.933006133226474
100
AcDbArc
 50
275.941018908835
 51
296.8484532348893
  0
ARC
  5
61739
330
1F
100
AcDbEntity
  8
freecads.com
100
AcDbCircle
 10
156861.791471973
 20
106021.4067844041
 30
-920.4026280692678
 40
5.160190207811487
100
AcDbArc
 50
296.8126025388081
 51
317.1015256065494
  0
ARC
  5
6173A
330
1F
100
AcDbEntity
  8
freecads.com
100
AcDbCircle
 10
156861.7321510996
 20
106021.4693976622
 30
-920.4026280692678
 40
5.246270168339563
100
AcDbArc
 50
317.0415872811208
 51
337.1077730004776
  0
ARC
  5
6173B
330
1F
100
AcDbEntity
  8
freecads.com
100
AcDbCircle
 10
156861.8282494442
 20
106021.4345515871
 30
-920.4026280692678
 40
5.144188326433041
100
AcDbArc
 50
337.0489576121275
 51
357.3799649160778
  0
ARC
  5
6173C
330
1F
100
AcDbEntity
  8
freecads.com
100
AcDbCircle
 10
156876.6037309627
 20
106009.5922082702
 30
-920.4026280692678
 40
4.93300613323024
100
AcDbArc
 50
275.9410189104936
 51
296.8484532352659
  0
ARC
  5
6173D
330
1F
100
AcDbEntity
  8
freecads.com
100
AcDbCircle
 10
156876.5040085188
 20
106009.7963601843
 30
-920.4026280692678
 40
5.160190207786872
100
AcDbArc
 50
296.8126025373199
 51
317.1015256054143
  0
ARC
  5
6173E
330
1F
100
AcDbEntity
  8
freecads.com
100
AcDbCircle
 10
156876.4446876452
 20
106009.8589734424
 30
-920.4026280692678
 40
5.246270168444228
100
AcDbArc
 50
317.0415872822571
 51
337.1077730012457
  0
ARC
  5
6173F
330
1F
100
AcDbEntity
  8
freecads.com
100
AcDbCircle
 10
156876.54078599
 20
106009.8241273673
 30
-920.4026280692678
 40
5.144188326375697
100
AcDbArc
 50
337.0489576121275
 51
357.3799649160778
  0
LINE
  5
61740
330
1F
100
AcDbEntity
  8
freecads.com
100
AcDbLine
 10
156866.1317885082
 20
106183.8609302569
 30
-920.4026280692678
 11
156866.3444403556
 21
106241.7031725999
 31
-920.4026280692678
  0
LINE
  5
61741
330
1F
100
AcDbEntity
  8
freecads.com
100
AcDbLine
 10
156873.2889263554
 20
106246.8001636495
 30
-920.4026280692678
 11
156873.1996108759
 21
106206.8731075523
 31
-920.4026280692678
  0
LINE
  5
61742
330
1F
100
AcDbEntity
  8
freecads.com
100
AcDbLine
 10
156865.7730819042
 20
106126.2885393816
 30
-920.4026280692678
 11
156866.1317885082
 21
106183.8609302569
 31
-920.4026280692678
  0
LINE
  5
61743
330
1F
100
AcDbEntity
  8
freecads.com
100
AcDbLine
 10
156873.1996108759
 20
106206.8731075523
 30
-920.4026280692678
 11
156873.0613518344
 21
106166.9402572635
 31
-920.4026280692678
  0
LINE
  5
61744
330
1F
100
AcDbEntity
  8
freecads.com
100
AcDbLine
 10
156873.0613518344
 20
106166.9402572635
 30
-920.4026280692678
 11
156872.8534184337
 21
106127.1452417702
 31
-920.4026280692678
  0
ARC
  5
61745
330
1F
100
AcDbEntity
  8
freecads.com
100
AcDbCircle
 10
156865.3121609151
 20
106127.2438095344
 30
-920.4026280692678
 40
7.438090630908772
100
AcDbArc
 50
273.5731778717685
 51
294.9097610950703
  0
ARC
  5
61746
330
1F
100
AcDbEntity
  8
freecads.com
100
AcDbCircle
 10
156865.2588146641
 20
106127.357198697
 30
-920.4026280692678
 40
7.563400408405681
100
AcDbArc
 50
294.9144968639421
 51
316.0147991751667
  0
ARC
  5
61747
330
1F
100
AcDbEntity
  8
freecads.com
100
AcDbCircle
 10
156865.1779154366
 20
106127.4373579002
 30
-920.4026280692678
 40
7.677277467326991
100
AcDbArc
 50
316.0036509446646
 51
336.8947661521966
  0
ARC
  5
61748
330
1F
100
AcDbEntity
  8
freecads.com
100
AcDbCircle
 10
156865.1398550964
 20
106127.4566424471
 30
-920.4026280692678
 40
7.719852994638188
100
AcDbArc
 50
336.8739703007128
 51
357.6881868095988
  0
LINE
  5
61749
330
1F
100
AcDbEntity
  8
freecads.com
100
AcDbLine
 10
156866.3992248971
 20
106417.0513472401
 30
-920.4026280692678
 11
156866.2568441604
 21
106476.3246549482
 31
-920.4026280692678
  0
LINE
  5
6174A
330
1F
100
AcDbEntity
  8
freecads.com
100
AcDbLine
 10
156873.1723071396
 20
106482.6843451577
 30
-920.4026280692678
 11
156873.2585965066
 21
106445.5350987669
 31
-920.4026280692678
  0
LINE
  5
6174B
330
1F
100
AcDbEntity
  8
freecads.com
100
AcDbLine
 10
156866.4415258238
 20
106299.7011275853
 30
-920.4026280692678
 11
156866.4535332903
 21
106357.7406563879
 31
-920.4026280692678
  0
LINE
  5
6174C
330
1F
100
AcDbEntity
  8
freecads.com
100
AcDbLine
 10
156866.4535332903
 20
106357.7406563879
 30
-920.4026280692678
 11
156866.3992248971
 21
106417.0513472401
 31
-920.4026280692678
  0
LINE
  5
6174D
330
1F
100
AcDbEntity
  8
freecads.com
100
AcDbLine
 10
156873.2585965066
 20
106445.5350987669
 30
-920.4026280692678
 11
156873.3199228551
 21
106405.9247266522
 31
-920.4026280692678
  0
LINE
  5
6174E
330
1F
100
AcDbEntity
  8
freecads.com
100
AcDbLine
 10
156873.3199228551
 20
106405.9247266522
 30
-920.4026280692678
 11
156873.3532244764
 21
106366.2839752777
 31
-920.4026280692678
  0
LINE
  5
6174F
330
1F
100
AcDbEntity
  8
freecads.com
100
AcDbLine
 10
156873.3532244764
 20
106366.2839752777
 30
-920.4026280692678
 11
156873.3603993382
 21
106326.5333276273
 31
-920.4026280692678
  0
LINE
  5
61750
330
1F
100
AcDbEntity
  8
freecads.com
100
AcDbLine
 10
156873.3603993382
 20
106326.5333276273
 30
-920.4026280692678
 11
156873.3400948296
 21
106286.8052245826
 31
-920.4026280692678
  0
LINE
  5
61751
330
1F
100
AcDbEntity
  8
freecads.com
100
AcDbLine
 10
156866.2568441604
 20
106476.3246549482
 30
-920.4026280692678
 11
156865.9947676974
 21
106535.4387537248
 31
-920.4026280692678
  0
LINE
  5
61752
330
1F
100
AcDbEntity
  8
freecads.com
100
AcDbLine
 10
156865.9947676974
 20
106535.4387537248
 30
-920.4026280692678
 11
156865.5813721255
 21
106594.2718177829
 31
-920.4026280692678
  0
LINE
  5
61753
330
1F
100
AcDbEntity
  8
freecads.com
100
AcDbLine
 10
156872.6624081764
 20
106593.4209166135
 30
-920.4026280692678
 11
156872.887318366
 21
106556.6507368292
 31
-920.4026280692678
  0
LINE
  5
61754
330
1F
100
AcDbEntity
  8
freecads.com
100
AcDbLine
 10
156872.887318366
 20
106556.6507368292
 30
-920.4026280692678
 11
156873.0514411718
 21
106519.7607975984
 31
-920.4026280692678
  0
LINE
  5
61755
330
1F
100
AcDbEntity
  8
freecads.com
100
AcDbLine
 10
156873.0514411718
 20
106519.7607975984
 30
-920.4026280692678
 11
156873.1723071396
 21
106482.6843451577
 31
-920.4026280692678
  0
ARC
  5
61756
330
1F
100
AcDbEntity
  8
freecads.com
100
AcDbCircle
 10
156871.107511402
 20
106590.9636894483
 30
-920.4026280692678
 40
2.907862289776117
100
AcDbArc
 50
57.67499192893712
 51
85.31482243684386
  0
ARC
  5
61757
330
1F
100
AcDbEntity
  8
freecads.com
100
AcDbCircle
 10
156867.5633605042
 20
106573.0512158235
 30
-920.4026280692678
 40
21.15142754576027
100
AcDbArc
 50
79.70070218800164
 51
86.59498941901317
  0
ARC
  5
61758
330
1F
100
AcDbEntity
  8
freecads.com
100
AcDbCircle
 10
156865.7165507364
 20
106549.103373232
 30
-920.4026280692678
 40
45.1686462209718
100
AcDbArc
 50
86.06069652726031
 51
90.17148155330238
  0
ARC
  5
61759
330
1F
100
AcDbEntity
  8
freecads.com
100
AcDbCircle
 10
156864.949102559
 20
106593.1031963056
 30
-920.4026280692678
 40
7.719852994665759
100
AcDbArc
 50
2.358755724763378
 51
23.17297223398528
  0
ARC
  5
6175A
330
1F
100
AcDbEntity
  8
freecads.com
100
AcDbCircle
 10
156864.9871470867
 20
106593.122512029
 30
-920.4026280692678
 40
7.677277467274629
100
AcDbArc
 50
23.15217638201893
 51
44.04329159003573
  0
ARC
  5
6175B
330
1F
100
AcDbEntity
  8
freecads.com
100
AcDbCircle
 10
156865.0679806123
 20
106593.2027374861
 30
-920.4026280692678
 40
7.563400408492114
100
AcDbArc
 50
44.03214335868534
 51
65.13244567046976
  0
ARC
  5
6175C
330
1F
100
AcDbEntity
  8
freecads.com
100
AcDbCircle
 10
156865.1212339456
 20
106593.3161703174
 30
-920.4026280692678
 40
7.43809063086933
100
AcDbArc
 50
65.13718144062143
 51
86.47376466365418
  0
LINE
  5
6175D
330
1F
100
AcDbEntity
  8
freecads.com
100
AcDbLine
 10
156841.224801537
 20
106705.1555667423
 30
-920.4026280692678
 11
156862.119958453
 21
106704.2614372528
 31
-920.4026280692678
  0
ARC
  5
6175E
330
1F
100
AcDbEntity
  8
freecads.com
100
AcDbCircle
 10
156861.5506339396
 20
106699.1225383775
 30
-920.4026280692678
 40
5.144188326371442
100
AcDbArc
 50
2.666977618419977
 51
22.99798492308998
  0
ARC
  5
6175F
330
1F
100
AcDbEntity
  8
freecads.com
100
AcDbCircle
 10
156861.4545641766
 20
106699.0876135806
 30
-920.4026280692678
 40
5.246270168415868
100
AcDbArc
 50
22.93916953455205
 51
43.00535525347028
  0
ARC
  5
61760
330
1F
100
AcDbEntity
  8
freecads.com
100
AcDbCircle
 10
156861.513833731
 20
106699.1502754194
 30
-920.4026280692678
 40
5.160190207774254
100
AcDbArc
 50
42.94541692787318
 51
63.2343399965601
  0
ARC
  5
61761
330
1F
100
AcDbEntity
  8
freecads.com
100
AcDbCircle
 10
156861.6133888796
 20
106699.3545089678
 30
-920.4026280692678
 40
4.933006133210426
100
AcDbArc
 50
63.19848929851267
 51
84.10592362448966
  0
LINE
  5
61762
330
1F
100
AcDbEntity
  8
freecads.com
100
AcDbLine
 10
156841.2203301503
 20
106716.0701896461
 30
-920.4026280692678
 11
156876.4563825342
 21
106714.7675460976
 31
-920.4026280692678
  0
ARC
  5
61763
330
1F
100
AcDbEntity
  8
freecads.com
100
AcDbCircle
 10
156876.1838375186
 20
106709.0929337253
 30
-920.4026280692678
 40
5.144188326425107
100
AcDbArc
 50
2.666977617587117
 51
22.99798492232248
  0
ARC
  5
61764
330
1F
100
AcDbEntity
  8
freecads.com
100
AcDbCircle
 10
156876.0877677556
 20
106709.0580089284
 30
-920.4026280692678
 40
5.246270168408778
100
AcDbArc
 50
22.93916953455205
 51
43.00535525347028
  0
ARC
  5
61765
330
1F
100
AcDbEntity
  8
freecads.com
100
AcDbCircle
 10
156876.14703731
 20
106709.1206707672
 30
-920.4026280692678
 40
5.1601902077467
100
AcDbArc
 50
42.9454169284835
 51
63.2343399965601
  0
ARC
  5
61766
330
1F
100
AcDbEntity
  8
freecads.com
100
AcDbCircle
 10
156876.2465924585
 20
106709.3249043155
 30
-920.4026280692678
 40
4.933006133210426
100
AcDbArc
 50
63.19848929851267
 51
84.10592362448966
  0
ENDSEC
  0
SECTION
  2
OBJECTS
  0
DICTIONARY
  5
C
330
0
100
AcDbDictionary
281
     1
  3
ACAD_ASSOCPERSSUBENTMANAGER
350
2C1D4
  3
ACAD_CIP_PREVIOUS_PRODUCT_INFO
350
1A5
  3
ACAD_COLOR
350
73
  3
ACAD_DETAILVIEWSTYLE
350
1AB
  3
ACAD_GROUP
350
D
  3
ACAD_LAYOUT
350
1A
  3
ACAD_MATERIAL
350
72
  3
ACAD_MLEADERSTYLE
350
D7
  3
ACAD_MLINESTYLE
350
17
  3
ACAD_PLOTSETTINGS
350
19
  3
ACAD_PLOTSTYLENAME
350
E
  3
ACAD_SCALELIST
350
B6
  3
ACAD_SECTIONVIEWSTYLE
350
1A8
  3
ACAD_TABLESTYLE
350
86
  3
ACAD_VISUALSTYLE
350
99
  3
ACAD_WIPEOUT_VARS
350
59B06
  3
ACDB_RECOMPOSE_DATA
350
67411
  3
ACDBVARIABLEDICTIONARY
350
4A0D5
  3
AEC_PROPERTY_SET_DEFS
350
22D1
  0
DICTIONARY
  5
18E
330
2
100
AcDbDictionary
280
     1
281
     1
  3
ACAD_LAYERSTATES
360
18F
  0
DICTIONARY
  5
E6
330
10
100
AcDbDictionary
280
     1
281
     1
  0
DICTIONARY
  5
15D
330
1F
100
AcDbDictionary
280
     1
281
     1
  3
ACAD_SORTENTS
360
28E
  0
ACDBASSOCPERSSUBENTMANAGER
  5
2C1D4
102
{ACAD_REACTORS
330
C
102
}
330
C
100
AcDbAssocPersSubentManager
 90
        2
 90
        3
 90
        0
 90
        2
 90
     1260
 90
        0
 90
     1260
 90
        1
 90
        2
 90
        3
 90
        4
 90
        5
 90
        6
 90
        7
 90
        8
 90
        9
 90
       10
 90
       11
 90
       12
 90
       13
 90
       14
 90
       15
 90
       16
 90
       17
 90
       18
 90
       19
 90
       20
 90
       21
 90
       22
 90
       23
 90
       24
 90
       25
 90
       26
 90
       27
 90
       28
 90
       29
 90
       30
 90
       31
 90
       32
 90
       33
 90
       34
 90
       35
 90
       36
 90
       37
 90
       38
 90
       39
 90
       40
 90
       41
 90
       42
 90
       43
 90
       44
 90
       45
 90
       46
 90
       47
 90
       48
 90
       49
 90
       50
 90
       51
 90
       52
 90
       53
 90
       54
 90
       55
 90
       56
 90
       57
 90
       58
 90
       59
 90
       60
 90
       61
 90
       62
 90
       63
 90
       64
 90
       65
 90
       66
 90
       67
 90
       68
 90
       69
 90
       70
 90
       71
 90
       72
 90
       73
 90
       74
 90
       75
 90
       76
 90
       77
 90
       78
 90
       79
 90
       80
 90
       81
 90
       82
 90
       83
 90
       84
 90
       85
 90
       86
 90
       87
 90
       88
 90
       89
 90
       90
 90
       91
 90
       92
 90
       93
 90
       94
 90
       95
 90
       96
 90
       97
 90
       98
 90
       99
 90
      100
 90
      101
 90
      102
 90
      103
 90
      104
 90
      105
 90
      106
 90
      107
 90
      108
 90
      109
 90
      110
 90
      111
 90
      112
 90
      113
 90
      114
 90
      115
 90
      116
 90
      117
 90
      118
 90
      119
 90
      120
 90
      121
 90
      122
 90
      123
 90
      124
 90
      125
 90
      126
 90
      127
 90
      128
 90
      129
 90
      130
 90
      131
 90
      132
 90
      133
 90
      134
 90
      135
 90
      136
 90
      137
 90
      138
 90
      139
 90
      140
 90
      141
 90
      142
 90
      143
 90
      144
 90
      145
 90
      146
 90
      147
 90
      148
 90
      149
 90
      150
 90
      151
 90
      152
 90
      153
 90
      154
 90
      155
 90
      156
 90
      157
 90
      158
 90
      159
 90
      160
 90
      161
 90
      162
 90
      163
 90
      164
 90
      165
 90
      166
 90
      167
 90
      168
 90
      169
 90
      170
 90
      171
 90
      172
 90
      173
 90
      174
 90
      175
 90
      176
 90
      177
 90
      178
 90
      179
 90
      180
 90
      181
 90
      182
 90
      183
 90
      184
 90
      185
 90
      186
 90
      187
 90
      188
 90
      189
 90
      190
 90
      191
 90
      192
 90
      193
 90
      194
 90
      195
 90
      196
 90
      197
 90
      198
 90
      199
 90
      200
 90
      201
 90
      202
 90
      203
 90
      204
 90
      205
 90
      206
 90
      207
 90
      208
 90
      209
 90
      210
 90
      211
 90
      212
 90
      213
 90
      214
 90
      215
 90
      216
 90
      217
 90
      218
 90
      219
 90
      220
 90
      221
 90
      222
 90
      223
 90
      224
 90
      225
 90
      226
 90
      227
 90
      228
 90
      229
 90
      230
 90
      231
 90
      232
 90
      233
 90
      234
 90
      235
 90
      236
 90
      237
 90
      238
 90
      239
 90
      240
 90
      241
 90
      242
 90
      243
 90
      244
 90
      245
 90
      246
 90
      247
 90
      248
 90
      249
 90
      250
 90
      251
 90
      252
 90
      253
 90
      254
 90
      255
 90
      256
 90
      257
 90
      258
 90
      259
 90
      260
 90
      261
 90
      262
 90
      263
 90
      264
 90
      265
 90
      266
 90
      267
 90
      268
 90
      269
 90
      270
 90
      271
 90
      272
 90
      273
 90
      274
 90
      275
 90
      276
 90
      277
 90
      278
 90
      279
 90
      280
 90
      281
 90
      282
 90
      283
 90
      284
 90
      285
 90
      286
 90
      287
 90
      288
 90
      289
 90
      290
 90
      291
 90
      292
 90
      293
 90
      294
 90
      295
 90
      296
 90
      297
 90
      298
 90
      299
 90
      300
 90
      301
 90
      302
 90
      303
 90
      304
 90
      305
 90
      306
 90
      307
 90
      308
 90
      309
 90
      310
 90
      311
 90
      312
 90
      313
 90
      314
 90
      315
 90
      316
 90
      317
 90
      318
 90
      319
 90
      320
 90
      321
 90
      322
 90
      323
 90
      324
 90
      325
 90
      326
 90
      327
 90
      328
 90
      329
 90
      330
 90
      331
 90
      332
 90
      333
 90
      334
 90
      335
 90
      336
 90
      337
 90
      338
 90
      339
 90
      340
 90
      341
 90
      342
 90
      343
 90
      344
 90
      345
 90
      346
 90
      347
 90
      348
 90
      349
 90
      350
 90
      351
 90
      352
 90
      353
 90
      354
 90
      355
 90
      356
 90
      357
 90
      358
 90
      359
 90
      360
 90
      361
 90
      362
 90
      363
 90
      364
 90
      365
 90
      366
 90
      367
 90
      368
 90
      369
 90
      370
 90
      371
 90
      372
 90
      373
 90
      374
 90
      375
 90
      376
 90
      377
 90
      378
 90
      379
 90
      380
 90
      381
 90
      382
 90
      383
 90
      384
 90
      385
 90
      386
 90
      387
 90
      388
 90
      389
 90
      390
 90
      391
 90
      392
 90
      393
 90
      394
 90
      395
 90
      396
 90
      397
 90
      398
 90
      399
 90
      400
 90
      401
 90
      402
 90
      403
 90
      404
 90
      405
 90
      406
 90
      407
 90
      408
 90
      409
 90
      410
 90
      411
 90
      412
 90
      413
 90
      414
 90
      415
 90
      416
 90
      417
 90
      418
 90
      419
 90
      420
 90
      421
 90
      422
 90
      423
 90
      424
 90
      425
 90
      426
 90
      427
 90
      428
 90
      429
 90
      430
 90
      431
 90
      432
 90
      433
 90
      434
 90
      435
 90
      436
 90
      437
 90
      438
 90
      439
 90
      440
 90
      441
 90
      442
 90
      443
 90
      444
 90
      445
 90
      446
 90
      447
 90
      448
 90
      449
 90
      450
 90
      451
 90
      452
 90
      453
 90
      454
 90
      455
 90
      456
 90
      457
 90
      458
 90
      459
 90
      460
 90
      461
 90
      462
 90
      463
 90
      464
 90
      465
 90
      466
 90
      467
 90
      468
 90
      469
 90
      470
 90
      471
 90
      472
 90
      473
 90
      474
 90
      475
 90
      476
 90
      477
 90
      478
 90
      479
 90
      480
 90
      481
 90
      482
 90
      483
 90
      484
 90
      485
 90
      486
 90
      487
 90
      488
 90
      489
 90
      490
 90
      491
 90
      492
 90
      493
 90
      494
 90
      495
 90
      496
 90
      497
 90
      498
 90
      499
 90
      500
 90
      501
 90
      502
 90
      503
 90
      504
 90
      505
 90
      506
 90
      507
 90
      508
 90
      509
 90
      510
 90
      511
 90
      512
 90
      513
 90
      514
 90
      515
 90
      516
 90
      517
 90
      518
 90
      519
 90
      520
 90
      521
 90
      522
 90
      523
 90
      524
 90
      525
 90
      526
 90
      527
 90
      528
 90
      529
 90
      530
 90
      531
 90
      532
 90
      533
 90
      534
 90
      535
 90
      536
 90
      537
 90
      538
 90
      539
 90
      540
 90
      541
 90
      542
 90
      543
 90
      544
 90
      545
 90
      546
 90
      547
 90
      548
 90
      549
 90
      550
 90
      551
 90
      552
 90
      553
 90
      554
 90
      555
 90
      556
 90
      557
 90
      558
 90
      559
 90
      560
 90
      561
 90
      562
 90
      563
 90
      564
 90
      565
 90
      566
 90
      567
 90
      568
 90
      569
 90
      570
 90
      571
 90
      572
 90
      573
 90
      574
 90
      575
 90
      576
 90
      577
 90
      578
 90
      579
 90
      580
 90
      581
 90
      582
 90
      583
 90
      584
 90
      585
 90
      586
 90
      587
 90
      588
 90
      589
 90
      590
 90
      591
 90
      592
 90
      593
 90
      594
 90
      595
 90
      596
 90
      597
 90
      598
 90
      599
 90
      600
 90
      601
 90
      602
 90
      603
 90
      604
 90
      605
 90
      606
 90
      607
 90
      608
 90
      609
 90
      610
 90
      611
 90
      612
 90
      613
 90
      614
 90
      615
 90
      616
 90
      617
 90
      618
 90
      619
 90
      620
 90
      621
 90
      622
 90
      623
 90
      624
 90
      625
 90
      626
 90
      627
 90
      628
 90
      629
 90
      630
 90
      631
 90
      632
 90
      633
 90
      634
 90
      635
 90
      636
 90
      637
 90
      638
 90
      639
 90
      640
 90
      641
 90
      642
 90
      643
 90
      644
 90
      645
 90
      646
 90
      647
 90
      648
 90
      649
 90
      650
 90
      651
 90
      652
 90
      653
 90
      654
 90
      655
 90
      656
 90
      657
 90
      658
 90
      659
 90
      660
 90
      661
 90
      662
 90
      663
 90
      664
 90
      665
 90
      666
 90
      667
 90
      668
 90
      669
 90
      670
 90
      671
 90
      672
 90
      673
 90
      674
 90
      675
 90
      676
 90
      677
 90
      678
 90
      679
 90
      680
 90
      681
 90
      682
 90
      683
 90
      684
 90
      685
 90
      686
 90
      687
 90
      688
 90
      689
 90
      690
 90
      691
 90
      692
 90
      693
 90
      694
 90
      695
 90
      696
 90
      697
 90
      698
 90
      699
 90
      700
 90
      701
 90
      702
 90
      703
 90
      704
 90
      705
 90
      706
 90
      707
 90
      708
 90
      709
 90
      710
 90
      711
 90
      712
 90
      713
 90
      714
 90
      715
 90
      716
 90
      717
 90
      718
 90
      719
 90
      720
 90
      721
 90
      722
 90
      723
 90
      724
 90
      725
 90
      726
 90
      727
 90
      728
 90
      729
 90
      730
 90
      731
 90
      732
 90
      733
 90
      734
 90
      735
 90
      736
 90
      737
 90
      738
 90
      739
 90
      740
 90
      741
 90
      742
 90
      743
 90
      744
 90
      745
 90
      746
 90
      747
 90
      748
 90
      749
 90
      750
 90
      751
 90
      752
 90
      753
 90
      754
 90
      755
 90
      756
 90
      757
 90
      758
 90
      759
 90
      760
 90
      761
 90
      762
 90
      763
 90
      764
 90
      765
 90
      766
 90
      767
 90
      768
 90
      769
 90
      770
 90
      771
 90
      772
 90
      773
 90
      774
 90
      775
 90
      776
 90
      777
 90
      778
 90
      779
 90
      780
 90
      781
 90
      782
 90
      783
 90
      784
 90
      785
 90
      786
 90
      787
 90
      788
 90
      789
 90
      790
 90
      791
 90
      792
 90
      793
 90
      794
 90
      795
 90
      796
 90
      797
 90
      798
 90
      799
 90
      800
 90
      801
 90
      802
 90
      803
 90
      804
 90
      805
 90
      806
 90
      807
 90
      808
 90
      809
 90
      810
 90
      811
 90
      812
 90
      813
 90
      814
 90
      815
 90
      816
 90
      817
 90
      818
 90
      819
 90
      820
 90
      821
 90
      822
 90
      823
 90
      824
 90
      825
 90
      826
 90
      827
 90
      828
 90
      829
 90
      830
 90
      831
 90
      832
 90
      833
 90
      834
 90
      835
 90
      836
 90
      837
 90
      838
 90
      839
 90
      840
 90
      841
 90
      842
 90
      843
 90
      844
 90
      845
 90
      846
 90
      847
 90
      848
 90
      849
 90
      850
 90
      851
 90
      852
 90
      853
 90
      854
 90
      855
 90
      856
 90
      857
 90
      858
 90
      859
 90
      860
 90
      861
 90
      862
 90
      863
 90
      864
 90
      865
 90
      866
 90
      867
 90
      868
 90
      869
 90
      870
 90
      871
 90
      872
 90
      873
 90
      874
 90
      875
 90
      876
 90
      877
 90
      878
 90
      879
 90
      880
 90
      881
 90
      882
 90
      883
 90
      884
 90
      885
 90
      886
 90
      887
 90
      888
 90
      889
 90
      890
 90
      891
 90
      892
 90
      893
 90
      894
 90
      895
 90
      896
 90
      897
 90
      898
 90
      899
 90
      900
 90
      901
 90
      902
 90
      903
 90
      904
 90
      905
 90
      906
 90
      907
 90
      908
 90
      909
 90
      910
 90
      911
 90
      912
 90
      913
 90
      914
 90
      915
 90
      916
 90
      917
 90
      918
 90
      919
 90
      920
 90
      921
 90
      922
 90
      923
 90
      924
 90
      925
 90
      926
 90
      927
 90
      928
 90
      929
 90
      930
 90
      931
 90
      932
 90
      933
 90
      934
 90
      935
 90
      936
 90
      937
 90
      938
 90
      939
 90
      940
 90
      941
 90
      942
 90
      943
 90
      944
 90
      945
 90
      946
 90
      947
 90
      948
 90
      949
 90
      950
 90
      951
 90
      952
 90
      953
 90
      954
 90
      955
 90
      956
 90
      957
 90
      958
 90
      959
 90
      960
 90
      961
 90
      962
 90
      963
 90
      964
 90
      965
 90
      966
 90
      967
 90
      968
 90
      969
 90
      970
 90
      971
 90
      972
 90
      973
 90
      974
 90
      975
 90
      976
 90
      977
 90
      978
 90
      979
 90
      980
 90
      981
 90
      982
 90
      983
 90
      984
 90
      985
 90
      986
 90
      987
 90
      988
 90
      989
 90
      990
 90
      991
 90
      992
 90
      993
 90
      994
 90
      995
 90
      996
 90
      997
 90
      998
 90
      999
 90
     1000
 90
     1001
 90
     1002
 90
     1003
 90
     1004
 90
     1005
 90
     1006
 90
     1007
 90
     1008
 90
     1009
 90
     1010
 90
     1011
 90
     1012
 90
     1013
 90
     1014
 90
     1015
 90
     1016
 90
     1017
 90
     1018
 90
     1019
 90
     1020
 90
     1021
 90
     1022
 90
     1023
 90
     1024
 90
     1025
 90
     1026
 90
     1027
 90
     1028
 90
     1029
 90
     1030
 90
     1031
 90
     1032
 90
     1033
 90
     1034
 90
     1035
 90
     1036
 90
     1037
 90
     1038
 90
     1039
 90
     1040
 90
     1041
 90
     1042
 90
     1043
 90
     1044
 90
     1045
 90
     1046
 90
     1047
 90
     1048
 90
     1049
 90
     1050
 90
     1051
 90
     1052
 90
     1053
 90
     1054
 90
     1055
 90
     1056
 90
     1057
 90
     1058
 90
     1059
 90
     1060
 90
     1061
 90
     1062
 90
     1063
 90
     1064
 90
     1065
 90
     1066
 90
     1067
 90
     1068
 90
     1069
 90
     1070
 90
     1071
 90
     1072
 90
     1073
 90
     1074
 90
     1075
 90
     1076
 90
     1077
 90
     1078
 90
     1079
 90
     1080
 90
     1081
 90
     1082
 90
     1083
 90
     1084
 90
     1085
 90
     1086
 90
     1087
 90
     1088
 90
     1089
 90
     1090
 90
     1091
 90
     1092
 90
     1093
 90
     1094
 90
     1095
 90
     1096
 90
     1097
 90
     1098
 90
     1099
 90
     1100
 90
     1101
 90
     1102
 90
     1103
 90
     1104
 90
     1105
 90
     1106
 90
     1107
 90
     1108
 90
     1109
 90
     1110
 90
     1111
 90
     1112
 90
     1113
 90
     1114
 90
     1115
 90
     1116
 90
     1117
 90
     1118
 90
     1119
 90
     1120
 90
     1121
 90
     1122
 90
     1123
 90
     1124
 90
     1125
 90
     1126
 90
     1127
 90
     1128
 90
     1129
 90
     1130
 90
     1131
 90
     1132
 90
     1133
 90
     1134
 90
     1135
 90
     1136
 90
     1137
 90
     1138
 90
     1139
 90
     1140
 90
     1141
 90
     1142
 90
     1143
 90
     1144
 90
     1145
 90
     1146
 90
     1147
 90
     1148
 90
     1149
 90
     1150
 90
     1151
 90
     1152
 90
     1153
 90
     1154
 90
     1155
 90
     1156
 90
     1157
 90
     1158
 90
     1159
 90
     1160
 90
     1161
 90
     1162
 90
     1163
 90
     1164
 90
     1165
 90
     1166
 90
     1167
 90
     1168
 90
     1169
 90
     1170
 90
     1171
 90
     1172
 90
     1173
 90
     1174
 90
     1175
 90
     1176
 90
     1177
 90
     1178
 90
     1179
 90
     1180
 90
     1181
 90
     1182
 90
     1183
 90
     1184
 90
     1185
 90
     1186
 90
     1187
 90
     1188
 90
     1189
 90
     1190
 90
     1191
 90
     1192
 90
     1193
 90
     1194
 90
     1195
 90
     1196
 90
     1197
 90
     1198
 90
     1199
 90
     1200
 90
     1201
 90
     1202
 90
     1203
 90
     1204
 90
     1205
 90
     1206
 90
     1207
 90
     1208
 90
     1209
 90
     1210
 90
     1211
 90
     1212
 90
     1213
 90
     1214
 90
     1215
 90
     1216
 90
     1217
 90
     1218
 90
     1219
 90
     1220
 90
     1221
 90
     1222
 90
     1223
 90
     1224
 90
     1225
 90
     1226
 90
     1227
 90
     1228
 90
     1229
 90
     1230
 90
     1231
 90
     1232
 90
     1233
 90
     1234
 90
     1235
 90
     1236
 90
     1237
 90
     1238
 90
     1239
 90
     1240
 90
     1241
 90
     1242
 90
     1243
 90
     1244
 90
     1245
 90
     1246
 90
     1247
 90
     1248
 90
     1249
 90
     1250
 90
     1251
 90
     1252
 90
     1253
 90
     1254
 90
     1255
 90
     1256
 90
     1257
 90
     1258
 90
     1259
 90
     1260
 90
        0
 90
        0
290
     0
  0
XRECORD
  5
1A5
102
{ACAD_REACTORS
330
C
102
}
330
C
100
AcDbXrecord
280
     1
300
ACD
300
2022
300

  0
DICTIONARY
  5
73
102
{ACAD_REACTORS
330
C
102
}
330
C
100
AcDbDictionary
281
     1
  0
DICTIONARY
  5
1AB
102
{ACAD_REACTORS
330
C
102
}
330
C
100
AcDbDictionary
281
     1
  3
Imperial24
350
1AC
  3
Metric50
350
224
  0
DICTIONARY
  5
D
102
{ACAD_REACTORS
330
C
102
}
330
C
100
AcDbDictionary
281
     1
  0
DICTIONARY
  5
1A
102
{ACAD_REACTORS
330
C
102
}
330
C
100
AcDbDictionary
281
     1
  3
Layout1
350
59
  3
Layout2
350
5E
  3
Model
350
22
  0
DICTIONARY
  5
72
102
{ACAD_REACTORS
330
C
102
}
330
C
100
AcDbDictionary
281
     1
  3
ByBlock
350
97
  3
ByLayer
350
96
  3
Global
350
98
  0
DICTIONARY
  5
D7
102
{ACAD_REACTORS
330
C
102
}
330
C
100
AcDbDictionary
281
     1
  3
Standard
350
D8
  0
DICTIONARY
  5
17
102
{ACAD_REACTORS
330
C
102
}
330
C
100
AcDbDictionary
281
     1
  3
Standard
350
18
  0
DICTIONARY
  5
19
102
{ACAD_REACTORS
330
C
102
}
330
C
100
AcDbDictionary
281
     1
  0
ACDBDICTIONARYWDFLT
  5
E
102
{ACAD_REACTORS
330
C
102
}
330
C
100
AcDbDictionary
281
     1
  3
Normal
350
F
100
AcDbDictionaryWithDefault
340
F
  0
DICTIONARY
  5
B6
102
{ACAD_REACTORS
330
C
102
}
330
C
100
AcDbDictionary
281
     1
  3
*A1
350
2283
  3
A0
350
B7
  3
A1
350
124
  3
A2
350
125
  3
A3
350
126
  3
A4
350
127
  3
A5
350
128
  3
A6
350
129
  3
A7
350
12A
  3
A8
350
12B
  3
A9
350
12C
  3
B0
350
12D
  3
B1
350
12E
  3
B2
350
12F
  3
B3
350
130
  3
B4
350
131
  3
B5
350
132
  3
B6
350
133
  3
B7
350
134
  3
B8
350
135
  3
B9
350
136
  3
C0
350
137
  3
C1
350
138
  3
C2
350
139
  3
C3
350
13A
  3
C4
350
13B
  3
C5
350
13C
  3
C6
350
13D
  3
C7
350
13E
  3
C8
350
13F
  3
C9
350
140
  3
D0
350
141
  3
D1
350
142
  3
D2
350
143
  0
DICTIONARY
  5
1A8
102
{ACAD_REACTORS
330
C
102
}
330
C
100
AcDbDictionary
281
     1
  3
Imperial24
350
1AA
  3
Metric50
350
223
  0
DICTIONARY
  5
86
102
{ACAD_REACTORS
330
C
102
}
330
C
100
AcDbDictionary
281
     1
  3
Standard
350
87
  0
DICTIONARY
  5
99
102
{ACAD_REACTORS
330
C
102
}
330
C
100
AcDbDictionary
281
     1
  3
2dWireframe
350
9F
  3
3dWireframe
350
22946
  3
Basic
350
9E
  3
Brighten
350
A5
  3
ColorChange
350
A9
  3
Conceptual
350
A2
  3
Dim
350
A4
  3
EdgeColorOff
350
175
  3
Facepattern
350
A8
  3
Flat
350
9A
  3
FlatWithEdges
350
9B
  3
Gouraud
350
9C
  3
GouraudWithEdges
350
9D
  3
Hidden
350
A1
  3
JitterOff
350
173
  3
Linepattern
350
A7
  3
OverhangOff
350
174
  3
Realistic
350
A3
  3
Shaded
350
182
  3
Shaded with edges
350
181
  3
Shades of Gray
350
17E
  3
Sketchy
350
17F
  3
Thicken
350
A6
  3
Wireframe
350
A0
  3
X-Ray
350
180
  0
WIPEOUTVARIABLES
  5
59B06
102
{ACAD_REACTORS
330
C
102
}
330
C
100
AcDbWipeoutVariables
 70
     1
  0
XRECORD
  5
67411
102
{ACAD_REACTORS
330
C
102
}
330
C
100
AcDbXrecord
280
     1
 90
        1
330
87
  0
DICTIONARY
  5
4A0D5
102
{ACAD_REACTORS
330
C
102
}
330
C
100
AcDbDictionary
281
     2
  3
#COMPAREDIFFTOTAL
350
4A0D6
  3
#REVCLOUDAPPROXARCLEN
350
4A0D7
  3
ANNOALLVISIBLE
350
4A0D8
  3
CANNOSCALE
350
4A0D9
  3
CMLEADERSTYLE
350
4A0DA
  3
CTABLESTYLE
350
4A0DB
  3
CVIEWDETAILSTYLE
350
4A0DC
  3
CVIEWSECTIONSTYLE
350
4A0DD
  3
DIMADEC
350
4A0DE
  3
DIMASSOC
350
4A0DF
  3
DWFFRAME
350
4A0E0
  3
HIDETEXT
350
4A0E1
  3
HPCOLOR
350
4A0E2
  3
HPLAYER
350
4A0E3
  3
HPTRANSPARENCY
350
4A0E4
  3
INDEXCTL
350
4A0E5
  3
LAYEREVAL
350
4A0E6
  3
LAYERNOTIFY
350
4A0E7
  3
LIGHTINGUNITS
350
4A0E8
  3
MLEADERSCALE
350
4A0E9
  3
MSLTSCALE
350
4A0EA
  3
MSOLESCALE
350
4A0EB
  3
PDFFRAME
350
4A0EC
  3
POINTCLOUDCLIPFRAME
350
4A0ED
  3
PROJECTNAME
350
4A0EE
  3
SOLIDHIST
350
4A0EF
  3
SORTENTS
350
4A0F0
  0
DICTIONARY
  5
22D1
102
{ACAD_REACTORS
330
C
102
}
330
C
100
AcDbDictionary
281
     1
  0
DICTIONARY
  5
18F
102
{ACAD_REACTORS
330
18E
102
}
330
18E
100
AcDbDictionary
281
     1
  0
SORTENTSTABLE
  5
28E
102
{ACAD_REACTORS
330
15D
102
}
330
15D
100
AcDbSortentsTable
330
1F
  0
ACDBDETAILVIEWSTYLE
  5
1AC
102
{ACAD_REACTORS
330
1AB
102
}
330
1AB
100
AcDbModelDocViewStyle
 70
     0
  3
Imperial24
290
     0
300
Imperial24
 90
        0
100
AcDbDetailViewStyle
 70
     0
 71
     0
 90
        3
 71
     1
340
11
 62
   256
 40
0.24
340
0
 62
   256
 40
0.24
300

 40
0.36
280
     3
 71
     2
340
16
 90
       25
 62
   256
 71
     3
340
11
 62
   256
 40
0.24
 90
        1
 40
0.75
 90
        1
300
%<\AcVar ViewType \f "%tc1">% %<\AcVar ViewDetailId>%\PSCALE %<\AcVar ViewScale \f "%sn">%
 71
     4
340
16
 90
       25
 62
   256
340
16
 90
       25
 62
   256
280
     0
  0
ACDBDETAILVIEWSTYLE
  5
224
102
{ACAD_REACTORS
330
1AB
102
}
330
1AB
100
AcDbModelDocViewStyle
 70
     0
  3
Metric50
290
     0
300
Metric50
 90
        0
100
AcDbDetailViewStyle
 70
     0
 71
     0
 90
        3
 71
     1
340
11
 62
   256
 40
5.0
340
0
 62
   256
 40
5.0
300

 40
0.0
280
     1
 71
     2
340
16
 90
       25
 62
   256
 71
     3
340
11
 62
   256
 40
5.0
 90
        0
 40
15.0
 90
        1
300
%<\AcVar ViewDetailId>% (%<\AcVar ViewScale \f "%sn">%)
 71
     4
340
16
 90
       25
 62
   256
340
16
 90
       25
 62
   256
280
     0
  0
LAYOUT
  5
59
102
{ACAD_REACTORS
330
1A
102
}
330
1A
100
AcDbPlotSettings
  1

  2
None
  4

  6

 40
0.0
 41
0.0
 42
0.0
 43
0.0
 44
0.0
 45
0.0
 46
0.0
 47
0.0
 48
0.0
 49
0.0
140
0.0
141
0.0
142
1.0
143
1.0
 70
   688
 72
     0
 73
     0
 74
     5
  7

 75
    16
147
1.0
 76
     0
 77
     2
 78
   300
148
0.0
149
0.0
100
AcDbLayout
  1
Layout1
 70
     1
 71
     1
 10
0.0
 20
0.0
 11
12.0
 21
9.0
 12
0.0
 22
0.0
 32
0.0
 14
0.0
 24
0.0
 34
0.0
 15
0.0
 25
0.0
 35
0.0
146
0.0
 13
0.0
 23
0.0
 33
0.0
 16
1.0
 26
0.0
 36
0.0
 17
0.0
 27
1.0
 37
0.0
 76
     0
330
58
  0
LAYOUT
  5
5E
102
{ACAD_REACTORS
330
1A
102
}
330
1A
100
AcDbPlotSettings
  1

  2
None
  4

  6

 40
0.0
 41
0.0
 42
0.0
 43
0.0
 44
0.0
 45
0.0
 46
0.0
 47
0.0
 48
0.0
 49
0.0
140
0.0
141
0.0
142
1.0
143
1.0
 70
   688
 72
     0
 73
     0
 74
     5
  7

 75
    16
147
1.0
 76
     0
 77
     2
 78
   300
148
0.0
149
0.0
100
AcDbLayout
  1
Layout2
 70
     1
 71
     2
 10
0.0
 20
0.0
 11
12.0
 21
9.0
 12
0.0
 22
0.0
 32
0.0
 14
0.0
 24
0.0
 34
0.0
 15
0.0
 25
0.0
 35
0.0
146
0.0
 13
0.0
 23
0.0
 33
0.0
 16
1.0
 26
0.0
 36
0.0
 17
0.0
 27
1.0
 37
0.0
 76
     0
330
5D
  0
LAYOUT
  5
22
102
{ACAD_XDICTIONARY
360
194
102
}
102
{ACAD_REACTORS
330
1A
102
}
330
1A
100
AcDbPlotSettings
  1

  2
none_device
  4
ANSI_A_(8.50_x_11.00_Inches)
  6

 40
6.349999904632568
 41
19.04999923706055
 42
6.350006103515625
 43
19.04998779296875
 44
215.8999938964844
 45
279.3999938964844
 46
0.0
 47
0.0
 48
0.0
 49
0.0
140
0.0
141
0.0
142
1.0
143
2.584895464708373
 70
 11952
 72
     0
 73
     1
 74
     0
  7

 75
     0
147
0.3868628397755418
 76
     0
 77
     2
 78
   300
148
0.0
149
0.0
100
AcDbLayout
  1
Model
 70
     1
 71
     0
 10
0.0
 20
0.0
 11
12.0
 21
9.0
 12
0.0
 22
0.0
 32
0.0
 14
0.0
 24
0.0
 34
0.0
 15
0.0
 25
0.0
 35
0.0
146
0.0
 13
0.0
 23
0.0
 33
0.0
 16
1.0
 26
0.0
 36
0.0
 17
0.0
 27
1.0
 37
0.0
 76
     0
330
1F
331
94
  0
MATERIAL
  5
97
102
{ACAD_XDICTIONARY
360
188
102
}
102
{ACAD_REACTORS
330
72
102
}
330
72
100
AcDbMaterial
  1
ByBlock
 94
       63
  0
MATERIAL
  5
96
102
{ACAD_XDICTIONARY
360
186
102
}
102
{ACAD_REACTORS
330
72
102
}
330
72
100
AcDbMaterial
  1
ByLayer
 94
       63
  0
MATERIAL
  5
98
102
{ACAD_XDICTIONARY
360
110
102
}
102
{ACAD_REACTORS
330
72
102
}
330
72
100
AcDbMaterial
  1
Global
 43
0.0208000000566244
 43
0.0
 43
0.0
 43
0.0
 43
0.0
 43
0.0208000000566244
 43
0.0
 43
0.0
 43
0.0
 43
0.0
 43
1.0
 43
0.0
 43
0.0
 43
0.0
 43
0.0
 43
1.0
 49
0.0208000000566244
 49
0.0
 49
0.0
 49
0.0
 49
0.0
 49
0.0208000000566244
 49
0.0
 49
0.0
 49
0.0
 49
0.0
 49
1.0
 49
0.0
 49
0.0
 49
0.0
 49
0.0
 49
1.0
142
0.0208000000566244
142
0.0
142
0.0
142
0.0
142
0.0
142
0.0208000000566244
142
0.0
142
0.0
142
0.0
142
0.0
142
1.0
142
0.0
142
0.0
142
0.0
142
0.0
142
1.0
144
0.0208000000566244
144
0.0
144
0.0
144
0.0
144
0.0
144
0.0208000000566244
144
0.0
144
0.0
144
0.0
144
0.0
144
1.0
144
0.0
144
0.0
144
0.0
144
0.0
144
1.0
 94
       63
1001
ACAD
1070
    -1
1070
     3
1070
     0
1000

1071
        0
1070
     0
  0
MLEADERSTYLE
  5
D8
102
{ACAD_REACTORS
330
D7
102
}
330
D7
100
AcDbMLeaderStyle
179
     2
170
     2
171
     1
172
     0
 90
        2
 40
0.0
 41
0.0
173
     1
 91
-1056964608
340
14
 92
       -2
290
     1
 42
0.09
291
     1
 43
0.36
  3
Standard
 44
0.18
300

342
11
174
     1
178
     1
175
     1
176
     0
 93
-1056964608
 45
0.18
292
     0
297
     0
 46
0.18
 94
-1056964608
 47
1.0
 49
1.0
140
1.0
293
     1
141
0.0
294
     1
177
     0
142
1.0
295
     0
296
     0
143
0.125
271
     0
272
     9
273
     9
298
     0
  0
MLINESTYLE
  5
18
102
{ACAD_REACTORS
330
17
102
}
330
17
100
AcDbMlineStyle
  2
STANDARD
 70
     0
  3

 62
   256
 51
90.0
 52
90.0
 71
     2
 49
0.5
 62
   256
  6
BYLAYER
 49
-0.5
 62
   256
  6
BYLAYER
  0
ACDBPLACEHOLDER
  5
F
102
{ACAD_REACTORS
330
E
102
}
330
E
  0
SCALE
  5
2283
102
{ACAD_REACTORS
330
B6
102
}
330
B6
100
AcDbScale
 70
     0
300
1:75
140
1.0
141
75.0
290
     0
  0
SCALE
  5
B7
102
{ACAD_REACTORS
330
B6
102
}
330
B6
100
AcDbScale
 70
     0
300
1:1
140
1.0
141
1.0
290
     1
  0
SCALE
  5
124
102
{ACAD_REACTORS
330
B6
102
}
330
B6
100
AcDbScale
 70
     0
300
1:2
140
1.0
141
2.0
290
     0
  0
SCALE
  5
125
102
{ACAD_REACTORS
330
B6
102
}
330
B6
100
AcDbScale
 70
     0
300
1:4
140
1.0
141
4.0
290
     0
  0
SCALE
  5
126
102
{ACAD_REACTORS
330
B6
102
}
330
B6
100
AcDbScale
 70
     0
300
1:5
140
1.0
141
5.0
290
     0
  0
SCALE
  5
127
102
{ACAD_REACTORS
330
B6
102
}
330
B6
100
AcDbScale
 70
     0
300
1:8
140
1.0
141
8.0
290
     0
  0
SCALE
  5
128
102
{ACAD_REACTORS
330
B6
102
}
330
B6
100
AcDbScale
 70
     0
300
1:10
140
1.0
141
10.0
290
     0
  0
SCALE
  5
129
102
{ACAD_REACTORS
330
B6
102
}
330
B6
100
AcDbScale
 70
     0
300
1:16
140
1.0
141
16.0
290
     0
  0
SCALE
  5
12A
102
{ACAD_REACTORS
330
B6
102
}
330
B6
100
AcDbScale
 70
     0
300
1:20
140
1.0
141
20.0
290
     0
  0
SCALE
  5
12B
102
{ACAD_REACTORS
330
B6
102
}
330
B6
100
AcDbScale
 70
     0
300
1:30
140
1.0
141
30.0
290
     0
  0
SCALE
  5
12C
102
{ACAD_REACTORS
330
B6
102
}
330
B6
100
AcDbScale
 70
     0
300
1:40
140
1.0
141
40.0
290
     0
  0
SCALE
  5
12D
102
{ACAD_REACTORS
330
B6
102
}
330
B6
100
AcDbScale
 70
     0
300
1:50
140
1.0
141
50.0
290
     0
  0
SCALE
  5
12E
102
{ACAD_REACTORS
330
B6
102
}
330
B6
100
AcDbScale
 70
     0
300
1:100
140
1.0
141
100.0
290
     0
  0
SCALE
  5
12F
102
{ACAD_REACTORS
330
B6
102
}
330
B6
100
AcDbScale
 70
     0
300
2:1
140
2.0
141
1.0
290
     0
  0
SCALE
  5
130
102
{ACAD_REACTORS
330
B6
102
}
330
B6
100
AcDbScale
 70
     0
300
4:1
140
4.0
141
1.0
290
     0
  0
SCALE
  5
131
102
{ACAD_REACTORS
330
B6
102
}
330
B6
100
AcDbScale
 70
     0
300
8:1
140
8.0
141
1.0
290
     0
  0
SCALE
  5
132
102
{ACAD_REACTORS
330
B6
102
}
330
B6
100
AcDbScale
 70
     0
300
10:1
140
10.0
141
1.0
290
     0
  0
SCALE
  5
133
102
{ACAD_REACTORS
330
B6
102
}
330
B6
100
AcDbScale
 70
     0
300
100:1
140
100.0
141
1.0
290
     0
  0
SCALE
  5
134
102
{ACAD_REACTORS
330
B6
102
}
330
B6
100
AcDbScale
 70
     0
300
1/128" = 1'-0"
140
0.0078125
141
12.0
290
     0
  0
SCALE
  5
135
102
{ACAD_REACTORS
330
B6
102
}
330
B6
100
AcDbScale
 70
     0
300
1/64" = 1'-0"
140
0.015625
141
12.0
290
     0
  0
SCALE
  5
136
102
{ACAD_REACTORS
330
B6
102
}
330
B6
100
AcDbScale
 70
     0
300
1/32" = 1'-0"
140
0.03125
141
12.0
290
     0
  0
SCALE
  5
137
102
{ACAD_REACTORS
330
B6
102
}
330
B6
100
AcDbScale
 70
     0
300
1/16" = 1'-0"
140
0.0625
141
12.0
290
     0
  0
SCALE
  5
138
102
{ACAD_REACTORS
330
B6
102
}
330
B6
100
AcDbScale
 70
     0
300
3/32" = 1'-0"
140
0.09375
141
12.0
290
     0
  0
SCALE
  5
139
102
{ACAD_REACTORS
330
B6
102
}
330
B6
100
AcDbScale
 70
     0
300
1/8" = 1'-0"
140
0.125
141
12.0
290
     0
  0
SCALE
  5
13A
102
{ACAD_REACTORS
330
B6
102
}
330
B6
100
AcDbScale
 70
     0
300
3/16" = 1'-0"
140
0.1875
141
12.0
290
     0
  0
SCALE
  5
13B
102
{ACAD_REACTORS
330
B6
102
}
330
B6
100
AcDbScale
 70
     0
300
1/4" = 1'-0"
140
0.25
141
12.0
290
     0
  0
SCALE
  5
13C
102
{ACAD_REACTORS
330
B6
102
}
330
B6
100
AcDbScale
 70
     0
300
3/8" = 1'-0"
140
0.375
141
12.0
290
     0
  0
SCALE
  5
13D
102
{ACAD_REACTORS
330
B6
102
}
330
B6
100
AcDbScale
 70
     0
300
1/2" = 1'-0"
140
0.5
141
12.0
290
     0
  0
SCALE
  5
13E
102
{ACAD_REACTORS
330
B6
102
}
330
B6
100
AcDbScale
 70
     0
300
3/4" = 1'-0"
140
0.75
141
12.0
290
     0
  0
SCALE
  5
13F
102
{ACAD_REACTORS
330
B6
102
}
330
B6
100
AcDbScale
 70
     0
300
1" = 1'-0"
140
1.0
141
12.0
290
     0
  0
SCALE
  5
140
102
{ACAD_REACTORS
330
B6
102
}
330
B6
100
AcDbScale
 70
     0
300
1-1/2" = 1'-0"
140
1.5
141
12.0
290
     0
  0
SCALE
  5
141
102
{ACAD_REACTORS
330
B6
102
}
330
B6
100
AcDbScale
 70
     0
300
3" = 1'-0"
140
3.0
141
12.0
290
     0
  0
SCALE
  5
142
102
{ACAD_REACTORS
330
B6
102
}
330
B6
100
AcDbScale
 70
     0
300
6" = 1'-0"
140
6.0
141
12.0
290
     0
  0
SCALE
  5
143
102
{ACAD_REACTORS
330
B6
102
}
330
B6
100
AcDbScale
 70
     0
300
1'-0" = 1'-0"
140
12.0
141
12.0
290
     0
  0
ACDBSECTIONVIEWSTYLE
  5
1AA
102
{ACAD_REACTORS
330
1A8
102
}
330
1A8
100
AcDbModelDocViewStyle
 70
     0
  3
Imperial24
290
     0
300
Imperial24
 90
        0
100
AcDbSectionViewStyle
 70
     0
 71
     0
 90
       78
 71
     1
340
11
 62
   256
 40
0.24
340
0
340
0
 62
   256
 40
0.24
300
I, O, Q, S, X, Z
 40
0.48
 90
        3
 40
0.18
 90
        1
 71
     2
340
16
 90
       25
 62
   256
340
16
 90
       50
 62
   256
 40
0.24
 40
0.0
 40
0.24
 71
     3
340
11
 62
   256
 40
0.24
 90
        1
 40
0.75
 90
        1
300
%<\AcVar ViewType \f "%tc1">% %<\AcVar ViewSectionStartId>%-%<\AcVar ViewSectionEndId>%\PSCALE %<\AcVar ViewScale \f "%sn">%
 71
     4
 62
   256
 62
   257
300
ANSI31
 40
1.0
 90
        0
290
     0
290
     0
 90
        6
 40
0.0
 40
1.570796326794896
 40
0.2617993877991494
 40
1.308996938995747
 40
-0.2617993877991494
 40
1.832595714594046
  0
ACDBSECTIONVIEWSTYLE
  5
223
102
{ACAD_REACTORS
330
1A8
102
}
330
1A8
100
AcDbModelDocViewStyle
 70
     0
  3
Metric50
290
     0
300
Metric50
 90
        0
100
AcDbSectionViewStyle
 70
     0
 71
     0
 90
      102
 71
     1
340
11
 62
   256
 40
5.0
340
0
340
0
 62
   256
 40
5.0
300
I, O, Q, S, X, Z
 40
10.0
 90
        0
 40
2.5
 90
        0
 71
     2
340
16
 90
       25
 62
   256
340
16
 90
       50
 62
   256
 40
5.0
 40
2.5
 40
5.0
 71
     3
340
11
 62
   256
 40
5.0
 90
        0
 40
15.0
 90
        1
300
%<\AcVar ViewSectionStartId>%-%<\AcVar ViewSectionEndId>% (%<\AcVar ViewScale \f "%sn">%)
 71
     4
 62
   256
 62
   257
300
ANSI31
 40
1.0
 90
        0
290
     0
290
     0
 90
        6
 40
0.0
 40
1.570796326794896
 40
0.2617993877991494
 40
1.308996938995747
 40
-0.2617993877991494
 40
1.832595714594046
  0
TABLESTYLE
  5
87
102
{ACAD_XDICTIONARY
360
104
102
}
102
{ACAD_REACTORS
330
86
102
}
330
86
100
AcDbTableStyle
280
     0
  3
Standard
 70
     0
 71
     0
 40
0.06
 41
0.06
280
     0
281
     0
  7
Standard
140
0.18
170
     2
 62
     0
 63
     7
283
     0
 90
      512
 91
        0
  1

274
    -2
284
     1
 64
     0
275
    -2
285
     1
 65
     0
276
    -2
286
     1
 66
     0
277
    -2
287
     1
 67
     0
278
    -2
288
     1
 68
     0
279
    -2
289
     1
 69
     0
  7
Standard
140
0.25
170
     5
 62
     0
 63
     7
283
     0
 90
      512
 91
        0
  1

274
    -2
284
     1
 64
     0
275
    -2
285
     1
 65
     0
276
    -2
286
     1
 66
     0
277
    -2
287
     1
 67
     0
278
    -2
288
     1
 68
     0
279
    -2
289
     1
 69
     0
  7
Standard
140
0.18
170
     5
 62
     0
 63
     7
283
     0
 90
      512
 91
        0
  1

274
    -2
284
     1
 64
     0
275
    -2
285
     1
 65
     0
276
    -2
286
     1
 66
     0
277
    -2
287
     1
 67
     0
278
    -2
288
     1
 68
     0
279
    -2
289
     1
 69
     0
  0
VISUALSTYLE
  5
9F
102
{ACAD_REACTORS
330
99
102
}
330
99
100
AcDbVisualStyle
  2
2dWireframe
 70
     4
177
     3
291
     0
 70
    58
 90
        0
176
     1
 90
        2
176
     1
 90
        1
176
     1
 90
        0
176
     1
 40
0.6
176
     1
 40
30.0
176
     1
 62
     7
420
 16777215
176
     1
 90
        1
176
     1
 90
        4
176
     1
 62
     7
176
     1
 62
   257
176
     1
 90
        1
176
     1
 90
        1
176
     1
 40
1.0
176
     1
 90
        0
176
     1
 62
   257
176
     1
 40
1.0
176
     1
 90
        1
176
     1
 90
        6
176
     1
 90
        2
176
     1
 62
     7
176
     1
 90
        5
176
     1
 90
        0
176
     1
 90
        0
176
     1
290
     0
176
     1
 90
        1
176
     1
 40
0.0
176
     1
 90
        0
176
     1
290
     1
176
     1
290
     1
176
     1
290
     0
176
     1
290
     0
176
     1
290
     0
176
     1
290
     0
176
     1
290
     0
176
     1
290
     0
176
     1
290
     0
176
     1
 90
       50
176
     1
 40
0.0
176
     1
 40
1.0
176
     1
 90
        0
176
     1
 62
    18
420
        0
176
     1
 90
       50
176
     1
 90
        3
176
     1
 62
     5
420
      255
176
     1
290
     0
176
     1
 90
       50
176
     1
 90
       50
176
     1
 90
       50
176
     1
290
     0
176
     1
 90
       50
176
     1
 62
   256
176
     0
 40
1.0
176
     0
 90
        2
176
     1
  1
strokes_ogs.tif
176
     1
290
     0
176
     1
 40
1.0
176
     1
 40
1.0
176
     1
  0
VISUALSTYLE
  5
22946
102
{ACAD_REACTORS
330
99
102
}
330
99
100
AcDbVisualStyle
  2
3dWireframe
 70
     5
177
     3
291
     0
 70
    58
 90
        0
176
     1
 90
        2
176
     1
 90
        0
176
     1
 90
        0
176
     1
 40
0.6
176
     1
 40
30.0
176
     1
 62
     7
176
     1
 90
        1
176
     1
 90
        4
176
     1
 62
     7
176
     1
 62
   257
176
     1
 90
        1
176
     1
 90
        1
176
     1
 40
1.0
176
     1
 90
        0
176
     1
 62
   257
176
     1
 40
1.0
176
     1
 90
        1
176
     1
 90
        6
176
     1
 90
        2
176
     1
 62
     7
176
     1
 90
        5
176
     1
 90
        0
176
     1
 90
        0
176
     1
290
     0
176
     1
 90
        1
176
     1
 40
0.0
176
     1
 90
        0
176
     1
290
     0
176
     1
290
     1
176
     1
290
     1
176
     1
290
     0
176
     1
290
     0
176
     1
290
     0
176
     1
290
     0
176
     1
290
     0
176
     1
290
     0
176
     1
 90
       50
176
     1
 40
0.0
176
     1
 40
1.0
176
     1
 90
        0
176
     1
 62
    18
420
        0
176
     1
 90
       50
176
     1
 90
        3
176
     1
 62
     5
420
      255
176
     1
290
     0
176
     1
 90
       50
176
     1
 90
       50
176
     1
 90
       50
176
     1
290
     0
176
     1
 90
       50
176
     1
 62
   256
176
     0
 40
1.0
176
     0
 90
        2
176
     1
  1
strokes_ogs.tif
176
     1
290
     0
176
     1
 40
1.0
176
     1
 40
1.0
176
     1
  0
VISUALSTYLE
  5
9E
102
{ACAD_REACTORS
330
99
102
}
330
99
100
AcDbVisualStyle
  2
Basic
 70
     7
177
     3
291
     1
 70
    58
 90
        1
176
     1
 90
        0
176
     1
 90
        1
176
     1
 90
        0
176
     1
 40
0.6
176
     1
 40
30.0
176
     1
 62
     7
420
 16777215
176
     1
 90
        0
176
     1
 90
        4
176
     1
 62
     7
176
     1
 62
   257
176
     1
 90
        1
176
     1
 90
        1
176
     1
 40
1.0
176
     1
 90
        8
176
     1
 62
     7
176
     1
 40
1.0
176
     1
 90
        1
176
     1
 90
        6
176
     1
 90
        2
176
     1
 62
     7
176
     1
 90
        5
176
     1
 90
        0
176
     1
 90
        0
176
     1
290
     0
176
     1
 90
        1
176
     1
 40
0.0
176
     1
 90
        0
176
     1
290
     0
176
     1
290
     1
176
     1
290
     1
176
     1
290
     0
176
     1
290
     0
176
     1
290
     0
176
     1
290
     0
176
     1
290
     0
176
     1
290
     0
176
     1
 90
       50
176
     1
 40
0.0
176
     1
 40
1.0
176
     1
 90
        0
176
     1
 62
    18
420
        0
176
     1
 90
       50
176
     1
 90
        3
176
     1
 62
     5
420
      255
176
     1
290
     0
176
     1
 90
       50
176
     1
 90
       50
176
     1
 90
       50
176
     1
290
     0
176
     1
 90
       50
176
     1
 62
   256
176
     0
 40
1.0
176
     0
 90
        2
176
     1
  1
strokes_ogs.tif
176
     1
290
     0
176
     1
 40
1.0
176
     1
 40
1.0
176
     1
  0
VISUALSTYLE
  5
A5
102
{ACAD_REACTORS
330
99
102
}
330
99
100
AcDbVisualStyle
  2
Brighten
 70
    12
177
     3
291
     1
 70
    58
 90
        2
176
     1
 90
        2
176
     1
 90
        1
176
     1
 90
        0
176
     1
 40
0.6
176
     1
 40
30.0
176
     1
 62
     7
420
 16777215
176
     1
 90
        1
176
     1
 90
        4
176
     1
 62
     7
176
     1
 62
   257
176
     1
 90
        1
176
     1
 90
        1
176
     1
 40
1.0
176
     1
 90
        8
176
     1
 62
     7
176
     1
 40
1.0
176
     1
 90
        1
176
     1
 90
        6
176
     1
 90
        2
176
     1
 62
     7
176
     1
 90
        5
176
     1
 90
        0
176
     1
 90
        0
176
     1
290
     0
176
     1
 90
        1
176
     1
 40
50.0
176
     1
 90
        0
176
     1
290
     0
176
     1
290
     1
176
     1
290
     1
176
     1
290
     0
176
     1
290
     0
176
     1
290
     0
176
     1
290
     0
176
     1
290
     0
176
     1
290
     0
176
     1
 90
       50
176
     1
 40
0.0
176
     1
 40
1.0
176
     1
 90
        0
176
     1
 62
    18
420
        0
176
     1
 90
       50
176
     1
 90
        3
176
     1
 62
     5
420
      255
176
     1
290
     0
176
     1
 90
       50
176
     1
 90
       50
176
     1
 90
       50
176
     1
290
     0
176
     1
 90
       50
176
     1
 62
   256
176
     0
 40
1.0
176
     0
 90
        2
176
     1
  1
strokes_ogs.tif
176
     1
290
     0
176
     1
 40
1.0
176
     1
 40
1.0
176
     1
  0
VISUALSTYLE
  5
A9
102
{ACAD_REACTORS
330
99
102
}
330
99
100
AcDbVisualStyle
  2
ColorChange
 70
    16
177
     3
291
     1
 70
    58
 90
        2
176
     1
 90
        2
176
     1
 90
        3
176
     1
 90
        0
176
     1
 40
0.6
176
     1
 40
30.0
176
     1
 62
     8
420
  8421504
176
     1
 90
        1
176
     1
 90
        4
176
     1
 62
     7
176
     1
 62
   257
176
     1
 90
        1
176
     1
 90
        1
176
     1
 40
1.0
176
     1
 90
        8
176
     1
 62
     8
420
  8421504
176
     1
 40
1.0
176
     1
 90
        1
176
     1
 90
        6
176
     1
 90
        2
176
     1
 62
     7
176
     1
 90
        5
176
     1
 90
        0
176
     1
 90
        0
176
     1
290
     0
176
     1
 90
        1
176
     1
 40
0.0
176
     1
 90
        0
176
     1
290
     0
176
     1
290
     1
176
     1
290
     1
176
     1
290
     0
176
     1
290
     0
176
     1
290
     0
176
     1
290
     0
176
     1
290
     0
176
     1
290
     0
176
     1
 90
       50
176
     1
 40
0.0
176
     1
 40
1.0
176
     1
 90
        0
176
     1
 62
    18
420
        0
176
     1
 90
       50
176
     1
 90
        3
176
     1
 62
     5
420
      255
176
     1
290
     0
176
     1
 90
       50
176
     1
 90
       50
176
     1
 90
       50
176
     1
290
     0
176
     1
 90
       50
176
     1
 62
   256
176
     0
 40
1.0
176
     0
 90
        2
176
     1
  1
strokes_ogs.tif
176
     1
290
     0
176
     1
 40
1.0
176
     1
 40
1.0
176
     1
  0
VISUALSTYLE
  5
A2
102
{ACAD_REACTORS
330
99
102
}
330
99
100
AcDbVisualStyle
  2
Conceptual
 70
     9
177
     3
291
     0
 70
    58
 90
        3
176
     1
 90
        2
176
     1
 90
        1
176
     1
 90
        0
176
     1
 40
0.6
176
     1
 40
30.0
176
     1
 62
     7
420
 16777215
176
     1
 90
        2
176
     1
 90
        2
176
     1
 62
     7
176
     1
 62
   257
176
     1
 90
        1
176
     1
 90
        1
176
     1
 40
40.0
176
     1
 90
        8
176
     1
 62
     7
176
     1
 40
1.0
176
     1
 90
        1
176
     1
 90
        6
176
     1
 90
        2
176
     1
 62
     7
176
     1
 90
        3
176
     1
 90
        0
176
     1
 90
        0
176
     1
290
     0
176
     1
 90
        1
176
     1
 40
0.0
176
     1
 90
        0
176
     1
290
     0
176
     1
290
     1
176
     1
290
     1
176
     1
290
     0
176
     1
290
     0
176
     1
290
     0
176
     1
290
     0
176
     1
290
     0
176
     1
290
     0
176
     1
 90
       50
176
     1
 40
0.0
176
     1
 40
1.0
176
     1
 90
        0
176
     1
 62
    18
420
        0
176
     1
 90
       50
176
     1
 90
        3
176
     1
 62
     5
420
      255
176
     1
290
     0
176
     1
 90
       50
176
     1
 90
       50
176
     1
 90
       50
176
     1
290
     0
176
     1
 90
       50
176
     1
 62
   256
176
     0
 40
1.0
176
     0
 90
        2
176
     1
  1
strokes_ogs.tif
176
     1
290
     0
176
     1
 40
1.0
176
     1
 40
1.0
176
     1
  0
VISUALSTYLE
  5
A4
102
{ACAD_REACTORS
330
99
102
}
330
99
100
AcDbVisualStyle
  2
Dim
 70
    11
177
     3
291
     1
 70
    58
 90
        2
176
     1
 90
        2
176
     1
 90
        1
176
     1
 90
        0
176
     1
 40
0.6
176
     1
 40
30.0
176
     1
 62
     7
420
 16777215
176
     1
 90
        1
176
     1
 90
        4
176
     1
 62
     7
176
     1
 62
   257
176
     1
 90
        1
176
     1
 90
        1
176
     1
 40
1.0
176
     1
 90
        8
176
     1
 62
     7
176
     1
 40
1.0
176
     1
 90
        1
176
     1
 90
        6
176
     1
 90
        2
176
     1
 62
     7
176
     1
 90
        5
176
     1
 90
        0
176
     1
 90
        0
176
     1
290
     0
176
     1
 90
        1
176
     1
 40
-50.0
176
     1
 90
        0
176
     1
290
     0
176
     1
290
     1
176
     1
290
     1
176
     1
290
     0
176
     1
290
     0
176
     1
290
     0
176
     1
290
     0
176
     1
290
     0
176
     1
290
     0
176
     1
 90
       50
176
     1
 40
0.0
176
     1
 40
1.0
176
     1
 90
        0
176
     1
 62
    18
420
        0
176
     1
 90
       50
176
     1
 90
        3
176
     1
 62
     5
420
      255
176
     1
290
     0
176
     1
 90
       50
176
     1
 90
       50
176
     1
 90
       50
176
     1
290
     0
176
     1
 90
       50
176
     1
 62
   256
176
     0
 40
1.0
176
     0
 90
        2
176
     1
  1
strokes_ogs.tif
176
     1
290
     0
176
     1
 40
1.0
176
     1
 40
1.0
176
     1
  0
VISUALSTYLE
  5
175
102
{ACAD_REACTORS
330
99
102
}
330
99
100
AcDbVisualStyle
  2
EdgeColorOff
 70
    22
177
     3
291
     1
 70
    58
 90
        2
176
     0
 90
        2
176
     0
 90
        0
176
     0
 90
        0
176
     0
 40
0.6
176
     0
 40
30.0
176
     0
 62
     7
420
 16777215
176
     0
 90
        1
176
     0
 90
        4
176
     0
 62
     7
176
     0
 62
   257
176
     0
 90
        1
176
     0
 90
        1
176
     0
 40
1.0
176
     0
 90
        8
176
     2
 62
     7
176
     0
 40
1.0
176
     0
 90
        1
176
     0
 90
        6
176
     0
 90
        2
176
     0
 62
     7
176
     0
 90
        5
176
     0
 90
        0
176
     0
 90
        0
176
     0
290
     0
176
     0
 90
        1
176
     0
 40
0.0
176
     0
 90
        0
176
     0
290
     0
176
     1
290
     1
176
     1
290
     1
176
     1
290
     0
176
     1
290
     0
176
     1
290
     0
176
     1
290
     0
176
     1
290
     0
176
     1
290
     0
176
     1
 90
       50
176
     1
 40
0.0
176
     1
 40
1.0
176
     1
 90
        0
176
     1
 62
    18
420
        0
176
     1
 90
       50
176
     1
 90
        3
176
     1
 62
     5
420
      255
176
     1
290
     0
176
     1
 90
       50
176
     1
 90
       50
176
     1
 90
       50
176
     1
290
     0
176
     1
 90
       50
176
     1
 62
   256
176
     0
 40
1.0
176
     0
 90
        2
176
     1
  1
strokes_ogs.tif
176
     1
290
     0
176
     1
 40
1.0
176
     1
 40
1.0
176
     1
  0
VISUALSTYLE
  5
A8
102
{ACAD_REACTORS
330
99
102
}
330
99
100
AcDbVisualStyle
  2
Facepattern
 70
    15
177
     3
291
     1
 70
    58
 90
        2
176
     1
 90
        2
176
     1
 90
        1
176
     1
 90
        0
176
     1
 40
0.6
176
     1
 40
30.0
176
     1
 62
     7
420
 16777215
176
     1
 90
        1
176
     1
 90
        4
176
     1
 62
     7
176
     1
 62
   257
176
     1
 90
        1
176
     1
 90
        1
176
     1
 40
1.0
176
     1
 90
        8
176
     1
 62
     7
176
     1
 40
1.0
176
     1
 90
        1
176
     1
 90
        6
176
     1
 90
        2
176
     1
 62
     7
176
     1
 90
        5
176
     1
 90
        0
176
     1
 90
        0
176
     1
290
     0
176
     1
 90
        1
176
     1
 40
0.0
176
     1
 90
        0
176
     1
290
     0
176
     1
290
     1
176
     1
290
     1
176
     1
290
     0
176
     1
290
     0
176
     1
290
     0
176
     1
290
     0
176
     1
290
     0
176
     1
290
     0
176
     1
 90
       50
176
     1
 40
0.0
176
     1
 40
1.0
176
     1
 90
        0
176
     1
 62
    18
420
        0
176
     1
 90
       50
176
     1
 90
        3
176
     1
 62
     5
420
      255
176
     1
290
     0
176
     1
 90
       50
176
     1
 90
       50
176
     1
 90
       50
176
     1
290
     0
176
     1
 90
       50
176
     1
 62
   256
176
     0
 40
1.0
176
     0
 90
        2
176
     1
  1
strokes_ogs.tif
176
     1
290
     0
176
     1
 40
1.0
176
     1
 40
1.0
176
     1
  0
VISUALSTYLE
  5
9A
102
{ACAD_REACTORS
330
99
102
}
330
99
100
AcDbVisualStyle
  2
Flat
 70
     0
177
     3
291
     1
 70
    58
 90
        2
176
     1
 90
        1
176
     1
 90
        1
176
     1
 90
        2
176
     1
 40
0.6
176
     1
 40
30.0
176
     1
 62
     7
420
 16777215
176
     1
 90
        0
176
     1
 90
        0
176
     1
 62
     7
176
     1
 62
   257
176
     1
 90
        1
176
     1
 90
        1
176
     1
 40
1.0
176
     1
 90
        8
176
     1
 62
     7
176
     1
 40
1.0
176
     1
 90
        1
176
     1
 90
        6
176
     1
 90
        2
176
     1
 62
     7
176
     1
 90
        5
176
     1
 90
        0
176
     1
 90
        0
176
     1
290
     0
176
     1
 90
       13
176
     1
 40
0.0
176
     1
 90
        0
176
     1
290
     0
176
     1
290
     1
176
     1
290
     1
176
     1
290
     0
176
     1
290
     0
176
     1
290
     0
176
     1
290
     0
176
     1
290
     0
176
     1
290
     0
176
     1
 90
       50
176
     1
 40
0.0
176
     1
 40
1.0
176
     1
 90
        0
176
     1
 62
    18
420
        0
176
     1
 90
       50
176
     1
 90
        3
176
     1
 62
     5
420
      255
176
     1
290
     0
176
     1
 90
       50
176
     1
 90
       50
176
     1
 90
       50
176
     1
290
     0
176
     1
 90
       50
176
     1
 62
   256
176
     0
 40
1.0
176
     0
 90
        2
176
     1
  1
strokes_ogs.tif
176
     1
290
     0
176
     1
 40
1.0
176
     1
 40
1.0
176
     1
  0
VISUALSTYLE
  5
9B
102
{ACAD_REACTORS
330
99
102
}
330
99
100
AcDbVisualStyle
  2
FlatWithEdges
 70
     1
177
     3
291
     1
 70
    58
 90
        2
176
     1
 90
        1
176
     1
 90
        1
176
     1
 90
        2
176
     1
 40
0.6
176
     1
 40
30.0
176
     1
 62
     7
420
 16777215
176
     1
 90
        1
176
     1
 90
        0
176
     1
 62
     7
176
     1
 62
   257
176
     1
 90
        1
176
     1
 90
        1
176
     1
 40
1.0
176
     1
 90
        0
176
     1
 62
   257
176
     1
 40
1.0
176
     1
 90
        1
176
     1
 90
        6
176
     1
 90
        2
176
     1
 62
     7
176
     1
 90
        5
176
     1
 90
        0
176
     1
 90
        0
176
     1
290
     0
176
     1
 90
       13
176
     1
 40
0.0
176
     1
 90
        0
176
     1
290
     0
176
     1
290
     1
176
     1
290
     1
176
     1
290
     0
176
     1
290
     0
176
     1
290
     0
176
     1
290
     0
176
     1
290
     0
176
     1
290
     0
176
     1
 90
       50
176
     1
 40
0.0
176
     1
 40
1.0
176
     1
 90
        0
176
     1
 62
    18
420
        0
176
     1
 90
       50
176
     1
 90
        3
176
     1
 62
     5
420
      255
176
     1
290
     0
176
     1
 90
       50
176
     1
 90
       50
176
     1
 90
       50
176
     1
290
     0
176
     1
 90
       50
176
     1
 62
   256
176
     0
 40
1.0
176
     0
 90
        2
176
     1
  1
strokes_ogs.tif
176
     1
290
     0
176
     1
 40
1.0
176
     1
 40
1.0
176
     1
  0
VISUALSTYLE
  5
9C
102
{ACAD_REACTORS
330
99
102
}
330
99
100
AcDbVisualStyle
  2
Gouraud
 70
     2
177
     3
291
     1
 70
    58
 90
        2
176
     1
 90
        2
176
     1
 90
        1
176
     1
 90
        2
176
     1
 40
0.6
176
     1
 40
30.0
176
     1
 62
     7
420
 16777215
176
     1
 90
        0
176
     1
 90
        0
176
     1
 62
     7
176
     1
 62
   257
176
     1
 90
        1
176
     1
 90
        1
176
     1
 40
1.0
176
     1
 90
        0
176
     1
 62
     7
176
     1
 40
1.0
176
     1
 90
        1
176
     1
 90
        6
176
     1
 90
        2
176
     1
 62
     7
176
     1
 90
        5
176
     1
 90
        0
176
     1
 90
        0
176
     1
290
     0
176
     1
 90
       13
176
     1
 40
0.0
176
     1
 90
        0
176
     1
290
     0
176
     1
290
     1
176
     1
290
     1
176
     1
290
     0
176
     1
290
     0
176
     1
290
     0
176
     1
290
     0
176
     1
290
     0
176
     1
290
     0
176
     1
 90
       50
176
     1
 40
0.0
176
     1
 40
1.0
176
     1
 90
        0
176
     1
 62
    18
420
        0
176
     1
 90
       50
176
     1
 90
        3
176
     1
 62
     5
420
      255
176
     1
290
     0
176
     1
 90
       50
176
     1
 90
       50
176
     1
 90
       50
176
     1
290
     0
176
     1
 90
       50
176
     1
 62
   256
176
     0
 40
1.0
176
     0
 90
        2
176
     1
  1
strokes_ogs.tif
176
     1
290
     0
176
     1
 40
1.0
176
     1
 40
1.0
176
     1
  0
VISUALSTYLE
  5
9D
102
{ACAD_REACTORS
330
99
102
}
330
99
100
AcDbVisualStyle
  2
GouraudWithEdges
 70
     3
177
     3
291
     1
 70
    58
 90
        2
176
     1
 90
        2
176
     1
 90
        1
176
     1
 90
        2
176
     1
 40
0.6
176
     1
 40
30.0
176
     1
 62
     7
420
 16777215
176
     1
 90
        1
176
     1
 90
        0
176
     1
 62
     7
176
     1
 62
   257
176
     1
 90
        1
176
     1
 90
        1
176
     1
 40
1.0
176
     1
 90
        0
176
     1
 62
   257
176
     1
 40
1.0
176
     1
 90
        1
176
     1
 90
        6
176
     1
 90
        2
176
     1
 62
     7
176
     1
 90
        5
176
     1
 90
        0
176
     1
 90
        0
176
     1
290
     0
176
     1
 90
       13
176
     1
 40
0.0
176
     1
 90
        0
176
     1
290
     0
176
     1
290
     1
176
     1
290
     1
176
     1
290
     0
176
     1
290
     0
176
     1
290
     0
176
     1
290
     0
176
     1
290
     0
176
     1
290
     0
176
     1
 90
       50
176
     1
 40
0.0
176
     1
 40
1.0
176
     1
 90
        0
176
     1
 62
    18
420
        0
176
     1
 90
       50
176
     1
 90
        3
176
     1
 62
     5
420
      255
176
     1
290
     0
176
     1
 90
       50
176
     1
 90
       50
176
     1
 90
       50
176
     1
290
     0
176
     1
 90
       50
176
     1
 62
   256
176
     0
 40
1.0
176
     0
 90
        2
176
     1
  1
strokes_ogs.tif
176
     1
290
     0
176
     1
 40
1.0
176
     1
 40
1.0
176
     1
  0
VISUALSTYLE
  5
A1
102
{ACAD_REACTORS
330
99
102
}
330
99
100
AcDbVisualStyle
  2
Hidden
 70
     6
177
     3
291
     0
 70
    58
 90
        1
176
     1
 90
        2
176
     1
 90
        2
176
     1
 90
        0
176
     1
 40
0.6
176
     1
 40
30.0
176
     1
 62
     7
420
 16777215
176
     1
 90
        2
176
     1
 90
        2
176
     1
 62
     7
176
     1
 62
   257
176
     1
 90
        2
176
     1
 90
        1
176
     1
 40
40.0
176
     1
 90
        0
176
     1
 62
   257
176
     1
 40
1.0
176
     1
 90
        1
176
     1
 90
        6
176
     1
 90
        2
176
     1
 62
     7
176
     1
 90
        3
176
     1
 90
        0
176
     1
 90
        0
176
     1
290
     0
176
     1
 90
        1
176
     1
 40
0.0
176
     1
 90
        0
176
     1
290
     0
176
     1
290
     1
176
     1
290
     1
176
     1
290
     0
176
     1
290
     0
176
     1
290
     0
176
     1
290
     0
176
     1
290
     0
176
     1
290
     0
176
     1
 90
       50
176
     1
 40
0.0
176
     1
 40
1.0
176
     1
 90
        0
176
     1
 62
    18
420
        0
176
     1
 90
       50
176
     1
 90
        3
176
     1
 62
     5
420
      255
176
     1
290
     0
176
     1
 90
       50
176
     1
 90
       50
176
     1
 90
       50
176
     1
290
     0
176
     1
 90
       50
176
     1
 62
   256
176
     0
 40
1.0
176
     0
 90
        2
176
     1
  1
strokes_ogs.tif
176
     1
290
     0
176
     1
 40
1.0
176
     1
 40
1.0
176
     1
  0
VISUALSTYLE
  5
173
102
{ACAD_REACTORS
330
99
102
}
330
99
100
AcDbVisualStyle
  2
JitterOff
 70
    20
177
     3
291
     1
 70
    58
 90
        2
176
     0
 90
        2
176
     0
 90
        0
176
     0
 90
        0
176
     0
 40
0.6
176
     0
 40
30.0
176
     0
 62
     7
420
 16777215
176
     0
 90
        1
176
     0
 90
        4
176
     0
 62
     7
176
     0
 62
   257
176
     0
 90
        1
176
     0
 90
        1
176
     0
 40
1.0
176
     0
 90
       10
176
     2
 62
     7
176
     0
 40
1.0
176
     0
 90
        1
176
     0
 90
        6
176
     0
 90
        2
176
     0
 62
     7
176
     0
 90
        5
176
     0
 90
        0
176
     0
 90
        0
176
     0
290
     0
176
     0
 90
        1
176
     0
 40
0.0
176
     0
 90
        0
176
     0
290
     0
176
     1
290
     1
176
     1
290
     1
176
     1
290
     0
176
     1
290
     0
176
     1
290
     0
176
     1
290
     0
176
     1
290
     0
176
     1
290
     0
176
     1
 90
       50
176
     1
 40
0.0
176
     1
 40
1.0
176
     1
 90
        0
176
     1
 62
    18
420
        0
176
     1
 90
       50
176
     1
 90
        3
176
     1
 62
     5
420
      255
176
     1
290
     0
176
     1
 90
       50
176
     1
 90
       50
176
     1
 90
       50
176
     1
290
     0
176
     1
 90
       50
176
     1
 62
   256
176
     0
 40
1.0
176
     0
 90
        2
176
     1
  1
strokes_ogs.tif
176
     1
290
     0
176
     1
 40
1.0
176
     1
 40
1.0
176
     1
  0
VISUALSTYLE
  5
A7
102
{ACAD_REACTORS
330
99
102
}
330
99
100
AcDbVisualStyle
  2
Linepattern
 70
    14
177
     3
291
     1
 70
    58
 90
        2
176
     1
 90
        2
176
     1
 90
        1
176
     1
 90
        0
176
     1
 40
0.6
176
     1
 40
30.0
176
     1
 62
     7
420
 16777215
176
     1
 90
        1
176
     1
 90
        4
176
     1
 62
     7
176
     1
 62
   257
176
     1
 90
        7
176
     1
 90
        7
176
     1
 40
1.0
176
     1
 90
        8
176
     1
 62
     7
176
     1
 40
1.0
176
     1
 90
        1
176
     1
 90
        6
176
     1
 90
        2
176
     1
 62
     7
176
     1
 90
        5
176
     1
 90
        0
176
     1
 90
        0
176
     1
290
     0
176
     1
 90
        1
176
     1
 40
0.0
176
     1
 90
        0
176
     1
290
     0
176
     1
290
     1
176
     1
290
     1
176
     1
290
     0
176
     1
290
     0
176
     1
290
     0
176
     1
290
     0
176
     1
290
     0
176
     1
290
     0
176
     1
 90
       50
176
     1
 40
0.0
176
     1
 40
1.0
176
     1
 90
        0
176
     1
 62
    18
420
        0
176
     1
 90
       50
176
     1
 90
        3
176
     1
 62
     5
420
      255
176
     1
290
     0
176
     1
 90
       50
176
     1
 90
       50
176
     1
 90
       50
176
     1
290
     0
176
     1
 90
       50
176
     1
 62
   256
176
     0
 40
1.0
176
     0
 90
        2
176
     1
  1
strokes_ogs.tif
176
     1
290
     0
176
     1
 40
1.0
176
     1
 40
1.0
176
     1
  0
VISUALSTYLE
  5
174
102
{ACAD_REACTORS
330
99
102
}
330
99
100
AcDbVisualStyle
  2
OverhangOff
 70
    21
177
     3
291
     1
 70
    58
 90
        2
176
     0
 90
        2
176
     0
 90
        0
176
     0
 90
        0
176
     0
 40
0.6
176
     0
 40
30.0
176
     0
 62
     7
420
 16777215
176
     0
 90
        1
176
     0
 90
        4
176
     0
 62
     7
176
     0
 62
   257
176
     0
 90
        1
176
     0
 90
        1
176
     0
 40
1.0
176
     0
 90
        9
176
     2
 62
     7
176
     0
 40
1.0
176
     0
 90
        1
176
     0
 90
        6
176
     0
 90
        2
176
     0
 62
     7
176
     0
 90
        5
176
     0
 90
        0
176
     0
 90
        0
176
     0
290
     0
176
     0
 90
        1
176
     0
 40
0.0
176
     0
 90
        0
176
     0
290
     0
176
     1
290
     1
176
     1
290
     1
176
     1
290
     0
176
     1
290
     0
176
     1
290
     0
176
     1
290
     0
176
     1
290
     0
176
     1
290
     0
176
     1
 90
       50
176
     1
 40
0.0
176
     1
 40
1.0
176
     1
 90
        0
176
     1
 62
    18
420
        0
176
     1
 90
       50
176
     1
 90
        3
176
     1
 62
     5
420
      255
176
     1
290
     0
176
     1
 90
       50
176
     1
 90
       50
176
     1
 90
       50
176
     1
290
     0
176
     1
 90
       50
176
     1
 62
   256
176
     0
 40
1.0
176
     0
 90
        2
176
     1
  1
strokes_ogs.tif
176
     1
290
     0
176
     1
 40
1.0
176
     1
 40
1.0
176
     1
  0
VISUALSTYLE
  5
A3
102
{ACAD_REACTORS
330
99
102
}
330
99
100
AcDbVisualStyle
  2
Realistic
 70
     8
177
     3
291
     0
 70
    58
 90
        2
176
     1
 90
        2
176
     1
 90
        0
176
     1
 90
        2
176
     1
 40
0.6
176
     1
 40
30.0
176
     1
 62
     7
420
 16777215
176
     1
 90
        0
176
     1
 90
        0
176
     1
 62
     7
176
     1
 62
   257
176
     1
 90
        1
176
     1
 90
        1
176
     1
 40
1.0
176
     1
 90
        8
176
     1
 62
   257
176
     1
 40
1.0
176
     1
 90
        1
176
     1
 90
        6
176
     1
 90
        2
176
     1
 62
     7
176
     1
 90
        3
176
     1
 90
        0
176
     1
 90
        0
176
     1
290
     0
176
     1
 90
       13
176
     1
 40
0.0
176
     1
 90
        0
176
     1
290
     0
176
     1
290
     1
176
     1
290
     1
176
     1
290
     0
176
     1
290
     0
176
     1
290
     0
176
     1
290
     0
176
     1
290
     0
176
     1
290
     0
176
     1
 90
       50
176
     1
 40
0.0
176
     1
 40
1.0
176
     1
 90
        0
176
     1
 62
    18
420
        0
176
     1
 90
       50
176
     1
 90
        3
176
     1
 62
     5
420
      255
176
     1
290
     0
176
     1
 90
       50
176
     1
 90
       50
176
     1
 90
       50
176
     1
290
     0
176
     1
 90
       50
176
     1
 62
   256
176
     0
 40
1.0
176
     0
 90
        2
176
     1
  1
strokes_ogs.tif
176
     1
290
     0
176
     1
 40
1.0
176
     1
 40
1.0
176
     1
  0
VISUALSTYLE
  5
182
102
{ACAD_REACTORS
330
99
102
}
330
99
100
AcDbVisualStyle
  2
Shaded
 70
    27
177
     3
291
     0
 70
    58
 90
        2
176
     1
 90
        2
176
     1
 90
        1
176
     1
 90
        2
176
     1
 40
0.6
176
     1
 40
30.0
176
     1
 62
     7
420
 16777215
176
     1
 90
        0
176
     1
 90
        4
176
     1
 62
     7
176
     1
 62
   257
176
     1
 90
        1
176
     1
 90
        1
176
     1
 40
1.0
176
     1
 90
        8
176
     1
 62
   257
176
     1
 40
1.0
176
     1
 90
        1
176
     1
 90
        6
176
     1
 90
        2
176
     1
 62
     8
420
  7895160
176
     1
 90
        3
176
     1
 90
        0
176
     1
 90
        0
176
     1
290
     0
176
     1
 90
        5
176
     1
 40
0.0
176
     1
 90
        0
176
     1
290
     0
176
     1
290
     1
176
     1
290
     1
176
     1
290
     0
176
     1
290
     0
176
     1
290
     0
176
     1
290
     0
176
     1
290
     0
176
     1
290
     0
176
     1
 90
       50
176
     1
 40
0.0
176
     1
 40
1.0
176
     1
 90
        0
176
     1
 62
    18
420
        0
176
     1
 90
       50
176
     1
 90
        3
176
     1
 62
     5
420
      255
176
     1
290
     0
176
     1
 90
       50
176
     1
 90
       50
176
     1
 90
       50
176
     1
290
     0
176
     1
 90
       50
176
     1
 62
   256
176
     0
 40
1.0
176
     0
 90
        2
176
     1
  1
strokes_ogs.tif
176
     1
290
     0
176
     1
 40
1.0
176
     1
 40
1.0
176
     1
  0
VISUALSTYLE
  5
181
102
{ACAD_REACTORS
330
99
102
}
330
99
100
AcDbVisualStyle
  2
Shaded with edges
 70
    26
177
     3
291
     0
 70
    58
 90
        2
176
     1
 90
        2
176
     1
 90
        1
176
     1
 90
        2
176
     1
 40
0.6
176
     1
 40
30.0
176
     1
 62
     7
420
 16777215
176
     1
 90
        1
176
     1
 90
        2
176
     1
 62
     7
176
     1
 62
   257
176
     1
 90
        2
176
     1
 90
        1
176
     1
 40
1.0
176
     1
 90
        8
176
     1
 62
   257
176
     1
 40
1.0
176
     1
 90
        1
176
     1
 90
        6
176
     1
 90
        2
176
     1
 62
     7
176
     1
 90
        3
176
     1
 90
        0
176
     1
 90
        0
176
     1
290
     0
176
     1
 90
        5
176
     1
 40
0.0
176
     1
 90
        0
176
     1
290
     0
176
     1
290
     1
176
     1
290
     1
176
     1
290
     0
176
     1
290
     0
176
     1
290
     0
176
     1
290
     0
176
     1
290
     0
176
     1
290
     0
176
     1
 90
       50
176
     1
 40
0.0
176
     1
 40
1.0
176
     1
 90
        0
176
     1
 62
    18
420
        0
176
     1
 90
       50
176
     1
 90
        3
176
     1
 62
     5
420
      255
176
     1
290
     0
176
     1
 90
       50
176
     1
 90
       50
176
     1
 90
       50
176
     1
290
     0
176
     1
 90
       50
176
     1
 62
   256
176
     0
 40
1.0
176
     0
 90
        2
176
     1
  1
strokes_ogs.tif
176
     1
290
     0
176
     1
 40
1.0
176
     1
 40
1.0
176
     1
  0
VISUALSTYLE
  5
17E
102
{ACAD_REACTORS
330
99
102
}
330
99
100
AcDbVisualStyle
  2
Shades of Gray
 70
    23
177
     3
291
     0
 70
    58
 90
        2
176
     1
 90
        2
176
     1
 90
        3
176
     1
 90
        0
176
     1
 40
0.6
176
     1
 40
30.0
176
     1
 62
     7
420
 16777215
176
     1
 90
        2
176
     1
 90
        2
176
     1
 62
     7
176
     1
 62
     7
176
     1
 90
        1
176
     1
 90
        1
176
     1
 40
40.0
176
     1
 90
        8
176
     1
 62
     7
176
     1
 40
1.0
176
     1
 90
        1
176
     1
 90
        6
176
     1
 90
        2
176
     1
 62
     7
176
     1
 90
        3
176
     1
 90
        0
176
     1
 90
        0
176
     1
290
     0
176
     1
 90
        1
176
     1
 40
0.0
176
     1
 90
        0
176
     1
290
     0
176
     1
290
     1
176
     1
290
     1
176
     1
290
     0
176
     1
290
     0
176
     1
290
     0
176
     1
290
     0
176
     1
290
     0
176
     1
290
     0
176
     1
 90
       50
176
     1
 40
0.0
176
     1
 40
1.0
176
     1
 90
        0
176
     1
 62
    18
420
        0
176
     1
 90
       50
176
     1
 90
        3
176
     1
 62
     5
420
      255
176
     1
290
     0
176
     1
 90
       50
176
     1
 90
       50
176
     1
 90
       50
176
     1
290
     0
176
     1
 90
       50
176
     1
 62
   256
176
     0
 40
1.0
176
     0
 90
        2
176
     1
  1
strokes_ogs.tif
176
     1
290
     0
176
     1
 40
1.0
176
     1
 40
1.0
176
     1
  0
VISUALSTYLE
  5
17F
102
{ACAD_REACTORS
330
99
102
}
330
99
100
AcDbVisualStyle
  2
Sketchy
 70
    24
177
     3
291
     0
 70
    58
 90
        1
176
     1
 90
        2
176
     1
 90
        2
176
     1
 90
        0
176
     1
 40
0.6
176
     1
 40
30.0
176
     1
 62
     7
420
 16777215
176
     1
 90
        2
176
     1
 90
        2
176
     1
 62
     7
176
     1
 62
     7
176
     1
 90
        1
176
     1
 90
        1
176
     1
 40
40.0
176
     1
 90
       11
176
     1
 62
     7
176
     1
 40
1.0
176
     1
 90
        1
176
     1
 90
        6
176
     1
 90
        2
176
     1
 62
     7
176
     1
 90
        6
176
     1
 90
        0
176
     1
 90
        0
176
     1
290
     0
176
     1
 90
        1
176
     1
 40
0.0
176
     1
 90
        0
176
     1
290
     0
176
     1
290
     1
176
     1
290
     1
176
     1
290
     0
176
     1
290
     0
176
     1
290
     0
176
     1
290
     0
176
     1
290
     0
176
     1
290
     0
176
     1
 90
       50
176
     1
 40
0.0
176
     1
 40
1.0
176
     1
 90
        0
176
     1
 62
    18
420
        0
176
     1
 90
       50
176
     1
 90
        3
176
     1
 62
     5
420
      255
176
     1
290
     0
176
     1
 90
       50
176
     1
 90
       50
176
     1
 90
       50
176
     1
290
     0
176
     1
 90
       50
176
     1
 62
   256
176
     0
 40
1.0
176
     0
 90
        2
176
     1
  1
strokes_ogs.tif
176
     1
290
     0
176
     1
 40
1.0
176
     1
 40
1.0
176
     1
  0
VISUALSTYLE
  5
A6
102
{ACAD_REACTORS
330
99
102
}
330
99
100
AcDbVisualStyle
  2
Thicken
 70
    13
177
     3
291
     1
 70
    58
 90
        2
176
     1
 90
        2
176
     1
 90
        1
176
     1
 90
        0
176
     1
 40
0.6
176
     1
 40
30.0
176
     1
 62
     7
420
 16777215
176
     1
 90
        1
176
     1
 90
        4
176
     1
 62
     7
176
     1
 62
   257
176
     1
 90
        1
176
     1
 90
        1
176
     1
 40
1.0
176
     1
 90
       12
176
     1
 62
     7
176
     1
 40
1.0
176
     1
 90
        1
176
     1
 90
        6
176
     1
 90
        2
176
     1
 62
     7
176
     1
 90
        5
176
     1
 90
        0
176
     1
 90
        0
176
     1
290
     0
176
     1
 90
        1
176
     1
 40
0.0
176
     1
 90
        0
176
     1
290
     0
176
     1
290
     1
176
     1
290
     1
176
     1
290
     0
176
     1
290
     0
176
     1
290
     0
176
     1
290
     0
176
     1
290
     0
176
     1
290
     0
176
     1
 90
       50
176
     1
 40
0.0
176
     1
 40
1.0
176
     1
 90
        0
176
     1
 62
    18
420
        0
176
     1
 90
       50
176
     1
 90
        3
176
     1
 62
     5
420
      255
176
     1
290
     0
176
     1
 90
       50
176
     1
 90
       50
176
     1
 90
       50
176
     1
290
     0
176
     1
 90
       50
176
     1
 62
   256
176
     0
 40
1.0
176
     0
 90
        2
176
     1
  1
strokes_ogs.tif
176
     1
290
     0
176
     1
 40
1.0
176
     1
 40
1.0
176
     1
  0
VISUALSTYLE
  5
A0
102
{ACAD_REACTORS
330
99
102
}
330
99
100
AcDbVisualStyle
  2
Wireframe
 70
     5
177
     3
291
     0
 70
    58
 90
        0
176
     1
 90
        2
176
     1
 90
        0
176
     1
 90
        0
176
     1
 40
0.6
176
     1
 40
30.0
176
     1
 62
     7
420
 16777215
176
     1
 90
        1
176
     1
 90
        4
176
     1
 62
     7
176
     1
 62
   257
176
     1
 90
        1
176
     1
 90
        1
176
     1
 40
1.0
176
     1
 90
        0
176
     1
 62
   257
176
     1
 40
1.0
176
     1
 90
        1
176
     1
 90
        6
176
     1
 90
        2
176
     1
 62
     7
176
     1
 90
        3
176
     1
 90
        0
176
     1
 90
        0
176
     1
290
     0
176
     1
 90
        1
176
     1
 40
0.0
176
     1
 90
        0
176
     1
290
     0
176
     1
290
     1
176
     1
290
     1
176
     1
290
     0
176
     1
290
     0
176
     1
290
     0
176
     1
290
     0
176
     1
290
     0
176
     1
290
     0
176
     1
 90
       50
176
     1
 40
0.0
176
     1
 40
1.0
176
     1
 90
        0
176
     1
 62
    18
420
        0
176
     1
 90
       50
176
     1
 90
        3
176
     1
 62
     5
420
      255
176
     1
290
     0
176
     1
 90
       50
176
     1
 90
       50
176
     1
 90
       50
176
     1
290
     0
176
     1
 90
       50
176
     1
 62
   256
176
     0
 40
1.0
176
     0
 90
        2
176
     1
  1
strokes_ogs.tif
176
     1
290
     0
176
     1
 40
1.0
176
     1
 40
1.0
176
     1
  0
VISUALSTYLE
  5
180
102
{ACAD_REACTORS
330
99
102
}
330
99
100
AcDbVisualStyle
  2
X-Ray
 70
    25
177
     3
291
     0
 70
    58
 90
        2
176
     1
 90
        2
176
     1
 90
        1
176
     1
 90
        1
176
     1
 40
0.5
176
     1
 40
30.0
176
     1
 62
     7
420
 16777215
176
     1
 90
        1
176
     1
 90
        0
176
     1
 62
     7
176
     1
 62
   257
176
     1
 90
        1
176
     1
 90
        1
176
     1
 40
1.0
176
     1
 90
        8
176
     1
 62
     7
176
     1
 40
1.0
176
     1
 90
        1
176
     1
 90
        6
176
     1
 90
        2
176
     1
 62
     7
176
     1
 90
        3
176
     1
 90
        0
176
     1
 90
        0
176
     1
290
     0
176
     1
 90
       13
176
     1
 40
0.0
176
     1
 90
        0
176
     1
290
     0
176
     1
290
     1
176
     1
290
     1
176
     1
290
     0
176
     1
290
     0
176
     1
290
     0
176
     1
290
     0
176
     1
290
     0
176
     1
290
     0
176
     1
 90
       50
176
     1
 40
0.0
176
     1
 40
1.0
176
     1
 90
        0
176
     1
 62
    18
420
        0
176
     1
 90
       50
176
     1
 90
        3
176
     1
 62
     5
420
      255
176
     1
290
     0
176
     1
 90
       50
176
     1
 90
       50
176
     1
 90
       50
176
     1
290
     0
176
     1
 90
       50
176
     1
 62
   256
176
     0
 40
1.0
176
     0
 90
        2
176
     1
  1
strokes_ogs.tif
176
     1
290
     0
176
     1
 40
1.0
176
     1
 40
1.0
176
     1
  0
DICTIONARYVAR
  5
4A0D6
102
{ACAD_REACTORS
330
4A0D5
102
}
330
4A0D5
100
DictionaryVariables
280
     0
  1
2
  0
DICTIONARYVAR
  5
4A0D7
102
{ACAD_REACTORS
330
4A0D5
102
}
330
4A0D5
100
DictionaryVariables
280
     0
  1
400.000000
  0
DICTIONARYVAR
  5
4A0D8
102
{ACAD_REACTORS
330
4A0D5
102
}
330
4A0D5
100
DictionaryVariables
280
     0
  1
1
  0
DICTIONARYVAR
  5
4A0D9
102
{ACAD_REACTORS
330
4A0D5
102
}
330
4A0D5
100
DictionaryVariables
280
     0
  1
1:1
  0
DICTIONARYVAR
  5
4A0DA
102
{ACAD_REACTORS
330
4A0D5
102
}
330
4A0D5
100
DictionaryVariables
280
     0
  1
STANDARD
  0
DICTIONARYVAR
  5
4A0DB
102
{ACAD_REACTORS
330
4A0D5
102
}
330
4A0D5
100
DictionaryVariables
280
     0
  1
STANDARD
  0
DICTIONARYVAR
  5
4A0DC
102
{ACAD_REACTORS
330
4A0D5
102
}
330
4A0D5
100
DictionaryVariables
280
     0
  1
Imperial24
  0
DICTIONARYVAR
  5
4A0DD
102
{ACAD_REACTORS
330
4A0D5
102
}
330
4A0D5
100
DictionaryVariables
280
     0
  1
Imperial24
  0
DICTIONARYVAR
  5
4A0DE
102
{ACAD_REACTORS
330
4A0D5
102
}
330
4A0D5
100
DictionaryVariables
280
     0
  1
-1
  0
DICTIONARYVAR
  5
4A0DF
102
{ACAD_REACTORS
330
4A0D5
102
}
330
4A0D5
100
DictionaryVariables
280
     0
  1
1
  0
DICTIONARYVAR
  5
4A0E0
102
{ACAD_REACTORS
330
4A0D5
102
}
330
4A0D5
100
DictionaryVariables
280
     0
  1
2
  0
DICTIONARYVAR
  5
4A0E1
102
{ACAD_REACTORS
330
4A0D5
102
}
330
4A0D5
100
DictionaryVariables
280
     0
  1
0
  0
DICTIONARYVAR
  5
4A0E2
102
{ACAD_REACTORS
330
4A0D5
102
}
330
4A0D5
100
DictionaryVariables
280
     0
  1
4
  0
DICTIONARYVAR
  5
4A0E3
102
{ACAD_REACTORS
330
4A0D5
102
}
330
4A0D5
100
DictionaryVariables
280
     0
  1
V-Construction
  0
DICTIONARYVAR
  5
4A0E4
102
{ACAD_REACTORS
330
4A0D5
102
}
330
4A0D5
100
DictionaryVariables
280
     0
  1
ByLayer
  0
DICTIONARYVAR
  5
4A0E5
102
{ACAD_REACTORS
330
4A0D5
102
}
330
4A0D5
100
DictionaryVariables
280
     0
  1
0
  0
DICTIONARYVAR
  5
4A0E6
102
{ACAD_REACTORS
330
4A0D5
102
}
330
4A0D5
100
DictionaryVariables
280
     0
  1
0
  0
DICTIONARYVAR
  5
4A0E7
102
{ACAD_REACTORS
330
4A0D5
102
}
330
4A0D5
100
DictionaryVariables
280
     0
  1
0
  0
DICTIONARYVAR
  5
4A0E8
102
{ACAD_REACTORS
330
4A0D5
102
}
330
4A0D5
100
DictionaryVariables
280
     0
  1
2
  0
DICTIONARYVAR
  5
4A0E9
102
{ACAD_REACTORS
330
4A0D5
102
}
330
4A0D5
100
DictionaryVariables
280
     0
  1
1.000000
  0
DICTIONARYVAR
  5
4A0EA
102
{ACAD_REACTORS
330
4A0D5
102
}
330
4A0D5
100
DictionaryVariables
280
     0
  1
1
  0
DICTIONARYVAR
  5
4A0EB
102
{ACAD_REACTORS
330
4A0D5
102
}
330
4A0D5
100
DictionaryVariables
280
     0
  1
1.000000
  0
DICTIONARYVAR
  5
4A0EC
102
{ACAD_REACTORS
330
4A0D5
102
}
330
4A0D5
100
DictionaryVariables
280
     0
  1
1
  0
DICTIONARYVAR
  5
4A0ED
102
{ACAD_REACTORS
330
4A0D5
102
}
330
4A0D5
100
DictionaryVariables
280
     0
  1
0
  0
DICTIONARYVAR
  5
4A0EE
102
{ACAD_REACTORS
330
4A0D5
102
}
330
4A0D5
100
DictionaryVariables
280
     0
  1

  0
DICTIONARYVAR
  5
4A0EF
102
{ACAD_REACTORS
330
4A0D5
102
}
330
4A0D5
100
DictionaryVariables
280
     0
  1
0
  0
DICTIONARYVAR
  5
4A0F0
102
{ACAD_REACTORS
330
4A0D5
102
}
330
4A0D5
100
DictionaryVariables
280
     0
  1
127
  0
DICTIONARY
  5
194
330
22
100
AcDbDictionary
280
     1
281
     1
  0
DICTIONARY
  5
188
330
97
100
AcDbDictionary
280
     1
281
     1
  3
FBXASSET
360
189
  0
DICTIONARY
  5
186
330
96
100
AcDbDictionary
280
     1
281
     1
  3
FBXASSET
360
187
  0
DICTIONARY
  5
110
330
98
100
AcDbDictionary
280
     1
281
     1
  3
BUMPTILE
360
112
  3
DIFFUSETILE
360
111
  3
FBXASSET
360
18A
  3
OPACITYTILE
360
113
  3
REFLECTIONTILE
360
114
  0
DICTIONARY
  5
104
330
87
100
AcDbDictionary
280
     1
281
     1
  3
ACAD_ROUNDTRIP_2008_TABLESTYLE_CELLSTYLEMAP
360
67410
  0
XRECORD
  5
189
102
{ACAD_REACTORS
330
188
102
}
330
188
100
AcDbXrecord
280
     1
 70
     1
 90
429727718
  1
508B35C9-AEE7-456F-BE74-D52651303AC6
310
504B03040A0000080000B670623B3DEE336E79000000790000001B0000006175746F6465736B2D64657369676E2D7061636B6167652E786D6C3C3F786D6C2076657273696F6E3D22312E302220656E636F64696E673D227574662D3822203F3E3C666F726D6174733E3C666F726D61743E687474703A2F2F736368656D612E
310
6175746F6465736B2E636F6D2F64657369676E2D7061636B6167652F323030393C2F666F726D61743E3C2F666F726D6174733E504B0304140006080800B670623BD486FD9CA0000000F4000000130000005B436F6E74656E745F54797065735D2E786D6C7D8EC10E82300C865F65E91D8A1E8C310C0EEA1BF002731658846E
310
D98AC1B77784ABF1D8FE5FBFBF75BBCE937A534CCEB38643598122B6FEE978D0B0485F9C41B54DDD7D022595594E1A469170414C76A4D9A4D207E29CF43ECE46F218070CC6BECC4078ACAA135ACF422C856C0E68EA1BF5669944DDD7BCDE7B1F8E415D77AECB980613C2E4AC91FC167A2B244592486606FC29C8FD7F045B9A
310
EF7053A7E60B504B0304140006080800B670623B28ED286BEB0000007C01000008000000636F72652E786D6C8D90416EC3201045AF82665B6183218D6D61A254764FD00B204C5C94182C03558F5F9C3852BBEB6A467FFE9B197D71FA9E6FE8CBACC17AD7012D0820E3B41FAD9B3A48F1826B40272956EFE32F1B20A766D3C1
310
268314D3EAD3B24BDABB685CCCAAF3A3D94515828980F42D371D04FD696655A814B3235C8B45E9AB9A4C419F5D8653B2237A1CB163DE672FD6AC209BF3C08E0D1B30EB19C3FC9D72FCC6EB231EFA33EDE96BDD341517E5064B11EDFCBCAF57A3A2194156843498524CAA0FCA5B7268F9E185D42D21A2DCEC7FA0B48CFF8492
310
759155FBBB0F2C80A4F991FB408A72CB22977B50B96EB9C91F504B0304140006080800B670623B55019EA25F0000007C00000007000000636E782E786D6C4DCB3B0E80201045D1AD90E915ED2CF8AC45050C11660C8261F98AB1B07AC9C97D42D718D865D3E909258CFD00CCE24AC6E326A164D74DC0B4128928FF32603847
310
2BA13128B1252AC747C6BAB984FC68F0B87FE8960A5C09FE86CFB69FBA01504B0304140006080800B670623B7BC41AC871010000D40300000C0000006662782F636F72652E786D6CC553ED6E8320147D15C2DF4501B56B6D90A64BBB27D80B50A5CE54C120983EFEAE1F4DD7A56BBA5FF3879273EEE59E7310BE393735EA95
310
ED2AA333CC428A91D2B9292A5D66D8BB63B0C26823B835C67D2BC348CB46657880B1E0A535BE9DA1DC68A7B403549B42CDA0EC3AE530CA6B5864B8CB3F552343E91D5474A7B095F949962A6421D0502778E72C0840D390E18DC5F170E664C205F7BE2A66B62A605A75AC94C522DDEEE3651AEF837817C741F2CE92E02D592D
310
83FD6ECB76EC7595A651C2C9D02CB8AB9A8BBADC2AE954814544691A3016D0E883256BBA58278B17BA5A53CAC9507ED3E4DBE2C9265F691747B3DCA9ADC382819091F8E1162272A8933DE82182932144F88C09DF060D8140C84E1EEA8B8F1340BDCA9DB1093085F157AA97B557309586747CD0EF0B4EA64E983A6E0EAEEFCE
310
889E9EF17847386AA94B30211D2C0FDE0D3AF9A4610EAD5536E8DD1969631B593F67E381C33F5157F17725E5A636F6BF1491F980C8FC7B90E13E8A2F504B0304140006080800B670623B70102A487D0000009D0000000B0000006662782F636E782E786D6C4DCCD10A83201886E15B91FFDC95A5C30335ACCDFB886521330D
310
A76397BF1A1DECE883878F57749FD5A3B74D2F17830472A901D9F088930B8B849267CC01754AA418F3DF0D5018572BE160506249B16C274D761E8BCFBB7A179E27F65CB39A0F14D396184C9921B81F34C3ACA1B4B99ABB6E6F062A25AA5F69DF23ACBE504B0304140006080800B670623B3610CA3329010000120200003100
310
00006662782F42384135303843342D343331462D343546312D424341352D3532343432364645413344462F636F72652E786D6C8D515B6EC32010BC0AE22B55850D0E446E848992B43E412FE000495162B07854397EA176A4F62F3F2C9A9D991D58BEBB8F37F0AD7D30CE76905418026DA553C65E3A98E219B510EC04F7CEC5
310
3F3408EC30EA0E16180A7EF12E4D0B249D8DDAC68C5AA7F4020E21E80881BCE54B0783FCD2E3500D296646B856D320AFC34557A4CAEDCC133C449F0380794839A138B47B86DB2345744D7A44594FD0E1B867883594369BFE63BF7EEF793D0B054FC9A8456E548E63CE46FB674D8A58F068C6477CE9F510B582A2C1F80D1182
310
70F349E816B32D65AFB8DD62CCEB42FF274A937A52948C8DEB66893BCB021484D7734370E5D2E9F608A3EF93F3119479ABA0E50B14B8C298119A43CCC4FCFCECB8A18B6388CEE7EF5D5D4F994BD86CBBA182D76543B9FCAE2FD7B24DF103504B0304140006080800B670623B1B8617914E0100003303000030000000666278
310
2F42384135303843342D343331462D343546312D424341352D3532343432364645413344462F636E782E786D6CD593C16EC32010447F0571AD6CE3D489D20813A9877E410FBD62D82434182CC055F3F75D1292E692438FBD206B7698593D61BEFD1E2DF982108D773D6D6B460938E5B571FB9ECE6957AD29D90A1EBC4F7736
310
4A9C1CA1A759A682EF839FA72269D8C9D92654AD71C72206887E0E0A22CAF926B15E498B01E0AA19451807D01A34B919F16B070157417138917400F2F6FA41FCF0092A45DEE414C19BDC21783E4BD39D891265658C3D8DEA00A3ACE59CBC8678ACB54CB26EEB6BD7839D7E9348BE70AD9C8321B9BCA7F9A4A26C542347DEE0
310
50F09802D22BA6749A800A394DD62899107273365E3C82CFC6A55557BC06C10774B7ABE7AEC3B0F34CF06446280E154026D0542C187BA9DAB6628BF7B6DBB0E5A65B3EB1F58631DE64BBE083F7B65CC218087E22CABB042E51D1F2268F1FE12B3EA24D40D63E9CFE00120194D60B9D5BC67FE6D39CDF37E20AF817881F504B
310
0304140006080800B670623BBFEF2E3B690500003C100000340000006662782F42384135303843342D343331462D343546312D424341352D3532343432364645413344462F6F626A656374732E786D6CAD575D739B3814FD2B0CFB0C98D84E931D4227B6938EA793B6534F3BFB90198F0099B001899144EAECAFDF231018B0
310
D37A3FFC609090EEE7B94757C1FB7D915B2F54C88CB31BDB7727B64559CC938CA53776A576CE956DBD0F03C1B9EA2DB32D460A7A63EB693B0C52C1ABD24C257447AA5C8D66EF177F5832A68CDA569C13296F6C193FD182B8A4523CA1F2D94D88226EBADBBBBEDB2C1C8A4D05299F46424B222853B014F30C52ACC6287F389C
310
D85E1878FA7B18E87FB36AFAF62AAFF667A83F635211161F291B8999FAB3D5DDC5FCDA99CF6653677679E13B8BFBC5CAF1DF4D27CBCBE5F2FAF6EE1A8AA51290642C117467871F101B91C581D77CEA2C36869F3229E68CD1B8F61F1ED6361B89092D294B90C78C4A68EB793D190E7D1D9BDEE7A91E1B95FDE9F3BCEAEFE809
310
6A6D6F9F7D4B79F4275C90E7A04248AA51D5C4C738DAE06F72885AC4796EBE65D22A88A22223B995679120E2D50EB1542F098381188D4EA111AE3DB043FF20AF6F2B4AE3D7D83D65E5AECA730D4D3BAC91BD05FEA992B565D95F549CD6069B90AB2A63EACA38A45E4B6A87D781574F86817E4C2FCCC72690D62E2729520E37
310
9BAF234797BAF6D62B3BFC781FED37BA1E4F2B2F052FA9501A3E80569BB8F6A9A364D4FA67654E6F803383981F82F21591FF84F23D9882BC896C3FDBCF8C162508933B2E0AE4C69DD43F6BD2BE38DDDBF10BF86CB4FA784D37F3AF16075E67EC9030DECA1FC0A55373F5DFF3378C591FA9BDF485C10B0A8C8BA909E5262639
310
A8E72163488806A595734C81CB77D1DE0ED7604A303B76913CEC0272F412782FF88EFF4636D8AA56DF7B322474C4B767303F625997056C7B032C473C592B36CEBD15F3F9FF5233B7ABCDC74D257624A60F8658567497B14CE1EC3C80B76FD02011038F9EE9EB0F2E12387A9C844D3F09855125116D1D731DF8B43D2CF4E0A0
310
79A020C6BE946BCE0B7EA1E1219331CD73C228AF5A2DDD31A4B1DA918CE91350854D40A71723140BFA92E94E62B0626016CEFA5864A50E5977E8753CEDBEE1CBB7F52780D20E17AF0BA0F5F9B02A3AD07DCC732EB6D1EBB661421BE0C39E21BABF0FE16D22EA6929407C8DE596724C88B749B6DB5512BC7B228ADFD7CB7EA6
310
3A22397E690BA8D5D8D4E40CEC8CDA23C2C0B7D5898640101CEC9C6D331CE328CB93CAFBBAC70A642DF70DF95155945B52F08AA973C23469FD69ADEF84F7BB18F983A8F8C90E37F5D35980B2139A1C523540813E824EF83448CF7C72B598CE97D7CEEDDDDD3B6736BFBC771677EF66CE6A7E7139F7A793E9EDF2B2B3A8B624
310
0CDA13AA5F8388264EC4A0129909F3B7F5A16CEDF08128E97D680ACA4B9BE7B7B58BB638F0B00700EF36AE8B32A705658A68F83EE897FC2B41573190D1CCAF0B92D233A47CFEB019D9809933F67DD1A5467F8CF69AD9A5AE859342D45355448C64F968A371DC2D596ADC6E43D93D1B466F877A64E2893E54F23C4B40388995
310
525E5005DA3983ED45412510D3EFCA13737B3863F74BD30F2A12E5B4B5E489A025CE25500DB855B11ACE5BBFA185D35DD48D8DC3CE7DC69F2944DB42AA6F6CF09BCA622ADD08C7A36E7C6AE18000BAB08E040135C2D21C9D75B3A91B77BB746C403F38018DFE6EC939DD92F16B40BC05294B9CDA035AAD6D330AE27FE4786B
310
8E45145EA34A75BE1C263A676A35A8ACC6297337400BF16C54EF515F3F77CB77EB3583889C754FFA29081AA98E2222ADEF05DA3E63D2EDEA8B8756C05A7FB6CABC4A91CBF325398202CC952E70A008A830324BA200D5E5EF8F5F04C75DB4B0EE3340E071C98B823333B83577596BF3849B69F2085AA0FAFA212F26BEFF5877
310
FDE622B28D88A42E49E43326DA82D31E8CB006401E1DA726059ECEC168F97A6599036306A135688F9AD2E61A6EA178F4CD51974A9F2CCB9F36FE5EBD14601068D9C3BF01504B0304140006080000B670623B000000000000000000000000350000006662782F42384135303843342D343331462D343546312D424341352D35
310
32343432364645413344462F76657274696365732E62696E504B0304140006080800B670623BF270F1330600000004000000360000006662782F42384135303843342D343331462D343546312D424341352D3532343432364645413344462F747269616E676C65732E62696E636660600000504B0304140006080000B67062
310
3B000000000000000000000000370000006662782F42384135303843342D343331462D343546312D424341352D3532343432364645413344462F617474726962757465732E62696E504B0304140006080800B670623B08DA0BD19000000041010000360000006662782F42384135303843342D343331462D343546312D4243
310
41352D3532343432364645413344462F6469726563746F72792E786D6C858F410AC3201045AF22B36F53E9A60B35CBEEBAE80D244E44489C6234F4F835464A48035D0DF398FF9F8AF63D0E6CC63039F212F8F9020C7D47C6792B21C5FE7403D62A1188E2E60C98D7234A5830286103A55745067B9D86B8A3CF9C7F90C11DE6
310
07FB144396D7B6A82D282E9A152AD114D5EF2CB866EEE831B8EEA07A7BB5A8D7D61A2BAAEB7FD5F70921FF497D00504B0304140006080800B670623B3B4606F3FE000000A00100003B0000006662782F42384135303843342D343331462D343546312D424341352D3532343432364645413344462F7265736F75726365732F
310
636F72652E786D6C8D504B6E833010BD0A9A6D65B08134808CA354A427E8052C332156828DFCA97AFC9A40A576D7CDCCE87D344F8F9FBEE647F689CE6B6B7A6039850C8DB2A336530F315C4903D94970676DF82583CCC8197B5861107C72362E3BA4AC096842428D1D7107A5F71820538F74F4E0D50D6799CB1892C2DFF345
310
AABB9C306779A2934E701F5C0A906D4FD609C2A1B7D129F4BCD858C163D4E3AED163FAA9AF1A1D88F67CA98E6D35906AA82A52BFB39ABCD5CD915C86331BD86BD3B665CD8BD52C78D0F34F46E550061C419494B6843142CB0F5677F4D0D58717DA7494F26295FF31C565FCA7296A13AA728FBBD93C0896823C09C18BB5AFB4
310
9E65A6BD762BBE01504B010214000A0000080000B670623B3DEE336E79000000790000001B00000000000000000000000000000000006175746F6465736B2D64657369676E2D7061636B6167652E786D6C504B01021400140006080800B670623BD486FD9CA0000000F40000001300000000000000000000000000B2000000
310
5B436F6E74656E745F54797065735D2E786D6C504B01021400140006080800B670623B28ED286BEB0000007C010000080000000000000000000000000083010000636F72652E786D6C504B01021400140006080800B670623B55019EA25F0000007C000000070000000000000000000000000094020000636E782E786D6C50
310
4B01021400140006080800B670623B7BC41AC871010000D40300000C00000000000000000000000000180300006662782F636F72652E786D6C504B01021400140006080800B670623B70102A487D0000009D0000000B00000000000000000000000000B30400006662782F636E782E786D6C504B01021400140006080800B6
310
70623B3610CA3329010000120200003100000000000000000000000000590500006662782F42384135303843342D343331462D343546312D424341352D3532343432364645413344462F636F72652E786D6C504B01021400140006080800B670623B1B8617914E010000330300003000000000000000000000000000D10600
310
006662782F42384135303843342D343331462D343546312D424341352D3532343432364645413344462F636E782E786D6C504B01021400140006080800B670623BBFEF2E3B690500003C10000034000000000000000000000000006D0800006662782F42384135303843342D343331462D343546312D424341352D35323434
310
32364645413344462F6F626A656374732E786D6C504B01021400140006080000B670623B0000000000000000000000003500000000000000000000000000280E00006662782F42384135303843342D343331462D343546312D424341352D3532343432364645413344462F76657274696365732E62696E504B010214001400
310
06080800B670623BF270F133060000000400000036000000000000000000000000007B0E00006662782F42384135303843342D343331462D343546312D424341352D3532343432364645413344462F747269616E676C65732E62696E504B01021400140006080000B670623B00000000000000000000000037000000000000
310
00000000000000D50E00006662782F42384135303843342D343331462D343546312D424341352D3532343432364645413344462F617474726962757465732E62696E504B01021400140006080800B670623B08DA0BD1900000004101000036000000000000000000000000002A0F00006662782F42384135303843342D3433
310
31462D343546312D424341352D3532343432364645413344462F6469726563746F72792E786D6C504B01021400140006080800B670623B3B4606F3FE000000A00100003B000000000000000000000000000E1000006662782F42384135303843342D343331462D343546312D424341352D3532343432364645413344462F72
310
65736F75726365732F636F72652E786D6C504B0506000000000E000E0080040000651100000000
  0
XRECORD
  5
187
102
{ACAD_REACTORS
330
186
102
}
330
186
100
AcDbXrecord
280
     1
 70
     1
 90
429727718
  1
887D55A9-D0DD-414E-B741-A7DCD4DA2B4C
310
504B03040A0000080000B670623B3DEE336E79000000790000001B0000006175746F6465736B2D64657369676E2D7061636B6167652E786D6C3C3F786D6C2076657273696F6E3D22312E302220656E636F64696E673D227574662D3822203F3E3C666F726D6174733E3C666F726D61743E687474703A2F2F736368656D612E
310
6175746F6465736B2E636F6D2F64657369676E2D7061636B6167652F323030393C2F666F726D61743E3C2F666F726D6174733E504B0304140006080800B670623BD486FD9CA0000000F4000000130000005B436F6E74656E745F54797065735D2E786D6C7D8EC10E82300C865F65E91D8A1E8C310C0EEA1BF002731658846E
310
D98AC1B77784ABF1D8FE5FBFBF75BBCE937A534CCEB38643598122B6FEE978D0B0485F9C41B54DDD7D022595594E1A469170414C76A4D9A4D207E29CF43ECE46F218070CC6BECC4078ACAA135ACF422C856C0E68EA1BF5669944DDD7BCDE7B1F8E415D77AECB980613C2E4AC91FC167A2B244592486606FC29C8FD7F045B9A
310
EF7053A7E60B504B0304140006080800B670623BBC1638F5EC0000007C01000008000000636F72652E786D6C8D90416EC3201045AF82665B61836BE2D8C24471DB9CA01740401C94182C03558F5F9C3852BBEB6A467FFE9B197D7EF89E6EE8CB2CC17AD7032D0820E394D7D68D3DA478C67B4007C117EFE32F1B202727D3C3
310
2A83E0E3E2D3BC49CABB685CCCAAF3DA6CA20CC14440EA969B1E82BA98491632C5EC08D76296EA2A4753D06797E194AC468F2356E77DF66CCD02825543D50CACC62D39ED70FDC68EB8FD68F6F8787A6784342D1DDA1D2F5758F068A7E77DB518198D065111D2624A31A93E69DD11D6D5EC85EC3B4278B9DAFF4069D6FF8492
310
75F1B5DADE7D600104CD8FDC0782976B16B9DC83CA75CD4DFC00504B0304140006080800B670623B55019EA25F0000007C00000007000000636E782E786D6C4DCB3B0E80201045D1AD90E915ED2CF8AC45050C11660C8261F98AB1B07AC9C97D42D718D865D3E909258CFD00CCE24AC6E326A164D74DC0B4128928FF326038
310
472BA13128B1252AC747C6BAB984FC68F0B87FE8960A5C09FE86CFB69FBA01504B0304140006080800B670623B3586FFB671010000D40300000C0000006662782F636F72652E786D6CC553ED6E8320147D15C2DF4541A76D6D90A6DDD627D80B50A4CE54C120983EFEAE1F4DD7A55BBA5FF3879273EEE59E7310B6393735EA
310
95ED2AA3731C851423A5A5292A5DE6D8BB63B0C268C39935C67D29C3488B46E578803167A535BE9D2169B453DA01AA4DA16650749D7218C91A1639EEE4876A4428BC838AEE14B6429E44A9C228041AEA38EB9C0501681A32BC313F1ECE8C4C3867DE57C5CC56054CAB8E95B298A7F12E5EEED224C8E87E11242FE936C8DE96
310
AB60BB7F4D295D66D12E5B30323473E6AAE6A24E5A259C2A308F29CD82280A68FC1E256B9AAE93F489AED694323294DF34F9B678B0C957DA3DC7B3DCA9ADC33C022123F1CD2D44E450277AD04338234388F01913BE0D1A0281909D38D4171F27807A259DB1093085F157AA17B557309586747CD0CF0B46A64E983A6E0EAEEF
310
CE881F9EF1FB8E70D44297604238581EBC1B74B249C31C5AAB6CD0BB33D2C636A27ECCC62F0EFF445DC5DF95244D6DEC7F2922F30191F9F720C37DE49F504B0304140006080800B670623B4220A0FF7D0000009D0000000B0000006662782F636E782E786D6C4DCCD10A83201886E15B91FFDCE542CB0335D0EC3E6259C84A
310
C3E9D8E5AF46073BFAE0E1E315DD675BD1DBA5978F41C2FD4600B9F088930F8B849267CC01754AA418F3DF0D50183727E164506249B1EC174D6E1ECB9A0F5D7D785E68DB8151CD286E5A5363CA6B8A39E90D36D40E96B086F55A43A544F52B1D7B86D517504B0304140006080800B670623B2FA3FEDE290100001202000031
310
0000006662782F45374635344235342D363743322D343832342D383044432D4334454645303536354442422F636F72652E786D6C8D515B6EC32010BC0AE22B55850D2E386E848994D7097A0117488A1283C5A3CAF10BB523B57FF961D1ECCCECC0F2ED7DBC816FED8371B687A4C210682B9D32F6D2C314CFA883602BB8772E
310
FEA141608751F7B0C050F08B77695A20E96CD43666D43AA5177008414708E42D5F7A18E4971E876A483133C2B59A06791D2EBA22556E679EE021FA1C00CC43CA09C5717D6274C7286AD7FB06D1AEA1A8C3873DDAD3E3E98859CB0EBB1DAF67A1E02919B5C88DCA71CCD968FFAC49110B1ECDF8882FBD1EA256503418BF2342
310
106E3E08DD60B6A1EC15771B8C795DE8FF4469524F8A92B1F1AD59E2CEB20005E1F5DC105CB9F4797B84D1F7C9F908CABC55D0F2050A5C61CC1AD2F27A26E6E767C7962E8E213A9FBF7775FDCC5CC266DB960A5E970DE5F2BBBE5CCB36C50F504B0304140006080800B670623B1B8617914E01000033030000300000006662
310
782F45374635344235342D363743322D343832342D383044432D4334454645303536354442422F636E782E786D6CD593C16EC32010447F0571AD6CE3D489D20813A9877E410FBD62D82434182CC055F3F75D1292E692438FBD206B7698593D61BEFD1E2DF982108D773D6D6B460938E5B571FB9ECE6957AD29D90A1EBC4F77
310
364A9C1CA1A759A682EF839FA72269D8C9D92654AD71C72206887E0E0A22CAF926B15E498B01E0AA19451807D01A34B919F16B070157417138917400F2F6FA41FCF0092A45DEE414C19BDC21783E4BD39D891265658C3D8DEA00A3ACE59CBC8678ACB54CB26EEB6BD7839D7E9348BE70AD9C8321B9BCA7F9A4A26C542347DE
310
E050F09802D22BA6749A800A394DD62899107273365E3C82CFC6A55557BC06C10774B7ABE7AEC3B0F34CF06446280E154026D0542C187BA9DAB6628BF7B6DBB0E5A65B3EB1F58631DE64BBE083F7B65CC218087E22CABB042E51D1F2268F1FE12B3EA24D40D63E9CFE00120194D60B9D5BC67FE6D39CDF37E20AF817881F50
310
4B0304140006080800B670623B29652116630500003C100000340000006662782F45374635344235342D363743322D343832342D383044432D4334454645303536354442422F6F626A656374732E786D6CAD575D739B3814FD2B0CFB0C989834C90EA1639B24E3E9A6EDD4D3CE3E64C623834CD8006224913AFDF57B040203
310
B65BEF871F0C12D2FD3CF7E8CA7FBFCB33E3957291B2E2D674ED8969D02262715A24B76625B7D6B569BC0F7CCE98EC2D338D82E4F4D654D366E0279C55A59E8AE99654991CCDDECFFF3444440B6A1A514684B83545F44C7362934AB2988A173B2692D8C97667BB76B3702836E1A47C1E092D09A78584A5982F20C5688C7287
310
C389E904BEA3BE07BEFAD7ABA6A75739B53F43FD69212429A20365233153D70BEF2E2E6FAC4BCF9B5ADEBB0BD79ADFCF43CBBD9A4E16EF168B9BD9DD0D140BC921495BC2E9D60C1E101B9E46BED37CEA2CD6861F3329624541A3DA7F7858DBAC25C6B4A4458C3CA654405BCFEBC970E8AAD8F43E4FD558ABEC4F9FE7557F47
310
4F506B7BFBEC5BCA367FC105710E2AB8A00A554D7CB4A30DFE26FBA86D18CBF4B75418399194A72433B274C3097F33032C554B027F2046A1932B842B0FCCC0DDCBEBDB8AD2F835768F59B9ADB24C41D30C6A64AF817F2A456D59FA83F2E3DA60137255A585BCD60EC9B7929AC18DEFD49381AF1ED30BFDB109A4B1CD488294
310
C3CDE6EBC8D185AABD6568061FEE37BB95AAC7E3CA4BCE4ACAA5820FA0D526AE7DAA2869B5EE5999531BE0CC20E6FBA07C41E43FA27CF7A6206F3CDD793B4F6B919C1462CB788EDCD893FA674CDA17AB7B3B7C019F8D561FAEE966FED562DFE98C1D12C6A9FC015C2A35D7FF3D7FC398F591DA4B5FE0BFA2C0189FEA50AE22
310
92817A1ED3020951A03432862970F976B33383259812CC8E5D240BBA801CBCF8CE2BBEE3BF910DB6AAD5F79E05123AE2DB33981FB1ACCB02B69D00CB014FD68AB573A7627EF9BFD4CC2C5C7D58557C4B22FAA88925A4DBB44825CECE3D78FB060D1231F0E885BE7D673C86A3874958F593906B5502D1563157814FDAC3420D
310
F69A070A22EC4B98E23CFF171A1E5311D12C23056555ABA53B8614563B92D17D02AAB009E8F46284624E5F53D5490C560CCCC2591FF1B45421EB0EBD8EA7ED13BE7C5D7E0428CD60FEF60779EB13E6664FF711CB185F6FDED60D139A001FF60CD1FD6D086F1D51474901E26B2CB794A343BC8ED3EDB612E0DD2351FCB65CF4
310
33D511C9E14B5B40ADC6A6263DB0336A8F700DDF56271A024E70B0B3629DE21847591E55DED73D56206AB927E46FAABC5C939C55853C274C93D69FD6FA4E78BF8B11DF898C9ECD60553FAD39283BA6F18984AA23E8884F83F45C5F5F859797B31B2B9C84A1E5B9DE9D35BFF25C6B76152E422F9C5DCC3D847F5801ED09D5AF
310
41441327A25FF15487F9EB725FB666F048A4701E9A827292E6F97569A32DF61DEC01C0BB8DCBBCCC684E0B49147C1FD54BF685A0AB18C868E6973949E819523E3DAC463660E68C7D9F55A9D1EFA3BD7A76A16AE1A810F95CE59B82A4D968A376DC2E8B44BBDD86B27B368CDE0ED548C7137DA860591A83706223A12CA712B4
310
7306DBF39C0A20A6DF95C7FAF670C6EED7A61F946493D1D6926782963813403548A78AE470DEF80D2D9CEAA26E4D1C76F60BFE74219A06527D6B82DF641A51616F703CAAC6A7160E08A00BEB4810A0274592A1B36E3675E36E978A0DE80727A0D6DF2D39A75BD27E0D8837276589537B40ABB56D5A41F48F1C6FCD3188C4EB
310
A6929D2FFB89CE995A4D00AE813BDD032DC48B56BD437DFDDC2DD7AED70C2272D63DE9A72068A45A92F0A4BE17A8A06B9366E16707AD80B1FC649459952097E74BB23805982B55E0401150A165964402AA8BDF9F3E7386BB686EDCA780C0D382E5392BF460A6EFB2C6EA1937D3F809B440D5F5435C4C5CF7A9EEFAF54564BD
310
2182DA24162F98680B4E7930C21A0079709CEAEB99A372305ABE0C0D7D6078105A83F6A0296DAEE1068A47DD1C55A9F4C9B2FC69E3EFD44B81028E963DF81B504B0304140006080000B670623B000000000000000000000000350000006662782F45374635344235342D363743322D343832342D383044432D433445464530
310
3536354442422F76657274696365732E62696E504B0304140006080800B670623BF270F1330600000004000000360000006662782F45374635344235342D363743322D343832342D383044432D4334454645303536354442422F747269616E676C65732E62696E636660600000504B0304140006080000B670623B00000000
310
0000000000000000370000006662782F45374635344235342D363743322D343832342D383044432D4334454645303536354442422F617474726962757465732E62696E504B0304140006080800B670623B08DA0BD19000000041010000360000006662782F45374635344235342D363743322D343832342D383044432D4334
310
454645303536354442422F6469726563746F72792E786D6C858F410AC3201045AF22B36F53E9A60B35CBEEBAE80D244E44489C6234F4F835464A48035D0DF398FF9F8AF63D0E6CC63039F212F8F9020C7D47C6792B21C5FE7403D62A1188E2E60C98D7234A5830286103A55745067B9D86B8A3CF9C7F90C11DE607FB144396
310
D7B6A82D282E9A152AD114D5EF2CB866EEE831B8EEA07A7BB5A8D7D61A2BAAEB7FD5F70921FF497D00504B0304140006080800B670623B6378F24DFF000000A00100003B0000006662782F45374635344235342D363743322D343832342D383044432D4334454645303536354442422F7265736F75726365732F636F72652E
310
786D6C8D504B6E833010BD0A9A6D65B0094E42641C85B639412F6099496225D8C89FAAC7AF09546A77DDCC8CDE47F3F4C4F16B7C149FE88371B603565228D06A37187BED20C50BD9437194C23B177FC9A0B06AC40E6618A4B87A97A615D2CE46B431A3D60DB8822A048C50E8473E3A08FA86A32A558A5911EEE5A4F45D5DB1
310
6465A6B34E8A107D0E502C4FE609D26370C96B0CA25A58295232C3AA3143FE692E063D485EF7F5AEE71BD2D2F39634AFFC44DAF7DD9E9CCE6F9CD25DCBFA762BAAD92C4534E34F46ED51451C40D694B6843142EB0FD61C283F34FC85EE0F948A6A96FF31A569F8A729191B37F51A77B105902C0779125254735F793DCBCC7B
310
EE567E03504B010214000A0000080000B670623B3DEE336E79000000790000001B00000000000000000000000000000000006175746F6465736B2D64657369676E2D7061636B6167652E786D6C504B01021400140006080800B670623BD486FD9CA0000000F40000001300000000000000000000000000B20000005B436F6E
310
74656E745F54797065735D2E786D6C504B01021400140006080800B670623BBC1638F5EC0000007C010000080000000000000000000000000083010000636F72652E786D6C504B01021400140006080800B670623B55019EA25F0000007C000000070000000000000000000000000095020000636E782E786D6C504B010214
310
00140006080800B670623B3586FFB671010000D40300000C00000000000000000000000000190300006662782F636F72652E786D6C504B01021400140006080800B670623B4220A0FF7D0000009D0000000B00000000000000000000000000B40400006662782F636E782E786D6C504B01021400140006080800B670623B2F
310
A3FEDE290100001202000031000000000000000000000000005A0500006662782F45374635344235342D363743322D343832342D383044432D4334454645303536354442422F636F72652E786D6C504B01021400140006080800B670623B1B8617914E010000330300003000000000000000000000000000D2060000666278
310
2F45374635344235342D363743322D343832342D383044432D4334454645303536354442422F636E782E786D6C504B01021400140006080800B670623B29652116630500003C10000034000000000000000000000000006E0800006662782F45374635344235342D363743322D343832342D383044432D4334454645303536
310
354442422F6F626A656374732E786D6C504B01021400140006080000B670623B0000000000000000000000003500000000000000000000000000230E00006662782F45374635344235342D363743322D343832342D383044432D4334454645303536354442422F76657274696365732E62696E504B01021400140006080800
310
B670623BF270F13306000000040000003600000000000000000000000000760E00006662782F45374635344235342D363743322D343832342D383044432D4334454645303536354442422F747269616E676C65732E62696E504B01021400140006080000B670623B0000000000000000000000003700000000000000000000
310
000000D00E00006662782F45374635344235342D363743322D343832342D383044432D4334454645303536354442422F617474726962757465732E62696E504B01021400140006080800B670623B08DA0BD190000000410100003600000000000000000000000000250F00006662782F45374635344235342D363743322D34
310
3832342D383044432D4334454645303536354442422F6469726563746F72792E786D6C504B01021400140006080800B670623B6378F24DFF000000A00100003B00000000000000000000000000091000006662782F45374635344235342D363743322D343832342D383044432D4334454645303536354442422F7265736F75
310
726365732F636F72652E786D6C504B0506000000000E000E0080040000611100000000
  0
XRECORD
  5
112
102
{ACAD_REACTORS
330
110
102
}
330
110
100
AcDbXrecord
280
     1
270
     1
271
     1
  0
XRECORD
  5
111
102
{ACAD_REACTORS
330
110
102
}
330
110
100
AcDbXrecord
280
     1
270
     1
271
     1
  0
XRECORD
  5
18A
102
{ACAD_REACTORS
330
110
102
}
330
110
100
AcDbXrecord
280
     1
 70
     0
 90
1778669749
  1
9BF507EE-FAF7-4A99-A33D-4EE51894BC40
310
504B03040A0000080000B670623B3DEE336E79000000790000001B0000006175746F6465736B2D64657369676E2D7061636B6167652E786D6C3C3F786D6C2076657273696F6E3D22312E302220656E636F64696E673D227574662D3822203F3E3C666F726D6174733E3C666F726D61743E687474703A2F2F736368656D612E
310
6175746F6465736B2E636F6D2F64657369676E2D7061636B6167652F323030393C2F666F726D61743E3C2F666F726D6174733E504B0304140006080800B670623BD486FD9CA0000000F4000000130000005B436F6E74656E745F54797065735D2E786D6C7D8EC10E82300C865F65E91D8A1E8C310C0EEA1BF002731658846E
310
D98AC1B77784ABF1D8FE5FBFBF75BBCE937A534CCEB38643598122B6FEE978D0B0485F9C41B54DDD7D022595594E1A469170414C76A4D9A4D207E29CF43ECE46F218070CC6BECC4078ACAA135ACF422C856C0E68EA1BF5669944DDD7BCDE7B1F8E415D77AECB980613C2E4AC91FC167A2B244592486606FC29C8FD7F045B9A
310
EF7053A7E60B504B0304140006080800B670623BCA089DFFEC0000007C01000008000000636F72652E786D6C8D90416E83301045AF62CDB632D8402020E32882F604BD80653BC44AB011B6AB1EBF262152BBEB6A467FFE9B197D76FA9EEFE84BAFDE38DB03CD08206DA553C64E3DC470C1474027CE56E7C22F1B202B66DDC3
310
260367D3EAE2B24BD2D9A06D48AA754AEFA2F05E0740F29E9A1EBCBCEA59642286E4F0B76C11F226269DD15797E0188D42CF2346A57DE662F40ABCAEC77628C6120F654571D50C04B7F5B9C1E3997CD4F550BE3745C3F20DE62C98F9755FAE5A04AD801784B498524C8A4F5A75E4D055873772EC0861F966FF03C545FD138A
310
C686B2D8DF7D621E384D8F3C069CE55B16A93C824A75CB8DFF00504B0304140006080800B670623B55019EA25F0000007C00000007000000636E782E786D6C4DCB3B0E80201045D1AD90E915ED2CF8AC45050C11660C8261F98AB1B07AC9C97D42D718D865D3E909258CFD00CCE24AC6E326A164D74DC0B4128928FF326038
310
472BA13128B1252AC747C6BAB984FC68F0B87FE8960A5C09FE86CFB69FBA01504B0304140006080800B670623B68FC0B7272010000D40300000C0000006662782F636F72652E786D6CC5535B6E833010BC8AE5DF0A6C1E8124328E22D29EA01770C0A128602363A31CBFCB234A53A555FA553EC09AD9F5CE8C31DB5DDA060D
310
D2F4B556190E7C8A9154852E6B5565D8D993B7C668C799D1DA7E29C3488956667884316795D1AE5BA0422B2B950554E9522EA0E87B69312A1A5864B82F3E642B7CE12C54F467BF13C55954D20F7CA0A18EB3DE1A1080E621E31BF3D3F1C2C88C73E65C5D2E6C5DC2B4FA544B8379921C36797888BC3C8A032F4E73EA6D927D
310
EA1DF6F42D49F2E8350D5346C666CE6CDD5ED515460A2B4BCC434A375E1078347C0FE22D5D6DE3D50B5D6F2965642CBF6B725DF96493AB958DC245EEDCD6631E809089F8E61622B2A81703E8219C913144F84C09DF070D8140C8561C9BAB8F3340832CAC363130A576376A108D933095FA747AD0CF0B46E64E983A6D0EAE1F
310
CE089F9EF1FB8E70D44255604258581E9D1D75B259C3125A278D37D80B52DAB4A279CEC62F0EFF44DDC43F9454E8469BFF5244960322CBEF41C6FBC83F01504B0304140006080800B670623B0F71DDB67E0000009D0000000B0000006662782F636E782E786D6C4DCCD10A83201886E15B91FFDCA54DB73F502386BB8F5816
310
32D3703976F9ABD1C18E3E78F87855FB990379BBFCF2296AE02706C4C5471A7C9C349475A408A4352AA7B4FEDD80C47E761A7606A3A69CCA72D0E0C6BE8475D3E0E3F3409428EA6B27A84079A782899AA2EC1A7AE3ECCC2FD858CB2D544655BFD2B67BD87C01504B0304140006080800B670623BE134B4FB28010000120200
310
00310000006662782F38353834323741342D343835462D343034322D383541392D4331303331363839454531452F636F72652E786D6C8D515B6EC32010BC0AE22B55850D0EA424C24451959EA0172086A42831583CAA1CBF503B52FB971F16CDCECC0EACD8DFC71BF836215AEF7A481A0C817183D7D65D7A98D3197108F652
310
04EFD31F1A044E8DA6871586525C82CFD3020DDE25E352419DD76601558C264130DCCAA58771F832A36A544E8511AFCDA486ABBA988634A55D7852C4144A00300FA927949C71DABD1D28A29C7D208A6987383B6CD13BC16BB2E1DBE3911C453B0BA5C8D9EA456E758963CFD684674DAA588A64C747FC2118958C86B2C3788B
310
0841B8FB247487D98EB257CC77188BB6D2FF89F2A49F1465EBD2BA5BE2CEB2082511EDDC9042FB7CBA3DC298FBE4430275DE2A9AE1054ADC60CC08E3A29D89E5F9C5714317C7987C28DFBBBA9E0A97B0D97643A568EB864AF95D5FA9759BF207504B0304140006080800B670623B1B8617914E010000330300003000000066
310
62782F38353834323741342D343835462D343034322D383541392D4331303331363839454531452F636E782E786D6CD593C16EC32010447F0571AD6CE3D489D20813A9877E410FBD62D82434182CC055F3F75D1292E692438FBD206B7698593D61BEFD1E2DF982108D773D6D6B460938E5B571FB9ECE6957AD29D90A1EBC4F
310
77364A9C1CA1A759A682EF839FA72269D8C9D92654AD71C72206887E0E0A22CAF926B15E498B01E0AA19451807D01A34B919F16B070157417138917400F2F6FA41FCF0092A45DEE414C19BDC21783E4BD39D891265658C3D8DEA00A3ACE59CBC8678ACB54CB26EEB6BD7839D7E9348BE70AD9C8321B9BCA7F9A4A26C542347
310
DEE050F09802D22BA6749A800A394DD62899107273365E3C82CFC6A55557BC06C10774B7ABE7AEC3B0F34CF06446280E154026D0542C187BA9DAB6628BF7B6DBB0E5A65B3EB1F58631DE64BBE083F7B65CC218087E22CABB042E51D1F2268F1FE12B3EA24D40D63E9CFE00120194D60B9D5BC67FE6D39CDF37E20AF817881F
310
504B0304140006080800B670623B5933D422630500003B100000340000006662782F38353834323741342D343835462D343034322D383541392D4331303331363839454531452F6F626A656374732E786D6CAD575B6FA33814FE2B887D0642934E9B156594264D158D3A534DD4D13E548A0C38942D60649B4EBABF7E3F8321
310
40924EF6928780CDF1B97EE762EFF32E4B8D37CA45C2F21BD3B547A641F39045491EDF98A5DC5AD7A6F1D9F73863B243661A39C9E88DA9B64DDF8B392B0BBD15D12D295339D85DDEFE618890E6D434C2940871638AF08566C426A5641115AF764424B1E3EDCE76ED9AB0CF36E6A47819302D08A7B984A6D8CFC1C5A89572FB
310
CB91E9F89EA3BEFB9EFAD754E3D3544E654F5F7E920B49F2F040D880CDD89D2CEE2E2EA7D6E56432B6269F2E5CEB7679BBB0DCABF168FE693E9FCEEEA6102C240727AD09A75BD3BF876F78127A4EFDA9D5582B7E4CA590E5390D2BFB6161A5B3E618D182E611E2985001691DAB47FDA5AB7CD3F93C566B2DB2BB7D9E55DD13
310
1D468DEECDB3AB290BFE8409E21C54704115AA6AFF68436BFC8DF65E0B184BF5B74418199194272435D224E084BF9B3E481589EFF5D828747285706581E9BB7B7E5D5D911ABFC6EE312DB7659A2A689A7E85EC0DF04FA5A8344BFEA2FCB834E8845895492EAFB541F2BDA0A63FF59C6AD3F7D4637CA13FD68E34B629891172
310
98597F1D183A57B9B75A98FE9765B05BAB7C3C2EBCE0ACA05C2AF8005A4DE09AA7F29216EB9E15397500C6F47CBE77CA7778FE2BD277AF0AE2C693DD6437D1522427B9D8329E2136F6A8FA19A3E6C56ADF0E5F50CF06D48734EDCEBF22F69C56D97EC138153F804B85E6FABFC7AFEFB32E523BE1F3BD372418E363EDCA7548
310
52949E8724474014288D94610BB57C1BEC4C7F854A89CA8E5324F55B871CBC78CE1BBEE3BFE68D6A5589EF3C730474506FCFA8FCF0659516D0ED04580EEA6425581B77CAE797FF4BCECC16EB2FEB926F49481F746159D06D922712BD730FDEAE42BD40F42C7AA5EF3F198F60E86110D6DD20645A9480B795CF95E3E3A659A8
310
C55E724F408873315335CFFB8584874484344D494E59D94869DB90C26A5B64F49C802CAC1D3ABE18A098D3B7444D123D8A9E5AE8F5214F0AE5B2B6E9B575DA3E61CBD3EA2B4009FA940524DD1305FB6A1FB294F14DF0BEA90BA109ECE1481FDC3FFAE8D60E75141700BE82725371B4873751B2DD960265F788137FACE6DD40
310
B575E4F0A5C99F46629D92131467A41EE11ABD8D4CCC039CA0AFB37C93A08B232B8F0AEFCA1E0A1015DF13FC83322B362463652ECF71D3A8B1A7D1BE65DE1D62C44F22C317D35F574FEB16153BA2D13E543D10A80E74C4A65E78A6B7CBCBD1D5DD9DB59C2DAFACC96C3AB566E3F1C29ADCDD5DBAD7D3C9ED7C822ED74F80A6
310
41755310DE4443F44A9E68373FADF6596BFA0F440AE7BECE2727AE9F4F2B1B53B1E7E00CF0DD1E5C65454A339A4BA2D0FBA05ED2EF0443458F47BDBFCA484CCFE0F2ED7E3DD0013B679C7B5499467F0ECEEADDB9CA85A34CE44B99053949D2C1416DB85DE4B136BB7165FBAC0B7AB3542BED4F8CA182A549847A1319316519
310
95A83A67147B9E5101C47487F2485F1ECE38FD568F839204296D3479219888530154036E6528FBFBC66F98E0D4107563A2D7D9AFF8D389681A08F58D89F22693900A3B407754734FC51C10C010D6D640809EE4718AC1BA3ED4AEDB53CA37283F68805A7E4B72CEB0A4EDEAD5DD8C14059A76AFAA56BA6901E13F32BC51C720
310
12AF41295B5BF61BAD3195181FB506E6B40F4C10AF5AF40EF9F5B159AE5DD1F43C72D635E94310D45C2D49785C5D0B94D3B54AB3C5A38349C0587D338AB48C11CBF339599C02CCA54A70A008A8D03C0B2201D5F9EFCF8F9CE12A9A19CB0410789EB32C63B95ECCF455D658BFE0621A3DA32C5075FB101723D77DAE867E7D0F
310
D90444509B44E2151B4DC2290B065803200FBAA9BE9D392A0603F2D5C2D00D6302A615680F66D2FA166E2079D4C551A54AB758161FCEFD4E450A14704CECFEDF504B0304140006080000B670623B000000000000000000000000350000006662782F38353834323741342D343835462D343034322D383541392D4331303331
310
363839454531452F76657274696365732E62696E504B0304140006080800B670623BF270F1330600000004000000360000006662782F38353834323741342D343835462D343034322D383541392D4331303331363839454531452F747269616E676C65732E62696E636660600000504B0304140006080000B670623B000000
310
000000000000000000370000006662782F38353834323741342D343835462D343034322D383541392D4331303331363839454531452F617474726962757465732E62696E504B0304140006080800B670623B08DA0BD19000000041010000360000006662782F38353834323741342D343835462D343034322D383541392D43
310
31303331363839454531452F6469726563746F72792E786D6C858F410AC3201045AF22B36F53E9A60B35CBEEBAE80D244E44489C6234F4F835464A48035D0DF398FF9F8AF63D0E6CC63039F212F8F9020C7D47C6792B21C5FE7403D62A1188E2E60C98D7234A5830286103A55745067B9D86B8A3CF9C7F90C11DE607FB1443
310
96D7B6A82D282E9A152AD114D5EF2CB866EEE831B8EEA07A7BB5A8D7D61A2BAAEB7FD5F70921FF497D00504B0304140006080800B670623BD9A3B367FE000000A00100003B0000006662782F38353834323741342D343835462D343034322D383541392D4331303331363839454531452F7265736F75726365732F636F7265
310
2E786D6C8D504B6E833010BD0A9A6D65B01D0201194711694FD00B586642AD043BF2A7EAF16B122AB5BB6E6646EFA3797AE2F8B5DC8A4FF4C1383B002B291468B59B8C9D0748F1420E501CA5F0CEC55F3228AC5A708015062966EFD27D83B4B3116DCCA875136EA00A012314FA968F0182FEC045952AC5AC08D7F2AEF455CD
310
58B232D3592745883E07289E4FD609D26370C96B0CA27AB252A464A64D63A6FCD35C0C7A904D73EE467EE664DCD58CD4ED4849D79C5A723ED1B7A61977AF2D6F45B59AA58866F9C9A83DAA8813484E6947182394BFB3BAA7FBBEDEBFD0434FA9A856F91F53BA4FFF342563E38E6F719FB60092E5200F428A6AED2BAF479979
310
AFDDCA6F504B010214000A0000080000B670623B3DEE336E79000000790000001B00000000000000000000000000000000006175746F6465736B2D64657369676E2D7061636B6167652E786D6C504B01021400140006080800B670623BD486FD9CA0000000F40000001300000000000000000000000000B20000005B436F6E
310
74656E745F54797065735D2E786D6C504B01021400140006080800B670623BCA089DFFEC0000007C010000080000000000000000000000000083010000636F72652E786D6C504B01021400140006080800B670623B55019EA25F0000007C000000070000000000000000000000000095020000636E782E786D6C504B010214
310
00140006080800B670623B68FC0B7272010000D40300000C00000000000000000000000000190300006662782F636F72652E786D6C504B01021400140006080800B670623B0F71DDB67E0000009D0000000B00000000000000000000000000B50400006662782F636E782E786D6C504B01021400140006080800B670623BE1
310
34B4FB280100001202000031000000000000000000000000005C0500006662782F38353834323741342D343835462D343034322D383541392D4331303331363839454531452F636F72652E786D6C504B01021400140006080800B670623B1B8617914E010000330300003000000000000000000000000000D3060000666278
310
2F38353834323741342D343835462D343034322D383541392D4331303331363839454531452F636E782E786D6C504B01021400140006080800B670623B5933D422630500003B10000034000000000000000000000000006F0800006662782F38353834323741342D343835462D343034322D383541392D4331303331363839
310
454531452F6F626A656374732E786D6C504B01021400140006080000B670623B0000000000000000000000003500000000000000000000000000240E00006662782F38353834323741342D343835462D343034322D383541392D4331303331363839454531452F76657274696365732E62696E504B01021400140006080800
310
B670623BF270F13306000000040000003600000000000000000000000000770E00006662782F38353834323741342D343835462D343034322D383541392D4331303331363839454531452F747269616E676C65732E62696E504B01021400140006080000B670623B0000000000000000000000003700000000000000000000
310
000000D10E00006662782F38353834323741342D343835462D343034322D383541392D4331303331363839454531452F617474726962757465732E62696E504B01021400140006080800B670623B08DA0BD190000000410100003600000000000000000000000000260F00006662782F38353834323741342D343835462D34
310
3034322D383541392D4331303331363839454531452F6469726563746F72792E786D6C504B01021400140006080800B670623BD9A3B367FE000000A00100003B000000000000000000000000000A1000006662782F38353834323741342D343835462D343034322D383541392D4331303331363839454531452F7265736F75
310
726365732F636F72652E786D6C504B0506000000000E000E0080040000611100000000
  0
XRECORD
  5
113
102
{ACAD_REACTORS
330
110
102
}
330
110
100
AcDbXrecord
280
     1
270
     1
271
     1
  0
XRECORD
  5
114
102
{ACAD_REACTORS
330
110
102
}
330
110
100
AcDbXrecord
280
     1
270
     1
271
     1
  0
CELLSTYLEMAP
  5
67410
102
{ACAD_REACTORS
330
104
102
}
330
104
100
AcDbCellStyleMap
 90
        3
300
CELLSTYLE
  1
TABLEFORMAT_BEGIN
 90
        5
170
     1
 91
        0
 92
    32768
 62
   257
 93
        1
300
CONTENTFORMAT
  1
CONTENTFORMAT_BEGIN
 90
        0
 91
        0
 92
      512
 93
        0
300

 40
0.0
140
1.0
 94
        5
 62
     0
340
11
144
0.25
309
CONTENTFORMAT_END
171
     1
301
MARGIN
  1
CELLMARGIN_BEGIN
 40
0.06
 40
0.06
 40
0.06
 40
0.06
 40
0.18
 40
0.18
309
CELLMARGIN_END
 94
        6
 95
        1
302
GRIDFORMAT
  1
GRIDFORMAT_BEGIN
 90
        0
 91
        1
 62
     0
 92
       -2
340
0
 93
        0
 40
0.045
309
GRIDFORMAT_END
 95
        2
302
GRIDFORMAT
  1
GRIDFORMAT_BEGIN
 90
        0
 91
        1
 62
     0
 92
       -2
340
0
 93
        0
 40
0.045
309
GRIDFORMAT_END
 95
        4
302
GRIDFORMAT
  1
GRIDFORMAT_BEGIN
 90
        0
 91
        1
 62
     0
 92
       -2
340
0
 93
        0
 40
0.045
309
GRIDFORMAT_END
 95
        8
302
GRIDFORMAT
  1
GRIDFORMAT_BEGIN
 90
        0
 91
        1
 62
     0
 92
       -2
340
0
 93
        0
 40
0.045
309
GRIDFORMAT_END
 95
       16
302
GRIDFORMAT
  1
GRIDFORMAT_BEGIN
 90
        0
 91
        1
 62
     0
 92
       -2
340
0
 93
        0
 40
0.045
309
GRIDFORMAT_END
 95
       32
302
GRIDFORMAT
  1
GRIDFORMAT_BEGIN
 90
        0
 91
        1
 62
     0
 92
       -2
340
0
 93
        0
 40
0.045
309
GRIDFORMAT_END
309
TABLEFORMAT_END
  1
CELLSTYLE_BEGIN
 90
        1
 91
        1
300
_TITLE
309
CELLSTYLE_END
300
CELLSTYLE
  1
TABLEFORMAT_BEGIN
 90
        5
170
     1
 91
        0
 92
        0
 62
   257
 93
        1
300
CONTENTFORMAT
  1
CONTENTFORMAT_BEGIN
 90
        0
 91
        0
 92
      512
 93
        0
300

 40
0.0
140
1.0
 94
        5
 62
     0
340
11
144
0.18
309
CONTENTFORMAT_END
171
     1
301
MARGIN
  1
CELLMARGIN_BEGIN
 40
0.06
 40
0.06
 40
0.06
 40
0.06
 40
0.18
 40
0.18
309
CELLMARGIN_END
 94
        6
 95
        1
302
GRIDFORMAT
  1
GRIDFORMAT_BEGIN
 90
        0
 91
        1
 62
     0
 92
       -2
340
0
 93
        0
 40
0.045
309
GRIDFORMAT_END
 95
        2
302
GRIDFORMAT
  1
GRIDFORMAT_BEGIN
 90
        0
 91
        1
 62
     0
 92
       -2
340
0
 93
        0
 40
0.045
309
GRIDFORMAT_END
 95
        4
302
GRIDFORMAT
  1
GRIDFORMAT_BEGIN
 90
        0
 91
        1
 62
     0
 92
       -2
340
0
 93
        0
 40
0.045
309
GRIDFORMAT_END
 95
        8
302
GRIDFORMAT
  1
GRIDFORMAT_BEGIN
 90
        0
 91
        1
 62
     0
 92
       -2
340
0
 93
        0
 40
0.045
309
GRIDFORMAT_END
 95
       16
302
GRIDFORMAT
  1
GRIDFORMAT_BEGIN
 90
        0
 91
        1
 62
     0
 92
       -2
340
0
 93
        0
 40
0.045
309
GRIDFORMAT_END
 95
       32
302
GRIDFORMAT
  1
GRIDFORMAT_BEGIN
 90
        0
 91
        1
 62
     0
 92
       -2
340
0
 93
        0
 40
0.045
309
GRIDFORMAT_END
309
TABLEFORMAT_END
  1
CELLSTYLE_BEGIN
 90
        2
 91
        1
300
_HEADER
309
CELLSTYLE_END
300
CELLSTYLE
  1
TABLEFORMAT_BEGIN
 90
        5
170
     1
 91
        0
 92
        0
 62
   257
 93
        1
300
CONTENTFORMAT
  1
CONTENTFORMAT_BEGIN
 90
        0
 91
        0
 92
      512
 93
        0
300

 40
0.0
140
1.0
 94
        2
 62
     0
340
11
144
0.18
309
CONTENTFORMAT_END
171
     1
301
MARGIN
  1
CELLMARGIN_BEGIN
 40
0.06
 40
0.06
 40
0.06
 40
0.06
 40
0.18
 40
0.18
309
CELLMARGIN_END
 94
        6
 95
        1
302
GRIDFORMAT
  1
GRIDFORMAT_BEGIN
 90
        0
 91
        1
 62
     0
 92
       -2
340
0
 93
        0
 40
0.045
309
GRIDFORMAT_END
 95
        2
302
GRIDFORMAT
  1
GRIDFORMAT_BEGIN
 90
        0
 91
        1
 62
     0
 92
       -2
340
0
 93
        0
 40
0.045
309
GRIDFORMAT_END
 95
        4
302
GRIDFORMAT
  1
GRIDFORMAT_BEGIN
 90
        0
 91
        1
 62
     0
 92
       -2
340
0
 93
        0
 40
0.045
309
GRIDFORMAT_END
 95
        8
302
GRIDFORMAT
  1
GRIDFORMAT_BEGIN
 90
        0
 91
        1
 62
     0
 92
       -2
340
0
 93
        0
 40
0.045
309
GRIDFORMAT_END
 95
       16
302
GRIDFORMAT
  1
GRIDFORMAT_BEGIN
 90
        0
 91
        1
 62
     0
 92
       -2
340
0
 93
        0
 40
0.045
309
GRIDFORMAT_END
 95
       32
302
GRIDFORMAT
  1
GRIDFORMAT_BEGIN
 90
        0
 91
        1
 62
     0
 92
       -2
340
0
 93
        0
 40
0.045
309
GRIDFORMAT_END
309
TABLEFORMAT_END
  1
CELLSTYLE_BEGIN
 90
        3
 91
        2
300
_DATA
309
CELLSTYLE_END
  0
ENDSEC
  0
SECTION
  2
ACDSDATA
 70
     2
 71
     8
  0
ACDSSCHEMA
 90
        0
  1
AcDb_Thumbnail_Schema
  2
AcDbDs::ID
280
    10
 91
        8
  2
Thumbnail_Data
280
    15
 91
        0
101
ACDSRECORD
 95
        0
 90
        1
  2
AcDbDs::TreatedAsObjectData
280
     1
291
     1
101
ACDSRECORD
 95
        0
 90
        2
  2
AcDbDs::Legacy
280
     1
291
     1
101
ACDSRECORD
  1
AcDbDs::ID
 90
        3
  2
AcDs:Indexable
280
     1
291
     1
101
ACDSRECORD
  1
AcDbDs::ID
 90
        4
  2
AcDbDs::HandleAttribute
280
     7
282
     1
  0
ACDSSCHEMA
 90
        1
  1
AcDbDs::TreatedAsObjectDataSchema
  2
AcDbDs::TreatedAsObjectData
280
     1
 91
        0
  0
ACDSSCHEMA
 90
        2
  1
AcDbDs::LegacySchema
  2
AcDbDs::Legacy
280
     1
 91
        0
  0
ACDSSCHEMA
 90
        3
  1
AcDbDs::IndexedPropertySchema
  2
AcDs:Indexable
280
     1
 91
        0
  0
ACDSSCHEMA
 90
        4
  1
AcDbDs::HandleAttributeSchema
  2
AcDbDs::HandleAttribute
280
     7
 91
        1
284
     1
  0
ACDSSCHEMA
 90
        5
  1
AcDb3DSolid_ASM_Data
  2
AcDbDs::ID
280
    10
 91
        8
  2
ASM_Data
280
    15
 91
        0
101
ACDSRECORD
 95
        5
 90
        1
  2
AcDbDs::TreatedAsObjectData
280
     1
291
     1
101
ACDSRECORD
 95
        5
 90
        2
  2
AcDbDs::Legacy
280
     1
291
     1
101
ACDSRECORD
  1
AcDbDs::ID
 90
        3
  2
AcDs:Indexable
280
     1
291
     1
101
ACDSRECORD
  1
AcDbDs::ID
 90
        4
  2
AcDbDs::HandleAttribute
280
     7
282
     1
  0
ACDSRECORD
 90
        0
  2
AcDbDs::ID
280
    10
320
22
  2
Thumbnail_Data
280
    15
 94
     1666
310
89504E470D0A1A0A0000000D49484452000001000000006C0803000000B2ED9CC100000300504C5445212830FFFFFF2128300000000000000000000000000000000000000000000000000000330000660000990000CC0000FF0033000033330033660033990033CC0033FF0066000066330066660066990066CC0066FF0099
310
000099330099660099990099CC0099FF00CC0000CC3300CC6600CC9900CCCC00CCFF00FF0000FF3300FF6600FF9900FFCC00FFFF3300003300333300663300993300CC3300FF3333003333333333663333993333CC3333FF3366003366333366663366993366CC3366FF3399003399333399663399993399CC3399FF33CC00
310
33CC3333CC6633CC9933CCCC33CCFF33FF0033FF3333FF6633FF9933FFCC33FFFF6600006600336600666600996600CC6600FF6633006633336633666633996633CC6633FF6666006666336666666666996666CC6666FF6699006699336699666699996699CC6699FF66CC0066CC3366CC6666CC9966CCCC66CCFF66FF0066
310
FF3366FF6666FF9966FFCC66FFFF9900009900339900669900999900CC9900FF9933009933339933669933999933CC9933FF9966009966339966669966999966CC9966FF9999009999339999669999999999CC9999FF99CC0099CC3399CC6699CC9999CCCC99CCFF99FF0099FF3399FF6699FF9999FFCC99FFFFCC0000CC00
310
33CC0066CC0099CC00CCCC00FFCC3300CC3333CC3366CC3399CC33CCCC33FFCC6600CC6633CC6666CC6699CC66CCCC66FFCC9900CC9933CC9966CC9999CC99CCCC99FFCCCC00CCCC33CCCC66CCCC99CCCCCCCCCCFFCCFF00CCFF33CCFF66CCFF99CCFFCCCCFFFFFF0000FF0033FF0066FF0099FF00CCFF00FFFF3300FF3333
310
FF3366FF3399FF33CCFF33FFFF6600FF6633FF6666FF6699FF66CCFF66FFFF9900FF9933FF9966FF9999FF99CCFF99FFFFCC00FFCC33FFCC66FFCC99FFCCCCFFCCFFFFFF00FFFF33FFFF66FFFF99FFFFCCFFFFFF0000000D0D0D1A1A1A2828283535354343435050505D5D5D6B6B6B787878868686939393A1A1A1AEAEAEBB
310
BBBBC9C9C9D6D6D6E4E4E4F1F1F1FFFFFF0000000000000000000000000000000000000000000000000000000000002E4550F1000001634944415478DAED9BCB72C2301004F7FFFF77EE297044EC5816962E2133DD557040EC615BD25A0FA802000000000000000000804F43F2C842F3110D8FFC67F390D30858E848598D80
310
4712D302DACB640AD4FC14D056396C04AC960D93A7C08280168200042020514021000108400002C205F89C07AC0B28135605140210902D20BD06B4F7D875809C044CF37D969A2DC0A6126E53E094CB28B96788998053215085093876F938B526C0EC31B84B5A3742FC04B48BE2F723DB56C0D6F5BA17622AE0E7D66BB0E537
310
16703481808B9BD30C01BBB28880500117FB80B422D8DB0AA508B80890CAE7507CD4931A9E08D99C896994E8E808A122050C56072102DE8420C04A40A70501084040928073539A80F369F96B2F902AA0967E60FE7F05FC6E8C9B0217AB2104244D01E9CE67CE35205A40F7BF417102E247C07125142540DD6F070B50190AD0
310
FDDDE0EEBAC428FD4136FD7B212B0100000000000000000000F0F77C015593AD5B220BCA400000000049454E44AE4260829E009C02AB882400670008AA1A09C01F803DB482842B007804B0C60D91CF2F9E2F7FB1C23DC1579225015C3F890CE05202B8F9242E001C5FF3827301006B5440D9FC87A325E680CBB4BF3A80E341
310
024800126BCED8DCCAFE0BC89323148B0004169DB1773E315BC236EF7D16429C74C0FC8810FAB822E4686C54F4D26BA9A9E2DD7790D975BD451A1FD53D220800A0797E05CB04E203000DE41FA502A8BD05F61574D1160836078CE58FF12DE253CECF072C2F70EA6F011040B1F60060AF8009C658FE140940F746886607B0F5
310
F2D84660BD1618B88A08D2027100640B8C5D0B2DBC0AC45A06BBF6C2581840B855A0358D18E98F251203406F1A612A80B202BAD38891FF580B500000D49D4988F37FAC813E72214627000A3582A5C338FE00598ED82311F33F3A0000000049454E44AE4260820F467818FD4AC64A010000000049454E44AE42608200187F52
310
539FF6AC0FF2D01229B97F7B56AE64E8787DBF9E93B283504D4929EEDB336DE133B927D0B706F146D8FDD54728002424931276690CDE5FFA471401522320E6FA719CDCC9E90D234F422DA512220CD4066298BF969A4028B717C4D481E25C1BC6C59A99842240E2F24B1F92F8AC20F021F00EFE737AFD0FDF7E00E9E9886BC5
310
1247A50000000049454E44AE426082
  0
ENDSEC
  0
EOF
