  0
SECTION
  2
HEADER
  9
$ACADVER
  1
AC1032
  9
$ACADMAINTVER
 90
      197
  9
$DWGCODEPAGE
  3
ANSI_1252
  9
$LASTSAVEDBY
  1
gregb
  9
$REQUIREDVERSIONS
160
                 0
  9
$INSBASE
 10
0.0
 20
0.0
 30
0.0
  9
$EXTMIN
 10
163753.9972915684
 20
108400.4648929979
 30
-0.0421403970740357
  9
$EXTMAX
 10
165031.8676263015
 20
109452.1123190314
 30
0.0280978851196778
  9
$LIMMIN
 10
0.0
 20
0.0
  9
$LIMMAX
 10
12.0
 20
9.0
  9
$ORTHOMODE
 70
     0
  9
$REGENMODE
 70
     1
  9
$FILLMODE
 70
     1
  9
$QTEXTMODE
 70
     0
  9
$MIRRTEXT
 70
     0
  9
$LTSCALE
 40
1.0
  9
$ATTMODE
 70
     1
  9
$TEXTSIZE
 40
0.2
  9
$TRACEWID
 40
0.05
  9
$TEXTSTYLE
  7
Standard
  9
$CLAYER
  8
freecads.com
  9
$CELTYPE
  6
ByLayer
  9
$CECOLOR
 62
   256
  9
$CELTSCALE
 40
1.0
  9
$DISPSILH
 70
     1
  9
$DIMSCALE
 40
1.0
  9
$DIMASZ
 40
0.18
  9
$DIMEXO
 40
0.0625
  9
$DIMDLI
 40
0.38
  9
$DIMRND
 40
0.0
  9
$DIMDLE
 40
0.0
  9
$DIMEXE
 40
0.18
  9
$DIMTP
 40
0.0
  9
$DIMTM
 40
0.0
  9
$DIMTXT
 40
0.18
  9
$DIMCEN
 40
0.09
  9
$DIMTSZ
 40
0.0
  9
$DIMTOL
 70
     0
  9
$DIMLIM
 70
     0
  9
$DIMTIH
 70
     1
  9
$DIMTOH
 70
     1
  9
$DIMSE1
 70
     0
  9
$DIMSE2
 70
     0
  9
$DIMTAD
 70
     0
  9
$DIMZIN
 70
     0
  9
$DIMBLK
  1

  9
$DIMASO
 70
     1
  9
$DIMSHO
 70
     1
  9
$DIMPOST
  1

  9
$DIMAPOST
  1

  9
$DIMALT
 70
     0
  9
$DIMALTD
 70
     2
  9
$DIMALTF
 40
25.4
  9
$DIMLFAC
 40
1.0
  9
$DIMTOFL
 70
     0
  9
$DIMTVP
 40
0.0
  9
$DIMTIX
 70
     0
  9
$DIMSOXD
 70
     0
  9
$DIMSAH
 70
     0
  9
$DIMBLK1
  1

  9
$DIMBLK2
  1

  9
$DIMSTYLE
  2
Standard
  9
$DIMCLRD
 70
     0
  9
$DIMCLRE
 70
     0
  9
$DIMCLRT
 70
     0
  9
$DIMTFAC
 40
1.0
  9
$DIMGAP
 40
0.09
  9
$DIMJUST
 70
     0
  9
$DIMSD1
 70
     0
  9
$DIMSD2
 70
     0
  9
$DIMTOLJ
 70
     1
  9
$DIMTZIN
 70
     0
  9
$DIMALTZ
 70
     0
  9
$DIMALTTZ
 70
     0
  9
$DIMUPT
 70
     0
  9
$DIMDEC
 70
     4
  9
$DIMTDEC
 70
     4
  9
$DIMALTU
 70
     2
  9
$DIMALTTD
 70
     2
  9
$DIMTXSTY
  7
Standard
  9
$DIMAUNIT
 70
     0
  9
$DIMADEC
 70
     0
  9
$DIMALTRND
 40
0.0
  9
$DIMAZIN
 70
     0
  9
$DIMDSEP
 70
    46
  9
$DIMATFIT
 70
     3
  9
$DIMFRAC
 70
     0
  9
$DIMLDRBLK
  1

  9
$DIMLUNIT
 70
     2
  9
$DIMLWD
 70
    -2
  9
$DIMLWE
 70
    -2
  9
$DIMTMOVE
 70
     0
  9
$DIMFXL
 40
1.0
  9
$DIMFXLON
 70
     0
  9
$DIMJOGANG
 40
0.7853981633974483
  9
$DIMTFILL
 70
     0
  9
$DIMTFILLCLR
 70
     0
  9
$DIMARCSYM
 70
     0
  9
$DIMLTYPE
  6

  9
$DIMLTEX1
  6

  9
$DIMLTEX2
  6

  9
$DIMTXTDIRECTION
 70
     0
  9
$LUNITS
 70
     2
  9
$LUPREC
 70
     4
  9
$SKETCHINC
 40
0.1
  9
$FILLETRAD
 40
0.0
  9
$AUNITS
 70
     0
  9
$AUPREC
 70
     0
  9
$MENU
  1
.
  9
$ELEVATION
 40
0.0
  9
$PELEVATION
 40
0.0
  9
$THICKNESS
 40
0.0
  9
$LIMCHECK
 70
     0
  9
$CHAMFERA
 40
0.0
  9
$CHAMFERB
 40
0.0
  9
$CHAMFERC
 40
0.0
  9
$CHAMFERD
 40
0.0
  9
$SKPOLY
 70
     0
  9
$TDCREATE
 40
2458157.454583334
  9
$TDUCREATE
 40
2458157.287916667
  9
$TDUPDATE
 40
2460668.825416667
  9
$TDUUPDATE
 40
2460668.658750000
  9
$TDINDWG
 40
0.2104398148
  9
$TDUSRTIMER
 40
0.2104398148
  9
$USRTIMER
 70
     1
  9
$ANGBASE
 50
0.0
  9
$ANGDIR
 70
     0
  9
$PDMODE
 70
     0
  9
$PDSIZE
 40
0.0
  9
$PLINEWID
 40
0.0
  9
$SPLFRAME
 70
     0
  9
$SPLINETYPE
 70
     6
  9
$SPLINESEGS
 70
     8
  9
$HANDSEED
  5
67412
  9
$SURFTAB1
 70
     6
  9
$SURFTAB2
 70
     6
  9
$SURFTYPE
 70
     6
  9
$SURFU
 70
     6
  9
$SURFV
 70
     6
  9
$UCSBASE
  2

  9
$UCSNAME
  2

  9
$UCSORG
 10
0.0
 20
0.0
 30
0.0
  9
$UCSXDIR
 10
1.0
 20
0.0
 30
0.0
  9
$UCSYDIR
 10
0.0
 20
1.0
 30
0.0
  9
$UCSORTHOREF
  2

  9
$UCSORTHOVIEW
 70
     0
  9
$UCSORGTOP
 10
0.0
 20
0.0
 30
0.0
  9
$UCSORGBOTTOM
 10
0.0
 20
0.0
 30
0.0
  9
$UCSORGLEFT
 10
0.0
 20
0.0
 30
0.0
  9
$UCSORGRIGHT
 10
0.0
 20
0.0
 30
0.0
  9
$UCSORGFRONT
 10
0.0
 20
0.0
 30
0.0
  9
$UCSORGBACK
 10
0.0
 20
0.0
 30
0.0
  9
$PUCSBASE
  2

  9
$PUCSNAME
  2

  9
$PUCSORG
 10
0.0
 20
0.0
 30
0.0
  9
$PUCSXDIR
 10
1.0
 20
0.0
 30
0.0
  9
$PUCSYDIR
 10
0.0
 20
1.0
 30
0.0
  9
$PUCSORTHOREF
  2

  9
$PUCSORTHOVIEW
 70
     0
  9
$PUCSORGTOP
 10
0.0
 20
0.0
 30
0.0
  9
$PUCSORGBOTTOM
 10
0.0
 20
0.0
 30
0.0
  9
$PUCSORGLEFT
 10
0.0
 20
0.0
 30
0.0
  9
$PUCSORGRIGHT
 10
0.0
 20
0.0
 30
0.0
  9
$PUCSORGFRONT
 10
0.0
 20
0.0
 30
0.0
  9
$PUCSORGBACK
 10
0.0
 20
0.0
 30
0.0
  9
$USERI1
 70
     0
  9
$USERI2
 70
     0
  9
$USERI3
 70
     0
  9
$USERI4
 70
     0
  9
$USERI5
 70
     0
  9
$USERR1
 40
0.0
  9
$USERR2
 40
0.0
  9
$USERR3
 40
0.0
  9
$USERR4
 40
0.0
  9
$USERR5
 40
0.0
  9
$WORLDVIEW
 70
     1
  9
$SHADEDGE
 70
     3
  9
$SHADEDIF
 70
    70
  9
$TILEMODE
 70
     1
  9
$MAXACTVP
 70
    64
  9
$PINSBASE
 10
0.0
 20
0.0
 30
0.0
  9
$PLIMCHECK
 70
     0
  9
$PEXTMIN
 10
0.0
 20
0.0
 30
0.0
  9
$PEXTMAX
 10
0.0
 20
0.0
 30
0.0
  9
$PLIMMIN
 10
0.0
 20
0.0
  9
$PLIMMAX
 10
12.0
 20
9.0
  9
$UNITMODE
 70
     0
  9
$VISRETAIN
 70
     1
  9
$PLINEGEN
 70
     0
  9
$PSLTSCALE
 70
     1
  9
$TREEDEPTH
 70
  3020
  9
$CMLSTYLE
  2
Standard
  9
$CMLJUST
 70
     0
  9
$CMLSCALE
 40
1.0
  9
$PROXYGRAPHICS
 70
     1
  9
$MEASUREMENT
 70
     0
  9
$CELWEIGHT
370
    -1
  9
$ENDCAPS
280
     0
  9
$JOINSTYLE
280
     0
  9
$LWDISPLAY
290
     0
  9
$INSUNITS
 70
     1
  9
$HYPERLINKBASE
  1

  9
$STYLESHEET
  1
monochrome.ctb
  9
$XEDIT
290
     1
  9
$CEPSNTYPE
380
     0
  9
$PSTYLEMODE
290
     1
  9
$FINGERPRINTGUID
  2
{358EB121-6EE0-9143-8A3E-6E8E8869FDA6}
  9
$VERSIONGUID
  2
{62C710B1-EB19-DC4C-A743-671D5AD1446F}
  9
$EXTNAMES
290
     1
  9
$PSVPSCALE
 40
0.0
  9
$OLESTARTUP
290
     0
  9
$SORTENTS
280
   127
  9
$INDEXCTL
280
     0
  9
$HIDETEXT
280
     1
  9
$XCLIPFRAME
280
     2
  9
$HALOGAP
280
     0
  9
$OBSCOLOR
 70
   257
  9
$OBSLTYPE
280
     0
  9
$INTERSECTIONDISPLAY
280
     0
  9
$INTERSECTIONCOLOR
 70
   257
  9
$DIMASSOC
280
     2
  9
$PROJECTNAME
  1

  9
$CAMERADISPLAY
290
     0
  9
$LENSLENGTH
 40
50.0
  9
$CAMERAHEIGHT
 40
0.0
  9
$STEPSPERSEC
 40
2.0
  9
$STEPSIZE
 40
6.0
  9
$3DDWFPREC
 40
2.0
  9
$PSOLWIDTH
 40
0.25
  9
$PSOLHEIGHT
 40
4.0
  9
$LOFTANG1
 40
1.570796326794896
  9
$LOFTANG2
 40
1.570796326794896
  9
$LOFTMAG1
 40
0.0
  9
$LOFTMAG2
 40
0.0
  9
$LOFTPARAM
 70
     7
  9
$LOFTNORMALS
280
     1
  9
$LATITUDE
 40
37.795
  9
$LONGITUDE
 40
-122.394
  9
$NORTHDIRECTION
 40
0.0
  9
$TIMEZONE
 70
 -8000
  9
$LIGHTGLYPHDISPLAY
280
     1
  9
$TILEMODELIGHTSYNCH
280
     1
  9
$CMATERIAL
347
96
  9
$SOLIDHIST
280
     0
  9
$SHOWHIST
280
     1
  9
$DWFFRAME
280
     2
  9
$DGNFRAME
280
     0
  9
$REALWORLDSCALE
290
     1
  9
$INTERFERECOLOR
 62
     1
  9
$INTERFEREOBJVS
345
A3
  9
$INTERFEREVPVS
346
A0
  9
$CSHADOW
280
     0
  9
$SHADOWPLANELOCATION
 40
0.0
  0
ENDSEC
  0
SECTION
  2
CLASSES
  0
CLASS
  1
ACDBDICTIONARYWDFLT
  2
AcDbDictionaryWithDefault
  3
ObjectDBX Classes
 90
        0
 91
        1
280
     0
281
     0
  0
CLASS
  1
DICTIONARYVAR
  2
AcDbDictionaryVar
  3
ObjectDBX Classes
 90
        0
 91
       27
280
     0
281
     0
  0
CLASS
  1
TABLESTYLE
  2
AcDbTableStyle
  3
ObjectDBX Classes
 90
     4095
 91
        1
280
     0
281
     0
  0
CLASS
  1
MATERIAL
  2
AcDbMaterial
  3
ObjectDBX Classes
 90
     1153
 91
        3
280
     0
281
     0
  0
CLASS
  1
VISUALSTYLE
  2
AcDbVisualStyle
  3
ObjectDBX Classes
 90
     4095
 91
       25
280
     0
281
     0
  0
CLASS
  1
SCALE
  2
AcDbScale
  3
ObjectDBX Classes
 90
     1153
 91
       34
280
     0
281
     0
  0
CLASS
  1
MLEADERSTYLE
  2
AcDbMLeaderStyle
  3
ACDB_MLEADERSTYLE_CLASS
 90
     4095
 91
        1
280
     0
281
     0
  0
CLASS
  1
CELLSTYLEMAP
  2
AcDbCellStyleMap
  3
ObjectDBX Classes
 90
     1152
 91
        1
280
     0
281
     0
  0
CLASS
  1
EXACXREFPANELOBJECT
  2
ExAcXREFPanelObject
  3
EXAC_ESW
 90
     1025
 91
        1
280
     0
281
     0
  0
CLASS
  1
NPOCOLLECTION
  2
AcDbImpNonPersistentObjectsCollection
  3
ObjectDBX Classes
 90
     1153
 91
        1
280
     0
281
     0
  0
CLASS
  1
LAYER_INDEX
  2
AcDbLayerIndex
  3
ObjectDBX Classes
 90
        0
 91
        0
280
     0
281
     0
  0
CLASS
  1
SPATIAL_INDEX
  2
AcDbSpatialIndex
  3
ObjectDBX Classes
 90
        0
 91
        0
280
     0
281
     0
  0
CLASS
  1
IDBUFFER
  2
AcDbIdBuffer
  3
ObjectDBX Classes
 90
        0
 91
        0
280
     0
281
     0
  0
CLASS
  1
ACDBSECTIONVIEWSTYLE
  2
AcDbSectionViewStyle
  3
ObjectDBX Classes
 90
     1025
 91
        2
280
     0
281
     0
  0
CLASS
  1
ACDBDETAILVIEWSTYLE
  2
AcDbDetailViewStyle
  3
ObjectDBX Classes
 90
     1025
 91
        2
280
     0
281
     0
  0
CLASS
  1
SORTENTSTABLE
  2
AcDbSortentsTable
  3
ObjectDBX Classes
 90
        0
 91
        1
280
     0
281
     0
  0
CLASS
  1
ACAD_EVALUATION_GRAPH
  2
AcDbEvalGraph
  3
ObjectDBX Classes
 90
     1153
 91
        0
280
     0
281
     0
  0
CLASS
  1
BLOCKLINEARPARAMETER
  2
AcDbBlockLinearParameter
  3
ObjectDBX Classes
 90
     1153
 91
        0
280
     0
281
     0
  0
CLASS
  1
BLOCKLINEARGRIP
  2
AcDbBlockLinearGrip
  3
ObjectDBX Classes
 90
     1153
 91
        0
280
     0
281
     0
  0
CLASS
  1
BLOCKGRIPLOCATIONCOMPONENT
  2
AcDbBlockGripExpr
  3
ObjectDBX Classes
 90
     1153
 91
        0
280
     0
281
     0
  0
CLASS
  1
BLOCKSTRETCHACTION
  2
AcDbBlockStretchAction
  3
ObjectDBX Classes
 90
     1153
 91
        0
280
     0
281
     0
  0
CLASS
  1
ACDB_DYNAMICBLOCKPURGEPREVENTER_VERSION
  2
AcDbDynamicBlockPurgePreventer
  3
ObjectDBX Classes
 90
     1153
 91
        0
280
     0
281
     0
  0
CLASS
  1
BLOCKVISIBILITYPARAMETER
  2
AcDbBlockVisibilityParameter
  3
ObjectDBX Classes
 90
     1153
 91
        0
280
     0
281
     0
  0
CLASS
  1
BLOCKVISIBILITYGRIP
  2
AcDbBlockVisibilityGrip
  3
ObjectDBX Classes
 90
     1153
 91
        0
280
     0
281
     0
  0
CLASS
  1
ACDB_BLOCKREPRESENTATION_DATA
  2
AcDbBlockRepresentationData
  3
ObjectDBX Classes
 90
     1153
 91
        0
280
     0
281
     0
  0
CLASS
  1
SURFACE
  2
AcDbSurface
  3
ObjectDBX Classes
 90
     4095
 91
        0
280
     0
281
     1
  0
CLASS
  1
ACDBASSOCPERSSUBENTMANAGER
  2
AcDbAssocPersSubentManager
  3
ObjectDBX Classes
 90
     1024
 91
        1
280
     0
281
     0
  0
CLASS
  1
BLOCKARRAYACTION
  2
AcDbBlockArrayAction
  3
ObjectDBX Classes
 90
     1153
 91
        0
280
     0
281
     0
  0
CLASS
  1
BLOCKLOOKUPPARAMETER
  2
AcDbBlockLookupParameter
  3
ObjectDBX Classes
 90
     1153
 91
        0
280
     0
281
     0
  0
CLASS
  1
BLOCKLOOKUPGRIP
  2
AcDbBlockLookupGrip
  3
ObjectDBX Classes
 90
     1153
 91
        0
280
     0
281
     0
  0
CLASS
  1
BLOCKLOOKUPACTION
  2
AcDbBlockLookupAction
  3
ObjectDBX Classes
 90
     1153
 91
        0
280
     0
281
     0
  0
CLASS
  1
WIPEOUT
  2
AcDbWipeout
  3
WipeOut|Product Desc: Object Enabler for WipeOut entity | Company: Autodesk, Inc. | WEB Address: www.autodesk.com
 90
     2175
 91
        0
280
     0
281
     1
  0
CLASS
  1
WIPEOUTVARIABLES
  2
AcDbWipeoutVariables
  3
"WipeOut|Product Desc:     WipeOut Dbx Application|Company:          Autodesk, Inc.|WEB Address:      www.autodesk.com"
 90
        0
 91
        1
280
     0
281
     0
  0
ENDSEC
  0
SECTION
  2
TABLES
  0
TABLE
  2
VPORT
  5
8
330
0
100
AcDbSymbolTable
 70
     1
  0
VPORT
  5
94
330
8
100
AcDbSymbolTableRecord
100
AcDbViewportTableRecord
  2
*Active
 70
     0
 10
0.0
 20
0.0
 11
1.0
 21
1.0
 12
164810.0839349868
 22
109042.0630264523
 13
0.0
 23
0.0
 14
0.5
 24
0.5
 15
0.5
 25
0.5
 16
0.0
 26
0.0
 36
1.0
 17
0.0
 27
0.0
 37
0.0
 40
2976.309847550001
 41
2.293369663941871
 42
50.0
 43
0.0
 44
0.0
 50
0.0
 51
0.0
 71
     0
 72
  1000
 73
     1
 74
     3
 75
     0
 76
     0
 77
     0
 78
     0
281
     0
 65
     1
110
0.0
120
0.0
130
0.0
111
1.0
121
0.0
131
0.0
112
0.0
122
1.0
132
0.0
 79
     0
146
0.0
348
9F
 60
     3
 61
     5
292
     1
282
     1
141
0.0
142
0.0
 63
   250
421
  3355443
1001
ACAD_NAV_VCDISPLAY
1070
     3
  0
ENDTAB
  0
TABLE
  2
LTYPE
  5
5
330
0
100
AcDbSymbolTable
 70
     1
  0
LTYPE
  5
14
330
5
100
AcDbSymbolTableRecord
100
AcDbLinetypeTableRecord
  2
ByBlock
 70
     0
  3

 72
    65
 73
     0
 40
0.0
  0
LTYPE
  5
15
330
5
100
AcDbSymbolTableRecord
100
AcDbLinetypeTableRecord
  2
ByLayer
 70
     0
  3

 72
    65
 73
     0
 40
0.0
  0
LTYPE
  5
16
330
5
100
AcDbSymbolTableRecord
100
AcDbLinetypeTableRecord
  2
Continuous
 70
     0
  3
Solid line
 72
    65
 73
     0
 40
0.0
  0
ENDTAB
  0
TABLE
  2
LAYER
  5
2
102
{ACAD_XDICTIONARY
360
18E
102
}
330
0
100
AcDbSymbolTable
 70
     2
  0
LAYER
  5
10
102
{ACAD_XDICTIONARY
360
E6
102
}
330
2
100
AcDbSymbolTableRecord
100
AcDbLayerTableRecord
  2
0
 70
     0
 62
     7
  6
Continuous
370
    -3
390
F
347
98
348
0
  0
LAYER
  5
204
330
2
100
AcDbSymbolTableRecord
100
AcDbLayerTableRecord
  2
freecads.com
 70
     0
 62
     7
  6
Continuous
370
    -3
390
F
347
98
348
0
1001
AcAecLayerStandard
1000

1000

1001
AcCmTransparency
1071
        0
  0
ENDTAB
  0
TABLE
  2
STYLE
  5
3
330
0
100
AcDbSymbolTable
 70
     2
  0
STYLE
  5
11
330
3
100
AcDbSymbolTableRecord
100
AcDbTextStyleTableRecord
  2
Standard
 70
     0
 40
0.0
 41
1.0
 50
0.0
 71
     0
 42
0.2
  3
arial.ttf
  4

1001
ACAD
1000
Arial
1071
       34
  0
ENDTAB
  0
TABLE
  2
VIEW
  5
6
330
0
100
AcDbSymbolTable
 70
     0
  0
ENDTAB
  0
TABLE
  2
UCS
  5
7
330
0
100
AcDbSymbolTable
 70
     0
  0
ENDTAB
  0
TABLE
  2
APPID
  5
9
330
0
100
AcDbSymbolTable
 70
    31
  0
APPID
  5
12
330
9
100
AcDbSymbolTableRecord
100
AcDbRegAppTableRecord
  2
ACAD
 70
     0
  0
APPID
  5
DD
330
9
100
AcDbSymbolTableRecord
100
AcDbRegAppTableRecord
  2
AcadAnnoPO
 70
     0
  0
APPID
  5
DE
330
9
100
AcDbSymbolTableRecord
100
AcDbRegAppTableRecord
  2
AcadAnnotative
 70
     0
  0
APPID
  5
DF
330
9
100
AcDbSymbolTableRecord
100
AcDbRegAppTableRecord
  2
ACAD_DSTYLE_DIMJAG
 70
     0
  0
APPID
  5
E0
330
9
100
AcDbSymbolTableRecord
100
AcDbRegAppTableRecord
  2
ACAD_DSTYLE_DIMTALN
 70
     0
  0
APPID
  5
107
330
9
100
AcDbSymbolTableRecord
100
AcDbRegAppTableRecord
  2
ACAD_MLEADERVER
 70
     0
  0
APPID
  5
1A6
330
9
100
AcDbSymbolTableRecord
100
AcDbRegAppTableRecord
  2
ACAD_NAV_VCDISPLAY
 70
     0
  0
APPID
  5
205
330
9
100
AcDbSymbolTableRecord
100
AcDbRegAppTableRecord
  2
AcAecLayerStandard
 70
     0
  0
APPID
  5
206
330
9
100
AcDbSymbolTableRecord
100
AcDbRegAppTableRecord
  2
AcCmTransparency
 70
     0
  0
APPID
  5
222
330
9
100
AcDbSymbolTableRecord
100
AcDbRegAppTableRecord
  2
ACAD_PSEXT
 70
     0
  0
APPID
  5
2DA
330
9
100
AcDbSymbolTableRecord
100
AcDbRegAppTableRecord
  2
GradientColor1ACI
 70
     0
  0
APPID
  5
2DB
330
9
100
AcDbSymbolTableRecord
100
AcDbRegAppTableRecord
  2
GradientColor2ACI
 70
     0
  0
APPID
  5
2F3
330
9
100
AcDbSymbolTableRecord
100
AcDbRegAppTableRecord
  2
ACAD_EXEMPT_FROM_CAD_STANDARDS
 70
     0
  0
APPID
  5
A1A
330
9
100
AcDbSymbolTableRecord
100
AcDbRegAppTableRecord
  2
AcDbBlockRepETag
 70
     0
  0
APPID
  5
2282
330
9
100
AcDbSymbolTableRecord
100
AcDbRegAppTableRecord
  2
RAK
 70
     0
  0
APPID
  5
39F4
330
9
100
AcDbSymbolTableRecord
100
AcDbRegAppTableRecord
  2
ACAD_DSTYLE_DIMJOGGED_JOGANGLE_SYMBOL
 70
     0
  0
APPID
  5
39F5
330
9
100
AcDbSymbolTableRecord
100
AcDbRegAppTableRecord
  2
AcDbDynamicBlockGUID
 70
     0
  0
APPID
  5
39F6
330
9
100
AcDbSymbolTableRecord
100
AcDbRegAppTableRecord
  2
ACAD_DSTYLE_DIMBREAK
 70
     0
  0
APPID
  5
3B59
330
9
100
AcDbSymbolTableRecord
100
AcDbRegAppTableRecord
  2
AEC_XDATA_BOUND_SPACE
 70
     0
  0
APPID
  5
75C5
330
9
100
AcDbSymbolTableRecord
100
AcDbRegAppTableRecord
  2
AcDbDynamicBlockTrueName
 70
     0
  0
APPID
  5
75C6
330
9
100
AcDbSymbolTableRecord
100
AcDbRegAppTableRecord
  2
AcDbBlockRepBTag
 70
     0
  0
APPID
  5
75C7
330
9
100
AcDbSymbolTableRecord
100
AcDbRegAppTableRecord
  2
ACAUTHENVIRON
 70
     0
  0
APPID
  5
AA90
330
9
100
AcDbSymbolTableRecord
100
AcDbRegAppTableRecord
  2
Acad_TC
 70
     0
  0
APPID
  5
AA9C
330
9
100
AcDbSymbolTableRecord
100
AcDbRegAppTableRecord
  2
AcDbBlockArrayActionTag
 70
     0
  0
APPID
  5
BEE4
330
9
100
AcDbSymbolTableRecord
100
AcDbRegAppTableRecord
  2
ACAD_DSTYLE_DIMTEXT_FILL
 70
     0
  0
APPID
  5
219E5
330
9
100
AcDbSymbolTableRecord
100
AcDbRegAppTableRecord
  2
AECLAY
 70
     0
  0
APPID
  5
26B46
330
9
100
AcDbSymbolTableRecord
100
AcDbRegAppTableRecord
  2
REVIT
 70
     0
  0
APPID
  5
280A5
330
9
100
AcDbSymbolTableRecord
100
AcDbRegAppTableRecord
  2
HATCHBACKGROUNDCOLOR
 70
     0
  0
APPID
  5
29EE0
330
9
100
AcDbSymbolTableRecord
100
AcDbRegAppTableRecord
  2
ACAD_STEPID
 70
     0
  0
APPID
  5
29EE1
330
9
100
AcDbSymbolTableRecord
100
AcDbRegAppTableRecord
  2
AcLayerTools
 70
     0
  0
APPID
  5
4D86C
330
9
100
AcDbSymbolTableRecord
100
AcDbRegAppTableRecord
  2
PE_URL
 70
     0
  0
ENDTAB
  0
TABLE
  2
DIMSTYLE
  5
A
330
0
100
AcDbSymbolTable
 70
     2
100
AcDbDimStyleTable
 71
     1
340
27
  0
DIMSTYLE
105
27
330
A
100
AcDbSymbolTableRecord
100
AcDbDimStyleTableRecord
  2
Standard
 70
     0
340
11
  0
ENDTAB
  0
TABLE
  2
BLOCK_RECORD
  5
1
330
0
100
AcDbSymbolTable
 70
     2
  0
BLOCK_RECORD
  5
1F
102
{ACAD_XDICTIONARY
360
15D
102
}
330
1
100
AcDbSymbolTableRecord
100
AcDbBlockTableRecord
  2
*Model_Space
340
22
 70
     0
280
     1
281
     0
  0
BLOCK_RECORD
  5
58
330
1
100
AcDbSymbolTableRecord
100
AcDbBlockTableRecord
  2
*Paper_Space
340
59
 70
     0
280
     1
281
     0
  0
BLOCK_RECORD
  5
5D
330
1
100
AcDbSymbolTableRecord
100
AcDbBlockTableRecord
  2
*Paper_Space0
340
5E
 70
     0
280
     1
281
     0
  0
ENDTAB
  0
ENDSEC
  0
SECTION
  2
BLOCKS
  0
BLOCK
  5
20
330
1F
100
AcDbEntity
  8
0
100
AcDbBlockBegin
  2
*Model_Space
 70
     0
 10
0.0
 20
0.0
 30
0.0
  3
*Model_Space
  1

  0
ENDBLK
  5
21
330
1F
100
AcDbEntity
  8
0
100
AcDbBlockEnd
  0
BLOCK
  5
5A
330
58
100
AcDbEntity
 67
     1
  8
0
100
AcDbBlockBegin
  2
*Paper_Space
 70
     0
 10
0.0
 20
0.0
 30
0.0
  3
*Paper_Space
  1

  0
ENDBLK
  5
5B
330
58
100
AcDbEntity
 67
     1
  8
0
100
AcDbBlockEnd
  0
BLOCK
  5
5F
330
5D
100
AcDbEntity
 67
     1
  8
0
100
AcDbBlockBegin
  2
*Paper_Space0
 70
     0
 10
0.0
 20
0.0
 30
0.0
  3
*Paper_Space0
  1

  0
ENDBLK
  5
60
330
5D
100
AcDbEntity
 67
     1
  8
0
100
AcDbBlockEnd
  0
ENDSEC
  0
SECTION
  2
ENTITIES
  0
LINE
  5
62E1D
330
1F
100
AcDbEntity
  8
freecads.com
100
AcDbLine
 10
163907.8396383508
 20
108407.2377360038
 30
0.0
 11
163975.194764404
 21
108407.2377360038
 31
0.0
  0
LINE
  5
62E1E
330
1F
100
AcDbEntity
  8
freecads.com
100
AcDbLine
 10
163975.194764404
 20
108407.2377360038
 30
0.0
 11
163975.194764404
 21
108452.1207606291
 31
0.0
  0
LINE
  5
62E1F
330
1F
100
AcDbEntity
  8
freecads.com
100
AcDbLine
 10
163975.194764404
 20
108452.1207606291
 30
0.0
 11
163907.8396383508
 21
108452.1207606291
 31
0.0
  0
LINE
  5
62E20
330
1F
100
AcDbEntity
  8
freecads.com
100
AcDbLine
 10
163907.8396383508
 20
108452.1207606291
 30
0.0
 11
163907.8396383508
 21
108407.2377360038
 31
0.0
  0
LINE
  5
62E21
330
1F
100
AcDbEntity
  8
freecads.com
100
AcDbLine
 10
163907.8396383508
 20
108452.1207606291
 30
0.0
 11
163907.8396383508
 21
108813.2542565082
 31
0.0
  0
LINE
  5
62E22
330
1F
100
AcDbEntity
  8
freecads.com
100
AcDbLine
 10
163907.8396383508
 20
108813.2542565082
 30
0.0
 11
164810.7196426963
 21
108813.2542565082
 31
0.0
  0
LINE
  5
62E23
330
1F
100
AcDbEntity
  8
freecads.com
100
AcDbLine
 10
164810.7196426963
 20
108813.2542565082
 30
0.0
 11
164807.5128072094
 21
108792.4157350853
 31
0.0
  0
LINE
  5
62E24
330
1F
100
AcDbEntity
  8
freecads.com
100
AcDbLine
 10
164807.5128072094
 20
108792.4157350853
 30
0.0
 11
164809.1162249524
 21
108766.7678808518
 31
0.0
  0
LINE
  5
62E25
330
1F
100
AcDbEntity
  8
freecads.com
100
AcDbLine
 10
164809.1162249524
 20
108766.7678808518
 30
0.0
 11
163975.194764404
 21
108766.7678808518
 31
0.0
  0
LINE
  5
62E26
330
1F
100
AcDbEntity
  8
freecads.com
100
AcDbLine
 10
163975.194764404
 20
108766.7678808518
 30
0.0
 11
163975.194764404
 21
108452.1207606291
 31
0.0
  0
LINE
  5
62E27
330
1F
100
AcDbEntity
  8
freecads.com
100
AcDbLine
 10
164892.5416826265
 20
108452.1207606291
 30
0.0
 11
164860.4340151645
 21
108452.1207606291
 31
0.0
  0
LINE
  5
62E28
330
1F
100
AcDbEntity
  8
freecads.com
100
AcDbLine
 10
164860.4340151645
 20
108452.1207606291
 30
0.0
 11
164860.4340151645
 21
108407.2377360038
 31
0.0
  0
LINE
  5
62E29
330
1F
100
AcDbEntity
  8
freecads.com
100
AcDbLine
 10
164860.4340151645
 20
108407.2377360038
 30
0.0
 11
164927.7891412176
 21
108407.2377360038
 31
0.0
  0
LINE
  5
62E2A
330
1F
100
AcDbEntity
  8
freecads.com
100
AcDbLine
 10
164927.7891412176
 20
108407.2377360038
 30
0.0
 11
164927.7891412176
 21
108440.9168173948
 31
0.0
  0
LINE
  5
62E2B
330
1F
100
AcDbEntity
  8
freecads.com
100
AcDbLine
 10
163825.4283881014
 20
109433.3210963963
 30
0.0
 11
163818.7736254235
 21
109433.3210963963
 31
0.0
  0
LINE
  5
62E2C
330
1F
100
AcDbEntity
  8
freecads.com
100
AcDbLine
 10
163818.7736254235
 20
109433.3210963963
 30
0.0
 11
163816.0015972437
 21
109426.1153804406
 31
0.0
  0
LINE
  5
62E2D
330
1F
100
AcDbEntity
  8
freecads.com
100
AcDbLine
 10
163816.0015972437
 20
109426.1153804406
 30
0.0
 11
163814.3381697753
 21
109419.4642827661
 31
0.0
  0
LINE
  5
62E2E
330
1F
100
AcDbEntity
  8
freecads.com
100
AcDbLine
 10
163814.3381697753
 20
109419.4642827661
 30
0.0
 11
163816.0015972437
 21
109411.1500505313
 31
0.0
  0
LINE
  5
62E2F
330
1F
100
AcDbEntity
  8
freecads.com
100
AcDbLine
 10
163816.0015972437
 20
109411.1500505313
 30
0.0
 11
163820.9918796498
 21
109399.5109897427
 31
0.0
  0
LINE
  5
62E30
330
1F
100
AcDbEntity
  8
freecads.com
100
AcDbLine
 10
163820.9918796498
 20
109399.5109897427
 30
0.0
 11
163826.5369888128
 21
109391.7513757893
 31
0.0
  0
LINE
  5
62E31
330
1F
100
AcDbEntity
  8
freecads.com
100
AcDbLine
 10
163826.5369888128
 20
109391.7513757893
 30
0.0
 11
163838.1820338959
 21
109384.5456598333
 31
0.0
  0
LINE
  5
62E32
330
1F
100
AcDbEntity
  8
freecads.com
100
AcDbLine
 10
163838.1820338959
 20
109384.5456598333
 30
0.0
 11
163845.9453972842
 21
109382.8825252731
 31
0.0
  0
LINE
  5
62E33
330
1F
100
AcDbEntity
  8
freecads.com
100
AcDbLine
 10
163845.9453972842
 20
109382.8825252731
 30
0.0
 11
163858.1442163227
 21
109379.0030784381
 31
0.0
  0
LINE
  5
62E34
330
1F
100
AcDbEntity
  8
freecads.com
100
AcDbLine
 10
163858.1442163227
 20
109379.0030784381
 30
0.0
 11
163867.5710071795
 21
109375.1229113196
 31
0.0
  0
LINE
  5
62E35
330
1F
100
AcDbEntity
  8
freecads.com
100
AcDbLine
 10
163867.5710071795
 20
109375.1229113196
 30
0.0
 11
163874.7795438118
 21
109370.1349482054
 31
0.0
  0
LINE
  5
62E36
330
1F
100
AcDbEntity
  8
freecads.com
100
AcDbLine
 10
163874.7795438118
 20
109370.1349482054
 30
0.0
 11
163884.2063346686
 21
109370.1349482054
 31
0.0
  0
LINE
  5
62E37
330
1F
100
AcDbEntity
  8
freecads.com
100
AcDbLine
 10
163884.2063346686
 20
109370.1349482054
 30
0.0
 11
163890.3062705885
 21
109371.2434644846
 31
0.0
  0
LINE
  5
62E38
330
1F
100
AcDbEntity
  8
freecads.com
100
AcDbLine
 10
163890.3062705885
 20
109371.2434644846
 30
0.0
 11
163896.9599804639
 21
109371.7973624824
 31
0.0
  0
LINE
  5
62E39
330
1F
100
AcDbEntity
  8
freecads.com
100
AcDbLine
 10
163896.9599804639
 20
109371.7973624824
 30
0.0
 11
163905.8329973662
 21
109367.9179156474
 31
0.0
  0
LINE
  5
62E3A
330
1F
100
AcDbEntity
  8
freecads.com
100
AcDbLine
 10
163905.8329973662
 20
109367.9179156474
 30
0.0
 11
163909.1598523039
 21
109361.8207159708
 31
0.0
  0
LINE
  5
62E3B
330
1F
100
AcDbEntity
  8
freecads.com
100
AcDbLine
 10
163909.1598523039
 20
109361.8207159708
 30
0.0
 11
163910.8232797723
 21
109359.0497854146
 31
0.0
  0
LINE
  5
62E3C
330
1F
100
AcDbEntity
  8
freecads.com
100
AcDbLine
 10
163910.8232797723
 20
109359.0497854146
 30
0.0
 11
163915.8135621775
 21
109360.1583016937
 31
0.0
  0
LINE
  5
62E3D
330
1F
100
AcDbEntity
  8
freecads.com
100
AcDbLine
 10
163915.8135621775
 20
109360.1583016937
 30
0.0
 11
163920.804897386
 21
109361.8207159708
 31
0.0
  0
LINE
  5
62E3E
330
1F
100
AcDbEntity
  8
freecads.com
100
AcDbLine
 10
163920.804897386
 20
109361.8207159708
 30
0.0
 11
163927.4586072623
 21
109364.5923668101
 31
0.0
  0
LINE
  5
62E3F
330
1F
100
AcDbEntity
  8
freecads.com
100
AcDbLine
 10
163927.4586072623
 20
109364.5923668101
 30
0.0
 11
163931.8951157121
 21
109355.7242365774
 31
0.0
  0
LINE
  5
62E40
330
1F
100
AcDbEntity
  8
freecads.com
100
AcDbLine
 10
163931.8951157121
 20
109355.7242365774
 30
0.0
 11
163933.5585431814
 21
109328.5652275984
 31
0.0
  0
LINE
  5
62E41
330
1F
100
AcDbEntity
  8
freecads.com
100
AcDbLine
 10
163933.5585431814
 20
109328.5652275984
 30
0.0
 11
163939.1036523444
 21
109304.7317674565
 31
0.0
  0
LINE
  5
62E42
330
1F
100
AcDbEntity
  8
freecads.com
100
AcDbLine
 10
163939.1036523444
 20
109304.7317674565
 30
0.0
 11
163940.2122530559
 21
109278.1273767585
 31
0.0
  0
LINE
  5
62E43
330
1F
100
AcDbEntity
  8
freecads.com
100
AcDbLine
 10
163940.2122530559
 20
109278.1273767585
 30
0.0
 11
163946.8670157328
 21
109255.957051177
 31
0.0
  0
LINE
  5
62E44
330
1F
100
AcDbEntity
  8
freecads.com
100
AcDbLine
 10
163946.8670157328
 20
109255.957051177
 30
0.0
 11
163955.7389798335
 21
109217.712879407
 31
0.0
  0
LINE
  5
62E45
330
1F
100
AcDbEntity
  8
freecads.com
100
AcDbLine
 10
163955.7389798335
 20
109217.712879407
 30
0.0
 11
163961.8389157535
 21
109191.1077684259
 31
0.0
  0
LINE
  5
62E46
330
1F
100
AcDbEntity
  8
freecads.com
100
AcDbLine
 10
163961.8389157535
 20
109191.1077684259
 30
0.0
 11
163969.047452385
 21
109177.251675079
 31
0.0
  0
LINE
  5
62E47
330
1F
100
AcDbEntity
  8
freecads.com
100
AcDbLine
 10
163969.047452385
 20
109177.251675079
 30
0.0
 11
163975.1473883058
 21
109159.5154146138
 31
0.0
  0
LINE
  5
62E48
330
1F
100
AcDbEntity
  8
freecads.com
100
AcDbLine
 10
163975.1473883058
 20
109159.5154146138
 30
0.0
 11
163974.592561548
 21
109125.1506896788
 31
0.0
  0
LINE
  5
62E49
330
1F
100
AcDbEntity
  8
freecads.com
100
AcDbLine
 10
163974.592561548
 20
109125.1506896788
 30
0.0
 11
163978.4152863197
 21
109049.3682239518
 31
0.0
  0
LINE
  5
62E4A
330
1F
100
AcDbEntity
  8
freecads.com
100
AcDbLine
 10
163978.4152863197
 20
109049.3682239518
 30
0.0
 11
163975.6432581389
 21
109011.678670463
 31
0.0
  0
LINE
  5
62E4B
330
1F
100
AcDbEntity
  8
freecads.com
100
AcDbLine
 10
163975.6432581389
 20
109011.678670463
 30
0.0
 11
163973.4250039145
 21
108990.616140877
 31
0.0
  0
LINE
  5
62E4C
330
1F
100
AcDbEntity
  8
freecads.com
100
AcDbLine
 10
163973.4250039145
 20
108990.616140877
 30
0.0
 11
163972.8701771557
 21
108956.8060342236
 31
0.0
  0
LINE
  5
62E4D
330
1F
100
AcDbEntity
  8
freecads.com
100
AcDbLine
 10
163972.8701771557
 20
108956.8060342236
 30
0.0
 11
163978.4152863197
 21
108927.9846109675
 31
0.0
  0
LINE
  5
62E4E
330
1F
100
AcDbEntity
  8
freecads.com
100
AcDbLine
 10
163978.4152863197
 20
108927.9846109675
 30
0.0
 11
163983.9603954827
 21
108901.3802202698
 31
0.0
  0
LINE
  5
62E4F
330
1F
100
AcDbEntity
  8
freecads.com
100
AcDbLine
 10
163983.9603954827
 20
108901.3802202698
 30
0.0
 11
163995.6054405657
 21
108886.9695086417
 31
0.0
  0
LINE
  5
62E50
330
1F
100
AcDbEntity
  8
freecads.com
100
AcDbLine
 10
163995.6054405657
 20
108886.9695086417
 30
0.0
 11
164031.0943497693
 21
108873.1126950114
 31
0.0
  0
LINE
  5
62E51
330
1F
100
AcDbEntity
  8
freecads.com
100
AcDbLine
 10
164031.0943497693
 20
108873.1126950114
 30
0.0
 11
164060.4833230529
 21
108873.6673132926
 31
0.0
  0
LINE
  5
62E52
330
1F
100
AcDbEntity
  8
freecads.com
100
AcDbLine
 10
164060.4833230529
 20
108873.6673132926
 30
0.0
 11
164087.6550949135
 21
108881.9808252441
 31
0.0
  0
LINE
  5
62E53
330
1F
100
AcDbEntity
  8
freecads.com
100
AcDbLine
 10
164087.6550949135
 20
108881.9808252441
 30
0.0
 11
164105.3990231141
 21
108903.0426345465
 31
0.0
  0
LINE
  5
62E54
330
1F
100
AcDbEntity
  8
freecads.com
100
AcDbLine
 10
164105.3990231141
 20
108903.0426345465
 30
0.0
 11
164115.9354674857
 21
108927.4307129697
 31
0.0
  0
LINE
  5
62E55
330
1F
100
AcDbEntity
  8
freecads.com
100
AcDbLine
 10
164115.9354674857
 20
108927.4307129697
 30
0.0
 11
164115.3806407287
 21
108952.9265873885
 31
0.0
  0
LINE
  5
62E56
330
1F
100
AcDbEntity
  8
freecads.com
100
AcDbLine
 10
164115.3806407287
 20
108952.9265873885
 30
0.0
 11
164108.1721040973
 21
108972.8798804118
 31
0.0
  0
LINE
  5
62E57
330
1F
100
AcDbEntity
  8
freecads.com
100
AcDbLine
 10
164108.1721040973
 20
108972.8798804118
 30
0.0
 11
164097.6356597257
 21
108990.0622428792
 31
0.0
  0
LINE
  5
62E58
330
1F
100
AcDbEntity
  8
freecads.com
100
AcDbLine
 10
164097.6356597257
 20
108990.0622428792
 30
0.0
 11
164086.5454413997
 21
108997.8218568329
 31
0.0
  0
LINE
  5
62E59
330
1F
100
AcDbEntity
  8
freecads.com
100
AcDbLine
 10
164086.5454413997
 20
108997.8218568329
 30
0.0
 11
164071.0197674244
 21
109001.7013036677
 31
0.0
  0
LINE
  5
62E5A
330
1F
100
AcDbEntity
  8
freecads.com
100
AcDbLine
 10
164071.0197674244
 20
109001.7013036677
 30
0.0
 11
164062.7015772791
 21
109002.255921949
 31
0.0
  0
LINE
  5
62E5B
330
1F
100
AcDbEntity
  8
freecads.com
100
AcDbLine
 10
164062.7015772791
 20
109002.255921949
 30
0.0
 11
164060.4833230529
 21
108987.8452103211
 31
0.0
  0
LINE
  5
62E5C
330
1F
100
AcDbEntity
  8
freecads.com
100
AcDbLine
 10
164060.4833230529
 20
108987.8452103211
 30
0.0
 11
164059.9295490984
 21
108998.9303731119
 31
0.0
  0
LINE
  5
62E5D
330
1F
100
AcDbEntity
  8
freecads.com
100
AcDbLine
 10
164059.9295490984
 20
108998.9303731119
 30
0.0
 11
164062.7015772791
 21
109002.255921949
 31
0.0
  0
LINE
  5
62E5E
330
1F
100
AcDbEntity
  8
freecads.com
100
AcDbLine
 10
164062.7015772791
 20
109002.255921949
 30
0.0
 11
164060.4833230529
 21
109006.6899870654
 31
0.0
  0
LINE
  5
62E5F
330
1F
100
AcDbEntity
  8
freecads.com
100
AcDbLine
 10
164060.4833230529
 20
109006.6899870654
 30
0.0
 11
164057.1564681152
 21
109054.910805347
 31
0.0
  0
LINE
  5
62E60
330
1F
100
AcDbEntity
  8
freecads.com
100
AcDbLine
 10
164057.1564681152
 20
109054.910805347
 30
0.0
 11
164052.1661857109
 21
109093.154977117
 31
0.0
  0
LINE
  5
62E61
330
1F
100
AcDbEntity
  8
freecads.com
100
AcDbLine
 10
164052.1661857109
 20
109093.154977117
 30
0.0
 11
164044.4028223216
 21
109138.0502465612
 31
0.0
  0
LINE
  5
62E62
330
1F
100
AcDbEntity
  8
freecads.com
100
AcDbLine
 10
164044.4028223216
 20
109138.0502465612
 30
0.0
 11
164043.2931688077
 21
109161.3290884219
 31
0.0
  0
LINE
  5
62E63
330
1F
100
AcDbEntity
  8
freecads.com
100
AcDbLine
 10
164043.2931688077
 20
109161.3290884219
 30
0.0
 11
164043.2931688077
 21
109182.9455160058
 31
0.0
  0
LINE
  5
62E64
330
1F
100
AcDbEntity
  8
freecads.com
100
AcDbLine
 10
164043.2931688077
 20
109182.9455160058
 30
0.0
 11
164043.8479955637
 21
109197.9101256314
 31
0.0
  0
LINE
  5
62E65
330
1F
100
AcDbEntity
  8
freecads.com
100
AcDbLine
 10
164043.8479955637
 20
109197.9101256314
 30
0.0
 11
164039.96631387
 21
109215.092488099
 31
0.0
  0
LINE
  5
62E66
330
1F
100
AcDbEntity
  8
freecads.com
100
AcDbLine
 10
164039.96631387
 20
109215.092488099
 30
0.0
 11
164036.0846321763
 21
109222.2982040547
 31
0.0
  0
LINE
  5
62E67
330
1F
100
AcDbEntity
  8
freecads.com
100
AcDbLine
 10
164036.0846321763
 20
109222.2982040547
 30
0.0
 11
164002.3065265393
 21
109300.9898947665
 31
0.0
  0
LINE
  5
62E68
330
1F
100
AcDbEntity
  8
freecads.com
100
AcDbLine
 10
164002.3065265393
 20
109300.9898947665
 30
0.0
 11
163977.9078356618
 21
109353.6447781644
 31
0.0
  0
LINE
  5
62E69
330
1F
100
AcDbEntity
  8
freecads.com
100
AcDbLine
 10
163977.9078356618
 20
109353.6447781644
 30
0.0
 11
163959.0542539464
 21
109391.3350519366
 31
0.0
  0
LINE
  5
62E6A
330
1F
100
AcDbEntity
  8
freecads.com
100
AcDbLine
 10
163959.0542539464
 20
109391.3350519366
 30
0.0
 11
163955.1725722517
 21
109404.6372472854
 31
0.0
  0
LINE
  5
62E6B
330
1F
100
AcDbEntity
  8
freecads.com
100
AcDbLine
 10
163955.1725722517
 20
109404.6372472854
 30
0.0
 11
163955.1725722517
 21
109412.396861239
 31
0.0
  0
LINE
  5
62E6C
330
1F
100
AcDbEntity
  8
freecads.com
100
AcDbLine
 10
163955.1725722517
 20
109412.396861239
 30
0.0
 11
163949.6274630887
 21
109412.396861239
 31
0.0
  0
LINE
  5
62E6D
330
1F
100
AcDbEntity
  8
freecads.com
100
AcDbLine
 10
163949.6274630887
 20
109412.396861239
 30
0.0
 11
163944.6371806826
 21
109416.8309263551
 31
0.0
  0
LINE
  5
62E6E
330
1F
100
AcDbEntity
  8
freecads.com
100
AcDbLine
 10
163944.6371806826
 20
109416.8309263551
 30
0.0
 11
163936.8738172952
 21
109424.5905403087
 31
0.0
  0
LINE
  5
62E6F
330
1F
100
AcDbEntity
  8
freecads.com
100
AcDbLine
 10
163936.8738172952
 20
109424.5905403087
 30
0.0
 11
163930.7738813743
 21
109429.0246054251
 31
0.0
  0
LINE
  5
62E70
330
1F
100
AcDbEntity
  8
freecads.com
100
AcDbLine
 10
163930.7738813743
 20
109429.0246054251
 30
0.0
 11
163921.3470905175
 21
109430.1331217042
 31
0.0
  0
LINE
  5
62E71
330
1F
100
AcDbEntity
  8
freecads.com
100
AcDbLine
 10
163921.3470905175
 20
109430.1331217042
 30
0.0
 11
163910.8116989475
 21
109429.5785034229
 31
0.0
  0
LINE
  5
62E72
330
1F
100
AcDbEntity
  8
freecads.com
100
AcDbLine
 10
163910.8116989475
 20
109429.5785034229
 30
0.0
 11
163901.3849080907
 21
109425.6990565879
 31
0.0
  0
LINE
  5
62E73
330
1F
100
AcDbEntity
  8
freecads.com
100
AcDbLine
 10
163901.3849080907
 20
109425.6990565879
 30
0.0
 11
163888.6312622962
 21
109425.6990565879
 31
0.0
  0
LINE
  5
62E74
330
1F
100
AcDbEntity
  8
freecads.com
100
AcDbLine
 10
163888.6312622962
 20
109425.6990565879
 30
0.0
 11
163880.31307215
 21
109424.0359220276
 31
0.0
  0
LINE
  5
62E75
330
1F
100
AcDbEntity
  8
freecads.com
100
AcDbLine
 10
163880.31307215
 20
109424.0359220276
 30
0.0
 11
163870.8862812923
 21
109421.2649914715
 31
0.0
  0
LINE
  5
62E76
330
1F
100
AcDbEntity
  8
freecads.com
100
AcDbLine
 10
163870.8862812923
 20
109421.2649914715
 30
0.0
 11
163855.3595545156
 21
109421.2649914715
 31
0.0
  0
LINE
  5
62E77
330
1F
100
AcDbEntity
  8
freecads.com
100
AcDbLine
 10
163855.3595545156
 20
109421.2649914715
 30
0.0
 11
163846.4875904148
 21
109422.3735077507
 31
0.0
  0
LINE
  5
62E78
330
1F
100
AcDbEntity
  8
freecads.com
100
AcDbLine
 10
163846.4875904148
 20
109422.3735077507
 30
0.0
 11
163838.170453072
 21
109425.6990565879
 31
0.0
  0
LINE
  5
62E79
330
1F
100
AcDbEntity
  8
freecads.com
100
AcDbLine
 10
163838.170453072
 20
109425.6990565879
 30
0.0
 11
163829.2974361688
 21
109429.0246054251
 31
0.0
  0
LINE
  5
62E7A
330
1F
100
AcDbEntity
  8
freecads.com
100
AcDbLine
 10
163829.2974361688
 20
109429.0246054251
 30
0.0
 11
163825.4283881014
 21
109433.3210963963
 31
0.0
  0
LINE
  5
62E7B
330
1F
100
AcDbEntity
  8
freecads.com
100
AcDbLine
 10
163815.7723174024
 20
109425.1986211319
 30
0.0
 11
163820.9802988249
 21
109418.4933406322
 31
0.0
  0
LINE
  5
62E7C
330
1F
100
AcDbEntity
  8
freecads.com
100
AcDbLine
 10
163820.9802988249
 20
109418.4933406322
 30
0.0
 11
163824.8619805196
 21
109411.2883449598
 31
0.0
  0
LINE
  5
62E7D
330
1F
100
AcDbEntity
  8
freecads.com
100
AcDbLine
 10
163824.8619805196
 20
109411.2883449598
 30
0.0
 11
163833.7339446203
 21
109407.9627961226
 31
0.0
  0
LINE
  5
62E7E
330
1F
100
AcDbEntity
  8
freecads.com
100
AcDbLine
 10
163833.7339446203
 20
109407.9627961226
 30
0.0
 11
163844.8241629464
 21
109402.974112725
 31
0.0
  0
LINE
  5
62E7F
330
1F
100
AcDbEntity
  8
freecads.com
100
AcDbLine
 10
163844.8241629464
 20
109402.974112725
 30
0.0
 11
163844.8241629464
 21
109402.974112725
 31
0.0
  0
LINE
  5
62E80
330
1F
100
AcDbEntity
  8
freecads.com
100
AcDbLine
 10
163815.931840204
 20
109411.4987138997
 30
0.0
 11
163823.1985530503
 21
109405.7457635646
 31
0.0
  0
LINE
  5
62E81
330
1F
100
AcDbEntity
  8
freecads.com
100
AcDbLine
 10
163823.1985530503
 20
109405.7457635646
 30
0.0
 11
163834.2887713773
 21
109398.5400476089
 31
0.0
  0
LINE
  5
62E82
330
1F
100
AcDbEntity
  8
freecads.com
100
AcDbLine
 10
163834.2887713773
 20
109398.5400476089
 30
0.0
 11
163851.4789256233
 21
109394.6606007738
 31
0.0
  0
LINE
  5
62E83
330
1F
100
AcDbEntity
  8
freecads.com
100
AcDbLine
 10
163820.366467967
 20
109400.9696656255
 30
0.0
 11
163827.6340087013
 21
109394.1059824926
 31
0.0
  0
LINE
  5
62E84
330
1F
100
AcDbEntity
  8
freecads.com
100
AcDbLine
 10
163827.6340087013
 20
109394.1059824926
 30
0.0
 11
163835.3973720887
 21
109391.8889499343
 31
0.0
  0
LINE
  5
62E85
330
1F
100
AcDbEntity
  8
freecads.com
100
AcDbLine
 10
163835.3973720887
 20
109391.8889499343
 30
0.0
 11
163847.0424171718
 21
109389.6719173761
 31
0.0
  0
LINE
  5
62E86
330
1F
100
AcDbEntity
  8
freecads.com
100
AcDbLine
 10
163847.0424171718
 20
109389.6719173761
 30
0.0
 11
163853.6961270472
 21
109388.0095030991
 31
0.0
  0
LINE
  5
62E87
330
1F
100
AcDbEntity
  8
freecads.com
100
AcDbLine
 10
163906.3751904977
 20
109404.6372472854
 30
0.0
 11
163918.0202355798
 21
109399.6485638878
 31
0.0
  0
LINE
  5
62E88
330
1F
100
AcDbEntity
  8
freecads.com
100
AcDbLine
 10
163918.0202355798
 20
109399.6485638878
 30
0.0
 11
163922.4567440314
 21
109389.6719173761
 31
0.0
  0
LINE
  5
62E89
330
1F
100
AcDbEntity
  8
freecads.com
100
AcDbLine
 10
163922.4567440314
 20
109389.6719173761
 30
0.0
 11
163922.4567440314
 21
109379.6952708645
 31
0.0
  0
LINE
  5
62E8A
330
1F
100
AcDbEntity
  8
freecads.com
100
AcDbLine
 10
163922.4567440314
 20
109379.6952708645
 30
0.0
 11
163923.0105179859
 21
109369.1640060716
 31
0.0
  0
LINE
  5
62E8B
330
1F
100
AcDbEntity
  8
freecads.com
100
AcDbLine
 10
163923.0105179859
 20
109369.1640060716
 30
0.0
 11
163925.7835989682
 21
109365.8384572342
 31
0.0
  0
LINE
  5
62E8C
330
1F
100
AcDbEntity
  8
freecads.com
100
AcDbLine
 10
163825.4283881014
 20
109433.3210963963
 30
0.0
 11
163827.0802347459
 21
109439.5558702182
 31
0.0
  0
LINE
  5
62E8D
330
1F
100
AcDbEntity
  8
freecads.com
100
AcDbLine
 10
163827.0802347459
 20
109439.5558702182
 30
0.0
 11
163835.3973720887
 21
109442.3268007741
 31
0.0
  0
LINE
  5
62E8E
330
1F
100
AcDbEntity
  8
freecads.com
100
AcDbLine
 10
163835.3973720887
 20
109442.3268007741
 30
0.0
 11
163845.3789897033
 21
109443.9899353343
 31
0.0
  0
LINE
  5
62E8F
330
1F
100
AcDbEntity
  8
freecads.com
100
AcDbLine
 10
163845.3789897033
 20
109443.9899353343
 30
0.0
 11
163914.1385538852
 21
109442.8814190554
 31
0.0
  0
LINE
  5
62E90
330
1F
100
AcDbEntity
  8
freecads.com
100
AcDbLine
 10
163914.1385538852
 20
109442.8814190554
 30
0.0
 11
163935.7652165828
 21
109442.3268007741
 31
0.0
  0
LINE
  5
62E91
330
1F
100
AcDbEntity
  8
freecads.com
100
AcDbLine
 10
163935.7652165828
 20
109442.3268007741
 30
0.0
 11
163944.6371806826
 21
109440.1097682158
 31
0.0
  0
LINE
  5
62E92
330
1F
100
AcDbEntity
  8
freecads.com
100
AcDbLine
 10
163944.6371806826
 20
109440.1097682158
 30
0.0
 11
163957.390826478
 21
109435.6757030995
 31
0.0
  0
LINE
  5
62E93
330
1F
100
AcDbEntity
  8
freecads.com
100
AcDbLine
 10
163957.390826478
 20
109435.6757030995
 30
0.0
 11
163960.7176814148
 21
109429.0246054251
 31
0.0
  0
LINE
  5
62E94
330
1F
100
AcDbEntity
  8
freecads.com
100
AcDbLine
 10
163960.7176814148
 20
109429.0246054251
 30
0.0
 11
163960.7176814148
 21
109422.3735077507
 31
0.0
  0
LINE
  5
62E95
330
1F
100
AcDbEntity
  8
freecads.com
100
AcDbLine
 10
163960.7176814148
 20
109422.3735077507
 30
0.0
 11
163959.6090807043
 21
109419.6018569113
 31
0.0
  0
LINE
  5
62E96
330
1F
100
AcDbEntity
  8
freecads.com
100
AcDbLine
 10
163959.6090807043
 20
109419.6018569113
 30
0.0
 11
163955.1725722517
 21
109417.384824353
 31
0.0
  0
LINE
  5
62E97
330
1F
100
AcDbEntity
  8
freecads.com
100
AcDbLine
 10
163955.1725722517
 20
109417.384824353
 30
0.0
 11
163946.3234303588
 21
109415.3326262079
 31
0.0
  0
LINE
  5
62E98
330
1F
100
AcDbEntity
  8
freecads.com
100
AcDbLine
 10
163872.5337213197
 20
109443.5521567881
 30
0.0
 11
163876.9862172132
 21
109451.1949310066
 31
0.0
  0
LINE
  5
62E99
330
1F
100
AcDbEntity
  8
freecads.com
100
AcDbLine
 10
163876.9862172132
 20
109451.1949310066
 30
0.0
 11
163907.4848440097
 21
109451.1949310066
 31
0.0
  0
LINE
  5
62E9A
330
1F
100
AcDbEntity
  8
freecads.com
100
AcDbLine
 10
163907.4848440097
 20
109451.1949310066
 30
0.0
 11
163910.8036359775
 21
109442.9351833693
 31
0.0
  0
LINE
  5
62E9B
330
1F
100
AcDbEntity
  8
freecads.com
100
AcDbLine
 10
163960.7176814148
 20
109426.2529545857
 30
0.0
 11
163966.2627905778
 21
109424.0359220276
 31
0.0
  0
LINE
  5
62E9C
330
1F
100
AcDbEntity
  8
freecads.com
100
AcDbLine
 10
163966.2627905778
 20
109424.0359220276
 30
0.0
 11
163966.2627905778
 21
109416.2763080741
 31
0.0
  0
LINE
  5
62E9D
330
1F
100
AcDbEntity
  8
freecads.com
100
AcDbLine
 10
163966.2627905778
 20
109416.2763080741
 30
0.0
 11
163968.481044805
 21
109407.4081778413
 31
0.0
  0
LINE
  5
62E9E
330
1F
100
AcDbEntity
  8
freecads.com
100
AcDbLine
 10
163968.481044805
 20
109407.4081778413
 30
0.0
 11
163973.4713272092
 21
109396.8776333319
 31
0.0
  0
LINE
  5
62E9F
330
1F
100
AcDbEntity
  8
freecads.com
100
AcDbLine
 10
163973.4713272092
 20
109396.8776333319
 30
0.0
 11
163993.4345624385
 21
109368.6101080738
 31
0.0
  0
LINE
  5
62EA0
330
1F
100
AcDbEntity
  8
freecads.com
100
AcDbLine
 10
163993.4345624385
 20
109368.6101080738
 30
0.0
 11
164012.2881441539
 21
109342.5596153737
 31
0.0
  0
LINE
  5
62EA1
330
1F
100
AcDbEntity
  8
freecads.com
100
AcDbLine
 10
164012.2881441539
 20
109342.5596153737
 30
0.0
 11
164034.468580806
 21
109309.3041270013
 31
0.0
  0
LINE
  5
62EA2
330
1F
100
AcDbEntity
  8
freecads.com
100
AcDbLine
 10
164034.468580806
 20
109309.3041270013
 30
0.0
 11
164064.4123808465
 21
109262.7457229965
 31
0.0
  0
LINE
  5
62EA3
330
1F
100
AcDbEntity
  8
freecads.com
100
AcDbLine
 10
164064.4123808465
 20
109262.7457229965
 30
0.0
 11
164084.3745632734
 21
109225.0561695079
 31
0.0
  0
LINE
  5
62EA4
330
1F
100
AcDbEntity
  8
freecads.com
100
AcDbLine
 10
164084.3745632734
 20
109225.0561695079
 30
0.0
 11
164089.4764427118
 21
109212.4368029
 31
0.0
  0
LINE
  5
62EA5
330
1F
100
AcDbEntity
  8
freecads.com
100
AcDbLine
 10
164089.4764427118
 20
109212.4368029
 30
0.0
 11
164089.4764427118
 21
109195.8090587139
 31
0.0
  0
LINE
  5
62EA6
330
1F
100
AcDbEntity
  8
freecads.com
100
AcDbLine
 10
164089.4764427118
 20
109195.8090587139
 30
0.0
 11
164093.9129511633
 21
109147.0343424345
 31
0.0
  0
LINE
  5
62EA7
330
1F
100
AcDbEntity
  8
freecads.com
100
AcDbLine
 10
164093.9129511633
 20
109147.0343424345
 30
0.0
 11
164099.4580603264
 21
109119.3207151742
 31
0.0
  0
LINE
  5
62EA8
330
1F
100
AcDbEntity
  8
freecads.com
100
AcDbLine
 10
164099.4580603264
 20
109119.3207151742
 30
0.0
 11
164106.1117702009
 21
109081.6311616856
 31
0.0
  0
LINE
  5
62EA9
330
1F
100
AcDbEntity
  8
freecads.com
100
AcDbLine
 10
164106.1117702009
 20
109081.6311616856
 30
0.0
 11
164113.3203068323
 21
109065.5573154971
 31
0.0
  0
LINE
  5
62EAA
330
1F
100
AcDbEntity
  8
freecads.com
100
AcDbLine
 10
164113.3203068323
 20
109065.5573154971
 30
0.0
 11
164109.4386251386
 21
109061.123250381
 31
0.0
  0
LINE
  5
62EAB
330
1F
100
AcDbEntity
  8
freecads.com
100
AcDbLine
 10
164109.4386251386
 20
109061.123250381
 30
0.0
 11
164092.2484708925
 21
109048.9295713111
 31
0.0
  0
LINE
  5
62EAC
330
1F
100
AcDbEntity
  8
freecads.com
100
AcDbLine
 10
164092.2484708925
 20
109048.9295713111
 30
0.0
 11
164078.3862243857
 21
109039.5068227971
 31
0.0
  0
LINE
  5
62EAD
330
1F
100
AcDbEntity
  8
freecads.com
100
AcDbLine
 10
164078.3862243857
 20
109039.5068227971
 30
0.0
 11
164071.1776877533
 21
109035.0727576807
 31
0.0
  0
LINE
  5
62EAE
330
1F
100
AcDbEntity
  8
freecads.com
100
AcDbLine
 10
164071.1776877533
 20
109035.0727576807
 30
0.0
 11
164063.9691511219
 21
109035.0727576807
 31
0.0
  0
LINE
  5
62EAF
330
1F
100
AcDbEntity
  8
freecads.com
100
AcDbLine
 10
164063.9691511219
 20
109035.0727576807
 30
0.0
 11
164058.5653144954
 21
109034.4904003488
 31
0.0
  0
LINE
  5
62EB0
330
1F
100
AcDbEntity
  8
freecads.com
100
AcDbLine
 10
164027.9254151614
 20
109208.5573560651
 30
0.0
 11
164026.8157616475
 21
109198.5807095533
 31
0.0
  0
LINE
  5
62EB1
330
1F
100
AcDbEntity
  8
freecads.com
100
AcDbLine
 10
164026.8157616475
 20
109198.5807095533
 30
0.0
 11
164027.3705884045
 21
109187.4955467627
 31
0.0
  0
LINE
  5
62EB2
330
1F
100
AcDbEntity
  8
freecads.com
100
AcDbLine
 10
164027.3705884045
 20
109187.4955467627
 30
0.0
 11
164031.8070968551
 21
109175.3011474094
 31
0.0
  0
LINE
  5
62EB3
330
1F
100
AcDbEntity
  8
freecads.com
100
AcDbLine
 10
164039.5704602444
 20
109200.2431238303
 30
0.0
 11
164039.5704602444
 21
109188.0494447604
 31
0.0
  0
LINE
  5
62EB4
330
1F
100
AcDbEntity
  8
freecads.com
100
AcDbLine
 10
164039.5704602444
 20
109188.0494447604
 30
0.0
 11
164035.6887785507
 21
109169.7585660139
 31
0.0
  0
LINE
  5
62EB5
330
1F
100
AcDbEntity
  8
freecads.com
100
AcDbLine
 10
164113.3203068323
 20
109065.5573154971
 30
0.0
 11
164136.6103969993
 21
109078.3056128484
 31
0.0
  0
LINE
  5
62EB6
330
1F
100
AcDbEntity
  8
freecads.com
100
AcDbLine
 10
164136.6103969993
 20
109078.3056128484
 30
0.0
 11
164151.5822970191
 21
109084.4020922414
 31
0.0
  0
LINE
  5
62EB7
330
1F
100
AcDbEntity
  8
freecads.com
100
AcDbLine
 10
164151.5822970191
 20
109084.4020922414
 30
0.0
 11
164168.2176245082
 21
109088.8361573578
 31
0.0
  0
LINE
  5
62EB8
330
1F
100
AcDbEntity
  8
freecads.com
100
AcDbLine
 10
164168.2176245082
 20
109088.8361573578
 30
0.0
 11
164182.0809238175
 21
109088.28225936
 31
0.0
  0
LINE
  5
62EB9
330
1F
100
AcDbEntity
  8
freecads.com
100
AcDbLine
 10
164182.0809238175
 20
109088.28225936
 30
0.0
 11
164199.2700252611
 21
109082.1850596834
 31
0.0
  0
LINE
  5
62EBA
330
1F
100
AcDbEntity
  8
freecads.com
100
AcDbLine
 10
164199.2700252611
 20
109082.1850596834
 30
0.0
 11
164218.6784337325
 21
109070.5459988947
 31
0.0
  0
LINE
  5
62EBB
330
1F
100
AcDbEntity
  8
freecads.com
100
AcDbLine
 10
164218.6784337325
 20
109070.5459988947
 30
0.0
 11
164231.4320795269
 21
109061.6778686623
 31
0.0
  0
LINE
  5
62EBC
330
1F
100
AcDbEntity
  8
freecads.com
100
AcDbLine
 10
164231.4320795269
 20
109061.6778686623
 30
0.0
 11
164244.1857253223
 21
109061.123250381
 31
0.0
  0
LINE
  5
62EBD
330
1F
100
AcDbEntity
  8
freecads.com
100
AcDbLine
 10
164244.1857253223
 20
109061.123250381
 30
0.0
 11
164281.8928887512
 21
109061.6778686623
 31
0.0
  0
LINE
  5
62EBE
330
1F
100
AcDbEntity
  8
freecads.com
100
AcDbLine
 10
164281.8928887512
 20
109061.6778686623
 30
0.0
 11
164303.5195514489
 21
109061.123250381
 31
0.0
  0
LINE
  5
62EBF
330
1F
100
AcDbEntity
  8
freecads.com
100
AcDbLine
 10
164303.5195514489
 20
109061.123250381
 30
0.0
 11
164322.3731331633
 21
109057.243803546
 31
0.0
  0
LINE
  5
62EC0
330
1F
100
AcDbEntity
  8
freecads.com
100
AcDbLine
 10
164322.3731331633
 20
109057.243803546
 30
0.0
 11
164343.9987430585
 21
109057.243803546
 31
0.0
  0
LINE
  5
62EC1
330
1F
100
AcDbEntity
  8
freecads.com
100
AcDbLine
 10
164343.9987430585
 20
109057.243803546
 30
0.0
 11
164355.6437881415
 21
109057.243803546
 31
0.0
  0
LINE
  5
62EC2
330
1F
100
AcDbEntity
  8
freecads.com
100
AcDbLine
 10
164355.6437881415
 20
109057.243803546
 30
0.0
 11
164359.1296162106
 21
109037.6254423417
 31
0.0
  0
LINE
  5
62EC3
330
1F
100
AcDbEntity
  8
freecads.com
100
AcDbLine
 10
164359.1296162106
 20
109037.6254423417
 30
0.0
 11
164360.793043679
 21
108996.0557217344
 31
0.0
  0
LINE
  5
62EC4
330
1F
100
AcDbEntity
  8
freecads.com
100
AcDbLine
 10
164360.793043679
 20
108996.0557217344
 30
0.0
 11
164360.2392697244
 21
108950.6058340088
 31
0.0
  0
LINE
  5
62EC5
330
1F
100
AcDbEntity
  8
freecads.com
100
AcDbLine
 10
164360.2392697244
 20
108950.6058340088
 30
0.0
 11
164358.0210154991
 21
108922.3383087507
 31
0.0
  0
LINE
  5
62EC6
330
1F
100
AcDbEntity
  8
freecads.com
100
AcDbLine
 10
164358.0210154991
 20
108922.3383087507
 30
0.0
 11
164353.5845070475
 21
108893.5168854947
 31
0.0
  0
LINE
  5
62EC7
330
1F
100
AcDbEntity
  8
freecads.com
100
AcDbLine
 10
164353.5845070475
 20
108893.5168854947
 30
0.0
 11
164352.4759063361
 21
108885.2026532598
 31
0.0
  0
LINE
  5
62EC8
330
1F
100
AcDbEntity
  8
freecads.com
100
AcDbLine
 10
164352.4759063361
 20
108885.2026532598
 30
0.0
 11
164344.1577161899
 21
108887.9743040992
 31
0.0
  0
LINE
  5
62EC9
330
1F
100
AcDbEntity
  8
freecads.com
100
AcDbLine
 10
164344.1577161899
 20
108887.9743040992
 30
0.0
 11
164316.9869971316
 21
108890.7459549388
 31
0.0
  0
LINE
  5
62ECA
330
1F
100
AcDbEntity
  8
freecads.com
100
AcDbLine
 10
164316.9869971316
 20
108890.7459549388
 30
0.0
 11
164265.4165343934
 21
108890.7459549388
 31
0.0
  0
LINE
  5
62ECB
330
1F
100
AcDbEntity
  8
freecads.com
100
AcDbLine
 10
164265.4165343934
 20
108890.7459549388
 30
0.0
 11
164223.2739153145
 21
108885.2026532598
 31
0.0
  0
LINE
  5
62ECC
330
1F
100
AcDbEntity
  8
freecads.com
100
AcDbLine
 10
164223.2739153145
 20
108885.2026532598
 30
0.0
 11
164177.2485617393
 21
108876.8891413084
 31
0.0
  0
LINE
  5
62ECD
330
1F
100
AcDbEntity
  8
freecads.com
100
AcDbLine
 10
164177.2485617393
 20
108876.8891413084
 30
0.0
 11
164140.0962250674
 21
108870.238043634
 31
0.0
  0
LINE
  5
62ECE
330
1F
100
AcDbEntity
  8
freecads.com
100
AcDbLine
 10
164140.0962250674
 20
108870.238043634
 30
0.0
 11
164095.735351764
 21
108859.1528808433
 31
0.0
  0
LINE
  5
62ECF
330
1F
100
AcDbEntity
  8
freecads.com
100
AcDbLine
 10
164095.735351764
 20
108859.1528808433
 30
0.0
 11
164063.5732974963
 21
108853.0556811667
 31
0.0
  0
LINE
  5
62ED0
330
1F
100
AcDbEntity
  8
freecads.com
100
AcDbLine
 10
164063.5732974963
 20
108853.0556811667
 30
0.0
 11
164044.7197157818
 21
108853.0556811667
 31
0.0
  0
LINE
  5
62ED1
330
1F
100
AcDbEntity
  8
freecads.com
100
AcDbLine
 10
164044.7197157818
 20
108853.0556811667
 30
0.0
 11
164008.1222058668
 21
108865.2493602363
 31
0.0
  0
LINE
  5
62ED2
330
1F
100
AcDbEntity
  8
freecads.com
100
AcDbLine
 10
164008.1222058668
 20
108865.2493602363
 30
0.0
 11
163990.7025407426
 21
108880.785874947
 31
0.0
  0
LINE
  5
62ED3
330
1F
100
AcDbEntity
  8
freecads.com
100
AcDbLine
 10
163990.7025407426
 20
108880.785874947
 30
0.0
 11
163987.9305125609
 21
108890.7625214589
 31
0.0
  0
LINE
  5
62ED4
330
1F
100
AcDbEntity
  8
freecads.com
100
AcDbLine
 10
163987.9305125609
 20
108890.7625214589
 30
0.0
 11
163983.9603954827
 21
108901.3802202698
 31
0.0
  0
LINE
  5
62ED5
330
1F
100
AcDbEntity
  8
freecads.com
100
AcDbLine
 10
163983.9603954827
 20
108901.3802202698
 30
0.0
 11
163973.5123864956
 21
108901.2937862518
 31
0.0
  0
LINE
  5
62ED6
330
1F
100
AcDbEntity
  8
freecads.com
100
AcDbLine
 10
163973.5123864956
 20
108901.2937862518
 30
0.0
 11
163956.8770590065
 21
108903.5108188099
 31
0.0
  0
LINE
  5
62ED7
330
1F
100
AcDbEntity
  8
freecads.com
100
AcDbLine
 10
163956.8770590065
 20
108903.5108188099
 30
0.0
 11
163946.3416674373
 21
108909.0534002053
 31
0.0
  0
LINE
  5
62ED8
330
1F
100
AcDbEntity
  8
freecads.com
100
AcDbLine
 10
163946.3416674373
 20
108909.0534002053
 30
0.0
 11
163940.2417315174
 21
108920.1385629962
 31
0.0
  0
LINE
  5
62ED9
330
1F
100
AcDbEntity
  8
freecads.com
100
AcDbLine
 10
163940.2417315174
 20
108920.1385629962
 30
0.0
 11
163931.923541372
 21
108922.9102138355
 31
0.0
  0
LINE
  5
62EDA
330
1F
100
AcDbEntity
  8
freecads.com
100
AcDbLine
 10
163931.923541372
 20
108922.9102138355
 30
0.0
 11
163921.3881498029
 21
108921.2470792751
 31
0.0
  0
LINE
  5
62EDB
330
1F
100
AcDbEntity
  8
freecads.com
100
AcDbLine
 10
163921.3881498029
 20
108921.2470792751
 30
0.0
 11
163909.7431047199
 21
108917.9215304379
 31
0.0
  0
LINE
  5
62EDC
330
1F
100
AcDbEntity
  8
freecads.com
100
AcDbLine
 10
163909.7431047199
 20
108917.9215304379
 30
0.0
 11
163893.1077772308
 21
108920.1385629962
 31
0.0
  0
LINE
  5
62EDD
330
1F
100
AcDbEntity
  8
freecads.com
100
AcDbLine
 10
163893.1077772308
 20
108920.1385629962
 30
0.0
 11
163874.8090222733
 21
108930.1152095077
 31
0.0
  0
LINE
  5
62EDE
330
1F
100
AcDbEntity
  8
freecads.com
100
AcDbLine
 10
163874.8090222733
 20
108930.1152095077
 30
0.0
 11
163872.590768047
 21
108943.4174048566
 31
0.0
  0
LINE
  5
62EDF
330
1F
100
AcDbEntity
  8
freecads.com
100
AcDbLine
 10
163872.590768047
 20
108943.4174048566
 30
0.0
 11
163875.3638490302
 21
108953.9486696498
 31
0.0
  0
LINE
  5
62EE0
330
1F
100
AcDbEntity
  8
freecads.com
100
AcDbLine
 10
163875.3638490302
 20
108953.9486696498
 30
0.0
 11
163884.790639887
 21
108955.61180421
 31
0.0
  0
LINE
  5
62EE1
330
1F
100
AcDbEntity
  8
freecads.com
100
AcDbLine
 10
163884.790639887
 20
108955.61180421
 30
0.0
 11
163889.2260955361
 21
108954.5032879311
 31
0.0
  0
LINE
  5
62EE2
330
1F
100
AcDbEntity
  8
freecads.com
100
AcDbLine
 10
163889.2260955361
 20
108954.5032879311
 30
0.0
 11
163895.880858213
 21
108958.9373530472
 31
0.0
  0
LINE
  5
62EE3
330
1F
100
AcDbEntity
  8
freecads.com
100
AcDbLine
 10
163895.880858213
 20
108958.9373530472
 30
0.0
 11
163902.5345680875
 21
108970.0225158379
 31
0.0
  0
LINE
  5
62EE4
330
1F
100
AcDbEntity
  8
freecads.com
100
AcDbLine
 10
163902.5345680875
 20
108970.0225158379
 30
0.0
 11
163903.0893948454
 21
108971.684930115
 31
0.0
  0
LINE
  5
62EE5
330
1F
100
AcDbEntity
  8
freecads.com
100
AcDbLine
 10
163903.0893948454
 20
108971.684930115
 30
0.0
 11
163893.6626039877
 21
108977.7821297916
 31
0.0
  0
LINE
  5
62EE6
330
1F
100
AcDbEntity
  8
freecads.com
100
AcDbLine
 10
163893.6626039877
 20
108977.7821297916
 30
0.0
 11
163885.8992405993
 21
108978.3360277894
 31
0.0
  0
LINE
  5
62EE7
330
1F
100
AcDbEntity
  8
freecads.com
100
AcDbLine
 10
163885.8992405993
 20
108978.3360277894
 30
0.0
 11
163882.0175589038
 21
108978.3360277894
 31
0.0
  0
LINE
  5
62EE8
330
1F
100
AcDbEntity
  8
freecads.com
100
AcDbLine
 10
163882.0175589038
 20
108978.3360277894
 30
0.0
 11
163879.2444779224
 21
108984.9871254638
 31
0.0
  0
LINE
  5
62EE9
330
1F
100
AcDbEntity
  8
freecads.com
100
AcDbLine
 10
163879.2444779224
 20
108984.9871254638
 30
0.0
 11
163878.13587721
 21
108994.9637719757
 31
0.0
  0
LINE
  5
62EEA
330
1F
100
AcDbEntity
  8
freecads.com
100
AcDbLine
 10
163878.13587721
 20
108994.9637719757
 30
0.0
 11
163873.145594804
 21
109006.0496550498
 31
0.0
  0
LINE
  5
62EEB
330
1F
100
AcDbEntity
  8
freecads.com
100
AcDbLine
 10
163873.145594804
 20
109006.0496550498
 30
0.0
 11
163865.3822314147
 21
108999.9524553731
 31
0.0
  0
LINE
  5
62EEC
330
1F
100
AcDbEntity
  8
freecads.com
100
AcDbLine
 10
163865.3822314147
 20
108999.9524553731
 30
0.0
 11
163854.2920130886
 21
108999.3985573754
 31
0.0
  0
LINE
  5
62EED
330
1F
100
AcDbEntity
  8
freecads.com
100
AcDbLine
 10
163854.2920130886
 20
108999.3985573754
 30
0.0
 11
163855.4006138019
 21
109006.6035530475
 31
0.0
  0
LINE
  5
62EEE
330
1F
100
AcDbEntity
  8
freecads.com
100
AcDbLine
 10
163855.4006138019
 20
109006.6035530475
 30
0.0
 11
163855.9554405579
 21
109019.3518503987
 31
0.0
  0
LINE
  5
62EEF
330
1F
100
AcDbEntity
  8
freecads.com
100
AcDbLine
 10
163855.9554405579
 20
109019.3518503987
 30
0.0
 11
163855.9554405579
 21
109024.3398135129
 31
0.0
  0
LINE
  5
62EF0
330
1F
100
AcDbEntity
  8
freecads.com
100
AcDbLine
 10
163855.9554405579
 20
109024.3398135129
 30
0.0
 11
163849.300677881
 21
109017.1348178406
 31
0.0
  0
LINE
  5
62EF1
330
1F
100
AcDbEntity
  8
freecads.com
100
AcDbLine
 10
163849.300677881
 20
109017.1348178406
 30
0.0
 11
163843.7555687179
 21
109013.2546507221
 31
0.0
  0
LINE
  5
62EF2
330
1F
100
AcDbEntity
  8
freecads.com
100
AcDbLine
 10
163843.7555687179
 20
109013.2546507221
 30
0.0
 11
163837.6566856004
 21
109020.4603666778
 31
0.0
  0
LINE
  5
62EF3
330
1F
100
AcDbEntity
  8
freecads.com
100
AcDbLine
 10
163837.6566856004
 20
109020.4603666778
 30
0.0
 11
163845.9738229442
 21
109032.0994274665
 31
0.0
  0
LINE
  5
62EF4
330
1F
100
AcDbEntity
  8
freecads.com
100
AcDbLine
 10
163845.9738229442
 20
109032.0994274665
 30
0.0
 11
163851.5189321072
 21
109047.6193756571
 31
0.0
  0
LINE
  5
62EF5
330
1F
100
AcDbEntity
  8
freecads.com
100
AcDbLine
 10
163851.5189321072
 20
109047.6193756571
 30
0.0
 11
163862.0553764779
 21
109057.0414038874
 31
0.0
  0
LINE
  5
62EF6
330
1F
100
AcDbEntity
  8
freecads.com
100
AcDbLine
 10
163862.0553764779
 20
109057.0414038874
 30
0.0
 11
163855.4006138019
 21
109060.9215710058
 31
0.0
  0
LINE
  5
62EF7
330
1F
100
AcDbEntity
  8
freecads.com
100
AcDbLine
 10
163855.4006138019
 20
109060.9215710058
 30
0.0
 11
163846.5286497012
 21
109060.9215710058
 31
0.0
  0
LINE
  5
62EF8
330
1F
100
AcDbEntity
  8
freecads.com
100
AcDbLine
 10
163846.5286497012
 20
109060.9215710058
 30
0.0
 11
163832.6653503909
 21
109060.9215710058
 31
0.0
  0
LINE
  5
62EF9
330
1F
100
AcDbEntity
  8
freecads.com
100
AcDbLine
 10
163832.6653503909
 20
109060.9215710058
 30
0.0
 11
163821.0213581113
 21
109050.3903062127
 31
0.0
  0
LINE
  5
62EFA
330
1F
100
AcDbEntity
  8
freecads.com
100
AcDbLine
 10
163821.0213581113
 20
109050.3903062127
 30
0.0
 11
163809.3763130283
 21
109033.7625620267
 31
0.0
  0
LINE
  5
62EFB
330
1F
100
AcDbEntity
  8
freecads.com
100
AcDbLine
 10
163809.3763130283
 20
109033.7625620267
 30
0.0
 11
163799.9495221715
 21
109019.9057483965
 31
0.0
  0
LINE
  5
62EFC
330
1F
100
AcDbEntity
  8
freecads.com
100
AcDbLine
 10
163799.9495221715
 20
109019.9057483965
 30
0.0
 11
163792.7409855401
 21
108996.6269065358
 31
0.0
  0
LINE
  5
62EFD
330
1F
100
AcDbEntity
  8
freecads.com
100
AcDbLine
 10
163792.7409855401
 20
108996.6269065358
 30
0.0
 11
163790.5227313138
 21
108972.7934463939
 31
0.0
  0
LINE
  5
62EFE
330
1F
100
AcDbEntity
  8
freecads.com
100
AcDbLine
 10
163790.5227313138
 20
108972.7934463939
 30
0.0
 11
163791.6313320253
 21
108953.3947716519
 31
0.0
  0
LINE
  5
62EFF
330
1F
100
AcDbEntity
  8
freecads.com
100
AcDbLine
 10
163791.6313320253
 20
108953.3947716519
 30
0.0
 11
163793.2947594937
 21
108938.4294417426
 31
0.0
  0
LINE
  5
62F00
330
1F
100
AcDbEntity
  8
freecads.com
100
AcDbLine
 10
163793.2947594937
 20
108938.4294417426
 30
0.0
 11
163791.0775580708
 21
108930.6698277891
 31
0.0
  0
LINE
  5
62F01
330
1F
100
AcDbEntity
  8
freecads.com
100
AcDbLine
 10
163791.0775580708
 20
108930.6698277891
 30
0.0
 11
163787.7496503306
 21
108925.6811443914
 31
0.0
  0
LINE
  5
62F02
330
1F
100
AcDbEntity
  8
freecads.com
100
AcDbLine
 10
163787.7496503306
 20
108925.6811443914
 30
0.0
 11
163793.8495862506
 21
108915.7044978798
 31
0.0
  0
LINE
  5
62F03
330
1F
100
AcDbEntity
  8
freecads.com
100
AcDbLine
 10
163793.8495862506
 20
108915.7044978798
 30
0.0
 11
163806.6032320451
 21
108911.2704327634
 31
0.0
  0
LINE
  5
62F04
330
1F
100
AcDbEntity
  8
freecads.com
100
AcDbLine
 10
163806.6032320451
 20
108911.2704327634
 30
0.0
 11
163823.7933862911
 21
108900.7391679705
 31
0.0
  0
LINE
  5
62F05
330
1F
100
AcDbEntity
  8
freecads.com
100
AcDbLine
 10
163823.7933862911
 20
108900.7391679705
 30
0.0
 11
163829.3384954542
 21
108894.6426885774
 31
0.0
  0
LINE
  5
62F06
330
1F
100
AcDbEntity
  8
freecads.com
100
AcDbLine
 10
163829.3384954542
 20
108894.6426885774
 30
0.0
 11
163830.448148968
 21
108890.7625214589
 31
0.0
  0
LINE
  5
62F07
330
1F
100
AcDbEntity
  8
freecads.com
100
AcDbLine
 10
163830.448148968
 20
108890.7625214589
 30
0.0
 11
163829.3384954542
 21
108885.2199400634
 31
0.0
  0
LINE
  5
62F08
330
1F
100
AcDbEntity
  8
freecads.com
100
AcDbLine
 10
163829.3384954542
 20
108885.2199400634
 30
0.0
 11
163826.5664672743
 21
108880.785874947
 31
0.0
  0
LINE
  5
62F09
330
1F
100
AcDbEntity
  8
freecads.com
100
AcDbLine
 10
163826.5664672743
 20
108880.785874947
 30
0.0
 11
163822.1299588237
 21
108880.2319769494
 31
0.0
  0
LINE
  5
62F0A
330
1F
100
AcDbEntity
  8
freecads.com
100
AcDbLine
 10
163822.1299588237
 20
108880.2319769494
 30
0.0
 11
163820.4665313543
 21
108881.3404932283
 31
0.0
  0
LINE
  5
62F0B
330
1F
100
AcDbEntity
  8
freecads.com
100
AcDbLine
 10
163820.4665313543
 20
108881.3404932283
 30
0.0
 11
163822.1299588237
 21
108875.797911833
 31
0.0
  0
LINE
  5
62F0C
330
1F
100
AcDbEntity
  8
freecads.com
100
AcDbLine
 10
163822.1299588237
 20
108875.797911833
 30
0.0
 11
163821.0213581113
 21
108873.5808792748
 31
0.0
  0
LINE
  5
62F0D
330
1F
100
AcDbEntity
  8
freecads.com
100
AcDbLine
 10
163821.0213581113
 20
108873.5808792748
 30
0.0
 11
163818.2482771281
 21
108870.8092284354
 31
0.0
  0
LINE
  5
62F0E
330
1F
100
AcDbEntity
  8
freecads.com
100
AcDbLine
 10
163818.2482771281
 20
108870.8092284354
 30
0.0
 11
163820.4665313543
 21
108865.8212653213
 31
0.0
  0
LINE
  5
62F0F
330
1F
100
AcDbEntity
  8
freecads.com
100
AcDbLine
 10
163820.4665313543
 20
108865.8212653213
 30
0.0
 11
163828.7836686972
 21
108867.4836795982
 31
0.0
  0
LINE
  5
62F10
330
1F
100
AcDbEntity
  8
freecads.com
100
AcDbLine
 10
163828.7836686972
 20
108867.4836795982
 30
0.0
 11
163834.3287778603
 21
108861.387200205
 31
0.0
  0
LINE
  5
62F11
330
1F
100
AcDbEntity
  8
freecads.com
100
AcDbLine
 10
163834.3287778603
 20
108861.387200205
 30
0.0
 11
163843.0775641039
 21
108841.1767659785
 31
0.0
  0
LINE
  5
62F12
330
1F
100
AcDbEntity
  8
freecads.com
100
AcDbLine
 10
163843.0775641039
 20
108841.1767659785
 30
0.0
 11
163851.3957542501
 21
108823.9951237945
 31
0.0
  0
LINE
  5
62F13
330
1F
100
AcDbEntity
  8
freecads.com
100
AcDbLine
 10
163851.3957542501
 20
108823.9951237945
 30
0.0
 11
163850.8409274932
 21
108803.4872124898
 31
0.0
  0
LINE
  5
62F14
330
1F
100
AcDbEntity
  8
freecads.com
100
AcDbLine
 10
163850.8409274932
 20
108803.4872124898
 30
0.0
 11
163843.6323908617
 21
108792.9559476969
 31
0.0
  0
LINE
  5
62F15
330
1F
100
AcDbEntity
  8
freecads.com
100
AcDbLine
 10
163843.6323908617
 20
108792.9559476969
 30
0.0
 11
163844.1872176187
 21
108785.7509520246
 31
0.0
  0
LINE
  5
62F16
330
1F
100
AcDbEntity
  8
freecads.com
100
AcDbLine
 10
163844.1872176187
 20
108785.7509520246
 30
0.0
 11
163850.8409274932
 21
108776.3282035106
 31
0.0
  0
LINE
  5
62F17
330
1F
100
AcDbEntity
  8
freecads.com
100
AcDbLine
 10
163850.8409274932
 20
108776.3282035106
 30
0.0
 11
163853.6140084754
 21
108762.4713898805
 31
0.0
  0
LINE
  5
62F18
330
1F
100
AcDbEntity
  8
freecads.com
100
AcDbLine
 10
163853.6140084754
 20
108762.4713898805
 30
0.0
 11
163851.9495282046
 21
108756.3749104873
 31
0.0
  0
LINE
  5
62F19
330
1F
100
AcDbEntity
  8
freecads.com
100
AcDbLine
 10
163851.9495282046
 20
108756.3749104873
 30
0.0
 11
163841.9689633924
 21
108754.1578779291
 31
0.0
  0
LINE
  5
62F1A
330
1F
100
AcDbEntity
  8
freecads.com
100
AcDbLine
 10
163841.9689633924
 20
108754.1578779291
 30
0.0
 11
163823.6702084358
 21
108745.2897476966
 31
0.0
  0
LINE
  5
62F1B
330
1F
100
AcDbEntity
  8
freecads.com
100
AcDbLine
 10
163823.6702084358
 20
108745.2897476966
 30
0.0
 11
163801.4887189803
 21
108765.24304072
 31
0.0
  0
LINE
  5
62F1C
330
1F
100
AcDbEntity
  8
freecads.com
100
AcDbLine
 10
163801.4887189803
 20
108765.24304072
 30
0.0
 11
163799.2715175565
 21
108773.0026546734
 31
0.0
  0
LINE
  5
62F1D
330
1F
100
AcDbEntity
  8
freecads.com
100
AcDbLine
 10
163799.2715175565
 20
108773.0026546734
 30
0.0
 11
163790.9533274121
 21
108769.1224875549
 31
0.0
  0
LINE
  5
62F1E
330
1F
100
AcDbEntity
  8
freecads.com
100
AcDbLine
 10
163790.9533274121
 20
108769.1224875549
 30
0.0
 11
163782.6351372659
 21
108792.9559476969
 31
0.0
  0
LINE
  5
62F1F
330
1F
100
AcDbEntity
  8
freecads.com
100
AcDbLine
 10
163782.6351372659
 20
108792.9559476969
 30
0.0
 11
163772.6545724537
 21
108809.5836918829
 31
0.0
  0
LINE
  5
62F20
330
1F
100
AcDbEntity
  8
freecads.com
100
AcDbLine
 10
163772.6545724537
 20
108809.5836918829
 30
0.0
 11
163768.2180640021
 21
108827.8745706297
 31
0.0
  0
LINE
  5
62F21
330
1F
100
AcDbEntity
  8
freecads.com
100
AcDbLine
 10
163768.2180640021
 20
108827.8745706297
 30
0.0
 11
163768.2180640021
 21
108850.5995144924
 31
0.0
  0
LINE
  5
62F22
330
1F
100
AcDbEntity
  8
freecads.com
100
AcDbLine
 10
163768.2180640021
 20
108850.5995144924
 30
0.0
 11
163769.327717516
 21
108865.5641241181
 31
0.0
  0
LINE
  5
62F23
330
1F
100
AcDbEntity
  8
freecads.com
100
AcDbLine
 10
163769.327717516
 20
108865.5641241181
 30
0.0
 11
163776.5362541484
 21
108882.1925885878
 31
0.0
  0
LINE
  5
62F24
330
1F
100
AcDbEntity
  8
freecads.com
100
AcDbLine
 10
163776.5362541484
 20
108882.1925885878
 30
0.0
 11
163773.2083464082
 21
108884.4096211459
 31
0.0
  0
LINE
  5
62F25
330
1F
100
AcDbEntity
  8
freecads.com
100
AcDbLine
 10
163773.2083464082
 20
108884.4096211459
 30
0.0
 11
163766.5546365337
 21
108888.8436862623
 31
0.0
  0
LINE
  5
62F26
330
1F
100
AcDbEntity
  8
freecads.com
100
AcDbLine
 10
163766.5546365337
 20
108888.8436862623
 30
0.0
 11
163762.6729548391
 21
108894.3862676577
 31
0.0
  0
LINE
  5
62F27
330
1F
100
AcDbEntity
  8
freecads.com
100
AcDbLine
 10
163762.6729548391
 20
108894.3862676577
 30
0.0
 11
163764.3363823074
 21
108901.0373653321
 31
0.0
  0
LINE
  5
62F28
330
1F
100
AcDbEntity
  8
freecads.com
100
AcDbLine
 10
163764.3363823074
 20
108901.0373653321
 30
0.0
 11
163764.8912090653
 21
108899.3742307717
 31
0.0
  0
LINE
  5
62F29
330
1F
100
AcDbEntity
  8
freecads.com
100
AcDbLine
 10
163764.8912090653
 20
108899.3742307717
 30
0.0
 11
163764.8912090653
 21
108909.3508772834
 31
0.0
  0
LINE
  5
62F2A
330
1F
100
AcDbEntity
  8
freecads.com
100
AcDbLine
 10
163764.8912090653
 20
108909.3508772834
 30
0.0
 11
163763.7815555514
 21
108912.6764261208
 31
0.0
  0
LINE
  5
62F2B
330
1F
100
AcDbEntity
  8
freecads.com
100
AcDbLine
 10
163763.7815555514
 20
108912.6764261208
 30
0.0
 11
163770.9911449853
 21
108924.8708254739
 31
0.0
  0
LINE
  5
62F2C
330
1F
100
AcDbEntity
  8
freecads.com
100
AcDbLine
 10
163770.9911449853
 20
108924.8708254739
 30
0.0
 11
163774.872826679
 21
108923.762309195
 31
0.0
  0
LINE
  5
62F2D
330
1F
100
AcDbEntity
  8
freecads.com
100
AcDbLine
 10
163774.872826679
 20
108923.762309195
 30
0.0
 11
163781.5265365535
 21
108919.8821420765
 31
0.0
  0
LINE
  5
62F2E
330
1F
100
AcDbEntity
  8
freecads.com
100
AcDbLine
 10
163781.5265365535
 20
108919.8821420765
 30
0.0
 11
163785.4082182491
 21
108922.0991746346
 31
0.0
  0
LINE
  5
62F2F
330
1F
100
AcDbEntity
  8
freecads.com
100
AcDbLine
 10
163785.4082182491
 20
108922.0991746346
 30
0.0
 11
163787.7496503306
 21
108925.6811443914
 31
0.0
  0
LINE
  5
62F30
330
1F
100
AcDbEntity
  8
freecads.com
100
AcDbLine
 10
163820.4665313543
 20
108881.3404932283
 30
0.0
 11
163804.2617999635
 21
108892.7231330973
 31
0.0
  0
LINE
  5
62F31
330
1F
100
AcDbEntity
  8
freecads.com
100
AcDbLine
 10
163804.2617999635
 20
108892.7231330973
 30
0.0
 11
163787.0716457166
 21
108908.2423610045
 31
0.0
  0
LINE
  5
62F32
330
1F
100
AcDbEntity
  8
freecads.com
100
AcDbLine
 10
163787.0716457166
 20
108908.2423610045
 30
0.0
 11
163777.0900281029
 21
108914.8934586789
 31
0.0
  0
LINE
  5
62F33
330
1F
100
AcDbEntity
  8
freecads.com
100
AcDbLine
 10
163777.0900281029
 20
108914.8934586789
 30
0.0
 11
163774.872826679
 21
108921.5452766367
 31
0.0
  0
LINE
  5
62F34
330
1F
100
AcDbEntity
  8
freecads.com
100
AcDbLine
 10
163769.8814914705
 20
108908.7969792858
 30
0.0
 11
163774.317999923
 21
108898.8203327741
 31
0.0
  0
LINE
  5
62F35
330
1F
100
AcDbEntity
  8
freecads.com
100
AcDbLine
 10
163774.317999923
 20
108898.8203327741
 30
0.0
 11
163783.1899640228
 21
108888.2890679809
 31
0.0
  0
LINE
  5
62F36
330
1F
100
AcDbEntity
  8
freecads.com
100
AcDbLine
 10
163783.1899640228
 20
108888.2890679809
 30
0.0
 11
163795.3898358628
 21
108884.9635191437
 31
0.0
  0
LINE
  5
62F37
330
1F
100
AcDbEntity
  8
freecads.com
100
AcDbLine
 10
163795.3898358628
 20
108884.9635191437
 30
0.0
 11
163805.370400675
 21
108881.6379703066
 31
0.0
  0
LINE
  5
62F38
330
1F
100
AcDbEntity
  8
freecads.com
100
AcDbLine
 10
163805.370400675
 20
108881.6379703066
 30
0.0
 11
163814.2434175772
 21
108875.5414909134
 31
0.0
  0
LINE
  5
62F39
330
1F
100
AcDbEntity
  8
freecads.com
100
AcDbLine
 10
163814.2434175772
 20
108875.5414909134
 30
0.0
 11
163817.015445758
 21
108873.8783563529
 31
0.0
  0
LINE
  5
62F3A
330
1F
100
AcDbEntity
  8
freecads.com
100
AcDbLine
 10
163818.2482771281
 20
108870.8092284354
 30
0.0
 11
163802.0435457382
 21
108873.8783563529
 31
0.0
  0
LINE
  5
62F3B
330
1F
100
AcDbEntity
  8
freecads.com
100
AcDbLine
 10
163802.0435457382
 20
108873.8783563529
 30
0.0
 11
163787.6264724744
 21
108879.9755560297
 31
0.0
  0
LINE
  5
62F3C
330
1F
100
AcDbEntity
  8
freecads.com
100
AcDbLine
 10
163787.6264724744
 20
108879.9755560297
 30
0.0
 11
163776.5362541484
 21
108882.1925885878
 31
0.0
  0
LINE
  5
62F3D
330
1F
100
AcDbEntity
  8
freecads.com
100
AcDbLine
 10
163804.8166267195
 20
108861.1300590017
 30
0.0
 11
163792.0619281226
 21
108846.7193473738
 31
0.0
  0
LINE
  5
62F3E
330
1F
100
AcDbEntity
  8
freecads.com
100
AcDbLine
 10
163792.0619281226
 20
108846.7193473738
 30
0.0
 11
163793.1715816375
 21
108829.5377051899
 31
0.0
  0
LINE
  5
62F3F
330
1F
100
AcDbEntity
  8
freecads.com
100
AcDbLine
 10
163793.1715816375
 20
108829.5377051899
 30
0.0
 11
163804.2617999635
 21
108810.692208162
 31
0.0
  0
LINE
  5
62F40
330
1F
100
AcDbEntity
  8
freecads.com
100
AcDbLine
 10
163804.2617999635
 20
108810.692208162
 30
0.0
 11
163807.0338281434
 21
108806.812761327
 31
0.0
  0
LINE
  5
62F41
330
1F
100
AcDbEntity
  8
freecads.com
100
AcDbLine
 10
163807.0338281434
 20
108806.812761327
 30
0.0
 11
163805.370400675
 21
108822.3319892342
 31
0.0
  0
LINE
  5
62F42
330
1F
100
AcDbEntity
  8
freecads.com
100
AcDbLine
 10
163805.370400675
 20
108822.3319892342
 30
0.0
 11
163812.5789373064
 21
108843.3937985365
 31
0.0
  0
LINE
  5
62F43
330
1F
100
AcDbEntity
  8
freecads.com
100
AcDbLine
 10
163812.5789373064
 20
108843.3937985365
 30
0.0
 11
163820.3423006957
 21
108846.7193473738
 31
0.0
  0
LINE
  5
62F44
330
1F
100
AcDbEntity
  8
freecads.com
100
AcDbLine
 10
163820.3423006957
 20
108846.7193473738
 30
0.0
 11
163830.3239183094
 21
108828.9830869086
 31
0.0
  0
LINE
  5
62F45
330
1F
100
AcDbEntity
  8
freecads.com
100
AcDbLine
 10
163830.3239183094
 20
108828.9830869086
 30
0.0
 11
163825.3336359033
 21
108819.5603383948
 31
0.0
  0
LINE
  5
62F46
330
1F
100
AcDbEntity
  8
freecads.com
100
AcDbLine
 10
163825.3336359033
 20
108819.5603383948
 30
0.0
 11
163819.7885267403
 21
108799.0531473735
 31
0.0
  0
LINE
  5
62F47
330
1F
100
AcDbEntity
  8
freecads.com
100
AcDbLine
 10
163819.7885267403
 20
108799.0531473735
 30
0.0
 11
163812.025163351
 21
108805.7042450479
 31
0.0
  0
LINE
  5
62F48
330
1F
100
AcDbEntity
  8
freecads.com
100
AcDbLine
 10
163812.025163351
 20
108805.7042450479
 30
0.0
 11
163813.6885908203
 21
108794.0644639761
 31
0.0
  0
LINE
  5
62F49
330
1F
100
AcDbEntity
  8
freecads.com
100
AcDbLine
 10
163813.6885908203
 20
108794.0644639761
 30
0.0
 11
163819.2336999833
 21
108774.1111709526
 31
0.0
  0
LINE
  5
62F4A
330
1F
100
AcDbEntity
  8
freecads.com
100
AcDbLine
 10
163819.2336999833
 20
108774.1111709526
 30
0.0
 11
163836.4238542294
 21
108765.7969387177
 31
0.0
  0
LINE
  5
62F4B
330
1F
100
AcDbEntity
  8
freecads.com
100
AcDbLine
 10
163836.4238542294
 20
108765.7969387177
 30
0.0
 11
163846.4044190416
 21
108761.3628736014
 31
0.0
  0
LINE
  5
62F4C
330
1F
100
AcDbEntity
  8
freecads.com
100
AcDbLine
 10
163846.4044190416
 20
108761.3628736014
 30
0.0
 11
163840.305535924
 21
108756.3749104873
 31
0.0
  0
LINE
  5
62F4D
330
1F
100
AcDbEntity
  8
freecads.com
100
AcDbLine
 10
163840.305535924
 20
108756.3749104873
 30
0.0
 11
163830.3239183094
 21
108751.940845371
 31
0.0
  0
LINE
  5
62F4E
330
1F
100
AcDbEntity
  8
freecads.com
100
AcDbLine
 10
163830.3239183094
 20
108751.940845371
 30
0.0
 11
163813.1337640643
 21
108759.1458410432
 31
0.0
  0
LINE
  5
62F4F
330
1F
100
AcDbEntity
  8
freecads.com
100
AcDbLine
 10
163813.1337640643
 20
108759.1458410432
 30
0.0
 11
163804.8166267195
 21
108770.231003834
 31
0.0
  0
LINE
  5
62F50
330
1F
100
AcDbEntity
  8
freecads.com
100
AcDbLine
 10
163804.8166267195
 20
108770.231003834
 30
0.0
 11
163799.2715175565
 21
108780.7622686269
 31
0.0
  0
LINE
  5
62F51
330
1F
100
AcDbEntity
  8
freecads.com
100
AcDbLine
 10
163799.2715175565
 20
108780.7622686269
 30
0.0
 11
163795.3898358628
 21
108791.2935334198
 31
0.0
  0
LINE
  5
62F52
330
1F
100
AcDbEntity
  8
freecads.com
100
AcDbLine
 10
163795.3898358628
 20
108791.2935334198
 30
0.0
 11
163785.9630450051
 21
108796.8361148153
 31
0.0
  0
LINE
  5
62F53
330
1F
100
AcDbEntity
  8
freecads.com
100
AcDbLine
 10
163785.9630450051
 20
108796.8361148153
 30
0.0
 11
163788.7350731858
 21
108801.2701799318
 31
0.0
  0
LINE
  5
62F54
330
1F
100
AcDbEntity
  8
freecads.com
100
AcDbLine
 10
163788.7350731858
 20
108801.2701799318
 30
0.0
 11
163802.0435457382
 21
108797.3900128132
 31
0.0
  0
LINE
  5
62F55
330
1F
100
AcDbEntity
  8
freecads.com
100
AcDbLine
 10
163802.0435457382
 20
108797.3900128132
 30
0.0
 11
163792.6167548796
 21
108808.475175604
 31
0.0
  0
LINE
  5
62F56
330
1F
100
AcDbEntity
  8
freecads.com
100
AcDbLine
 10
163792.6167548796
 20
108808.475175604
 30
0.0
 11
163781.5265365535
 21
108805.7042450479
 31
0.0
  0
LINE
  5
62F57
330
1F
100
AcDbEntity
  8
freecads.com
100
AcDbLine
 10
163781.5265365535
 20
108805.7042450479
 30
0.0
 11
163779.863109086
 21
108808.475175604
 31
0.0
  0
LINE
  5
62F58
330
1F
100
AcDbEntity
  8
freecads.com
100
AcDbLine
 10
163779.863109086
 20
108808.475175604
 30
0.0
 11
163775.9814273905
 21
108819.0064403969
 31
0.0
  0
LINE
  5
62F59
330
1F
100
AcDbEntity
  8
freecads.com
100
AcDbLine
 10
163775.9814273905
 20
108819.0064403969
 30
0.0
 11
163773.7631731651
 21
108831.7547377482
 31
0.0
  0
LINE
  5
62F5A
330
1F
100
AcDbEntity
  8
freecads.com
100
AcDbLine
 10
163773.7631731651
 20
108831.7547377482
 30
0.0
 11
163777.6448548598
 21
108827.3206726317
 31
0.0
  0
LINE
  5
62F5B
330
1F
100
AcDbEntity
  8
freecads.com
100
AcDbLine
 10
163777.6448548598
 20
108827.3206726317
 30
0.0
 11
163785.9630450051
 21
108836.1888028645
 31
0.0
  0
LINE
  5
62F5C
330
1F
100
AcDbEntity
  8
freecads.com
100
AcDbLine
 10
163785.9630450051
 20
108836.1888028645
 30
0.0
 11
163790.9533274121
 21
108834.5256683041
 31
0.0
  0
LINE
  5
62F5D
330
1F
100
AcDbEntity
  8
freecads.com
100
AcDbLine
 10
163790.9533274121
 20
108834.5256683041
 30
0.0
 11
163796.7918668635
 21
108823.3857907322
 31
0.0
  0
LINE
  5
62F5E
330
1F
100
AcDbEntity
  8
freecads.com
100
AcDbLine
 10
163806.4800541879
 20
108855.5874776065
 30
0.0
 11
163818.1240464694
 21
108855.0335796087
 31
0.0
  0
LINE
  5
62F5F
330
1F
100
AcDbEntity
  8
freecads.com
100
AcDbLine
 10
163818.1240464694
 20
108855.0335796087
 30
0.0
 11
163832.5421725357
 21
108846.1654493761
 31
0.0
  0
LINE
  5
62F60
330
1F
100
AcDbEntity
  8
freecads.com
100
AcDbLine
 10
163832.5421725357
 20
108846.1654493761
 30
0.0
 11
163839.1958824102
 21
108827.3206726317
 31
0.0
  0
LINE
  5
62F61
330
1F
100
AcDbEntity
  8
freecads.com
100
AcDbLine
 10
163839.1958824102
 20
108827.3206726317
 30
0.0
 11
163834.2056000031
 21
108811.8007244412
 31
0.0
  0
LINE
  5
62F62
330
1F
100
AcDbEntity
  8
freecads.com
100
AcDbLine
 10
163834.2056000031
 20
108811.8007244412
 30
0.0
 11
163828.1056640841
 21
108802.9325942085
 31
0.0
  0
LINE
  5
62F63
330
1F
100
AcDbEntity
  8
freecads.com
100
AcDbLine
 10
163828.1056640841
 20
108802.9325942085
 30
0.0
 11
163832.5421725357
 21
108792.9559476969
 31
0.0
  0
LINE
  5
62F64
330
1F
100
AcDbEntity
  8
freecads.com
100
AcDbLine
 10
163832.5421725357
 20
108792.9559476969
 30
0.0
 11
163824.2239823894
 21
108794.6190822573
 31
0.0
  0
LINE
  5
62F65
330
1F
100
AcDbEntity
  8
freecads.com
100
AcDbLine
 10
163826.5664672743
 20
108880.785874947
 30
0.0
 11
163836.9913146127
 21
108880.0547872128
 31
0.0
  0
LINE
  5
62F66
330
1F
100
AcDbEntity
  8
freecads.com
100
AcDbLine
 10
163836.9913146127
 20
108880.0547872128
 30
0.0
 11
163848.0815329387
 21
108883.38033605
 31
0.0
  0
LINE
  5
62F67
330
1F
100
AcDbEntity
  8
freecads.com
100
AcDbLine
 10
163848.0815329387
 20
108883.38033605
 30
0.0
 11
163863.607206914
 21
108889.4775357265
 31
0.0
  0
LINE
  5
62F68
330
1F
100
AcDbEntity
  8
freecads.com
100
AcDbLine
 10
163863.607206914
 20
108889.4775357265
 30
0.0
 11
163880.79736116
 21
108892.2484662825
 31
0.0
  0
LINE
  5
62F69
330
1F
100
AcDbEntity
  8
freecads.com
100
AcDbLine
 10
163880.79736116
 20
108892.2484662825
 30
0.0
 11
163897.4326886482
 21
108893.3569825616
 31
0.0
  0
LINE
  5
62F6A
330
1F
100
AcDbEntity
  8
freecads.com
100
AcDbLine
 10
163897.4326886482
 20
108893.3569825616
 30
0.0
 11
163911.2959879584
 21
108894.4654988408
 31
0.0
  0
LINE
  5
62F6B
330
1F
100
AcDbEntity
  8
freecads.com
100
AcDbLine
 10
163911.2959879584
 20
108894.4654988408
 30
0.0
 11
163924.0496337529
 21
108897.791047678
 31
0.0
  0
LINE
  5
62F6C
330
1F
100
AcDbEntity
  8
freecads.com
100
AcDbLine
 10
163924.0496337529
 20
108897.791047678
 30
0.0
 11
163933.4764246096
 21
108900.008080236
 31
0.0
  0
LINE
  5
62F6D
330
1F
100
AcDbEntity
  8
freecads.com
100
AcDbLine
 10
163933.4764246096
 20
108900.008080236
 30
0.0
 11
163946.2300704051
 21
108897.791047678
 31
0.0
  0
LINE
  5
62F6E
330
1F
100
AcDbEntity
  8
freecads.com
100
AcDbLine
 10
163946.2300704051
 20
108897.791047678
 30
0.0
 11
163952.3300063241
 21
108900.008080236
 31
0.0
  0
LINE
  5
62F6F
330
1F
100
AcDbEntity
  8
freecads.com
100
AcDbLine
 10
163952.3300063241
 20
108900.008080236
 30
0.0
 11
163964.4195266025
 21
108902.5056149004
 31
0.0
  0
LINE
  5
62F70
330
1F
100
AcDbEntity
  8
freecads.com
100
AcDbLine
 10
163870.8157435463
 20
108995.8958188016
 30
0.0
 11
163869.707142834
 21
108973.1708749387
 31
0.0
  0
LINE
  5
62F71
330
1F
100
AcDbEntity
  8
freecads.com
100
AcDbLine
 10
163869.707142834
 20
108973.1708749387
 30
0.0
 11
163861.3900054911
 21
108963.7481264247
 31
0.0
  0
LINE
  5
62F72
330
1F
100
AcDbEntity
  8
freecads.com
100
AcDbLine
 10
163861.3900054911
 20
108963.7481264247
 30
0.0
 11
163854.7352428132
 21
108958.7601633108
 31
0.0
  0
LINE
  5
62F73
330
1F
100
AcDbEntity
  8
freecads.com
100
AcDbLine
 10
163854.7352428132
 20
108958.7601633108
 30
0.0
 11
163860.8351787341
 21
108949.3374147968
 31
0.0
  0
LINE
  5
62F74
330
1F
100
AcDbEntity
  8
freecads.com
100
AcDbLine
 10
163860.8351787341
 20
108949.3374147968
 30
0.0
 11
163863.607206914
 21
108937.1437357268
 31
0.0
  0
LINE
  5
62F75
330
1F
100
AcDbEntity
  8
freecads.com
100
AcDbLine
 10
163863.607206914
 20
108937.1437357268
 30
0.0
 11
163869.152316077
 21
108926.0585729361
 31
0.0
  0
LINE
  5
62F76
330
1F
100
AcDbEntity
  8
freecads.com
100
AcDbLine
 10
163869.152316077
 20
108926.0585729361
 30
0.0
 11
163873.5888245277
 21
108917.1904427035
 31
0.0
  0
LINE
  5
62F77
330
1F
100
AcDbEntity
  8
freecads.com
100
AcDbLine
 10
163873.5888245277
 20
108917.1904427035
 30
0.0
 11
163887.452123837
 21
108912.7563775872
 31
0.0
  0
LINE
  5
62F78
330
1F
100
AcDbEntity
  8
freecads.com
100
AcDbLine
 10
163887.452123837
 20
108912.7563775872
 30
0.0
 11
163865.2706343833
 21
108902.2251127943
 31
0.0
  0
LINE
  5
62F79
330
1F
100
AcDbEntity
  8
freecads.com
100
AcDbLine
 10
163865.2706343833
 20
108902.2251127943
 30
0.0
 11
163880.79736116
 21
108906.1052799128
 31
0.0
  0
LINE
  5
62F7A
330
1F
100
AcDbEntity
  8
freecads.com
100
AcDbLine
 10
163880.79736116
 20
108906.1052799128
 30
0.0
 11
163888.0058977915
 21
108905.5506616315
 31
0.0
  0
LINE
  5
62F7B
330
1F
100
AcDbEntity
  8
freecads.com
100
AcDbLine
 10
163888.0058977915
 20
108905.5506616315
 30
0.0
 11
163893.5510069545
 21
108903.8882473545
 31
0.0
  0
LINE
  5
62F7C
330
1F
100
AcDbEntity
  8
freecads.com
100
AcDbLine
 10
163893.5510069545
 20
108903.8882473545
 30
0.0
 11
163905.7508787954
 21
108903.3336290732
 31
0.0
  0
LINE
  5
62F7D
330
1F
100
AcDbEntity
  8
freecads.com
100
AcDbLine
 10
163905.7508787954
 20
108903.3336290732
 30
0.0
 11
163909.6325604891
 21
108903.3336290732
 31
0.0
  0
LINE
  5
62F7E
330
1F
100
AcDbEntity
  8
freecads.com
100
AcDbLine
 10
163909.6325604891
 20
108903.3336290732
 30
0.0
 11
163884.6790428547
 21
108897.2371496802
 31
0.0
  0
LINE
  5
62F7F
330
1F
100
AcDbEntity
  8
freecads.com
100
AcDbLine
 10
163884.6790428547
 20
108897.2371496802
 30
0.0
 11
163913.5142421828
 21
108898.3456659593
 31
0.0
  0
LINE
  5
62F80
330
1F
100
AcDbEntity
  8
freecads.com
100
AcDbLine
 10
163913.5142421828
 20
108898.3456659593
 30
0.0
 11
163919.6131253013
 21
108901.1165965152
 31
0.0
  0
LINE
  5
62F81
330
1F
100
AcDbEntity
  8
freecads.com
100
AcDbLine
 10
163919.6131253013
 20
108901.1165965152
 30
0.0
 11
163933.4764246096
 21
108901.1165965152
 31
0.0
  0
LINE
  5
62F82
330
1F
100
AcDbEntity
  8
freecads.com
100
AcDbLine
 10
163933.4764246096
 20
108901.1165965152
 30
0.0
 11
163945.1214696936
 21
108901.1165965152
 31
0.0
  0
LINE
  5
62F83
330
1F
100
AcDbEntity
  8
freecads.com
100
AcDbLine
 10
163945.1214696936
 20
108901.1165965152
 30
0.0
 11
163951.2214056136
 21
108901.1165965152
 31
0.0
  0
LINE
  5
62F84
330
1F
100
AcDbEntity
  8
freecads.com
100
AcDbLine
 10
163848.0815329387
 20
108957.6516470317
 30
0.0
 11
163839.2085160365
 21
108965.9651589828
 31
0.0
  0
LINE
  5
62F85
330
1F
100
AcDbEntity
  8
freecads.com
100
AcDbLine
 10
163839.2085160365
 20
108965.9651589828
 30
0.0
 11
163830.8913786927
 21
108954.3260981945
 31
0.0
  0
LINE
  5
62F86
330
1F
100
AcDbEntity
  8
freecads.com
100
AcDbLine
 10
163830.8913786927
 20
108954.3260981945
 30
0.0
 11
163820.3549343211
 21
108943.7948334015
 31
0.0
  0
LINE
  5
62F87
330
1F
100
AcDbEntity
  8
freecads.com
100
AcDbLine
 10
163820.3549343211
 20
108943.7948334015
 30
0.0
 11
163818.1377328982
 21
108949.3374147968
 31
0.0
  0
LINE
  5
62F88
330
1F
100
AcDbEntity
  8
freecads.com
100
AcDbLine
 10
163818.1377328982
 20
108949.3374147968
 30
0.0
 11
163829.2279512243
 21
108967.0736752619
 31
0.0
  0
LINE
  5
62F89
330
1F
100
AcDbEntity
  8
freecads.com
100
AcDbLine
 10
163829.2279512243
 20
108967.0736752619
 30
0.0
 11
163837.5450885681
 21
108985.9191722898
 31
0.0
  0
LINE
  5
62F8A
330
1F
100
AcDbEntity
  8
freecads.com
100
AcDbLine
 10
163837.5450885681
 20
108985.9191722898
 30
0.0
 11
163833.109632918
 21
108982.5936234525
 31
0.0
  0
LINE
  5
62F8B
330
1F
100
AcDbEntity
  8
freecads.com
100
AcDbLine
 10
163833.109632918
 20
108982.5936234525
 30
0.0
 11
163825.3462695297
 21
108972.6169769409
 31
0.0
  0
LINE
  5
62F8C
330
1F
100
AcDbEntity
  8
freecads.com
100
AcDbLine
 10
163825.3462695297
 20
108972.6169769409
 30
0.0
 11
163825.9000434842
 21
108995.3412005203
 31
0.0
  0
LINE
  5
62F8D
330
1F
100
AcDbEntity
  8
freecads.com
100
AcDbLine
 10
163825.9000434842
 20
108995.3412005203
 30
0.0
 11
163817.0280793843
 21
108985.9191722898
 31
0.0
  0
LINE
  5
62F8E
330
1F
100
AcDbEntity
  8
freecads.com
100
AcDbLine
 10
163817.0280793843
 20
108985.9191722898
 30
0.0
 11
163813.1463976888
 21
108989.7986191248
 31
0.0
  0
LINE
  5
62F8F
330
1F
100
AcDbEntity
  8
freecads.com
100
AcDbLine
 10
163813.1463976888
 20
108989.7986191248
 30
0.0
 11
163813.1463976888
 21
108997.5582330783
 31
0.0
  0
LINE
  5
62F90
330
1F
100
AcDbEntity
  8
freecads.com
100
AcDbLine
 10
163813.1463976888
 20
108997.5582330783
 30
0.0
 11
163817.0280793843
 21
109003.1008144737
 31
0.0
  0
LINE
  5
62F91
330
1F
100
AcDbEntity
  8
freecads.com
100
AcDbLine
 10
163817.0280793843
 20
109003.1008144737
 30
0.0
 11
163818.6915068518
 21
109008.6433958692
 31
0.0
  0
LINE
  5
62F92
330
1F
100
AcDbEntity
  8
freecads.com
100
AcDbLine
 10
163818.6915068518
 20
109008.6433958692
 30
0.0
 11
163819.2463336106
 21
109012.5235629877
 31
0.0
  0
LINE
  5
62F93
330
1F
100
AcDbEntity
  8
freecads.com
100
AcDbLine
 10
163819.2463336106
 20
109012.5235629877
 30
0.0
 11
163821.4645878359
 21
109016.4030098227
 31
0.0
  0
LINE
  5
62F94
330
1F
100
AcDbEntity
  8
freecads.com
100
AcDbLine
 10
163821.4645878359
 20
109016.4030098227
 30
0.0
 11
163814.2560512036
 21
109009.1980141505
 31
0.0
  0
LINE
  5
62F95
330
1F
100
AcDbEntity
  8
freecads.com
100
AcDbLine
 10
163814.2560512036
 20
109009.1980141505
 30
0.0
 11
163816.4732526274
 21
109018.6200423808
 31
0.0
  0
LINE
  5
62F96
330
1F
100
AcDbEntity
  8
freecads.com
100
AcDbLine
 10
163816.4732526274
 20
109018.6200423808
 30
0.0
 11
163824.7914427736
 21
109025.2718603389
 31
0.0
  0
LINE
  5
62F97
330
1F
100
AcDbEntity
  8
freecads.com
100
AcDbLine
 10
163824.7914427736
 20
109025.2718603389
 30
0.0
 11
163816.4732526274
 21
109025.2718603389
 31
0.0
  0
LINE
  5
62F98
330
1F
100
AcDbEntity
  8
freecads.com
100
AcDbLine
 10
163816.4732526274
 20
109025.2718603389
 30
0.0
 11
163809.819542752
 21
109028.597409176
 31
0.0
  0
LINE
  5
62F99
330
1F
100
AcDbEntity
  8
freecads.com
100
AcDbLine
 10
163809.819542752
 20
109028.597409176
 30
0.0
 11
163808.1561152845
 21
109023.6087257784
 31
0.0
  0
LINE
  5
62F9A
330
1F
100
AcDbEntity
  8
freecads.com
100
AcDbLine
 10
163811.4829702213
 20
108970.3992240992
 30
0.0
 11
163799.8379251383
 21
108947.6750005197
 31
0.0
  0
LINE
  5
62F9B
330
1F
100
AcDbEntity
  8
freecads.com
100
AcDbLine
 10
163799.8379251383
 20
108947.6750005197
 30
0.0
 11
163798.174497669
 21
108934.3728051709
 31
0.0
  0
LINE
  5
62F9C
330
1F
100
AcDbEntity
  8
freecads.com
100
AcDbLine
 10
163798.174497669
 20
108934.3728051709
 30
0.0
 11
163793.7390420207
 21
108927.1670892152
 31
0.0
  0
LINE
  5
62F9D
330
1F
100
AcDbEntity
  8
freecads.com
100
AcDbLine
 10
163846.9897770624
 20
109054.8704694721
 30
0.0
 11
163837.0081594478
 21
109050.4364043558
 31
0.0
  0
LINE
  5
62F9E
330
1F
100
AcDbEntity
  8
freecads.com
100
AcDbLine
 10
163837.0081594478
 20
109050.4364043558
 30
0.0
 11
163831.4630502848
 21
109043.7853066813
 31
0.0
  0
LINE
  5
62F9F
330
1F
100
AcDbEntity
  8
freecads.com
100
AcDbLine
 10
163831.4630502848
 20
109043.7853066813
 30
0.0
 11
163826.4727678796
 21
109044.3399249626
 31
0.0
  0
LINE
  5
62FA0
330
1F
100
AcDbEntity
  8
freecads.com
100
AcDbLine
 10
163826.4727678796
 20
109044.3399249626
 30
0.0
 11
163827.5813685901
 21
109035.4717947299
 31
0.0
  0
LINE
  5
62FA1
330
1F
100
AcDbEntity
  8
freecads.com
100
AcDbLine
 10
163827.5813685901
 20
109035.4717947299
 30
0.0
 11
163822.591086184
 21
109033.8086601695
 31
0.0
  0
LINE
  5
62FA2
330
1F
100
AcDbEntity
  8
freecads.com
100
AcDbLine
 10
163822.591086184
 20
109033.8086601695
 30
0.0
 11
163819.8180052017
 21
109035.4717947299
 31
0.0
  0
LINE
  5
62FA3
330
1F
100
AcDbEntity
  8
freecads.com
100
AcDbLine
 10
163819.8180052017
 20
109035.4717947299
 30
0.0
 11
163827.0275946356
 21
109024.940529937
 31
0.0
  0
LINE
  5
62FA4
330
1F
100
AcDbEntity
  8
freecads.com
100
AcDbLine
 10
163827.0275946356
 20
109024.940529937
 30
0.0
 11
163830.9092763293
 21
109026.049046216
 31
0.0
  0
LINE
  5
62FA5
330
1F
100
AcDbEntity
  8
freecads.com
100
AcDbLine
 10
163830.9092763293
 20
109026.049046216
 30
0.0
 11
163830.3544495733
 21
109012.1922325858
 31
0.0
  0
LINE
  5
62FA6
330
1F
100
AcDbEntity
  8
freecads.com
100
AcDbLine
 10
163830.3544495733
 20
109012.1922325858
 30
0.0
 11
163829.2447960585
 21
109003.8787206346
 31
0.0
  0
LINE
  5
62FA7
330
1F
100
AcDbEntity
  8
freecads.com
100
AcDbLine
 10
163829.2447960585
 20
109003.8787206346
 30
0.0
 11
163833.1264777541
 21
109004.9872369135
 31
0.0
  0
LINE
  5
62FA8
330
1F
100
AcDbEntity
  8
freecads.com
100
AcDbLine
 10
163833.1264777541
 20
109004.9872369135
 30
0.0
 11
163840.8898411424
 21
109006.6496511905
 31
0.0
  0
LINE
  5
62FA9
330
1F
100
AcDbEntity
  8
freecads.com
100
AcDbLine
 10
163840.8898411424
 20
109006.6496511905
 30
0.0
 11
163846.9897770624
 21
109012.1922325858
 31
0.0
  0
LINE
  5
62FAA
330
1F
100
AcDbEntity
  8
freecads.com
100
AcDbLine
 10
163846.9897770624
 20
109012.1922325858
 30
0.0
 11
163848.0983777739
 21
108995.5644883998
 31
0.0
  0
LINE
  5
62FAB
330
1F
100
AcDbEntity
  8
freecads.com
100
AcDbLine
 10
163848.0983777739
 20
108995.5644883998
 30
0.0
 11
163848.6532045308
 21
108989.4680090066
 31
0.0
  0
LINE
  5
62FAC
330
1F
100
AcDbEntity
  8
freecads.com
100
AcDbLine
 10
163848.6532045308
 20
108989.4680090066
 30
0.0
 11
163858.6348221445
 21
108990.0219070042
 31
0.0
  0
LINE
  5
62FAD
330
1F
100
AcDbEntity
  8
freecads.com
100
AcDbLine
 10
163858.6348221445
 20
108990.0219070042
 30
0.0
 11
163857.5251686315
 21
108983.3708093298
 31
0.0
  0
LINE
  5
62FAE
330
1F
100
AcDbEntity
  8
freecads.com
100
AcDbLine
 10
163857.5251686315
 20
108983.3708093298
 30
0.0
 11
163866.9519594893
 21
108995.5644883998
 31
0.0
  0
LINE
  5
62FAF
330
1F
100
AcDbEntity
  8
freecads.com
100
AcDbLine
 10
163866.9519594893
 20
108995.5644883998
 30
0.0
 11
163864.1799313085
 21
108981.7076747693
 31
0.0
  0
LINE
  5
62FB0
330
1F
100
AcDbEntity
  8
freecads.com
100
AcDbLine
 10
163864.1799313085
 20
108981.7076747693
 30
0.0
 11
163864.1799313085
 21
108976.1650933741
 31
0.0
  0
LINE
  5
62FB1
330
1F
100
AcDbEntity
  8
freecads.com
100
AcDbLine
 10
163872.4970686523
 20
108985.0339438902
 30
0.0
 11
163871.9432946968
 21
108967.2969631414
 31
0.0
  0
LINE
  5
62FB2
330
1F
100
AcDbEntity
  8
freecads.com
100
AcDbLine
 10
163871.9432946968
 20
108967.2969631414
 30
0.0
 11
163880.8152587976
 21
108966.1884468625
 31
0.0
  0
LINE
  5
62FB3
330
1F
100
AcDbEntity
  8
freecads.com
100
AcDbLine
 10
163880.8152587976
 20
108966.1884468625
 30
0.0
 11
163883.0335130238
 21
108968.4054794205
 31
0.0
  0
LINE
  5
62FB4
330
1F
100
AcDbEntity
  8
freecads.com
100
AcDbLine
 10
163883.0335130238
 20
108968.4054794205
 30
0.0
 11
163879.7066580861
 21
108959.5373491878
 31
0.0
  0
LINE
  5
62FB5
330
1F
100
AcDbEntity
  8
freecads.com
100
AcDbLine
 10
163879.7066580861
 20
108959.5373491878
 30
0.0
 11
163873.6067221662
 21
108956.2118003506
 31
0.0
  0
LINE
  5
62FB6
330
1F
100
AcDbEntity
  8
freecads.com
100
AcDbLine
 10
163873.6067221662
 20
108956.2118003506
 30
0.0
 11
163872.4970686523
 21
108953.4408697947
 31
0.0
  0
LINE
  5
62FB7
330
1F
100
AcDbEntity
  8
freecads.com
100
AcDbLine
 10
163894.6785581059
 20
108946.7897721203
 30
0.0
 11
163887.4689686721
 21
108941.8010887227
 31
0.0
  0
LINE
  5
62FB8
330
1F
100
AcDbEntity
  8
freecads.com
100
AcDbLine
 10
163887.4689686721
 20
108941.8010887227
 30
0.0
 11
163888.023795429
 21
108939.0301581667
 31
0.0
  0
LINE
  5
62FB9
330
1F
100
AcDbEntity
  8
freecads.com
100
AcDbLine
 10
163888.023795429
 20
108939.0301581667
 30
0.0
 11
163891.9054771237
 21
108936.8131256086
 31
0.0
  0
LINE
  5
62FBA
330
1F
100
AcDbEntity
  8
freecads.com
100
AcDbLine
 10
163891.9054771237
 20
108936.8131256086
 30
0.0
 11
163901.8870947383
 21
108938.4755398853
 31
0.0
  0
LINE
  5
62FBB
330
1F
100
AcDbEntity
  8
freecads.com
100
AcDbLine
 10
163901.8870947383
 20
108938.4755398853
 30
0.0
 11
163907.9859778549
 21
108937.9216418878
 31
0.0
  0
LINE
  5
62FBC
330
1F
100
AcDbEntity
  8
freecads.com
100
AcDbLine
 10
163907.9859778549
 20
108937.9216418878
 30
0.0
 11
163911.313885595
 21
108937.9216418878
 31
0.0
  0
LINE
  5
62FBD
330
1F
100
AcDbEntity
  8
freecads.com
100
AcDbLine
 10
163911.313885595
 20
108937.9216418878
 30
0.0
 11
163913.531087018
 21
108939.0301581667
 31
0.0
  0
LINE
  5
62FBE
330
1F
100
AcDbEntity
  8
freecads.com
100
AcDbLine
 10
163913.531087018
 20
108939.0301581667
 30
0.0
 11
163914.0859137758
 21
108941.8010887227
 31
0.0
  0
LINE
  5
62FBF
330
1F
100
AcDbEntity
  8
freecads.com
100
AcDbLine
 10
163914.0859137758
 20
108941.8010887227
 30
0.0
 11
163909.6504581257
 21
108942.3557070039
 31
0.0
  0
LINE
  5
62FC0
330
1F
100
AcDbEntity
  8
freecads.com
100
AcDbLine
 10
163898.5591869982
 20
108950.6692189553
 30
0.0
 11
163903.5505222067
 21
108945.1266375599
 31
0.0
  0
LINE
  5
62FC1
330
1F
100
AcDbEntity
  8
freecads.com
100
AcDbLine
 10
163903.5505222067
 20
108945.1266375599
 30
0.0
 11
163907.9859778549
 21
108947.3436701181
 31
0.0
  0
LINE
  5
62FC2
330
1F
100
AcDbEntity
  8
freecads.com
100
AcDbLine
 10
163907.9859778549
 20
108947.3436701181
 30
0.0
 11
163912.9773130644
 21
108950.1153209575
 31
0.0
  0
LINE
  5
62FC3
330
1F
100
AcDbEntity
  8
freecads.com
100
AcDbLine
 10
163920.1858496958
 20
108947.8982883995
 30
0.0
 11
163923.5127046335
 21
108937.3670236064
 31
0.0
  0
LINE
  5
62FC4
330
1F
100
AcDbEntity
  8
freecads.com
100
AcDbLine
 10
163923.5127046335
 20
108937.3670236064
 30
0.0
 11
163920.7406764518
 21
108929.6074096529
 31
0.0
  0
LINE
  5
62FC5
330
1F
100
AcDbEntity
  8
freecads.com
100
AcDbLine
 10
163920.7406764518
 20
108929.6074096529
 30
0.0
 11
163909.6504581257
 21
108924.0648282574
 31
0.0
  0
LINE
  5
62FC6
330
1F
100
AcDbEntity
  8
freecads.com
100
AcDbLine
 10
163909.6504581257
 20
108924.0648282574
 30
0.0
 11
163893.5689045911
 21
108924.0648282574
 31
0.0
  0
LINE
  5
62FC7
330
1F
100
AcDbEntity
  8
freecads.com
100
AcDbLine
 10
163893.5689045911
 20
108924.0648282574
 30
0.0
 11
163883.0335130238
 21
108927.9442750924
 31
0.0
  0
LINE
  5
62FC8
330
1F
100
AcDbEntity
  8
freecads.com
100
AcDbLine
 10
163883.0335130238
 20
108927.9442750924
 30
0.0
 11
163876.933577103
 21
108934.5960930503
 31
0.0
  0
LINE
  5
62FC9
330
1F
100
AcDbEntity
  8
freecads.com
100
AcDbLine
 10
163876.933577103
 20
108934.5960930503
 30
0.0
 11
163876.933577103
 21
108944.5727395621
 31
0.0
  0
LINE
  5
62FCA
330
1F
100
AcDbEntity
  8
freecads.com
100
AcDbLine
 10
163876.933577103
 20
108944.5727395621
 30
0.0
 11
163885.8055412037
 21
108950.6692189553
 31
0.0
  0
LINE
  5
62FCB
330
1F
100
AcDbEntity
  8
freecads.com
100
AcDbLine
 10
163885.8055412037
 20
108950.6692189553
 30
0.0
 11
163899.1140137551
 21
108950.1153209575
 31
0.0
  0
LINE
  5
62FCC
330
1F
100
AcDbEntity
  8
freecads.com
100
AcDbLine
 10
163883.0335130238
 20
108938.4755398853
 30
0.0
 11
163885.8055412037
 21
108931.2698239296
 31
0.0
  0
LINE
  5
62FCD
330
1F
100
AcDbEntity
  8
freecads.com
100
AcDbLine
 10
163885.8055412037
 20
108931.2698239296
 30
0.0
 11
163891.9054771237
 21
108930.7159259318
 31
0.0
  0
LINE
  5
62FCE
330
1F
100
AcDbEntity
  8
freecads.com
100
AcDbLine
 10
163891.9054771237
 20
108930.7159259318
 30
0.0
 11
163899.668840513
 21
108930.1613076505
 31
0.0
  0
LINE
  5
62FCF
330
1F
100
AcDbEntity
  8
freecads.com
100
AcDbLine
 10
163899.668840513
 20
108930.1613076505
 30
0.0
 11
163911.8676595496
 21
108931.2698239296
 31
0.0
  0
LINE
  5
62FD0
330
1F
100
AcDbEntity
  8
freecads.com
100
AcDbLine
 10
163911.8676595496
 20
108931.2698239296
 30
0.0
 11
163915.1955672888
 21
108932.3783402088
 31
0.0
  0
LINE
  5
62FD1
330
1F
100
AcDbEntity
  8
freecads.com
100
AcDbLine
 10
163915.1955672888
 20
108932.3783402088
 30
0.0
 11
163916.8589947581
 21
108939.5840561646
 31
0.0
  0
LINE
  5
62FD2
330
1F
100
AcDbEntity
  8
freecads.com
100
AcDbLine
 10
163859.4825424527
 20
109054.7406927586
 30
0.0
 11
163881.923859509
 21
109056.5336040326
 31
0.0
  0
LINE
  5
62FD3
330
1F
100
AcDbEntity
  8
freecads.com
100
AcDbLine
 10
163881.923859509
 20
109056.5336040326
 30
0.0
 11
163895.7871588183
 21
109054.8704694721
 31
0.0
  0
LINE
  5
62FD4
330
1F
100
AcDbEntity
  8
freecads.com
100
AcDbLine
 10
163895.7871588183
 20
109054.8704694721
 30
0.0
 11
163900.223667269
 21
109052.6534369138
 31
0.0
  0
LINE
  5
62FD5
330
1F
100
AcDbEntity
  8
freecads.com
100
AcDbLine
 10
163900.223667269
 20
109052.6534369138
 30
0.0
 11
163902.4408686919
 21
109050.4364043558
 31
0.0
  0
LINE
  5
62FD6
330
1F
100
AcDbEntity
  8
freecads.com
100
AcDbLine
 10
163902.4408686919
 20
109050.4364043558
 30
0.0
 11
163910.2042320812
 21
109050.4364043558
 31
0.0
  0
LINE
  5
62FD7
330
1F
100
AcDbEntity
  8
freecads.com
100
AcDbLine
 10
163910.2042320812
 20
109050.4364043558
 30
0.0
 11
163919.0772489834
 21
109054.8704694721
 31
0.0
  0
LINE
  5
62FD8
330
1F
100
AcDbEntity
  8
freecads.com
100
AcDbLine
 10
163919.0772489834
 20
109054.8704694721
 30
0.0
 11
163929.6126405526
 21
109059.8591528695
 31
0.0
  0
LINE
  5
62FD9
330
1F
100
AcDbEntity
  8
freecads.com
100
AcDbLine
 10
163929.6126405526
 20
109059.8591528695
 30
0.0
 11
163937.3760039409
 21
109063.7385997046
 31
0.0
  0
LINE
  5
62FDA
330
1F
100
AcDbEntity
  8
freecads.com
100
AcDbLine
 10
163937.3760039409
 20
109063.7385997046
 30
0.0
 11
163941.2576856365
 21
109064.2932179859
 31
0.0
  0
LINE
  5
62FDB
330
1F
100
AcDbEntity
  8
freecads.com
100
AcDbLine
 10
163941.2576856365
 20
109064.2932179859
 30
0.0
 11
163947.3565687541
 21
109062.6300834257
 31
0.0
  0
LINE
  5
62FDC
330
1F
100
AcDbEntity
  8
freecads.com
100
AcDbLine
 10
163947.3565687541
 20
109062.6300834257
 30
0.0
 11
163948.8315446306
 21
109059.2404293584
 31
0.0
  0
LINE
  5
62FDD
330
1F
100
AcDbEntity
  8
freecads.com
100
AcDbLine
 10
163948.8315446306
 20
109059.2404293584
 30
0.0
 11
163949.5748229794
 21
109053.761953193
 31
0.0
  0
LINE
  5
62FDE
330
1F
100
AcDbEntity
  8
freecads.com
100
AcDbLine
 10
163949.5748229794
 20
109053.761953193
 30
0.0
 11
163949.5748229794
 21
109046.5569575207
 31
0.0
  0
LINE
  5
62FDF
330
1F
100
AcDbEntity
  8
freecads.com
100
AcDbLine
 10
163949.5748229794
 20
109046.5569575207
 30
0.0
 11
163954.011331431
 21
109043.7853066813
 31
0.0
  0
LINE
  5
62FE0
330
1F
100
AcDbEntity
  8
freecads.com
100
AcDbLine
 10
163954.011331431
 20
109043.7853066813
 30
0.0
 11
163959.0016138371
 21
109043.7853066813
 31
0.0
  0
LINE
  5
62FE1
330
1F
100
AcDbEntity
  8
freecads.com
100
AcDbLine
 10
163959.0016138371
 20
109043.7853066813
 30
0.0
 11
163965.1015497571
 21
109044.8938229602
 31
0.0
  0
LINE
  5
62FE2
330
1F
100
AcDbEntity
  8
freecads.com
100
AcDbLine
 10
163965.1015497571
 20
109044.8938229602
 30
0.0
 11
163966.7649772254
 21
109042.1228924043
 31
0.0
  0
LINE
  5
62FE3
330
1F
100
AcDbEntity
  8
freecads.com
100
AcDbLine
 10
163966.7649772254
 20
109042.1228924043
 30
0.0
 11
163967.3198039833
 21
109040.4597578441
 31
0.0
  0
LINE
  5
62FE4
330
1F
100
AcDbEntity
  8
freecads.com
100
AcDbLine
 10
163967.3198039833
 20
109040.4597578441
 30
0.0
 11
163970.6466589201
 21
109041.0143761254
 31
0.0
  0
LINE
  5
62FE5
330
1F
100
AcDbEntity
  8
freecads.com
100
AcDbLine
 10
163970.6466589201
 20
109041.0143761254
 30
0.0
 11
163973.4197399024
 21
109041.0143761254
 31
0.0
  0
LINE
  5
62FE6
330
1F
100
AcDbEntity
  8
freecads.com
100
AcDbLine
 10
163973.4197399024
 20
109041.0143761254
 30
0.0
 11
163975.6369413262
 21
109039.9058598463
 31
0.0
  0
LINE
  5
62FE7
330
1F
100
AcDbEntity
  8
freecads.com
100
AcDbLine
 10
163975.6369413262
 20
109039.9058598463
 30
0.0
 11
163975.6369413262
 21
109036.5803110091
 31
0.0
  0
LINE
  5
62FE8
330
1F
100
AcDbEntity
  8
freecads.com
100
AcDbLine
 10
163975.6369413262
 20
109036.5803110091
 30
0.0
 11
163977.3521464405
 21
109034.9133682556
 31
0.0
  0
LINE
  5
62FE9
330
1F
100
AcDbEntity
  8
freecads.com
100
AcDbLine
 10
163967.3198039833
 20
109040.4597578441
 30
0.0
 11
163962.8832955308
 21
109035.4717947299
 31
0.0
  0
LINE
  5
62FEA
330
1F
100
AcDbEntity
  8
freecads.com
100
AcDbLine
 10
163962.8832955308
 20
109035.4717947299
 30
0.0
 11
163960.1112673509
 21
109030.4831113323
 31
0.0
  0
LINE
  5
62FEB
330
1F
100
AcDbEntity
  8
freecads.com
100
AcDbLine
 10
163960.1112673509
 20
109030.4831113323
 30
0.0
 11
163959.556440594
 21
109022.1688790977
 31
0.0
  0
LINE
  5
62FEC
330
1F
100
AcDbEntity
  8
freecads.com
100
AcDbLine
 10
163959.556440594
 20
109022.1688790977
 30
0.0
 11
163959.556440594
 21
109029.928493051
 31
0.0
  0
LINE
  5
62FED
330
1F
100
AcDbEntity
  8
freecads.com
100
AcDbLine
 10
163959.556440594
 20
109029.928493051
 30
0.0
 11
163959.556440594
 21
109036.5803110091
 31
0.0
  0
LINE
  5
62FEE
330
1F
100
AcDbEntity
  8
freecads.com
100
AcDbLine
 10
163959.556440594
 20
109036.5803110091
 30
0.0
 11
163960.6650413055
 21
109040.4597578441
 31
0.0
  0
LINE
  5
62FEF
330
1F
100
AcDbEntity
  8
freecads.com
100
AcDbLine
 10
163960.6650413055
 20
109040.4597578441
 30
0.0
 11
163962.8832955308
 21
109042.1228924043
 31
0.0
  0
LINE
  5
62FF0
330
1F
100
AcDbEntity
  8
freecads.com
100
AcDbLine
 10
163962.8832955308
 20
109029.928493051
 30
0.0
 11
163967.8735779378
 21
109034.9171764486
 31
0.0
  0
LINE
  5
62FF1
330
1F
100
AcDbEntity
  8
freecads.com
100
AcDbLine
 10
163967.8735779378
 20
109034.9171764486
 30
0.0
 11
163970.6466589201
 21
109037.1342090069
 31
0.0
  0
LINE
  5
62FF2
330
1F
100
AcDbEntity
  8
freecads.com
100
AcDbLine
 10
163970.6466589201
 20
109037.1342090069
 30
0.0
 11
163975.6369413262
 21
109037.1342090069
 31
0.0
  0
LINE
  5
62FF3
330
1F
100
AcDbEntity
  8
freecads.com
100
AcDbLine
 10
163894.1237313499
 20
109052.0995389161
 30
0.0
 11
163894.1237313499
 21
109043.7853066813
 31
0.0
  0
LINE
  5
62FF4
330
1F
100
AcDbEntity
  8
freecads.com
100
AcDbLine
 10
163894.1237313499
 20
109043.7853066813
 30
0.0
 11
163891.9054771237
 21
109037.1342090069
 31
0.0
  0
LINE
  5
62FF5
330
1F
100
AcDbEntity
  8
freecads.com
100
AcDbLine
 10
163891.9054771237
 20
109037.1342090069
 30
0.0
 11
163890.7968764122
 21
109033.2547621719
 31
0.0
  0
LINE
  5
62FF6
330
1F
100
AcDbEntity
  8
freecads.com
100
AcDbLine
 10
163890.7968764122
 20
109033.2547621719
 30
0.0
 11
163888.023795429
 21
109026.049046216
 31
0.0
  0
LINE
  5
62FF7
330
1F
100
AcDbEntity
  8
freecads.com
100
AcDbLine
 10
163888.023795429
 20
109026.049046216
 30
0.0
 11
163887.4689686721
 21
109022.7234973789
 31
0.0
  0
LINE
  5
62FF8
330
1F
100
AcDbEntity
  8
freecads.com
100
AcDbLine
 10
163887.4689686721
 20
109022.7234973789
 30
0.0
 11
163887.4689686721
 21
109028.8199767721
 31
0.0
  0
LINE
  5
62FF9
330
1F
100
AcDbEntity
  8
freecads.com
100
AcDbLine
 10
163887.4689686721
 20
109028.8199767721
 30
0.0
 11
163887.4689686721
 21
109038.2427252858
 31
0.0
  0
LINE
  5
62FFA
330
1F
100
AcDbEntity
  8
freecads.com
100
AcDbLine
 10
163887.4689686721
 20
109038.2427252858
 30
0.0
 11
163890.7968764122
 21
109044.3399249626
 31
0.0
  0
LINE
  5
62FFB
330
1F
100
AcDbEntity
  8
freecads.com
100
AcDbLine
 10
163890.7968764122
 20
109044.3399249626
 30
0.0
 11
163894.1237313499
 21
109052.0995389161
 31
0.0
  0
LINE
  5
62FFC
330
1F
100
AcDbEntity
  8
freecads.com
100
AcDbLine
 10
163900.223667269
 20
109039.351241565
 30
0.0
 11
163902.4408686919
 21
109037.1342090069
 31
0.0
  0
LINE
  5
62FFD
330
1F
100
AcDbEntity
  8
freecads.com
100
AcDbLine
 10
163902.4408686919
 20
109037.1342090069
 30
0.0
 11
163906.3225503865
 21
109034.9171764486
 31
0.0
  0
LINE
  5
62FFE
330
1F
100
AcDbEntity
  8
freecads.com
100
AcDbLine
 10
163906.3225503865
 20
109034.9171764486
 30
0.0
 11
163906.8773771435
 21
109034.9171764486
 31
0.0
  0
LINE
  5
62FFF
330
1F
100
AcDbEntity
  8
freecads.com
100
AcDbLine
 10
163906.8773771435
 20
109034.9171764486
 30
0.0
 11
163906.3225503865
 21
109033.2547621719
 31
0.0
  0
LINE
  5
63000
330
1F
100
AcDbEntity
  8
freecads.com
100
AcDbLine
 10
163906.3225503865
 20
109033.2547621719
 30
0.0
 11
163902.4408686919
 21
109030.4831113323
 31
0.0
  0
LINE
  5
63001
330
1F
100
AcDbEntity
  8
freecads.com
100
AcDbLine
 10
163902.4408686919
 20
109030.4831113323
 30
0.0
 11
163900.7774412235
 21
109027.7114604929
 31
0.0
  0
LINE
  5
63002
330
1F
100
AcDbEntity
  8
freecads.com
100
AcDbLine
 10
163900.7774412235
 20
109027.7114604929
 30
0.0
 11
163900.7774412235
 21
109023.8320136578
 31
0.0
  0
LINE
  5
63003
330
1F
100
AcDbEntity
  8
freecads.com
100
AcDbLine
 10
163900.7774412235
 20
109023.8320136578
 30
0.0
 11
163900.223667269
 21
109022.7234973789
 31
0.0
  0
LINE
  5
63004
330
1F
100
AcDbEntity
  8
freecads.com
100
AcDbLine
 10
163900.223667269
 20
109022.7234973789
 30
0.0
 11
163898.2970392512
 21
109030.3829919284
 31
0.0
  0
LINE
  5
63005
330
1F
100
AcDbEntity
  8
freecads.com
100
AcDbLine
 10
163898.2970392512
 20
109030.3829919284
 30
0.0
 11
163898.2970392512
 21
109033.6595614886
 31
0.0
  0
LINE
  5
63006
330
1F
100
AcDbEntity
  8
freecads.com
100
AcDbLine
 10
163898.2970392512
 20
109033.6595614886
 30
0.0
 11
163899.6625236993
 21
109036.9361310492
 31
0.0
  0
LINE
  5
63007
330
1F
100
AcDbEntity
  8
freecads.com
100
AcDbLine
 10
163899.6625236993
 20
109036.9361310492
 30
0.0
 11
163900.223667269
 21
109039.351241565
 31
0.0
  0
LINE
  5
63008
330
1F
100
AcDbEntity
  8
freecads.com
100
AcDbLine
 10
163900.223667269
 20
109039.351241565
 30
0.0
 11
163900.7553323781
 21
109041.3046503687
 31
0.0
  0
LINE
  5
63009
330
1F
100
AcDbEntity
  8
freecads.com
100
AcDbLine
 10
163900.7553323781
 20
109041.3046503687
 30
0.0
 11
163901.0149877168
 21
109038.5599813848
 31
0.0
  0
LINE
  5
6300A
330
1F
100
AcDbEntity
  8
freecads.com
100
AcDbLine
 10
163911.4096905956
 20
109029.5633093257
 30
0.0
 11
163915.2334681688
 21
109033.1128663256
 31
0.0
  0
LINE
  5
6300B
330
1F
100
AcDbEntity
  8
freecads.com
100
AcDbLine
 10
163915.2334681688
 20
109033.1128663256
 30
0.0
 11
163922.0629960106
 21
109034.4785238079
 31
0.0
  0
LINE
  5
6300C
330
1F
100
AcDbEntity
  8
freecads.com
100
AcDbLine
 10
163922.0629960106
 20
109034.4785238079
 30
0.0
 11
163928.3461195122
 21
109035.2974861272
 31
0.0
  0
LINE
  5
6300D
330
1F
100
AcDbEntity
  8
freecads.com
100
AcDbLine
 10
163928.3461195122
 20
109035.2974861272
 30
0.0
 11
163934.6292430138
 21
109033.3865740491
 31
0.0
  0
LINE
  5
6300E
330
1F
100
AcDbEntity
  8
freecads.com
100
AcDbLine
 10
163939.8195578376
 20
109053.3189788515
 30
0.0
 11
163937.907669051
 21
109047.0388271703
 31
0.0
  0
LINE
  5
6300F
330
1F
100
AcDbEntity
  8
freecads.com
100
AcDbLine
 10
163937.907669051
 20
109047.0388271703
 30
0.0
 11
163937.907669051
 21
109043.48927017
 31
0.0
  0
LINE
  5
63010
330
1F
100
AcDbEntity
  8
freecads.com
100
AcDbLine
 10
163937.907669051
 20
109043.48927017
 30
0.0
 11
163939.5468820691
 21
109040.7586754892
 31
0.0
  0
LINE
  5
63011
330
1F
100
AcDbEntity
  8
freecads.com
100
AcDbLine
 10
163939.5468820691
 20
109040.7586754892
 30
0.0
 11
163941.7314466242
 21
109036.9361310492
 31
0.0
  0
LINE
  5
63012
330
1F
100
AcDbEntity
  8
freecads.com
100
AcDbLine
 10
163944.1907925525
 20
109050.3153967308
 30
0.0
 11
163943.6443882132
 21
109045.9468774114
 31
0.0
  0
LINE
  5
63013
330
1F
100
AcDbEntity
  8
freecads.com
100
AcDbLine
 10
163943.6443882132
 20
109045.9468774114
 30
0.0
 11
163943.6443882132
 21
109041.031662929
 31
0.0
  0
LINE
  5
63014
330
1F
100
AcDbEntity
  8
freecads.com
100
AcDbLine
 10
163943.6443882132
 20
109041.031662929
 30
0.0
 11
163944.463468321
 21
109040.4856880494
 31
0.0
  0
LINE
  5
63015
330
1F
100
AcDbEntity
  8
freecads.com
100
AcDbLine
 10
163944.463468321
 20
109040.4856880494
 30
0.0
 11
163946.1026813391
 21
109043.2162827305
 31
0.0
  0
LINE
  5
63016
330
1F
100
AcDbEntity
  8
freecads.com
100
AcDbLine
 10
163946.1026813391
 20
109043.2162827305
 30
0.0
 11
163946.1026813391
 21
109047.5848020498
 31
0.0
  0
LINE
  5
63017
330
1F
100
AcDbEntity
  8
freecads.com
100
AcDbLine
 10
163946.1026813391
 20
109047.5848020498
 30
0.0
 11
163945.2836012313
 21
109050.5883841705
 31
0.0
  0
LINE
  5
63018
330
1F
100
AcDbEntity
  8
freecads.com
100
AcDbLine
 10
163945.2836012313
 20
109050.5883841705
 30
0.0
 11
163944.7371968919
 21
109052.773003972
 31
0.0
  0
LINE
  5
63019
330
1F
100
AcDbEntity
  8
freecads.com
100
AcDbLine
 10
163944.7371968919
 20
109052.773003972
 30
0.0
 11
163944.1907925525
 21
109050.3153967308
 31
0.0
  0
LINE
  5
6301A
330
1F
100
AcDbEntity
  8
freecads.com
100
AcDbLine
 10
163948.9475141125
 20
109058.3856539607
 30
0.0
 11
163950.94136023
 21
109056.1741825748
 31
0.0
  0
LINE
  5
6301B
330
1F
100
AcDbEntity
  8
freecads.com
100
AcDbLine
 10
163950.94136023
 20
109056.1741825748
 30
0.0
 11
163952.0910202259
 21
109052.1492384763
 31
0.0
  0
LINE
  5
6301C
330
1F
100
AcDbEntity
  8
freecads.com
100
AcDbLine
 10
163952.0910202259
 20
109052.1492384763
 30
0.0
 11
163953.2417330261
 21
109048.6998008802
 31
0.0
  0
LINE
  5
6301D
330
1F
100
AcDbEntity
  8
freecads.com
100
AcDbLine
 10
163953.2417330261
 20
109048.6998008802
 30
0.0
 11
163953.2417330261
 21
109046.5915311281
 31
0.0
  0
LINE
  5
6301E
330
1F
100
AcDbEntity
  8
freecads.com
100
AcDbLine
 10
163953.2417330261
 20
109046.5915311281
 30
0.0
 11
163953.4197909677
 21
109044.154863877
 31
0.0
  0
LINE
  5
6301F
330
1F
100
AcDbEntity
  8
freecads.com
100
AcDbLine
 10
163879.5034672612
 20
109370.1349482054
 30
0.0
 11
163879.5034672612
 21
109295.572642697
 31
0.0
  0
LINE
  5
63020
330
1F
100
AcDbEntity
  8
freecads.com
100
AcDbLine
 10
163879.5034672612
 20
109295.572642697
 30
0.0
 11
163822.4763307453
 21
109295.572642697
 31
0.0
  0
LINE
  5
63021
330
1F
100
AcDbEntity
  8
freecads.com
100
AcDbLine
 10
163822.4763307453
 20
109295.572642697
 30
0.0
 11
163822.4763307453
 21
109276.9785246045
 31
0.0
  0
LINE
  5
63022
330
1F
100
AcDbEntity
  8
freecads.com
100
AcDbLine
 10
163822.4763307453
 20
109276.9785246045
 30
0.0
 11
163940.6024313861
 21
109276.8274986043
 31
0.0
  0
LINE
  5
63023
330
1F
100
AcDbEntity
  8
freecads.com
100
AcDbLine
 10
163879.5034672612
 20
109295.572642697
 30
0.0
 11
163939.48531161
 21
109295.572642697
 31
0.0
  0
LINE
  5
63024
330
1F
100
AcDbEntity
  8
freecads.com
100
AcDbLine
 10
163870.9643264519
 20
109276.8709140656
 30
0.0
 11
163906.6447078589
 21
109276.8709140656
 31
0.0
  0
LINE
  5
63025
330
1F
100
AcDbEntity
  8
freecads.com
100
AcDbLine
 10
163906.6447078589
 20
109276.8709140656
 30
0.0
 11
163906.6447078589
 21
109264.4808859051
 31
0.0
  0
LINE
  5
63026
330
1F
100
AcDbEntity
  8
freecads.com
100
AcDbLine
 10
163906.6447078589
 20
109264.4808859051
 30
0.0
 11
163870.9643264519
 21
109264.4808859051
 31
0.0
  0
LINE
  5
63027
330
1F
100
AcDbEntity
  8
freecads.com
100
AcDbLine
 10
163870.9643264519
 20
109264.4808859051
 30
0.0
 11
163870.9643264519
 21
109276.8709140656
 31
0.0
  0
LINE
  5
63028
330
1F
100
AcDbEntity
  8
freecads.com
100
AcDbLine
 10
163882.8576950555
 20
109264.4808859051
 30
0.0
 11
163898.105429252
 21
109264.4808859051
 31
0.0
  0
LINE
  5
63029
330
1F
100
AcDbEntity
  8
freecads.com
100
AcDbLine
 10
163898.105429252
 20
109264.4808859051
 30
0.0
 11
163898.105429252
 21
109261.1279662957
 31
0.0
  0
LINE
  5
6302A
330
1F
100
AcDbEntity
  8
freecads.com
100
AcDbLine
 10
163898.105429252
 20
109261.1279662957
 30
0.0
 11
163882.8576950555
 21
109261.1279662957
 31
0.0
  0
LINE
  5
6302B
330
1F
100
AcDbEntity
  8
freecads.com
100
AcDbLine
 10
163882.8576950555
 20
109261.1279662957
 30
0.0
 11
163882.8576950555
 21
109264.4808859051
 31
0.0
  0
LINE
  5
6302C
330
1F
100
AcDbEntity
  8
freecads.com
100
AcDbLine
 10
163908.8408532388
 20
109295.572642697
 30
0.0
 11
163908.8408532388
 21
109362.4053525219
 31
0.0
  0
LINE
  5
6302D
330
1F
100
AcDbEntity
  8
freecads.com
100
AcDbLine
 10
164225.3984701451
 20
109051.7170683871
 30
0.0
 11
164217.1529233515
 21
109042.5053629334
 31
0.0
  0
LINE
  5
6302E
330
1F
100
AcDbEntity
  8
freecads.com
100
AcDbLine
 10
164217.1529233515
 20
109042.5053629334
 30
0.0
 11
164210.8476910026
 21
109033.7791285468
 31
0.0
  0
LINE
  5
6302F
330
1F
100
AcDbEntity
  8
freecads.com
100
AcDbLine
 10
164210.8476910026
 20
109033.7791285468
 30
0.0
 11
164202.6021442091
 21
109027.9606785779
 31
0.0
  0
LINE
  5
63030
330
1F
100
AcDbEntity
  8
freecads.com
100
AcDbLine
 10
164202.6021442091
 20
109027.9606785779
 30
0.0
 11
164188.5367068782
 21
109022.1429488921
 31
0.0
  0
LINE
  5
63031
330
1F
100
AcDbEntity
  8
freecads.com
100
AcDbLine
 10
164188.5367068782
 20
109022.1429488921
 30
0.0
 11
164171.5602714786
 21
109021.1734473251
 31
0.0
  0
LINE
  5
63032
330
1F
100
AcDbEntity
  8
freecads.com
100
AcDbLine
 10
164171.5602714786
 20
109021.1734473251
 30
0.0
 11
164160.889068426
 21
109021.1734473251
 31
0.0
  0
LINE
  5
63033
330
1F
100
AcDbEntity
  8
freecads.com
100
AcDbLine
 10
164160.889068426
 20
109021.1734473251
 30
0.0
 11
164144.8833166504
 21
109025.5369246603
 31
0.0
  0
LINE
  5
63034
330
1F
100
AcDbEntity
  8
freecads.com
100
AcDbLine
 10
164060.2544987848
 20
109010.0066611334
 30
0.0
 11
164073.58334077
 21
109012.931963722
 31
0.0
  0
LINE
  5
63035
330
1F
100
AcDbEntity
  8
freecads.com
100
AcDbLine
 10
164073.58334077
 20
109012.931963722
 30
0.0
 11
164092.0147488046
 21
109012.4472129386
 31
0.0
  0
LINE
  5
63036
330
1F
100
AcDbEntity
  8
freecads.com
100
AcDbLine
 10
164092.0147488046
 20
109012.4472129386
 30
0.0
 11
164104.6252135014
 21
109007.1142340365
 31
0.0
  0
LINE
  5
63037
330
1F
100
AcDbEntity
  8
freecads.com
100
AcDbLine
 10
164104.6252135014
 20
109007.1142340365
 30
0.0
 11
164114.8110747415
 21
108999.3567809334
 31
0.0
  0
LINE
  5
63038
330
1F
100
AcDbEntity
  8
freecads.com
100
AcDbLine
 10
164114.8110747415
 20
108999.3567809334
 30
0.0
 11
164125.4822777932
 21
108987.2365707787
 31
0.0
  0
LINE
  5
63039
330
1F
100
AcDbEntity
  8
freecads.com
100
AcDbLine
 10
164125.4822777932
 20
108987.2365707787
 30
0.0
 11
164133.2424827752
 21
108966.8748770211
 31
0.0
  0
LINE
  5
6303A
330
1F
100
AcDbEntity
  8
freecads.com
100
AcDbLine
 10
164133.2424827752
 20
108966.8748770211
 30
0.0
 11
164137.6074006785
 21
108943.1192074952
 31
0.0
  0
LINE
  5
6303B
330
1F
100
AcDbEntity
  8
freecads.com
100
AcDbLine
 10
164137.6074006785
 20
108943.1192074952
 30
0.0
 11
164135.6681390343
 21
108924.2110458043
 31
0.0
  0
LINE
  5
6303C
330
1F
100
AcDbEntity
  8
freecads.com
100
AcDbLine
 10
164135.6681390343
 20
108924.2110458043
 30
0.0
 11
164130.3156926728
 21
108908.5852159418
 31
0.0
  0
LINE
  5
6303D
330
1F
100
AcDbEntity
  8
freecads.com
100
AcDbLine
 10
164130.3156926728
 20
108908.5852159418
 30
0.0
 11
164121.5848040659
 21
108893.5565010862
 31
0.0
  0
LINE
  5
6303E
330
1F
100
AcDbEntity
  8
freecads.com
100
AcDbLine
 10
164121.5848040659
 20
108893.5565010862
 30
0.0
 11
164109.4586283792
 21
108881.4355706481
 31
0.0
  0
LINE
  5
6303F
330
1F
100
AcDbEntity
  8
freecads.com
100
AcDbLine
 10
164109.4586283792
 20
108881.4355706481
 30
0.0
 11
164091.9979039695
 21
108875.6178409625
 31
0.0
  0
LINE
  5
63040
330
1F
100
AcDbEntity
  8
freecads.com
100
AcDbLine
 10
164091.9979039695
 20
108875.6178409625
 30
0.0
 11
164067.745552597
 21
108870.7703331273
 31
0.0
  0
LINE
  5
63041
330
1F
100
AcDbEntity
  8
freecads.com
100
AcDbLine
 10
164067.745552597
 20
108870.7703331273
 30
0.0
 11
164046.8895411066
 21
108870.2848620604
 31
0.0
  0
LINE
  5
63042
330
1F
100
AcDbEntity
  8
freecads.com
100
AcDbLine
 10
164046.8895411066
 20
108870.2848620604
 30
0.0
 11
164027.9727912595
 21
108872.224585478
 31
0.0
  0
LINE
  5
63043
330
1F
100
AcDbEntity
  8
freecads.com
100
AcDbLine
 10
164027.9727912595
 20
108872.224585478
 30
0.0
 11
163995.6054405657
 21
108886.9695086417
 31
0.0
  0
LINE
  5
63044
330
1F
100
AcDbEntity
  8
freecads.com
100
AcDbLine
 10
164359.231303762
 20
109035.0842295883
 30
0.0
 11
164408.1859873062
 21
109036.8453753304
 31
0.0
  0
LINE
  5
63045
330
1F
100
AcDbEntity
  8
freecads.com
100
AcDbLine
 10
164408.1859873062
 20
109036.8453753304
 30
0.0
 11
164434.4891973551
 21
109036.8453753304
 31
0.0
  0
LINE
  5
63046
330
1F
100
AcDbEntity
  8
freecads.com
100
AcDbLine
 10
164434.4891973551
 20
109036.8453753304
 30
0.0
 11
164488.9295988785
 21
109034.4000129086
 31
0.0
  0
LINE
  5
63047
330
1F
100
AcDbEntity
  8
freecads.com
100
AcDbLine
 10
164488.9295988785
 20
109034.4000129086
 30
0.0
 11
164518.9028773805
 21
109034.4000129086
 31
0.0
  0
LINE
  5
63048
330
1F
100
AcDbEntity
  8
freecads.com
100
AcDbLine
 10
164518.9028773805
 20
109034.4000129086
 30
0.0
 11
164536.6425943723
 21
109031.953930203
 31
0.0
  0
LINE
  5
63049
330
1F
100
AcDbEntity
  8
freecads.com
100
AcDbLine
 10
164536.6425943723
 20
109031.953930203
 30
0.0
 11
164551.9345462605
 21
109025.2286433298
 31
0.0
  0
LINE
  5
6304A
330
1F
100
AcDbEntity
  8
freecads.com
100
AcDbLine
 10
164551.9345462605
 20
109025.2286433298
 30
0.0
 11
164563.5574824972
 21
109017.8918357802
 31
0.0
  0
LINE
  5
6304B
330
1F
100
AcDbEntity
  8
freecads.com
100
AcDbLine
 10
164538.4776285983
 20
109017.2803151039
 30
0.0
 11
164563.5574824972
 21
109017.8918357802
 31
0.0
  0
LINE
  5
6304C
330
1F
100
AcDbEntity
  8
freecads.com
100
AcDbLine
 10
164563.5574824972
 20
109017.8918357802
 30
0.0
 11
164646.9983732946
 21
109016.0147770258
 31
0.0
  0
LINE
  5
6304D
330
1F
100
AcDbEntity
  8
freecads.com
100
AcDbLine
 10
164646.9983732946
 20
109016.0147770258
 30
0.0
 11
164699.6047933925
 21
109011.7348525746
 31
0.0
  0
LINE
  5
6304E
330
1F
100
AcDbEntity
  8
freecads.com
100
AcDbLine
 10
164699.6047933925
 20
109011.7348525746
 30
0.0
 11
164763.8330969255
 21
109001.9519623195
 31
0.0
  0
LINE
  5
6304F
330
1F
100
AcDbEntity
  8
freecads.com
100
AcDbLine
 10
164763.8330969255
 20
109001.9519623195
 30
0.0
 11
164817.0511950984
 21
108986.0553058678
 31
0.0
  0
LINE
  5
63050
330
1F
100
AcDbEntity
  8
freecads.com
100
AcDbLine
 10
164817.0511950984
 20
108986.0553058678
 30
0.0
 11
164873.3276836512
 21
108971.3809704855
 31
0.0
  0
LINE
  5
63051
330
1F
100
AcDbEntity
  8
freecads.com
100
AcDbLine
 10
164873.3276836512
 20
108971.3809704855
 30
0.0
 11
164908.1943867573
 21
108955.4843140336
 31
0.0
  0
LINE
  5
63052
330
1F
100
AcDbEntity
  8
freecads.com
100
AcDbLine
 10
164908.1943867573
 20
108955.4843140336
 30
0.0
 11
164923.4863386446
 21
108942.033020004
 31
0.0
  0
LINE
  5
63053
330
1F
100
AcDbEntity
  8
freecads.com
100
AcDbLine
 10
164923.4863386446
 20
108942.033020004
 30
0.0
 11
164938.1676652593
 21
108928.5817259743
 31
0.0
  0
LINE
  5
63054
330
1F
100
AcDbEntity
  8
freecads.com
100
AcDbLine
 10
164938.1676652593
 20
108928.5817259743
 30
0.0
 11
164943.6727679403
 21
108911.4620281697
 31
0.0
  0
LINE
  5
63055
330
1F
100
AcDbEntity
  8
freecads.com
100
AcDbLine
 10
164943.6727679403
 20
108911.4620281697
 30
0.0
 11
164943.6727679403
 21
108891.2854472668
 31
0.0
  0
LINE
  5
63056
330
1F
100
AcDbEntity
  8
freecads.com
100
AcDbLine
 10
164943.6727679403
 20
108891.2854472668
 30
0.0
 11
164936.9443091083
 21
108863.1598178545
 31
0.0
  0
LINE
  5
63057
330
1F
100
AcDbEntity
  8
freecads.com
100
AcDbLine
 10
164936.9443091083
 20
108863.1598178545
 30
0.0
 11
164929.0451342364
 21
108818.7399355085
 31
0.0
  0
LINE
  5
63058
330
1F
100
AcDbEntity
  8
freecads.com
100
AcDbLine
 10
164929.0451342364
 20
108818.7399355085
 30
0.0
 11
164930.2684903884
 21
108780.2206154484
 31
0.0
  0
LINE
  5
63059
330
1F
100
AcDbEntity
  8
freecads.com
100
AcDbLine
 10
164930.2684903884
 20
108780.2206154484
 30
0.0
 11
164930.2684903884
 21
108671.9994628176
 31
0.0
  0
LINE
  5
6305A
330
1F
100
AcDbEntity
  8
freecads.com
100
AcDbLine
 10
164930.2684903884
 20
108671.9994628176
 30
0.0
 11
164930.3285001129
 21
108618.4831203751
 31
0.0
  0
LINE
  5
6305B
330
1F
100
AcDbEntity
  8
freecads.com
100
AcDbLine
 10
164930.3285001129
 20
108618.4831203751
 30
0.0
 11
164932.7752124149
 21
108559.7864991286
 31
0.0
  0
LINE
  5
6305C
330
1F
100
AcDbEntity
  8
freecads.com
100
AcDbLine
 10
164932.7752124149
 20
108559.7864991286
 30
0.0
 11
164937.668637019
 21
108541.4444802549
 31
0.0
  0
LINE
  5
6305D
330
1F
100
AcDbEntity
  8
freecads.com
100
AcDbLine
 10
164937.668637019
 20
108541.4444802549
 30
0.0
 11
164925.4340227064
 21
108537.7753561967
 31
0.0
  0
LINE
  5
6305E
330
1F
100
AcDbEntity
  8
freecads.com
100
AcDbLine
 10
164925.4340227064
 20
108537.7753561967
 30
0.0
 11
164894.8490661293
 21
108532.2731106761
 31
0.0
  0
LINE
  5
6305F
330
1F
100
AcDbEntity
  8
freecads.com
100
AcDbLine
 10
164894.8490661293
 20
108532.2731106761
 30
0.0
 11
164853.2539041912
 21
108534.1069524218
 31
0.0
  0
LINE
  5
63060
330
1F
100
AcDbEntity
  8
freecads.com
100
AcDbLine
 10
164853.2539041912
 20
108534.1069524218
 30
0.0
 11
164829.3974064452
 21
108534.7184730983
 31
0.0
  0
LINE
  5
63061
330
1F
100
AcDbEntity
  8
freecads.com
100
AcDbLine
 10
164829.3974064452
 20
108534.7184730983
 30
0.0
 11
164804.9302834239
 21
108535.3299937745
 31
0.0
  0
LINE
  5
63062
330
1F
100
AcDbEntity
  8
freecads.com
100
AcDbLine
 10
164804.9302834239
 20
108535.3299937745
 30
0.0
 11
164791.4723129611
 21
108535.3299937745
 31
0.0
  0
LINE
  5
63063
330
1F
100
AcDbEntity
  8
freecads.com
100
AcDbLine
 10
164791.4723129611
 20
108535.3299937745
 30
0.0
 11
164785.9672102811
 21
108545.7244047059
 31
0.0
  0
LINE
  5
63064
330
1F
100
AcDbEntity
  8
freecads.com
100
AcDbLine
 10
164785.9672102811
 20
108545.7244047059
 30
0.0
 11
164792.6956691112
 21
108583.6322040897
 31
0.0
  0
LINE
  5
63065
330
1F
100
AcDbEntity
  8
freecads.com
100
AcDbLine
 10
164792.6956691112
 20
108583.6322040897
 30
0.0
 11
164795.7540594892
 21
108643.5511464054
 31
0.0
  0
LINE
  5
63066
330
1F
100
AcDbEntity
  8
freecads.com
100
AcDbLine
 10
164795.7540594892
 20
108643.5511464054
 30
0.0
 11
164800.0358060173
 21
108719.3674654562
 31
0.0
  0
LINE
  5
63067
330
1F
100
AcDbEntity
  8
freecads.com
100
AcDbLine
 10
164800.0358060173
 20
108719.3674654562
 30
0.0
 11
164804.9197554024
 21
108757.0332495901
 31
0.0
  0
LINE
  5
63068
330
1F
100
AcDbEntity
  8
freecads.com
100
AcDbLine
 10
164804.9197554024
 20
108757.0332495901
 30
0.0
 11
164809.1162249524
 21
108766.7678808518
 31
0.0
  0
LINE
  5
63069
330
1F
100
AcDbEntity
  8
freecads.com
100
AcDbLine
 10
164810.7196426963
 20
108813.2542565082
 30
0.0
 11
164817.7649949876
 21
108828.5689239063
 31
0.0
  0
LINE
  5
6306A
330
1F
100
AcDbEntity
  8
freecads.com
100
AcDbLine
 10
164817.7649949876
 20
108828.5689239063
 30
0.0
 11
164823.2711504692
 21
108841.4094175433
 31
0.0
  0
LINE
  5
6306B
330
1F
100
AcDbEntity
  8
freecads.com
100
AcDbLine
 10
164823.2711504692
 20
108841.4094175433
 30
0.0
 11
164828.1645750733
 21
108856.6945533186
 31
0.0
  0
LINE
  5
6306C
330
1F
100
AcDbEntity
  8
freecads.com
100
AcDbLine
 10
164828.1645750733
 20
108856.6945533186
 30
0.0
 11
164836.7280681314
 21
108863.4198401917
 31
0.0
  0
LINE
  5
6306D
330
1F
100
AcDbEntity
  8
freecads.com
100
AcDbLine
 10
164836.7280681314
 20
108863.4198401917
 30
0.0
 11
164826.9412189232
 21
108854.2491908966
 31
0.0
  0
LINE
  5
6306E
330
1F
100
AcDbEntity
  8
freecads.com
100
AcDbLine
 10
164826.9412189232
 20
108854.2491908966
 30
0.0
 11
164814.7066046105
 21
108854.2491908966
 31
0.0
  0
LINE
  5
6306F
330
1F
100
AcDbEntity
  8
freecads.com
100
AcDbLine
 10
164814.7066046105
 20
108854.2491908966
 30
0.0
 11
164753.5366914546
 21
108851.1915875148
 31
0.0
  0
LINE
  5
63070
330
1F
100
AcDbEntity
  8
freecads.com
100
AcDbLine
 10
164753.5366914546
 20
108851.1915875148
 30
0.0
 11
164713.7765637444
 21
108851.1915875148
 31
0.0
  0
LINE
  5
63071
330
1F
100
AcDbEntity
  8
freecads.com
100
AcDbLine
 10
164713.7765637444
 20
108851.1915875148
 30
0.0
 11
164645.8781917583
 21
108855.4715119658
 31
0.0
  0
LINE
  5
63072
330
1F
100
AcDbEntity
  8
freecads.com
100
AcDbLine
 10
164645.8781917583
 20
108855.4715119658
 30
0.0
 11
164609.7881325012
 21
108852.4146288674
 31
0.0
  0
LINE
  5
63073
330
1F
100
AcDbEntity
  8
freecads.com
100
AcDbLine
 10
164609.7881325012
 20
108852.4146288674
 30
0.0
 11
164561.4634589305
 21
108849.3577457692
 31
0.0
  0
LINE
  5
63074
330
1F
100
AcDbEntity
  8
freecads.com
100
AcDbLine
 10
164561.4634589305
 20
108849.3577457692
 30
0.0
 11
164525.3733996734
 21
108849.3577457692
 31
0.0
  0
LINE
  5
63075
330
1F
100
AcDbEntity
  8
freecads.com
100
AcDbLine
 10
164525.3733996734
 20
108849.3577457692
 30
0.0
 11
164482.188506421
 21
108848.7635118962
 31
0.0
  0
LINE
  5
63076
330
1F
100
AcDbEntity
  8
freecads.com
100
AcDbLine
 10
164482.188506421
 20
108848.7635118962
 30
0.0
 11
164435.6999198807
 21
108856.7118401221
 31
0.0
  0
LINE
  5
63077
330
1F
100
AcDbEntity
  8
freecads.com
100
AcDbLine
 10
164435.6999198807
 20
108856.7118401221
 30
0.0
 11
164396.5514702456
 21
108868.3285721227
 31
0.0
  0
LINE
  5
63078
330
1F
100
AcDbEntity
  8
freecads.com
100
AcDbLine
 10
164396.5514702456
 20
108868.3285721227
 30
0.0
 11
164370.2482601957
 21
108881.7798661525
 31
0.0
  0
LINE
  5
63079
330
1F
100
AcDbEntity
  8
freecads.com
100
AcDbLine
 10
164370.2482601957
 20
108881.7798661525
 30
0.0
 11
164362.2964452145
 21
108889.116673702
 31
0.0
  0
LINE
  5
6307A
330
1F
100
AcDbEntity
  8
freecads.com
100
AcDbLine
 10
164362.2964452145
 20
108889.116673702
 30
0.0
 11
164353.5392680162
 21
108893.1776039081
 31
0.0
  0
LINE
  5
6307B
330
1F
100
AcDbEntity
  8
freecads.com
100
AcDbLine
 10
164517.8227023271
 20
109034.4000129086
 30
0.0
 11
164562.2225293129
 21
109038.2117530961
 31
0.0
  0
LINE
  5
6307C
330
1F
100
AcDbEntity
  8
freecads.com
100
AcDbLine
 10
164562.2225293129
 20
109038.2117530961
 30
0.0
 11
164620.7004272559
 21
109043.083030286
 31
0.0
  0
LINE
  5
6307D
330
1F
100
AcDbEntity
  8
freecads.com
100
AcDbLine
 10
164620.7004272559
 20
109043.083030286
 30
0.0
 11
164651.5643764151
 21
109043.6239631814
 31
0.0
  0
LINE
  5
6307E
330
1F
100
AcDbEntity
  8
freecads.com
100
AcDbLine
 10
164651.5643764151
 20
109043.6239631814
 30
0.0
 11
164692.7152558261
 21
109041.4587910339
 31
0.0
  0
LINE
  5
6307F
330
1F
100
AcDbEntity
  8
freecads.com
100
AcDbLine
 10
164692.7152558261
 20
109041.4587910339
 30
0.0
 11
164720.3302574105
 21
109038.7534062748
 31
0.0
  0
LINE
  5
63080
330
1F
100
AcDbEntity
  8
freecads.com
100
AcDbLine
 10
164720.3302574105
 20
109038.7534062748
 30
0.0
 11
164770.1446460861
 21
109026.8464000309
 31
0.0
  0
LINE
  5
63081
330
1F
100
AcDbEntity
  8
freecads.com
100
AcDbLine
 10
164770.1446460861
 20
109026.8464000309
 30
0.0
 11
164822.1246488787
 21
109010.6097697754
 31
0.0
  0
LINE
  5
63082
330
1F
100
AcDbEntity
  8
freecads.com
100
AcDbLine
 10
164822.1246488787
 20
109010.6097697754
 30
0.0
 11
164847.3729511279
 21
109000.8340823553
 31
0.0
  0
LINE
  5
63083
330
1F
100
AcDbEntity
  8
freecads.com
100
AcDbLine
 10
164847.3729511279
 20
109000.8340823553
 30
0.0
 11
164860.3687414279
 21
108992.1748343325
 31
0.0
  0
LINE
  5
63084
330
1F
100
AcDbEntity
  8
freecads.com
100
AcDbLine
 10
164860.3687414279
 20
108992.1748343325
 30
0.0
 11
164869.0322506934
 21
108979.1852420147
 31
0.0
  0
LINE
  5
63085
330
1F
100
AcDbEntity
  8
freecads.com
100
AcDbLine
 10
164869.0322506934
 20
108979.1852420147
 30
0.0
 11
164870.3957686605
 21
108972.1454798745
 31
0.0
  0
LINE
  5
63086
330
1F
100
AcDbEntity
  8
freecads.com
100
AcDbLine
 10
164929.2193569162
 20
108813.2542565082
 30
0.0
 11
164941.5882195927
 21
108813.2542565082
 31
0.0
  0
LINE
  5
63087
330
1F
100
AcDbEntity
  8
freecads.com
100
AcDbLine
 10
164941.5882195927
 20
108872.0243466697
 30
0.0
 11
164939.0649591502
 21
108872.0243466697
 31
0.0
  0
ARC
  5
63088
330
1F
100
AcDbEntity
  8
freecads.com
100
AcDbCircle
 10
164941.5882195927
 20
108842.639301589
 30
0.0
 40
29.38504508080564
100
AcDbArc
 50
270.0
 51
90.0
  0
ARC
  5
63089
330
1F
100
AcDbEntity
  8
freecads.com
100
AcDbCircle
 10
163880.5246853916
 20
108842.639301589
 30
0.0
 40
29.38504508080564
100
AcDbArc
 50
90.0
 51
270.0
  0
LINE
  5
6308A
330
1F
100
AcDbEntity
  8
freecads.com
100
AcDbLine
 10
163907.8396383508
 20
108813.2542565082
 30
0.0
 11
163880.5246853916
 21
108813.2542565082
 31
0.0
  0
LINE
  5
6308B
330
1F
100
AcDbEntity
  8
freecads.com
100
AcDbLine
 10
163880.5246853916
 20
108872.0243466697
 30
0.0
 11
164000.5260366428
 21
108872.0243466697
 31
0.0
  0
LINE
  5
6308C
330
1F
100
AcDbEntity
  8
freecads.com
100
AcDbLine
 10
163964.7200589714
 20
108902.4655621846
 30
0.0
 11
163958.4046749932
 21
108891.6405470237
 31
0.0
  0
LINE
  5
6308D
330
1F
100
AcDbEntity
  8
freecads.com
100
AcDbLine
 10
163958.4046749932
 20
108891.6405470237
 30
0.0
 11
163950.8929313285
 21
108886.8629066864
 31
0.0
  0
LINE
  5
6308E
330
1F
100
AcDbEntity
  8
freecads.com
100
AcDbLine
 10
163950.8929313285
 20
108886.8629066864
 30
0.0
 11
163945.4299407363
 21
108884.1323120054
 31
0.0
  0
LINE
  5
6308F
330
1F
100
AcDbEntity
  8
freecads.com
100
AcDbLine
 10
163945.4299407363
 20
108884.1323120054
 30
0.0
 11
163937.9181970724
 21
108883.4502035478
 31
0.0
  0
LINE
  5
63090
330
1F
100
AcDbEntity
  8
freecads.com
100
AcDbLine
 10
163937.9181970724
 20
108883.4502035478
 30
0.0
 11
163931.0897220321
 21
108883.4502035478
 31
0.0
  0
LINE
  5
63091
330
1F
100
AcDbEntity
  8
freecads.com
100
AcDbLine
 10
163931.0897220321
 20
108883.4502035478
 30
0.0
 11
163918.1160405803
 21
108884.1323120054
 31
0.0
  0
LINE
  5
63092
330
1F
100
AcDbEntity
  8
freecads.com
100
AcDbLine
 10
163918.1160405803
 20
108884.1323120054
 30
0.0
 11
163907.8722752187
 21
108888.227843885
 31
0.0
  0
LINE
  5
63093
330
1F
100
AcDbEntity
  8
freecads.com
100
AcDbLine
 10
163907.8722752187
 20
108888.227843885
 30
0.0
 11
163898.3128312839
 21
108882.0845460655
 31
0.0
  0
LINE
  5
63094
330
1F
100
AcDbEntity
  8
freecads.com
100
AcDbLine
 10
163898.3128312839
 20
108882.0845460655
 30
0.0
 11
163886.703581476
 21
108888.9106726261
 31
0.0
  0
LINE
  5
63095
330
1F
100
AcDbEntity
  8
freecads.com
100
AcDbLine
 10
163886.703581476
 20
108888.9106726261
 30
0.0
 11
163876.4608689178
 21
108889.5927810836
 31
0.0
  0
LINE
  5
63096
330
1F
100
AcDbEntity
  8
freecads.com
100
AcDbLine
 10
163876.4608689178
 20
108889.5927810836
 30
0.0
 11
163868.2658566277
 21
108888.227843885
 31
0.0
  0
LINE
  5
63097
330
1F
100
AcDbEntity
  8
freecads.com
100
AcDbLine
 10
163868.2658566277
 20
108888.227843885
 30
0.0
 11
163845.7316784387
 21
108886.8629066864
 31
0.0
  0
LINE
  5
63098
330
1F
100
AcDbEntity
  8
freecads.com
100
AcDbLine
 10
163845.7316784387
 20
108886.8629066864
 30
0.0
 11
163836.8544503277
 21
108882.0845460655
 31
0.0
  0
LINE
  5
63099
330
1F
100
AcDbEntity
  8
freecads.com
100
AcDbLine
 10
163840.2686878465
 20
108881.4024376078
 30
0.0
 11
163848.462647334
 21
108880.0375004092
 31
0.0
  0
LINE
  5
6309A
330
1F
100
AcDbEntity
  8
freecads.com
100
AcDbLine
 10
163848.462647334
 20
108880.0375004092
 30
0.0
 11
163868.2658566277
 21
108882.7673748066
 31
0.0
  0
LINE
  5
6309B
330
1F
100
AcDbEntity
  8
freecads.com
100
AcDbLine
 10
163868.2658566277
 20
108882.7673748066
 30
0.0
 11
163873.046631398
 21
108879.354671668
 31
0.0
  0
LINE
  5
6309C
330
1F
100
AcDbEntity
  8
freecads.com
100
AcDbLine
 10
163873.046631398
 20
108879.354671668
 30
0.0
 11
163888.7523345485
 21
108875.9419685295
 31
0.0
  0
LINE
  5
6309D
330
1F
100
AcDbEntity
  8
freecads.com
100
AcDbLine
 10
163888.7523345485
 20
108875.9419685295
 30
0.0
 11
163908.5555438431
 21
108875.2591397884
 31
0.0
  0
LINE
  5
6309E
330
1F
100
AcDbEntity
  8
freecads.com
100
AcDbLine
 10
163908.5555438431
 20
108875.2591397884
 30
0.0
 11
163933.1384751055
 21
108877.3069057282
 31
0.0
  0
LINE
  5
6309F
330
1F
100
AcDbEntity
  8
freecads.com
100
AcDbLine
 10
163933.1384751055
 20
108877.3069057282
 30
0.0
 11
163944.7477249134
 21
108878.671842927
 31
0.0
  0
LINE
  5
630A0
330
1F
100
AcDbEntity
  8
freecads.com
100
AcDbLine
 10
163944.7477249134
 20
108878.671842927
 30
0.0
 11
163959.0879436166
 21
108884.8151407463
 31
0.0
  0
LINE
  5
630A1
330
1F
100
AcDbEntity
  8
freecads.com
100
AcDbLine
 10
163959.0879436166
 20
108884.8151407463
 30
0.0
 11
163963.1843969592
 21
108888.227843885
 31
0.0
  0
LINE
  5
630A2
330
1F
100
AcDbEntity
  8
freecads.com
100
AcDbLine
 10
163963.1843969592
 20
108888.227843885
 30
0.0
 11
163970.696140623
 21
108894.3711417045
 31
0.0
  0
LINE
  5
630A3
330
1F
100
AcDbEntity
  8
freecads.com
100
AcDbLine
 10
163970.696140623
 20
108894.3711417045
 30
0.0
 11
163976.1591312153
 21
108897.783844843
 31
0.0
  0
LINE
  5
630A4
330
1F
100
AcDbEntity
  8
freecads.com
100
AcDbLine
 10
163976.1591312153
 20
108897.783844843
 30
0.0
 11
163980.2566373594
 21
108899.1487820418
 31
0.0
  0
LINE
  5
630A5
330
1F
100
AcDbEntity
  8
freecads.com
100
AcDbLine
 10
163980.2566373594
 20
108899.1487820418
 30
0.0
 11
163980.2566373594
 21
108899.1487820418
 31
0.0
  0
LINE
  5
630A6
330
1F
100
AcDbEntity
  8
freecads.com
100
AcDbLine
 10
163847.0971628859
 20
108920.3078296144
 30
0.0
 11
163834.8056972552
 21
108910.0697201987
 31
0.0
  0
LINE
  5
630A7
330
1F
100
AcDbEntity
  8
freecads.com
100
AcDbLine
 10
163834.8056972552
 20
108910.0697201987
 30
0.0
 11
163856.6576596213
 21
108901.8786564391
 31
0.0
  0
LINE
  5
630A8
330
1F
100
AcDbEntity
  8
freecads.com
100
AcDbLine
 10
163856.6576596213
 20
108901.8786564391
 30
0.0
 11
163858.0231440695
 21
108895.0532501623
 31
0.0
  0
LINE
  5
630A9
330
1F
100
AcDbEntity
  8
freecads.com
100
AcDbLine
 10
163858.0231440695
 20
108895.0532501623
 30
0.0
 11
163888.0690659241
 21
108888.227843885
 31
0.0
  0
LINE
  5
630AA
330
1F
100
AcDbEntity
  8
freecads.com
100
AcDbLine
 10
163888.0690659241
 20
108888.227843885
 30
0.0
 11
163889.4356031738
 21
108884.8151407463
 31
0.0
  0
LINE
  5
630AB
330
1F
100
AcDbEntity
  8
freecads.com
100
AcDbLine
 10
163889.4356031738
 20
108884.8151407463
 30
0.0
 11
163911.2865127384
 21
108887.5450151439
 31
0.0
  0
LINE
  5
630AC
330
1F
100
AcDbEntity
  8
freecads.com
100
AcDbLine
 10
163911.2865127384
 20
108887.5450151439
 30
0.0
 11
163920.1637408495
 21
108888.9106726261
 31
0.0
  0
LINE
  5
630AD
330
1F
100
AcDbEntity
  8
freecads.com
100
AcDbLine
 10
163920.1637408495
 20
108888.9106726261
 30
0.0
 11
163933.8217437298
 21
108892.3233757647
 31
0.0
  0
LINE
  5
630AE
330
1F
100
AcDbEntity
  8
freecads.com
100
AcDbLine
 10
163933.8217437298
 20
108892.3233757647
 30
0.0
 11
163935.8704968024
 21
108900.5137192406
 31
0.0
  0
LINE
  5
630AF
330
1F
100
AcDbEntity
  8
freecads.com
100
AcDbLine
 10
163935.8704968024
 20
108900.5137192406
 30
0.0
 11
163935.8704968024
 21
108913.4824233373
 31
0.0
  0
LINE
  5
630B0
330
1F
100
AcDbEntity
  8
freecads.com
100
AcDbLine
 10
163935.8704968024
 20
108913.4824233373
 30
0.0
 11
163927.6754845132
 21
108906.6570170602
 31
0.0
  0
LINE
  5
630B1
330
1F
100
AcDbEntity
  8
freecads.com
100
AcDbLine
 10
163927.6754845132
 20
108906.6570170602
 30
0.0
 11
163914.0185344343
 21
108899.1487820418
 31
0.0
  0
LINE
  5
630B2
330
1F
100
AcDbEntity
  8
freecads.com
100
AcDbLine
 10
163914.0185344343
 20
108899.1487820418
 30
0.0
 11
163922.212493922
 21
108917.5779552169
 31
0.0
  0
LINE
  5
630B3
330
1F
100
AcDbEntity
  8
freecads.com
100
AcDbLine
 10
163922.212493922
 20
108917.5779552169
 30
0.0
 11
163924.9445156188
 21
108915.530189277
 31
0.0
  0
LINE
  5
630B4
330
1F
100
AcDbEntity
  8
freecads.com
100
AcDbLine
 10
163924.9445156188
 20
108915.530189277
 30
0.0
 11
163916.7495033307
 21
108907.3391255177
 31
0.0
  0
LINE
  5
630B5
330
1F
100
AcDbEntity
  8
freecads.com
100
AcDbLine
 10
163916.7495033307
 20
108907.3391255177
 30
0.0
 11
163903.7758218761
 21
108904.6092511201
 31
0.0
  0
LINE
  5
630B6
330
1F
100
AcDbEntity
  8
freecads.com
100
AcDbLine
 10
163903.7758218761
 20
108904.6092511201
 30
0.0
 11
163898.9950471077
 21
108908.7047829999
 31
0.0
  0
LINE
  5
630B7
330
1F
100
AcDbEntity
  8
freecads.com
100
AcDbLine
 10
163898.9950471077
 20
108908.7047829999
 30
0.0
 11
163900.3605315549
 21
108910.7518286563
 31
0.0
  0
LINE
  5
630B8
330
1F
100
AcDbEntity
  8
freecads.com
100
AcDbLine
 10
163900.3605315549
 20
108910.7518286563
 30
0.0
 11
163881.923859509
 21
108908.0219542589
 31
0.0
  0
LINE
  5
630B9
330
1F
100
AcDbEntity
  8
freecads.com
100
AcDbLine
 10
163881.923859509
 20
108908.0219542589
 30
0.0
 11
163892.1665720673
 21
108912.1174861385
 31
0.0
  0
LINE
  5
630BA
330
1F
100
AcDbEntity
  8
freecads.com
100
AcDbLine
 10
163892.1665720673
 20
108912.1174861385
 30
0.0
 11
163908.5555438431
 21
108912.799594596
 31
0.0
  0
LINE
  5
630BB
330
1F
100
AcDbEntity
  8
freecads.com
100
AcDbLine
 10
163908.5555438431
 20
108912.799594596
 30
0.0
 11
163929.7242375867
 21
108900.5137192406
 31
0.0
  0
LINE
  5
630BC
330
1F
100
AcDbEntity
  8
freecads.com
100
AcDbLine
 10
163929.7242375867
 20
108900.5137192406
 30
0.0
 11
163944.7477249134
 21
108900.5137192406
 31
0.0
  0
LINE
  5
630BD
330
1F
100
AcDbEntity
  8
freecads.com
100
AcDbLine
 10
163944.7477249134
 20
108900.5137192406
 30
0.0
 11
163942.0157032165
 21
108890.9577182825
 31
0.0
  0
LINE
  5
630BE
330
1F
100
AcDbEntity
  8
freecads.com
100
AcDbLine
 10
163942.0157032165
 20
108890.9577182825
 30
0.0
 11
163951.5761999529
 21
108890.2756098249
 31
0.0
  0
LINE
  5
630BF
330
1F
100
AcDbEntity
  8
freecads.com
100
AcDbLine
 10
163951.5761999529
 20
108890.2756098249
 30
0.0
 11
163962.5021811364
 21
108896.4181873609
 31
0.0
  0
LINE
  5
630C0
330
1F
100
AcDbEntity
  8
freecads.com
100
AcDbLine
 10
163962.5021811364
 20
108896.4181873609
 30
0.0
 11
163963.8676655845
 21
108894.3711417045
 31
0.0
  0
LINE
  5
630C1
330
1F
100
AcDbEntity
  8
freecads.com
100
AcDbLine
 10
163963.8676655845
 20
108894.3711417045
 30
0.0
 11
163963.8676655845
 21
108890.2756098249
 31
0.0
  0
LINE
  5
630C2
330
1F
100
AcDbEntity
  8
freecads.com
100
AcDbLine
 10
163963.8676655845
 20
108890.2756098249
 30
0.0
 11
163944.064456289
 21
108888.9106726261
 31
0.0
  0
LINE
  5
630C3
330
1F
100
AcDbEntity
  8
freecads.com
100
AcDbLine
 10
163944.064456289
 20
108888.9106726261
 30
0.0
 11
163932.4552064802
 21
108890.9577182825
 31
0.0
  0
LINE
  5
630C4
330
1F
100
AcDbEntity
  8
freecads.com
100
AcDbLine
 10
163932.4552064802
 20
108890.9577182825
 30
0.0
 11
163918.7982564022
 21
108890.9577182825
 31
0.0
  0
LINE
  5
630C5
330
1F
100
AcDbEntity
  8
freecads.com
100
AcDbLine
 10
163918.7982564022
 20
108890.9577182825
 30
0.0
 11
163914.0185344343
 21
108882.7673748066
 31
0.0
  0
LINE
  5
630C6
330
1F
100
AcDbEntity
  8
freecads.com
100
AcDbLine
 10
163914.0185344343
 20
108882.7673748066
 30
0.0
 11
163909.2377596659
 21
108882.0845460655
 31
0.0
  0
LINE
  5
630C7
330
1F
100
AcDbEntity
  8
freecads.com
100
AcDbLine
 10
163909.2377596659
 20
108882.0845460655
 30
0.0
 11
163902.4092846265
 21
108890.2756098249
 31
0.0
  0
LINE
  5
630C8
330
1F
100
AcDbEntity
  8
freecads.com
100
AcDbLine
 10
163902.4092846265
 20
108890.2756098249
 30
0.0
 11
163877.1430847406
 21
108888.9106726261
 31
0.0
  0
LINE
  5
630C9
330
1F
100
AcDbEntity
  8
freecads.com
100
AcDbLine
 10
163877.1430847406
 20
108888.9106726261
 30
0.0
 11
163875.0953844696
 21
108885.4979694876
 31
0.0
  0
LINE
  5
630CA
330
1F
100
AcDbEntity
  8
freecads.com
100
AcDbLine
 10
163875.0953844696
 20
108885.4979694876
 30
0.0
 11
163860.7551657672
 21
108888.9106726261
 31
0.0
  0
LINE
  5
630CB
330
1F
100
AcDbEntity
  8
freecads.com
100
AcDbLine
 10
164763.9668028032
 20
108766.7678808518
 30
0.0
 11
164750.1877276714
 21
108702.4148734198
 31
0.0
  0
LINE
  5
630CC
330
1F
100
AcDbEntity
  8
freecads.com
100
AcDbLine
 10
164750.1877276714
 20
108702.4148734198
 30
0.0
 11
164748.4653432801
 21
108667.983162121
 31
0.0
  0
LINE
  5
630CD
330
1F
100
AcDbEntity
  8
freecads.com
100
AcDbLine
 10
164748.4653432801
 20
108667.983162121
 30
0.0
 11
164745.8817666912
 21
108651.627685091
 31
0.0
  0
LINE
  5
630CE
330
1F
100
AcDbEntity
  8
freecads.com
100
AcDbLine
 10
164745.8817666912
 20
108651.627685091
 30
0.0
 11
164753.6324964542
 21
108646.4625322404
 31
0.0
  0
LINE
  5
630CF
330
1F
100
AcDbEntity
  8
freecads.com
100
AcDbLine
 10
164753.6324964542
 20
108646.4625322404
 30
0.0
 11
164771.7175325661
 21
108643.8803159568
 31
0.0
  0
LINE
  5
630D0
330
1F
100
AcDbEntity
  8
freecads.com
100
AcDbLine
 10
164771.7175325661
 20
108643.8803159568
 30
0.0
 11
164787.2189920911
 21
108643.0195771955
 31
0.0
  0
LINE
  5
630D1
330
1F
100
AcDbEntity
  8
freecads.com
100
AcDbLine
 10
164787.2189920911
 20
108643.0195771955
 30
0.0
 11
164795.7204837803
 21
108642.8933425423
 31
0.0
  0
LINE
  5
630D2
330
1F
100
AcDbEntity
  8
freecads.com
100
AcDbLine
 10
164758.2137546114
 20
108645.8084113784
 30
0.0
 11
164750.1877276714
 21
108637.8544243447
 31
0.0
  0
LINE
  5
630D3
330
1F
100
AcDbEntity
  8
freecads.com
100
AcDbLine
 10
164750.1877276714
 20
108637.8544243447
 30
0.0
 11
164745.8817666912
 21
108629.2470367326
 31
0.0
  0
LINE
  5
630D4
330
1F
100
AcDbEntity
  8
freecads.com
100
AcDbLine
 10
164745.8817666912
 20
108629.2470367326
 30
0.0
 11
164745.8817666912
 21
108612.8915597029
 31
0.0
  0
LINE
  5
630D5
330
1F
100
AcDbEntity
  8
freecads.com
100
AcDbLine
 10
164745.8817666912
 20
108612.8915597029
 30
0.0
 11
164750.1877276714
 21
108605.1441905685
 31
0.0
  0
LINE
  5
630D6
330
1F
100
AcDbEntity
  8
freecads.com
100
AcDbLine
 10
164750.1877276714
 20
108605.1441905685
 30
0.0
 11
164763.1056106085
 21
108599.1182989565
 31
0.0
  0
LINE
  5
630D7
330
1F
100
AcDbEntity
  8
freecads.com
100
AcDbLine
 10
164763.1056106085
 20
108599.1182989565
 30
0.0
 11
164776.0234935464
 21
108599.1182989565
 31
0.0
  0
LINE
  5
630D8
330
1F
100
AcDbEntity
  8
freecads.com
100
AcDbLine
 10
164776.0234935464
 20
108599.1182989565
 30
0.0
 11
164785.4966076998
 21
108599.1182989565
 31
0.0
  0
LINE
  5
630D9
330
1F
100
AcDbEntity
  8
freecads.com
100
AcDbLine
 10
164785.4966076998
 20
108599.1182989565
 30
0.0
 11
164793.4394342903
 21
108598.2037980812
 31
0.0
  0
LINE
  5
630DA
330
1F
100
AcDbEntity
  8
freecads.com
100
AcDbLine
 10
164757.0772652378
 20
108632.6899917775
 30
0.0
 11
164757.9384574344
 21
108626.6641001656
 31
0.0
  0
LINE
  5
630DB
330
1F
100
AcDbEntity
  8
freecads.com
100
AcDbLine
 10
164757.9384574344
 20
108626.6641001656
 30
0.0
 11
164770.8563403705
 21
108618.9167310314
 31
0.0
  0
LINE
  5
630DC
330
1F
100
AcDbEntity
  8
freecads.com
100
AcDbLine
 10
164770.8563403705
 20
108618.9167310314
 30
0.0
 11
164771.7175325661
 21
108616.3345147477
 31
0.0
  0
LINE
  5
630DD
330
1F
100
AcDbEntity
  8
freecads.com
100
AcDbLine
 10
164771.7175325661
 20
108616.3345147477
 30
0.0
 11
164754.4936886498
 21
108621.4996675984
 31
0.0
  0
LINE
  5
630DE
330
1F
100
AcDbEntity
  8
freecads.com
100
AcDbLine
 10
164754.4936886498
 20
108621.4996675984
 30
0.0
 11
164751.9101120628
 21
108624.0818838821
 31
0.0
  0
LINE
  5
630DF
330
1F
100
AcDbEntity
  8
freecads.com
100
AcDbLine
 10
164751.9101120628
 20
108624.0818838821
 30
0.0
 11
164751.0489198671
 21
108632.6899917775
 31
0.0
  0
LINE
  5
630E0
330
1F
100
AcDbEntity
  8
freecads.com
100
AcDbLine
 10
164751.0489198671
 20
108632.6899917775
 30
0.0
 11
164753.6324964542
 21
108636.1329468223
 31
0.0
  0
LINE
  5
630E1
330
1F
100
AcDbEntity
  8
freecads.com
100
AcDbLine
 10
164753.6324964542
 20
108636.1329468223
 30
0.0
 11
164757.0772652378
 21
108632.6899917775
 31
0.0
  0
LINE
  5
630E2
330
1F
100
AcDbEntity
  8
freecads.com
100
AcDbLine
 10
164746.8159960512
 20
108611.2106759837
 30
0.0
 11
164741.5758057138
 21
108600.8404967625
 31
0.0
  0
LINE
  5
630E3
330
1F
100
AcDbEntity
  8
freecads.com
100
AcDbLine
 10
164741.5758057138
 20
108600.8404967625
 30
0.0
 11
164739.8534213224
 21
108593.9538663893
 31
0.0
  0
LINE
  5
630E4
330
1F
100
AcDbEntity
  8
freecads.com
100
AcDbLine
 10
164739.8534213224
 20
108593.9538663893
 30
0.0
 11
164744.1593822999
 21
108587.9279747774
 31
0.0
  0
LINE
  5
630E5
330
1F
100
AcDbEntity
  8
freecads.com
100
AcDbLine
 10
164744.1593822999
 20
108587.9279747774
 30
0.0
 11
164757.0772652378
 21
108586.2064972549
 31
0.0
  0
LINE
  5
630E6
330
1F
100
AcDbEntity
  8
freecads.com
100
AcDbLine
 10
164757.0772652378
 20
108586.2064972549
 30
0.0
 11
164773.4399169585
 21
108582.76354221
 31
0.0
  0
LINE
  5
630E7
330
1F
100
AcDbEntity
  8
freecads.com
100
AcDbLine
 10
164773.4399169585
 20
108582.76354221
 30
0.0
 11
164786.3577998954
 21
108583.6242809714
 31
0.0
  0
LINE
  5
630E8
330
1F
100
AcDbEntity
  8
freecads.com
100
AcDbLine
 10
164786.3577998954
 20
108583.6242809714
 30
0.0
 11
164792.4578326068
 21
108582.2922451598
 31
0.0
  0
LINE
  5
630E9
330
1F
100
AcDbEntity
  8
freecads.com
100
AcDbLine
 10
164799.3472733818
 20
108535.3299937745
 30
0.0
 11
164795.0413124034
 21
108516.3123489945
 31
0.0
  0
LINE
  5
630EA
330
1F
100
AcDbEntity
  8
freecads.com
100
AcDbLine
 10
164795.0413124034
 20
108516.3123489945
 30
0.0
 11
164793.3189280111
 21
108506.8435023378
 31
0.0
  0
LINE
  5
630EB
330
1F
100
AcDbEntity
  8
freecads.com
100
AcDbLine
 10
164793.3189280111
 20
108506.8435023378
 30
0.0
 11
164793.3189280111
 21
108486.1843315019
 31
0.0
  0
LINE
  5
630EC
330
1F
100
AcDbEntity
  8
freecads.com
100
AcDbLine
 10
164793.3189280111
 20
108486.1843315019
 30
0.0
 11
164802.7920421663
 21
108475.8547460839
 31
0.0
  0
LINE
  5
630ED
330
1F
100
AcDbEntity
  8
freecads.com
100
AcDbLine
 10
164802.7920421663
 20
108475.8547460839
 30
0.0
 11
164826.9054236471
 21
108467.2466381884
 31
0.0
  0
LINE
  5
630EE
330
1F
100
AcDbEntity
  8
freecads.com
100
AcDbLine
 10
164826.9054236471
 20
108467.2466381884
 30
0.0
 11
164858.7695348937
 21
108467.2466381884
 31
0.0
  0
LINE
  5
630EF
330
1F
100
AcDbEntity
  8
freecads.com
100
AcDbLine
 10
164858.7695348937
 20
108467.2466381884
 30
0.0
 11
164883.744108572
 21
108467.2466381884
 31
0.0
  0
LINE
  5
630F0
330
1F
100
AcDbEntity
  8
freecads.com
100
AcDbLine
 10
164883.744108572
 20
108467.2466381884
 30
0.0
 11
164903.5525818778
 21
108457.7777915316
 31
0.0
  0
LINE
  5
630F1
330
1F
100
AcDbEntity
  8
freecads.com
100
AcDbLine
 10
164903.5525818778
 20
108457.7777915316
 30
0.0
 11
164925.0823867725
 21
108452.6126386809
 31
0.0
  0
LINE
  5
630F2
330
1F
100
AcDbEntity
  8
freecads.com
100
AcDbLine
 10
164925.0823867725
 20
108452.6126386809
 30
0.0
 11
164953.5017292354
 21
108447.4482061135
 31
0.0
  0
LINE
  5
630F3
330
1F
100
AcDbEntity
  8
freecads.com
100
AcDbLine
 10
164953.5017292354
 20
108447.4482061135
 30
0.0
 11
164979.3374951094
 21
108447.4482061135
 31
0.0
  0
LINE
  5
630F4
330
1F
100
AcDbEntity
  8
freecads.com
100
AcDbLine
 10
164979.3374951094
 20
108447.4482061135
 30
0.0
 11
165007.1313427699
 21
108450.3723338668
 31
0.0
  0
LINE
  5
630F5
330
1F
100
AcDbEntity
  8
freecads.com
100
AcDbLine
 10
164920.776425795
 20
108519.7553040394
 30
0.0
 11
164933.6943087311
 21
108527.5026731737
 31
0.0
  0
LINE
  5
630F6
330
1F
100
AcDbEntity
  8
freecads.com
100
AcDbLine
 10
164933.6943087311
 20
108527.5026731737
 30
0.0
 11
164939.7226541018
 21
108532.6678260245
 31
0.0
  0
LINE
  5
630F7
330
1F
100
AcDbEntity
  8
freecads.com
100
AcDbLine
 10
164931.1107321441
 20
108507.7042410991
 30
0.0
 11
164946.6121916681
 21
108519.7553040394
 31
0.0
  0
LINE
  5
630F8
330
1F
100
AcDbEntity
  8
freecads.com
100
AcDbLine
 10
164946.6121916681
 20
108519.7553040394
 30
0.0
 11
164952.6405370397
 21
108525.7811956514
 31
0.0
  0
LINE
  5
630F9
330
1F
100
AcDbEntity
  8
freecads.com
100
AcDbLine
 10
164938.0002697104
 20
108500.8176107259
 30
0.0
 11
164952.6405370397
 21
108510.2864573826
 31
0.0
  0
LINE
  5
630FA
330
1F
100
AcDbEntity
  8
freecads.com
100
AcDbLine
 10
164952.6405370397
 20
108510.2864573826
 30
0.0
 11
164965.5584199767
 21
108512.8693939496
 31
0.0
  0
LINE
  5
630FB
330
1F
100
AcDbEntity
  8
freecads.com
100
AcDbLine
 10
164950.0569604517
 20
108492.2095028304
 30
0.0
 11
164969.0031887594
 21
108502.5398085316
 31
0.0
  0
LINE
  5
630FC
330
1F
100
AcDbEntity
  8
freecads.com
100
AcDbLine
 10
164969.0031887594
 20
108502.5398085316
 30
0.0
 11
164972.4479575431
 21
108502.5398085316
 31
0.0
  0
LINE
  5
630FD
330
1F
100
AcDbEntity
  8
freecads.com
100
AcDbLine
 10
164905.2749662691
 20
108530.0848894572
 30
0.0
 11
164920.776425795
 21
108530.0848894572
 31
0.0
  0
LINE
  5
630FE
330
1F
100
AcDbEntity
  8
freecads.com
100
AcDbLine
 10
164920.776425795
 20
108530.0848894572
 30
0.0
 11
164929.3883477527
 21
108529.2241506962
 31
0.0
  0
LINE
  5
630FF
330
1F
100
AcDbEntity
  8
freecads.com
100
AcDbLine
 10
164929.3883477527
 20
108529.2241506962
 30
0.0
 11
164940.5838462984
 21
108511.1471961437
 31
0.0
  0
LINE
  5
63100
330
1F
100
AcDbEntity
  8
freecads.com
100
AcDbLine
 10
164940.5838462984
 20
108511.1471961437
 30
0.0
 11
164947.4733838647
 21
108499.0961332034
 31
0.0
  0
LINE
  5
63101
330
1F
100
AcDbEntity
  8
freecads.com
100
AcDbLine
 10
164947.4733838647
 20
108499.0961332034
 30
0.0
 11
164951.7793448431
 21
108489.6272865467
 31
0.0
  0
LINE
  5
63102
330
1F
100
AcDbEntity
  8
freecads.com
100
AcDbLine
 10
164951.7793448431
 20
108489.6272865467
 30
0.0
 11
164951.7793448431
 21
108484.4628539793
 31
0.0
  0
LINE
  5
63103
330
1F
100
AcDbEntity
  8
freecads.com
100
AcDbLine
 10
164951.7793448431
 20
108484.4628539793
 30
0.0
 11
164950.9181526475
 21
108475.8547460839
 31
0.0
  0
LINE
  5
63104
330
1F
100
AcDbEntity
  8
freecads.com
100
AcDbLine
 10
164950.9181526475
 20
108475.8547460839
 30
0.0
 11
164952.6405370397
 21
108470.6895932333
 31
0.0
  0
LINE
  5
63105
330
1F
100
AcDbEntity
  8
freecads.com
100
AcDbLine
 10
164952.6405370397
 20
108470.6895932333
 30
0.0
 11
164960.3912668017
 21
108462.0814853375
 31
0.0
  0
LINE
  5
63106
330
1F
100
AcDbEntity
  8
freecads.com
100
AcDbLine
 10
164960.3912668017
 20
108462.0814853375
 30
0.0
 11
164967.2808043681
 21
108458.6385302927
 31
0.0
  0
LINE
  5
63107
330
1F
100
AcDbEntity
  8
freecads.com
100
AcDbLine
 10
164967.2808043681
 20
108458.6385302927
 30
0.0
 11
164977.6151107171
 21
108458.6385302927
 31
0.0
  0
LINE
  5
63108
330
1F
100
AcDbEntity
  8
freecads.com
100
AcDbLine
 10
164954.3629214311
 20
108487.0450702632
 30
0.0
 11
164965.5584199767
 21
108479.2977011288
 31
0.0
  0
LINE
  5
63109
330
1F
100
AcDbEntity
  8
freecads.com
100
AcDbLine
 10
164965.5584199767
 20
108479.2977011288
 30
0.0
 11
164978.4763029147
 21
108478.4369623675
 31
0.0
  0
LINE
  5
6310A
330
1F
100
AcDbEntity
  8
freecads.com
100
AcDbLine
 10
164962.113651194
 20
108489.6272865467
 30
0.0
 11
164975.031534131
 21
108496.5139169199
 31
0.0
  0
LINE
  5
6310B
330
1F
100
AcDbEntity
  8
freecads.com
100
AcDbLine
 10
164975.031534131
 20
108496.5139169199
 30
0.0
 11
164988.8106092637
 21
108493.9317006362
 31
0.0
  0
LINE
  5
6310C
330
1F
100
AcDbEntity
  8
freecads.com
100
AcDbLine
 10
164988.8106092637
 20
108493.9317006362
 30
0.0
 11
165001.7284922007
 21
108486.1843315019
 31
0.0
  0
LINE
  5
6310D
330
1F
100
AcDbEntity
  8
freecads.com
100
AcDbLine
 10
164801.9308499688
 20
108522.3382406065
 30
0.0
 11
164812.2651563197
 21
108505.1220248152
 31
0.0
  0
LINE
  5
6310E
330
1F
100
AcDbEntity
  8
freecads.com
100
AcDbLine
 10
164812.2651563197
 20
108505.1220248152
 30
0.0
 11
164799.3472733818
 21
108503.4005472929
 31
0.0
  0
LINE
  5
6310F
330
1F
100
AcDbEntity
  8
freecads.com
100
AcDbLine
 10
164826.9054236471
 20
108518.8945652782
 30
0.0
 11
164846.7128441523
 21
108500.8176107259
 31
0.0
  0
LINE
  5
63110
330
1F
100
AcDbEntity
  8
freecads.com
100
AcDbLine
 10
164846.7128441523
 20
108500.8176107259
 30
0.0
 11
164854.4635739144
 21
108488.7665477855
 31
0.0
  0
LINE
  5
63111
330
1F
100
AcDbEntity
  8
freecads.com
100
AcDbLine
 10
164854.4635739144
 20
108488.7665477855
 30
0.0
 11
164865.65907246
 21
108480.15843989
 31
0.0
  0
LINE
  5
63112
330
1F
100
AcDbEntity
  8
freecads.com
100
AcDbLine
 10
164865.65907246
 20
108480.15843989
 30
0.0
 11
164887.1899301571
 21
108469.828854472
 31
0.0
  0
LINE
  5
63113
330
1F
100
AcDbEntity
  8
freecads.com
100
AcDbLine
 10
164887.1899301571
 20
108469.828854472
 30
0.0
 11
164907.8585428571
 21
108463.8029628601
 31
0.0
  0
LINE
  5
63114
330
1F
100
AcDbEntity
  8
freecads.com
100
AcDbLine
 10
164907.8585428571
 20
108463.8029628601
 30
0.0
 11
164927.6659633614
 21
108462.0814853375
 31
0.0
  0
LINE
  5
63115
330
1F
100
AcDbEntity
  8
freecads.com
100
AcDbLine
 10
164927.6659633614
 20
108462.0814853375
 30
0.0
 11
164941.4450384931
 21
108460.3600078152
 31
0.0
  0
LINE
  5
63116
330
1F
100
AcDbEntity
  8
freecads.com
100
AcDbLine
 10
164793.3189280111
 20
108486.1843315019
 30
0.0
 11
164788.1517748371
 21
108476.7154848451
 31
0.0
  0
LINE
  5
63117
330
1F
100
AcDbEntity
  8
freecads.com
100
AcDbLine
 10
164788.1517748371
 20
108476.7154848451
 30
0.0
 11
164789.8741592284
 21
108467.2466381884
 31
0.0
  0
LINE
  5
63118
330
1F
100
AcDbEntity
  8
freecads.com
100
AcDbLine
 10
164789.8741592284
 20
108467.2466381884
 30
0.0
 11
164800.2084655774
 21
108460.3600078152
 31
0.0
  0
LINE
  5
63119
330
1F
100
AcDbEntity
  8
freecads.com
100
AcDbLine
 10
164800.2084655774
 20
108460.3600078152
 30
0.0
 11
164819.1546938861
 21
108455.195575248
 31
0.0
  0
LINE
  5
6311A
330
1F
100
AcDbEntity
  8
freecads.com
100
AcDbLine
 10
164819.1546938861
 20
108455.195575248
 30
0.0
 11
164847.574036348
 21
108451.7518999197
 31
0.0
  0
LINE
  5
6311B
330
1F
100
AcDbEntity
  8
freecads.com
100
AcDbLine
 10
164847.574036348
 20
108451.7518999197
 30
0.0
 11
164862.2143036773
 21
108451.7518999197
 31
0.0
  0
LINE
  5
6311C
330
1F
100
AcDbEntity
  8
freecads.com
100
AcDbLine
 10
164862.2143036773
 20
108451.7518999197
 30
0.0
 11
164870.826225635
 21
108458.6385302927
 31
0.0
  0
LINE
  5
6311D
330
1F
100
AcDbEntity
  8
freecads.com
100
AcDbLine
 10
164870.826225635
 20
108458.6385302927
 30
0.0
 11
164883.744108572
 21
108458.6385302927
 31
0.0
  0
LINE
  5
6311E
330
1F
100
AcDbEntity
  8
freecads.com
100
AcDbLine
 10
164883.744108572
 20
108458.6385302927
 30
0.0
 11
164891.4958911365
 21
108452.6126386809
 31
0.0
  0
LINE
  5
6311F
330
1F
100
AcDbEntity
  8
freecads.com
100
AcDbLine
 10
164891.4958911365
 20
108452.6126386809
 30
0.0
 11
164906.1361584658
 21
108445.7267285912
 31
0.0
  0
LINE
  5
63120
330
1F
100
AcDbEntity
  8
freecads.com
100
AcDbLine
 10
164906.1361584658
 20
108445.7267285912
 30
0.0
 11
164929.3883477527
 21
108440.5615757406
 31
0.0
  0
LINE
  5
63121
330
1F
100
AcDbEntity
  8
freecads.com
100
AcDbLine
 10
164929.3883477527
 20
108440.5615757406
 30
0.0
 11
164958.6688824104
 21
108437.9793594568
 31
0.0
  0
LINE
  5
63122
330
1F
100
AcDbEntity
  8
freecads.com
100
AcDbLine
 10
164958.6688824104
 20
108437.9793594568
 30
0.0
 11
164993.116570243
 21
108437.9793594568
 31
0.0
  0
LINE
  5
63123
330
1F
100
AcDbEntity
  8
freecads.com
100
AcDbLine
 10
164993.116570243
 20
108437.9793594568
 30
0.0
 11
165018.0911439214
 21
108441.4223145016
 31
0.0
  0
LINE
  5
63124
330
1F
100
AcDbEntity
  8
freecads.com
100
AcDbLine
 10
165018.0911439214
 20
108441.4223145016
 30
0.0
 11
165026.703065879
 21
108450.0304223974
 31
0.0
  0
LINE
  5
63125
330
1F
100
AcDbEntity
  8
freecads.com
100
AcDbLine
 10
165026.703065879
 20
108450.0304223974
 30
0.0
 11
165028.4254502704
 21
108460.3600078152
 31
0.0
  0
LINE
  5
63126
330
1F
100
AcDbEntity
  8
freecads.com
100
AcDbLine
 10
165028.4254502704
 20
108460.3600078152
 30
0.0
 11
165025.8418736843
 21
108472.4110707556
 31
0.0
  0
LINE
  5
63127
330
1F
100
AcDbEntity
  8
freecads.com
100
AcDbLine
 10
165025.8418736843
 20
108472.4110707556
 30
0.0
 11
165013.7851829421
 21
108469.828854472
 31
0.0
  0
LINE
  5
63128
330
1F
100
AcDbEntity
  8
freecads.com
100
AcDbLine
 10
165013.7851829421
 20
108469.828854472
 30
0.0
 11
165009.4792219636
 21
108468.1073769494
 31
0.0
  0
LINE
  5
63129
330
1F
100
AcDbEntity
  8
freecads.com
100
AcDbLine
 10
165009.4792219636
 20
108468.1073769494
 30
0.0
 11
165009.4792219636
 21
108464.6644219047
 31
0.0
  0
LINE
  5
6312A
330
1F
100
AcDbEntity
  8
freecads.com
100
AcDbLine
 10
165009.4792219636
 20
108464.6644219047
 30
0.0
 11
165007.1313427699
 21
108450.3723338668
 31
0.0
  0
LINE
  5
6312B
330
1F
100
AcDbEntity
  8
freecads.com
100
AcDbLine
 10
165025.8418736843
 20
108472.4110707556
 30
0.0
 11
165018.952336117
 21
108474.9940073226
 31
0.0
  0
LINE
  5
6312C
330
1F
100
AcDbEntity
  8
freecads.com
100
AcDbLine
 10
165018.952336117
 20
108474.9940073226
 30
0.0
 11
165001.7284922007
 21
108474.1332685616
 31
0.0
  0
LINE
  5
6312D
330
1F
100
AcDbEntity
  8
freecads.com
100
AcDbLine
 10
165001.7284922007
 20
108474.1332685616
 30
0.0
 11
164996.5613390267
 21
108474.1332685616
 31
0.0
  0
LINE
  5
6312E
330
1F
100
AcDbEntity
  8
freecads.com
100
AcDbLine
 10
164996.5613390267
 20
108474.1332685616
 30
0.0
 11
164981.9210716974
 21
108474.9940073226
 31
0.0
  0
LINE
  5
6312F
330
1F
100
AcDbEntity
  8
freecads.com
100
AcDbLine
 10
164981.9210716974
 20
108474.9940073226
 30
0.0
 11
164993.116570243
 21
108478.4369623675
 31
0.0
  0
LINE
  5
63130
330
1F
100
AcDbEntity
  8
freecads.com
100
AcDbLine
 10
164993.116570243
 20
108478.4369623675
 30
0.0
 11
165009.4792219636
 21
108479.2977011288
 31
0.0
  0
LINE
  5
63131
330
1F
100
AcDbEntity
  8
freecads.com
100
AcDbLine
 10
165009.4792219636
 20
108479.2977011288
 30
0.0
 11
165018.952336117
 21
108474.9940073226
 31
0.0
  0
LINE
  5
63132
330
1F
100
AcDbEntity
  8
freecads.com
100
AcDbLine
 10
165018.952336117
 20
108474.9940073226
 30
0.0
 11
164995.70014683
 21
108493.0709618751
 31
0.0
  0
LINE
  5
63133
330
1F
100
AcDbEntity
  8
freecads.com
100
AcDbLine
 10
164995.70014683
 20
108493.0709618751
 30
0.0
 11
164975.031534131
 21
108502.5398085316
 31
0.0
  0
LINE
  5
63134
330
1F
100
AcDbEntity
  8
freecads.com
100
AcDbLine
 10
164975.031534131
 20
108502.5398085316
 30
0.0
 11
164962.113651194
 21
108519.7553040394
 31
0.0
  0
LINE
  5
63135
330
1F
100
AcDbEntity
  8
freecads.com
100
AcDbLine
 10
164962.113651194
 20
108519.7553040394
 30
0.0
 11
164950.0569604517
 21
108529.2241506962
 31
0.0
  0
LINE
  5
63136
330
1F
100
AcDbEntity
  8
freecads.com
100
AcDbLine
 10
164950.0569604517
 20
108529.2241506962
 30
0.0
 11
164936.2778853191
 21
108537.8322585917
 31
0.0
  0
LINE
  5
63137
330
1F
100
AcDbEntity
  8
freecads.com
100
AcDbLine
 10
164936.2778853191
 20
108537.8322585917
 30
0.0
 11
164930.8153644561
 21
108539.3892044125
 31
0.0
  0
LINE
  5
63138
330
1F
100
AcDbEntity
  8
freecads.com
100
AcDbLine
 10
164150.0743271842
 20
108872.0243466697
 30
0.0
 11
164389.3246016636
 21
108872.0243466697
 31
0.0
  0
ENDSEC
  0
SECTION
  2
OBJECTS
  0
DICTIONARY
  5
C
330
0
100
AcDbDictionary
281
     1
  3
ACAD_ASSOCPERSSUBENTMANAGER
350
2C1D4
  3
ACAD_CIP_PREVIOUS_PRODUCT_INFO
350
1A5
  3
ACAD_COLOR
350
73
  3
ACAD_DETAILVIEWSTYLE
350
1AB
  3
ACAD_GROUP
350
D
  3
ACAD_LAYOUT
350
1A
  3
ACAD_MATERIAL
350
72
  3
ACAD_MLEADERSTYLE
350
D7
  3
ACAD_MLINESTYLE
350
17
  3
ACAD_PLOTSETTINGS
350
19
  3
ACAD_PLOTSTYLENAME
350
E
  3
ACAD_SCALELIST
350
B6
  3
ACAD_SECTIONVIEWSTYLE
350
1A8
  3
ACAD_TABLESTYLE
350
86
  3
ACAD_VISUALSTYLE
350
99
  3
ACAD_WIPEOUT_VARS
350
59B06
  3
ACDB_RECOMPOSE_DATA
350
67411
  3
ACDBVARIABLEDICTIONARY
350
4A0D5
  3
AEC_PROPERTY_SET_DEFS
350
22D1
  0
DICTIONARY
  5
18E
330
2
100
AcDbDictionary
280
     1
281
     1
  3
ACAD_LAYERSTATES
360
18F
  0
DICTIONARY
  5
E6
330
10
100
AcDbDictionary
280
     1
281
     1
  0
DICTIONARY
  5
15D
330
1F
100
AcDbDictionary
280
     1
281
     1
  3
ACAD_SORTENTS
360
28E
  0
ACDBASSOCPERSSUBENTMANAGER
  5
2C1D4
102
{ACAD_REACTORS
330
C
102
}
330
C
100
AcDbAssocPersSubentManager
 90
        2
 90
        3
 90
        0
 90
        2
 90
     1260
 90
        0
 90
     1260
 90
        1
 90
        2
 90
        3
 90
        4
 90
        5
 90
        6
 90
        7
 90
        8
 90
        9
 90
       10
 90
       11
 90
       12
 90
       13
 90
       14
 90
       15
 90
       16
 90
       17
 90
       18
 90
       19
 90
       20
 90
       21
 90
       22
 90
       23
 90
       24
 90
       25
 90
       26
 90
       27
 90
       28
 90
       29
 90
       30
 90
       31
 90
       32
 90
       33
 90
       34
 90
       35
 90
       36
 90
       37
 90
       38
 90
       39
 90
       40
 90
       41
 90
       42
 90
       43
 90
       44
 90
       45
 90
       46
 90
       47
 90
       48
 90
       49
 90
       50
 90
       51
 90
       52
 90
       53
 90
       54
 90
       55
 90
       56
 90
       57
 90
       58
 90
       59
 90
       60
 90
       61
 90
       62
 90
       63
 90
       64
 90
       65
 90
       66
 90
       67
 90
       68
 90
       69
 90
       70
 90
       71
 90
       72
 90
       73
 90
       74
 90
       75
 90
       76
 90
       77
 90
       78
 90
       79
 90
       80
 90
       81
 90
       82
 90
       83
 90
       84
 90
       85
 90
       86
 90
       87
 90
       88
 90
       89
 90
       90
 90
       91
 90
       92
 90
       93
 90
       94
 90
       95
 90
       96
 90
       97
 90
       98
 90
       99
 90
      100
 90
      101
 90
      102
 90
      103
 90
      104
 90
      105
 90
      106
 90
      107
 90
      108
 90
      109
 90
      110
 90
      111
 90
      112
 90
      113
 90
      114
 90
      115
 90
      116
 90
      117
 90
      118
 90
      119
 90
      120
 90
      121
 90
      122
 90
      123
 90
      124
 90
      125
 90
      126
 90
      127
 90
      128
 90
      129
 90
      130
 90
      131
 90
      132
 90
      133
 90
      134
 90
      135
 90
      136
 90
      137
 90
      138
 90
      139
 90
      140
 90
      141
 90
      142
 90
      143
 90
      144
 90
      145
 90
      146
 90
      147
 90
      148
 90
      149
 90
      150
 90
      151
 90
      152
 90
      153
 90
      154
 90
      155
 90
      156
 90
      157
 90
      158
 90
      159
 90
      160
 90
      161
 90
      162
 90
      163
 90
      164
 90
      165
 90
      166
 90
      167
 90
      168
 90
      169
 90
      170
 90
      171
 90
      172
 90
      173
 90
      174
 90
      175
 90
      176
 90
      177
 90
      178
 90
      179
 90
      180
 90
      181
 90
      182
 90
      183
 90
      184
 90
      185
 90
      186
 90
      187
 90
      188
 90
      189
 90
      190
 90
      191
 90
      192
 90
      193
 90
      194
 90
      195
 90
      196
 90
      197
 90
      198
 90
      199
 90
      200
 90
      201
 90
      202
 90
      203
 90
      204
 90
      205
 90
      206
 90
      207
 90
      208
 90
      209
 90
      210
 90
      211
 90
      212
 90
      213
 90
      214
 90
      215
 90
      216
 90
      217
 90
      218
 90
      219
 90
      220
 90
      221
 90
      222
 90
      223
 90
      224
 90
      225
 90
      226
 90
      227
 90
      228
 90
      229
 90
      230
 90
      231
 90
      232
 90
      233
 90
      234
 90
      235
 90
      236
 90
      237
 90
      238
 90
      239
 90
      240
 90
      241
 90
      242
 90
      243
 90
      244
 90
      245
 90
      246
 90
      247
 90
      248
 90
      249
 90
      250
 90
      251
 90
      252
 90
      253
 90
      254
 90
      255
 90
      256
 90
      257
 90
      258
 90
      259
 90
      260
 90
      261
 90
      262
 90
      263
 90
      264
 90
      265
 90
      266
 90
      267
 90
      268
 90
      269
 90
      270
 90
      271
 90
      272
 90
      273
 90
      274
 90
      275
 90
      276
 90
      277
 90
      278
 90
      279
 90
      280
 90
      281
 90
      282
 90
      283
 90
      284
 90
      285
 90
      286
 90
      287
 90
      288
 90
      289
 90
      290
 90
      291
 90
      292
 90
      293
 90
      294
 90
      295
 90
      296
 90
      297
 90
      298
 90
      299
 90
      300
 90
      301
 90
      302
 90
      303
 90
      304
 90
      305
 90
      306
 90
      307
 90
      308
 90
      309
 90
      310
 90
      311
 90
      312
 90
      313
 90
      314
 90
      315
 90
      316
 90
      317
 90
      318
 90
      319
 90
      320
 90
      321
 90
      322
 90
      323
 90
      324
 90
      325
 90
      326
 90
      327
 90
      328
 90
      329
 90
      330
 90
      331
 90
      332
 90
      333
 90
      334
 90
      335
 90
      336
 90
      337
 90
      338
 90
      339
 90
      340
 90
      341
 90
      342
 90
      343
 90
      344
 90
      345
 90
      346
 90
      347
 90
      348
 90
      349
 90
      350
 90
      351
 90
      352
 90
      353
 90
      354
 90
      355
 90
      356
 90
      357
 90
      358
 90
      359
 90
      360
 90
      361
 90
      362
 90
      363
 90
      364
 90
      365
 90
      366
 90
      367
 90
      368
 90
      369
 90
      370
 90
      371
 90
      372
 90
      373
 90
      374
 90
      375
 90
      376
 90
      377
 90
      378
 90
      379
 90
      380
 90
      381
 90
      382
 90
      383
 90
      384
 90
      385
 90
      386
 90
      387
 90
      388
 90
      389
 90
      390
 90
      391
 90
      392
 90
      393
 90
      394
 90
      395
 90
      396
 90
      397
 90
      398
 90
      399
 90
      400
 90
      401
 90
      402
 90
      403
 90
      404
 90
      405
 90
      406
 90
      407
 90
      408
 90
      409
 90
      410
 90
      411
 90
      412
 90
      413
 90
      414
 90
      415
 90
      416
 90
      417
 90
      418
 90
      419
 90
      420
 90
      421
 90
      422
 90
      423
 90
      424
 90
      425
 90
      426
 90
      427
 90
      428
 90
      429
 90
      430
 90
      431
 90
      432
 90
      433
 90
      434
 90
      435
 90
      436
 90
      437
 90
      438
 90
      439
 90
      440
 90
      441
 90
      442
 90
      443
 90
      444
 90
      445
 90
      446
 90
      447
 90
      448
 90
      449
 90
      450
 90
      451
 90
      452
 90
      453
 90
      454
 90
      455
 90
      456
 90
      457
 90
      458
 90
      459
 90
      460
 90
      461
 90
      462
 90
      463
 90
      464
 90
      465
 90
      466
 90
      467
 90
      468
 90
      469
 90
      470
 90
      471
 90
      472
 90
      473
 90
      474
 90
      475
 90
      476
 90
      477
 90
      478
 90
      479
 90
      480
 90
      481
 90
      482
 90
      483
 90
      484
 90
      485
 90
      486
 90
      487
 90
      488
 90
      489
 90
      490
 90
      491
 90
      492
 90
      493
 90
      494
 90
      495
 90
      496
 90
      497
 90
      498
 90
      499
 90
      500
 90
      501
 90
      502
 90
      503
 90
      504
 90
      505
 90
      506
 90
      507
 90
      508
 90
      509
 90
      510
 90
      511
 90
      512
 90
      513
 90
      514
 90
      515
 90
      516
 90
      517
 90
      518
 90
      519
 90
      520
 90
      521
 90
      522
 90
      523
 90
      524
 90
      525
 90
      526
 90
      527
 90
      528
 90
      529
 90
      530
 90
      531
 90
      532
 90
      533
 90
      534
 90
      535
 90
      536
 90
      537
 90
      538
 90
      539
 90
      540
 90
      541
 90
      542
 90
      543
 90
      544
 90
      545
 90
      546
 90
      547
 90
      548
 90
      549
 90
      550
 90
      551
 90
      552
 90
      553
 90
      554
 90
      555
 90
      556
 90
      557
 90
      558
 90
      559
 90
      560
 90
      561
 90
      562
 90
      563
 90
      564
 90
      565
 90
      566
 90
      567
 90
      568
 90
      569
 90
      570
 90
      571
 90
      572
 90
      573
 90
      574
 90
      575
 90
      576
 90
      577
 90
      578
 90
      579
 90
      580
 90
      581
 90
      582
 90
      583
 90
      584
 90
      585
 90
      586
 90
      587
 90
      588
 90
      589
 90
      590
 90
      591
 90
      592
 90
      593
 90
      594
 90
      595
 90
      596
 90
      597
 90
      598
 90
      599
 90
      600
 90
      601
 90
      602
 90
      603
 90
      604
 90
      605
 90
      606
 90
      607
 90
      608
 90
      609
 90
      610
 90
      611
 90
      612
 90
      613
 90
      614
 90
      615
 90
      616
 90
      617
 90
      618
 90
      619
 90
      620
 90
      621
 90
      622
 90
      623
 90
      624
 90
      625
 90
      626
 90
      627
 90
      628
 90
      629
 90
      630
 90
      631
 90
      632
 90
      633
 90
      634
 90
      635
 90
      636
 90
      637
 90
      638
 90
      639
 90
      640
 90
      641
 90
      642
 90
      643
 90
      644
 90
      645
 90
      646
 90
      647
 90
      648
 90
      649
 90
      650
 90
      651
 90
      652
 90
      653
 90
      654
 90
      655
 90
      656
 90
      657
 90
      658
 90
      659
 90
      660
 90
      661
 90
      662
 90
      663
 90
      664
 90
      665
 90
      666
 90
      667
 90
      668
 90
      669
 90
      670
 90
      671
 90
      672
 90
      673
 90
      674
 90
      675
 90
      676
 90
      677
 90
      678
 90
      679
 90
      680
 90
      681
 90
      682
 90
      683
 90
      684
 90
      685
 90
      686
 90
      687
 90
      688
 90
      689
 90
      690
 90
      691
 90
      692
 90
      693
 90
      694
 90
      695
 90
      696
 90
      697
 90
      698
 90
      699
 90
      700
 90
      701
 90
      702
 90
      703
 90
      704
 90
      705
 90
      706
 90
      707
 90
      708
 90
      709
 90
      710
 90
      711
 90
      712
 90
      713
 90
      714
 90
      715
 90
      716
 90
      717
 90
      718
 90
      719
 90
      720
 90
      721
 90
      722
 90
      723
 90
      724
 90
      725
 90
      726
 90
      727
 90
      728
 90
      729
 90
      730
 90
      731
 90
      732
 90
      733
 90
      734
 90
      735
 90
      736
 90
      737
 90
      738
 90
      739
 90
      740
 90
      741
 90
      742
 90
      743
 90
      744
 90
      745
 90
      746
 90
      747
 90
      748
 90
      749
 90
      750
 90
      751
 90
      752
 90
      753
 90
      754
 90
      755
 90
      756
 90
      757
 90
      758
 90
      759
 90
      760
 90
      761
 90
      762
 90
      763
 90
      764
 90
      765
 90
      766
 90
      767
 90
      768
 90
      769
 90
      770
 90
      771
 90
      772
 90
      773
 90
      774
 90
      775
 90
      776
 90
      777
 90
      778
 90
      779
 90
      780
 90
      781
 90
      782
 90
      783
 90
      784
 90
      785
 90
      786
 90
      787
 90
      788
 90
      789
 90
      790
 90
      791
 90
      792
 90
      793
 90
      794
 90
      795
 90
      796
 90
      797
 90
      798
 90
      799
 90
      800
 90
      801
 90
      802
 90
      803
 90
      804
 90
      805
 90
      806
 90
      807
 90
      808
 90
      809
 90
      810
 90
      811
 90
      812
 90
      813
 90
      814
 90
      815
 90
      816
 90
      817
 90
      818
 90
      819
 90
      820
 90
      821
 90
      822
 90
      823
 90
      824
 90
      825
 90
      826
 90
      827
 90
      828
 90
      829
 90
      830
 90
      831
 90
      832
 90
      833
 90
      834
 90
      835
 90
      836
 90
      837
 90
      838
 90
      839
 90
      840
 90
      841
 90
      842
 90
      843
 90
      844
 90
      845
 90
      846
 90
      847
 90
      848
 90
      849
 90
      850
 90
      851
 90
      852
 90
      853
 90
      854
 90
      855
 90
      856
 90
      857
 90
      858
 90
      859
 90
      860
 90
      861
 90
      862
 90
      863
 90
      864
 90
      865
 90
      866
 90
      867
 90
      868
 90
      869
 90
      870
 90
      871
 90
      872
 90
      873
 90
      874
 90
      875
 90
      876
 90
      877
 90
      878
 90
      879
 90
      880
 90
      881
 90
      882
 90
      883
 90
      884
 90
      885
 90
      886
 90
      887
 90
      888
 90
      889
 90
      890
 90
      891
 90
      892
 90
      893
 90
      894
 90
      895
 90
      896
 90
      897
 90
      898
 90
      899
 90
      900
 90
      901
 90
      902
 90
      903
 90
      904
 90
      905
 90
      906
 90
      907
 90
      908
 90
      909
 90
      910
 90
      911
 90
      912
 90
      913
 90
      914
 90
      915
 90
      916
 90
      917
 90
      918
 90
      919
 90
      920
 90
      921
 90
      922
 90
      923
 90
      924
 90
      925
 90
      926
 90
      927
 90
      928
 90
      929
 90
      930
 90
      931
 90
      932
 90
      933
 90
      934
 90
      935
 90
      936
 90
      937
 90
      938
 90
      939
 90
      940
 90
      941
 90
      942
 90
      943
 90
      944
 90
      945
 90
      946
 90
      947
 90
      948
 90
      949
 90
      950
 90
      951
 90
      952
 90
      953
 90
      954
 90
      955
 90
      956
 90
      957
 90
      958
 90
      959
 90
      960
 90
      961
 90
      962
 90
      963
 90
      964
 90
      965
 90
      966
 90
      967
 90
      968
 90
      969
 90
      970
 90
      971
 90
      972
 90
      973
 90
      974
 90
      975
 90
      976
 90
      977
 90
      978
 90
      979
 90
      980
 90
      981
 90
      982
 90
      983
 90
      984
 90
      985
 90
      986
 90
      987
 90
      988
 90
      989
 90
      990
 90
      991
 90
      992
 90
      993
 90
      994
 90
      995
 90
      996
 90
      997
 90
      998
 90
      999
 90
     1000
 90
     1001
 90
     1002
 90
     1003
 90
     1004
 90
     1005
 90
     1006
 90
     1007
 90
     1008
 90
     1009
 90
     1010
 90
     1011
 90
     1012
 90
     1013
 90
     1014
 90
     1015
 90
     1016
 90
     1017
 90
     1018
 90
     1019
 90
     1020
 90
     1021
 90
     1022
 90
     1023
 90
     1024
 90
     1025
 90
     1026
 90
     1027
 90
     1028
 90
     1029
 90
     1030
 90
     1031
 90
     1032
 90
     1033
 90
     1034
 90
     1035
 90
     1036
 90
     1037
 90
     1038
 90
     1039
 90
     1040
 90
     1041
 90
     1042
 90
     1043
 90
     1044
 90
     1045
 90
     1046
 90
     1047
 90
     1048
 90
     1049
 90
     1050
 90
     1051
 90
     1052
 90
     1053
 90
     1054
 90
     1055
 90
     1056
 90
     1057
 90
     1058
 90
     1059
 90
     1060
 90
     1061
 90
     1062
 90
     1063
 90
     1064
 90
     1065
 90
     1066
 90
     1067
 90
     1068
 90
     1069
 90
     1070
 90
     1071
 90
     1072
 90
     1073
 90
     1074
 90
     1075
 90
     1076
 90
     1077
 90
     1078
 90
     1079
 90
     1080
 90
     1081
 90
     1082
 90
     1083
 90
     1084
 90
     1085
 90
     1086
 90
     1087
 90
     1088
 90
     1089
 90
     1090
 90
     1091
 90
     1092
 90
     1093
 90
     1094
 90
     1095
 90
     1096
 90
     1097
 90
     1098
 90
     1099
 90
     1100
 90
     1101
 90
     1102
 90
     1103
 90
     1104
 90
     1105
 90
     1106
 90
     1107
 90
     1108
 90
     1109
 90
     1110
 90
     1111
 90
     1112
 90
     1113
 90
     1114
 90
     1115
 90
     1116
 90
     1117
 90
     1118
 90
     1119
 90
     1120
 90
     1121
 90
     1122
 90
     1123
 90
     1124
 90
     1125
 90
     1126
 90
     1127
 90
     1128
 90
     1129
 90
     1130
 90
     1131
 90
     1132
 90
     1133
 90
     1134
 90
     1135
 90
     1136
 90
     1137
 90
     1138
 90
     1139
 90
     1140
 90
     1141
 90
     1142
 90
     1143
 90
     1144
 90
     1145
 90
     1146
 90
     1147
 90
     1148
 90
     1149
 90
     1150
 90
     1151
 90
     1152
 90
     1153
 90
     1154
 90
     1155
 90
     1156
 90
     1157
 90
     1158
 90
     1159
 90
     1160
 90
     1161
 90
     1162
 90
     1163
 90
     1164
 90
     1165
 90
     1166
 90
     1167
 90
     1168
 90
     1169
 90
     1170
 90
     1171
 90
     1172
 90
     1173
 90
     1174
 90
     1175
 90
     1176
 90
     1177
 90
     1178
 90
     1179
 90
     1180
 90
     1181
 90
     1182
 90
     1183
 90
     1184
 90
     1185
 90
     1186
 90
     1187
 90
     1188
 90
     1189
 90
     1190
 90
     1191
 90
     1192
 90
     1193
 90
     1194
 90
     1195
 90
     1196
 90
     1197
 90
     1198
 90
     1199
 90
     1200
 90
     1201
 90
     1202
 90
     1203
 90
     1204
 90
     1205
 90
     1206
 90
     1207
 90
     1208
 90
     1209
 90
     1210
 90
     1211
 90
     1212
 90
     1213
 90
     1214
 90
     1215
 90
     1216
 90
     1217
 90
     1218
 90
     1219
 90
     1220
 90
     1221
 90
     1222
 90
     1223
 90
     1224
 90
     1225
 90
     1226
 90
     1227
 90
     1228
 90
     1229
 90
     1230
 90
     1231
 90
     1232
 90
     1233
 90
     1234
 90
     1235
 90
     1236
 90
     1237
 90
     1238
 90
     1239
 90
     1240
 90
     1241
 90
     1242
 90
     1243
 90
     1244
 90
     1245
 90
     1246
 90
     1247
 90
     1248
 90
     1249
 90
     1250
 90
     1251
 90
     1252
 90
     1253
 90
     1254
 90
     1255
 90
     1256
 90
     1257
 90
     1258
 90
     1259
 90
     1260
 90
        0
 90
        0
290
     0
  0
XRECORD
  5
1A5
102
{ACAD_REACTORS
330
C
102
}
330
C
100
AcDbXrecord
280
     1
300
ACD
300
2022
300

  0
DICTIONARY
  5
73
102
{ACAD_REACTORS
330
C
102
}
330
C
100
AcDbDictionary
281
     1
  0
DICTIONARY
  5
1AB
102
{ACAD_REACTORS
330
C
102
}
330
C
100
AcDbDictionary
281
     1
  3
Imperial24
350
1AC
  3
Metric50
350
224
  0
DICTIONARY
  5
D
102
{ACAD_REACTORS
330
C
102
}
330
C
100
AcDbDictionary
281
     1
  0
DICTIONARY
  5
1A
102
{ACAD_REACTORS
330
C
102
}
330
C
100
AcDbDictionary
281
     1
  3
Layout1
350
59
  3
Layout2
350
5E
  3
Model
350
22
  0
DICTIONARY
  5
72
102
{ACAD_REACTORS
330
C
102
}
330
C
100
AcDbDictionary
281
     1
  3
ByBlock
350
97
  3
ByLayer
350
96
  3
Global
350
98
  0
DICTIONARY
  5
D7
102
{ACAD_REACTORS
330
C
102
}
330
C
100
AcDbDictionary
281
     1
  3
Standard
350
D8
  0
DICTIONARY
  5
17
102
{ACAD_REACTORS
330
C
102
}
330
C
100
AcDbDictionary
281
     1
  3
Standard
350
18
  0
DICTIONARY
  5
19
102
{ACAD_REACTORS
330
C
102
}
330
C
100
AcDbDictionary
281
     1
  0
ACDBDICTIONARYWDFLT
  5
E
102
{ACAD_REACTORS
330
C
102
}
330
C
100
AcDbDictionary
281
     1
  3
Normal
350
F
100
AcDbDictionaryWithDefault
340
F
  0
DICTIONARY
  5
B6
102
{ACAD_REACTORS
330
C
102
}
330
C
100
AcDbDictionary
281
     1
  3
*A1
350
2283
  3
A0
350
B7
  3
A1
350
124
  3
A2
350
125
  3
A3
350
126
  3
A4
350
127
  3
A5
350
128
  3
A6
350
129
  3
A7
350
12A
  3
A8
350
12B
  3
A9
350
12C
  3
B0
350
12D
  3
B1
350
12E
  3
B2
350
12F
  3
B3
350
130
  3
B4
350
131
  3
B5
350
132
  3
B6
350
133
  3
B7
350
134
  3
B8
350
135
  3
B9
350
136
  3
C0
350
137
  3
C1
350
138
  3
C2
350
139
  3
C3
350
13A
  3
C4
350
13B
  3
C5
350
13C
  3
C6
350
13D
  3
C7
350
13E
  3
C8
350
13F
  3
C9
350
140
  3
D0
350
141
  3
D1
350
142
  3
D2
350
143
  0
DICTIONARY
  5
1A8
102
{ACAD_REACTORS
330
C
102
}
330
C
100
AcDbDictionary
281
     1
  3
Imperial24
350
1AA
  3
Metric50
350
223
  0
DICTIONARY
  5
86
102
{ACAD_REACTORS
330
C
102
}
330
C
100
AcDbDictionary
281
     1
  3
Standard
350
87
  0
DICTIONARY
  5
99
102
{ACAD_REACTORS
330
C
102
}
330
C
100
AcDbDictionary
281
     1
  3
2dWireframe
350
9F
  3
3dWireframe
350
22946
  3
Basic
350
9E
  3
Brighten
350
A5
  3
ColorChange
350
A9
  3
Conceptual
350
A2
  3
Dim
350
A4
  3
EdgeColorOff
350
175
  3
Facepattern
350
A8
  3
Flat
350
9A
  3
FlatWithEdges
350
9B
  3
Gouraud
350
9C
  3
GouraudWithEdges
350
9D
  3
Hidden
350
A1
  3
JitterOff
350
173
  3
Linepattern
350
A7
  3
OverhangOff
350
174
  3
Realistic
350
A3
  3
Shaded
350
182
  3
Shaded with edges
350
181
  3
Shades of Gray
350
17E
  3
Sketchy
350
17F
  3
Thicken
350
A6
  3
Wireframe
350
A0
  3
X-Ray
350
180
  0
WIPEOUTVARIABLES
  5
59B06
102
{ACAD_REACTORS
330
C
102
}
330
C
100
AcDbWipeoutVariables
 70
     1
  0
XRECORD
  5
67411
102
{ACAD_REACTORS
330
C
102
}
330
C
100
AcDbXrecord
280
     1
 90
        1
330
87
  0
DICTIONARY
  5
4A0D5
102
{ACAD_REACTORS
330
C
102
}
330
C
100
AcDbDictionary
281
     2
  3
#COMPAREDIFFTOTAL
350
4A0D6
  3
#REVCLOUDAPPROXARCLEN
350
4A0D7
  3
ANNOALLVISIBLE
350
4A0D8
  3
CANNOSCALE
350
4A0D9
  3
CMLEADERSTYLE
350
4A0DA
  3
CTABLESTYLE
350
4A0DB
  3
CVIEWDETAILSTYLE
350
4A0DC
  3
CVIEWSECTIONSTYLE
350
4A0DD
  3
DIMADEC
350
4A0DE
  3
DIMASSOC
350
4A0DF
  3
DWFFRAME
350
4A0E0
  3
HIDETEXT
350
4A0E1
  3
HPCOLOR
350
4A0E2
  3
HPLAYER
350
4A0E3
  3
HPTRANSPARENCY
350
4A0E4
  3
INDEXCTL
350
4A0E5
  3
LAYEREVAL
350
4A0E6
  3
LAYERNOTIFY
350
4A0E7
  3
LIGHTINGUNITS
350
4A0E8
  3
MLEADERSCALE
350
4A0E9
  3
MSLTSCALE
350
4A0EA
  3
MSOLESCALE
350
4A0EB
  3
PDFFRAME
350
4A0EC
  3
POINTCLOUDCLIPFRAME
350
4A0ED
  3
PROJECTNAME
350
4A0EE
  3
SOLIDHIST
350
4A0EF
  3
SORTENTS
350
4A0F0
  0
DICTIONARY
  5
22D1
102
{ACAD_REACTORS
330
C
102
}
330
C
100
AcDbDictionary
281
     1
  0
DICTIONARY
  5
18F
102
{ACAD_REACTORS
330
18E
102
}
330
18E
100
AcDbDictionary
281
     1
  0
SORTENTSTABLE
  5
28E
102
{ACAD_REACTORS
330
15D
102
}
330
15D
100
AcDbSortentsTable
330
1F
  0
ACDBDETAILVIEWSTYLE
  5
1AC
102
{ACAD_REACTORS
330
1AB
102
}
330
1AB
100
AcDbModelDocViewStyle
 70
     0
  3
Imperial24
290
     0
300
Imperial24
 90
        0
100
AcDbDetailViewStyle
 70
     0
 71
     0
 90
        3
 71
     1
340
11
 62
   256
 40
0.24
340
0
 62
   256
 40
0.24
300

 40
0.36
280
     3
 71
     2
340
16
 90
       25
 62
   256
 71
     3
340
11
 62
   256
 40
0.24
 90
        1
 40
0.75
 90
        1
300
%<\AcVar ViewType \f "%tc1">% %<\AcVar ViewDetailId>%\PSCALE %<\AcVar ViewScale \f "%sn">%
 71
     4
340
16
 90
       25
 62
   256
340
16
 90
       25
 62
   256
280
     0
  0
ACDBDETAILVIEWSTYLE
  5
224
102
{ACAD_REACTORS
330
1AB
102
}
330
1AB
100
AcDbModelDocViewStyle
 70
     0
  3
Metric50
290
     0
300
Metric50
 90
        0
100
AcDbDetailViewStyle
 70
     0
 71
     0
 90
        3
 71
     1
340
11
 62
   256
 40
5.0
340
0
 62
   256
 40
5.0
300

 40
0.0
280
     1
 71
     2
340
16
 90
       25
 62
   256
 71
     3
340
11
 62
   256
 40
5.0
 90
        0
 40
15.0
 90
        1
300
%<\AcVar ViewDetailId>% (%<\AcVar ViewScale \f "%sn">%)
 71
     4
340
16
 90
       25
 62
   256
340
16
 90
       25
 62
   256
280
     0
  0
LAYOUT
  5
59
102
{ACAD_REACTORS
330
1A
102
}
330
1A
100
AcDbPlotSettings
  1

  2
None
  4

  6

 40
0.0
 41
0.0
 42
0.0
 43
0.0
 44
0.0
 45
0.0
 46
0.0
 47
0.0
 48
0.0
 49
0.0
140
0.0
141
0.0
142
1.0
143
1.0
 70
   688
 72
     0
 73
     0
 74
     5
  7

 75
    16
147
1.0
 76
     0
 77
     2
 78
   300
148
0.0
149
0.0
100
AcDbLayout
  1
Layout1
 70
     1
 71
     1
 10
0.0
 20
0.0
 11
12.0
 21
9.0
 12
0.0
 22
0.0
 32
0.0
 14
0.0
 24
0.0
 34
0.0
 15
0.0
 25
0.0
 35
0.0
146
0.0
 13
0.0
 23
0.0
 33
0.0
 16
1.0
 26
0.0
 36
0.0
 17
0.0
 27
1.0
 37
0.0
 76
     0
330
58
  0
LAYOUT
  5
5E
102
{ACAD_REACTORS
330
1A
102
}
330
1A
100
AcDbPlotSettings
  1

  2
None
  4

  6

 40
0.0
 41
0.0
 42
0.0
 43
0.0
 44
0.0
 45
0.0
 46
0.0
 47
0.0
 48
0.0
 49
0.0
140
0.0
141
0.0
142
1.0
143
1.0
 70
   688
 72
     0
 73
     0
 74
     5
  7

 75
    16
147
1.0
 76
     0
 77
     2
 78
   300
148
0.0
149
0.0
100
AcDbLayout
  1
Layout2
 70
     1
 71
     2
 10
0.0
 20
0.0
 11
12.0
 21
9.0
 12
0.0
 22
0.0
 32
0.0
 14
0.0
 24
0.0
 34
0.0
 15
0.0
 25
0.0
 35
0.0
146
0.0
 13
0.0
 23
0.0
 33
0.0
 16
1.0
 26
0.0
 36
0.0
 17
0.0
 27
1.0
 37
0.0
 76
     0
330
5D
  0
LAYOUT
  5
22
102
{ACAD_XDICTIONARY
360
194
102
}
102
{ACAD_REACTORS
330
1A
102
}
330
1A
100
AcDbPlotSettings
  1

  2
none_device
  4
ANSI_A_(8.50_x_11.00_Inches)
  6

 40
6.349999904632568
 41
19.04999923706055
 42
6.350006103515625
 43
19.04998779296875
 44
215.8999938964844
 45
279.3999938964844
 46
0.0
 47
0.0
 48
0.0
 49
0.0
140
0.0
141
0.0
142
1.0
143
2.584895464708373
 70
 11952
 72
     0
 73
     1
 74
     0
  7

 75
     0
147
0.3868628397755418
 76
     0
 77
     2
 78
   300
148
0.0
149
0.0
100
AcDbLayout
  1
Model
 70
     1
 71
     0
 10
0.0
 20
0.0
 11
12.0
 21
9.0
 12
0.0
 22
0.0
 32
0.0
 14
0.0
 24
0.0
 34
0.0
 15
0.0
 25
0.0
 35
0.0
146
0.0
 13
0.0
 23
0.0
 33
0.0
 16
1.0
 26
0.0
 36
0.0
 17
0.0
 27
1.0
 37
0.0
 76
     0
330
1F
331
94
  0
MATERIAL
  5
97
102
{ACAD_XDICTIONARY
360
188
102
}
102
{ACAD_REACTORS
330
72
102
}
330
72
100
AcDbMaterial
  1
ByBlock
 94
       63
  0
MATERIAL
  5
96
102
{ACAD_XDICTIONARY
360
186
102
}
102
{ACAD_REACTORS
330
72
102
}
330
72
100
AcDbMaterial
  1
ByLayer
 94
       63
  0
MATERIAL
  5
98
102
{ACAD_XDICTIONARY
360
110
102
}
102
{ACAD_REACTORS
330
72
102
}
330
72
100
AcDbMaterial
  1
Global
 43
0.0208000000566244
 43
0.0
 43
0.0
 43
0.0
 43
0.0
 43
0.0208000000566244
 43
0.0
 43
0.0
 43
0.0
 43
0.0
 43
1.0
 43
0.0
 43
0.0
 43
0.0
 43
0.0
 43
1.0
 49
0.0208000000566244
 49
0.0
 49
0.0
 49
0.0
 49
0.0
 49
0.0208000000566244
 49
0.0
 49
0.0
 49
0.0
 49
0.0
 49
1.0
 49
0.0
 49
0.0
 49
0.0
 49
0.0
 49
1.0
142
0.0208000000566244
142
0.0
142
0.0
142
0.0
142
0.0
142
0.0208000000566244
142
0.0
142
0.0
142
0.0
142
0.0
142
1.0
142
0.0
142
0.0
142
0.0
142
0.0
142
1.0
144
0.0208000000566244
144
0.0
144
0.0
144
0.0
144
0.0
144
0.0208000000566244
144
0.0
144
0.0
144
0.0
144
0.0
144
1.0
144
0.0
144
0.0
144
0.0
144
0.0
144
1.0
 94
       63
1001
ACAD
1070
    -1
1070
     3
1070
     0
1000

1071
        0
1070
     0
  0
MLEADERSTYLE
  5
D8
102
{ACAD_REACTORS
330
D7
102
}
330
D7
100
AcDbMLeaderStyle
179
     2
170
     2
171
     1
172
     0
 90
        2
 40
0.0
 41
0.0
173
     1
 91
-1056964608
340
14
 92
       -2
290
     1
 42
0.09
291
     1
 43
0.36
  3
Standard
 44
0.18
300

342
11
174
     1
178
     1
175
     1
176
     0
 93
-1056964608
 45
0.18
292
     0
297
     0
 46
0.18
 94
-1056964608
 47
1.0
 49
1.0
140
1.0
293
     1
141
0.0
294
     1
177
     0
142
1.0
295
     0
296
     0
143
0.125
271
     0
272
     9
273
     9
298
     0
  0
MLINESTYLE
  5
18
102
{ACAD_REACTORS
330
17
102
}
330
17
100
AcDbMlineStyle
  2
STANDARD
 70
     0
  3

 62
   256
 51
90.0
 52
90.0
 71
     2
 49
0.5
 62
   256
  6
BYLAYER
 49
-0.5
 62
   256
  6
BYLAYER
  0
ACDBPLACEHOLDER
  5
F
102
{ACAD_REACTORS
330
E
102
}
330
E
  0
SCALE
  5
2283
102
{ACAD_REACTORS
330
B6
102
}
330
B6
100
AcDbScale
 70
     0
300
1:75
140
1.0
141
75.0
290
     0
  0
SCALE
  5
B7
102
{ACAD_REACTORS
330
B6
102
}
330
B6
100
AcDbScale
 70
     0
300
1:1
140
1.0
141
1.0
290
     1
  0
SCALE
  5
124
102
{ACAD_REACTORS
330
B6
102
}
330
B6
100
AcDbScale
 70
     0
300
1:2
140
1.0
141
2.0
290
     0
  0
SCALE
  5
125
102
{ACAD_REACTORS
330
B6
102
}
330
B6
100
AcDbScale
 70
     0
300
1:4
140
1.0
141
4.0
290
     0
  0
SCALE
  5
126
102
{ACAD_REACTORS
330
B6
102
}
330
B6
100
AcDbScale
 70
     0
300
1:5
140
1.0
141
5.0
290
     0
  0
SCALE
  5
127
102
{ACAD_REACTORS
330
B6
102
}
330
B6
100
AcDbScale
 70
     0
300
1:8
140
1.0
141
8.0
290
     0
  0
SCALE
  5
128
102
{ACAD_REACTORS
330
B6
102
}
330
B6
100
AcDbScale
 70
     0
300
1:10
140
1.0
141
10.0
290
     0
  0
SCALE
  5
129
102
{ACAD_REACTORS
330
B6
102
}
330
B6
100
AcDbScale
 70
     0
300
1:16
140
1.0
141
16.0
290
     0
  0
SCALE
  5
12A
102
{ACAD_REACTORS
330
B6
102
}
330
B6
100
AcDbScale
 70
     0
300
1:20
140
1.0
141
20.0
290
     0
  0
SCALE
  5
12B
102
{ACAD_REACTORS
330
B6
102
}
330
B6
100
AcDbScale
 70
     0
300
1:30
140
1.0
141
30.0
290
     0
  0
SCALE
  5
12C
102
{ACAD_REACTORS
330
B6
102
}
330
B6
100
AcDbScale
 70
     0
300
1:40
140
1.0
141
40.0
290
     0
  0
SCALE
  5
12D
102
{ACAD_REACTORS
330
B6
102
}
330
B6
100
AcDbScale
 70
     0
300
1:50
140
1.0
141
50.0
290
     0
  0
SCALE
  5
12E
102
{ACAD_REACTORS
330
B6
102
}
330
B6
100
AcDbScale
 70
     0
300
1:100
140
1.0
141
100.0
290
     0
  0
SCALE
  5
12F
102
{ACAD_REACTORS
330
B6
102
}
330
B6
100
AcDbScale
 70
     0
300
2:1
140
2.0
141
1.0
290
     0
  0
SCALE
  5
130
102
{ACAD_REACTORS
330
B6
102
}
330
B6
100
AcDbScale
 70
     0
300
4:1
140
4.0
141
1.0
290
     0
  0
SCALE
  5
131
102
{ACAD_REACTORS
330
B6
102
}
330
B6
100
AcDbScale
 70
     0
300
8:1
140
8.0
141
1.0
290
     0
  0
SCALE
  5
132
102
{ACAD_REACTORS
330
B6
102
}
330
B6
100
AcDbScale
 70
     0
300
10:1
140
10.0
141
1.0
290
     0
  0
SCALE
  5
133
102
{ACAD_REACTORS
330
B6
102
}
330
B6
100
AcDbScale
 70
     0
300
100:1
140
100.0
141
1.0
290
     0
  0
SCALE
  5
134
102
{ACAD_REACTORS
330
B6
102
}
330
B6
100
AcDbScale
 70
     0
300
1/128" = 1'-0"
140
0.0078125
141
12.0
290
     0
  0
SCALE
  5
135
102
{ACAD_REACTORS
330
B6
102
}
330
B6
100
AcDbScale
 70
     0
300
1/64" = 1'-0"
140
0.015625
141
12.0
290
     0
  0
SCALE
  5
136
102
{ACAD_REACTORS
330
B6
102
}
330
B6
100
AcDbScale
 70
     0
300
1/32" = 1'-0"
140
0.03125
141
12.0
290
     0
  0
SCALE
  5
137
102
{ACAD_REACTORS
330
B6
102
}
330
B6
100
AcDbScale
 70
     0
300
1/16" = 1'-0"
140
0.0625
141
12.0
290
     0
  0
SCALE
  5
138
102
{ACAD_REACTORS
330
B6
102
}
330
B6
100
AcDbScale
 70
     0
300
3/32" = 1'-0"
140
0.09375
141
12.0
290
     0
  0
SCALE
  5
139
102
{ACAD_REACTORS
330
B6
102
}
330
B6
100
AcDbScale
 70
     0
300
1/8" = 1'-0"
140
0.125
141
12.0
290
     0
  0
SCALE
  5
13A
102
{ACAD_REACTORS
330
B6
102
}
330
B6
100
AcDbScale
 70
     0
300
3/16" = 1'-0"
140
0.1875
141
12.0
290
     0
  0
SCALE
  5
13B
102
{ACAD_REACTORS
330
B6
102
}
330
B6
100
AcDbScale
 70
     0
300
1/4" = 1'-0"
140
0.25
141
12.0
290
     0
  0
SCALE
  5
13C
102
{ACAD_REACTORS
330
B6
102
}
330
B6
100
AcDbScale
 70
     0
300
3/8" = 1'-0"
140
0.375
141
12.0
290
     0
  0
SCALE
  5
13D
102
{ACAD_REACTORS
330
B6
102
}
330
B6
100
AcDbScale
 70
     0
300
1/2" = 1'-0"
140
0.5
141
12.0
290
     0
  0
SCALE
  5
13E
102
{ACAD_REACTORS
330
B6
102
}
330
B6
100
AcDbScale
 70
     0
300
3/4" = 1'-0"
140
0.75
141
12.0
290
     0
  0
SCALE
  5
13F
102
{ACAD_REACTORS
330
B6
102
}
330
B6
100
AcDbScale
 70
     0
300
1" = 1'-0"
140
1.0
141
12.0
290
     0
  0
SCALE
  5
140
102
{ACAD_REACTORS
330
B6
102
}
330
B6
100
AcDbScale
 70
     0
300
1-1/2" = 1'-0"
140
1.5
141
12.0
290
     0
  0
SCALE
  5
141
102
{ACAD_REACTORS
330
B6
102
}
330
B6
100
AcDbScale
 70
     0
300
3" = 1'-0"
140
3.0
141
12.0
290
     0
  0
SCALE
  5
142
102
{ACAD_REACTORS
330
B6
102
}
330
B6
100
AcDbScale
 70
     0
300
6" = 1'-0"
140
6.0
141
12.0
290
     0
  0
SCALE
  5
143
102
{ACAD_REACTORS
330
B6
102
}
330
B6
100
AcDbScale
 70
     0
300
1'-0" = 1'-0"
140
12.0
141
12.0
290
     0
  0
ACDBSECTIONVIEWSTYLE
  5
1AA
102
{ACAD_REACTORS
330
1A8
102
}
330
1A8
100
AcDbModelDocViewStyle
 70
     0
  3
Imperial24
290
     0
300
Imperial24
 90
        0
100
AcDbSectionViewStyle
 70
     0
 71
     0
 90
       78
 71
     1
340
11
 62
   256
 40
0.24
340
0
340
0
 62
   256
 40
0.24
300
I, O, Q, S, X, Z
 40
0.48
 90
        3
 40
0.18
 90
        1
 71
     2
340
16
 90
       25
 62
   256
340
16
 90
       50
 62
   256
 40
0.24
 40
0.0
 40
0.24
 71
     3
340
11
 62
   256
 40
0.24
 90
        1
 40
0.75
 90
        1
300
%<\AcVar ViewType \f "%tc1">% %<\AcVar ViewSectionStartId>%-%<\AcVar ViewSectionEndId>%\PSCALE %<\AcVar ViewScale \f "%sn">%
 71
     4
 62
   256
 62
   257
300
ANSI31
 40
1.0
 90
        0
290
     0
290
     0
 90
        6
 40
0.0
 40
1.570796326794896
 40
0.2617993877991494
 40
1.308996938995747
 40
-0.2617993877991494
 40
1.832595714594046
  0
ACDBSECTIONVIEWSTYLE
  5
223
102
{ACAD_REACTORS
330
1A8
102
}
330
1A8
100
AcDbModelDocViewStyle
 70
     0
  3
Metric50
290
     0
300
Metric50
 90
        0
100
AcDbSectionViewStyle
 70
     0
 71
     0
 90
      102
 71
     1
340
11
 62
   256
 40
5.0
340
0
340
0
 62
   256
 40
5.0
300
I, O, Q, S, X, Z
 40
10.0
 90
        0
 40
2.5
 90
        0
 71
     2
340
16
 90
       25
 62
   256
340
16
 90
       50
 62
   256
 40
5.0
 40
2.5
 40
5.0
 71
     3
340
11
 62
   256
 40
5.0
 90
        0
 40
15.0
 90
        1
300
%<\AcVar ViewSectionStartId>%-%<\AcVar ViewSectionEndId>% (%<\AcVar ViewScale \f "%sn">%)
 71
     4
 62
   256
 62
   257
300
ANSI31
 40
1.0
 90
        0
290
     0
290
     0
 90
        6
 40
0.0
 40
1.570796326794896
 40
0.2617993877991494
 40
1.308996938995747
 40
-0.2617993877991494
 40
1.832595714594046
  0
TABLESTYLE
  5
87
102
{ACAD_XDICTIONARY
360
104
102
}
102
{ACAD_REACTORS
330
86
102
}
330
86
100
AcDbTableStyle
280
     0
  3
Standard
 70
     0
 71
     0
 40
0.06
 41
0.06
280
     0
281
     0
  7
Standard
140
0.18
170
     2
 62
     0
 63
     7
283
     0
 90
      512
 91
        0
  1

274
    -2
284
     1
 64
     0
275
    -2
285
     1
 65
     0
276
    -2
286
     1
 66
     0
277
    -2
287
     1
 67
     0
278
    -2
288
     1
 68
     0
279
    -2
289
     1
 69
     0
  7
Standard
140
0.25
170
     5
 62
     0
 63
     7
283
     0
 90
      512
 91
        0
  1

274
    -2
284
     1
 64
     0
275
    -2
285
     1
 65
     0
276
    -2
286
     1
 66
     0
277
    -2
287
     1
 67
     0
278
    -2
288
     1
 68
     0
279
    -2
289
     1
 69
     0
  7
Standard
140
0.18
170
     5
 62
     0
 63
     7
283
     0
 90
      512
 91
        0
  1

274
    -2
284
     1
 64
     0
275
    -2
285
     1
 65
     0
276
    -2
286
     1
 66
     0
277
    -2
287
     1
 67
     0
278
    -2
288
     1
 68
     0
279
    -2
289
     1
 69
     0
  0
VISUALSTYLE
  5
9F
102
{ACAD_REACTORS
330
99
102
}
330
99
100
AcDbVisualStyle
  2
2dWireframe
 70
     4
177
     3
291
     0
 70
    58
 90
        0
176
     1
 90
        2
176
     1
 90
        1
176
     1
 90
        0
176
     1
 40
0.6
176
     1
 40
30.0
176
     1
 62
     7
420
 16777215
176
     1
 90
        1
176
     1
 90
        4
176
     1
 62
     7
176
     1
 62
   257
176
     1
 90
        1
176
     1
 90
        1
176
     1
 40
1.0
176
     1
 90
        0
176
     1
 62
   257
176
     1
 40
1.0
176
     1
 90
        1
176
     1
 90
        6
176
     1
 90
        2
176
     1
 62
     7
176
     1
 90
        5
176
     1
 90
        0
176
     1
 90
        0
176
     1
290
     0
176
     1
 90
        1
176
     1
 40
0.0
176
     1
 90
        0
176
     1
290
     1
176
     1
290
     1
176
     1
290
     0
176
     1
290
     0
176
     1
290
     0
176
     1
290
     0
176
     1
290
     0
176
     1
290
     0
176
     1
290
     0
176
     1
 90
       50
176
     1
 40
0.0
176
     1
 40
1.0
176
     1
 90
        0
176
     1
 62
    18
420
        0
176
     1
 90
       50
176
     1
 90
        3
176
     1
 62
     5
420
      255
176
     1
290
     0
176
     1
 90
       50
176
     1
 90
       50
176
     1
 90
       50
176
     1
290
     0
176
     1
 90
       50
176
     1
 62
   256
176
     0
 40
1.0
176
     0
 90
        2
176
     1
  1
strokes_ogs.tif
176
     1
290
     0
176
     1
 40
1.0
176
     1
 40
1.0
176
     1
  0
VISUALSTYLE
  5
22946
102
{ACAD_REACTORS
330
99
102
}
330
99
100
AcDbVisualStyle
  2
3dWireframe
 70
     5
177
     3
291
     0
 70
    58
 90
        0
176
     1
 90
        2
176
     1
 90
        0
176
     1
 90
        0
176
     1
 40
0.6
176
     1
 40
30.0
176
     1
 62
     7
176
     1
 90
        1
176
     1
 90
        4
176
     1
 62
     7
176
     1
 62
   257
176
     1
 90
        1
176
     1
 90
        1
176
     1
 40
1.0
176
     1
 90
        0
176
     1
 62
   257
176
     1
 40
1.0
176
     1
 90
        1
176
     1
 90
        6
176
     1
 90
        2
176
     1
 62
     7
176
     1
 90
        5
176
     1
 90
        0
176
     1
 90
        0
176
     1
290
     0
176
     1
 90
        1
176
     1
 40
0.0
176
     1
 90
        0
176
     1
290
     0
176
     1
290
     1
176
     1
290
     1
176
     1
290
     0
176
     1
290
     0
176
     1
290
     0
176
     1
290
     0
176
     1
290
     0
176
     1
290
     0
176
     1
 90
       50
176
     1
 40
0.0
176
     1
 40
1.0
176
     1
 90
        0
176
     1
 62
    18
420
        0
176
     1
 90
       50
176
     1
 90
        3
176
     1
 62
     5
420
      255
176
     1
290
     0
176
     1
 90
       50
176
     1
 90
       50
176
     1
 90
       50
176
     1
290
     0
176
     1
 90
       50
176
     1
 62
   256
176
     0
 40
1.0
176
     0
 90
        2
176
     1
  1
strokes_ogs.tif
176
     1
290
     0
176
     1
 40
1.0
176
     1
 40
1.0
176
     1
  0
VISUALSTYLE
  5
9E
102
{ACAD_REACTORS
330
99
102
}
330
99
100
AcDbVisualStyle
  2
Basic
 70
     7
177
     3
291
     1
 70
    58
 90
        1
176
     1
 90
        0
176
     1
 90
        1
176
     1
 90
        0
176
     1
 40
0.6
176
     1
 40
30.0
176
     1
 62
     7
420
 16777215
176
     1
 90
        0
176
     1
 90
        4
176
     1
 62
     7
176
     1
 62
   257
176
     1
 90
        1
176
     1
 90
        1
176
     1
 40
1.0
176
     1
 90
        8
176
     1
 62
     7
176
     1
 40
1.0
176
     1
 90
        1
176
     1
 90
        6
176
     1
 90
        2
176
     1
 62
     7
176
     1
 90
        5
176
     1
 90
        0
176
     1
 90
        0
176
     1
290
     0
176
     1
 90
        1
176
     1
 40
0.0
176
     1
 90
        0
176
     1
290
     0
176
     1
290
     1
176
     1
290
     1
176
     1
290
     0
176
     1
290
     0
176
     1
290
     0
176
     1
290
     0
176
     1
290
     0
176
     1
290
     0
176
     1
 90
       50
176
     1
 40
0.0
176
     1
 40
1.0
176
     1
 90
        0
176
     1
 62
    18
420
        0
176
     1
 90
       50
176
     1
 90
        3
176
     1
 62
     5
420
      255
176
     1
290
     0
176
     1
 90
       50
176
     1
 90
       50
176
     1
 90
       50
176
     1
290
     0
176
     1
 90
       50
176
     1
 62
   256
176
     0
 40
1.0
176
     0
 90
        2
176
     1
  1
strokes_ogs.tif
176
     1
290
     0
176
     1
 40
1.0
176
     1
 40
1.0
176
     1
  0
VISUALSTYLE
  5
A5
102
{ACAD_REACTORS
330
99
102
}
330
99
100
AcDbVisualStyle
  2
Brighten
 70
    12
177
     3
291
     1
 70
    58
 90
        2
176
     1
 90
        2
176
     1
 90
        1
176
     1
 90
        0
176
     1
 40
0.6
176
     1
 40
30.0
176
     1
 62
     7
420
 16777215
176
     1
 90
        1
176
     1
 90
        4
176
     1
 62
     7
176
     1
 62
   257
176
     1
 90
        1
176
     1
 90
        1
176
     1
 40
1.0
176
     1
 90
        8
176
     1
 62
     7
176
     1
 40
1.0
176
     1
 90
        1
176
     1
 90
        6
176
     1
 90
        2
176
     1
 62
     7
176
     1
 90
        5
176
     1
 90
        0
176
     1
 90
        0
176
     1
290
     0
176
     1
 90
        1
176
     1
 40
50.0
176
     1
 90
        0
176
     1
290
     0
176
     1
290
     1
176
     1
290
     1
176
     1
290
     0
176
     1
290
     0
176
     1
290
     0
176
     1
290
     0
176
     1
290
     0
176
     1
290
     0
176
     1
 90
       50
176
     1
 40
0.0
176
     1
 40
1.0
176
     1
 90
        0
176
     1
 62
    18
420
        0
176
     1
 90
       50
176
     1
 90
        3
176
     1
 62
     5
420
      255
176
     1
290
     0
176
     1
 90
       50
176
     1
 90
       50
176
     1
 90
       50
176
     1
290
     0
176
     1
 90
       50
176
     1
 62
   256
176
     0
 40
1.0
176
     0
 90
        2
176
     1
  1
strokes_ogs.tif
176
     1
290
     0
176
     1
 40
1.0
176
     1
 40
1.0
176
     1
  0
VISUALSTYLE
  5
A9
102
{ACAD_REACTORS
330
99
102
}
330
99
100
AcDbVisualStyle
  2
ColorChange
 70
    16
177
     3
291
     1
 70
    58
 90
        2
176
     1
 90
        2
176
     1
 90
        3
176
     1
 90
        0
176
     1
 40
0.6
176
     1
 40
30.0
176
     1
 62
     8
420
  8421504
176
     1
 90
        1
176
     1
 90
        4
176
     1
 62
     7
176
     1
 62
   257
176
     1
 90
        1
176
     1
 90
        1
176
     1
 40
1.0
176
     1
 90
        8
176
     1
 62
     8
420
  8421504
176
     1
 40
1.0
176
     1
 90
        1
176
     1
 90
        6
176
     1
 90
        2
176
     1
 62
     7
176
     1
 90
        5
176
     1
 90
        0
176
     1
 90
        0
176
     1
290
     0
176
     1
 90
        1
176
     1
 40
0.0
176
     1
 90
        0
176
     1
290
     0
176
     1
290
     1
176
     1
290
     1
176
     1
290
     0
176
     1
290
     0
176
     1
290
     0
176
     1
290
     0
176
     1
290
     0
176
     1
290
     0
176
     1
 90
       50
176
     1
 40
0.0
176
     1
 40
1.0
176
     1
 90
        0
176
     1
 62
    18
420
        0
176
     1
 90
       50
176
     1
 90
        3
176
     1
 62
     5
420
      255
176
     1
290
     0
176
     1
 90
       50
176
     1
 90
       50
176
     1
 90
       50
176
     1
290
     0
176
     1
 90
       50
176
     1
 62
   256
176
     0
 40
1.0
176
     0
 90
        2
176
     1
  1
strokes_ogs.tif
176
     1
290
     0
176
     1
 40
1.0
176
     1
 40
1.0
176
     1
  0
VISUALSTYLE
  5
A2
102
{ACAD_REACTORS
330
99
102
}
330
99
100
AcDbVisualStyle
  2
Conceptual
 70
     9
177
     3
291
     0
 70
    58
 90
        3
176
     1
 90
        2
176
     1
 90
        1
176
     1
 90
        0
176
     1
 40
0.6
176
     1
 40
30.0
176
     1
 62
     7
420
 16777215
176
     1
 90
        2
176
     1
 90
        2
176
     1
 62
     7
176
     1
 62
   257
176
     1
 90
        1
176
     1
 90
        1
176
     1
 40
40.0
176
     1
 90
        8
176
     1
 62
     7
176
     1
 40
1.0
176
     1
 90
        1
176
     1
 90
        6
176
     1
 90
        2
176
     1
 62
     7
176
     1
 90
        3
176
     1
 90
        0
176
     1
 90
        0
176
     1
290
     0
176
     1
 90
        1
176
     1
 40
0.0
176
     1
 90
        0
176
     1
290
     0
176
     1
290
     1
176
     1
290
     1
176
     1
290
     0
176
     1
290
     0
176
     1
290
     0
176
     1
290
     0
176
     1
290
     0
176
     1
290
     0
176
     1
 90
       50
176
     1
 40
0.0
176
     1
 40
1.0
176
     1
 90
        0
176
     1
 62
    18
420
        0
176
     1
 90
       50
176
     1
 90
        3
176
     1
 62
     5
420
      255
176
     1
290
     0
176
     1
 90
       50
176
     1
 90
       50
176
     1
 90
       50
176
     1
290
     0
176
     1
 90
       50
176
     1
 62
   256
176
     0
 40
1.0
176
     0
 90
        2
176
     1
  1
strokes_ogs.tif
176
     1
290
     0
176
     1
 40
1.0
176
     1
 40
1.0
176
     1
  0
VISUALSTYLE
  5
A4
102
{ACAD_REACTORS
330
99
102
}
330
99
100
AcDbVisualStyle
  2
Dim
 70
    11
177
     3
291
     1
 70
    58
 90
        2
176
     1
 90
        2
176
     1
 90
        1
176
     1
 90
        0
176
     1
 40
0.6
176
     1
 40
30.0
176
     1
 62
     7
420
 16777215
176
     1
 90
        1
176
     1
 90
        4
176
     1
 62
     7
176
     1
 62
   257
176
     1
 90
        1
176
     1
 90
        1
176
     1
 40
1.0
176
     1
 90
        8
176
     1
 62
     7
176
     1
 40
1.0
176
     1
 90
        1
176
     1
 90
        6
176
     1
 90
        2
176
     1
 62
     7
176
     1
 90
        5
176
     1
 90
        0
176
     1
 90
        0
176
     1
290
     0
176
     1
 90
        1
176
     1
 40
-50.0
176
     1
 90
        0
176
     1
290
     0
176
     1
290
     1
176
     1
290
     1
176
     1
290
     0
176
     1
290
     0
176
     1
290
     0
176
     1
290
     0
176
     1
290
     0
176
     1
290
     0
176
     1
 90
       50
176
     1
 40
0.0
176
     1
 40
1.0
176
     1
 90
        0
176
     1
 62
    18
420
        0
176
     1
 90
       50
176
     1
 90
        3
176
     1
 62
     5
420
      255
176
     1
290
     0
176
     1
 90
       50
176
     1
 90
       50
176
     1
 90
       50
176
     1
290
     0
176
     1
 90
       50
176
     1
 62
   256
176
     0
 40
1.0
176
     0
 90
        2
176
     1
  1
strokes_ogs.tif
176
     1
290
     0
176
     1
 40
1.0
176
     1
 40
1.0
176
     1
  0
VISUALSTYLE
  5
175
102
{ACAD_REACTORS
330
99
102
}
330
99
100
AcDbVisualStyle
  2
EdgeColorOff
 70
    22
177
     3
291
     1
 70
    58
 90
        2
176
     0
 90
        2
176
     0
 90
        0
176
     0
 90
        0
176
     0
 40
0.6
176
     0
 40
30.0
176
     0
 62
     7
420
 16777215
176
     0
 90
        1
176
     0
 90
        4
176
     0
 62
     7
176
     0
 62
   257
176
     0
 90
        1
176
     0
 90
        1
176
     0
 40
1.0
176
     0
 90
        8
176
     2
 62
     7
176
     0
 40
1.0
176
     0
 90
        1
176
     0
 90
        6
176
     0
 90
        2
176
     0
 62
     7
176
     0
 90
        5
176
     0
 90
        0
176
     0
 90
        0
176
     0
290
     0
176
     0
 90
        1
176
     0
 40
0.0
176
     0
 90
        0
176
     0
290
     0
176
     1
290
     1
176
     1
290
     1
176
     1
290
     0
176
     1
290
     0
176
     1
290
     0
176
     1
290
     0
176
     1
290
     0
176
     1
290
     0
176
     1
 90
       50
176
     1
 40
0.0
176
     1
 40
1.0
176
     1
 90
        0
176
     1
 62
    18
420
        0
176
     1
 90
       50
176
     1
 90
        3
176
     1
 62
     5
420
      255
176
     1
290
     0
176
     1
 90
       50
176
     1
 90
       50
176
     1
 90
       50
176
     1
290
     0
176
     1
 90
       50
176
     1
 62
   256
176
     0
 40
1.0
176
     0
 90
        2
176
     1
  1
strokes_ogs.tif
176
     1
290
     0
176
     1
 40
1.0
176
     1
 40
1.0
176
     1
  0
VISUALSTYLE
  5
A8
102
{ACAD_REACTORS
330
99
102
}
330
99
100
AcDbVisualStyle
  2
Facepattern
 70
    15
177
     3
291
     1
 70
    58
 90
        2
176
     1
 90
        2
176
     1
 90
        1
176
     1
 90
        0
176
     1
 40
0.6
176
     1
 40
30.0
176
     1
 62
     7
420
 16777215
176
     1
 90
        1
176
     1
 90
        4
176
     1
 62
     7
176
     1
 62
   257
176
     1
 90
        1
176
     1
 90
        1
176
     1
 40
1.0
176
     1
 90
        8
176
     1
 62
     7
176
     1
 40
1.0
176
     1
 90
        1
176
     1
 90
        6
176
     1
 90
        2
176
     1
 62
     7
176
     1
 90
        5
176
     1
 90
        0
176
     1
 90
        0
176
     1
290
     0
176
     1
 90
        1
176
     1
 40
0.0
176
     1
 90
        0
176
     1
290
     0
176
     1
290
     1
176
     1
290
     1
176
     1
290
     0
176
     1
290
     0
176
     1
290
     0
176
     1
290
     0
176
     1
290
     0
176
     1
290
     0
176
     1
 90
       50
176
     1
 40
0.0
176
     1
 40
1.0
176
     1
 90
        0
176
     1
 62
    18
420
        0
176
     1
 90
       50
176
     1
 90
        3
176
     1
 62
     5
420
      255
176
     1
290
     0
176
     1
 90
       50
176
     1
 90
       50
176
     1
 90
       50
176
     1
290
     0
176
     1
 90
       50
176
     1
 62
   256
176
     0
 40
1.0
176
     0
 90
        2
176
     1
  1
strokes_ogs.tif
176
     1
290
     0
176
     1
 40
1.0
176
     1
 40
1.0
176
     1
  0
VISUALSTYLE
  5
9A
102
{ACAD_REACTORS
330
99
102
}
330
99
100
AcDbVisualStyle
  2
Flat
 70
     0
177
     3
291
     1
 70
    58
 90
        2
176
     1
 90
        1
176
     1
 90
        1
176
     1
 90
        2
176
     1
 40
0.6
176
     1
 40
30.0
176
     1
 62
     7
420
 16777215
176
     1
 90
        0
176
     1
 90
        0
176
     1
 62
     7
176
     1
 62
   257
176
     1
 90
        1
176
     1
 90
        1
176
     1
 40
1.0
176
     1
 90
        8
176
     1
 62
     7
176
     1
 40
1.0
176
     1
 90
        1
176
     1
 90
        6
176
     1
 90
        2
176
     1
 62
     7
176
     1
 90
        5
176
     1
 90
        0
176
     1
 90
        0
176
     1
290
     0
176
     1
 90
       13
176
     1
 40
0.0
176
     1
 90
        0
176
     1
290
     0
176
     1
290
     1
176
     1
290
     1
176
     1
290
     0
176
     1
290
     0
176
     1
290
     0
176
     1
290
     0
176
     1
290
     0
176
     1
290
     0
176
     1
 90
       50
176
     1
 40
0.0
176
     1
 40
1.0
176
     1
 90
        0
176
     1
 62
    18
420
        0
176
     1
 90
       50
176
     1
 90
        3
176
     1
 62
     5
420
      255
176
     1
290
     0
176
     1
 90
       50
176
     1
 90
       50
176
     1
 90
       50
176
     1
290
     0
176
     1
 90
       50
176
     1
 62
   256
176
     0
 40
1.0
176
     0
 90
        2
176
     1
  1
strokes_ogs.tif
176
     1
290
     0
176
     1
 40
1.0
176
     1
 40
1.0
176
     1
  0
VISUALSTYLE
  5
9B
102
{ACAD_REACTORS
330
99
102
}
330
99
100
AcDbVisualStyle
  2
FlatWithEdges
 70
     1
177
     3
291
     1
 70
    58
 90
        2
176
     1
 90
        1
176
     1
 90
        1
176
     1
 90
        2
176
     1
 40
0.6
176
     1
 40
30.0
176
     1
 62
     7
420
 16777215
176
     1
 90
        1
176
     1
 90
        0
176
     1
 62
     7
176
     1
 62
   257
176
     1
 90
        1
176
     1
 90
        1
176
     1
 40
1.0
176
     1
 90
        0
176
     1
 62
   257
176
     1
 40
1.0
176
     1
 90
        1
176
     1
 90
        6
176
     1
 90
        2
176
     1
 62
     7
176
     1
 90
        5
176
     1
 90
        0
176
     1
 90
        0
176
     1
290
     0
176
     1
 90
       13
176
     1
 40
0.0
176
     1
 90
        0
176
     1
290
     0
176
     1
290
     1
176
     1
290
     1
176
     1
290
     0
176
     1
290
     0
176
     1
290
     0
176
     1
290
     0
176
     1
290
     0
176
     1
290
     0
176
     1
 90
       50
176
     1
 40
0.0
176
     1
 40
1.0
176
     1
 90
        0
176
     1
 62
    18
420
        0
176
     1
 90
       50
176
     1
 90
        3
176
     1
 62
     5
420
      255
176
     1
290
     0
176
     1
 90
       50
176
     1
 90
       50
176
     1
 90
       50
176
     1
290
     0
176
     1
 90
       50
176
     1
 62
   256
176
     0
 40
1.0
176
     0
 90
        2
176
     1
  1
strokes_ogs.tif
176
     1
290
     0
176
     1
 40
1.0
176
     1
 40
1.0
176
     1
  0
VISUALSTYLE
  5
9C
102
{ACAD_REACTORS
330
99
102
}
330
99
100
AcDbVisualStyle
  2
Gouraud
 70
     2
177
     3
291
     1
 70
    58
 90
        2
176
     1
 90
        2
176
     1
 90
        1
176
     1
 90
        2
176
     1
 40
0.6
176
     1
 40
30.0
176
     1
 62
     7
420
 16777215
176
     1
 90
        0
176
     1
 90
        0
176
     1
 62
     7
176
     1
 62
   257
176
     1
 90
        1
176
     1
 90
        1
176
     1
 40
1.0
176
     1
 90
        0
176
     1
 62
     7
176
     1
 40
1.0
176
     1
 90
        1
176
     1
 90
        6
176
     1
 90
        2
176
     1
 62
     7
176
     1
 90
        5
176
     1
 90
        0
176
     1
 90
        0
176
     1
290
     0
176
     1
 90
       13
176
     1
 40
0.0
176
     1
 90
        0
176
     1
290
     0
176
     1
290
     1
176
     1
290
     1
176
     1
290
     0
176
     1
290
     0
176
     1
290
     0
176
     1
290
     0
176
     1
290
     0
176
     1
290
     0
176
     1
 90
       50
176
     1
 40
0.0
176
     1
 40
1.0
176
     1
 90
        0
176
     1
 62
    18
420
        0
176
     1
 90
       50
176
     1
 90
        3
176
     1
 62
     5
420
      255
176
     1
290
     0
176
     1
 90
       50
176
     1
 90
       50
176
     1
 90
       50
176
     1
290
     0
176
     1
 90
       50
176
     1
 62
   256
176
     0
 40
1.0
176
     0
 90
        2
176
     1
  1
strokes_ogs.tif
176
     1
290
     0
176
     1
 40
1.0
176
     1
 40
1.0
176
     1
  0
VISUALSTYLE
  5
9D
102
{ACAD_REACTORS
330
99
102
}
330
99
100
AcDbVisualStyle
  2
GouraudWithEdges
 70
     3
177
     3
291
     1
 70
    58
 90
        2
176
     1
 90
        2
176
     1
 90
        1
176
     1
 90
        2
176
     1
 40
0.6
176
     1
 40
30.0
176
     1
 62
     7
420
 16777215
176
     1
 90
        1
176
     1
 90
        0
176
     1
 62
     7
176
     1
 62
   257
176
     1
 90
        1
176
     1
 90
        1
176
     1
 40
1.0
176
     1
 90
        0
176
     1
 62
   257
176
     1
 40
1.0
176
     1
 90
        1
176
     1
 90
        6
176
     1
 90
        2
176
     1
 62
     7
176
     1
 90
        5
176
     1
 90
        0
176
     1
 90
        0
176
     1
290
     0
176
     1
 90
       13
176
     1
 40
0.0
176
     1
 90
        0
176
     1
290
     0
176
     1
290
     1
176
     1
290
     1
176
     1
290
     0
176
     1
290
     0
176
     1
290
     0
176
     1
290
     0
176
     1
290
     0
176
     1
290
     0
176
     1
 90
       50
176
     1
 40
0.0
176
     1
 40
1.0
176
     1
 90
        0
176
     1
 62
    18
420
        0
176
     1
 90
       50
176
     1
 90
        3
176
     1
 62
     5
420
      255
176
     1
290
     0
176
     1
 90
       50
176
     1
 90
       50
176
     1
 90
       50
176
     1
290
     0
176
     1
 90
       50
176
     1
 62
   256
176
     0
 40
1.0
176
     0
 90
        2
176
     1
  1
strokes_ogs.tif
176
     1
290
     0
176
     1
 40
1.0
176
     1
 40
1.0
176
     1
  0
VISUALSTYLE
  5
A1
102
{ACAD_REACTORS
330
99
102
}
330
99
100
AcDbVisualStyle
  2
Hidden
 70
     6
177
     3
291
     0
 70
    58
 90
        1
176
     1
 90
        2
176
     1
 90
        2
176
     1
 90
        0
176
     1
 40
0.6
176
     1
 40
30.0
176
     1
 62
     7
420
 16777215
176
     1
 90
        2
176
     1
 90
        2
176
     1
 62
     7
176
     1
 62
   257
176
     1
 90
        2
176
     1
 90
        1
176
     1
 40
40.0
176
     1
 90
        0
176
     1
 62
   257
176
     1
 40
1.0
176
     1
 90
        1
176
     1
 90
        6
176
     1
 90
        2
176
     1
 62
     7
176
     1
 90
        3
176
     1
 90
        0
176
     1
 90
        0
176
     1
290
     0
176
     1
 90
        1
176
     1
 40
0.0
176
     1
 90
        0
176
     1
290
     0
176
     1
290
     1
176
     1
290
     1
176
     1
290
     0
176
     1
290
     0
176
     1
290
     0
176
     1
290
     0
176
     1
290
     0
176
     1
290
     0
176
     1
 90
       50
176
     1
 40
0.0
176
     1
 40
1.0
176
     1
 90
        0
176
     1
 62
    18
420
        0
176
     1
 90
       50
176
     1
 90
        3
176
     1
 62
     5
420
      255
176
     1
290
     0
176
     1
 90
       50
176
     1
 90
       50
176
     1
 90
       50
176
     1
290
     0
176
     1
 90
       50
176
     1
 62
   256
176
     0
 40
1.0
176
     0
 90
        2
176
     1
  1
strokes_ogs.tif
176
     1
290
     0
176
     1
 40
1.0
176
     1
 40
1.0
176
     1
  0
VISUALSTYLE
  5
173
102
{ACAD_REACTORS
330
99
102
}
330
99
100
AcDbVisualStyle
  2
JitterOff
 70
    20
177
     3
291
     1
 70
    58
 90
        2
176
     0
 90
        2
176
     0
 90
        0
176
     0
 90
        0
176
     0
 40
0.6
176
     0
 40
30.0
176
     0
 62
     7
420
 16777215
176
     0
 90
        1
176
     0
 90
        4
176
     0
 62
     7
176
     0
 62
   257
176
     0
 90
        1
176
     0
 90
        1
176
     0
 40
1.0
176
     0
 90
       10
176
     2
 62
     7
176
     0
 40
1.0
176
     0
 90
        1
176
     0
 90
        6
176
     0
 90
        2
176
     0
 62
     7
176
     0
 90
        5
176
     0
 90
        0
176
     0
 90
        0
176
     0
290
     0
176
     0
 90
        1
176
     0
 40
0.0
176
     0
 90
        0
176
     0
290
     0
176
     1
290
     1
176
     1
290
     1
176
     1
290
     0
176
     1
290
     0
176
     1
290
     0
176
     1
290
     0
176
     1
290
     0
176
     1
290
     0
176
     1
 90
       50
176
     1
 40
0.0
176
     1
 40
1.0
176
     1
 90
        0
176
     1
 62
    18
420
        0
176
     1
 90
       50
176
     1
 90
        3
176
     1
 62
     5
420
      255
176
     1
290
     0
176
     1
 90
       50
176
     1
 90
       50
176
     1
 90
       50
176
     1
290
     0
176
     1
 90
       50
176
     1
 62
   256
176
     0
 40
1.0
176
     0
 90
        2
176
     1
  1
strokes_ogs.tif
176
     1
290
     0
176
     1
 40
1.0
176
     1
 40
1.0
176
     1
  0
VISUALSTYLE
  5
A7
102
{ACAD_REACTORS
330
99
102
}
330
99
100
AcDbVisualStyle
  2
Linepattern
 70
    14
177
     3
291
     1
 70
    58
 90
        2
176
     1
 90
        2
176
     1
 90
        1
176
     1
 90
        0
176
     1
 40
0.6
176
     1
 40
30.0
176
     1
 62
     7
420
 16777215
176
     1
 90
        1
176
     1
 90
        4
176
     1
 62
     7
176
     1
 62
   257
176
     1
 90
        7
176
     1
 90
        7
176
     1
 40
1.0
176
     1
 90
        8
176
     1
 62
     7
176
     1
 40
1.0
176
     1
 90
        1
176
     1
 90
        6
176
     1
 90
        2
176
     1
 62
     7
176
     1
 90
        5
176
     1
 90
        0
176
     1
 90
        0
176
     1
290
     0
176
     1
 90
        1
176
     1
 40
0.0
176
     1
 90
        0
176
     1
290
     0
176
     1
290
     1
176
     1
290
     1
176
     1
290
     0
176
     1
290
     0
176
     1
290
     0
176
     1
290
     0
176
     1
290
     0
176
     1
290
     0
176
     1
 90
       50
176
     1
 40
0.0
176
     1
 40
1.0
176
     1
 90
        0
176
     1
 62
    18
420
        0
176
     1
 90
       50
176
     1
 90
        3
176
     1
 62
     5
420
      255
176
     1
290
     0
176
     1
 90
       50
176
     1
 90
       50
176
     1
 90
       50
176
     1
290
     0
176
     1
 90
       50
176
     1
 62
   256
176
     0
 40
1.0
176
     0
 90
        2
176
     1
  1
strokes_ogs.tif
176
     1
290
     0
176
     1
 40
1.0
176
     1
 40
1.0
176
     1
  0
VISUALSTYLE
  5
174
102
{ACAD_REACTORS
330
99
102
}
330
99
100
AcDbVisualStyle
  2
OverhangOff
 70
    21
177
     3
291
     1
 70
    58
 90
        2
176
     0
 90
        2
176
     0
 90
        0
176
     0
 90
        0
176
     0
 40
0.6
176
     0
 40
30.0
176
     0
 62
     7
420
 16777215
176
     0
 90
        1
176
     0
 90
        4
176
     0
 62
     7
176
     0
 62
   257
176
     0
 90
        1
176
     0
 90
        1
176
     0
 40
1.0
176
     0
 90
        9
176
     2
 62
     7
176
     0
 40
1.0
176
     0
 90
        1
176
     0
 90
        6
176
     0
 90
        2
176
     0
 62
     7
176
     0
 90
        5
176
     0
 90
        0
176
     0
 90
        0
176
     0
290
     0
176
     0
 90
        1
176
     0
 40
0.0
176
     0
 90
        0
176
     0
290
     0
176
     1
290
     1
176
     1
290
     1
176
     1
290
     0
176
     1
290
     0
176
     1
290
     0
176
     1
290
     0
176
     1
290
     0
176
     1
290
     0
176
     1
 90
       50
176
     1
 40
0.0
176
     1
 40
1.0
176
     1
 90
        0
176
     1
 62
    18
420
        0
176
     1
 90
       50
176
     1
 90
        3
176
     1
 62
     5
420
      255
176
     1
290
     0
176
     1
 90
       50
176
     1
 90
       50
176
     1
 90
       50
176
     1
290
     0
176
     1
 90
       50
176
     1
 62
   256
176
     0
 40
1.0
176
     0
 90
        2
176
     1
  1
strokes_ogs.tif
176
     1
290
     0
176
     1
 40
1.0
176
     1
 40
1.0
176
     1
  0
VISUALSTYLE
  5
A3
102
{ACAD_REACTORS
330
99
102
}
330
99
100
AcDbVisualStyle
  2
Realistic
 70
     8
177
     3
291
     0
 70
    58
 90
        2
176
     1
 90
        2
176
     1
 90
        0
176
     1
 90
        2
176
     1
 40
0.6
176
     1
 40
30.0
176
     1
 62
     7
420
 16777215
176
     1
 90
        0
176
     1
 90
        0
176
     1
 62
     7
176
     1
 62
   257
176
     1
 90
        1
176
     1
 90
        1
176
     1
 40
1.0
176
     1
 90
        8
176
     1
 62
   257
176
     1
 40
1.0
176
     1
 90
        1
176
     1
 90
        6
176
     1
 90
        2
176
     1
 62
     7
176
     1
 90
        3
176
     1
 90
        0
176
     1
 90
        0
176
     1
290
     0
176
     1
 90
       13
176
     1
 40
0.0
176
     1
 90
        0
176
     1
290
     0
176
     1
290
     1
176
     1
290
     1
176
     1
290
     0
176
     1
290
     0
176
     1
290
     0
176
     1
290
     0
176
     1
290
     0
176
     1
290
     0
176
     1
 90
       50
176
     1
 40
0.0
176
     1
 40
1.0
176
     1
 90
        0
176
     1
 62
    18
420
        0
176
     1
 90
       50
176
     1
 90
        3
176
     1
 62
     5
420
      255
176
     1
290
     0
176
     1
 90
       50
176
     1
 90
       50
176
     1
 90
       50
176
     1
290
     0
176
     1
 90
       50
176
     1
 62
   256
176
     0
 40
1.0
176
     0
 90
        2
176
     1
  1
strokes_ogs.tif
176
     1
290
     0
176
     1
 40
1.0
176
     1
 40
1.0
176
     1
  0
VISUALSTYLE
  5
182
102
{ACAD_REACTORS
330
99
102
}
330
99
100
AcDbVisualStyle
  2
Shaded
 70
    27
177
     3
291
     0
 70
    58
 90
        2
176
     1
 90
        2
176
     1
 90
        1
176
     1
 90
        2
176
     1
 40
0.6
176
     1
 40
30.0
176
     1
 62
     7
420
 16777215
176
     1
 90
        0
176
     1
 90
        4
176
     1
 62
     7
176
     1
 62
   257
176
     1
 90
        1
176
     1
 90
        1
176
     1
 40
1.0
176
     1
 90
        8
176
     1
 62
   257
176
     1
 40
1.0
176
     1
 90
        1
176
     1
 90
        6
176
     1
 90
        2
176
     1
 62
     8
420
  7895160
176
     1
 90
        3
176
     1
 90
        0
176
     1
 90
        0
176
     1
290
     0
176
     1
 90
        5
176
     1
 40
0.0
176
     1
 90
        0
176
     1
290
     0
176
     1
290
     1
176
     1
290
     1
176
     1
290
     0
176
     1
290
     0
176
     1
290
     0
176
     1
290
     0
176
     1
290
     0
176
     1
290
     0
176
     1
 90
       50
176
     1
 40
0.0
176
     1
 40
1.0
176
     1
 90
        0
176
     1
 62
    18
420
        0
176
     1
 90
       50
176
     1
 90
        3
176
     1
 62
     5
420
      255
176
     1
290
     0
176
     1
 90
       50
176
     1
 90
       50
176
     1
 90
       50
176
     1
290
     0
176
     1
 90
       50
176
     1
 62
   256
176
     0
 40
1.0
176
     0
 90
        2
176
     1
  1
strokes_ogs.tif
176
     1
290
     0
176
     1
 40
1.0
176
     1
 40
1.0
176
     1
  0
VISUALSTYLE
  5
181
102
{ACAD_REACTORS
330
99
102
}
330
99
100
AcDbVisualStyle
  2
Shaded with edges
 70
    26
177
     3
291
     0
 70
    58
 90
        2
176
     1
 90
        2
176
     1
 90
        1
176
     1
 90
        2
176
     1
 40
0.6
176
     1
 40
30.0
176
     1
 62
     7
420
 16777215
176
     1
 90
        1
176
     1
 90
        2
176
     1
 62
     7
176
     1
 62
   257
176
     1
 90
        2
176
     1
 90
        1
176
     1
 40
1.0
176
     1
 90
        8
176
     1
 62
   257
176
     1
 40
1.0
176
     1
 90
        1
176
     1
 90
        6
176
     1
 90
        2
176
     1
 62
     7
176
     1
 90
        3
176
     1
 90
        0
176
     1
 90
        0
176
     1
290
     0
176
     1
 90
        5
176
     1
 40
0.0
176
     1
 90
        0
176
     1
290
     0
176
     1
290
     1
176
     1
290
     1
176
     1
290
     0
176
     1
290
     0
176
     1
290
     0
176
     1
290
     0
176
     1
290
     0
176
     1
290
     0
176
     1
 90
       50
176
     1
 40
0.0
176
     1
 40
1.0
176
     1
 90
        0
176
     1
 62
    18
420
        0
176
     1
 90
       50
176
     1
 90
        3
176
     1
 62
     5
420
      255
176
     1
290
     0
176
     1
 90
       50
176
     1
 90
       50
176
     1
 90
       50
176
     1
290
     0
176
     1
 90
       50
176
     1
 62
   256
176
     0
 40
1.0
176
     0
 90
        2
176
     1
  1
strokes_ogs.tif
176
     1
290
     0
176
     1
 40
1.0
176
     1
 40
1.0
176
     1
  0
VISUALSTYLE
  5
17E
102
{ACAD_REACTORS
330
99
102
}
330
99
100
AcDbVisualStyle
  2
Shades of Gray
 70
    23
177
     3
291
     0
 70
    58
 90
        2
176
     1
 90
        2
176
     1
 90
        3
176
     1
 90
        0
176
     1
 40
0.6
176
     1
 40
30.0
176
     1
 62
     7
420
 16777215
176
     1
 90
        2
176
     1
 90
        2
176
     1
 62
     7
176
     1
 62
     7
176
     1
 90
        1
176
     1
 90
        1
176
     1
 40
40.0
176
     1
 90
        8
176
     1
 62
     7
176
     1
 40
1.0
176
     1
 90
        1
176
     1
 90
        6
176
     1
 90
        2
176
     1
 62
     7
176
     1
 90
        3
176
     1
 90
        0
176
     1
 90
        0
176
     1
290
     0
176
     1
 90
        1
176
     1
 40
0.0
176
     1
 90
        0
176
     1
290
     0
176
     1
290
     1
176
     1
290
     1
176
     1
290
     0
176
     1
290
     0
176
     1
290
     0
176
     1
290
     0
176
     1
290
     0
176
     1
290
     0
176
     1
 90
       50
176
     1
 40
0.0
176
     1
 40
1.0
176
     1
 90
        0
176
     1
 62
    18
420
        0
176
     1
 90
       50
176
     1
 90
        3
176
     1
 62
     5
420
      255
176
     1
290
     0
176
     1
 90
       50
176
     1
 90
       50
176
     1
 90
       50
176
     1
290
     0
176
     1
 90
       50
176
     1
 62
   256
176
     0
 40
1.0
176
     0
 90
        2
176
     1
  1
strokes_ogs.tif
176
     1
290
     0
176
     1
 40
1.0
176
     1
 40
1.0
176
     1
  0
VISUALSTYLE
  5
17F
102
{ACAD_REACTORS
330
99
102
}
330
99
100
AcDbVisualStyle
  2
Sketchy
 70
    24
177
     3
291
     0
 70
    58
 90
        1
176
     1
 90
        2
176
     1
 90
        2
176
     1
 90
        0
176
     1
 40
0.6
176
     1
 40
30.0
176
     1
 62
     7
420
 16777215
176
     1
 90
        2
176
     1
 90
        2
176
     1
 62
     7
176
     1
 62
     7
176
     1
 90
        1
176
     1
 90
        1
176
     1
 40
40.0
176
     1
 90
       11
176
     1
 62
     7
176
     1
 40
1.0
176
     1
 90
        1
176
     1
 90
        6
176
     1
 90
        2
176
     1
 62
     7
176
     1
 90
        6
176
     1
 90
        0
176
     1
 90
        0
176
     1
290
     0
176
     1
 90
        1
176
     1
 40
0.0
176
     1
 90
        0
176
     1
290
     0
176
     1
290
     1
176
     1
290
     1
176
     1
290
     0
176
     1
290
     0
176
     1
290
     0
176
     1
290
     0
176
     1
290
     0
176
     1
290
     0
176
     1
 90
       50
176
     1
 40
0.0
176
     1
 40
1.0
176
     1
 90
        0
176
     1
 62
    18
420
        0
176
     1
 90
       50
176
     1
 90
        3
176
     1
 62
     5
420
      255
176
     1
290
     0
176
     1
 90
       50
176
     1
 90
       50
176
     1
 90
       50
176
     1
290
     0
176
     1
 90
       50
176
     1
 62
   256
176
     0
 40
1.0
176
     0
 90
        2
176
     1
  1
strokes_ogs.tif
176
     1
290
     0
176
     1
 40
1.0
176
     1
 40
1.0
176
     1
  0
VISUALSTYLE
  5
A6
102
{ACAD_REACTORS
330
99
102
}
330
99
100
AcDbVisualStyle
  2
Thicken
 70
    13
177
     3
291
     1
 70
    58
 90
        2
176
     1
 90
        2
176
     1
 90
        1
176
     1
 90
        0
176
     1
 40
0.6
176
     1
 40
30.0
176
     1
 62
     7
420
 16777215
176
     1
 90
        1
176
     1
 90
        4
176
     1
 62
     7
176
     1
 62
   257
176
     1
 90
        1
176
     1
 90
        1
176
     1
 40
1.0
176
     1
 90
       12
176
     1
 62
     7
176
     1
 40
1.0
176
     1
 90
        1
176
     1
 90
        6
176
     1
 90
        2
176
     1
 62
     7
176
     1
 90
        5
176
     1
 90
        0
176
     1
 90
        0
176
     1
290
     0
176
     1
 90
        1
176
     1
 40
0.0
176
     1
 90
        0
176
     1
290
     0
176
     1
290
     1
176
     1
290
     1
176
     1
290
     0
176
     1
290
     0
176
     1
290
     0
176
     1
290
     0
176
     1
290
     0
176
     1
290
     0
176
     1
 90
       50
176
     1
 40
0.0
176
     1
 40
1.0
176
     1
 90
        0
176
     1
 62
    18
420
        0
176
     1
 90
       50
176
     1
 90
        3
176
     1
 62
     5
420
      255
176
     1
290
     0
176
     1
 90
       50
176
     1
 90
       50
176
     1
 90
       50
176
     1
290
     0
176
     1
 90
       50
176
     1
 62
   256
176
     0
 40
1.0
176
     0
 90
        2
176
     1
  1
strokes_ogs.tif
176
     1
290
     0
176
     1
 40
1.0
176
     1
 40
1.0
176
     1
  0
VISUALSTYLE
  5
A0
102
{ACAD_REACTORS
330
99
102
}
330
99
100
AcDbVisualStyle
  2
Wireframe
 70
     5
177
     3
291
     0
 70
    58
 90
        0
176
     1
 90
        2
176
     1
 90
        0
176
     1
 90
        0
176
     1
 40
0.6
176
     1
 40
30.0
176
     1
 62
     7
420
 16777215
176
     1
 90
        1
176
     1
 90
        4
176
     1
 62
     7
176
     1
 62
   257
176
     1
 90
        1
176
     1
 90
        1
176
     1
 40
1.0
176
     1
 90
        0
176
     1
 62
   257
176
     1
 40
1.0
176
     1
 90
        1
176
     1
 90
        6
176
     1
 90
        2
176
     1
 62
     7
176
     1
 90
        3
176
     1
 90
        0
176
     1
 90
        0
176
     1
290
     0
176
     1
 90
        1
176
     1
 40
0.0
176
     1
 90
        0
176
     1
290
     0
176
     1
290
     1
176
     1
290
     1
176
     1
290
     0
176
     1
290
     0
176
     1
290
     0
176
     1
290
     0
176
     1
290
     0
176
     1
290
     0
176
     1
 90
       50
176
     1
 40
0.0
176
     1
 40
1.0
176
     1
 90
        0
176
     1
 62
    18
420
        0
176
     1
 90
       50
176
     1
 90
        3
176
     1
 62
     5
420
      255
176
     1
290
     0
176
     1
 90
       50
176
     1
 90
       50
176
     1
 90
       50
176
     1
290
     0
176
     1
 90
       50
176
     1
 62
   256
176
     0
 40
1.0
176
     0
 90
        2
176
     1
  1
strokes_ogs.tif
176
     1
290
     0
176
     1
 40
1.0
176
     1
 40
1.0
176
     1
  0
VISUALSTYLE
  5
180
102
{ACAD_REACTORS
330
99
102
}
330
99
100
AcDbVisualStyle
  2
X-Ray
 70
    25
177
     3
291
     0
 70
    58
 90
        2
176
     1
 90
        2
176
     1
 90
        1
176
     1
 90
        1
176
     1
 40
0.5
176
     1
 40
30.0
176
     1
 62
     7
420
 16777215
176
     1
 90
        1
176
     1
 90
        0
176
     1
 62
     7
176
     1
 62
   257
176
     1
 90
        1
176
     1
 90
        1
176
     1
 40
1.0
176
     1
 90
        8
176
     1
 62
     7
176
     1
 40
1.0
176
     1
 90
        1
176
     1
 90
        6
176
     1
 90
        2
176
     1
 62
     7
176
     1
 90
        3
176
     1
 90
        0
176
     1
 90
        0
176
     1
290
     0
176
     1
 90
       13
176
     1
 40
0.0
176
     1
 90
        0
176
     1
290
     0
176
     1
290
     1
176
     1
290
     1
176
     1
290
     0
176
     1
290
     0
176
     1
290
     0
176
     1
290
     0
176
     1
290
     0
176
     1
290
     0
176
     1
 90
       50
176
     1
 40
0.0
176
     1
 40
1.0
176
     1
 90
        0
176
     1
 62
    18
420
        0
176
     1
 90
       50
176
     1
 90
        3
176
     1
 62
     5
420
      255
176
     1
290
     0
176
     1
 90
       50
176
     1
 90
       50
176
     1
 90
       50
176
     1
290
     0
176
     1
 90
       50
176
     1
 62
   256
176
     0
 40
1.0
176
     0
 90
        2
176
     1
  1
strokes_ogs.tif
176
     1
290
     0
176
     1
 40
1.0
176
     1
 40
1.0
176
     1
  0
DICTIONARYVAR
  5
4A0D6
102
{ACAD_REACTORS
330
4A0D5
102
}
330
4A0D5
100
DictionaryVariables
280
     0
  1
2
  0
DICTIONARYVAR
  5
4A0D7
102
{ACAD_REACTORS
330
4A0D5
102
}
330
4A0D5
100
DictionaryVariables
280
     0
  1
400.000000
  0
DICTIONARYVAR
  5
4A0D8
102
{ACAD_REACTORS
330
4A0D5
102
}
330
4A0D5
100
DictionaryVariables
280
     0
  1
1
  0
DICTIONARYVAR
  5
4A0D9
102
{ACAD_REACTORS
330
4A0D5
102
}
330
4A0D5
100
DictionaryVariables
280
     0
  1
1:1
  0
DICTIONARYVAR
  5
4A0DA
102
{ACAD_REACTORS
330
4A0D5
102
}
330
4A0D5
100
DictionaryVariables
280
     0
  1
STANDARD
  0
DICTIONARYVAR
  5
4A0DB
102
{ACAD_REACTORS
330
4A0D5
102
}
330
4A0D5
100
DictionaryVariables
280
     0
  1
STANDARD
  0
DICTIONARYVAR
  5
4A0DC
102
{ACAD_REACTORS
330
4A0D5
102
}
330
4A0D5
100
DictionaryVariables
280
     0
  1
Imperial24
  0
DICTIONARYVAR
  5
4A0DD
102
{ACAD_REACTORS
330
4A0D5
102
}
330
4A0D5
100
DictionaryVariables
280
     0
  1
Imperial24
  0
DICTIONARYVAR
  5
4A0DE
102
{ACAD_REACTORS
330
4A0D5
102
}
330
4A0D5
100
DictionaryVariables
280
     0
  1
-1
  0
DICTIONARYVAR
  5
4A0DF
102
{ACAD_REACTORS
330
4A0D5
102
}
330
4A0D5
100
DictionaryVariables
280
     0
  1
1
  0
DICTIONARYVAR
  5
4A0E0
102
{ACAD_REACTORS
330
4A0D5
102
}
330
4A0D5
100
DictionaryVariables
280
     0
  1
2
  0
DICTIONARYVAR
  5
4A0E1
102
{ACAD_REACTORS
330
4A0D5
102
}
330
4A0D5
100
DictionaryVariables
280
     0
  1
0
  0
DICTIONARYVAR
  5
4A0E2
102
{ACAD_REACTORS
330
4A0D5
102
}
330
4A0D5
100
DictionaryVariables
280
     0
  1
4
  0
DICTIONARYVAR
  5
4A0E3
102
{ACAD_REACTORS
330
4A0D5
102
}
330
4A0D5
100
DictionaryVariables
280
     0
  1
V-Construction
  0
DICTIONARYVAR
  5
4A0E4
102
{ACAD_REACTORS
330
4A0D5
102
}
330
4A0D5
100
DictionaryVariables
280
     0
  1
ByLayer
  0
DICTIONARYVAR
  5
4A0E5
102
{ACAD_REACTORS
330
4A0D5
102
}
330
4A0D5
100
DictionaryVariables
280
     0
  1
0
  0
DICTIONARYVAR
  5
4A0E6
102
{ACAD_REACTORS
330
4A0D5
102
}
330
4A0D5
100
DictionaryVariables
280
     0
  1
0
  0
DICTIONARYVAR
  5
4A0E7
102
{ACAD_REACTORS
330
4A0D5
102
}
330
4A0D5
100
DictionaryVariables
280
     0
  1
0
  0
DICTIONARYVAR
  5
4A0E8
102
{ACAD_REACTORS
330
4A0D5
102
}
330
4A0D5
100
DictionaryVariables
280
     0
  1
2
  0
DICTIONARYVAR
  5
4A0E9
102
{ACAD_REACTORS
330
4A0D5
102
}
330
4A0D5
100
DictionaryVariables
280
     0
  1
1.000000
  0
DICTIONARYVAR
  5
4A0EA
102
{ACAD_REACTORS
330
4A0D5
102
}
330
4A0D5
100
DictionaryVariables
280
     0
  1
1
  0
DICTIONARYVAR
  5
4A0EB
102
{ACAD_REACTORS
330
4A0D5
102
}
330
4A0D5
100
DictionaryVariables
280
     0
  1
1.000000
  0
DICTIONARYVAR
  5
4A0EC
102
{ACAD_REACTORS
330
4A0D5
102
}
330
4A0D5
100
DictionaryVariables
280
     0
  1
1
  0
DICTIONARYVAR
  5
4A0ED
102
{ACAD_REACTORS
330
4A0D5
102
}
330
4A0D5
100
DictionaryVariables
280
     0
  1
0
  0
DICTIONARYVAR
  5
4A0EE
102
{ACAD_REACTORS
330
4A0D5
102
}
330
4A0D5
100
DictionaryVariables
280
     0
  1

  0
DICTIONARYVAR
  5
4A0EF
102
{ACAD_REACTORS
330
4A0D5
102
}
330
4A0D5
100
DictionaryVariables
280
     0
  1
0
  0
DICTIONARYVAR
  5
4A0F0
102
{ACAD_REACTORS
330
4A0D5
102
}
330
4A0D5
100
DictionaryVariables
280
     0
  1
127
  0
DICTIONARY
  5
194
330
22
100
AcDbDictionary
280
     1
281
     1
  0
DICTIONARY
  5
188
330
97
100
AcDbDictionary
280
     1
281
     1
  3
FBXASSET
360
189
  0
DICTIONARY
  5
186
330
96
100
AcDbDictionary
280
     1
281
     1
  3
FBXASSET
360
187
  0
DICTIONARY
  5
110
330
98
100
AcDbDictionary
280
     1
281
     1
  3
BUMPTILE
360
112
  3
DIFFUSETILE
360
111
  3
FBXASSET
360
18A
  3
OPACITYTILE
360
113
  3
REFLECTIONTILE
360
114
  0
DICTIONARY
  5
104
330
87
100
AcDbDictionary
280
     1
281
     1
  3
ACAD_ROUNDTRIP_2008_TABLESTYLE_CELLSTYLEMAP
360
67410
  0
XRECORD
  5
189
102
{ACAD_REACTORS
330
188
102
}
330
188
100
AcDbXrecord
280
     1
 70
     1
 90
429727718
  1
508B35C9-AEE7-456F-BE74-D52651303AC6
310
504B03040A0000080000B670623B3DEE336E79000000790000001B0000006175746F6465736B2D64657369676E2D7061636B6167652E786D6C3C3F786D6C2076657273696F6E3D22312E302220656E636F64696E673D227574662D3822203F3E3C666F726D6174733E3C666F726D61743E687474703A2F2F736368656D612E
310
6175746F6465736B2E636F6D2F64657369676E2D7061636B6167652F323030393C2F666F726D61743E3C2F666F726D6174733E504B0304140006080800B670623BD486FD9CA0000000F4000000130000005B436F6E74656E745F54797065735D2E786D6C7D8EC10E82300C865F65E91D8A1E8C310C0EEA1BF002731658846E
310
D98AC1B77784ABF1D8FE5FBFBF75BBCE937A534CCEB38643598122B6FEE978D0B0485F9C41B54DDD7D022595594E1A469170414C76A4D9A4D207E29CF43ECE46F218070CC6BECC4078ACAA135ACF422C856C0E68EA1BF5669944DDD7BCDE7B1F8E415D77AECB980613C2E4AC91FC167A2B244592486606FC29C8FD7F045B9A
310
EF7053A7E60B504B0304140006080800B670623B28ED286BEB0000007C01000008000000636F72652E786D6C8D90416EC3201045AF82665B6183218D6D61A254764FD00B204C5C94182C03558F5F9C3852BBEB6A467FFE9B197D71FA9E6FE8CBACC17AD7012D0820E3B41FAD9B3A48F1826B40272956EFE32F1B20A766D3C1
310
268314D3EAD3B24BDABB685CCCAAF3A3D94515828980F42D371D04FD696655A814B3235C8B45E9AB9A4C419F5D8653B2237A1CB163DE672FD6AC209BF3C08E0D1B30EB19C3FC9D72FCC6EB231EFA33EDE96BDD341517E5064B11EDFCBCAF57A3A2194156843498524CAA0FCA5B7268F9E185D42D21A2DCEC7FA0B48CFF8492
310
759155FBBB0F2C80A4F991FB408A72CB22977B50B96EB9C91F504B0304140006080800B670623B55019EA25F0000007C00000007000000636E782E786D6C4DCB3B0E80201045D1AD90E915ED2CF8AC45050C11660C8261F98AB1B07AC9C97D42D718D865D3E909258CFD00CCE24AC6E326A164D74DC0B4128928FF32603847
310
2BA13128B1252AC747C6BAB984FC68F0B87FE8960A5C09FE86CFB69FBA01504B0304140006080800B670623B7BC41AC871010000D40300000C0000006662782F636F72652E786D6CC553ED6E8320147D15C2DF4501B56B6D90A64BBB27D80B50A5CE54C120983EFEAE1F4DD7A56BBA5FF3879273EEE59E7310BE393735EA95
310
ED2AA333CC428A91D2B9292A5D66D8BB63B0C26823B835C67D2BC348CB46657880B1E0A535BE9DA1DC68A7B403549B42CDA0EC3AE530CA6B5864B8CB3F552343E91D5474A7B095F949962A6421D0502778E72C0840D390E18DC5F170E664C205F7BE2A66B62A605A75AC94C522DDEEE3651AEF837817C741F2CE92E02D592D
310
83FD6ECB76EC7595A651C2C9D02CB8AB9A8BBADC2AE954814544691A3016D0E883256BBA58278B17BA5A53CAC9507ED3E4DBE2C9265F691747B3DCA9ADC382819091F8E1162272A8933DE82182932144F88C09DF060D8140C84E1EEA8B8F1340BDCA9DB1093085F157AA97B557309586747CD0EF0B4EA64E983A6E0EAEEFCE
310
889E9EF17847386AA94B30211D2C0FDE0D3AF9A4610EAD5536E8DD1969631B593F67E381C33F5157F17725E5A636F6BF1491F980C8FC7B90E13E8A2F504B0304140006080800B670623B70102A487D0000009D0000000B0000006662782F636E782E786D6C4DCCD10A83201886E15B91FFDC95A5C30335ACCDFB886521330D
310
A76397BF1A1DECE883878F57749FD5A3B74D2F17830472A901D9F088930B8B849267CC01754AA418F3DF0D5018572BE160506249B16C274D761E8BCFBB7A179E27F65CB39A0F14D396184C9921B81F34C3ACA1B4B99ABB6E6F062A25AA5F69DF23ACBE504B0304140006080800B670623B3610CA3329010000120200003100
310
00006662782F42384135303843342D343331462D343546312D424341352D3532343432364645413344462F636F72652E786D6C8D515B6EC32010BC0AE22B55850D0E446E848992B43E412FE000495162B07854397EA176A4F62F3F2C9A9D991D58BEBB8F37F0AD7D30CE76905418026DA553C65E3A98E219B510EC04F7CEC5
310
3F3408EC30EA0E16180A7EF12E4D0B249D8DDAC68C5AA7F4020E21E80881BCE54B0783FCD2E3500D296646B856D320AFC34557A4CAEDCC133C449F0380794839A138B47B86DB2345744D7A44594FD0E1B867883594369BFE63BF7EEF793D0B054FC9A8456E548E63CE46FB674D8A58F068C6477CE9F510B582A2C1F80D1182
310
70F349E816B32D65AFB8DD62CCEB42FF274A937A52948C8DEB66893BCB021484D7734370E5D2E9F608A3EF93F3119479ABA0E50B14B8C298119A43CCC4FCFCECB8A18B6388CEE7EF5D5D4F994BD86CBBA182D76543B9FCAE2FD7B24DF103504B0304140006080800B670623B1B8617914E0100003303000030000000666278
310
2F42384135303843342D343331462D343546312D424341352D3532343432364645413344462F636E782E786D6CD593C16EC32010447F0571AD6CE3D489D20813A9877E410FBD62D82434182CC055F3F75D1292E692438FBD206B7698593D61BEFD1E2DF982108D773D6D6B460938E5B571FB9ECE6957AD29D90A1EBC4F7736
310
4A9C1CA1A759A682EF839FA72269D8C9D92654AD71C72206887E0E0A22CAF926B15E498B01E0AA19451807D01A34B919F16B070157417138917400F2F6FA41FCF0092A45DEE414C19BDC21783E4BD39D891265658C3D8DEA00A3ACE59CBC8678ACB54CB26EEB6BD7839D7E9348BE70AD9C8321B9BCA7F9A4A26C542347DEE0
310
50F09802D22BA6749A800A394DD62899107273365E3C82CFC6A55557BC06C10774B7ABE7AEC3B0F34CF06446280E154026D0542C187BA9DAB6628BF7B6DBB0E5A65B3EB1F58631DE64BBE083F7B65CC218087E22CABB042E51D1F2268F1FE12B3EA24D40D63E9CFE00120194D60B9D5BC67FE6D39CDF37E20AF817881F504B
310
0304140006080800B670623BBFEF2E3B690500003C100000340000006662782F42384135303843342D343331462D343546312D424341352D3532343432364645413344462F6F626A656374732E786D6CAD575D739B3814FD2B0CFB0C98D84E931D4227B6938EA793B6534F3BFB90198F0099B001899144EAECAFDF231018B0
310
D37A3FFC609090EEE7B94757C1FB7D915B2F54C88CB31BDB7727B64559CC938CA53776A576CE956DBD0F03C1B9EA2DB32D460A7A63EB693B0C52C1ABD24C257447AA5C8D66EF177F5832A68CDA569C13296F6C193FD182B8A4523CA1F2D94D88226EBADBBBBEDB2C1C8A4D05299F46424B222853B014F30C52ACC6287F389C
310
D85E1878FA7B18E87FB36AFAF62AAFF667A83F635211161F291B8999FAB3D5DDC5FCDA99CF6653677679E13B8BFBC5CAF1DF4D27CBCBE5F2FAF6EE1A8AA51290642C117467871F101B91C581D77CEA2C36869F3229E68CD1B8F61F1ED6361B89092D294B90C78C4A68EB793D190E7D1D9BDEE7A91E1B95FDE9F3BCEAEFE809
310
6A6D6F9F7D4B79F4275C90E7A04248AA51D5C4C738DAE06F72885AC4796EBE65D22A88A22223B995679120E2D50EB1542F098381188D4EA111AE3DB043FF20AF6F2B4AE3D7D83D65E5AECA730D4D3BAC91BD05FEA992B565D95F549CD6069B90AB2A63EACA38A45E4B6A87D781574F86817E4C2FCCC72690D62E2729520E37
310
9BAF234797BAF6D62B3BFC781FED37BA1E4F2B2F052FA9501A3E80569BB8F6A9A364D4FA67654E6F803383981F82F21591FF84F23D9882BC896C3FDBCF8C162508933B2E0AE4C69DD43F6BD2BE38DDDBF10BF86CB4FA784D37F3AF16075E67EC9030DECA1FC0A55373F5DFF3378C591FA9BDF485C10B0A8C8BA909E5262639
310
A8E72163488806A595734C81CB77D1DE0ED7604A303B76913CEC0272F412782FF88EFF4636D8AA56DF7B322474C4B767303F625997056C7B032C473C592B36CEBD15F3F9FF5233B7ABCDC74D257624A60F8658567497B14CE1EC3C80B76FD02011038F9EE9EB0F2E12387A9C844D3F09855125116D1D731DF8B43D2CF4E0A0
310
79A020C6BE946BCE0B7EA1E1219331CD73C228AF5A2DDD31A4B1DA918CE91350854D40A71723140BFA92E94E62B0626016CEFA5864A50E5977E8753CEDBEE1CBB7F52780D20E17AF0BA0F5F9B02A3AD07DCC732EB6D1EBB661421BE0C39E21BABF0FE16D22EA6929407C8DE596724C88B749B6DB5512BC7B228ADFD7CB7EA6
310
3A22397E690BA8D5D8D4E40CEC8CDA23C2C0B7D5898640101CEC9C6D331CE328CB93CAFBBAC70A642DF70DF95155945B52F08AA973C23469FD69ADEF84F7BB18F983A8F8C90E37F5D35980B2139A1C523540813E824EF83448CF7C72B598CE97D7CEEDDDDD3B6736BFBC771677EF66CE6A7E7139F7A793E9EDF2B2B3A8B624
310
0CDA13AA5F8388264EC4A0129909F3B7F5A16CEDF08128E97D680ACA4B9BE7B7B58BB638F0B00700EF36AE8B32A705658A68F83EE897FC2B41573190D1CCAF0B92D233A47CFEB019D9809933F67DD1A5467F8CF69AD9A5AE859342D45355448C64F968A371DC2D596ADC6E43D93D1B466F877A64E2893E54F23C4B40388995
310
525E5005DA3983ED45412510D3EFCA13737B3863F74BD30F2A12E5B4B5E489A025CE25500DB855B11ACE5BBFA185D35DD48D8DC3CE7DC69F2944DB42AA6F6CF09BCA622ADD08C7A36E7C6AE18000BAB08E040135C2D21C9D75B3A91B77BB746C403F38018DFE6EC939DD92F16B40BC05294B9CDA035AAD6D330AE27FE4786B
310
8E45145EA34A75BE1C263A676A35A8ACC6297337400BF16C54EF515F3F77CB77EB3583889C754FFA29081AA98E2222ADEF05DA3E63D2EDEA8B8756C05A7FB6CABC4A91CBF325398202CC952E70A008A830324BA200D5E5EF8F5F04C75DB4B0EE3340E071C98B823333B83577596BF3849B69F2085AA0FAFA212F26BEFF5877
310
FDE622B28D88A42E49E43326DA82D31E8CB006401E1DA726059ECEC168F97A6599036306A135688F9AD2E61A6EA178F4CD51974A9F2CCB9F36FE5EBD14601068D9C3BF01504B0304140006080000B670623B000000000000000000000000350000006662782F42384135303843342D343331462D343546312D424341352D35
310
32343432364645413344462F76657274696365732E62696E504B0304140006080800B670623BF270F1330600000004000000360000006662782F42384135303843342D343331462D343546312D424341352D3532343432364645413344462F747269616E676C65732E62696E636660600000504B0304140006080000B67062
310
3B000000000000000000000000370000006662782F42384135303843342D343331462D343546312D424341352D3532343432364645413344462F617474726962757465732E62696E504B0304140006080800B670623B08DA0BD19000000041010000360000006662782F42384135303843342D343331462D343546312D4243
310
41352D3532343432364645413344462F6469726563746F72792E786D6C858F410AC3201045AF22B36F53E9A60B35CBEEBAE80D244E44489C6234F4F835464A48035D0DF398FF9F8AF63D0E6CC63039F212F8F9020C7D47C6792B21C5FE7403D62A1188E2E60C98D7234A5830286103A55745067B9D86B8A3CF9C7F90C11DE6
310
07FB144396D7B6A82D282E9A152AD114D5EF2CB866EEE831B8EEA07A7BB5A8D7D61A2BAAEB7FD5F70921FF497D00504B0304140006080800B670623B3B4606F3FE000000A00100003B0000006662782F42384135303843342D343331462D343546312D424341352D3532343432364645413344462F7265736F75726365732F
310
636F72652E786D6C8D504B6E833010BD0A9A6D65B08134808CA354A427E8052C332156828DFCA97AFC9A40A576D7CDCCE87D344F8F9FBEE647F689CE6B6B7A6039850C8DB2A336530F315C4903D94970676DF82583CCC8197B5861107C72362E3BA4AC096842428D1D7107A5F71820538F74F4E0D50D6799CB1892C2DFF345
310
AABB9C306779A2934E701F5C0A906D4FD609C2A1B7D129F4BCD858C163D4E3AED163FAA9AF1A1D88F67CA98E6D35906AA82A52BFB39ABCD5CD915C86331BD86BD3B665CD8BD52C78D0F34F46E550061C419494B6843142CB0F5677F4D0D58717DA7494F26295FF31C565FCA7296A13AA728FBBD93C0896823C09C18BB5AFB4
310
9E65A6BD762BBE01504B010214000A0000080000B670623B3DEE336E79000000790000001B00000000000000000000000000000000006175746F6465736B2D64657369676E2D7061636B6167652E786D6C504B01021400140006080800B670623BD486FD9CA0000000F40000001300000000000000000000000000B2000000
310
5B436F6E74656E745F54797065735D2E786D6C504B01021400140006080800B670623B28ED286BEB0000007C010000080000000000000000000000000083010000636F72652E786D6C504B01021400140006080800B670623B55019EA25F0000007C000000070000000000000000000000000094020000636E782E786D6C50
310
4B01021400140006080800B670623B7BC41AC871010000D40300000C00000000000000000000000000180300006662782F636F72652E786D6C504B01021400140006080800B670623B70102A487D0000009D0000000B00000000000000000000000000B30400006662782F636E782E786D6C504B01021400140006080800B6
310
70623B3610CA3329010000120200003100000000000000000000000000590500006662782F42384135303843342D343331462D343546312D424341352D3532343432364645413344462F636F72652E786D6C504B01021400140006080800B670623B1B8617914E010000330300003000000000000000000000000000D10600
310
006662782F42384135303843342D343331462D343546312D424341352D3532343432364645413344462F636E782E786D6C504B01021400140006080800B670623BBFEF2E3B690500003C10000034000000000000000000000000006D0800006662782F42384135303843342D343331462D343546312D424341352D35323434
310
32364645413344462F6F626A656374732E786D6C504B01021400140006080000B670623B0000000000000000000000003500000000000000000000000000280E00006662782F42384135303843342D343331462D343546312D424341352D3532343432364645413344462F76657274696365732E62696E504B010214001400
310
06080800B670623BF270F133060000000400000036000000000000000000000000007B0E00006662782F42384135303843342D343331462D343546312D424341352D3532343432364645413344462F747269616E676C65732E62696E504B01021400140006080000B670623B00000000000000000000000037000000000000
310
00000000000000D50E00006662782F42384135303843342D343331462D343546312D424341352D3532343432364645413344462F617474726962757465732E62696E504B01021400140006080800B670623B08DA0BD1900000004101000036000000000000000000000000002A0F00006662782F42384135303843342D3433
310
31462D343546312D424341352D3532343432364645413344462F6469726563746F72792E786D6C504B01021400140006080800B670623B3B4606F3FE000000A00100003B000000000000000000000000000E1000006662782F42384135303843342D343331462D343546312D424341352D3532343432364645413344462F72
310
65736F75726365732F636F72652E786D6C504B0506000000000E000E0080040000651100000000
  0
XRECORD
  5
187
102
{ACAD_REACTORS
330
186
102
}
330
186
100
AcDbXrecord
280
     1
 70
     1
 90
429727718
  1
887D55A9-D0DD-414E-B741-A7DCD4DA2B4C
310
504B03040A0000080000B670623B3DEE336E79000000790000001B0000006175746F6465736B2D64657369676E2D7061636B6167652E786D6C3C3F786D6C2076657273696F6E3D22312E302220656E636F64696E673D227574662D3822203F3E3C666F726D6174733E3C666F726D61743E687474703A2F2F736368656D612E
310
6175746F6465736B2E636F6D2F64657369676E2D7061636B6167652F323030393C2F666F726D61743E3C2F666F726D6174733E504B0304140006080800B670623BD486FD9CA0000000F4000000130000005B436F6E74656E745F54797065735D2E786D6C7D8EC10E82300C865F65E91D8A1E8C310C0EEA1BF002731658846E
310
D98AC1B77784ABF1D8FE5FBFBF75BBCE937A534CCEB38643598122B6FEE978D0B0485F9C41B54DDD7D022595594E1A469170414C76A4D9A4D207E29CF43ECE46F218070CC6BECC4078ACAA135ACF422C856C0E68EA1BF5669944DDD7BCDE7B1F8E415D77AECB980613C2E4AC91FC167A2B244592486606FC29C8FD7F045B9A
310
EF7053A7E60B504B0304140006080800B670623BBC1638F5EC0000007C01000008000000636F72652E786D6C8D90416EC3201045AF82665B61836BE2D8C24471DB9CA01740401C94182C03558F5F9C3852BBEB6A467FFE9B197D7EF89E6EE8CB2CC17AD7032D0820E394D7D68D3DA478C67B4007C117EFE32F1B202727D3C3
310
2A83E0E3E2D3BC49CABB685CCCAAF3DA6CA20CC14440EA969B1E82BA98491632C5EC08D76296EA2A4753D06797E194AC468F2356E77DF66CCD02825543D50CACC62D39ED70FDC68EB8FD68F6F8787A6784342D1DDA1D2F5758F068A7E77DB518198D065111D2624A31A93E69DD11D6D5EC85EC3B4278B9DAFF4069D6FF8492
310
75F1B5DADE7D600104CD8FDC0782976B16B9DC83CA75CD4DFC00504B0304140006080800B670623B55019EA25F0000007C00000007000000636E782E786D6C4DCB3B0E80201045D1AD90E915ED2CF8AC45050C11660C8261F98AB1B07AC9C97D42D718D865D3E909258CFD00CCE24AC6E326A164D74DC0B4128928FF326038
310
472BA13128B1252AC747C6BAB984FC68F0B87FE8960A5C09FE86CFB69FBA01504B0304140006080800B670623B3586FFB671010000D40300000C0000006662782F636F72652E786D6CC553ED6E8320147D15C2DF4541A76D6D90A6DDD627D80B50A4CE54C120983EFEAE1F4DD7A55BBA5FF3879273EEE59E7310B6393735EA
310
95ED2AA3731C851423A5A5292A5DE6D8BB63B0C268C39935C67D29C3488B46E578803167A535BE9D2169B453DA01AA4DA16650749D7218C91A1639EEE4876A4428BC838AEE14B6429E44A9C228041AEA38EB9C0501681A32BC313F1ECE8C4C3867DE57C5CC56054CAB8E95B298A7F12E5EEED224C8E87E11242FE936C8DE96
310
AB60BB7F4D295D66D12E5B30323473E6AAE6A24E5A259C2A308F29CD82280A68FC1E256B9AAE93F489AED694323294DF34F9B678B0C957DA3DC7B3DCA9ADC33C022123F1CD2D44E450277AD04338234388F01913BE0D1A0281909D38D4171F27807A259DB1093085F157AA17B557309586747CD0CF0B46A64E983A6E0EAEEF
310
CE881F9EF1FB8E70D44297604238581EBC1B74B249C31C5AAB6CD0BB33D2C636A27ECCC62F0EFF445DC5DF95244D6DEC7F2922F30191F9F720C37DE49F504B0304140006080800B670623B4220A0FF7D0000009D0000000B0000006662782F636E782E786D6C4DCCD10A83201886E15B91FFDCE542CB0335D0EC3E6259C84A
310
C3E9D8E5AF46073BFAE0E1E315DD675BD1DBA5978F41C2FD4600B9F088930F8B849267CC01754AA418F3DF0D50183727E164506249B1EC174D6E1ECB9A0F5D7D785E68DB8151CD286E5A5363CA6B8A39E90D36D40E96B086F55A43A544F52B1D7B86D517504B0304140006080800B670623B2FA3FEDE290100001202000031
310
0000006662782F45374635344235342D363743322D343832342D383044432D4334454645303536354442422F636F72652E786D6C8D515B6EC32010BC0AE22B55850D2E386E848994D7097A0117488A1283C5A3CAF10BB523B57FF961D1ECCCECC0F2ED7DBC816FED8371B687A4C210682B9D32F6D2C314CFA883602BB8772E
310
FEA141608751F7B0C050F08B77695A20E96CD43666D43AA5177008414708E42D5F7A18E4971E876A483133C2B59A06791D2EBA22556E679EE021FA1C00CC43CA09C5717D6274C7286AD7FB06D1AEA1A8C3873DDAD3E3E98859CB0EBB1DAF67A1E02919B5C88DCA71CCD968FFAC49110B1ECDF8882FBD1EA256503418BF2342
310
106E3E08DD60B6A1EC15771B8C795DE8FF4469524F8A92B1F1AD59E2CEB20005E1F5DC105CB9F4797B84D1F7C9F908CABC55D0F2050A5C61CC1AD2F27A26E6E767C7962E8E213A9FBF7775FDCC5CC266DB960A5E970DE5F2BBBE5CCB36C50F504B0304140006080800B670623B1B8617914E01000033030000300000006662
310
782F45374635344235342D363743322D343832342D383044432D4334454645303536354442422F636E782E786D6CD593C16EC32010447F0571AD6CE3D489D20813A9877E410FBD62D82434182CC055F3F75D1292E692438FBD206B7698593D61BEFD1E2DF982108D773D6D6B460938E5B571FB9ECE6957AD29D90A1EBC4F77
310
364A9C1CA1A759A682EF839FA72269D8C9D92654AD71C72206887E0E0A22CAF926B15E498B01E0AA19451807D01A34B919F16B070157417138917400F2F6FA41FCF0092A45DEE414C19BDC21783E4BD39D891265658C3D8DEA00A3ACE59CBC8678ACB54CB26EEB6BD7839D7E9348BE70AD9C8321B9BCA7F9A4A26C542347DE
310
E050F09802D22BA6749A800A394DD62899107273365E3C82CFC6A55557BC06C10774B7ABE7AEC3B0F34CF06446280E154026D0542C187BA9DAB6628BF7B6DBB0E5A65B3EB1F58631DE64BBE083F7B65CC218087E22CABB042E51D1F2268F1FE12B3EA24D40D63E9CFE00120194D60B9D5BC67FE6D39CDF37E20AF817881F50
310
4B0304140006080800B670623B29652116630500003C100000340000006662782F45374635344235342D363743322D343832342D383044432D4334454645303536354442422F6F626A656374732E786D6CAD575D739B3814FD2B0CFB0C989834C90EA1639B24E3E9A6EDD4D3CE3E64C623834CD8006224913AFDF57B040203
310
B65BEF871F0C12D2FD3CF7E8CA7FBFCB33E3957291B2E2D674ED8969D02262715A24B76625B7D6B569BC0F7CCE98EC2D338D82E4F4D654D366E0279C55A59E8AE99654991CCDDECFFF3444440B6A1A514684B83545F44C7362934AB2988A173B2692D8C97667BB76B3702836E1A47C1E092D09A78584A5982F20C5688C7287
310
C389E904BEA3BE07BEFAD7ABA6A75739B53F43FD69212429A20365233153D70BEF2E2E6FAC4BCF9B5ADEBB0BD79ADFCF43CBBD9A4E16EF168B9BD9DD0D140BC921495BC2E9D60C1E101B9E46BED37CEA2CD6861F3329624541A3DA7F7858DBAC25C6B4A4458C3CA654405BCFEBC970E8AAD8F43E4FD558ABEC4F9FE7557F47
310
4F506B7BFBEC5BCA367FC105710E2AB8A00A554D7CB4A30DFE26FBA86D18CBF4B75418399194A72433B274C3097F33032C554B027F2046A1932B842B0FCCC0DDCBEBDB8AD2F835768F59B9ADB24C41D30C6A64AF817F2A456D59FA83F2E3DA60137255A585BCD60EC9B7929AC18DEFD49381AF1ED30BFDB109A4B1CD488294
310
C3CDE6EBC8D185AABD6568061FEE37BB95AAC7E3CA4BCE4ACAA5820FA0D526AE7DAA2869B5EE5999531BE0CC20E6FBA07C41E43FA27CF7A6206F3CDD793B4F6B919C1462CB788EDCD893FA674CDA17AB7B3B7C019F8D561FAEE966FED562DFE98C1D12C6A9FC015C2A35D7FF3D7FC398F591DA4B5FE0BFA2C0189FEA50AE22
310
92817A1ED3020951A03432862970F976B33383259812CC8E5D240BBA801CBCF8CE2BBEE3BF910DB6AAD5F79E05123AE2DB33981FB1ACCB02B69D00CB014FD68AB573A7627EF9BFD4CC2C5C7D58557C4B22FAA88925A4DBB44825CECE3D78FB060D1231F0E885BE7D673C86A3874958F593906B5502D1563157814FDAC3420D
310
F69A070A22EC4B98E23CFF171A1E5311D12C23056555ABA53B8614563B92D17D02AAB009E8F46284624E5F53D5490C560CCCC2591FF1B45421EB0EBD8EA7ED13BE7C5D7E0428CD60FEF60779EB13E6664FF711CB185F6FDED60D139A001FF60CD1FD6D086F1D51474901E26B2CB794A343BC8ED3EDB612E0DD2351FCB65CF4
310
33D511C9E14B5B40ADC6A6263DB0336A8F700DDF56271A024E70B0B3629DE21847591E55DED73D56206AB927E46FAABC5C939C55853C274C93D69FD6FA4E78BF8B11DF898C9ECD60553FAD39283BA6F18984AA23E8884F83F45C5F5F859797B31B2B9C84A1E5B9DE9D35BFF25C6B76152E422F9C5DCC3D847F5801ED09D5AF
310
41441327A25FF15487F9EB725FB666F048A4701E9A827292E6F97569A32DF61DEC01C0BB8DCBBCCC684E0B49147C1FD54BF685A0AB18C868E6973949E819523E3DAC463660E68C7D9F55A9D1EFA3BD7A76A16AE1A810F95CE59B82A4D968A376DC2E8B44BBDD86B27B368CDE0ED548C7137DA860591A83706223A12CA712B4
310
7306DBF39C0A20A6DF95C7FAF670C6EED7A61F946493D1D6926782963813403548A78AE470DEF80D2D9CEAA26E4D1C76F60BFE74219A06527D6B82DF641A51616F703CAAC6A7160E08A00BEB4810A0274592A1B36E3675E36E978A0DE80727A0D6DF2D39A75BD27E0D8837276589537B40ABB56D5A41F48F1C6FCD3188C4EB
310
A6929D2FFB89CE995A4D00AE813BDD032DC48B56BD437DFDDC2DD7AED70C2272D63DE9A72068A45A92F0A4BE17A8A06B9366E16707AD80B1FC649459952097E74BB23805982B55E0401150A165964402AA8BDF9F3E7386BB686EDCA780C0D382E5392BF460A6EFB2C6EA1937D3F809B440D5F5435C4C5CF7A9EEFAF54564BD
310
2182DA24162F98680B4E7930C21A0079709CEAEB99A372305ABE0C0D7D6078105A83F6A0296DAEE1068A47DD1C55A9F4C9B2FC69E3EFD44B81028E963DF81B504B0304140006080000B670623B000000000000000000000000350000006662782F45374635344235342D363743322D343832342D383044432D433445464530
310
3536354442422F76657274696365732E62696E504B0304140006080800B670623BF270F1330600000004000000360000006662782F45374635344235342D363743322D343832342D383044432D4334454645303536354442422F747269616E676C65732E62696E636660600000504B0304140006080000B670623B00000000
310
0000000000000000370000006662782F45374635344235342D363743322D343832342D383044432D4334454645303536354442422F617474726962757465732E62696E504B0304140006080800B670623B08DA0BD19000000041010000360000006662782F45374635344235342D363743322D343832342D383044432D4334
310
454645303536354442422F6469726563746F72792E786D6C858F410AC3201045AF22B36F53E9A60B35CBEEBAE80D244E44489C6234F4F835464A48035D0DF398FF9F8AF63D0E6CC63039F212F8F9020C7D47C6792B21C5FE7403D62A1188E2E60C98D7234A5830286103A55745067B9D86B8A3CF9C7F90C11DE607FB144396
310
D7B6A82D282E9A152AD114D5EF2CB866EEE831B8EEA07A7BB5A8D7D61A2BAAEB7FD5F70921FF497D00504B0304140006080800B670623B6378F24DFF000000A00100003B0000006662782F45374635344235342D363743322D343832342D383044432D4334454645303536354442422F7265736F75726365732F636F72652E
310
786D6C8D504B6E833010BD0A9A6D65B0094E42641C85B639412F6099496225D8C89FAAC7AF09546A77DDCC8CDE47F3F4C4F16B7C149FE88371B603565228D06A37187BED20C50BD9437194C23B177FC9A0B06AC40E6618A4B87A97A615D2CE46B431A3D60DB8822A048C50E8473E3A08FA86A32A558A5911EEE5A4F45D5DB1
310
6465A6B34E8A107D0E502C4FE609D26370C96B0CA25A58295232C3AA3143FE692E063D485EF7F5AEE71BD2D2F39634AFFC44DAF7DD9E9CCE6F9CD25DCBFA762BAAD92C4534E34F46ED51451C40D694B6843142EB0FD61C283F34FC85EE0F948A6A96FF31A569F8A729191B37F51A77B105902C0779125254735F793DCBCC7B
310
EE567E03504B010214000A0000080000B670623B3DEE336E79000000790000001B00000000000000000000000000000000006175746F6465736B2D64657369676E2D7061636B6167652E786D6C504B01021400140006080800B670623BD486FD9CA0000000F40000001300000000000000000000000000B20000005B436F6E
310
74656E745F54797065735D2E786D6C504B01021400140006080800B670623BBC1638F5EC0000007C010000080000000000000000000000000083010000636F72652E786D6C504B01021400140006080800B670623B55019EA25F0000007C000000070000000000000000000000000095020000636E782E786D6C504B010214
310
00140006080800B670623B3586FFB671010000D40300000C00000000000000000000000000190300006662782F636F72652E786D6C504B01021400140006080800B670623B4220A0FF7D0000009D0000000B00000000000000000000000000B40400006662782F636E782E786D6C504B01021400140006080800B670623B2F
310
A3FEDE290100001202000031000000000000000000000000005A0500006662782F45374635344235342D363743322D343832342D383044432D4334454645303536354442422F636F72652E786D6C504B01021400140006080800B670623B1B8617914E010000330300003000000000000000000000000000D2060000666278
310
2F45374635344235342D363743322D343832342D383044432D4334454645303536354442422F636E782E786D6C504B01021400140006080800B670623B29652116630500003C10000034000000000000000000000000006E0800006662782F45374635344235342D363743322D343832342D383044432D4334454645303536
310
354442422F6F626A656374732E786D6C504B01021400140006080000B670623B0000000000000000000000003500000000000000000000000000230E00006662782F45374635344235342D363743322D343832342D383044432D4334454645303536354442422F76657274696365732E62696E504B01021400140006080800
310
B670623BF270F13306000000040000003600000000000000000000000000760E00006662782F45374635344235342D363743322D343832342D383044432D4334454645303536354442422F747269616E676C65732E62696E504B01021400140006080000B670623B0000000000000000000000003700000000000000000000
310
000000D00E00006662782F45374635344235342D363743322D343832342D383044432D4334454645303536354442422F617474726962757465732E62696E504B01021400140006080800B670623B08DA0BD190000000410100003600000000000000000000000000250F00006662782F45374635344235342D363743322D34
310
3832342D383044432D4334454645303536354442422F6469726563746F72792E786D6C504B01021400140006080800B670623B6378F24DFF000000A00100003B00000000000000000000000000091000006662782F45374635344235342D363743322D343832342D383044432D4334454645303536354442422F7265736F75
310
726365732F636F72652E786D6C504B0506000000000E000E0080040000611100000000
  0
XRECORD
  5
112
102
{ACAD_REACTORS
330
110
102
}
330
110
100
AcDbXrecord
280
     1
270
     1
271
     1
  0
XRECORD
  5
111
102
{ACAD_REACTORS
330
110
102
}
330
110
100
AcDbXrecord
280
     1
270
     1
271
     1
  0
XRECORD
  5
18A
102
{ACAD_REACTORS
330
110
102
}
330
110
100
AcDbXrecord
280
     1
 70
     0
 90
1778669749
  1
9BF507EE-FAF7-4A99-A33D-4EE51894BC40
310
504B03040A0000080000B670623B3DEE336E79000000790000001B0000006175746F6465736B2D64657369676E2D7061636B6167652E786D6C3C3F786D6C2076657273696F6E3D22312E302220656E636F64696E673D227574662D3822203F3E3C666F726D6174733E3C666F726D61743E687474703A2F2F736368656D612E
310
6175746F6465736B2E636F6D2F64657369676E2D7061636B6167652F323030393C2F666F726D61743E3C2F666F726D6174733E504B0304140006080800B670623BD486FD9CA0000000F4000000130000005B436F6E74656E745F54797065735D2E786D6C7D8EC10E82300C865F65E91D8A1E8C310C0EEA1BF002731658846E
310
D98AC1B77784ABF1D8FE5FBFBF75BBCE937A534CCEB38643598122B6FEE978D0B0485F9C41B54DDD7D022595594E1A469170414C76A4D9A4D207E29CF43ECE46F218070CC6BECC4078ACAA135ACF422C856C0E68EA1BF5669944DDD7BCDE7B1F8E415D77AECB980613C2E4AC91FC167A2B244592486606FC29C8FD7F045B9A
310
EF7053A7E60B504B0304140006080800B670623BCA089DFFEC0000007C01000008000000636F72652E786D6C8D90416E83301045AF62CDB632D8402020E32882F604BD80653BC44AB011B6AB1EBF262152BBEB6A467FFE9B197D76FA9EEFE84BAFDE38DB03CD08206DA553C64E3DC470C1474027CE56E7C22F1B202B66DDC3
310
260367D3EAE2B24BD2D9A06D48AA754AEFA2F05E0740F29E9A1EBCBCEA59642286E4F0B76C11F226269DD15797E0188D42CF2346A57DE662F40ABCAEC77628C6120F654571D50C04B7F5B9C1E3997CD4F550BE3745C3F20DE62C98F9755FAE5A04AD801784B498524C8A4F5A75E4D055873772EC0861F966FF03C545FD138A
310
C686B2D8DF7D621E384D8F3C069CE55B16A93C824A75CB8DFF00504B0304140006080800B670623B55019EA25F0000007C00000007000000636E782E786D6C4DCB3B0E80201045D1AD90E915ED2CF8AC45050C11660C8261F98AB1B07AC9C97D42D718D865D3E909258CFD00CCE24AC6E326A164D74DC0B4128928FF326038
310
472BA13128B1252AC747C6BAB984FC68F0B87FE8960A5C09FE86CFB69FBA01504B0304140006080800B670623B68FC0B7272010000D40300000C0000006662782F636F72652E786D6CC5535B6E833010BC8AE5DF0A6C1E8124328E22D29EA01770C0A128602363A31CBFCB234A53A555FA553EC09AD9F5CE8C31DB5DDA060D
310
D2F4B556190E7C8A9154852E6B5565D8D993B7C668C799D1DA7E29C3488956667884316795D1AE5BA0422B2B950554E9522EA0E87B69312A1A5864B82F3E642B7CE12C54F467BF13C55954D20F7CA0A18EB3DE1A1080E621E31BF3D3F1C2C88C73E65C5D2E6C5DC2B4FA544B8379921C36797888BC3C8A032F4E73EA6D927D
310
EA1DF6F42D49F2E8350D5346C666CE6CDD5ED515460A2B4BCC434A375E1078347C0FE22D5D6DE3D50B5D6F2965642CBF6B725DF96493AB958DC245EEDCD6631E809089F8E61622B2A81703E8219C913144F84C09DF070D8140C8561C9BAB8F3340832CAC363130A576376A108D933095FA747AD0CF0B46E64E983A6D0EAE1F
310
CE089F9EF1FB8E70D44255604258581E9D1D75B259C3125A278D37D80B52DAB4A279CEC62F0EFF44DDC43F9454E8469BFF5244960322CBEF41C6FBC83F01504B0304140006080800B670623B0F71DDB67E0000009D0000000B0000006662782F636E782E786D6C4DCCD10A83201886E15B91FFDCA54DB73F502386BB8F5816
310
32D3703976F9ABD1C18E3E78F87855FB990379BBFCF2296AE02706C4C5471A7C9C349475A408A4352AA7B4FEDD80C47E761A7606A3A69CCA72D0E0C6BE8475D3E0E3F3409428EA6B27A84079A782899AA2EC1A7AE3ECCC2FD858CB2D544655BFD2B67BD87C01504B0304140006080800B670623BE134B4FB28010000120200
310
00310000006662782F38353834323741342D343835462D343034322D383541392D4331303331363839454531452F636F72652E786D6C8D515B6EC32010BC0AE22B55850D0EA424C24451959EA0172086A42831583CAA1CBF503B52FB971F16CDCECC0EACD8DFC71BF836215AEF7A481A0C817183D7D65D7A98D3197108F652
310
04EFD31F1A044E8DA6871586525C82CFD3020DDE25E352419DD76601558C264130DCCAA58771F832A36A544E8511AFCDA486ABBA988634A55D7852C4144A00300FA927949C71DABD1D28A29C7D208A6987383B6CD13BC16BB2E1DBE3911C453B0BA5C8D9EA456E758963CFD684674DAA588A64C747FC2118958C86B2C3788B
310
0841B8FB247487D98EB257CC77188BB6D2FF89F2A49F1465EBD2BA5BE2CEB2082511EDDC9042FB7CBA3DC298FBE4430275DE2A9AE1054ADC60CC08E3A29D89E5F9C5714317C7987C28DFBBBA9E0A97B0D97643A568EB864AF95D5FA9759BF207504B0304140006080800B670623B1B8617914E010000330300003000000066
310
62782F38353834323741342D343835462D343034322D383541392D4331303331363839454531452F636E782E786D6CD593C16EC32010447F0571AD6CE3D489D20813A9877E410FBD62D82434182CC055F3F75D1292E692438FBD206B7698593D61BEFD1E2DF982108D773D6D6B460938E5B571FB9ECE6957AD29D90A1EBC4F
310
77364A9C1CA1A759A682EF839FA72269D8C9D92654AD71C72206887E0E0A22CAF926B15E498B01E0AA19451807D01A34B919F16B070157417138917400F2F6FA41FCF0092A45DEE414C19BDC21783E4BD39D891265658C3D8DEA00A3ACE59CBC8678ACB54CB26EEB6BD7839D7E9348BE70AD9C8321B9BCA7F9A4A26C542347
310
DEE050F09802D22BA6749A800A394DD62899107273365E3C82CFC6A55557BC06C10774B7ABE7AEC3B0F34CF06446280E154026D0542C187BA9DAB6628BF7B6DBB0E5A65B3EB1F58631DE64BBE083F7B65CC218087E22CABB042E51D1F2268F1FE12B3EA24D40D63E9CFE00120194D60B9D5BC67FE6D39CDF37E20AF817881F
310
504B0304140006080800B670623B5933D422630500003B100000340000006662782F38353834323741342D343835462D343034322D383541392D4331303331363839454531452F6F626A656374732E786D6CAD575B6FA33814FE2B887D0642934E9B156594264D158D3A534DD4D13E548A0C38942D60649B4EBABF7E3F8321
310
40924EF6928780CDF1B97EE762EFF32E4B8D37CA45C2F21BD3B547A641F39045491EDF98A5DC5AD7A6F1D9F73863B243661A39C9E88DA9B64DDF8B392B0BBD15D12D295339D85DDEFE618890E6D434C2940871638AF08566C426A5641115AF764424B1E3EDCE76ED9AB0CF36E6A47819302D08A7B984A6D8CFC1C5A89572FB
310
CB91E9F89EA3BEFB9EFAD754E3D3544E654F5F7E920B49F2F040D880CDD89D2CEE2E2EA7D6E56432B6269F2E5CEB7679BBB0DCABF168FE693E9FCEEEA6102C240727AD09A75BD3BF876F78127A4EFDA9D5582B7E4CA590E5390D2BFB6161A5B3E618D182E611E2985001691DAB47FDA5AB7CD3F93C566B2DB2BB7D9E55DD13
310
1D468DEECDB3AB290BFE8409E21C54704115AA6AFF68436BFC8DF65E0B184BF5B74418199194272435D224E084BF9B3E481589EFF5D828747285706581E9BB7B7E5D5D911ABFC6EE312DB7659A2A689A7E85EC0DF04FA5A8344BFEA2FCB834E8845895492EAFB541F2BDA0A63FF59C6AD3F7D4637CA13FD68E34B629891172
310
98597F1D183A57B9B75A98FE9765B05BAB7C3C2EBCE0ACA05C2AF8005A4DE09AA7F29216EB9E15397500C6F47CBE77CA7778FE2BD277AF0AE2C693DD6437D1522427B9D8329E2136F6A8FA19A3E6C56ADF0E5F50CF06D48734EDCEBF22F69C56D97EC138153F804B85E6FABFC7AFEFB32E523BE1F3BD372418E363EDCA7548
310
52949E8724474014288D94610BB57C1BEC4C7F854A89CA8E5324F55B871CBC78CE1BBEE3BFE68D6A5589EF3C730474506FCFA8FCF0659516D0ED04580EEA6425581B77CAE797FF4BCECC16EB2FEB926F49481F746159D06D922712BD730FDEAE42BD40F42C7AA5EF3F198F60E86110D6DD20645A9480B795CF95E3E3A659A8
310
C55E724F408873315335CFFB8584874484344D494E59D94869DB90C26A5B64F49C802CAC1D3ABE18A098D3B7444D123D8A9E5AE8F5214F0AE5B2B6E9B575DA3E61CBD3EA2B4009FA940524DD1305FB6A1FB294F14DF0BEA90BA109ECE1481FDC3FFAE8D60E75141700BE82725371B4873751B2DD960265F788137FACE6DD40
310
B575E4F0A5C99F46629D92131467A41EE11ABD8D4CCC039CA0AFB37C93A08B232B8F0AEFCA1E0A1015DF13FC83322B362463652ECF71D3A8B1A7D1BE65DE1D62C44F22C317D35F574FEB16153BA2D13E543D10A80E74C4A65E78A6B7CBCBD1D5DD9DB59C2DAFACC96C3AB566E3F1C29ADCDD5DBAD7D3C9ED7C822ED74F80A6
310
41755310DE4443F44A9E68373FADF6596BFA0F440AE7BECE2727AE9F4F2B1B53B1E7E00CF0DD1E5C65454A339A4BA2D0FBA05ED2EF0443458F47BDBFCA484CCFE0F2ED7E3DD0013B679C7B5499467F0ECEEADDB9CA85A34CE44B99053949D2C1416DB85DE4B136BB7165FBAC0B7AB3542BED4F8CA182A549847A1319316519
310
95A83A67147B9E5101C47487F2485F1ECE38FD568F839204296D3479219888530154036E6528FBFBC66F98E0D4107563A2D7D9AFF8D389681A08F58D89F22693900A3B407754734FC51C10C010D6D640809EE4718AC1BA3ED4AEDB53CA37283F68805A7E4B72CEB0A4EDEAD5DD8C14059A76AFAA56BA6901E13F32BC51C720
310
12AF41295B5BF61BAD3195181FB506E6B40F4C10AF5AF40EF9F5B159AE5DD1F43C72D635E94310D45C2D49785C5D0B94D3B54AB3C5A38349C0587D338AB48C11CBF339599C02CCA54A70A008A8D03C0B2201D5F9EFCF8F9CE12A9A19CB0410789EB32C63B95ECCF455D658BFE0621A3DA32C5075FB101723D77DAE867E7D0F
310
D90444509B44E2151B4DC2290B065803200FBAA9BE9D392A0603F2D5C2D00D6302A615680F66D2FA166E2079D4C551A54AB758161FCEFD4E450A14704CECFEDF504B0304140006080000B670623B000000000000000000000000350000006662782F38353834323741342D343835462D343034322D383541392D4331303331
310
363839454531452F76657274696365732E62696E504B0304140006080800B670623BF270F1330600000004000000360000006662782F38353834323741342D343835462D343034322D383541392D4331303331363839454531452F747269616E676C65732E62696E636660600000504B0304140006080000B670623B000000
310
000000000000000000370000006662782F38353834323741342D343835462D343034322D383541392D4331303331363839454531452F617474726962757465732E62696E504B0304140006080800B670623B08DA0BD19000000041010000360000006662782F38353834323741342D343835462D343034322D383541392D43
310
31303331363839454531452F6469726563746F72792E786D6C858F410AC3201045AF22B36F53E9A60B35CBEEBAE80D244E44489C6234F4F835464A48035D0DF398FF9F8AF63D0E6CC63039F212F8F9020C7D47C6792B21C5FE7403D62A1188E2E60C98D7234A5830286103A55745067B9D86B8A3CF9C7F90C11DE607FB1443
310
96D7B6A82D282E9A152AD114D5EF2CB866EEE831B8EEA07A7BB5A8D7D61A2BAAEB7FD5F70921FF497D00504B0304140006080800B670623BD9A3B367FE000000A00100003B0000006662782F38353834323741342D343835462D343034322D383541392D4331303331363839454531452F7265736F75726365732F636F7265
310
2E786D6C8D504B6E833010BD0A9A6D65B01D0201194711694FD00B586642AD043BF2A7EAF16B122AB5BB6E6646EFA3797AE2F8B5DC8A4FF4C1383B002B291468B59B8C9D0748F1420E501CA5F0CEC55F3228AC5A708015062966EFD27D83B4B3116DCCA875136EA00A012314FA968F0182FEC045952AC5AC08D7F2AEF455CD
310
58B232D3592745883E07289E4FD609D26370C96B0CA27AB252A464A64D63A6FCD35C0C7A904D73EE467EE664DCD58CD4ED4849D79C5A723ED1B7A61977AF2D6F45B59AA58866F9C9A83DAA8813484E6947182394BFB3BAA7FBBEDEBFD0434FA9A856F91F53BA4FFF342563E38E6F719FB60092E5200F428A6AED2BAF479979
310
AFDDCA6F504B010214000A0000080000B670623B3DEE336E79000000790000001B00000000000000000000000000000000006175746F6465736B2D64657369676E2D7061636B6167652E786D6C504B01021400140006080800B670623BD486FD9CA0000000F40000001300000000000000000000000000B20000005B436F6E
310
74656E745F54797065735D2E786D6C504B01021400140006080800B670623BCA089DFFEC0000007C010000080000000000000000000000000083010000636F72652E786D6C504B01021400140006080800B670623B55019EA25F0000007C000000070000000000000000000000000095020000636E782E786D6C504B010214
310
00140006080800B670623B68FC0B7272010000D40300000C00000000000000000000000000190300006662782F636F72652E786D6C504B01021400140006080800B670623B0F71DDB67E0000009D0000000B00000000000000000000000000B50400006662782F636E782E786D6C504B01021400140006080800B670623BE1
310
34B4FB280100001202000031000000000000000000000000005C0500006662782F38353834323741342D343835462D343034322D383541392D4331303331363839454531452F636F72652E786D6C504B01021400140006080800B670623B1B8617914E010000330300003000000000000000000000000000D3060000666278
310
2F38353834323741342D343835462D343034322D383541392D4331303331363839454531452F636E782E786D6C504B01021400140006080800B670623B5933D422630500003B10000034000000000000000000000000006F0800006662782F38353834323741342D343835462D343034322D383541392D4331303331363839
310
454531452F6F626A656374732E786D6C504B01021400140006080000B670623B0000000000000000000000003500000000000000000000000000240E00006662782F38353834323741342D343835462D343034322D383541392D4331303331363839454531452F76657274696365732E62696E504B01021400140006080800
310
B670623BF270F13306000000040000003600000000000000000000000000770E00006662782F38353834323741342D343835462D343034322D383541392D4331303331363839454531452F747269616E676C65732E62696E504B01021400140006080000B670623B0000000000000000000000003700000000000000000000
310
000000D10E00006662782F38353834323741342D343835462D343034322D383541392D4331303331363839454531452F617474726962757465732E62696E504B01021400140006080800B670623B08DA0BD190000000410100003600000000000000000000000000260F00006662782F38353834323741342D343835462D34
310
3034322D383541392D4331303331363839454531452F6469726563746F72792E786D6C504B01021400140006080800B670623BD9A3B367FE000000A00100003B000000000000000000000000000A1000006662782F38353834323741342D343835462D343034322D383541392D4331303331363839454531452F7265736F75
310
726365732F636F72652E786D6C504B0506000000000E000E0080040000611100000000
  0
XRECORD
  5
113
102
{ACAD_REACTORS
330
110
102
}
330
110
100
AcDbXrecord
280
     1
270
     1
271
     1
  0
XRECORD
  5
114
102
{ACAD_REACTORS
330
110
102
}
330
110
100
AcDbXrecord
280
     1
270
     1
271
     1
  0
CELLSTYLEMAP
  5
67410
102
{ACAD_REACTORS
330
104
102
}
330
104
100
AcDbCellStyleMap
 90
        3
300
CELLSTYLE
  1
TABLEFORMAT_BEGIN
 90
        5
170
     1
 91
        0
 92
    32768
 62
   257
 93
        1
300
CONTENTFORMAT
  1
CONTENTFORMAT_BEGIN
 90
        0
 91
        0
 92
      512
 93
        0
300

 40
0.0
140
1.0
 94
        5
 62
     0
340
11
144
0.25
309
CONTENTFORMAT_END
171
     1
301
MARGIN
  1
CELLMARGIN_BEGIN
 40
0.06
 40
0.06
 40
0.06
 40
0.06
 40
0.18
 40
0.18
309
CELLMARGIN_END
 94
        6
 95
        1
302
GRIDFORMAT
  1
GRIDFORMAT_BEGIN
 90
        0
 91
        1
 62
     0
 92
       -2
340
0
 93
        0
 40
0.045
309
GRIDFORMAT_END
 95
        2
302
GRIDFORMAT
  1
GRIDFORMAT_BEGIN
 90
        0
 91
        1
 62
     0
 92
       -2
340
0
 93
        0
 40
0.045
309
GRIDFORMAT_END
 95
        4
302
GRIDFORMAT
  1
GRIDFORMAT_BEGIN
 90
        0
 91
        1
 62
     0
 92
       -2
340
0
 93
        0
 40
0.045
309
GRIDFORMAT_END
 95
        8
302
GRIDFORMAT
  1
GRIDFORMAT_BEGIN
 90
        0
 91
        1
 62
     0
 92
       -2
340
0
 93
        0
 40
0.045
309
GRIDFORMAT_END
 95
       16
302
GRIDFORMAT
  1
GRIDFORMAT_BEGIN
 90
        0
 91
        1
 62
     0
 92
       -2
340
0
 93
        0
 40
0.045
309
GRIDFORMAT_END
 95
       32
302
GRIDFORMAT
  1
GRIDFORMAT_BEGIN
 90
        0
 91
        1
 62
     0
 92
       -2
340
0
 93
        0
 40
0.045
309
GRIDFORMAT_END
309
TABLEFORMAT_END
  1
CELLSTYLE_BEGIN
 90
        1
 91
        1
300
_TITLE
309
CELLSTYLE_END
300
CELLSTYLE
  1
TABLEFORMAT_BEGIN
 90
        5
170
     1
 91
        0
 92
        0
 62
   257
 93
        1
300
CONTENTFORMAT
  1
CONTENTFORMAT_BEGIN
 90
        0
 91
        0
 92
      512
 93
        0
300

 40
0.0
140
1.0
 94
        5
 62
     0
340
11
144
0.18
309
CONTENTFORMAT_END
171
     1
301
MARGIN
  1
CELLMARGIN_BEGIN
 40
0.06
 40
0.06
 40
0.06
 40
0.06
 40
0.18
 40
0.18
309
CELLMARGIN_END
 94
        6
 95
        1
302
GRIDFORMAT
  1
GRIDFORMAT_BEGIN
 90
        0
 91
        1
 62
     0
 92
       -2
340
0
 93
        0
 40
0.045
309
GRIDFORMAT_END
 95
        2
302
GRIDFORMAT
  1
GRIDFORMAT_BEGIN
 90
        0
 91
        1
 62
     0
 92
       -2
340
0
 93
        0
 40
0.045
309
GRIDFORMAT_END
 95
        4
302
GRIDFORMAT
  1
GRIDFORMAT_BEGIN
 90
        0
 91
        1
 62
     0
 92
       -2
340
0
 93
        0
 40
0.045
309
GRIDFORMAT_END
 95
        8
302
GRIDFORMAT
  1
GRIDFORMAT_BEGIN
 90
        0
 91
        1
 62
     0
 92
       -2
340
0
 93
        0
 40
0.045
309
GRIDFORMAT_END
 95
       16
302
GRIDFORMAT
  1
GRIDFORMAT_BEGIN
 90
        0
 91
        1
 62
     0
 92
       -2
340
0
 93
        0
 40
0.045
309
GRIDFORMAT_END
 95
       32
302
GRIDFORMAT
  1
GRIDFORMAT_BEGIN
 90
        0
 91
        1
 62
     0
 92
       -2
340
0
 93
        0
 40
0.045
309
GRIDFORMAT_END
309
TABLEFORMAT_END
  1
CELLSTYLE_BEGIN
 90
        2
 91
        1
300
_HEADER
309
CELLSTYLE_END
300
CELLSTYLE
  1
TABLEFORMAT_BEGIN
 90
        5
170
     1
 91
        0
 92
        0
 62
   257
 93
        1
300
CONTENTFORMAT
  1
CONTENTFORMAT_BEGIN
 90
        0
 91
        0
 92
      512
 93
        0
300

 40
0.0
140
1.0
 94
        2
 62
     0
340
11
144
0.18
309
CONTENTFORMAT_END
171
     1
301
MARGIN
  1
CELLMARGIN_BEGIN
 40
0.06
 40
0.06
 40
0.06
 40
0.06
 40
0.18
 40
0.18
309
CELLMARGIN_END
 94
        6
 95
        1
302
GRIDFORMAT
  1
GRIDFORMAT_BEGIN
 90
        0
 91
        1
 62
     0
 92
       -2
340
0
 93
        0
 40
0.045
309
GRIDFORMAT_END
 95
        2
302
GRIDFORMAT
  1
GRIDFORMAT_BEGIN
 90
        0
 91
        1
 62
     0
 92
       -2
340
0
 93
        0
 40
0.045
309
GRIDFORMAT_END
 95
        4
302
GRIDFORMAT
  1
GRIDFORMAT_BEGIN
 90
        0
 91
        1
 62
     0
 92
       -2
340
0
 93
        0
 40
0.045
309
GRIDFORMAT_END
 95
        8
302
GRIDFORMAT
  1
GRIDFORMAT_BEGIN
 90
        0
 91
        1
 62
     0
 92
       -2
340
0
 93
        0
 40
0.045
309
GRIDFORMAT_END
 95
       16
302
GRIDFORMAT
  1
GRIDFORMAT_BEGIN
 90
        0
 91
        1
 62
     0
 92
       -2
340
0
 93
        0
 40
0.045
309
GRIDFORMAT_END
 95
       32
302
GRIDFORMAT
  1
GRIDFORMAT_BEGIN
 90
        0
 91
        1
 62
     0
 92
       -2
340
0
 93
        0
 40
0.045
309
GRIDFORMAT_END
309
TABLEFORMAT_END
  1
CELLSTYLE_BEGIN
 90
        3
 91
        2
300
_DATA
309
CELLSTYLE_END
  0
ENDSEC
  0
SECTION
  2
ACDSDATA
 70
     2
 71
     8
  0
ACDSSCHEMA
 90
        0
  1
AcDb_Thumbnail_Schema
  2
AcDbDs::ID
280
    10
 91
        8
  2
Thumbnail_Data
280
    15
 91
        0
101
ACDSRECORD
 95
        0
 90
        1
  2
AcDbDs::TreatedAsObjectData
280
     1
291
     1
101
ACDSRECORD
 95
        0
 90
        2
  2
AcDbDs::Legacy
280
     1
291
     1
101
ACDSRECORD
  1
AcDbDs::ID
 90
        3
  2
AcDs:Indexable
280
     1
291
     1
101
ACDSRECORD
  1
AcDbDs::ID
 90
        4
  2
AcDbDs::HandleAttribute
280
     7
282
     1
  0
ACDSSCHEMA
 90
        1
  1
AcDbDs::TreatedAsObjectDataSchema
  2
AcDbDs::TreatedAsObjectData
280
     1
 91
        0
  0
ACDSSCHEMA
 90
        2
  1
AcDbDs::LegacySchema
  2
AcDbDs::Legacy
280
     1
 91
        0
  0
ACDSSCHEMA
 90
        3
  1
AcDbDs::IndexedPropertySchema
  2
AcDs:Indexable
280
     1
 91
        0
  0
ACDSSCHEMA
 90
        4
  1
AcDbDs::HandleAttributeSchema
  2
AcDbDs::HandleAttribute
280
     7
 91
        1
284
     1
  0
ACDSSCHEMA
 90
        5
  1
AcDb3DSolid_ASM_Data
  2
AcDbDs::ID
280
    10
 91
        8
  2
ASM_Data
280
    15
 91
        0
101
ACDSRECORD
 95
        5
 90
        1
  2
AcDbDs::TreatedAsObjectData
280
     1
291
     1
101
ACDSRECORD
 95
        5
 90
        2
  2
AcDbDs::Legacy
280
     1
291
     1
101
ACDSRECORD
  1
AcDbDs::ID
 90
        3
  2
AcDs:Indexable
280
     1
291
     1
101
ACDSRECORD
  1
AcDbDs::ID
 90
        4
  2
AcDbDs::HandleAttribute
280
     7
282
     1
  0
ACDSRECORD
 90
        0
  2
AcDbDs::ID
280
    10
320
22
  2
Thumbnail_Data
280
    15
 94
     1666
310
89504E470D0A1A0A0000000D49484452000001000000006C0803000000B2ED9CC100000300504C5445212830FFFFFF2128300000000000000000000000000000000000000000000000000000330000660000990000CC0000FF0033000033330033660033990033CC0033FF0066000066330066660066990066CC0066FF0099
310
000099330099660099990099CC0099FF00CC0000CC3300CC6600CC9900CCCC00CCFF00FF0000FF3300FF6600FF9900FFCC00FFFF3300003300333300663300993300CC3300FF3333003333333333663333993333CC3333FF3366003366333366663366993366CC3366FF3399003399333399663399993399CC3399FF33CC00
310
33CC3333CC6633CC9933CCCC33CCFF33FF0033FF3333FF6633FF9933FFCC33FFFF6600006600336600666600996600CC6600FF6633006633336633666633996633CC6633FF6666006666336666666666996666CC6666FF6699006699336699666699996699CC6699FF66CC0066CC3366CC6666CC9966CCCC66CCFF66FF0066
310
FF3366FF6666FF9966FFCC66FFFF9900009900339900669900999900CC9900FF9933009933339933669933999933CC9933FF9966009966339966669966999966CC9966FF9999009999339999669999999999CC9999FF99CC0099CC3399CC6699CC9999CCCC99CCFF99FF0099FF3399FF6699FF9999FFCC99FFFFCC0000CC00
310
33CC0066CC0099CC00CCCC00FFCC3300CC3333CC3366CC3399CC33CCCC33FFCC6600CC6633CC6666CC6699CC66CCCC66FFCC9900CC9933CC9966CC9999CC99CCCC99FFCCCC00CCCC33CCCC66CCCC99CCCCCCCCCCFFCCFF00CCFF33CCFF66CCFF99CCFFCCCCFFFFFF0000FF0033FF0066FF0099FF00CCFF00FFFF3300FF3333
310
FF3366FF3399FF33CCFF33FFFF6600FF6633FF6666FF6699FF66CCFF66FFFF9900FF9933FF9966FF9999FF99CCFF99FFFFCC00FFCC33FFCC66FFCC99FFCCCCFFCCFFFFFF00FFFF33FFFF66FFFF99FFFFCCFFFFFF0000000D0D0D1A1A1A2828283535354343435050505D5D5D6B6B6B787878868686939393A1A1A1AEAEAEBB
310
BBBBC9C9C9D6D6D6E4E4E4F1F1F1FFFFFF0000000000000000000000000000000000000000000000000000000000002E4550F1000001634944415478DAED9BCB72C2301004F7FFFF77EE297044EC5816962E2133DD557040EC615BD25A0FA802000000000000000000804F43F2C842F3110D8FFC67F390D30858E848598D80
310
4712D302DACB640AD4FC14D056396C04AC960D93A7C08280168200042020514021000108400002C205F89C07AC0B28135605140210902D20BD06B4F7D875809C044CF37D969A2DC0A6126E53E094CB28B96788998053215085093876F938B526C0EC31B84B5A3742FC04B48BE2F723DB56C0D6F5BA17622AE0E7D66BB0E537
310
16703481808B9BD30C01BBB28880500117FB80B422D8DB0AA508B80890CAE7507CD4931A9E08D99C896994E8E808A122050C56072102DE8420C04A40A70501084040928073539A80F369F96B2F902AA0967E60FE7F05FC6E8C9B0217AB2104244D01E9CE67CE35205A40F7BF417102E247C07125142540DD6F070B50190AD0
310
FDDDE0EEBAC428FD4136FD7B212B0100000000000000000000F0F77C015593AD5B220BCA400000000049454E44AE4260829E009C02AB882400670008AA1A09C01F803DB482842B007804B0C60D91CF2F9E2F7FB1C23DC1579225015C3F890CE05202B8F9242E001C5FF3827301006B5440D9FC87A325E680CBB4BF3A80E341
310
024800126BCED8DCCAFE0BC89323148B0004169DB1773E315BC236EF7D16429C74C0FC8810FAB822E4686C54F4D26BA9A9E2DD7790D975BD451A1FD53D220800A0797E05CB04E203000DE41FA502A8BD05F61574D1160836078CE58FF12DE253CECF072C2F70EA6F011040B1F60060AF8009C658FE140940F746886607B0F5
310
F2D84660BD1618B88A08D2027100640B8C5D0B2DBC0AC45A06BBF6C2581840B855A0358D18E98F251203406F1A612A80B202BAD38891FF580B500000D49D4988F37FAC813E72214627000A3582A5C338FE00598ED82311F33F3A0000000049454E44AE4260820F467818FD4AC64A010000000049454E44AE42608200187F52
310
539FF6AC0FF2D01229B97F7B56AE64E8787DBF9E93B283504D4929EEDB336DE133B927D0B706F146D8FDD54728002424931276690CDE5FFA471401522320E6FA719CDCC9E90D234F422DA512220CD4066298BF969A4028B717C4D481E25C1BC6C59A99842240E2F24B1F92F8AC20F021F00EFE737AFD0FDF7E00E9E9886BC5
310
1247A50000000049454E44AE426082
  0
ENDSEC
  0
EOF
