  0
SECTION
  2
HEADER
  9
$ACADVER
  1
AC1032
  9
$ACADMAINTVER
 90
      197
  9
$DWGCODEPAGE
  3
ANSI_1252
  9
$LASTSAVEDBY
  1
gregb
  9
$REQUIREDVERSIONS
160
                 0
  9
$INSBASE
 10
0.0
 20
0.0
 30
0.0
  9
$EXTMIN
 10
160175.9598083503
 20
108392.0517125626
 30
-0.0421403970740357
  9
$EXTMAX
 10
161313.2643848142
 20
110108.3403929823
 30
0.0280978851196778
  9
$LIMMIN
 10
0.0
 20
0.0
  9
$LIMMAX
 10
12.0
 20
9.0
  9
$ORTHOMODE
 70
     0
  9
$REGENMODE
 70
     1
  9
$FILLMODE
 70
     1
  9
$QTEXTMODE
 70
     0
  9
$MIRRTEXT
 70
     0
  9
$LTSCALE
 40
1.0
  9
$ATTMODE
 70
     1
  9
$TEXTSIZE
 40
0.2
  9
$TRACEWID
 40
0.05
  9
$TEXTSTYLE
  7
Standard
  9
$CLAYER
  8
freecads.com
  9
$CELTYPE
  6
ByLayer
  9
$CECOLOR
 62
   256
  9
$CELTSCALE
 40
1.0
  9
$DISPSILH
 70
     1
  9
$DIMSCALE
 40
1.0
  9
$DIMASZ
 40
0.18
  9
$DIMEXO
 40
0.0625
  9
$DIMDLI
 40
0.38
  9
$DIMRND
 40
0.0
  9
$DIMDLE
 40
0.0
  9
$DIMEXE
 40
0.18
  9
$DIMTP
 40
0.0
  9
$DIMTM
 40
0.0
  9
$DIMTXT
 40
0.18
  9
$DIMCEN
 40
0.09
  9
$DIMTSZ
 40
0.0
  9
$DIMTOL
 70
     0
  9
$DIMLIM
 70
     0
  9
$DIMTIH
 70
     1
  9
$DIMTOH
 70
     1
  9
$DIMSE1
 70
     0
  9
$DIMSE2
 70
     0
  9
$DIMTAD
 70
     0
  9
$DIMZIN
 70
     0
  9
$DIMBLK
  1

  9
$DIMASO
 70
     1
  9
$DIMSHO
 70
     1
  9
$DIMPOST
  1

  9
$DIMAPOST
  1

  9
$DIMALT
 70
     0
  9
$DIMALTD
 70
     2
  9
$DIMALTF
 40
25.4
  9
$DIMLFAC
 40
1.0
  9
$DIMTOFL
 70
     0
  9
$DIMTVP
 40
0.0
  9
$DIMTIX
 70
     0
  9
$DIMSOXD
 70
     0
  9
$DIMSAH
 70
     0
  9
$DIMBLK1
  1

  9
$DIMBLK2
  1

  9
$DIMSTYLE
  2
Standard
  9
$DIMCLRD
 70
     0
  9
$DIMCLRE
 70
     0
  9
$DIMCLRT
 70
     0
  9
$DIMTFAC
 40
1.0
  9
$DIMGAP
 40
0.09
  9
$DIMJUST
 70
     0
  9
$DIMSD1
 70
     0
  9
$DIMSD2
 70
     0
  9
$DIMTOLJ
 70
     1
  9
$DIMTZIN
 70
     0
  9
$DIMALTZ
 70
     0
  9
$DIMALTTZ
 70
     0
  9
$DIMUPT
 70
     0
  9
$DIMDEC
 70
     4
  9
$DIMTDEC
 70
     4
  9
$DIMALTU
 70
     2
  9
$DIMALTTD
 70
     2
  9
$DIMTXSTY
  7
Standard
  9
$DIMAUNIT
 70
     0
  9
$DIMADEC
 70
     0
  9
$DIMALTRND
 40
0.0
  9
$DIMAZIN
 70
     0
  9
$DIMDSEP
 70
    46
  9
$DIMATFIT
 70
     3
  9
$DIMFRAC
 70
     0
  9
$DIMLDRBLK
  1

  9
$DIMLUNIT
 70
     2
  9
$DIMLWD
 70
    -2
  9
$DIMLWE
 70
    -2
  9
$DIMTMOVE
 70
     0
  9
$DIMFXL
 40
1.0
  9
$DIMFXLON
 70
     0
  9
$DIMJOGANG
 40
0.7853981633974483
  9
$DIMTFILL
 70
     0
  9
$DIMTFILLCLR
 70
     0
  9
$DIMARCSYM
 70
     0
  9
$DIMLTYPE
  6

  9
$DIMLTEX1
  6

  9
$DIMLTEX2
  6

  9
$DIMTXTDIRECTION
 70
     0
  9
$LUNITS
 70
     2
  9
$LUPREC
 70
     4
  9
$SKETCHINC
 40
0.1
  9
$FILLETRAD
 40
0.0
  9
$AUNITS
 70
     0
  9
$AUPREC
 70
     0
  9
$MENU
  1
.
  9
$ELEVATION
 40
0.0
  9
$PELEVATION
 40
0.0
  9
$THICKNESS
 40
0.0
  9
$LIMCHECK
 70
     0
  9
$CHAMFERA
 40
0.0
  9
$CHAMFERB
 40
0.0
  9
$CHAMFERC
 40
0.0
  9
$CHAMFERD
 40
0.0
  9
$SKPOLY
 70
     0
  9
$TDCREATE
 40
2458157.454583334
  9
$TDUCREATE
 40
2458157.287916667
  9
$TDUPDATE
 40
2460668.824895833
  9
$TDUUPDATE
 40
2460668.658229167
  9
$TDINDWG
 40
0.2097800926
  9
$TDUSRTIMER
 40
0.2097800926
  9
$USRTIMER
 70
     1
  9
$ANGBASE
 50
0.0
  9
$ANGDIR
 70
     0
  9
$PDMODE
 70
     0
  9
$PDSIZE
 40
0.0
  9
$PLINEWID
 40
0.0
  9
$SPLFRAME
 70
     0
  9
$SPLINETYPE
 70
     6
  9
$SPLINESEGS
 70
     8
  9
$HANDSEED
  5
67412
  9
$SURFTAB1
 70
     6
  9
$SURFTAB2
 70
     6
  9
$SURFTYPE
 70
     6
  9
$SURFU
 70
     6
  9
$SURFV
 70
     6
  9
$UCSBASE
  2

  9
$UCSNAME
  2

  9
$UCSORG
 10
0.0
 20
0.0
 30
0.0
  9
$UCSXDIR
 10
1.0
 20
0.0
 30
0.0
  9
$UCSYDIR
 10
0.0
 20
1.0
 30
0.0
  9
$UCSORTHOREF
  2

  9
$UCSORTHOVIEW
 70
     0
  9
$UCSORGTOP
 10
0.0
 20
0.0
 30
0.0
  9
$UCSORGBOTTOM
 10
0.0
 20
0.0
 30
0.0
  9
$UCSORGLEFT
 10
0.0
 20
0.0
 30
0.0
  9
$UCSORGRIGHT
 10
0.0
 20
0.0
 30
0.0
  9
$UCSORGFRONT
 10
0.0
 20
0.0
 30
0.0
  9
$UCSORGBACK
 10
0.0
 20
0.0
 30
0.0
  9
$PUCSBASE
  2

  9
$PUCSNAME
  2

  9
$PUCSORG
 10
0.0
 20
0.0
 30
0.0
  9
$PUCSXDIR
 10
1.0
 20
0.0
 30
0.0
  9
$PUCSYDIR
 10
0.0
 20
1.0
 30
0.0
  9
$PUCSORTHOREF
  2

  9
$PUCSORTHOVIEW
 70
     0
  9
$PUCSORGTOP
 10
0.0
 20
0.0
 30
0.0
  9
$PUCSORGBOTTOM
 10
0.0
 20
0.0
 30
0.0
  9
$PUCSORGLEFT
 10
0.0
 20
0.0
 30
0.0
  9
$PUCSORGRIGHT
 10
0.0
 20
0.0
 30
0.0
  9
$PUCSORGFRONT
 10
0.0
 20
0.0
 30
0.0
  9
$PUCSORGBACK
 10
0.0
 20
0.0
 30
0.0
  9
$USERI1
 70
     0
  9
$USERI2
 70
     0
  9
$USERI3
 70
     0
  9
$USERI4
 70
     0
  9
$USERI5
 70
     0
  9
$USERR1
 40
0.0
  9
$USERR2
 40
0.0
  9
$USERR3
 40
0.0
  9
$USERR4
 40
0.0
  9
$USERR5
 40
0.0
  9
$WORLDVIEW
 70
     1
  9
$SHADEDGE
 70
     3
  9
$SHADEDIF
 70
    70
  9
$TILEMODE
 70
     1
  9
$MAXACTVP
 70
    64
  9
$PINSBASE
 10
0.0
 20
0.0
 30
0.0
  9
$PLIMCHECK
 70
     0
  9
$PEXTMIN
 10
0.0
 20
0.0
 30
0.0
  9
$PEXTMAX
 10
0.0
 20
0.0
 30
0.0
  9
$PLIMMIN
 10
0.0
 20
0.0
  9
$PLIMMAX
 10
12.0
 20
9.0
  9
$UNITMODE
 70
     0
  9
$VISRETAIN
 70
     1
  9
$PLINEGEN
 70
     0
  9
$PSLTSCALE
 70
     1
  9
$TREEDEPTH
 70
  3020
  9
$CMLSTYLE
  2
Standard
  9
$CMLJUST
 70
     0
  9
$CMLSCALE
 40
1.0
  9
$PROXYGRAPHICS
 70
     1
  9
$MEASUREMENT
 70
     0
  9
$CELWEIGHT
370
    -1
  9
$ENDCAPS
280
     0
  9
$JOINSTYLE
280
     0
  9
$LWDISPLAY
290
     0
  9
$INSUNITS
 70
     1
  9
$HYPERLINKBASE
  1

  9
$STYLESHEET
  1
monochrome.ctb
  9
$XEDIT
290
     1
  9
$CEPSNTYPE
380
     0
  9
$PSTYLEMODE
290
     1
  9
$FINGERPRINTGUID
  2
{358EB121-6EE0-9143-8A3E-6E8E8869FDA6}
  9
$VERSIONGUID
  2
{2522F3DE-7D37-134E-BB21-9DAA768DDE43}
  9
$EXTNAMES
290
     1
  9
$PSVPSCALE
 40
0.0
  9
$OLESTARTUP
290
     0
  9
$SORTENTS
280
   127
  9
$INDEXCTL
280
     0
  9
$HIDETEXT
280
     1
  9
$XCLIPFRAME
280
     2
  9
$HALOGAP
280
     0
  9
$OBSCOLOR
 70
   257
  9
$OBSLTYPE
280
     0
  9
$INTERSECTIONDISPLAY
280
     0
  9
$INTERSECTIONCOLOR
 70
   257
  9
$DIMASSOC
280
     2
  9
$PROJECTNAME
  1

  9
$CAMERADISPLAY
290
     0
  9
$LENSLENGTH
 40
50.0
  9
$CAMERAHEIGHT
 40
0.0
  9
$STEPSPERSEC
 40
2.0
  9
$STEPSIZE
 40
6.0
  9
$3DDWFPREC
 40
2.0
  9
$PSOLWIDTH
 40
0.25
  9
$PSOLHEIGHT
 40
4.0
  9
$LOFTANG1
 40
1.570796326794896
  9
$LOFTANG2
 40
1.570796326794896
  9
$LOFTMAG1
 40
0.0
  9
$LOFTMAG2
 40
0.0
  9
$LOFTPARAM
 70
     7
  9
$LOFTNORMALS
280
     1
  9
$LATITUDE
 40
37.795
  9
$LONGITUDE
 40
-122.394
  9
$NORTHDIRECTION
 40
0.0
  9
$TIMEZONE
 70
 -8000
  9
$LIGHTGLYPHDISPLAY
280
     1
  9
$TILEMODELIGHTSYNCH
280
     1
  9
$CMATERIAL
347
96
  9
$SOLIDHIST
280
     0
  9
$SHOWHIST
280
     1
  9
$DWFFRAME
280
     2
  9
$DGNFRAME
280
     0
  9
$REALWORLDSCALE
290
     1
  9
$INTERFERECOLOR
 62
     1
  9
$INTERFEREOBJVS
345
A3
  9
$INTERFEREVPVS
346
A0
  9
$CSHADOW
280
     0
  9
$SHADOWPLANELOCATION
 40
0.0
  0
ENDSEC
  0
SECTION
  2
CLASSES
  0
CLASS
  1
ACDBDICTIONARYWDFLT
  2
AcDbDictionaryWithDefault
  3
ObjectDBX Classes
 90
        0
 91
        1
280
     0
281
     0
  0
CLASS
  1
DICTIONARYVAR
  2
AcDbDictionaryVar
  3
ObjectDBX Classes
 90
        0
 91
       27
280
     0
281
     0
  0
CLASS
  1
TABLESTYLE
  2
AcDbTableStyle
  3
ObjectDBX Classes
 90
     4095
 91
        1
280
     0
281
     0
  0
CLASS
  1
MATERIAL
  2
AcDbMaterial
  3
ObjectDBX Classes
 90
     1153
 91
        3
280
     0
281
     0
  0
CLASS
  1
VISUALSTYLE
  2
AcDbVisualStyle
  3
ObjectDBX Classes
 90
     4095
 91
       25
280
     0
281
     0
  0
CLASS
  1
SCALE
  2
AcDbScale
  3
ObjectDBX Classes
 90
     1153
 91
       34
280
     0
281
     0
  0
CLASS
  1
MLEADERSTYLE
  2
AcDbMLeaderStyle
  3
ACDB_MLEADERSTYLE_CLASS
 90
     4095
 91
        1
280
     0
281
     0
  0
CLASS
  1
CELLSTYLEMAP
  2
AcDbCellStyleMap
  3
ObjectDBX Classes
 90
     1152
 91
        1
280
     0
281
     0
  0
CLASS
  1
EXACXREFPANELOBJECT
  2
ExAcXREFPanelObject
  3
EXAC_ESW
 90
     1025
 91
        1
280
     0
281
     0
  0
CLASS
  1
NPOCOLLECTION
  2
AcDbImpNonPersistentObjectsCollection
  3
ObjectDBX Classes
 90
     1153
 91
        1
280
     0
281
     0
  0
CLASS
  1
LAYER_INDEX
  2
AcDbLayerIndex
  3
ObjectDBX Classes
 90
        0
 91
        0
280
     0
281
     0
  0
CLASS
  1
SPATIAL_INDEX
  2
AcDbSpatialIndex
  3
ObjectDBX Classes
 90
        0
 91
        0
280
     0
281
     0
  0
CLASS
  1
IDBUFFER
  2
AcDbIdBuffer
  3
ObjectDBX Classes
 90
        0
 91
        0
280
     0
281
     0
  0
CLASS
  1
ACDBSECTIONVIEWSTYLE
  2
AcDbSectionViewStyle
  3
ObjectDBX Classes
 90
     1025
 91
        2
280
     0
281
     0
  0
CLASS
  1
ACDBDETAILVIEWSTYLE
  2
AcDbDetailViewStyle
  3
ObjectDBX Classes
 90
     1025
 91
        2
280
     0
281
     0
  0
CLASS
  1
SORTENTSTABLE
  2
AcDbSortentsTable
  3
ObjectDBX Classes
 90
        0
 91
        1
280
     0
281
     0
  0
CLASS
  1
ACAD_EVALUATION_GRAPH
  2
AcDbEvalGraph
  3
ObjectDBX Classes
 90
     1153
 91
        0
280
     0
281
     0
  0
CLASS
  1
BLOCKLINEARPARAMETER
  2
AcDbBlockLinearParameter
  3
ObjectDBX Classes
 90
     1153
 91
        0
280
     0
281
     0
  0
CLASS
  1
BLOCKLINEARGRIP
  2
AcDbBlockLinearGrip
  3
ObjectDBX Classes
 90
     1153
 91
        0
280
     0
281
     0
  0
CLASS
  1
BLOCKGRIPLOCATIONCOMPONENT
  2
AcDbBlockGripExpr
  3
ObjectDBX Classes
 90
     1153
 91
        0
280
     0
281
     0
  0
CLASS
  1
BLOCKSTRETCHACTION
  2
AcDbBlockStretchAction
  3
ObjectDBX Classes
 90
     1153
 91
        0
280
     0
281
     0
  0
CLASS
  1
ACDB_DYNAMICBLOCKPURGEPREVENTER_VERSION
  2
AcDbDynamicBlockPurgePreventer
  3
ObjectDBX Classes
 90
     1153
 91
        0
280
     0
281
     0
  0
CLASS
  1
BLOCKVISIBILITYPARAMETER
  2
AcDbBlockVisibilityParameter
  3
ObjectDBX Classes
 90
     1153
 91
        0
280
     0
281
     0
  0
CLASS
  1
BLOCKVISIBILITYGRIP
  2
AcDbBlockVisibilityGrip
  3
ObjectDBX Classes
 90
     1153
 91
        0
280
     0
281
     0
  0
CLASS
  1
ACDB_BLOCKREPRESENTATION_DATA
  2
AcDbBlockRepresentationData
  3
ObjectDBX Classes
 90
     1153
 91
        0
280
     0
281
     0
  0
CLASS
  1
SURFACE
  2
AcDbSurface
  3
ObjectDBX Classes
 90
     4095
 91
        0
280
     0
281
     1
  0
CLASS
  1
ACDBASSOCPERSSUBENTMANAGER
  2
AcDbAssocPersSubentManager
  3
ObjectDBX Classes
 90
     1024
 91
        1
280
     0
281
     0
  0
CLASS
  1
BLOCKARRAYACTION
  2
AcDbBlockArrayAction
  3
ObjectDBX Classes
 90
     1153
 91
        0
280
     0
281
     0
  0
CLASS
  1
BLOCKLOOKUPPARAMETER
  2
AcDbBlockLookupParameter
  3
ObjectDBX Classes
 90
     1153
 91
        0
280
     0
281
     0
  0
CLASS
  1
BLOCKLOOKUPGRIP
  2
AcDbBlockLookupGrip
  3
ObjectDBX Classes
 90
     1153
 91
        0
280
     0
281
     0
  0
CLASS
  1
BLOCKLOOKUPACTION
  2
AcDbBlockLookupAction
  3
ObjectDBX Classes
 90
     1153
 91
        0
280
     0
281
     0
  0
CLASS
  1
WIPEOUT
  2
AcDbWipeout
  3
WipeOut|Product Desc: Object Enabler for WipeOut entity | Company: Autodesk, Inc. | WEB Address: www.autodesk.com
 90
     2175
 91
        0
280
     0
281
     1
  0
CLASS
  1
WIPEOUTVARIABLES
  2
AcDbWipeoutVariables
  3
"WipeOut|Product Desc:     WipeOut Dbx Application|Company:          Autodesk, Inc.|WEB Address:      www.autodesk.com"
 90
        0
 91
        1
280
     0
281
     0
  0
ENDSEC
  0
SECTION
  2
TABLES
  0
TABLE
  2
VPORT
  5
8
330
0
100
AcDbSymbolTable
 70
     1
  0
VPORT
  5
94
330
8
100
AcDbSymbolTableRecord
100
AcDbViewportTableRecord
  2
*Active
 70
     0
 10
0.0
 20
0.0
 11
1.0
 21
1.0
 12
160956.549094802
 22
109088.6246705117
 13
0.0
 23
0.0
 14
0.5
 24
0.5
 15
0.5
 25
0.5
 16
0.0
 26
0.0
 36
1.0
 17
0.0
 27
0.0
 37
0.0
 40
7607.273073548196
 41
2.293369663941871
 42
50.0
 43
0.0
 44
0.0
 50
0.0
 51
0.0
 71
     0
 72
  1000
 73
     1
 74
     3
 75
     0
 76
     0
 77
     0
 78
     0
281
     0
 65
     1
110
0.0
120
0.0
130
0.0
111
1.0
121
0.0
131
0.0
112
0.0
122
1.0
132
0.0
 79
     0
146
0.0
348
9F
 60
     3
 61
     5
292
     1
282
     1
141
0.0
142
0.0
 63
   250
421
  3355443
1001
ACAD_NAV_VCDISPLAY
1070
     3
  0
ENDTAB
  0
TABLE
  2
LTYPE
  5
5
330
0
100
AcDbSymbolTable
 70
     1
  0
LTYPE
  5
14
330
5
100
AcDbSymbolTableRecord
100
AcDbLinetypeTableRecord
  2
ByBlock
 70
     0
  3

 72
    65
 73
     0
 40
0.0
  0
LTYPE
  5
15
330
5
100
AcDbSymbolTableRecord
100
AcDbLinetypeTableRecord
  2
ByLayer
 70
     0
  3

 72
    65
 73
     0
 40
0.0
  0
LTYPE
  5
16
330
5
100
AcDbSymbolTableRecord
100
AcDbLinetypeTableRecord
  2
Continuous
 70
     0
  3
Solid line
 72
    65
 73
     0
 40
0.0
  0
ENDTAB
  0
TABLE
  2
LAYER
  5
2
102
{ACAD_XDICTIONARY
360
18E
102
}
330
0
100
AcDbSymbolTable
 70
     2
  0
LAYER
  5
10
102
{ACAD_XDICTIONARY
360
E6
102
}
330
2
100
AcDbSymbolTableRecord
100
AcDbLayerTableRecord
  2
0
 70
     0
 62
     7
  6
Continuous
370
    -3
390
F
347
98
348
0
  0
LAYER
  5
204
330
2
100
AcDbSymbolTableRecord
100
AcDbLayerTableRecord
  2
freecads.com
 70
     0
 62
     7
  6
Continuous
370
    -3
390
F
347
98
348
0
1001
AcAecLayerStandard
1000

1000

1001
AcCmTransparency
1071
        0
  0
ENDTAB
  0
TABLE
  2
STYLE
  5
3
330
0
100
AcDbSymbolTable
 70
     2
  0
STYLE
  5
11
330
3
100
AcDbSymbolTableRecord
100
AcDbTextStyleTableRecord
  2
Standard
 70
     0
 40
0.0
 41
1.0
 50
0.0
 71
     0
 42
0.2
  3
arial.ttf
  4

1001
ACAD
1000
Arial
1071
       34
  0
ENDTAB
  0
TABLE
  2
VIEW
  5
6
330
0
100
AcDbSymbolTable
 70
     0
  0
ENDTAB
  0
TABLE
  2
UCS
  5
7
330
0
100
AcDbSymbolTable
 70
     0
  0
ENDTAB
  0
TABLE
  2
APPID
  5
9
330
0
100
AcDbSymbolTable
 70
    31
  0
APPID
  5
12
330
9
100
AcDbSymbolTableRecord
100
AcDbRegAppTableRecord
  2
ACAD
 70
     0
  0
APPID
  5
DD
330
9
100
AcDbSymbolTableRecord
100
AcDbRegAppTableRecord
  2
AcadAnnoPO
 70
     0
  0
APPID
  5
DE
330
9
100
AcDbSymbolTableRecord
100
AcDbRegAppTableRecord
  2
AcadAnnotative
 70
     0
  0
APPID
  5
DF
330
9
100
AcDbSymbolTableRecord
100
AcDbRegAppTableRecord
  2
ACAD_DSTYLE_DIMJAG
 70
     0
  0
APPID
  5
E0
330
9
100
AcDbSymbolTableRecord
100
AcDbRegAppTableRecord
  2
ACAD_DSTYLE_DIMTALN
 70
     0
  0
APPID
  5
107
330
9
100
AcDbSymbolTableRecord
100
AcDbRegAppTableRecord
  2
ACAD_MLEADERVER
 70
     0
  0
APPID
  5
1A6
330
9
100
AcDbSymbolTableRecord
100
AcDbRegAppTableRecord
  2
ACAD_NAV_VCDISPLAY
 70
     0
  0
APPID
  5
205
330
9
100
AcDbSymbolTableRecord
100
AcDbRegAppTableRecord
  2
AcAecLayerStandard
 70
     0
  0
APPID
  5
206
330
9
100
AcDbSymbolTableRecord
100
AcDbRegAppTableRecord
  2
AcCmTransparency
 70
     0
  0
APPID
  5
222
330
9
100
AcDbSymbolTableRecord
100
AcDbRegAppTableRecord
  2
ACAD_PSEXT
 70
     0
  0
APPID
  5
2DA
330
9
100
AcDbSymbolTableRecord
100
AcDbRegAppTableRecord
  2
GradientColor1ACI
 70
     0
  0
APPID
  5
2DB
330
9
100
AcDbSymbolTableRecord
100
AcDbRegAppTableRecord
  2
GradientColor2ACI
 70
     0
  0
APPID
  5
2F3
330
9
100
AcDbSymbolTableRecord
100
AcDbRegAppTableRecord
  2
ACAD_EXEMPT_FROM_CAD_STANDARDS
 70
     0
  0
APPID
  5
A1A
330
9
100
AcDbSymbolTableRecord
100
AcDbRegAppTableRecord
  2
AcDbBlockRepETag
 70
     0
  0
APPID
  5
2282
330
9
100
AcDbSymbolTableRecord
100
AcDbRegAppTableRecord
  2
RAK
 70
     0
  0
APPID
  5
39F4
330
9
100
AcDbSymbolTableRecord
100
AcDbRegAppTableRecord
  2
ACAD_DSTYLE_DIMJOGGED_JOGANGLE_SYMBOL
 70
     0
  0
APPID
  5
39F5
330
9
100
AcDbSymbolTableRecord
100
AcDbRegAppTableRecord
  2
AcDbDynamicBlockGUID
 70
     0
  0
APPID
  5
39F6
330
9
100
AcDbSymbolTableRecord
100
AcDbRegAppTableRecord
  2
ACAD_DSTYLE_DIMBREAK
 70
     0
  0
APPID
  5
3B59
330
9
100
AcDbSymbolTableRecord
100
AcDbRegAppTableRecord
  2
AEC_XDATA_BOUND_SPACE
 70
     0
  0
APPID
  5
75C5
330
9
100
AcDbSymbolTableRecord
100
AcDbRegAppTableRecord
  2
AcDbDynamicBlockTrueName
 70
     0
  0
APPID
  5
75C6
330
9
100
AcDbSymbolTableRecord
100
AcDbRegAppTableRecord
  2
AcDbBlockRepBTag
 70
     0
  0
APPID
  5
75C7
330
9
100
AcDbSymbolTableRecord
100
AcDbRegAppTableRecord
  2
ACAUTHENVIRON
 70
     0
  0
APPID
  5
AA90
330
9
100
AcDbSymbolTableRecord
100
AcDbRegAppTableRecord
  2
Acad_TC
 70
     0
  0
APPID
  5
AA9C
330
9
100
AcDbSymbolTableRecord
100
AcDbRegAppTableRecord
  2
AcDbBlockArrayActionTag
 70
     0
  0
APPID
  5
BEE4
330
9
100
AcDbSymbolTableRecord
100
AcDbRegAppTableRecord
  2
ACAD_DSTYLE_DIMTEXT_FILL
 70
     0
  0
APPID
  5
219E5
330
9
100
AcDbSymbolTableRecord
100
AcDbRegAppTableRecord
  2
AECLAY
 70
     0
  0
APPID
  5
26B46
330
9
100
AcDbSymbolTableRecord
100
AcDbRegAppTableRecord
  2
REVIT
 70
     0
  0
APPID
  5
280A5
330
9
100
AcDbSymbolTableRecord
100
AcDbRegAppTableRecord
  2
HATCHBACKGROUNDCOLOR
 70
     0
  0
APPID
  5
29EE0
330
9
100
AcDbSymbolTableRecord
100
AcDbRegAppTableRecord
  2
ACAD_STEPID
 70
     0
  0
APPID
  5
29EE1
330
9
100
AcDbSymbolTableRecord
100
AcDbRegAppTableRecord
  2
AcLayerTools
 70
     0
  0
APPID
  5
4D86C
330
9
100
AcDbSymbolTableRecord
100
AcDbRegAppTableRecord
  2
PE_URL
 70
     0
  0
ENDTAB
  0
TABLE
  2
DIMSTYLE
  5
A
330
0
100
AcDbSymbolTable
 70
     2
100
AcDbDimStyleTable
 71
     1
340
27
  0
DIMSTYLE
105
27
330
A
100
AcDbSymbolTableRecord
100
AcDbDimStyleTableRecord
  2
Standard
 70
     0
340
11
  0
ENDTAB
  0
TABLE
  2
BLOCK_RECORD
  5
1
330
0
100
AcDbSymbolTable
 70
     2
  0
BLOCK_RECORD
  5
1F
102
{ACAD_XDICTIONARY
360
15D
102
}
330
1
100
AcDbSymbolTableRecord
100
AcDbBlockTableRecord
  2
*Model_Space
340
22
 70
     0
280
     1
281
     0
  0
BLOCK_RECORD
  5
58
330
1
100
AcDbSymbolTableRecord
100
AcDbBlockTableRecord
  2
*Paper_Space
340
59
 70
     0
280
     1
281
     0
  0
BLOCK_RECORD
  5
5D
330
1
100
AcDbSymbolTableRecord
100
AcDbBlockTableRecord
  2
*Paper_Space0
340
5E
 70
     0
280
     1
281
     0
  0
ENDTAB
  0
ENDSEC
  0
SECTION
  2
BLOCKS
  0
BLOCK
  5
20
330
1F
100
AcDbEntity
  8
0
100
AcDbBlockBegin
  2
*Model_Space
 70
     0
 10
0.0
 20
0.0
 30
0.0
  3
*Model_Space
  1

  0
ENDBLK
  5
21
330
1F
100
AcDbEntity
  8
0
100
AcDbBlockEnd
  0
BLOCK
  5
5A
330
58
100
AcDbEntity
 67
     1
  8
0
100
AcDbBlockBegin
  2
*Paper_Space
 70
     0
 10
0.0
 20
0.0
 30
0.0
  3
*Paper_Space
  1

  0
ENDBLK
  5
5B
330
58
100
AcDbEntity
 67
     1
  8
0
100
AcDbBlockEnd
  0
BLOCK
  5
5F
330
5D
100
AcDbEntity
 67
     1
  8
0
100
AcDbBlockBegin
  2
*Paper_Space0
 70
     0
 10
0.0
 20
0.0
 30
0.0
  3
*Paper_Space0
  1

  0
ENDBLK
  5
60
330
5D
100
AcDbEntity
 67
     1
  8
0
100
AcDbBlockEnd
  0
ENDSEC
  0
SECTION
  2
ENTITIES
  0
ARC
  5
62782
330
1F
100
AcDbEntity
  8
freecads.com
100
AcDbCircle
 10
160545.8920975944
 20
108651.1650569127
 30
0.0
 40
119.9027885235757
100
AcDbArc
 50
262.7554491359247
 51
270.1989223204182
  0
LINE
  5
62783
330
1F
100
AcDbEntity
  8
freecads.com
100
AcDbLine
 10
160546.3083811871
 20
108531.2629910268
 30
0.0
 11
160607.8912362236
 21
108533.8781395561
 31
0.0
  0
LINE
  5
62784
330
1F
100
AcDbEntity
  8
freecads.com
100
AcDbLine
 10
160607.8912362236
 20
108533.8781395561
 30
0.0
 11
161067.8048795288
 21
108654.3348220449
 31
0.0
  0
LINE
  5
62785
330
1F
100
AcDbEntity
  8
freecads.com
100
AcDbLine
 10
161067.8048795288
 20
108654.3348220449
 30
0.0
 11
161133.3148579396
 21
108423.9012332017
 31
0.0
  0
LINE
  5
62786
330
1F
100
AcDbEntity
  8
freecads.com
100
AcDbLine
 10
161133.3148579396
 20
108423.9012332017
 30
0.0
 11
161171.3118038619
 21
108423.9012332017
 31
0.0
  0
LINE
  5
62787
330
1F
100
AcDbEntity
  8
freecads.com
100
AcDbLine
 10
161171.3118038619
 20
108423.9012332017
 30
0.0
 11
160994.3827321952
 21
109131.3980173926
 31
0.0
  0
LINE
  5
62788
330
1F
100
AcDbEntity
  8
freecads.com
100
AcDbLine
 10
160994.3827321952
 20
109131.3980173926
 30
0.0
 11
160948.5199550906
 21
109119.6138639969
 31
0.0
  0
LINE
  5
62789
330
1F
100
AcDbEntity
  8
freecads.com
100
AcDbLine
 10
160948.5199550906
 20
109119.6138639969
 30
0.0
 11
161045.271513169
 21
108742.227765442
 31
0.0
  0
LINE
  5
6278A
330
1F
100
AcDbEntity
  8
freecads.com
100
AcDbLine
 10
161045.271513169
 20
108742.227765442
 30
0.0
 11
160552.8535868119
 21
108770.8655847364
 31
0.0
  0
ARC
  5
6278B
330
1F
100
AcDbEntity
  8
freecads.com
100
AcDbCircle
 10
160545.8920975929
 20
108651.1650569076
 30
0.0
 40
119.9027885190888
100
AcDbArc
 50
86.67156714807335
 51
144.5117093827244
  0
LINE
  5
6278C
330
1F
100
AcDbEntity
  8
freecads.com
100
AcDbLine
 10
160971.8904245946
 20
109028.4557422802
 30
0.0
 11
160716.4988657453
 21
108761.3483765366
 31
0.0
  0
LINE
  5
6278D
330
1F
100
AcDbEntity
  8
freecads.com
100
AcDbLine
 10
160948.5199550906
 20
109119.6138639969
 30
0.0
 11
160618.8240906953
 21
108767.028901976
 31
0.0
  0
LINE
  5
6278E
330
1F
100
AcDbEntity
  8
freecads.com
100
AcDbLine
 10
160618.8240906953
 20
108767.028901976
 30
0.0
 11
160489.5446509992
 21
108837.1522468395
 31
0.0
  0
LINE
  5
6278F
330
1F
100
AcDbEntity
  8
freecads.com
100
AcDbLine
 10
160489.5446509992
 20
108837.1522468395
 30
0.0
 11
160511.1263574505
 21
108765.9170590992
 31
0.0
  0
LINE
  5
62790
330
1F
100
AcDbEntity
  8
freecads.com
100
AcDbLine
 10
160427.4859694339
 20
109041.9906289309
 30
0.0
 11
160432.2276866747
 21
109026.3395441271
 31
0.0
  0
LINE
  5
62791
330
1F
100
AcDbEntity
  8
freecads.com
100
AcDbLine
 10
160381.9600056404
 20
109041.9906289309
 30
0.0
 11
160427.4859694339
 21
109041.9906289309
 31
0.0
  0
LINE
  5
62792
330
1F
100
AcDbEntity
  8
freecads.com
100
AcDbLine
 10
160381.9600056404
 20
109041.9906289309
 30
0.0
 11
160413.4279375117
 21
108938.1237711513
 31
0.0
  0
LINE
  5
62793
330
1F
100
AcDbEntity
  8
freecads.com
100
AcDbLine
 10
160649.5759323857
 20
108799.9156867537
 30
0.0
 11
160505.9925041715
 21
108877.7977558358
 31
0.0
  0
CIRCLE
  5
62794
330
1F
100
AcDbEntity
  8
freecads.com
100
AcDbCircle
 10
160567.334130226
 20
108651.3616091689
 30
0.0
 40
82.27167756098863
  0
LINE
  5
62795
330
1F
100
AcDbEntity
  8
freecads.com
100
AcDbLine
 10
160372.3560247462
 20
109192.5694745492
 30
0.0
 11
160417.9760132231
 21
109041.9906289309
 31
0.0
  0
LINE
  5
62796
330
1F
100
AcDbEntity
  8
freecads.com
100
AcDbLine
 10
160340.7189334914
 20
109192.5694745492
 30
0.0
 11
160386.3389219692
 21
109041.9906289309
 31
0.0
  0
LINE
  5
62797
330
1F
100
AcDbEntity
  8
freecads.com
100
AcDbLine
 10
160180.4719323444
 20
109229.9168646663
 30
0.0
 11
160426.0735331023
 21
109229.9168646663
 31
0.0
  0
LINE
  5
62798
330
1F
100
AcDbEntity
  8
freecads.com
100
AcDbLine
 10
160426.0735331023
 20
109229.9168646663
 30
0.0
 11
160426.0735331023
 21
109192.5694745492
 31
0.0
  0
LINE
  5
62799
330
1F
100
AcDbEntity
  8
freecads.com
100
AcDbLine
 10
160426.0735331023
 20
109192.5694745492
 30
0.0
 11
160180.4719323444
 21
109192.5694745492
 31
0.0
  0
LINE
  5
6279A
330
1F
100
AcDbEntity
  8
freecads.com
100
AcDbLine
 10
160180.4719323444
 20
109192.5694745492
 30
0.0
 11
160180.4719323444
 21
109229.9168646663
 31
0.0
  0
LINE
  5
6279B
330
1F
100
AcDbEntity
  8
freecads.com
100
AcDbLine
 10
160383.3617222443
 20
109303.7164840349
 30
0.0
 11
160383.3617222443
 21
109229.9168646663
 31
0.0
  0
LINE
  5
6279C
330
1F
100
AcDbEntity
  8
freecads.com
100
AcDbLine
 10
160383.3617222443
 20
109229.9168646663
 30
0.0
 11
160401.1554139921
 21
109229.9168646663
 31
0.0
  0
LINE
  5
6279D
330
1F
100
AcDbEntity
  8
freecads.com
100
AcDbLine
 10
160401.1554139921
 20
109229.9168646663
 30
0.0
 11
160401.1554139921
 21
109317.9495417992
 31
0.0
  0
LINE
  5
6279E
330
1F
100
AcDbEntity
  8
freecads.com
100
AcDbLine
 10
160489.1835783342
 20
109346.6757845319
 30
0.0
 11
160488.3630386567
 21
109346.402869315
 31
0.0
  0
LINE
  5
6279F
330
1F
100
AcDbEntity
  8
freecads.com
100
AcDbLine
 10
160488.3630386567
 20
109346.402869315
 30
0.0
 11
160454.548073674
 21
109342.8478018772
 31
0.0
  0
LINE
  5
627A0
330
1F
100
AcDbEntity
  8
freecads.com
100
AcDbLine
 10
160454.548073674
 20
109342.8478018772
 30
0.0
 11
160418.0686887003
 21
109331.2874386977
 31
0.0
  0
LINE
  5
627A1
330
1F
100
AcDbEntity
  8
freecads.com
100
AcDbLine
 10
160418.0686887003
 20
109331.2874386977
 30
0.0
 11
160401.1554139921
 21
109317.9495417992
 31
0.0
  0
LINE
  5
627A2
330
1F
100
AcDbEntity
  8
freecads.com
100
AcDbLine
 10
160401.1554139921
 20
109317.9495417992
 30
0.0
 11
160383.3617222443
 21
109303.7164840349
 31
0.0
  0
LINE
  5
627A3
330
1F
100
AcDbEntity
  8
freecads.com
100
AcDbLine
 10
160383.3617222443
 20
109303.7164840349
 30
0.0
 11
160355.779183146
 21
109285.0459859795
 31
0.0
  0
LINE
  5
627A4
330
1F
100
AcDbEntity
  8
freecads.com
100
AcDbLine
 10
160355.779183146
 20
109285.0459859795
 30
0.0
 11
160332.6450669862
 21
109282.3796854007
 31
0.0
  0
LINE
  5
627A5
330
1F
100
AcDbEntity
  8
freecads.com
100
AcDbLine
 10
160332.6450669862
 20
109282.3796854007
 30
0.0
 11
160303.2785249393
 21
109287.7122865576
 31
0.0
  0
LINE
  5
627A6
330
1F
100
AcDbEntity
  8
freecads.com
100
AcDbLine
 10
160303.2785249393
 20
109287.7122865576
 30
0.0
 11
160271.2359784705
 21
109301.0501834561
 31
0.0
  0
LINE
  5
627A7
330
1F
100
AcDbEntity
  8
freecads.com
100
AcDbLine
 10
160271.2359784705
 20
109301.0501834561
 30
0.0
 11
160239.2050164355
 21
109317.9495417992
 31
0.0
  0
LINE
  5
627A8
330
1F
100
AcDbEntity
  8
freecads.com
100
AcDbLine
 10
160239.2050164355
 20
109317.9495417992
 30
0.0
 11
160232.080589075
 21
109333.9537392759
 31
0.0
  0
LINE
  5
627A9
330
1F
100
AcDbEntity
  8
freecads.com
100
AcDbLine
 10
160232.080589075
 20
109333.9537392759
 30
0.0
 11
160240.0970179098
 21
109354.4017710502
 31
0.0
  0
LINE
  5
627AA
330
1F
100
AcDbEntity
  8
freecads.com
100
AcDbLine
 10
160240.0970179098
 20
109354.4017710502
 30
0.0
 11
160262.3391325952
 21
109369.5235956739
 31
0.0
  0
LINE
  5
627AB
330
1F
100
AcDbEntity
  8
freecads.com
100
AcDbLine
 10
160262.3391325952
 20
109369.5235956739
 30
0.0
 11
160288.1492531787
 21
109369.5235956739
 31
0.0
  0
LINE
  5
627AC
330
1F
100
AcDbEntity
  8
freecads.com
100
AcDbLine
 10
160288.1492531787
 20
109369.5235956739
 30
0.0
 11
160316.6237937504
 21
109369.5235956739
 31
0.0
  0
LINE
  5
627AD
330
1F
100
AcDbEntity
  8
freecads.com
100
AcDbLine
 10
160316.6237937504
 20
109369.5235956739
 30
0.0
 11
160358.4436031351
 21
109364.1846005113
 31
0.0
  0
LINE
  5
627AE
330
1F
100
AcDbEntity
  8
freecads.com
100
AcDbLine
 10
160358.4436031351
 20
109364.1846005113
 30
0.0
 11
160389.5941481296
 21
109366.8509010896
 31
0.0
  0
LINE
  5
627AF
330
1F
100
AcDbEntity
  8
freecads.com
100
AcDbLine
 10
160389.5941481296
 20
109366.8509010896
 30
0.0
 11
160420.7331086903
 21
109374.8561968308
 31
0.0
  0
LINE
  5
627B0
330
1F
100
AcDbEntity
  8
freecads.com
100
AcDbLine
 10
160420.7331086903
 20
109374.8561968308
 30
0.0
 11
160451.8836536849
 21
109376.6337305499
 31
0.0
  0
LINE
  5
627B1
330
1F
100
AcDbEntity
  8
freecads.com
100
AcDbLine
 10
160451.8836536849
 20
109376.6337305499
 30
0.0
 11
160478.5741913089
 21
109374.8561968308
 31
0.0
  0
LINE
  5
627B2
330
1F
100
AcDbEntity
  8
freecads.com
100
AcDbLine
 10
160478.5741913089
 20
109374.8561968308
 30
0.0
 11
160489.4659540517
 21
109369.9592336494
 31
0.0
  0
LINE
  5
627B3
330
1F
100
AcDbEntity
  8
freecads.com
100
AcDbLine
 10
160484.8066171942
 20
109362.4070667924
 30
0.0
 11
160462.5645025078
 21
109362.4070667924
 31
0.0
  0
LINE
  5
627B4
330
1F
100
AcDbEntity
  8
freecads.com
100
AcDbLine
 10
160462.5645025078
 20
109362.4070667924
 30
0.0
 11
160415.3926842784
 21
109357.9632324947
 31
0.0
  0
LINE
  5
627B5
330
1F
100
AcDbEntity
  8
freecads.com
100
AcDbLine
 10
160415.3926842784
 20
109357.9632324947
 30
0.0
 11
160375.3568778442
 21
109350.8467036124
 31
0.0
  0
LINE
  5
627B6
330
1F
100
AcDbEntity
  8
freecads.com
100
AcDbLine
 10
160375.3568778442
 20
109350.8467036124
 30
0.0
 11
160351.3307602092
 21
109343.7365687363
 31
0.0
  0
LINE
  5
627B7
330
1F
100
AcDbEntity
  8
freecads.com
100
AcDbLine
 10
160351.3307602092
 20
109343.7365687363
 30
0.0
 11
160334.4174855001
 21
109337.508806714
 31
0.0
  0
LINE
  5
627B8
330
1F
100
AcDbEntity
  8
freecads.com
100
AcDbLine
 10
160334.4174855001
 20
109337.508806714
 30
0.0
 11
160313.0673722889
 21
109330.398671838
 31
0.0
  0
LINE
  5
627B9
330
1F
100
AcDbEntity
  8
freecads.com
100
AcDbLine
 10
160313.0673722889
 20
109330.398671838
 30
0.0
 11
160285.4732487559
 21
109327.7259772536
 31
0.0
  0
LINE
  5
627BA
330
1F
100
AcDbEntity
  8
freecads.com
100
AcDbLine
 10
160285.4732487559
 20
109327.7259772536
 30
0.0
 11
160261.4471311219
 21
109332.176205557
 31
0.0
  0
LINE
  5
627BB
330
1F
100
AcDbEntity
  8
freecads.com
100
AcDbLine
 10
160261.4471311219
 20
109332.176205557
 30
0.0
 11
160246.3178593622
 21
109340.1751072928
 31
0.0
  0
LINE
  5
627BC
330
1F
100
AcDbEntity
  8
freecads.com
100
AcDbLine
 10
160246.3178593622
 20
109340.1751072928
 30
0.0
 11
160246.3178593622
 21
109343.7365687363
 31
0.0
  0
LINE
  5
627BD
330
1F
100
AcDbEntity
  8
freecads.com
100
AcDbLine
 10
161216.4259998746
 20
109269.0764222792
 30
0.0
 11
161176.9418391412
 21
109248.0246901774
 31
0.0
  0
LINE
  5
627BE
330
1F
100
AcDbEntity
  8
freecads.com
100
AcDbLine
 10
161176.9418391412
 20
109248.0246901774
 30
0.0
 11
161155.4642971478
 21
109245.8251520503
 31
0.0
  0
LINE
  5
627BF
330
1F
100
AcDbEntity
  8
freecads.com
100
AcDbLine
 10
161155.4642971478
 20
109245.8251520503
 30
0.0
 11
161062.9741702456
 21
109246.9249211139
 31
0.0
  0
LINE
  5
627C0
330
1F
100
AcDbEntity
  8
freecads.com
100
AcDbLine
 10
161062.9741702456
 20
109246.9249211139
 30
0.0
 11
161001.3218086002
 21
109251.3303913744
 31
0.0
  0
LINE
  5
627C1
330
1F
100
AcDbEntity
  8
freecads.com
100
AcDbLine
 10
161001.3218086002
 20
109251.3303913744
 30
0.0
 11
160973.7971916761
 21
109262.8779665413
 31
0.0
  0
LINE
  5
627C2
330
1F
100
AcDbEntity
  8
freecads.com
100
AcDbLine
 10
160973.7971916761
 20
109262.8779665413
 30
0.0
 11
160962.7803942472
 21
109276.6314738418
 31
0.0
  0
LINE
  5
627C3
330
1F
100
AcDbEntity
  8
freecads.com
100
AcDbLine
 10
160962.7803942472
 20
109276.6314738418
 30
0.0
 11
160962.7803942472
 21
109286.5008017215
 31
0.0
  0
ARC
  5
627C4
330
1F
100
AcDbEntity
  8
freecads.com
100
AcDbCircle
 10
160976.8340910695
 20
109286.5008017215
 30
0.0
 40
14.05369682237506
100
AcDbArc
 50
0.0
 51
180.0
  0
LINE
  5
627C5
330
1F
100
AcDbEntity
  8
freecads.com
100
AcDbLine
 10
160990.8877878919
 20
109286.5008017215
 30
0.0
 11
160990.8877878919
 21
109286.5008017215
 31
0.0
  0
LINE
  5
627C6
330
1F
100
AcDbEntity
  8
freecads.com
100
AcDbLine
 10
160990.8877878919
 20
109286.5008017215
 30
0.0
 11
160991.2644072849
 21
109286.0306253745
 31
0.0
  0
LINE
  5
627C7
330
1F
100
AcDbEntity
  8
freecads.com
100
AcDbLine
 10
160991.2644072849
 20
109286.0306253745
 30
0.0
 11
161007.9344567893
 21
109279.036934955
 31
0.0
  0
LINE
  5
627C8
330
1F
100
AcDbEntity
  8
freecads.com
100
AcDbLine
 10
161007.9344567893
 20
109279.036934955
 30
0.0
 11
161064.1439751958
 21
109275.0203919535
 31
0.0
  0
LINE
  5
627C9
330
1F
100
AcDbEntity
  8
freecads.com
100
AcDbLine
 10
161064.1439751958
 20
109275.0203919535
 30
0.0
 11
161154.1955136939
 21
109273.9496193263
 31
0.0
  0
LINE
  5
627CA
330
1F
100
AcDbEntity
  8
freecads.com
100
AcDbLine
 10
161154.1955136939
 20
109273.9496193263
 30
0.0
 11
161168.5880330311
 21
109275.4235726789
 31
0.0
  0
LINE
  5
627CB
330
1F
100
AcDbEntity
  8
freecads.com
100
AcDbLine
 10
161168.5880330311
 20
109275.4235726789
 30
0.0
 11
161175.3151685711
 21
109279.010273082
 31
0.0
  0
LINE
  5
627CC
330
1F
100
AcDbEntity
  8
freecads.com
100
AcDbLine
 10
160952.080491613
 20
109300.5544985441
 30
0.0
 11
160994.3827321952
 21
109131.3980173926
 31
0.0
  0
LINE
  5
627CD
330
1F
100
AcDbEntity
  8
freecads.com
100
AcDbLine
 10
160908.651622699
 20
109300.5544985441
 30
0.0
 11
160953.509994727
 21
109121.1766628106
 31
0.0
  0
LINE
  5
627CE
330
1F
100
AcDbEntity
  8
freecads.com
100
AcDbLine
 10
160952.080491613
 20
109300.5544985441
 30
0.0
 11
160908.651622699
 21
109300.5544985441
 31
0.0
  0
CIRCLE
  5
627CF
330
1F
100
AcDbEntity
  8
freecads.com
100
AcDbCircle
 10
161017.0071332281
 20
108683.184577944
 30
0.0
 40
12.05909566146309
  0
ARC
  5
627D0
330
1F
100
AcDbEntity
  8
freecads.com
100
AcDbCircle
 10
161020.4477103431
 20
108712.4627322574
 30
0.0
 40
208.4062375410003
100
AcDbArc
 50
95.70321147093139
 51
168.0737967524816
  0
ARC
  5
627D1
330
1F
100
AcDbEntity
  8
freecads.com
100
AcDbCircle
 10
161020.4477103431
 20
108712.4627322574
 30
0.0
 40
208.4062375410003
100
AcDbArc
 50
305.5312593726328
 51
82.5495926553228
  0
ARC
  5
627D2
330
1F
100
AcDbEntity
  8
freecads.com
100
AcDbCircle
 10
161020.4477103431
 20
108712.4627322574
 30
0.0
 40
208.4062375410003
100
AcDbArc
 50
213.7871293565977
 51
294.0510535602586
  0
LINE
  5
627D3
330
1F
100
AcDbEntity
  8
freecads.com
100
AcDbLine
 10
160405.6930019943
 20
108539.1012118529
 30
0.0
 11
160297.9715713294
 21
108423.9012332017
 31
0.0
  0
LINE
  5
627D4
330
1F
100
AcDbEntity
  8
freecads.com
100
AcDbLine
 10
160477.0589866418
 20
108503.1597938729
 30
0.0
 11
160401.276848228
 21
108423.9012332017
 31
0.0
  0
LINE
  5
627D5
330
1F
100
AcDbEntity
  8
freecads.com
100
AcDbLine
 10
161133.3148579396
 20
108423.9012332017
 30
0.0
 11
160241.9041897295
 21
108423.9012332017
 31
0.0
  0
LINE
  5
627D6
330
1F
100
AcDbEntity
  8
freecads.com
100
AcDbLine
 10
160241.9041897295
 20
108423.9012332017
 30
0.0
 11
160353.5433872429
 21
108423.9012332017
 31
0.0
  0
LINE
  5
627D7
330
1F
100
AcDbEntity
  8
freecads.com
100
AcDbLine
 10
160353.5433872429
 20
108423.9012332017
 30
0.0
 11
160353.5433872429
 21
108400.1219242056
 31
0.0
  0
LINE
  5
627D8
330
1F
100
AcDbEntity
  8
freecads.com
100
AcDbLine
 10
160353.5433872429
 20
108400.1219242056
 30
0.0
 11
160241.9041897295
 21
108400.1219242056
 31
0.0
  0
LINE
  5
627D9
330
1F
100
AcDbEntity
  8
freecads.com
100
AcDbLine
 10
160241.9041897295
 20
108400.1219242056
 30
0.0
 11
160241.9041897295
 21
108423.9012332017
 31
0.0
  0
LINE
  5
627DA
330
1F
100
AcDbEntity
  8
freecads.com
100
AcDbLine
 10
161171.3118038619
 20
108423.9012332017
 30
0.0
 11
161132.0058168148
 21
108423.9012332017
 31
0.0
  0
LINE
  5
627DB
330
1F
100
AcDbEntity
  8
freecads.com
100
AcDbLine
 10
161132.0058168148
 20
108423.9012332017
 30
0.0
 11
161132.0058168148
 21
108400.1219242056
 31
0.0
  0
LINE
  5
627DC
330
1F
100
AcDbEntity
  8
freecads.com
100
AcDbLine
 10
161132.0058168148
 20
108400.1219242056
 30
0.0
 11
161171.3118038619
 21
108400.1219242056
 31
0.0
  0
LINE
  5
627DD
330
1F
100
AcDbEntity
  8
freecads.com
100
AcDbLine
 10
161171.3118038619
 20
108400.1219242056
 30
0.0
 11
161171.3118038619
 21
108423.9012332017
 31
0.0
  0
LINE
  5
627DE
330
1F
100
AcDbEntity
  8
freecads.com
100
AcDbLine
 10
160353.5433872429
 20
108400.1219242056
 30
0.0
 11
161132.0058168148
 21
108400.1219242056
 31
0.0
  0
LINE
  5
627DF
330
1F
100
AcDbEntity
  8
freecads.com
100
AcDbLine
 10
161286.2062275357
 20
109922.272642215
 30
0.0
 11
161293.5044214179
 21
109936.8637643255
 31
0.0
  0
LINE
  5
627E0
330
1F
100
AcDbEntity
  8
freecads.com
100
AcDbLine
 10
161293.5044214179
 20
109936.8637643255
 30
0.0
 11
161302.7951380735
 21
109944.1529313747
 31
0.0
  0
LINE
  5
627E1
330
1F
100
AcDbEntity
  8
freecads.com
100
AcDbLine
 10
161302.7951380735
 20
109944.1529313747
 30
0.0
 11
161302.7951380735
 21
109953.437028353
 31
0.0
  0
LINE
  5
627E2
330
1F
100
AcDbEntity
  8
freecads.com
100
AcDbLine
 10
161302.7951380735
 20
109953.437028353
 30
0.0
 11
161306.7685991846
 21
109969.3517097434
 31
0.0
  0
LINE
  5
627E3
330
1F
100
AcDbEntity
  8
freecads.com
100
AcDbLine
 10
161306.7685991846
 20
109969.3517097434
 30
0.0
 11
161305.4479736252
 21
109977.3058534355
 31
0.0
  0
LINE
  5
627E4
330
1F
100
AcDbEntity
  8
freecads.com
100
AcDbLine
 10
161305.4479736252
 20
109977.3058534355
 30
0.0
 11
161305.4479736252
 21
109977.3058534355
 31
0.0
  0
LINE
  5
627E5
330
1F
100
AcDbEntity
  8
freecads.com
100
AcDbLine
 10
161305.4479736252
 20
109977.3058534355
 30
0.0
 11
161299.4704053042
 21
109992.5555581828
 31
0.0
  0
LINE
  5
627E6
330
1F
100
AcDbEntity
  8
freecads.com
100
AcDbLine
 10
161299.4704053042
 20
109992.5555581828
 30
0.0
 11
161297.4778825299
 21
110005.8167270073
 31
0.0
  0
LINE
  5
627E7
330
1F
100
AcDbEntity
  8
freecads.com
100
AcDbLine
 10
161297.4778825299
 20
110005.8167270073
 30
0.0
 11
161293.5044214179
 21
110017.0893599085
 31
0.0
  0
LINE
  5
627E8
330
1F
100
AcDbEntity
  8
freecads.com
100
AcDbLine
 10
161293.5044214179
 20
110017.0893599085
 30
0.0
 11
161286.2062275357
 21
110030.3505287328
 31
0.0
  0
LINE
  5
627E9
330
1F
100
AcDbEntity
  8
freecads.com
100
AcDbLine
 10
161286.2062275357
 20
110030.3505287328
 30
0.0
 11
161279.5683464346
 21
110050.9072586122
 31
0.0
  0
LINE
  5
627EA
330
1F
100
AcDbEntity
  8
freecads.com
100
AcDbLine
 10
161279.5683464346
 20
110050.9072586122
 30
0.0
 11
161274.9229881059
 21
110058.2028196678
 31
0.0
  0
LINE
  5
627EB
330
1F
100
AcDbEntity
  8
freecads.com
100
AcDbLine
 10
161274.9229881059
 20
110058.2028196678
 30
0.0
 11
161268.2851070057
 21
110066.1569633595
 31
0.0
  0
LINE
  5
627EC
330
1F
100
AcDbEntity
  8
freecads.com
100
AcDbLine
 10
161268.2851070057
 20
110066.1569633595
 30
0.0
 11
161261.6472259037
 21
110076.7646196176
 31
0.0
  0
LINE
  5
627ED
330
1F
100
AcDbEntity
  8
freecads.com
100
AcDbLine
 10
161261.6472259037
 20
110076.7646196176
 30
0.0
 11
161253.6887192413
 21
110084.7251573159
 31
0.0
  0
LINE
  5
627EE
330
1F
100
AcDbEntity
  8
freecads.com
100
AcDbLine
 10
161253.6887192413
 20
110084.7251573159
 30
0.0
 11
161244.3980025866
 21
110091.3557417286
 31
0.0
  0
LINE
  5
627EF
330
1F
100
AcDbEntity
  8
freecads.com
100
AcDbLine
 10
161244.3980025866
 20
110091.3557417286
 30
0.0
 11
161235.7675987113
 21
110099.3098854202
 31
0.0
  0
LINE
  5
627F0
330
1F
100
AcDbEntity
  8
freecads.com
100
AcDbLine
 10
161235.7675987113
 20
110099.3098854202
 30
0.0
 11
161225.8165692756
 21
110102.6283746296
 31
0.0
  0
LINE
  5
627F1
330
1F
100
AcDbEntity
  8
freecads.com
100
AcDbLine
 10
161225.8165692756
 20
110102.6283746296
 30
0.0
 11
161211.2201815139
 21
110102.6283746296
 31
0.0
  0
LINE
  5
627F2
330
1F
100
AcDbEntity
  8
freecads.com
100
AcDbLine
 10
161211.2201815139
 20
110102.6283746296
 30
0.0
 11
161193.9709581978
 21
110102.6283746296
 31
0.0
  0
LINE
  5
627F3
330
1F
100
AcDbEntity
  8
freecads.com
100
AcDbLine
 10
161193.9709581978
 20
110102.6283746296
 30
0.0
 11
161176.7101504471
 21
110101.2984213438
 31
0.0
  0
LINE
  5
627F4
330
1F
100
AcDbEntity
  8
freecads.com
100
AcDbLine
 10
161176.7101504471
 20
110101.2984213438
 30
0.0
 11
161142.8720165941
 21
110097.9863261406
 31
0.0
  0
LINE
  5
627F5
330
1F
100
AcDbEntity
  8
freecads.com
100
AcDbLine
 10
161142.8720165941
 20
110097.9863261406
 30
0.0
 11
161137.5663454862
 21
110095.3328135741
 31
0.0
  0
LINE
  5
627F6
330
1F
100
AcDbEntity
  8
freecads.com
100
AcDbLine
 10
161137.5663454862
 20
110095.3328135741
 30
0.0
 11
161128.2756288306
 21
110087.3722758762
 31
0.0
  0
LINE
  5
627F7
330
1F
100
AcDbEntity
  8
freecads.com
100
AcDbLine
 10
161128.2756288306
 20
110087.3722758762
 30
0.0
 11
161122.9699577236
 21
110080.7416914636
 31
0.0
  0
LINE
  5
627F8
330
1F
100
AcDbEntity
  8
freecads.com
100
AcDbLine
 10
161122.9699577236
 20
110080.7416914636
 30
0.0
 11
161116.3320766225
 21
110073.4525244151
 31
0.0
  0
LINE
  5
627F9
330
1F
100
AcDbEntity
  8
freecads.com
100
AcDbLine
 10
161116.3320766225
 20
110073.4525244151
 30
0.0
 11
161109.6941955205
 21
110061.5149148704
 31
0.0
  0
LINE
  5
627FA
330
1F
100
AcDbEntity
  8
freecads.com
100
AcDbLine
 10
161109.6941955205
 20
110061.5149148704
 30
0.0
 11
161107.041359966
 21
110055.5493071014
 31
0.0
  0
LINE
  5
627FB
330
1F
100
AcDbEntity
  8
freecads.com
100
AcDbLine
 10
161107.041359966
 20
110055.5493071014
 30
0.0
 11
161097.7506433114
 21
110049.5836993324
 31
0.0
  0
LINE
  5
627FC
330
1F
100
AcDbEntity
  8
freecads.com
100
AcDbLine
 10
161097.7506433114
 20
110049.5836993324
 30
0.0
 11
161091.1127622103
 21
110044.9416508432
 31
0.0
  0
LINE
  5
627FD
330
1F
100
AcDbEntity
  8
freecads.com
100
AcDbLine
 10
161091.1127622103
 20
110044.9416508432
 30
0.0
 11
161083.8145683281
 21
110039.634625711
 31
0.0
  0
LINE
  5
627FE
330
1F
100
AcDbEntity
  8
freecads.com
100
AcDbLine
 10
161083.8145683281
 20
110039.634625711
 30
0.0
 11
161071.8710161209
 21
110034.3276005791
 31
0.0
  0
LINE
  5
627FF
330
1F
100
AcDbEntity
  8
freecads.com
100
AcDbLine
 10
161071.8710161209
 20
110034.3276005791
 30
0.0
 11
161061.2596739059
 21
110031.0155053758
 31
0.0
  0
LINE
  5
62800
330
1F
100
AcDbEntity
  8
freecads.com
100
AcDbLine
 10
161061.2596739059
 20
110031.0155053758
 30
0.0
 11
161049.9764344761
 21
110027.6970161664
 31
0.0
  0
LINE
  5
62801
330
1F
100
AcDbEntity
  8
freecads.com
100
AcDbLine
 10
161049.9764344761
 20
110027.6970161664
 30
0.0
 11
161045.9913889275
 21
110027.6970161664
 31
0.0
  0
LINE
  5
62802
330
1F
100
AcDbEntity
  8
freecads.com
100
AcDbLine
 10
161045.9913889275
 20
110027.6970161664
 30
0.0
 11
161041.3460305998
 21
110039.634625711
 31
0.0
  0
LINE
  5
62803
330
1F
100
AcDbEntity
  8
freecads.com
100
AcDbLine
 10
161041.3460305998
 20
110039.634625711
 30
0.0
 11
161034.0478367194
 21
110042.9531149198
 31
0.0
  0
LINE
  5
62804
330
1F
100
AcDbEntity
  8
freecads.com
100
AcDbLine
 10
161034.0478367194
 20
110042.9531149198
 30
0.0
 11
161026.7496428381
 21
110042.9531149198
 31
0.0
  0
LINE
  5
62805
330
1F
100
AcDbEntity
  8
freecads.com
100
AcDbLine
 10
161026.7496428381
 20
110042.9531149198
 30
0.0
 11
161018.1308233974
 21
110038.9696490682
 31
0.0
  0
LINE
  5
62806
330
1F
100
AcDbEntity
  8
freecads.com
100
AcDbLine
 10
161018.1308233974
 20
110038.9696490682
 30
0.0
 11
161006.8475839685
 21
110037.6460897877
 31
0.0
  0
LINE
  5
62807
330
1F
100
AcDbEntity
  8
freecads.com
100
AcDbLine
 10
161006.8475839685
 20
110037.6460897877
 30
0.0
 11
160995.5643445387
 21
110036.3225305081
 31
0.0
  0
LINE
  5
62808
330
1F
100
AcDbEntity
  8
freecads.com
100
AcDbLine
 10
160995.5643445387
 20
110036.3225305081
 30
0.0
 11
160983.6207923297
 21
110036.9811131449
 31
0.0
  0
LINE
  5
62809
330
1F
100
AcDbEntity
  8
freecads.com
100
AcDbLine
 10
160983.6207923297
 20
110036.9811131449
 30
0.0
 11
160967.0318817928
 21
110036.9811131449
 31
0.0
  0
LINE
  5
6280A
330
1F
100
AcDbEntity
  8
freecads.com
100
AcDbLine
 10
160967.0318817928
 20
110036.9811131449
 30
0.0
 11
160952.4354940312
 21
110036.9811131449
 31
0.0
  0
LINE
  5
6280B
330
1F
100
AcDbEntity
  8
freecads.com
100
AcDbLine
 10
160952.4354940312
 20
110036.9811131449
 30
0.0
 11
160885.4195391046
 21
110031.6804820187
 31
0.0
  0
LINE
  5
6280C
330
1F
100
AcDbEntity
  8
freecads.com
100
AcDbLine
 10
160885.4195391046
 20
110031.6804820187
 30
0.0
 11
160852.9020308101
 21
110027.0384335296
 31
0.0
  0
LINE
  5
6280D
330
1F
100
AcDbEntity
  8
freecads.com
100
AcDbLine
 10
160852.9020308101
 20
110027.0384335296
 30
0.0
 11
160826.3620908394
 21
110019.0778958312
 31
0.0
  0
LINE
  5
6280E
330
1F
100
AcDbEntity
  8
freecads.com
100
AcDbLine
 10
160826.3620908394
 20
110019.0778958312
 30
0.0
 11
160799.8105664322
 21
110006.4817036503
 31
0.0
  0
LINE
  5
6280F
330
1F
100
AcDbEntity
  8
freecads.com
100
AcDbLine
 10
160799.8105664322
 20
110006.4817036503
 30
0.0
 11
160725.2183911915
 21
109959.2236039485
 31
0.0
  0
LINE
  5
62810
330
1F
100
AcDbEntity
  8
freecads.com
100
AcDbLine
 10
160725.2183911915
 20
109959.2236039485
 30
0.0
 11
160682.7498534633
 21
109924.747122608
 31
0.0
  0
LINE
  5
62811
330
1F
100
AcDbEntity
  8
freecads.com
100
AcDbLine
 10
160682.7498534633
 20
109924.747122608
 30
0.0
 11
160640.281315735
 21
109876.3444958
 31
0.0
  0
LINE
  5
62812
330
1F
100
AcDbEntity
  8
freecads.com
100
AcDbLine
 10
160640.281315735
 20
109876.3444958
 30
0.0
 11
160593.1674196798
 21
109815.3456768104
 31
0.0
  0
LINE
  5
62813
330
1F
100
AcDbEntity
  8
freecads.com
100
AcDbLine
 10
160593.1674196798
 20
109815.3456768104
 30
0.0
 11
160550.5482842991
 21
109755.9581473789
 31
0.0
  0
LINE
  5
62814
330
1F
100
AcDbEntity
  8
freecads.com
100
AcDbLine
 10
160550.5482842991
 20
109755.9581473789
 30
0.0
 11
160510.072269345
 21
109704.2434253682
 31
0.0
  0
LINE
  5
62815
330
1F
100
AcDbEntity
  8
freecads.com
100
AcDbLine
 10
160510.072269345
 20
109704.2434253682
 30
0.0
 11
160490.8305232547
 21
109687.6637673343
 31
0.0
  0
LINE
  5
62816
330
1F
100
AcDbEntity
  8
freecads.com
100
AcDbLine
 10
160490.8305232547
 20
109687.6637673343
 30
0.0
 11
160466.9318344019
 21
109654.5108452736
 31
0.0
  0
LINE
  5
62817
330
1F
100
AcDbEntity
  8
freecads.com
100
AcDbLine
 10
160466.9318344019
 20
109654.5108452736
 30
0.0
 11
160449.0222983056
 21
109607.2015935227
 31
0.0
  0
LINE
  5
62818
330
1F
100
AcDbEntity
  8
freecads.com
100
AcDbLine
 10
160449.0222983056
 20
109607.2015935227
 30
0.0
 11
160444.3769399779
 21
109571.3951588956
 31
0.0
  0
LINE
  5
62819
330
1F
100
AcDbEntity
  8
freecads.com
100
AcDbLine
 10
160444.3769399779
 20
109571.3951588956
 30
0.0
 11
160445.7091499719
 21
109538.9072134783
 31
0.0
  0
LINE
  5
6281A
330
1F
100
AcDbEntity
  8
freecads.com
100
AcDbLine
 10
160445.7091499719
 20
109538.9072134783
 30
0.0
 11
160458.3130149621
 21
109505.7542914174
 31
0.0
  0
LINE
  5
6281B
330
1F
100
AcDbEntity
  8
freecads.com
100
AcDbLine
 10
160458.3130149621
 20
109505.7542914174
 30
0.0
 11
160477.5547610515
 21
109458.010247246
 31
0.0
  0
LINE
  5
6281C
330
1F
100
AcDbEntity
  8
freecads.com
100
AcDbLine
 10
160477.5547610515
 20
109458.010247246
 30
0.0
 11
160488.1776877002
 21
109432.8178628831
 31
0.0
  0
LINE
  5
6281D
330
1F
100
AcDbEntity
  8
freecads.com
100
AcDbLine
 10
160488.1776877002
 20
109432.8178628831
 30
0.0
 11
160489.4751443913
 21
109369.510807662
 31
0.0
  0
LINE
  5
6281E
330
1F
100
AcDbEntity
  8
freecads.com
100
AcDbLine
 10
160489.4751443913
 20
109369.510807662
 30
0.0
 11
160488.8148316111
 21
109317.7960856509
 31
0.0
  0
LINE
  5
6281F
330
1F
100
AcDbEntity
  8
freecads.com
100
AcDbLine
 10
160488.8148316111
 20
109317.7960856509
 30
0.0
 11
160492.7998771596
 21
109272.0469714084
 31
0.0
  0
LINE
  5
62820
330
1F
100
AcDbEntity
  8
freecads.com
100
AcDbLine
 10
160492.7998771596
 20
109272.0469714084
 30
0.0
 11
160504.0715321529
 21
109208.0877275562
 31
0.0
  0
LINE
  5
62821
330
1F
100
AcDbEntity
  8
freecads.com
100
AcDbLine
 10
160504.0715321529
 20
109208.0877275562
 30
0.0
 11
160510.0491004757
 21
109173.6048522094
 31
0.0
  0
LINE
  5
62822
330
1F
100
AcDbEntity
  8
freecads.com
100
AcDbLine
 10
160510.0491004757
 20
109173.6048522094
 30
0.0
 11
160509.3772032609
 21
109149.071050484
 31
0.0
  0
LINE
  5
62823
330
1F
100
AcDbEntity
  8
freecads.com
100
AcDbLine
 10
160509.3772032609
 20
109149.071050484
 30
0.0
 11
160484.1694732833
 21
109100.6684236751
 31
0.0
  0
LINE
  5
62824
330
1F
100
AcDbEntity
  8
freecads.com
100
AcDbLine
 10
160484.1694732833
 20
109100.6684236751
 30
0.0
 11
160462.2748916404
 21
109070.8339908236
 31
0.0
  0
LINE
  5
62825
330
1F
100
AcDbEntity
  8
freecads.com
100
AcDbLine
 10
160462.2748916404
 20
109070.8339908236
 30
0.0
 11
160437.0555772273
 21
109036.3511154768
 31
0.0
  0
LINE
  5
62826
330
1F
100
AcDbEntity
  8
freecads.com
100
AcDbLine
 10
160437.0555772273
 20
109036.3511154768
 30
0.0
 11
160428.4251733528
 21
109018.4542921694
 31
0.0
  0
LINE
  5
62827
330
1F
100
AcDbEntity
  8
freecads.com
100
AcDbLine
 10
160428.4251733528
 20
109018.4542921694
 30
0.0
 11
160420.4319133874
 21
108975.684784809
 31
0.0
  0
LINE
  5
62828
330
1F
100
AcDbEntity
  8
freecads.com
100
AcDbLine
 10
160420.4319133874
 20
108975.684784809
 30
0.0
 11
160415.7865550596
 21
108944.5203986709
 31
0.0
  0
LINE
  5
62829
330
1F
100
AcDbEntity
  8
freecads.com
100
AcDbLine
 10
160415.7865550596
 20
108944.5203986709
 30
0.0
 11
160401.8504800763
 21
108906.7254281209
 31
0.0
  0
LINE
  5
6282A
330
1F
100
AcDbEntity
  8
freecads.com
100
AcDbLine
 10
160401.8504800763
 20
108906.7254281209
 30
0.0
 11
160394.5291173257
 21
108864.0390428407
 31
0.0
  0
LINE
  5
6282B
330
1F
100
AcDbEntity
  8
freecads.com
100
AcDbLine
 10
160394.5291173257
 20
108864.0390428407
 30
0.0
 11
160379.9327295622
 21
108808.3408549777
 31
0.0
  0
LINE
  5
6282C
330
1F
100
AcDbEntity
  8
freecads.com
100
AcDbLine
 10
160379.9327295622
 20
108808.3408549777
 30
0.0
 11
160378.600519569
 21
108793.7561268735
 31
0.0
  0
LINE
  5
6282D
330
1F
100
AcDbEntity
  8
freecads.com
100
AcDbLine
 10
160378.600519569
 20
108793.7561268735
 30
0.0
 11
160375.2873712362
 21
108794.4147095103
 31
0.0
  0
LINE
  5
6282E
330
1F
100
AcDbEntity
  8
freecads.com
100
AcDbLine
 10
160375.2873712362
 20
108794.4147095103
 30
0.0
 11
160371.3023256877
 21
108789.1140783844
 31
0.0
  0
LINE
  5
6282F
330
1F
100
AcDbEntity
  8
freecads.com
100
AcDbLine
 10
160371.3023256877
 20
108789.1140783844
 30
0.0
 11
160362.0116090322
 21
108763.2567173783
 31
0.0
  0
LINE
  5
62830
330
1F
100
AcDbEntity
  8
freecads.com
100
AcDbLine
 10
160362.0116090322
 20
108763.2567173783
 30
0.0
 11
160355.3853123666
 21
108747.3420359882
 31
0.0
  0
LINE
  5
62831
330
1F
100
AcDbEntity
  8
freecads.com
100
AcDbLine
 10
160355.3853123666
 20
108747.3420359882
 30
0.0
 11
160349.4077440429
 21
108736.7343797301
 31
0.0
  0
LINE
  5
62832
330
1F
100
AcDbEntity
  8
freecads.com
100
AcDbLine
 10
160349.4077440429
 20
108736.7343797301
 30
0.0
 11
160349.4077440429
 21
108739.3814982896
 31
0.0
  0
LINE
  5
62833
330
1F
100
AcDbEntity
  8
freecads.com
100
AcDbLine
 10
160349.4077440429
 20
108739.3814982896
 30
0.0
 11
160342.7698629418
 21
108735.4044264435
 31
0.0
  0
LINE
  5
62834
330
1F
100
AcDbEntity
  8
freecads.com
100
AcDbLine
 10
160342.7698629418
 20
108735.4044264435
 30
0.0
 11
160330.1659979526
 21
108718.8311624165
 31
0.0
  0
LINE
  5
62835
330
1F
100
AcDbEntity
  8
freecads.com
100
AcDbLine
 10
160330.1659979526
 20
108718.8311624165
 30
0.0
 11
160317.5621329642
 21
108704.905016949
 31
0.0
  0
LINE
  5
62836
330
1F
100
AcDbEntity
  8
freecads.com
100
AcDbLine
 10
160317.5621329642
 20
108704.905016949
 30
0.0
 11
160304.286370762
 21
108694.2973606909
 31
0.0
  0
LINE
  5
62837
330
1F
100
AcDbEntity
  8
freecads.com
100
AcDbLine
 10
160304.286370762
 20
108694.2973606909
 30
0.0
 11
160298.3088024392
 21
108683.0247277893
 31
0.0
  0
LINE
  5
62838
330
1F
100
AcDbEntity
  8
freecads.com
100
AcDbLine
 10
160298.3088024392
 20
108683.0247277893
 30
0.0
 11
160297.6484896591
 21
108672.4170715312
 31
0.0
  0
LINE
  5
62839
330
1F
100
AcDbEntity
  8
freecads.com
100
AcDbLine
 10
160297.6484896591
 20
108672.4170715312
 30
0.0
 11
160302.2822635531
 21
108645.0059670229
 31
0.0
  0
LINE
  5
6283A
330
1F
100
AcDbEntity
  8
freecads.com
100
AcDbLine
 10
160302.2822635531
 20
108645.0059670229
 30
0.0
 11
160307.5879346592
 21
108625.1142137865
 31
0.0
  0
LINE
  5
6283B
330
1F
100
AcDbEntity
  8
freecads.com
100
AcDbLine
 10
160307.5879346592
 20
108625.1142137865
 30
0.0
 11
160326.8296807496
 21
108607.8759731159
 31
0.0
  0
LINE
  5
6283C
330
1F
100
AcDbEntity
  8
freecads.com
100
AcDbLine
 10
160326.8296807496
 20
108607.8759731159
 30
0.0
 11
160348.0639496142
 21
108583.3421713904
 31
0.0
  0
LINE
  5
6283D
330
1F
100
AcDbEntity
  8
freecads.com
100
AcDbLine
 10
160348.0639496142
 20
108583.3421713904
 30
0.0
 11
160381.2417706869
 21
108560.7969055875
 31
0.0
  0
LINE
  5
6283E
330
1F
100
AcDbEntity
  8
freecads.com
100
AcDbLine
 10
160381.2417706869
 20
108560.7969055875
 30
0.0
 11
160402.4760395506
 21
108555.4962744616
 31
0.0
  0
LINE
  5
6283F
330
1F
100
AcDbEntity
  8
freecads.com
100
AcDbLine
 10
160402.4760395506
 20
108555.4962744616
 30
0.0
 11
160420.3971600834
 21
108542.9000822808
 31
0.0
  0
LINE
  5
62840
330
1F
100
AcDbEntity
  8
freecads.com
100
AcDbLine
 10
160420.3971600834
 20
108542.9000822808
 30
0.0
 11
160438.967008958
 21
108523.5070615266
 31
0.0
  0
LINE
  5
62841
330
1F
100
AcDbEntity
  8
freecads.com
100
AcDbLine
 10
160438.967008958
 20
108523.5070615266
 30
0.0
 11
160455.5559194948
 21
108511.5758459882
 31
0.0
  0
LINE
  5
62842
330
1F
100
AcDbEntity
  8
freecads.com
100
AcDbLine
 10
160455.5559194948
 20
108511.5758459882
 30
0.0
 11
160476.1182911437
 21
108503.6153082902
 31
0.0
  0
LINE
  5
62843
330
1F
100
AcDbEntity
  8
freecads.com
100
AcDbLine
 10
160476.1182911437
 20
108503.6153082902
 30
0.0
 11
160498.0244572231
 21
108493.0076520315
 31
0.0
  0
LINE
  5
62844
330
1F
100
AcDbEntity
  8
freecads.com
100
AcDbLine
 10
160498.0244572231
 20
108493.0076520315
 30
0.0
 11
160510.6283222114
 21
108490.3541394657
 31
0.0
  0
LINE
  5
62845
330
1F
100
AcDbEntity
  8
freecads.com
100
AcDbLine
 10
160510.6283222114
 20
108490.3541394657
 30
0.0
 11
160522.5718744214
 21
108497.6497005206
 31
0.0
  0
LINE
  5
62846
330
1F
100
AcDbEntity
  8
freecads.com
100
AcDbLine
 10
160522.5718744214
 20
108497.6497005206
 30
0.0
 11
160529.2097555225
 21
108510.9108693451
 31
0.0
  0
LINE
  5
62847
330
1F
100
AcDbEntity
  8
freecads.com
100
AcDbLine
 10
160529.2097555225
 20
108510.9108693451
 30
0.0
 11
160531.2022782959
 21
108538.0917896308
 31
0.0
  0
LINE
  5
62848
330
1F
100
AcDbEntity
  8
freecads.com
100
AcDbLine
 10
160531.2022782959
 20
108538.0917896308
 30
0.0
 11
160519.2587260878
 21
108560.6370554336
 31
0.0
  0
LINE
  5
62849
330
1F
100
AcDbEntity
  8
freecads.com
100
AcDbLine
 10
160519.2587260878
 20
108560.6370554336
 30
0.0
 11
160486.080905015
 21
108605.7275870385
 31
0.0
  0
LINE
  5
6284A
330
1F
100
AcDbEntity
  8
freecads.com
100
AcDbLine
 10
160486.080905015
 20
108605.7275870385
 30
0.0
 11
160474.1373528041
 21
108624.9543636319
 31
0.0
  0
LINE
  5
6284B
330
1F
100
AcDbEntity
  8
freecads.com
100
AcDbLine
 10
160474.1373528041
 20
108624.9543636319
 30
0.0
 11
160466.1672617089
 21
108640.8690450222
 31
0.0
  0
LINE
  5
6284C
330
1F
100
AcDbEntity
  8
freecads.com
100
AcDbLine
 10
160466.1672617089
 20
108640.8690450222
 30
0.0
 11
160458.8690678285
 21
108657.4423090498
 31
0.0
  0
LINE
  5
6284D
330
1F
100
AcDbEntity
  8
freecads.com
100
AcDbLine
 10
160458.8690678285
 20
108657.4423090498
 30
0.0
 11
160460.2012778226
 21
108683.9646466982
 31
0.0
  0
LINE
  5
6284E
330
1F
100
AcDbEntity
  8
freecads.com
100
AcDbLine
 10
160460.2012778226
 20
108683.9646466982
 30
0.0
 11
160457.5484422691
 21
108692.5901610396
 31
0.0
  0
LINE
  5
6284F
330
1F
100
AcDbEntity
  8
freecads.com
100
AcDbLine
 10
160457.5484422691
 20
108692.5901610396
 30
0.0
 11
160452.2311867274
 21
108693.9137203193
 31
0.0
  0
LINE
  5
62850
330
1F
100
AcDbEntity
  8
freecads.com
100
AcDbLine
 10
160452.2311867274
 20
108693.9137203193
 30
0.0
 11
160446.2652028393
 21
108693.2487436765
 31
0.0
  0
LINE
  5
62851
330
1F
100
AcDbEntity
  8
freecads.com
100
AcDbLine
 10
160446.2652028393
 20
108693.2487436765
 30
0.0
 11
160446.9255156194
 21
108703.8563999352
 31
0.0
  0
LINE
  5
62852
330
1F
100
AcDbEntity
  8
freecads.com
100
AcDbLine
 10
160446.9255156194
 20
108703.8563999352
 30
0.0
 11
160448.9180383937
 21
108729.0551783036
 31
0.0
  0
LINE
  5
62853
330
1F
100
AcDbEntity
  8
freecads.com
100
AcDbLine
 10
160448.9180383937
 20
108729.0551783036
 30
0.0
 11
160452.9030839404
 21
108748.2819548971
 31
0.0
  0
LINE
  5
62854
330
1F
100
AcDbEntity
  8
freecads.com
100
AcDbLine
 10
160452.9030839404
 20
108748.2819548971
 30
0.0
 11
160458.8690678285
 21
108761.5431237215
 31
0.0
  0
LINE
  5
62855
330
1F
100
AcDbEntity
  8
freecads.com
100
AcDbLine
 10
160458.8690678285
 20
108761.5431237215
 30
0.0
 11
160454.8956067146
 21
108766.1851722105
 31
0.0
  0
LINE
  5
62856
330
1F
100
AcDbEntity
  8
freecads.com
100
AcDbLine
 10
160454.8956067146
 20
108766.1851722105
 30
0.0
 11
160458.8690678285
 21
108773.4807332655
 31
0.0
  0
LINE
  5
62857
330
1F
100
AcDbEntity
  8
freecads.com
100
AcDbLine
 10
160458.8690678285
 20
108773.4807332655
 30
0.0
 11
160476.8828638367
 21
108818.9549052421
 31
0.0
  0
LINE
  5
62858
330
1F
100
AcDbEntity
  8
freecads.com
100
AcDbLine
 10
160476.8828638367
 20
108818.9549052421
 30
0.0
 11
160484.1810577198
 21
108839.5116351213
 31
0.0
  0
LINE
  5
62859
330
1F
100
AcDbEntity
  8
freecads.com
100
AcDbLine
 10
160484.1810577198
 20
108839.5116351213
 30
0.0
 11
160533.2874765483
 21
108925.7092324796
 31
0.0
  0
LINE
  5
6285A
330
1F
100
AcDbEntity
  8
freecads.com
100
AcDbLine
 10
160533.2874765483
 20
108925.7092324796
 30
0.0
 11
160571.7709687281
 21
109007.2647813484
 31
0.0
  0
LINE
  5
6285B
330
1F
100
AcDbEntity
  8
freecads.com
100
AcDbLine
 10
160571.7709687281
 20
109007.2647813484
 30
0.0
 11
160610.9726958632
 21
109068.538542604
 31
0.0
  0
LINE
  5
6285C
330
1F
100
AcDbEntity
  8
freecads.com
100
AcDbLine
 10
160610.9726958632
 20
109068.538542604
 30
0.0
 11
160634.8598002804
 21
109093.7373209725
 31
0.0
  0
LINE
  5
6285D
330
1F
100
AcDbEntity
  8
freecads.com
100
AcDbLine
 10
160634.8598002804
 20
109093.7373209725
 30
0.0
 11
160640.8257841685
 21
109113.6290742089
 31
0.0
  0
LINE
  5
6285E
330
1F
100
AcDbEntity
  8
freecads.com
100
AcDbLine
 10
160640.8257841685
 20
109113.6290742089
 30
0.0
 11
160646.1314552747
 21
109143.463507061
 31
0.0
  0
LINE
  5
6285F
330
1F
100
AcDbEntity
  8
freecads.com
100
AcDbLine
 10
160646.1314552747
 20
109143.463507061
 30
0.0
 11
160654.7850280212
 21
109203.4456790672
 31
0.0
  0
LINE
  5
62860
330
1F
100
AcDbEntity
  8
freecads.com
100
AcDbLine
 10
160654.7850280212
 20
109203.4456790672
 30
0.0
 11
160659.4303863471
 21
109241.2406496169
 31
0.0
  0
LINE
  5
62861
330
1F
100
AcDbEntity
  8
freecads.com
100
AcDbLine
 10
160659.4303863471
 20
109241.2406496169
 30
0.0
 11
160664.736057456
 21
109264.4444980565
 31
0.0
  0
LINE
  5
62862
330
1F
100
AcDbEntity
  8
freecads.com
100
AcDbLine
 10
160664.736057456
 20
109264.4444980565
 30
0.0
 11
160672.0342513364
 21
109285.001227936
 31
0.0
  0
LINE
  5
62863
330
1F
100
AcDbEntity
  8
freecads.com
100
AcDbLine
 10
160672.0342513364
 20
109285.001227936
 30
0.0
 11
160675.3589841047
 21
109318.1541499969
 31
0.0
  0
LINE
  5
62864
330
1F
100
AcDbEntity
  8
freecads.com
100
AcDbLine
 10
160675.3589841047
 20
109318.1541499969
 30
0.0
 11
160678.6721324375
 21
109330.0853655353
 31
0.0
  0
LINE
  5
62865
330
1F
100
AcDbEntity
  8
freecads.com
100
AcDbLine
 10
160678.6721324375
 20
109330.0853655353
 30
0.0
 11
160685.9703263197
 21
109340.6994157996
 31
0.0
  0
LINE
  5
62866
330
1F
100
AcDbEntity
  8
freecads.com
100
AcDbLine
 10
160685.9703263197
 20
109340.6994157996
 30
0.0
 11
160711.189640731
 21
109320.1426859196
 31
0.0
  0
LINE
  5
62867
330
1F
100
AcDbEntity
  8
freecads.com
100
AcDbLine
 10
160711.189640731
 20
109320.1426859196
 30
0.0
 11
160743.6955645898
 21
109300.2509326832
 31
0.0
  0
LINE
  5
62868
330
1F
100
AcDbEntity
  8
freecads.com
100
AcDbLine
 10
160743.6955645898
 20
109300.2509326832
 30
0.0
 11
160754.3184912385
 21
109288.3133231392
 31
0.0
  0
LINE
  5
62869
330
1F
100
AcDbEntity
  8
freecads.com
100
AcDbLine
 10
160754.3184912385
 20
109288.3133231392
 30
0.0
 11
160764.9298334544
 21
109269.7515231888
 31
0.0
  0
LINE
  5
6286A
330
1F
100
AcDbEntity
  8
freecads.com
100
AcDbLine
 10
160764.9298334544
 20
109269.7515231888
 30
0.0
 11
160770.9074017763
 21
109253.171865155
 31
0.0
  0
LINE
  5
6286B
330
1F
100
AcDbEntity
  8
freecads.com
100
AcDbLine
 10
160770.9074017763
 20
109253.171865155
 30
0.0
 11
160770.2470889971
 21
109242.5642088968
 31
0.0
  0
LINE
  5
6286C
330
1F
100
AcDbEntity
  8
freecads.com
100
AcDbLine
 10
160770.2470889971
 20
109242.5642088968
 30
0.0
 11
160751.0053429058
 21
109223.3374323035
 31
0.0
  0
LINE
  5
6286D
330
1F
100
AcDbEntity
  8
freecads.com
100
AcDbLine
 10
160751.0053429058
 20
109223.3374323035
 30
0.0
 11
160739.050206263
 21
109210.076263479
 31
0.0
  0
LINE
  5
6286E
330
1F
100
AcDbEntity
  8
freecads.com
100
AcDbLine
 10
160739.050206263
 20
109210.076263479
 30
0.0
 11
160722.4612957261
 21
109186.8660210337
 31
0.0
  0
LINE
  5
6286F
330
1F
100
AcDbEntity
  8
freecads.com
100
AcDbLine
 10
160722.4612957261
 20
109186.8660210337
 30
0.0
 11
160707.8649079645
 21
109158.3551474622
 31
0.0
  0
LINE
  5
62870
330
1F
100
AcDbEntity
  8
freecads.com
100
AcDbLine
 10
160707.8649079645
 20
109158.3551474622
 30
0.0
 11
160698.574191308
 21
109133.1627630992
 31
0.0
  0
LINE
  5
62871
330
1F
100
AcDbEntity
  8
freecads.com
100
AcDbLine
 10
160698.574191308
 20
109133.1627630992
 30
0.0
 11
160695.9213557544
 21
109107.2990080878
 31
0.0
  0
LINE
  5
62872
330
1F
100
AcDbEntity
  8
freecads.com
100
AcDbLine
 10
160695.9213557544
 20
109107.2990080878
 30
0.0
 11
160679.3324452167
 21
109065.5269656915
 31
0.0
  0
LINE
  5
62873
330
1F
100
AcDbEntity
  8
freecads.com
100
AcDbLine
 10
160679.3324452167
 20
109065.5269656915
 30
0.0
 11
160654.7386902816
 21
109001.5996918704
 31
0.0
  0
LINE
  5
62874
330
1F
100
AcDbEntity
  8
freecads.com
100
AcDbLine
 10
160654.7386902816
 20
109001.5996918704
 30
0.0
 11
160643.4670352874
 21
108980.3843793535
 31
0.0
  0
LINE
  5
62875
330
1F
100
AcDbEntity
  8
freecads.com
100
AcDbLine
 10
160643.4670352874
 20
108980.3843793535
 30
0.0
 11
160640.1423025181
 21
108977.7308667877
 31
0.0
  0
LINE
  5
62876
330
1F
100
AcDbEntity
  8
freecads.com
100
AcDbLine
 10
160640.1423025181
 20
108977.7308667877
 30
0.0
 11
160634.8366314102
 21
108965.1346746063
 31
0.0
  0
LINE
  5
62877
330
1F
100
AcDbEntity
  8
freecads.com
100
AcDbLine
 10
160634.8366314102
 20
108965.1346746063
 30
0.0
 11
160618.9080336544
 21
108927.3397040561
 31
0.0
  0
LINE
  5
62878
330
1F
100
AcDbEntity
  8
freecads.com
100
AcDbLine
 10
160618.9080336544
 20
108927.3397040561
 30
0.0
 11
160603.6513331117
 21
108897.4988771984
 31
0.0
  0
LINE
  5
62879
330
1F
100
AcDbEntity
  8
freecads.com
100
AcDbLine
 10
160603.6513331117
 20
108897.4988771984
 30
0.0
 11
160598.3456620047
 21
108889.5447335063
 31
0.0
  0
LINE
  5
6287A
330
1F
100
AcDbEntity
  8
freecads.com
100
AcDbLine
 10
160598.3456620047
 20
108889.5447335063
 30
0.0
 11
160595.0209292363
 21
108890.2097101492
 31
0.0
  0
LINE
  5
6287B
330
1F
100
AcDbEntity
  8
freecads.com
100
AcDbLine
 10
160595.0209292363
 20
108890.2097101492
 30
0.0
 11
160587.722735355
 21
108898.1638538415
 31
0.0
  0
LINE
  5
6287C
330
1F
100
AcDbEntity
  8
freecads.com
100
AcDbLine
 10
160587.722735355
 20
108898.1638538415
 30
0.0
 11
160583.0773770273
 21
108903.4708789737
 31
0.0
  0
LINE
  5
6287D
330
1F
100
AcDbEntity
  8
freecads.com
100
AcDbLine
 10
160583.0773770273
 20
108903.4708789737
 30
0.0
 11
160579.1039159152
 21
108894.1867819955
 31
0.0
  0
LINE
  5
6287E
330
1F
100
AcDbEntity
  8
freecads.com
100
AcDbLine
 10
160579.1039159152
 20
108894.1867819955
 30
0.0
 11
160572.4660348132
 21
108872.9650754729
 31
0.0
  0
LINE
  5
6287F
330
1F
100
AcDbEntity
  8
freecads.com
100
AcDbLine
 10
160572.4660348132
 20
108872.9650754729
 30
0.0
 11
160566.6632033124
 21
108844.8889470652
 31
0.0
  0
LINE
  5
62880
330
1F
100
AcDbEntity
  8
freecads.com
100
AcDbLine
 10
160487.2159082986
 20
108844.8387763488
 30
0.0
 11
160489.5446509992
 21
108837.1522468395
 31
0.0
  0
LINE
  5
62881
330
1F
100
AcDbEntity
  8
freecads.com
100
AcDbLine
 10
160461.384815276
 20
108779.8315064179
 30
0.0
 11
160471.8043398274
 21
108745.43956483
 31
0.0
  0
LINE
  5
62882
330
1F
100
AcDbEntity
  8
freecads.com
100
AcDbLine
 10
160297.6484896591
 20
108672.4170715312
 30
0.0
 11
160323.4586102435
 21
108633.4775738748
 31
0.0
  0
LINE
  5
62883
330
1F
100
AcDbEntity
  8
freecads.com
100
AcDbLine
 10
160323.4586102435
 20
108633.4775738748
 30
0.0
 11
160371.2212346442
 21
108583.6426896811
 31
0.0
  0
LINE
  5
62884
330
1F
100
AcDbEntity
  8
freecads.com
100
AcDbLine
 10
160371.2212346442
 20
108583.6426896811
 30
0.0
 11
160434.8892879331
 21
108538.040637581
 31
0.0
  0
LINE
  5
62885
330
1F
100
AcDbEntity
  8
freecads.com
100
AcDbLine
 10
160434.8892879331
 20
108538.040637581
 30
0.0
 11
160460.3518754741
 21
108527.4393753292
 31
0.0
  0
LINE
  5
62886
330
1F
100
AcDbEntity
  8
freecads.com
100
AcDbLine
 10
160460.3518754741
 20
108527.4393753292
 30
0.0
 11
160497.4915732251
 21
108513.6538979978
 31
0.0
  0
LINE
  5
62887
330
1F
100
AcDbEntity
  8
freecads.com
100
AcDbLine
 10
160497.4915732251
 20
108513.6538979978
 30
0.0
 11
160515.5401225391
 21
108509.4146718982
 31
0.0
  0
LINE
  5
62888
330
1F
100
AcDbEntity
  8
freecads.com
100
AcDbLine
 10
160515.5401225391
 20
108509.4146718982
 30
0.0
 11
160529.4934681872
 21
108514.7811243995
 31
0.0
  0
LINE
  5
62889
330
1F
100
AcDbEntity
  8
freecads.com
100
AcDbLine
 10
160392.3964212382
 20
108568.4760258297
 30
0.0
 11
160425.3321292795
 21
108565.6115922439
 31
0.0
  0
LINE
  5
6288A
330
1F
100
AcDbEntity
  8
freecads.com
100
AcDbLine
 10
160425.3321292795
 20
108565.6115922439
 30
0.0
 11
160445.5006301472
 21
108569.8572123498
 31
0.0
  0
LINE
  5
6288B
330
1F
100
AcDbEntity
  8
freecads.com
100
AcDbLine
 10
160445.5006301472
 20
108569.8572123498
 30
0.0
 11
160458.2319239176
 21
108582.581284655
 31
0.0
  0
LINE
  5
6288C
330
1F
100
AcDbEntity
  8
freecads.com
100
AcDbLine
 10
160377.2663091676
 20
108579.3129231953
 30
0.0
 11
160424.7536720879
 21
108575.182925532
 31
0.0
  0
LINE
  5
6288D
330
1F
100
AcDbEntity
  8
freecads.com
100
AcDbLine
 10
160424.7536720879
 20
108575.182925532
 30
0.0
 11
160440.7888790307
 21
108578.5584563876
 31
0.0
  0
LINE
  5
6288E
330
1F
100
AcDbEntity
  8
freecads.com
100
AcDbLine
 10
160440.7888790307
 20
108578.5584563876
 30
0.0
 11
160451.5267637236
 21
108589.29025032
 31
0.0
  0
LINE
  5
6288F
330
1F
100
AcDbEntity
  8
freecads.com
100
AcDbLine
 10
160353.6702540017
 20
108601.9551484035
 30
0.0
 11
160409.6244003283
 21
108597.0887907166
 31
0.0
  0
LINE
  5
62890
330
1F
100
AcDbEntity
  8
freecads.com
100
AcDbLine
 10
160409.6244003283
 20
108597.0887907166
 30
0.0
 11
160425.6596072692
 21
108600.4643215723
 31
0.0
  0
LINE
  5
62891
330
1F
100
AcDbEntity
  8
freecads.com
100
AcDbLine
 10
160425.6596072692
 20
108600.4643215723
 30
0.0
 11
160436.397491963
 21
108611.1961155046
 31
0.0
  0
LINE
  5
62892
330
1F
100
AcDbEntity
  8
freecads.com
100
AcDbLine
 10
160363.6251510134
 20
108591.5683418576
 30
0.0
 11
160410.202857518
 21
108587.5174574286
 31
0.0
  0
LINE
  5
62893
330
1F
100
AcDbEntity
  8
freecads.com
100
AcDbLine
 10
160410.202857518
 20
108587.5174574286
 30
0.0
 11
160430.3713583866
 21
108591.7630775344
 31
0.0
  0
LINE
  5
62894
330
1F
100
AcDbEntity
  8
freecads.com
100
AcDbLine
 10
160430.3713583866
 20
108591.7630775344
 30
0.0
 11
160443.102652157
 21
108604.4871498396
 31
0.0
  0
LINE
  5
62895
330
1F
100
AcDbEntity
  8
freecads.com
100
AcDbLine
 10
160343.2566683957
 20
108612.8205445001
 30
0.0
 11
160388.2735225701
 21
108608.9054081117
 31
0.0
  0
LINE
  5
62896
330
1F
100
AcDbEntity
  8
freecads.com
100
AcDbLine
 10
160388.2735225701
 20
108608.9054081117
 30
0.0
 11
160408.4420234378
 21
108613.1510282176
 31
0.0
  0
LINE
  5
62897
330
1F
100
AcDbEntity
  8
freecads.com
100
AcDbLine
 10
160408.4420234378
 20
108613.1510282176
 30
0.0
 11
160421.1733172083
 21
108625.8751005229
 31
0.0
  0
LINE
  5
62898
330
1F
100
AcDbEntity
  8
freecads.com
100
AcDbLine
 10
160333.3017713822
 20
108623.207351046
 30
0.0
 11
160387.6950653785
 21
108618.4767413999
 31
0.0
  0
LINE
  5
62899
330
1F
100
AcDbEntity
  8
freecads.com
100
AcDbLine
 10
160387.6950653785
 20
108618.4767413999
 30
0.0
 11
160403.7302723204
 21
108621.8522722555
 31
0.0
  0
LINE
  5
6289A
330
1F
100
AcDbEntity
  8
freecads.com
100
AcDbLine
 10
160403.7302723204
 20
108621.8522722555
 30
0.0
 11
160414.4681570133
 21
108632.5840661881
 31
0.0
  0
LINE
  5
6289B
330
1F
100
AcDbEntity
  8
freecads.com
100
AcDbLine
 10
160349.4077440429
 20
108736.7343797301
 30
0.0
 11
160350.4387587349
 21
108720.1099636528
 31
0.0
  0
LINE
  5
6289C
330
1F
100
AcDbEntity
  8
freecads.com
100
AcDbLine
 10
160350.4387587349
 20
108720.1099636528
 30
0.0
 11
160352.5239569865
 21
108702.8972990075
 31
0.0
  0
LINE
  5
6289D
330
1F
100
AcDbEntity
  8
freecads.com
100
AcDbLine
 10
160352.5239569865
 20
108702.8972990075
 30
0.0
 11
160358.7911361767
 21
108684.1244968528
 31
0.0
  0
LINE
  5
6289E
330
1F
100
AcDbEntity
  8
freecads.com
100
AcDbLine
 10
160358.7911361767
 20
108684.1244968528
 30
0.0
 11
160370.792610559
 21
108671.6050327457
 31
0.0
  0
LINE
  5
6289F
330
1F
100
AcDbEntity
  8
freecads.com
100
AcDbLine
 10
160370.792610559
 20
108671.6050327457
 30
0.0
 11
160384.3579836314
 21
108667.9540552153
 31
0.0
  0
LINE
  5
628A0
330
1F
100
AcDbEntity
  8
freecads.com
100
AcDbLine
 10
160384.3579836314
 20
108667.9540552153
 30
0.0
 11
160397.4136415742
 21
108667.4361407146
 31
0.0
  0
LINE
  5
628A1
330
1F
100
AcDbEntity
  8
freecads.com
100
AcDbLine
 10
160397.4136415742
 20
108667.4361407146
 30
0.0
 11
160405.2331350179
 21
108668.4783637223
 31
0.0
  0
LINE
  5
628A2
330
1F
100
AcDbEntity
  8
freecads.com
100
AcDbLine
 10
160405.2331350179
 20
108668.4783637223
 30
0.0
 11
160412.5429133339
 21
108664.8273861916
 31
0.0
  0
LINE
  5
628A3
330
1F
100
AcDbEntity
  8
freecads.com
100
AcDbLine
 10
160412.5429133339
 20
108664.8273861916
 30
0.0
 11
160419.8526916507
 21
108657.52543113
 31
0.0
  0
LINE
  5
628A4
330
1F
100
AcDbEntity
  8
freecads.com
100
AcDbLine
 10
160419.8526916507
 20
108657.52543113
 30
0.0
 11
160424.0230881547
 21
108647.6147215458
 31
0.0
  0
LINE
  5
628A5
330
1F
100
AcDbEntity
  8
freecads.com
100
AcDbLine
 10
160424.0230881547
 20
108647.6147215458
 30
0.0
 11
160432.3754655955
 21
108635.0952574391
 31
0.0
  0
LINE
  5
628A6
330
1F
100
AcDbEntity
  8
freecads.com
100
AcDbLine
 10
160432.3754655955
 20
108635.0952574391
 30
0.0
 11
160442.8130412897
 21
108615.8045407834
 31
0.0
  0
LINE
  5
628A7
330
1F
100
AcDbEntity
  8
freecads.com
100
AcDbLine
 10
160442.8130412897
 20
108615.8045407834
 30
0.0
 11
160462.6455935504
 21
108599.6340991461
 31
0.0
  0
LINE
  5
628A8
330
1F
100
AcDbEntity
  8
freecads.com
100
AcDbLine
 10
160462.6455935504
 20
108599.6340991461
 30
0.0
 11
160475.7012514941
 21
108583.4700515141
 31
0.0
  0
LINE
  5
628A9
330
1F
100
AcDbEntity
  8
freecads.com
100
AcDbLine
 10
160475.7012514941
 20
108583.4700515141
 30
0.0
 11
160483.0110298101
 21
108579.2947654766
 31
0.0
  0
LINE
  5
628AA
330
1F
100
AcDbEntity
  8
freecads.com
100
AcDbLine
 10
160483.0110298101
 20
108579.2947654766
 30
0.0
 11
160488.2240254398
 21
108581.9035199993
 31
0.0
  0
LINE
  5
628AB
330
1F
100
AcDbEntity
  8
freecads.com
100
AcDbLine
 10
160488.2240254398
 20
108581.9035199993
 30
0.0
 11
160484.0536289349
 21
108592.3321440843
 31
0.0
  0
LINE
  5
628AC
330
1F
100
AcDbEntity
  8
freecads.com
100
AcDbLine
 10
160484.0536289349
 20
108592.3321440843
 30
0.0
 11
160470.4766714297
 21
108611.1049462392
 31
0.0
  0
LINE
  5
628AD
330
1F
100
AcDbEntity
  8
freecads.com
100
AcDbLine
 10
160470.4766714297
 20
108611.1049462392
 30
0.0
 11
160462.6455935504
 21
108637.7040119619
 31
0.0
  0
LINE
  5
628AE
330
1F
100
AcDbEntity
  8
freecads.com
100
AcDbLine
 10
160462.6455935504
 20
108637.7040119619
 30
0.0
 11
160458.8690678285
 21
108657.4423090498
 31
0.0
  0
LINE
  5
628AF
330
1F
100
AcDbEntity
  8
freecads.com
100
AcDbLine
 10
160458.4751970464
 20
108646.0481900306
 30
0.0
 11
160451.1654187314
 21
108635.0952574391
 31
0.0
  0
LINE
  5
628B0
330
1F
100
AcDbEntity
  8
freecads.com
100
AcDbLine
 10
160451.1654187314
 20
108635.0952574391
 30
0.0
 11
160436.5574465332
 21
108633.0108114231
 31
0.0
  0
LINE
  5
628B1
330
1F
100
AcDbEntity
  8
freecads.com
100
AcDbLine
 10
160384.3579836314
 20
108667.9540552153
 30
0.0
 11
160404.190535893
 21
108672.6472557535
 31
0.0
  0
LINE
  5
628B2
330
1F
100
AcDbEntity
  8
freecads.com
100
AcDbLine
 10
160404.190535893
 20
108672.6472557535
 30
0.0
 11
160418.2887929616
 21
108678.9069878076
 31
0.0
  0
LINE
  5
628B3
330
1F
100
AcDbEntity
  8
freecads.com
100
AcDbLine
 10
160418.2887929616
 20
108678.9069878076
 30
0.0
 11
160431.854166034
 21
108688.2933888847
 31
0.0
  0
LINE
  5
628B4
330
1F
100
AcDbEntity
  8
freecads.com
100
AcDbLine
 10
160431.854166034
 20
108688.2933888847
 30
0.0
 11
160446.2652028393
 21
108693.2487436765
 31
0.0
  0
LINE
  5
628B5
330
1F
100
AcDbEntity
  8
freecads.com
100
AcDbLine
 10
160378.600519569
 20
108793.7561268735
 30
0.0
 11
160384.8792831938
 21
108781.2622387908
 31
0.0
  0
LINE
  5
628B6
330
1F
100
AcDbEntity
  8
freecads.com
100
AcDbLine
 10
160384.8792831938
 20
108781.2622387908
 30
0.0
 11
160399.4872553911
 21
108769.7849976915
 31
0.0
  0
LINE
  5
628B7
330
1F
100
AcDbEntity
  8
freecads.com
100
AcDbLine
 10
160399.4872553911
 20
108769.7849976915
 30
0.0
 11
160416.1920102754
 21
108762.4830426304
 31
0.0
  0
LINE
  5
628B8
330
1F
100
AcDbEntity
  8
freecads.com
100
AcDbLine
 10
160416.1920102754
 20
108762.4830426304
 30
0.0
 11
160439.1523599144
 21
108758.3141505985
 31
0.0
  0
LINE
  5
628B9
330
1F
100
AcDbEntity
  8
freecads.com
100
AcDbLine
 10
160439.1523599144
 20
108758.3141505985
 30
0.0
 11
160454.8956067146
 21
108766.1851722105
 31
0.0
  0
LINE
  5
628BA
330
1F
100
AcDbEntity
  8
freecads.com
100
AcDbLine
 10
160730.7335663153
 20
108886.7076801233
 30
0.0
 11
160730.0143471718
 21
108889.1355171105
 31
0.0
  0
LINE
  5
628BB
330
1F
100
AcDbEntity
  8
freecads.com
100
AcDbLine
 10
160730.0143471718
 20
108889.1355171105
 30
0.0
 11
160729.608891955
 21
108901.7189212796
 31
0.0
  0
LINE
  5
628BC
330
1F
100
AcDbEntity
  8
freecads.com
100
AcDbLine
 10
160729.608891955
 20
108901.7189212796
 30
0.0
 11
160731.2307128192
 21
108926.4765132218
 31
0.0
  0
LINE
  5
628BD
330
1F
100
AcDbEntity
  8
freecads.com
100
AcDbLine
 10
160731.2307128192
 20
108926.4765132218
 30
0.0
 11
160726.7591210104
 21
108941.0868173502
 31
0.0
  0
LINE
  5
628BE
330
1F
100
AcDbEntity
  8
freecads.com
100
AcDbLine
 10
160726.7591210104
 20
108941.0868173502
 30
0.0
 11
160719.8547979112
 21
108943.9257560963
 31
0.0
  0
LINE
  5
628BF
330
1F
100
AcDbEntity
  8
freecads.com
100
AcDbLine
 10
160719.8547979112
 20
108943.9257560963
 30
0.0
 11
160712.1395643804
 21
108938.6507009945
 31
0.0
  0
LINE
  5
628C0
330
1F
100
AcDbEntity
  8
freecads.com
100
AcDbLine
 10
160712.1395643804
 20
108938.6507009945
 30
0.0
 11
160704.4243308477
 21
108931.3423519273
 31
0.0
  0
LINE
  5
628C1
330
1F
100
AcDbEntity
  8
freecads.com
100
AcDbLine
 10
160704.4243308477
 20
108931.3423519273
 30
0.0
 11
160693.8593263723
 21
108928.0941967862
 31
0.0
  0
LINE
  5
628C2
330
1F
100
AcDbEntity
  8
freecads.com
100
AcDbLine
 10
160693.8593263723
 20
108928.0941967862
 30
0.0
 11
160686.5495480554
 21
108919.5773805496
 31
0.0
  0
LINE
  5
628C3
330
1F
100
AcDbEntity
  8
freecads.com
100
AcDbLine
 10
160686.5495480554
 20
108919.5773805496
 30
0.0
 11
160684.5222719781
 21
108902.5309600648
 31
0.0
  0
LINE
  5
628C4
330
1F
100
AcDbEntity
  8
freecads.com
100
AcDbLine
 10
160684.5222719781
 20
108902.5309600648
 30
0.0
 11
160685.7386376247
 21
108887.51143954
 31
0.0
  0
LINE
  5
628C5
330
1F
100
AcDbEntity
  8
freecads.com
100
AcDbLine
 10
160685.7386376247
 20
108887.51143954
 30
0.0
 11
160685.3331824088
 21
108879.3974456936
 31
0.0
  0
LINE
  5
628C6
330
1F
100
AcDbEntity
  8
freecads.com
100
AcDbLine
 10
160685.3331824088
 20
108879.3974456936
 30
0.0
 11
160680.0506801711
 21
108872.9011354109
 31
0.0
  0
LINE
  5
628C7
330
1F
100
AcDbEntity
  8
freecads.com
100
AcDbLine
 10
160680.0506801711
 20
108872.9011354109
 30
0.0
 11
160652.8388429846
 21
108866.411219135
 31
0.0
  0
LINE
  5
628C8
330
1F
100
AcDbEntity
  8
freecads.com
100
AcDbLine
 10
160652.8388429846
 20
108866.411219135
 30
0.0
 11
160636.5974654903
 21
108864.3779251687
 31
0.0
  0
LINE
  5
628C9
330
1F
100
AcDbEntity
  8
freecads.com
100
AcDbLine
 10
160636.5974654903
 20
108864.3779251687
 30
0.0
 11
160609.3856283038
 21
108873.7131741961
 31
0.0
  0
LINE
  5
628CA
330
1F
100
AcDbEntity
  8
freecads.com
100
AcDbLine
 10
160609.3856283038
 20
108873.7131741961
 30
0.0
 11
160598.0097133977
 21
108881.0215232641
 31
0.0
  0
LINE
  5
628CB
330
1F
100
AcDbEntity
  8
freecads.com
100
AcDbLine
 10
160598.0097133977
 20
108881.0215232641
 30
0.0
 11
160595.0209292363
 21
108890.2097101492
 31
0.0
  0
LINE
  5
628CC
330
1F
100
AcDbEntity
  8
freecads.com
100
AcDbLine
 10
160576.8101978371
 20
108883.6366717932
 30
0.0
 11
160593.4338616788
 21
108859.7614527044
 31
0.0
  0
LINE
  5
628CD
330
1F
100
AcDbEntity
  8
freecads.com
100
AcDbLine
 10
160593.4338616788
 20
108859.7614527044
 30
0.0
 11
160609.0149263929
 21
108851.4620326778
 31
0.0
  0
LINE
  5
628CE
330
1F
100
AcDbEntity
  8
freecads.com
100
AcDbLine
 10
160609.0149263929
 20
108851.4620326778
 30
0.0
 11
160623.5533919813
 21
108857.689794701
 31
0.0
  0
LINE
  5
628CF
330
1F
100
AcDbEntity
  8
freecads.com
100
AcDbLine
 10
160623.5533919813
 20
108857.689794701
 30
0.0
 11
160625.6385902337
 21
108864.9533857255
 31
0.0
  0
LINE
  5
628D0
330
1F
100
AcDbEntity
  8
freecads.com
100
AcDbLine
 10
160685.3331824088
 20
108879.3974456936
 30
0.0
 11
160702.5013146823
 21
108884.678894801
 31
0.0
  0
LINE
  5
628D1
330
1F
100
AcDbEntity
  8
freecads.com
100
AcDbLine
 10
160702.5013146823
 20
108884.678894801
 30
0.0
 11
160710.81893882
 21
108882.6008427913
 31
0.0
  0
LINE
  5
628D2
330
1F
100
AcDbEntity
  8
freecads.com
100
AcDbLine
 10
160710.81893882
 20
108882.6008427913
 30
0.0
 11
160721.6856486717
 21
108877.0316118346
 31
0.0
  0
LINE
  5
628D3
330
1F
100
AcDbEntity
  8
freecads.com
100
AcDbLine
 10
160708.7898218058
 20
108935.4776164836
 30
0.0
 11
160717.0513647062
 21
108957.3339870624
 31
0.0
  0
LINE
  5
628D4
330
1F
100
AcDbEntity
  8
freecads.com
100
AcDbLine
 10
160717.0513647062
 20
108957.3339870624
 30
0.0
 11
160727.4310182253
 21
108973.9392211213
 31
0.0
  0
LINE
  5
628D5
330
1F
100
AcDbEntity
  8
freecads.com
100
AcDbLine
 10
160727.4310182253
 20
108973.9392211213
 30
0.0
 11
160750.2871079523
 21
109014.419674268
 31
0.0
  0
LINE
  5
628D6
330
1F
100
AcDbEntity
  8
freecads.com
100
AcDbLine
 10
160750.2871079523
 20
109014.419674268
 30
0.0
 11
160785.6080494508
 21
109064.241770449
 31
0.0
  0
LINE
  5
628D7
330
1F
100
AcDbEntity
  8
freecads.com
100
AcDbLine
 10
160785.6080494508
 20
109064.241770449
 30
0.0
 11
160815.7275797551
 21
109106.8002756056
 31
0.0
  0
LINE
  5
628D8
330
1F
100
AcDbEntity
  8
freecads.com
100
AcDbLine
 10
160815.7275797551
 20
109106.8002756056
 30
0.0
 11
160843.9356783287
 21
109153.9432831954
 31
0.0
  0
LINE
  5
628D9
330
1F
100
AcDbEntity
  8
freecads.com
100
AcDbLine
 10
160843.9356783287
 20
109153.9432831954
 30
0.0
 11
160857.4315447913
 21
109180.9323832953
 31
0.0
  0
LINE
  5
628DA
330
1F
100
AcDbEntity
  8
freecads.com
100
AcDbLine
 10
160857.4315447913
 20
109180.9323832953
 30
0.0
 11
160892.7524862898
 21
109228.6764274667
 31
0.0
  0
LINE
  5
628DB
330
1F
100
AcDbEntity
  8
freecads.com
100
AcDbLine
 10
160892.7524862898
 20
109228.6764274667
 30
0.0
 11
160907.3025363137
 21
109258.7794085778
 31
0.0
  0
LINE
  5
628DC
330
1F
100
AcDbEntity
  8
freecads.com
100
AcDbLine
 10
160907.3025363137
 20
109258.7794085778
 30
0.0
 11
160908.3335510058
 21
109277.4626946455
 31
0.0
  0
LINE
  5
628DD
330
1F
100
AcDbEntity
  8
freecads.com
100
AcDbLine
 10
160908.3335510058
 20
109277.4626946455
 30
0.0
 11
160904.1863233711
 21
109298.2176387171
 31
0.0
  0
LINE
  5
628DE
330
1F
100
AcDbEntity
  8
freecads.com
100
AcDbLine
 10
160904.1863233711
 20
109298.2176387171
 30
0.0
 11
160886.5200604045
 21
109334.5483818513
 31
0.0
  0
LINE
  5
628DF
330
1F
100
AcDbEntity
  8
freecads.com
100
AcDbLine
 10
160886.5200604045
 20
109334.5483818513
 30
0.0
 11
160858.4741439171
 21
109389.5624110531
 31
0.0
  0
LINE
  5
628E0
330
1F
100
AcDbEntity
  8
freecads.com
100
AcDbLine
 10
160858.4741439171
 20
109389.5624110531
 30
0.0
 11
160832.4786723781
 21
109443.0226967523
 31
0.0
  0
LINE
  5
628E1
330
1F
100
AcDbEntity
  8
freecads.com
100
AcDbLine
 10
160832.4786723781
 20
109443.0226967523
 30
0.0
 11
160821.0448352968
 21
109463.7840348292
 31
0.0
  0
LINE
  5
628E2
330
1F
100
AcDbEntity
  8
freecads.com
100
AcDbLine
 10
160821.0448352968
 20
109463.7840348292
 30
0.0
 11
160796.1151317538
 21
109512.5703020088
 31
0.0
  0
LINE
  5
628E3
330
1F
100
AcDbEntity
  8
freecads.com
100
AcDbLine
 10
160796.1151317538
 20
109512.5703020088
 30
0.0
 11
160797.1577308796
 21
109552.0149261543
 31
0.0
  0
LINE
  5
628E4
330
1F
100
AcDbEntity
  8
freecads.com
100
AcDbLine
 10
160797.1577308796
 20
109552.0149261543
 30
0.0
 11
160799.2313446974
 21
109567.5843312102
 31
0.0
  0
LINE
  5
628E5
330
1F
100
AcDbEntity
  8
freecads.com
100
AcDbLine
 10
160799.2313446974
 20
109567.5843312102
 30
0.0
 11
160853.2495638536
 21
109585.2253942704
 31
0.0
  0
LINE
  5
628E6
330
1F
100
AcDbEntity
  8
freecads.com
100
AcDbLine
 10
160853.2495638536
 20
109585.2253942704
 30
0.0
 11
160892.7293174214
 21
109615.3283753817
 31
0.0
  0
LINE
  5
628E7
330
1F
100
AcDbEntity
  8
freecads.com
100
AcDbLine
 10
160892.7293174214
 20
109615.3283753817
 30
0.0
 11
160922.8488477239
 21
109647.5030144969
 31
0.0
  0
LINE
  5
628E8
330
1F
100
AcDbEntity
  8
freecads.com
100
AcDbLine
 10
160922.8488477239
 20
109647.5030144969
 30
0.0
 11
160966.4758289264
 21
109664.1146425612
 31
0.0
  0
LINE
  5
628E9
330
1F
100
AcDbEntity
  8
freecads.com
100
AcDbLine
 10
160966.4758289264
 20
109664.1146425612
 30
0.0
 11
160976.8670668791
 21
109629.8619514367
 31
0.0
  0
LINE
  5
628EA
330
1F
100
AcDbEntity
  8
freecads.com
100
AcDbLine
 10
160976.8670668791
 20
109629.8619514367
 30
0.0
 11
160978.940680697
 21
109610.1364423606
 31
0.0
  0
LINE
  5
628EB
330
1F
100
AcDbEntity
  8
freecads.com
100
AcDbLine
 10
160978.940680697
 20
109610.1364423606
 30
0.0
 11
160989.3319186525
 21
109583.153736267
 31
0.0
  0
LINE
  5
628EC
330
1F
100
AcDbEntity
  8
freecads.com
100
AcDbLine
 10
160989.3319186525
 20
109583.153736267
 30
0.0
 11
160995.5643445387
 21
109569.6559892139
 31
0.0
  0
LINE
  5
628ED
330
1F
100
AcDbEntity
  8
freecads.com
100
AcDbLine
 10
160995.5643445387
 20
109569.6559892139
 30
0.0
 11
160999.7115721734
 21
109549.9368741447
 31
0.0
  0
LINE
  5
628EE
330
1F
100
AcDbEntity
  8
freecads.com
100
AcDbLine
 10
160999.7115721734
 20
109549.9368741447
 30
0.0
 11
161008.0291963102
 21
109533.3316400864
 31
0.0
  0
LINE
  5
628EF
330
1F
100
AcDbEntity
  8
freecads.com
100
AcDbLine
 10
161008.0291963102
 20
109533.3316400864
 30
0.0
 11
161025.6838748421
 21
109505.3067109844
 31
0.0
  0
LINE
  5
628F0
330
1F
100
AcDbEntity
  8
freecads.com
100
AcDbLine
 10
161025.6838748421
 20
109505.3067109844
 30
0.0
 11
161055.8034051455
 21
109470.0117968525
 31
0.0
  0
LINE
  5
628F1
330
1F
100
AcDbEntity
  8
freecads.com
100
AcDbLine
 10
161055.8034051455
 20
109470.0117968525
 30
0.0
 11
161094.2405595876
 21
109399.4283625937
 31
0.0
  0
LINE
  5
628F2
330
1F
100
AcDbEntity
  8
freecads.com
100
AcDbLine
 10
161094.2405595876
 20
109399.4283625937
 30
0.0
 11
161131.635114903
 21
109347.5346084098
 31
0.0
  0
LINE
  5
628F3
330
1F
100
AcDbEntity
  8
freecads.com
100
AcDbLine
 10
161131.635114903
 20
109347.5346084098
 30
0.0
 11
161157.6074175736
 21
109304.9761032531
 31
0.0
  0
LINE
  5
628F4
330
1F
100
AcDbEntity
  8
freecads.com
100
AcDbLine
 10
161157.6074175736
 20
109304.9761032531
 30
0.0
 11
161163.8398434588
 21
109291.4847502065
 31
0.0
  0
LINE
  5
628F5
330
1F
100
AcDbEntity
  8
freecads.com
100
AcDbLine
 10
161163.8398434588
 20
109291.4847502065
 30
0.0
 11
161175.2620961055
 21
109279.0292261609
 31
0.0
  0
LINE
  5
628F6
330
1F
100
AcDbEntity
  8
freecads.com
100
AcDbLine
 10
161175.2620961055
 20
109279.0292261609
 30
0.0
 11
161189.8005616948
 21
109273.83729314
 31
0.0
  0
LINE
  5
628F7
330
1F
100
AcDbEntity
  8
freecads.com
100
AcDbLine
 10
161189.8005616948
 20
109273.83729314
 30
0.0
 11
161212.6566514199
 21
109270.7234121289
 31
0.0
  0
LINE
  5
628F8
330
1F
100
AcDbEntity
  8
freecads.com
100
AcDbLine
 10
161212.6566514199
 20
109270.7234121289
 30
0.0
 11
161229.2803152617
 21
109263.4598211042
 31
0.0
  0
LINE
  5
628F9
330
1F
100
AcDbEntity
  8
freecads.com
100
AcDbLine
 10
161229.2803152617
 20
109263.4598211042
 30
0.0
 11
161243.81878085
 21
109255.1540070721
 31
0.0
  0
LINE
  5
628FA
330
1F
100
AcDbEntity
  8
freecads.com
100
AcDbLine
 10
161243.81878085
 20
109255.1540070721
 30
0.0
 11
161251.0938058629
 21
109259.3037170847
 31
0.0
  0
LINE
  5
628FB
330
1F
100
AcDbEntity
  8
freecads.com
100
AcDbLine
 10
161251.0938058629
 20
109259.3037170847
 30
0.0
 11
161251.0938058629
 21
109261.3817690945
 31
0.0
  0
LINE
  5
628FC
330
1F
100
AcDbEntity
  8
freecads.com
100
AcDbLine
 10
161251.0938058629
 20
109261.3817690945
 30
0.0
 11
161255.7275797551
 21
109259.5786593507
 31
0.0
  0
LINE
  5
628FD
330
1F
100
AcDbEntity
  8
freecads.com
100
AcDbLine
 10
161255.7275797551
 20
109259.5786593507
 30
0.0
 11
161264.6823478037
 21
109264.2334958522
 31
0.0
  0
LINE
  5
628FE
330
1F
100
AcDbEntity
  8
freecads.com
100
AcDbLine
 10
161264.6823478037
 20
109264.2334958522
 30
0.0
 11
161266.4779351869
 21
109269.6044610464
 31
0.0
  0
LINE
  5
628FF
330
1F
100
AcDbEntity
  8
freecads.com
100
AcDbLine
 10
161266.4779351869
 20
109269.6044610464
 30
0.0
 11
161267.1961701394
 21
109272.1109114706
 31
0.0
  0
LINE
  5
62900
330
1F
100
AcDbEntity
  8
freecads.com
100
AcDbLine
 10
161267.1961701394
 20
109272.1109114706
 30
0.0
 11
161273.2895828098
 21
109272.1109114706
 31
0.0
  0
LINE
  5
62901
330
1F
100
AcDbEntity
  8
freecads.com
100
AcDbLine
 10
161273.2895828098
 20
109272.1109114706
 30
0.0
 11
161280.8078809505
 21
109275.3334905868
 31
0.0
  0
LINE
  5
62902
330
1F
100
AcDbEntity
  8
freecads.com
100
AcDbLine
 10
161280.8078809505
 20
109275.3334905868
 30
0.0
 11
161282.9625858118
 21
109279.6302627417
 31
0.0
  0
LINE
  5
62903
330
1F
100
AcDbEntity
  8
freecads.com
100
AcDbLine
 10
161282.9625858118
 20
109279.6302627417
 30
0.0
 11
161283.3217032872
 21
109290.0141287836
 31
0.0
  0
LINE
  5
62904
330
1F
100
AcDbEntity
  8
freecads.com
100
AcDbLine
 10
161283.3217032872
 20
109290.0141287836
 30
0.0
 11
161282.9625858118
 21
109296.8109573571
 31
0.0
  0
LINE
  5
62905
330
1F
100
AcDbEntity
  8
freecads.com
100
AcDbLine
 10
161282.9625858118
 20
109296.8109573571
 30
0.0
 11
161295.137826715
 21
109293.5947722466
 31
0.0
  0
LINE
  5
62906
330
1F
100
AcDbEntity
  8
freecads.com
100
AcDbLine
 10
161295.137826715
 20
109293.5947722466
 30
0.0
 11
161300.1538869537
 21
109297.5270860492
 31
0.0
  0
LINE
  5
62907
330
1F
100
AcDbEntity
  8
freecads.com
100
AcDbLine
 10
161300.1538869537
 20
109297.5270860492
 30
0.0
 11
161304.4517122389
 21
109304.688372975
 31
0.0
  0
LINE
  5
62908
330
1F
100
AcDbEntity
  8
freecads.com
100
AcDbLine
 10
161304.4517122389
 20
109304.688372975
 30
0.0
 11
161303.3859442448
 21
109317.2206250941
 31
0.0
  0
LINE
  5
62909
330
1F
100
AcDbEntity
  8
freecads.com
100
AcDbLine
 10
161303.3859442448
 20
109317.2206250941
 30
0.0
 11
161294.4195917615
 21
109334.765778061
 31
0.0
  0
LINE
  5
6290A
330
1F
100
AcDbEntity
  8
freecads.com
100
AcDbLine
 10
161294.4195917615
 20
109334.765778061
 30
0.0
 11
161283.3217032872
 21
109347.2916361742
 31
0.0
  0
LINE
  5
6290B
330
1F
100
AcDbEntity
  8
freecads.com
100
AcDbLine
 10
161283.3217032872
 20
109347.2916361742
 30
0.0
 11
161272.5713478553
 21
109352.6626013685
 31
0.0
  0
LINE
  5
6290C
330
1F
100
AcDbEntity
  8
freecads.com
100
AcDbLine
 10
161272.5713478553
 20
109352.6626013685
 30
0.0
 11
161254.6502273244
 21
109352.6626013685
 31
0.0
  0
LINE
  5
6290D
330
1F
100
AcDbEntity
  8
freecads.com
100
AcDbLine
 10
161254.6502273244
 20
109352.6626013685
 30
0.0
 11
161225.2721008438
 21
109352.3045370226
 31
0.0
  0
LINE
  5
6290E
330
1F
100
AcDbEntity
  8
freecads.com
100
AcDbLine
 10
161225.2721008438
 20
109352.3045370226
 30
0.0
 11
161209.8763870852
 21
109352.3045370226
 31
0.0
  0
LINE
  5
6290F
330
1F
100
AcDbEntity
  8
freecads.com
100
AcDbLine
 10
161209.8763870852
 20
109352.3045370226
 30
0.0
 11
161200.5509171247
 21
109349.0819579057
 31
0.0
  0
LINE
  5
62910
330
1F
100
AcDbEntity
  8
freecads.com
100
AcDbLine
 10
161200.5509171247
 20
109349.0819579057
 30
0.0
 11
161209.8763870852
 21
109352.3045370226
 31
0.0
  0
LINE
  5
62911
330
1F
100
AcDbEntity
  8
freecads.com
100
AcDbLine
 10
161209.8763870852
 20
109352.3045370226
 30
0.0
 11
161197.6895617455
 21
109363.0464674105
 31
0.0
  0
LINE
  5
62912
330
1F
100
AcDbEntity
  8
freecads.com
100
AcDbLine
 10
161197.6895617455
 20
109363.0464674105
 30
0.0
 11
161184.4369684135
 21
109379.5174273388
 31
0.0
  0
LINE
  5
62913
330
1F
100
AcDbEntity
  8
freecads.com
100
AcDbLine
 10
161184.4369684135
 20
109379.5174273388
 30
0.0
 11
161171.172790645
 21
109412.0948888429
 31
0.0
  0
LINE
  5
62914
330
1F
100
AcDbEntity
  8
freecads.com
100
AcDbLine
 10
161171.172790645
 20
109412.0948888429
 30
0.0
 11
161162.936257549
 21
109436.0788060372
 31
0.0
  0
LINE
  5
62915
330
1F
100
AcDbEntity
  8
freecads.com
100
AcDbLine
 10
161162.936257549
 20
109436.0788060372
 30
0.0
 11
161150.286054822
 21
109486.0735403847
 31
0.0
  0
LINE
  5
62916
330
1F
100
AcDbEntity
  8
freecads.com
100
AcDbLine
 10
161150.286054822
 20
109486.0735403847
 30
0.0
 11
161139.1765819149
 21
109537.2703478954
 31
0.0
  0
LINE
  5
62917
330
1F
100
AcDbEntity
  8
freecads.com
100
AcDbLine
 10
161139.1765819149
 20
109537.2703478954
 30
0.0
 11
161124.128401196
 21
109585.6026406351
 31
0.0
  0
LINE
  5
62918
330
1F
100
AcDbEntity
  8
freecads.com
100
AcDbLine
 10
161124.128401196
 20
109585.6026406351
 30
0.0
 11
161114.0962807176
 21
109604.5800509874
 31
0.0
  0
LINE
  5
62919
330
1F
100
AcDbEntity
  8
freecads.com
100
AcDbLine
 10
161114.0962807176
 20
109604.5800509874
 30
0.0
 11
161101.1448826877
 21
109631.0576305928
 31
0.0
  0
LINE
  5
6291A
330
1F
100
AcDbEntity
  8
freecads.com
100
AcDbLine
 10
161101.1448826877
 20
109631.0576305928
 30
0.0
 11
161097.2061748797
 21
109680.1060520252
 31
0.0
  0
LINE
  5
6291B
330
1F
100
AcDbEntity
  8
freecads.com
100
AcDbLine
 10
161097.2061748797
 20
109680.1060520252
 30
0.0
 11
161090.4061116924
 21
109720.560929148
 31
0.0
  0
LINE
  5
6291C
330
1F
100
AcDbEntity
  8
freecads.com
100
AcDbLine
 10
161090.4061116924
 20
109720.560929148
 30
0.0
 11
161086.8149369251
 21
109741.6803315715
 31
0.0
  0
LINE
  5
6291D
330
1F
100
AcDbEntity
  8
freecads.com
100
AcDbLine
 10
161086.8149369251
 20
109741.6803315715
 30
0.0
 11
161084.949842932
 21
109772.5122293879
 31
0.0
  0
LINE
  5
6291E
330
1F
100
AcDbEntity
  8
freecads.com
100
AcDbLine
 10
161084.949842932
 20
109772.5122293879
 30
0.0
 11
161089.5256946528
 21
109796.317114409
 31
0.0
  0
LINE
  5
6291F
330
1F
100
AcDbEntity
  8
freecads.com
100
AcDbLine
 10
161089.5256946528
 20
109796.317114409
 30
0.0
 11
161095.028301149
 21
109823.7857649722
 31
0.0
  0
LINE
  5
62920
330
1F
100
AcDbEntity
  8
freecads.com
100
AcDbLine
 10
161095.028301149
 20
109823.7857649722
 30
0.0
 11
161100.5193232124
 21
109833.8627187173
 31
0.0
  0
LINE
  5
62921
330
1F
100
AcDbEntity
  8
freecads.com
100
AcDbLine
 10
161100.5193232124
 20
109833.8627187173
 30
0.0
 11
161103.2764186788
 21
109852.1751524266
 31
0.0
  0
LINE
  5
62922
330
1F
100
AcDbEntity
  8
freecads.com
100
AcDbLine
 10
161103.2764186788
 20
109852.1751524266
 30
0.0
 11
161106.7980868373
 21
109854.4833886588
 31
0.0
  0
LINE
  5
62923
330
1F
100
AcDbEntity
  8
freecads.com
100
AcDbLine
 10
161106.7980868373
 20
109854.4833886588
 30
0.0
 11
161110.910561168
 21
109854.1636883493
 31
0.0
  0
LINE
  5
62924
330
1F
100
AcDbEntity
  8
freecads.com
100
AcDbLine
 10
161110.910561168
 20
109854.1636883493
 30
0.0
 11
161114.6986713245
 21
109852.5907628285
 31
0.0
  0
LINE
  5
62925
330
1F
100
AcDbEntity
  8
freecads.com
100
AcDbLine
 10
161114.6986713245
 20
109852.5907628285
 30
0.0
 11
161120.0738490413
 21
109847.5331039375
 31
0.0
  0
LINE
  5
62926
330
1F
100
AcDbEntity
  8
freecads.com
100
AcDbLine
 10
161120.0738490413
 20
109847.5331039375
 30
0.0
 11
161126.0861706663
 21
109847.5331039375
 31
0.0
  0
LINE
  5
62927
330
1F
100
AcDbEntity
  8
freecads.com
100
AcDbLine
 10
161126.0861706663
 20
109847.5331039375
 30
0.0
 11
161136.1993821881
 21
109847.8528042468
 31
0.0
  0
LINE
  5
62928
330
1F
100
AcDbEntity
  8
freecads.com
100
AcDbLine
 10
161136.1993821881
 20
109847.8528042468
 30
0.0
 11
161137.7748653119
 21
109850.378436689
 31
0.0
  0
LINE
  5
62929
330
1F
100
AcDbEntity
  8
freecads.com
100
AcDbLine
 10
161137.7748653119
 20
109850.378436689
 30
0.0
 11
161138.7247889595
 21
109851.9577562166
 31
0.0
  0
LINE
  5
6292A
330
1F
100
AcDbEntity
  8
freecads.com
100
AcDbLine
 10
161138.7247889595
 20
109851.9577562166
 30
0.0
 11
161141.2501957317
 21
109851.324749604
 31
0.0
  0
LINE
  5
6292B
330
1F
100
AcDbEntity
  8
freecads.com
100
AcDbLine
 10
161141.2501957317
 20
109851.324749604
 30
0.0
 11
161148.5252207437
 21
109850.6917429921
 31
0.0
  0
LINE
  5
6292C
330
1F
100
AcDbEntity
  8
freecads.com
100
AcDbLine
 10
161148.5252207437
 20
109850.6917429921
 30
0.0
 11
161154.525957934
 21
109852.9040691318
 31
0.0
  0
LINE
  5
6292D
330
1F
100
AcDbEntity
  8
freecads.com
100
AcDbLine
 10
161154.525957934
 20
109852.9040691318
 30
0.0
 11
161164.3263897182
 21
109860.8006667681
 31
0.0
  0
LINE
  5
6292E
330
1F
100
AcDbEntity
  8
freecads.com
100
AcDbLine
 10
161164.3263897182
 20
109860.8006667681
 30
0.0
 11
161170.0143471708
 21
109855.1163952708
 31
0.0
  0
LINE
  5
6292F
330
1F
100
AcDbEntity
  8
freecads.com
100
AcDbLine
 10
161170.0143471708
 20
109855.1163952708
 30
0.0
 11
161175.3895248867
 21
109847.5331039375
 31
0.0
  0
LINE
  5
62930
330
1F
100
AcDbEntity
  8
freecads.com
100
AcDbLine
 10
161175.3895248867
 20
109847.5331039375
 30
0.0
 11
161180.1275586917
 21
109846.9000973256
 31
0.0
  0
LINE
  5
62931
330
1F
100
AcDbEntity
  8
freecads.com
100
AcDbLine
 10
161180.1275586917
 20
109846.9000973256
 30
0.0
 11
161186.7654397938
 21
109849.1124234645
 31
0.0
  0
LINE
  5
62932
330
1F
100
AcDbEntity
  8
freecads.com
100
AcDbLine
 10
161186.7654397938
 20
109849.1124234645
 30
0.0
 11
161196.2415074048
 21
109858.2750343254
 31
0.0
  0
LINE
  5
62933
330
1F
100
AcDbEntity
  8
freecads.com
100
AcDbLine
 10
161196.2415074048
 20
109858.2750343254
 30
0.0
 11
161211.150674906
 21
109873.8508333883
 31
0.0
  0
LINE
  5
62934
330
1F
100
AcDbEntity
  8
freecads.com
100
AcDbLine
 10
161211.150674906
 20
109873.8508333883
 30
0.0
 11
161214.6260053249
 21
109883.6400568549
 31
0.0
  0
LINE
  5
62935
330
1F
100
AcDbEntity
  8
freecads.com
100
AcDbLine
 10
161214.6260053249
 20
109883.6400568549
 30
0.0
 11
161220.0011830417
 21
109886.4853896062
 31
0.0
  0
LINE
  5
62936
330
1F
100
AcDbEntity
  8
freecads.com
100
AcDbLine
 10
161220.0011830417
 20
109886.4853896062
 30
0.0
 11
161232.3270215964
 21
109886.1656892976
 31
0.0
  0
LINE
  5
62937
330
1F
100
AcDbEntity
  8
freecads.com
100
AcDbLine
 10
161232.3270215964
 20
109886.1656892976
 30
0.0
 11
161244.0157162411
 21
109894.0622869339
 31
0.0
  0
LINE
  5
62938
330
1F
100
AcDbEntity
  8
freecads.com
100
AcDbLine
 10
161244.0157162411
 20
109894.0622869339
 30
0.0
 11
161256.665918969
 21
109903.224897795
 31
0.0
  0
LINE
  5
62939
330
1F
100
AcDbEntity
  8
freecads.com
100
AcDbLine
 10
161256.665918969
 20
109903.224897795
 30
0.0
 11
161274.0425710663
 21
109915.5397537036
 31
0.0
  0
LINE
  5
6293A
330
1F
100
AcDbEntity
  8
freecads.com
100
AcDbLine
 10
161274.0425710663
 20
109915.5397537036
 30
0.0
 11
161286.2062275357
 21
109922.272642215
 31
0.0
  0
LINE
  5
6293B
330
1F
100
AcDbEntity
  8
freecads.com
100
AcDbLine
 10
160447.9753412207
 20
108517.0280131514
 30
0.0
 11
160439.8705948678
 21
108508.7752712801
 31
0.0
  0
LINE
  5
6293C
330
1F
100
AcDbEntity
  8
freecads.com
100
AcDbLine
 10
160439.8705948678
 20
108508.7752712801
 30
0.0
 11
160381.2417706869
 21
108560.7969055875
 31
0.0
  0
LINE
  5
6293D
330
1F
100
AcDbEntity
  8
freecads.com
100
AcDbLine
 10
160545.7643596757
 20
108650.0800394256
 30
0.0
 11
160517.9038990059
 21
108657.5633214085
 31
0.0
  0
ARC
  5
6293E
330
1F
100
AcDbEntity
  8
freecads.com
100
AcDbCircle
 10
160519.6764051382
 20
108664.162409548
 30
0.0
 40
6.83298926256411
100
AcDbArc
 50
74.96528740832367
 51
254.9652874083236
  0
LINE
  5
6293F
330
1F
100
AcDbEntity
  8
freecads.com
100
AcDbLine
 10
160521.4489112705
 20
108670.7614976875
 30
0.0
 11
160549.3093719393
 21
108663.2782157047
 31
0.0
  0
ARC
  5
62940
330
1F
100
AcDbEntity
  8
freecads.com
100
AcDbCircle
 10
160552.8543842039
 20
108676.4763919843
 30
0.0
 40
13.66597852560814
100
AcDbArc
 50
254.9652874083236
 51
344.96528740854
  0
LINE
  5
62941
330
1F
100
AcDbEntity
  8
freecads.com
100
AcDbLine
 10
160566.0525604834
 20
108672.9313797196
 30
0.0
 11
160573.5358424656
 21
108700.7918403891
 31
0.0
  0
ARC
  5
62942
330
1F
100
AcDbEntity
  8
freecads.com
100
AcDbCircle
 10
160580.1349306049
 20
108699.019334257
 30
0.0
 40
6.832989262350166
100
AcDbArc
 50
344.9652874093451
 51
164.9652874093452
  0
LINE
  5
62943
330
1F
100
AcDbEntity
  8
freecads.com
100
AcDbLine
 10
160586.7340187443
 20
108697.246828125
 30
0.0
 11
160579.2507367622
 21
108669.3863674556
 31
0.0
  0
ARC
  5
62944
330
1F
100
AcDbEntity
  8
freecads.com
100
AcDbCircle
 10
160592.4489130414
 20
108665.8413551915
 30
0.0
 40
13.66597852511986
100
AcDbArc
 50
164.9652874101504
 51
254.9652874101504
  0
LINE
  5
62945
330
1F
100
AcDbEntity
  8
freecads.com
100
AcDbLine
 10
160588.9039007773
 20
108652.6431789123
 30
0.0
 11
160616.7643614471
 21
108645.1598969296
 31
0.0
  0
ARC
  5
62946
330
1F
100
AcDbEntity
  8
freecads.com
100
AcDbCircle
 10
160614.9918553148
 20
108638.5608087901
 30
0.0
 40
6.83298926256411
100
AcDbArc
 50
254.9652874083236
 51
74.96528740832367
  0
LINE
  5
62947
330
1F
100
AcDbEntity
  8
freecads.com
100
AcDbLine
 10
160613.2193491825
 20
108631.9617206505
 30
0.0
 11
160585.3588885128
 21
108639.4450026334
 31
0.0
  0
ARC
  5
62948
330
1F
100
AcDbEntity
  8
freecads.com
100
AcDbCircle
 10
160581.8138762492
 20
108626.2468263547
 30
0.0
 40
13.66597852450822
100
AcDbArc
 50
74.96528741176085
 51
164.9652874109556
  0
LINE
  5
62949
330
1F
100
AcDbEntity
  8
freecads.com
100
AcDbLine
 10
160568.6156999705
 20
108629.7918386184
 30
0.0
 11
160561.1324179865
 21
108601.931377949
 31
0.0
  0
ARC
  5
6294A
330
1F
100
AcDbEntity
  8
freecads.com
100
AcDbCircle
 10
160554.5333298471
 20
108603.703884081
 30
0.0
 40
6.832989262350166
100
AcDbArc
 50
164.9652874093452
 51
344.9652874093451
  0
LINE
  5
6294B
330
1F
100
AcDbEntity
  8
freecads.com
100
AcDbLine
 10
160547.9342417078
 20
108605.4763902131
 30
0.0
 11
160555.4175236908
 21
108633.3368508825
 31
0.0
  0
ARC
  5
6294C
330
1F
100
AcDbEntity
  8
freecads.com
100
AcDbCircle
 10
160567.334130226
 20
108651.3616091689
 30
0.0
 40
11.82919978802249
100
AcDbArc
 50
297.5137474783563
 51
124.4474166775714
  0
LINE
  5
6294D
330
1F
100
AcDbEntity
  8
freecads.com
100
AcDbLine
 10
160561.5462856845
 20
108661.6781407173
 30
0.0
 11
160482.0337362284
 21
108612.2427350212
 31
0.0
  0
LINE
  5
6294E
330
1F
100
AcDbEntity
  8
freecads.com
100
AcDbLine
 10
160555.5349871799
 20
108652.204337469
 30
0.0
 11
160484.6043408358
 21
108608.1045657694
 31
0.0
  0
LINE
  5
6294F
330
1F
100
AcDbEntity
  8
freecads.com
100
AcDbLine
 10
160574.3250595484
 20
108641.8192365687
 30
0.0
 11
160495.5581792475
 21
108592.8474363976
 31
0.0
  0
LINE
  5
62950
330
1F
100
AcDbEntity
  8
freecads.com
100
AcDbLine
 10
160562.8442127252
 20
108640.4176332713
 30
0.0
 11
160492.6621623723
 21
108596.7832868006
 31
0.0
  0
ARC
  5
62951
330
1F
100
AcDbEntity
  8
freecads.com
100
AcDbCircle
 10
160567.334130226
 20
108651.3616091689
 30
0.0
 40
11.82919978802249
100
AcDbArc
 50
175.9147099685092
 51
247.6934309147085
  0
ARC
  5
62952
330
1F
100
AcDbEntity
  8
freecads.com
100
AcDbCircle
 10
160542.2193474116
 20
108636.8818631472
 30
0.0
 40
13.6659785245627
100
AcDbArc
 50
356.6206674220299
 51
57.82885762674659
  0
LINE
  5
62953
330
1F
100
AcDbEntity
  8
freecads.com
100
AcDbLine
 10
160648.1471469182
 20
109229.2199179922
 30
0.0
 11
160621.2712583396
 21
109208.3370937973
 31
0.0
  0
LINE
  5
62954
330
1F
100
AcDbEntity
  8
freecads.com
100
AcDbLine
 10
160621.2712583396
 20
109208.3370937973
 30
0.0
 11
160600.3729380829
 21
109189.4364115195
 31
0.0
  0
LINE
  5
62955
330
1F
100
AcDbEntity
  8
freecads.com
100
AcDbLine
 10
160600.3729380829
 20
109189.4364115195
 30
0.0
 11
160593.4106928086
 21
109166.5650514012
 31
0.0
  0
LINE
  5
62956
330
1F
100
AcDbEntity
  8
freecads.com
100
AcDbLine
 10
160894.9766977591
 20
109306.7920010089
 30
0.0
 11
160891.9879135986
 21
109295.8518564295
 31
0.0
  0
LINE
  5
62957
330
1F
100
AcDbEntity
  8
freecads.com
100
AcDbLine
 10
160891.9879135986
 20
109295.8518564295
 30
0.0
 11
160886.0219297105
 21
109281.9321049683
 31
0.0
  0
LINE
  5
62958
330
1F
100
AcDbEntity
  8
freecads.com
100
AcDbLine
 10
160886.0219297105
 20
109281.9321049683
 30
0.0
 11
160885.0256683243
 21
109273.9715672698
 31
0.0
  0
LINE
  5
62959
330
1F
100
AcDbEntity
  8
freecads.com
100
AcDbLine
 10
160893.9804363701
 20
109252.09127811
 30
0.0
 11
160884.0294069353
 21
109243.1460634597
 31
0.0
  0
LINE
  5
6295A
330
1F
100
AcDbEntity
  8
freecads.com
100
AcDbLine
 10
160884.0294069353
 20
109243.1460634597
 30
0.0
 11
160871.08959334
 21
109227.2313820695
 31
0.0
  0
LINE
  5
6295B
330
1F
100
AcDbEntity
  8
freecads.com
100
AcDbLine
 10
160871.08959334
 20
109227.2313820695
 30
0.0
 11
160867.1045477924
 21
109217.2823084482
 31
0.0
  0
LINE
  5
6295C
330
1F
100
AcDbEntity
  8
freecads.com
100
AcDbLine
 10
160800.4129570391
 20
109139.3905251222
 30
0.0
 11
160783.499682329
 21
109107.5675563473
 31
0.0
  0
LINE
  5
6295D
330
1F
100
AcDbEntity
  8
freecads.com
100
AcDbLine
 10
160783.499682329
 20
109107.5675563473
 30
0.0
 11
160756.6237937513
 21
109059.8299061823
 31
0.0
  0
LINE
  5
6295E
330
1F
100
AcDbEntity
  8
freecads.com
100
AcDbLine
 10
160756.6237937513
 20
109059.8299061823
 30
0.0
 11
160737.7179962689
 21
109029.9954733308
 31
0.0
  0
LINE
  5
6295F
330
1F
100
AcDbEntity
  8
freecads.com
100
AcDbLine
 10
160737.7179962689
 20
109029.9954733308
 30
0.0
 11
160719.796875737
 21
109007.1177192061
 31
0.0
  0
LINE
  5
62960
330
1F
100
AcDbEntity
  8
freecads.com
100
AcDbLine
 10
160643.4670352874
 20
108980.3843793535
 30
0.0
 11
160664.0641602411
 21
108966.3431417749
 31
0.0
  0
LINE
  5
62961
330
1F
100
AcDbEntity
  8
freecads.com
100
AcDbLine
 10
160664.0641602411
 20
108966.3431417749
 30
0.0
 11
160689.9437874326
 21
108961.3686049646
 31
0.0
  0
LINE
  5
62962
330
1F
100
AcDbEntity
  8
freecads.com
100
AcDbLine
 10
160689.9437874326
 20
108961.3686049646
 30
0.0
 11
160708.849584916
 21
108958.3889980832
 31
0.0
  0
LINE
  5
62963
330
1F
100
AcDbEntity
  8
freecads.com
100
AcDbLine
 10
160708.849584916
 20
108958.3889980832
 30
0.0
 11
160720.9241725648
 21
108963.5296544642
 31
0.0
  0
LINE
  5
62964
330
1F
100
AcDbEntity
  8
freecads.com
100
AcDbLine
 10
160665.3684285482
 20
109266.2256896691
 30
0.0
 11
160646.1430397102
 21
109258.0249158485
 31
0.0
  0
LINE
  5
62965
330
1F
100
AcDbEntity
  8
freecads.com
100
AcDbLine
 10
160646.1430397102
 20
109258.0249158485
 30
0.0
 11
160608.3198603097
 21
109251.0682371211
 31
0.0
  0
LINE
  5
62966
330
1F
100
AcDbEntity
  8
freecads.com
100
AcDbLine
 10
160608.3198603097
 20
109251.0682371211
 30
0.0
 11
160563.5344356348
 21
109256.0363799251
 31
0.0
  0
LINE
  5
62967
330
1F
100
AcDbEntity
  8
freecads.com
100
AcDbLine
 10
160563.5344356348
 20
109256.0363799251
 30
0.0
 11
160519.7452723462
 21
109262.9994526588
 31
0.0
  0
LINE
  5
62968
330
1F
100
AcDbEntity
  8
freecads.com
100
AcDbLine
 10
160519.7452723462
 20
109262.9994526588
 30
0.0
 11
160493.1582513576
 21
109270.0134330583
 31
0.0
  0
LINE
  5
62969
330
1F
100
AcDbEntity
  8
freecads.com
100
AcDbLine
 10
160685.9703263197
 20
109340.6994157996
 30
0.0
 11
160711.8267846409
 21
109348.532073374
 31
0.0
  0
LINE
  5
6296A
330
1F
100
AcDbEntity
  8
freecads.com
100
AcDbLine
 10
160711.8267846409
 20
109348.532073374
 30
0.0
 11
160735.71388906
 21
109368.423826611
 31
0.0
  0
LINE
  5
6296B
330
1F
100
AcDbEntity
  8
freecads.com
100
AcDbLine
 10
160735.71388906
 20
109368.423826611
 30
0.0
 11
160778.5183753943
 21
109402.2353313086
 31
0.0
  0
LINE
  5
6296C
330
1F
100
AcDbEntity
  8
freecads.com
100
AcDbLine
 10
160778.5183753943
 20
109402.2353313086
 30
0.0
 11
160809.3677250867
 21
109435.0557650477
 31
0.0
  0
LINE
  5
6296D
330
1F
100
AcDbEntity
  8
freecads.com
100
AcDbLine
 10
160809.3677250867
 20
109435.0557650477
 30
0.0
 11
160827.072197474
 21
109452.8396682991
 31
0.0
  0
LINE
  5
6296E
330
1F
100
AcDbEntity
  8
freecads.com
100
AcDbLine
 10
160796.1151317538
 20
109512.5703020088
 30
0.0
 11
160793.4507117647
 21
109507.6597052602
 31
0.0
  0
LINE
  5
6296F
330
1F
100
AcDbEntity
  8
freecads.com
100
AcDbLine
 10
160793.4507117647
 20
109507.6597052602
 30
0.0
 11
160776.5258526219
 21
109508.6507762181
 31
0.0
  0
LINE
  5
62970
330
1F
100
AcDbEntity
  8
freecads.com
100
AcDbLine
 10
160776.5258526219
 20
109508.6507762181
 30
0.0
 11
160766.5748231861
 21
109506.6622402952
 31
0.0
  0
LINE
  5
62971
330
1F
100
AcDbEntity
  8
freecads.com
100
AcDbLine
 10
160766.5748231861
 20
109506.6622402952
 30
0.0
 11
160759.6009934781
 21
109490.7475589051
 31
0.0
  0
LINE
  5
62972
330
1F
100
AcDbEntity
  8
freecads.com
100
AcDbLine
 10
160759.6009934781
 20
109490.7475589051
 30
0.0
 11
160749.6499640433
 21
109484.7819511355
 31
0.0
  0
LINE
  5
62973
330
1F
100
AcDbEntity
  8
freecads.com
100
AcDbLine
 10
160749.6499640433
 20
109484.7819511355
 30
0.0
 11
160731.7404279461
 21
109498.708096603
 31
0.0
  0
LINE
  5
62974
330
1F
100
AcDbEntity
  8
freecads.com
100
AcDbLine
 10
160731.7404279461
 20
109498.708096603
 30
0.0
 11
160689.932202998
 21
109518.5934558339
 31
0.0
  0
LINE
  5
62975
330
1F
100
AcDbEntity
  8
freecads.com
100
AcDbLine
 10
160689.932202998
 20
109518.5934558339
 30
0.0
 11
160606.2114931879
 21
109594.5542492921
 31
0.0
  0
LINE
  5
62976
330
1F
100
AcDbEntity
  8
freecads.com
100
AcDbLine
 10
160606.2114931879
 20
109594.5542492921
 30
0.0
 11
160536.5311182731
 21
109666.1607245399
 31
0.0
  0
LINE
  5
62977
330
1F
100
AcDbEntity
  8
freecads.com
100
AcDbLine
 10
160536.5311182731
 20
109666.1607245399
 30
0.0
 11
160513.6402752431
 21
109686.0524777763
 31
0.0
  0
LINE
  5
62978
330
1F
100
AcDbEntity
  8
freecads.com
100
AcDbLine
 10
160513.6402752431
 20
109686.0524777763
 30
0.0
 11
160508.2206908859
 21
109702.6480120665
 31
0.0
  0
LINE
  5
62979
330
1F
100
AcDbEntity
  8
freecads.com
100
AcDbLine
 10
160685.9703263197
 20
109340.6994157996
 30
0.0
 11
160693.7898197643
 21
109389.6775031643
 31
0.0
  0
LINE
  5
6297A
330
1F
100
AcDbEntity
  8
freecads.com
100
AcDbLine
 10
160693.7898197643
 20
109389.6775031643
 30
0.0
 11
160697.774865311
 21
109419.5119360159
 31
0.0
  0
LINE
  5
6297B
330
1F
100
AcDbEntity
  8
freecads.com
100
AcDbLine
 10
160697.774865311
 20
109419.5119360159
 30
0.0
 11
160696.7786039248
 21
109460.2929074534
 31
0.0
  0
LINE
  5
6297C
330
1F
100
AcDbEntity
  8
freecads.com
100
AcDbLine
 10
160696.7786039248
 20
109460.2929074534
 30
0.0
 11
160692.7935583762
 21
109490.1273403049
 31
0.0
  0
LINE
  5
6297D
330
1F
100
AcDbEntity
  8
freecads.com
100
AcDbLine
 10
160797.5168483559
 20
109566.0625577392
 30
0.0
 11
160795.5243255816
 21
109635.6804970633
 31
0.0
  0
LINE
  5
6297E
330
1F
100
AcDbEntity
  8
freecads.com
100
AcDbLine
 10
160795.5243255816
 20
109635.6804970633
 30
0.0
 11
160794.5280641954
 21
109689.3837549975
 31
0.0
  0
LINE
  5
6297F
330
1F
100
AcDbEntity
  8
freecads.com
100
AcDbLine
 10
160794.5280641954
 20
109689.3837549975
 30
0.0
 11
160777.6032050507
 21
109739.1099410859
 31
0.0
  0
LINE
  5
62980
330
1F
100
AcDbEntity
  8
freecads.com
100
AcDbLine
 10
160777.6032050507
 20
109739.1099410859
 30
0.0
 11
160780.5919892121
 21
109796.7966648724
 31
0.0
  0
LINE
  5
62981
330
1F
100
AcDbEntity
  8
freecads.com
100
AcDbLine
 10
160780.5919892121
 20
109796.7966648724
 30
0.0
 11
160788.5504958726
 21
109850.4999228063
 31
0.0
  0
LINE
  5
62982
330
1F
100
AcDbEntity
  8
freecads.com
100
AcDbLine
 10
160788.5504958726
 20
109850.4999228063
 30
0.0
 11
160793.5318028092
 21
109870.3916760427
 31
0.0
  0
LINE
  5
62983
330
1F
100
AcDbEntity
  8
freecads.com
100
AcDbLine
 10
160810.4450775165
 20
109851.4909937649
 30
0.0
 11
160810.4450775165
 21
109785.8565202925
 31
0.0
  0
LINE
  5
62984
330
1F
100
AcDbEntity
  8
freecads.com
100
AcDbLine
 10
160810.4450775165
 20
109785.8565202925
 30
0.0
 11
160796.5205869687
 21
109718.2271168909
 31
0.0
  0
LINE
  5
62985
330
1F
100
AcDbEntity
  8
freecads.com
100
AcDbLine
 10
160828.3661980493
 20
109791.8221280614
 30
0.0
 11
160816.4226458393
 21
109740.1074060507
 31
0.0
  0
LINE
  5
62986
330
1F
100
AcDbEntity
  8
freecads.com
100
AcDbLine
 10
160816.4226458393
 20
109740.1074060507
 30
0.0
 11
160807.4678777907
 21
109701.3213645422
 31
0.0
  0
LINE
  5
62987
330
1F
100
AcDbEntity
  8
freecads.com
100
AcDbLine
 10
160807.4678777907
 20
109701.3213645422
 30
0.0
 11
160800.4940480817
 21
109655.5722502997
 31
0.0
  0
LINE
  5
62988
330
1F
100
AcDbEntity
  8
freecads.com
100
AcDbLine
 10
160735.8065645382
 20
109886.2999634274
 30
0.0
 11
160753.7161006326
 21
109809.7253453751
 31
0.0
  0
LINE
  5
62989
330
1F
100
AcDbEntity
  8
freecads.com
100
AcDbLine
 10
160753.7161006326
 20
109809.7253453751
 30
0.0
 11
160760.6899303425
 21
109763.9762311333
 31
0.0
  0
LINE
  5
6298A
330
1F
100
AcDbEntity
  8
freecads.com
100
AcDbLine
 10
160760.6899303425
 20
109763.9762311333
 30
0.0
 11
160768.648437003
 21
109721.2067237723
 31
0.0
  0
LINE
  5
6298B
330
1F
100
AcDbEntity
  8
freecads.com
100
AcDbLine
 10
160768.648437003
 20
109721.2067237723
 30
0.0
 11
160778.5994664378
 21
109682.4206822645
 31
0.0
  0
LINE
  5
6298C
330
1F
100
AcDbEntity
  8
freecads.com
100
AcDbLine
 10
160708.9306759586
 20
109773.9189107485
 30
0.0
 11
160727.836473442
 21
109753.0360865534
 31
0.0
  0
LINE
  5
6298D
330
1F
100
AcDbEntity
  8
freecads.com
100
AcDbLine
 10
160727.836473442
 20
109753.0360865534
 30
0.0
 11
160733.8140417629
 21
109733.1443333169
 31
0.0
  0
LINE
  5
6298E
330
1F
100
AcDbEntity
  8
freecads.com
100
AcDbLine
 10
160733.8140417629
 20
109733.1443333169
 30
0.0
 11
160736.8028259234
 21
109702.3124355008
 31
0.0
  0
LINE
  5
6298F
330
1F
100
AcDbEntity
  8
freecads.com
100
AcDbLine
 10
160736.8028259234
 20
109702.3124355008
 30
0.0
 11
160744.7613325849
 21
109667.5034658384
 31
0.0
  0
LINE
  5
62990
330
1F
100
AcDbEntity
  8
freecads.com
100
AcDbLine
 10
160624.329549109
 20
109746.0730138196
 30
0.0
 11
160653.1979604618
 21
109713.25258008
 31
0.0
  0
LINE
  5
62991
330
1F
100
AcDbEntity
  8
freecads.com
100
AcDbLine
 10
160653.1979604618
 20
109713.25258008
 30
0.0
 11
160669.1149737838
 21
109683.4181472285
 31
0.0
  0
LINE
  5
62992
330
1F
100
AcDbEntity
  8
freecads.com
100
AcDbLine
 10
160669.1149737838
 20
109683.4181472285
 30
0.0
 11
160672.1037579452
 21
109662.5353230335
 31
0.0
  0
LINE
  5
62993
330
1F
100
AcDbEntity
  8
freecads.com
100
AcDbLine
 10
160672.1037579452
 20
109662.5353230335
 30
0.0
 11
160674.0962807195
 21
109653.583714377
 31
0.0
  0
LINE
  5
62994
330
1F
100
AcDbEntity
  8
freecads.com
100
AcDbLine
 10
160674.0962807195
 20
109653.583714377
 30
0.0
 11
160693.9983395891
 21
109673.4690736071
 31
0.0
  0
LINE
  5
62995
330
1F
100
AcDbEntity
  8
freecads.com
100
AcDbLine
 10
160693.9983395891
 20
109673.4690736071
 30
0.0
 11
160704.9456304101
 21
109694.3582918085
 31
0.0
  0
LINE
  5
62996
330
1F
100
AcDbEntity
  8
freecads.com
100
AcDbLine
 10
160711.91946012
 20
109673.4690736071
 30
0.0
 11
160706.9381531844
 21
109640.6550338743
 31
0.0
  0
LINE
  5
62997
330
1F
100
AcDbEntity
  8
freecads.com
100
AcDbLine
 10
160706.9381531844
 20
109640.6550338743
 30
0.0
 11
160716.8891826201
 21
109614.7912788623
 31
0.0
  0
LINE
  5
62998
330
1F
100
AcDbEntity
  8
freecads.com
100
AcDbLine
 10
160716.8891826201
 20
109614.7912788623
 30
0.0
 11
160732.8177803768
 21
109596.8944555556
 31
0.0
  0
LINE
  5
62999
330
1F
100
AcDbEntity
  8
freecads.com
100
AcDbLine
 10
160610.3934741266
 20
109638.6601039447
 30
0.0
 11
160668.1187123967
 21
109586.9453819336
 31
0.0
  0
LINE
  5
6299A
330
1F
100
AcDbEntity
  8
freecads.com
100
AcDbLine
 10
160668.1187123967
 20
109586.9453819336
 30
0.0
 11
160700.9721692981
 21
109567.0536286972
 31
0.0
  0
LINE
  5
6299B
330
1F
100
AcDbEntity
  8
freecads.com
100
AcDbLine
 10
160700.9721692981
 20
109567.0536286972
 30
0.0
 11
160727.836473442
 21
109539.2077317684
 31
0.0
  0
LINE
  5
6299C
330
1F
100
AcDbEntity
  8
freecads.com
100
AcDbLine
 10
160727.836473442
 20
109539.2077317684
 30
0.0
 11
160739.7800256511
 21
109530.256123112
 31
0.0
  0
LINE
  5
6299D
330
1F
100
AcDbEntity
  8
freecads.com
100
AcDbLine
 10
160739.7800256511
 20
109530.256123112
 30
0.0
 11
160752.7198392463
 21
109502.4102261833
 31
0.0
  0
LINE
  5
6299E
330
1F
100
AcDbEntity
  8
freecads.com
100
AcDbLine
 10
160762.6708686821
 20
109525.2879803071
 30
0.0
 11
160775.6106822774
 21
109522.3019794197
 31
0.0
  0
LINE
  5
6299F
330
1F
100
AcDbEntity
  8
freecads.com
100
AcDbLine
 10
160775.6106822774
 20
109522.3019794197
 30
0.0
 11
160789.5467572607
 21
109517.3274426094
 31
0.0
  0
LINE
  5
629A0
330
1F
100
AcDbEntity
  8
freecads.com
100
AcDbLine
 10
160864.1968546737
 20
109746.0730138196
 30
0.0
 11
160851.2570410793
 21
109705.2984363882
 31
0.0
  0
LINE
  5
629A1
330
1F
100
AcDbEntity
  8
freecads.com
100
AcDbLine
 10
160851.2570410793
 20
109705.2984363882
 30
0.0
 11
160850.2607796922
 21
109647.6117126021
 31
0.0
  0
LINE
  5
629A2
330
1F
100
AcDbEntity
  8
freecads.com
100
AcDbLine
 10
160850.2607796922
 20
109647.6117126021
 30
0.0
 11
160851.2570410793
 21
109615.788743827
 31
0.0
  0
LINE
  5
629A3
330
1F
100
AcDbEntity
  8
freecads.com
100
AcDbLine
 10
160897.0387271413
 20
109736.1303342046
 30
0.0
 11
160908.9822793494
 21
109707.2869723112
 31
0.0
  0
LINE
  5
629A4
330
1F
100
AcDbEntity
  8
freecads.com
100
AcDbLine
 10
160908.9822793494
 20
109707.2869723112
 30
0.0
 11
160923.9146157199
 21
109661.5378580694
 31
0.0
  0
LINE
  5
629A5
330
1F
100
AcDbEntity
  8
freecads.com
100
AcDbLine
 10
160923.9146157199
 20
109661.5378580694
 30
0.0
 11
160932.8693837676
 21
109658.5518571818
 31
0.0
  0
LINE
  5
629A6
330
1F
100
AcDbEntity
  8
freecads.com
100
AcDbLine
 10
161049.9764344761
 20
110027.6970161664
 30
0.0
 11
161053.5096870692
 21
109996.9610284434
 31
0.0
  0
LINE
  5
629A7
330
1F
100
AcDbEntity
  8
freecads.com
100
AcDbLine
 10
161053.5096870692
 20
109996.9610284434
 30
0.0
 11
161065.4532392783
 21
109957.17752197
 31
0.0
  0
LINE
  5
629A8
330
1F
100
AcDbEntity
  8
freecads.com
100
AcDbLine
 10
161065.4532392783
 20
109957.17752197
 30
0.0
 11
161078.3930528735
 21
109945.2463064321
 31
0.0
  0
LINE
  5
629A9
330
1F
100
AcDbEntity
  8
freecads.com
100
AcDbLine
 10
161078.3930528735
 20
109945.2463064321
 30
0.0
 11
161091.3328664697
 21
109918.3914804619
 31
0.0
  0
LINE
  5
629AA
330
1F
100
AcDbEntity
  8
freecads.com
100
AcDbLine
 10
161091.3328664697
 20
109918.3914804619
 30
0.0
 11
161102.2801572926
 21
109871.6512952611
 31
0.0
  0
LINE
  5
629AB
330
1F
100
AcDbEntity
  8
freecads.com
100
AcDbLine
 10
161102.2801572926
 20
109871.6512952611
 30
0.0
 11
161103.2764186788
 21
109852.1751524266
 31
0.0
  0
LINE
  5
629AC
330
1F
100
AcDbEntity
  8
freecads.com
100
AcDbLine
 10
161086.8149369251
 20
109741.6803315715
 30
0.0
 11
161051.5171642959
 21
109767.2243862742
 31
0.0
  0
LINE
  5
629AD
330
1F
100
AcDbEntity
  8
freecads.com
100
AcDbLine
 10
161051.5171642959
 20
109767.2243862742
 30
0.0
 11
161018.6752918282
 21
109779.1556018122
 31
0.0
  0
LINE
  5
629AE
330
1F
100
AcDbEntity
  8
freecads.com
100
AcDbLine
 10
161018.6752918282
 20
109779.1556018122
 30
0.0
 11
160983.8408965891
 21
109786.1186745459
 31
0.0
  0
LINE
  5
629AF
330
1F
100
AcDbEntity
  8
freecads.com
100
AcDbLine
 10
160983.8408965891
 20
109786.1186745459
 30
0.0
 11
160963.9388377195
 21
109786.1186745459
 31
0.0
  0
LINE
  5
629B0
330
1F
100
AcDbEntity
  8
freecads.com
100
AcDbLine
 10
160963.9388377195
 20
109786.1186745459
 30
0.0
 11
160957.9612693976
 21
109786.1186745459
 31
0.0
  0
LINE
  5
629B1
330
1F
100
AcDbEntity
  8
freecads.com
100
AcDbLine
 10
160957.9612693976
 20
109786.1186745459
 30
0.0
 11
160953.97622385
 21
109785.1212095817
 31
0.0
  0
LINE
  5
629B2
330
1F
100
AcDbEntity
  8
freecads.com
100
AcDbLine
 10
160953.97622385
 20
109785.1212095817
 30
0.0
 11
160951.9952855104
 21
109795.070283203
 31
0.0
  0
LINE
  5
629B3
330
1F
100
AcDbEntity
  8
freecads.com
100
AcDbLine
 10
160951.9952855104
 20
109795.070283203
 30
0.0
 11
160956.9650080096
 21
109810.978570587
 31
0.0
  0
LINE
  5
629B4
330
1F
100
AcDbEntity
  8
freecads.com
100
AcDbLine
 10
160956.9650080096
 20
109810.978570587
 30
0.0
 11
160956.9650080096
 21
109827.890716942
 31
0.0
  0
LINE
  5
629B5
330
1F
100
AcDbEntity
  8
freecads.com
100
AcDbLine
 10
160956.9650080096
 20
109827.890716942
 30
0.0
 11
160949.00650135
 21
109844.7964692909
 31
0.0
  0
LINE
  5
629B6
330
1F
100
AcDbEntity
  8
freecads.com
100
AcDbLine
 10
160949.00650135
 20
109844.7964692909
 30
0.0
 11
160951.9952855104
 21
109854.7391489061
 31
0.0
  0
LINE
  5
629B7
330
1F
100
AcDbEntity
  8
freecads.com
100
AcDbLine
 10
160925.1193969318
 20
109852.7506129831
 30
0.0
 11
160928.1081810923
 21
109833.856324711
 31
0.0
  0
LINE
  5
629B8
330
1F
100
AcDbEntity
  8
freecads.com
100
AcDbLine
 10
160928.1081810923
 20
109833.856324711
 30
0.0
 11
160940.0517333014
 21
109818.9391082857
 31
0.0
  0
LINE
  5
629B9
330
1F
100
AcDbEntity
  8
freecads.com
100
AcDbLine
 10
160940.0517333014
 20
109818.9391082857
 30
0.0
 11
160947.0139785748
 21
109807.001498741
 31
0.0
  0
LINE
  5
629BA
330
1F
100
AcDbEntity
  8
freecads.com
100
AcDbLine
 10
160942.03267164
 20
109833.856324711
 30
0.0
 11
160947.0139785748
 21
109823.913645096
 31
0.0
  0
LINE
  5
629BB
330
1F
100
AcDbEntity
  8
freecads.com
100
AcDbLine
 10
160947.0139785748
 20
109823.913645096
 30
0.0
 11
160951.9952855104
 21
109807.9989637057
 31
0.0
  0
LINE
  5
629BC
330
1F
100
AcDbEntity
  8
freecads.com
100
AcDbLine
 10
160966.4758289264
 20
109664.1146425612
 30
0.0
 11
160980.8521124286
 21
109674.7286928256
 31
0.0
  0
LINE
  5
629BD
330
1F
100
AcDbEntity
  8
freecads.com
100
AcDbLine
 10
160980.8521124286
 20
109674.7286928256
 30
0.0
 11
160986.8296807505
 21
109686.6663023697
 31
0.0
  0
LINE
  5
629BE
330
1F
100
AcDbEntity
  8
freecads.com
100
AcDbLine
 10
160986.8296807505
 20
109686.6663023697
 30
0.0
 11
160978.8595896544
 21
109713.5147343341
 31
0.0
  0
LINE
  5
629BF
330
1F
100
AcDbEntity
  8
freecads.com
100
AcDbLine
 10
160978.8595896544
 20
109713.5147343341
 30
0.0
 11
160968.9085602196
 21
109737.3835594168
 31
0.0
  0
LINE
  5
629C0
330
1F
100
AcDbEntity
  8
freecads.com
100
AcDbLine
 10
160968.9085602196
 20
109737.3835594168
 30
0.0
 11
160968.9085602196
 21
109754.2957057718
 31
0.0
  0
LINE
  5
629C1
330
1F
100
AcDbEntity
  8
freecads.com
100
AcDbLine
 10
160968.9085602196
 20
109754.2957057718
 30
0.0
 11
160964.923514672
 21
109786.1186745459
 31
0.0
  0
LINE
  5
629C2
330
1F
100
AcDbEntity
  8
freecads.com
100
AcDbLine
 10
160986.8296807505
 20
109686.6663023697
 30
0.0
 11
160999.8737542586
 21
109640.501577726
 31
0.0
  0
LINE
  5
629C3
330
1F
100
AcDbEntity
  8
freecads.com
100
AcDbLine
 10
160999.8737542586
 20
109640.501577726
 30
0.0
 11
161010.8210450805
 21
109617.623823602
 31
0.0
  0
LINE
  5
629C4
330
1F
100
AcDbEntity
  8
freecads.com
100
AcDbLine
 10
161010.8210450805
 20
109617.623823602
 30
0.0
 11
161017.7832903549
 21
109574.8607102472
 31
0.0
  0
LINE
  5
629C5
330
1F
100
AcDbEntity
  8
freecads.com
100
AcDbLine
 10
161017.7832903549
 20
109574.8607102472
 30
0.0
 11
161022.7645972896
 21
109545.0262773958
 31
0.0
  0
LINE
  5
629C6
330
1F
100
AcDbEntity
  8
freecads.com
100
AcDbLine
 10
161022.7645972896
 20
109545.0262773958
 30
0.0
 11
161034.7081494987
 21
109505.2427709224
 31
0.0
  0
LINE
  5
629C7
330
1F
100
AcDbEntity
  8
freecads.com
100
AcDbLine
 10
161034.7081494987
 20
109505.2427709224
 30
0.0
 11
161055.8034051455
 21
109470.0117968525
 31
0.0
  0
LINE
  5
629C8
330
1F
100
AcDbEntity
  8
freecads.com
100
AcDbLine
 10
161274.5986239345
 20
109333.2887626329
 30
0.0
 11
161274.1120776752
 21
109320.571084334
 31
0.0
  0
LINE
  5
629C9
330
1F
100
AcDbEntity
  8
freecads.com
100
AcDbLine
 10
161274.1120776752
 20
109320.571084334
 30
0.0
 11
161272.1543082049
 21
109314.7013866577
 31
0.0
  0
LINE
  5
629CA
330
1F
100
AcDbEntity
  8
freecads.com
100
AcDbLine
 10
161272.1543082049
 20
109314.7013866577
 30
0.0
 11
161263.8250996325
 21
109313.2307652357
 31
0.0
  0
LINE
  5
629CB
330
1F
100
AcDbEntity
  8
freecads.com
100
AcDbLine
 10
161263.8250996325
 20
109313.2307652357
 30
0.0
 11
161259.9095606938
 21
109302.9619913049
 31
0.0
  0
LINE
  5
629CC
330
1F
100
AcDbEntity
  8
freecads.com
100
AcDbLine
 10
161259.9095606938
 20
109302.9619913049
 30
0.0
 11
161261.3807839037
 21
109295.6216722065
 31
0.0
  0
LINE
  5
629CD
330
1F
100
AcDbEntity
  8
freecads.com
100
AcDbLine
 10
161261.3807839037
 20
109295.6216722065
 30
0.0
 11
161253.063159766
 21
109292.2008788984
 31
0.0
  0
LINE
  5
629CE
330
1F
100
AcDbEntity
  8
freecads.com
100
AcDbLine
 10
161253.063159766
 20
109292.2008788984
 30
0.0
 11
161248.6610745689
 21
109285.3528982765
 31
0.0
  0
LINE
  5
629CF
330
1F
100
AcDbEntity
  8
freecads.com
100
AcDbLine
 10
161248.6610745689
 20
109285.3528982765
 30
0.0
 11
161247.189851357
 21
109274.0994473934
 31
0.0
  0
LINE
  5
629D0
330
1F
100
AcDbEntity
  8
freecads.com
100
AcDbLine
 10
161247.189851357
 20
109274.0994473934
 30
0.0
 11
161244.2474049352
 21
109272.6352199776
 31
0.0
  0
LINE
  5
629D1
330
1F
100
AcDbEntity
  8
freecads.com
100
AcDbLine
 10
161262.3654608572
 20
109285.8388427461
 30
0.0
 11
161264.809776585
 21
109276.0560132856
 31
0.0
  0
LINE
  5
629D2
330
1F
100
AcDbEntity
  8
freecads.com
100
AcDbLine
 10
161273.6255314167
 20
109310.7882548737
 30
0.0
 11
161281.456609296
 21
109299.0488595209
 31
0.0
  0
LINE
  5
629D3
330
1F
100
AcDbEntity
  8
freecads.com
100
AcDbLine
 10
161072.2185491616
 20
109714.4674412553
 30
0.0
 11
161072.2185491616
 21
109675.6877937531
 31
0.0
  0
LINE
  5
629D4
330
1F
100
AcDbEntity
  8
freecads.com
100
AcDbLine
 10
161072.2185491616
 20
109675.6877937531
 30
0.0
 11
161062.2095975535
 21
109651.914878763
 31
0.0
  0
LINE
  5
629D5
330
1F
100
AcDbEntity
  8
freecads.com
100
AcDbLine
 10
161029.6573359551
 20
109559.3424572403
 30
0.0
 11
161042.168525467
 21
109539.3228238802
 31
0.0
  0
LINE
  5
629D6
330
1F
100
AcDbEntity
  8
freecads.com
100
AcDbLine
 10
161042.168525467
 20
109539.3228238802
 30
0.0
 11
161053.4401804613
 21
109523.0628661558
 31
0.0
  0
LINE
  5
629D7
330
1F
100
AcDbEntity
  8
freecads.com
100
AcDbLine
 10
161033.4106928086
 20
109543.0761055097
 30
0.0
 11
161045.9334667543
 21
109523.0628661558
 31
0.0
  0
LINE
  5
629D8
330
1F
100
AcDbEntity
  8
freecads.com
100
AcDbLine
 10
161099.4072174778
 20
110037.7036358437
 30
0.0
 11
161112.3354466393
 21
110043.854669792
 31
0.0
  0
LINE
  5
629D9
330
1F
100
AcDbEntity
  8
freecads.com
100
AcDbLine
 10
161112.3354466393
 20
110043.854669792
 30
0.0
 11
161122.8077756384
 21
110048.1642299595
 31
0.0
  0
LINE
  5
629DA
330
1F
100
AcDbEntity
  8
freecads.com
100
AcDbLine
 10
161122.8077756384
 20
110048.1642299595
 30
0.0
 11
161118.4983659167
 21
110031.5526018952
 31
0.0
  0
LINE
  5
629DB
330
1F
100
AcDbEntity
  8
freecads.com
100
AcDbLine
 10
161118.4983659167
 20
110031.5526018952
 30
0.0
 11
161130.8126200376
 21
110024.7813493473
 31
0.0
  0
LINE
  5
629DC
330
1F
100
AcDbEntity
  8
freecads.com
100
AcDbLine
 10
161130.8126200376
 20
110024.7813493473
 30
0.0
 11
161135.736004799
 21
110021.0920077794
 31
0.0
  0
LINE
  5
629DD
330
1F
100
AcDbEntity
  8
freecads.com
100
AcDbLine
 10
161135.736004799
 20
110021.0920077794
 30
0.0
 11
161143.7408491982
 21
110010.0175890697
 31
0.0
  0
LINE
  5
629DE
330
1F
100
AcDbEntity
  8
freecads.com
100
AcDbLine
 10
161143.7408491982
 20
110010.0175890697
 30
0.0
 11
161151.7456935974
 21
110009.4037644757
 31
0.0
  0
LINE
  5
629DF
330
1F
100
AcDbEntity
  8
freecads.com
100
AcDbLine
 10
161151.7456935974
 20
110009.4037644757
 30
0.0
 11
161166.5274323163
 21
110009.4037644757
 31
0.0
  0
LINE
  5
629E0
330
1F
100
AcDbEntity
  8
freecads.com
100
AcDbLine
 10
161166.5274323163
 20
110009.4037644757
 30
0.0
 11
161178.2277113966
 21
110007.5558966891
 31
0.0
  0
LINE
  5
629E1
330
1F
100
AcDbEntity
  8
freecads.com
100
AcDbLine
 10
161178.2277113966
 20
110007.5558966891
 30
0.0
 11
161191.7699155988
 21
110004.4803797144
 31
0.0
  0
LINE
  5
629E2
330
1F
100
AcDbEntity
  8
freecads.com
100
AcDbLine
 10
161191.7699155988
 20
110004.4803797144
 30
0.0
 11
161214.556498716
 21
110004.4803797144
 31
0.0
  0
LINE
  5
629E3
330
1F
100
AcDbEntity
  8
freecads.com
100
AcDbLine
 10
161214.556498716
 20
110004.4803797144
 30
0.0
 11
161221.9357836417
 21
109998.3229517603
 31
0.0
  0
LINE
  5
629E4
330
1F
100
AcDbEntity
  8
freecads.com
100
AcDbLine
 10
161221.9357836417
 20
109998.3229517603
 30
0.0
 11
161231.7941375983
 21
109990.9442686248
 31
0.0
  0
LINE
  5
629E5
330
1F
100
AcDbEntity
  8
freecads.com
100
AcDbLine
 10
161231.7941375983
 20
109990.9442686248
 30
0.0
 11
161259.5041054788
 21
109985.4070592695
 31
0.0
  0
LINE
  5
629E6
330
1F
100
AcDbEntity
  8
freecads.com
100
AcDbLine
 10
161259.5041054788
 20
109985.4070592695
 30
0.0
 11
161260.1180805185
 21
109980.4836745083
 31
0.0
  0
LINE
  5
629E7
330
1F
100
AcDbEntity
  8
freecads.com
100
AcDbLine
 10
161260.1180805185
 20
109980.4836745083
 30
0.0
 11
161261.3460305998
 21
109976.174114341
 31
0.0
  0
LINE
  5
629E8
330
1F
100
AcDbEntity
  8
freecads.com
100
AcDbLine
 10
161261.3460305998
 20
109976.174114341
 30
0.0
 11
161273.046309681
 21
109973.7124219603
 31
0.0
  0
LINE
  5
629E9
330
1F
100
AcDbEntity
  8
freecads.com
100
AcDbLine
 10
161273.046309681
 20
109973.7124219603
 30
0.0
 11
161280.4371790386
 21
109969.4092557991
 31
0.0
  0
LINE
  5
629EA
330
1F
100
AcDbEntity
  8
freecads.com
100
AcDbLine
 10
161280.4371790386
 20
109969.4092557991
 30
0.0
 11
161287.8280483991
 21
109964.4858710379
 31
0.0
  0
LINE
  5
629EB
330
1F
100
AcDbEntity
  8
freecads.com
100
AcDbLine
 10
161287.8280483991
 20
109964.4858710379
 30
0.0
 11
161289.0559984793
 21
109958.9486616826
 31
0.0
  0
LINE
  5
629EC
330
1F
100
AcDbEntity
  8
freecads.com
100
AcDbLine
 10
161289.0559984793
 20
109958.9486616826
 30
0.0
 11
161286.5885138823
 21
109950.9497599475
 31
0.0
  0
LINE
  5
629ED
330
1F
100
AcDbEntity
  8
freecads.com
100
AcDbLine
 10
161286.5885138823
 20
109950.9497599475
 30
0.0
 11
161280.4371790386
 21
109927.5668793346
 31
0.0
  0
LINE
  5
629EE
330
1F
100
AcDbEntity
  8
freecads.com
100
AcDbLine
 10
161280.4371790386
 20
109927.5668793346
 30
0.0
 11
161277.9696944415
 21
109923.8775377667
 31
0.0
  0
LINE
  5
629EF
330
1F
100
AcDbEntity
  8
freecads.com
100
AcDbLine
 10
161277.9696944415
 20
109923.8775377667
 30
0.0
 11
161268.0584225183
 21
109911.2987798561
 31
0.0
  0
LINE
  5
629F0
330
1F
100
AcDbEntity
  8
freecads.com
100
AcDbLine
 10
161186.8465308373
 20
109983.5591914828
 30
0.0
 11
161188.6884559601
 21
109990.9442686248
 31
0.0
  0
LINE
  5
629F1
330
1F
100
AcDbEntity
  8
freecads.com
100
AcDbLine
 10
161188.6884559601
 20
109990.9442686248
 30
0.0
 11
161184.3790462384
 21
109997.0953025733
 31
0.0
  0
LINE
  5
629F2
330
1F
100
AcDbEntity
  8
freecads.com
100
AcDbLine
 10
161184.3790462384
 20
109997.0953025733
 30
0.0
 11
161168.9833324806
 21
110000.7846441411
 31
0.0
  0
LINE
  5
629F3
330
1F
100
AcDbEntity
  8
freecads.com
100
AcDbLine
 10
161168.9833324806
 20
110000.7846441411
 30
0.0
 11
161157.2830534003
 21
109998.9431703598
 31
0.0
  0
LINE
  5
629F4
330
1F
100
AcDbEntity
  8
freecads.com
100
AcDbLine
 10
161157.2830534003
 20
109998.9431703598
 30
0.0
 11
161147.4362838774
 21
109986.6347084568
 31
0.0
  0
LINE
  5
629F5
330
1F
100
AcDbEntity
  8
freecads.com
100
AcDbLine
 10
161147.4362838774
 20
109986.6347084568
 30
0.0
 11
161140.6593895604
 21
109971.870948179
 31
0.0
  0
LINE
  5
629F6
330
1F
100
AcDbEntity
  8
freecads.com
100
AcDbLine
 10
161140.6593895604
 20
109971.870948179
 30
0.0
 11
161141.2733646011
 21
109958.3348370894
 31
0.0
  0
LINE
  5
629F7
330
1F
100
AcDbEntity
  8
freecads.com
100
AcDbLine
 10
161141.2733646011
 20
109958.3348370894
 30
0.0
 11
161146.2083337972
 21
109954.6391015154
 31
0.0
  0
LINE
  5
629F8
330
1F
100
AcDbEntity
  8
freecads.com
100
AcDbLine
 10
161146.2083337972
 20
109954.6391015154
 30
0.0
 11
161156.0551033182
 21
109956.4869693021
 31
0.0
  0
LINE
  5
629F9
330
1F
100
AcDbEntity
  8
freecads.com
100
AcDbLine
 10
161156.0551033182
 20
109956.4869693021
 30
0.0
 11
161157.897028441
 21
109961.4103540633
 31
0.0
  0
LINE
  5
629FA
330
1F
100
AcDbEntity
  8
freecads.com
100
AcDbLine
 10
161157.897028441
 20
109961.4103540633
 30
0.0
 11
161156.6690783597
 21
109965.7135202253
 31
0.0
  0
LINE
  5
629FB
330
1F
100
AcDbEntity
  8
freecads.com
100
AcDbLine
 10
161156.6690783597
 20
109965.7135202253
 30
0.0
 11
161160.9784880796
 21
109966.9475634185
 31
0.0
  0
LINE
  5
629FC
330
1F
100
AcDbEntity
  8
freecads.com
100
AcDbLine
 10
161160.9784880796
 20
109966.9475634185
 30
0.0
 11
161167.1414073579
 21
109966.9475634185
 31
0.0
  0
LINE
  5
629FD
330
1F
100
AcDbEntity
  8
freecads.com
100
AcDbLine
 10
161180.6836115591
 20
109984.7868406702
 30
0.0
 11
161174.5322767183
 21
109989.0964008374
 31
0.0
  0
LINE
  5
629FE
330
1F
100
AcDbEntity
  8
freecads.com
100
AcDbLine
 10
161174.5322767183
 20
109989.0964008374
 30
0.0
 11
161168.3693574391
 21
109986.6347084568
 31
0.0
  0
LINE
  5
629FF
330
1F
100
AcDbEntity
  8
freecads.com
100
AcDbLine
 10
161168.3693574391
 20
109986.6347084568
 30
0.0
 11
161159.7505379993
 21
109981.0974991022
 31
0.0
  0
LINE
  5
62A00
330
1F
100
AcDbEntity
  8
freecads.com
100
AcDbLine
 10
161159.7505379993
 20
109981.0974991022
 30
0.0
 11
161156.0551033182
 21
109979.8698499149
 31
0.0
  0
LINE
  5
62A01
330
1F
100
AcDbEntity
  8
freecads.com
100
AcDbLine
 10
161156.0551033182
 20
109979.8698499149
 30
0.0
 11
161151.7456935974
 21
109974.9464651537
 31
0.0
  0
LINE
  5
62A02
330
1F
100
AcDbEntity
  8
freecads.com
100
AcDbLine
 10
161151.7456935974
 20
109974.9464651537
 30
0.0
 11
161152.3596686389
 21
109972.4847727731
 31
0.0
  0
LINE
  5
62A03
330
1F
100
AcDbEntity
  8
freecads.com
100
AcDbLine
 10
161152.3596686389
 20
109972.4847727731
 30
0.0
 11
161156.6690783597
 21
109973.0985973664
 31
0.0
  0
LINE
  5
62A04
330
1F
100
AcDbEntity
  8
freecads.com
100
AcDbLine
 10
161192.99786568
 20
110060.4662978563
 30
0.0
 11
161234.2500377608
 21
110062.3141656432
 31
0.0
  0
LINE
  5
62A05
330
1F
100
AcDbEntity
  8
freecads.com
100
AcDbLine
 10
161234.2500377608
 20
110062.3141656432
 30
0.0
 11
161235.4895722776
 21
110056.1631316954
 31
0.0
  0
LINE
  5
62A06
330
1F
100
AcDbEntity
  8
freecads.com
100
AcDbLine
 10
161235.4895722776
 20
110056.1631316954
 30
0.0
 11
161237.3314974004
 21
110042.627020605
 31
0.0
  0
LINE
  5
62A07
330
1F
100
AcDbEntity
  8
freecads.com
100
AcDbLine
 10
161237.3314974004
 20
110042.627020605
 30
0.0
 11
161251.4992610769
 21
110038.3174604371
 31
0.0
  0
LINE
  5
62A08
330
1F
100
AcDbEntity
  8
freecads.com
100
AcDbLine
 10
161251.4992610769
 20
110038.3174604371
 30
0.0
 11
161247.189851357
 21
110021.7058323728
 31
0.0
  0
LINE
  5
62A09
330
1F
100
AcDbEntity
  8
freecads.com
100
AcDbLine
 10
161247.189851357
 20
110021.7058323728
 30
0.0
 11
161261.3460305998
 21
110010.0175890697
 31
0.0
  0
LINE
  5
62A0A
330
1F
100
AcDbEntity
  8
freecads.com
100
AcDbLine
 10
161261.3460305998
 20
110010.0175890697
 30
0.0
 11
161262.5739806819
 21
110002.0186873338
 31
0.0
  0
LINE
  5
62A0B
330
1F
100
AcDbEntity
  8
freecads.com
100
AcDbLine
 10
161262.5739806819
 20
110002.0186873338
 30
0.0
 11
161271.2043845573
 21
109992.7857424053
 31
0.0
  0
LINE
  5
62A0C
330
1F
100
AcDbEntity
  8
freecads.com
100
AcDbLine
 10
161271.2043845573
 20
109992.7857424053
 30
0.0
 11
161278.5836694821
 21
109990.3240500247
 31
0.0
  0
LINE
  5
62A0D
330
1F
100
AcDbEntity
  8
freecads.com
100
AcDbLine
 10
161278.5836694821
 20
109990.3240500247
 30
0.0
 11
161283.5186386782
 21
109984.1730160762
 31
0.0
  0
LINE
  5
62A0E
330
1F
100
AcDbEntity
  8
freecads.com
100
AcDbLine
 10
161283.5186386782
 20
109984.1730160762
 30
0.0
 11
161289.0559984793
 21
109977.4081575343
 31
0.0
  0
LINE
  5
62A0F
330
1F
100
AcDbEntity
  8
freecads.com
100
AcDbLine
 10
161289.0559984793
 20
109977.4081575343
 30
0.0
 11
161287.8280483991
 21
109967.5613880118
 31
0.0
  0
LINE
  5
62A10
330
1F
100
AcDbEntity
  8
freecads.com
100
AcDbLine
 10
161287.8280483991
 20
109967.5613880118
 30
0.0
 11
161290.2839485606
 21
109959.5624862767
 31
0.0
  0
LINE
  5
62A11
330
1F
100
AcDbEntity
  8
freecads.com
100
AcDbLine
 10
161170.2228669956
 20
110037.7036358437
 30
0.0
 11
161196.6933003602
 21
110045.0887129856
 31
0.0
  0
LINE
  5
62A12
330
1F
100
AcDbEntity
  8
freecads.com
100
AcDbLine
 10
161196.6933003602
 20
110045.0887129856
 30
0.0
 11
161202.8562196375
 21
110043.2408451983
 31
0.0
  0
LINE
  5
62A13
330
1F
100
AcDbEntity
  8
freecads.com
100
AcDbLine
 10
161202.8562196375
 20
110043.2408451983
 30
0.0
 11
161201.0027100801
 21
110024.7813493473
 31
0.0
  0
LINE
  5
62A14
330
1F
100
AcDbEntity
  8
freecads.com
100
AcDbLine
 10
161201.0027100801
 20
110024.7813493473
 30
0.0
 11
161207.1656293574
 21
110026.0153925406
 31
0.0
  0
LINE
  5
62A15
330
1F
100
AcDbEntity
  8
freecads.com
100
AcDbLine
 10
161207.1656293574
 20
110026.0153925406
 30
0.0
 11
161193.6118407216
 21
110021.7058323728
 31
0.0
  0
LINE
  5
62A16
330
1F
100
AcDbEntity
  8
freecads.com
100
AcDbLine
 10
161193.6118407216
 20
110021.7058323728
 30
0.0
 11
161208.3935794387
 21
110016.1686230182
 31
0.0
  0
LINE
  5
62A17
330
1F
100
AcDbEntity
  8
freecads.com
100
AcDbLine
 10
161208.3935794387
 20
110016.1686230182
 30
0.0
 11
161215.1704737575
 21
110014.3207552308
 31
0.0
  0
LINE
  5
62A18
330
1F
100
AcDbEntity
  8
freecads.com
100
AcDbLine
 10
161215.1704737575
 20
110014.3207552308
 30
0.0
 11
161221.9357836417
 21
110011.8590628502
 31
0.0
  0
LINE
  5
62A19
330
1F
100
AcDbEntity
  8
freecads.com
100
AcDbLine
 10
161221.9357836417
 20
110011.8590628502
 30
0.0
 11
161230.5661875171
 21
110005.7080289017
 31
0.0
  0
LINE
  5
62A1A
330
1F
100
AcDbEntity
  8
freecads.com
100
AcDbLine
 10
161230.5661875171
 20
110005.7080289017
 30
0.0
 11
161247.189851357
 21
110000.7846441411
 31
0.0
  0
LINE
  5
62A1B
330
1F
100
AcDbEntity
  8
freecads.com
100
AcDbLine
 10
161247.189851357
 20
110000.7846441411
 30
0.0
 11
161248.4178014401
 21
109997.0953025733
 31
0.0
  0
LINE
  5
62A1C
330
1F
100
AcDbEntity
  8
freecads.com
100
AcDbLine
 10
161248.4178014401
 20
109997.0953025733
 30
0.0
 11
161257.6505959205
 21
109994.0197855986
 31
0.0
  0
LINE
  5
62A1D
330
1F
100
AcDbEntity
  8
freecads.com
100
AcDbLine
 10
161257.6505959205
 20
109994.0197855986
 30
0.0
 11
161255.1946957571
 21
109990.9442686248
 31
0.0
  0
LINE
  5
62A1E
330
1F
100
AcDbEntity
  8
freecads.com
100
AcDbLine
 10
161159.7505379993
 20
110059.8524732626
 30
0.0
 11
161179.4556614779
 21
110077.6981445209
 31
0.0
  0
LINE
  5
62A1F
330
1F
100
AcDbEntity
  8
freecads.com
100
AcDbLine
 10
161179.4556614779
 20
110077.6981445209
 30
0.0
 11
161209.6215295199
 21
110086.9246954431
 31
0.0
  0
LINE
  5
62A20
330
1F
100
AcDbEntity
  8
freecads.com
100
AcDbLine
 10
161209.6215295199
 20
110086.9246954431
 30
0.0
 11
161242.2548821609
 21
110077.6981445209
 31
0.0
  0
LINE
  5
62A21
330
1F
100
AcDbEntity
  8
freecads.com
100
AcDbLine
 10
161242.2548821609
 20
110077.6981445209
 30
0.0
 11
161250.8852860372
 21
110066.0099012172
 31
0.0
  0
LINE
  5
62A22
330
1F
100
AcDbEntity
  8
freecads.com
100
AcDbLine
 10
161250.8852860372
 20
110066.0099012172
 30
0.0
 11
161260.1180805185
 21
110054.315263908
 31
0.0
  0
LINE
  5
62A23
330
1F
100
AcDbEntity
  8
freecads.com
100
AcDbLine
 10
161260.1180805185
 20
110054.315263908
 30
0.0
 11
161271.2043845573
 21
110042.627020605
 31
0.0
  0
LINE
  5
62A24
330
1F
100
AcDbEntity
  8
freecads.com
100
AcDbLine
 10
161271.2043845573
 20
110042.627020605
 30
0.0
 11
161276.7417443594
 21
110026.629217134
 31
0.0
  0
LINE
  5
62A25
330
1F
100
AcDbEntity
  8
freecads.com
100
AcDbLine
 10
161276.7417443594
 20
110026.629217134
 30
0.0
 11
161288.4420234378
 21
109993.4059610053
 31
0.0
  0
LINE
  5
62A26
330
1F
100
AcDbEntity
  8
freecads.com
100
AcDbLine
 10
161288.4420234378
 20
109993.4059610053
 30
0.0
 11
161294.5933582814
 21
109984.1730160762
 31
0.0
  0
LINE
  5
62A27
330
1F
100
AcDbEntity
  8
freecads.com
100
AcDbLine
 10
161294.5933582814
 20
109984.1730160762
 30
0.0
 11
161294.5933582814
 21
109958.9486616826
 31
0.0
  0
LINE
  5
62A28
330
1F
100
AcDbEntity
  8
freecads.com
100
AcDbLine
 10
161294.5933582814
 20
109958.9486616826
 30
0.0
 11
161293.3654082002
 21
109952.7976277341
 31
0.0
  0
LINE
  5
62A29
330
1F
100
AcDbEntity
  8
freecads.com
100
AcDbLine
 10
161293.3654082002
 20
109952.7976277341
 30
0.0
 11
161293.9793832408
 21
109947.2604183797
 31
0.0
  0
LINE
  5
62A2A
330
1F
100
AcDbEntity
  8
freecads.com
100
AcDbLine
 10
161114.1889561968
 20
110058.010999482
 30
0.0
 11
161132.0405701198
 21
110064.1620334305
 31
0.0
  0
LINE
  5
62A2B
330
1F
100
AcDbEntity
  8
freecads.com
100
AcDbLine
 10
161132.0405701198
 20
110064.1620334305
 30
0.0
 11
161144.3548242397
 21
110065.3896826176
 31
0.0
  0
LINE
  5
62A2C
330
1F
100
AcDbEntity
  8
freecads.com
100
AcDbLine
 10
161144.3548242397
 20
110065.3896826176
 30
0.0
 11
161148.050258919
 21
110038.9376790371
 31
0.0
  0
LINE
  5
62A2D
330
1F
100
AcDbEntity
  8
freecads.com
100
AcDbLine
 10
161148.050258919
 20
110038.9376790371
 30
0.0
 11
161151.1317185586
 21
110027.2430417279
 31
0.0
  0
LINE
  5
62A2E
330
1F
100
AcDbEntity
  8
freecads.com
100
AcDbLine
 10
161151.1317185586
 20
110027.2430417279
 30
0.0
 11
161163.4459726786
 21
110024.1675247534
 31
0.0
  0
LINE
  5
62A2F
330
1F
100
AcDbEntity
  8
freecads.com
100
AcDbLine
 10
161138.7247889595
 20
109851.9577562166
 30
0.0
 11
161136.7670194901
 21
109861.9515878807
 31
0.0
  0
LINE
  5
62A30
330
1F
100
AcDbEntity
  8
freecads.com
100
AcDbLine
 10
161136.7670194901
 20
109861.9515878807
 30
0.0
 11
161136.1298755793
 21
109866.1972079866
 31
0.0
  0
LINE
  5
62A31
330
1F
100
AcDbEntity
  8
freecads.com
100
AcDbLine
 10
161140.5898829525
 20
109863.8633957297
 30
0.0
 11
161146.115658319
 21
109856.4335605447
 31
0.0
  0
LINE
  5
62A32
330
1F
100
AcDbEntity
  8
freecads.com
100
AcDbLine
 10
161146.115658319
 20
109856.4335605447
 30
0.0
 11
161150.5756656913
 21
109854.521752696
 31
0.0
  0
LINE
  5
62A33
330
1F
100
AcDbEntity
  8
freecads.com
100
AcDbLine
 10
161131.8783880317
 20
109860.6791806506
 30
0.0
 11
161130.1870605614
 21
109857.072961163
 31
0.0
  0
LINE
  5
62A34
330
1F
100
AcDbEntity
  8
freecads.com
100
AcDbLine
 10
161130.1870605614
 20
109857.072961163
 30
0.0
 11
161125.7270531909
 21
109853.0383432616
 31
0.0
  0
LINE
  5
62A35
330
1F
100
AcDbEntity
  8
freecads.com
100
AcDbLine
 10
161125.7270531909
 20
109853.0383432616
 30
0.0
 11
161121.9041897276
 21
109850.4935288002
 31
0.0
  0
LINE
  5
62A36
330
1F
100
AcDbEntity
  8
freecads.com
100
AcDbLine
 10
161121.9041897276
 20
109850.4935288002
 30
0.0
 11
161121.4755656434
 21
109848.1597165432
 31
0.0
  0
LINE
  5
62A37
330
1F
100
AcDbEntity
  8
freecads.com
100
AcDbLine
 10
161200.7015147781
 20
109914.2034064114
 30
0.0
 11
161207.4899935297
 21
109910.16878851
 31
0.0
  0
LINE
  5
62A38
330
1F
100
AcDbEntity
  8
freecads.com
100
AcDbLine
 10
161207.4899935297
 20
109910.16878851
 30
0.0
 11
161214.0815368922
 21
109904.2287567653
 31
0.0
  0
LINE
  5
62A39
330
1F
100
AcDbEntity
  8
freecads.com
100
AcDbLine
 10
161214.0815368922
 20
109904.2287567653
 30
0.0
 11
161220.8700156458
 21
109900.8335394821
 31
0.0
  0
LINE
  5
62A3A
330
1F
100
AcDbEntity
  8
freecads.com
100
AcDbLine
 10
161220.8700156458
 20
109900.8335394821
 30
0.0
 11
161225.7586471032
 21
109894.8871137317
 31
0.0
  0
LINE
  5
62A3B
330
1F
100
AcDbEntity
  8
freecads.com
100
AcDbLine
 10
161225.7586471032
 20
109894.8871137317
 30
0.0
 11
161228.735846829
 21
109892.342299271
 31
0.0
  0
LINE
  5
62A3C
330
1F
100
AcDbEntity
  8
freecads.com
100
AcDbLine
 10
161228.735846829
 20
109892.342299271
 30
0.0
 11
161230.2186544746
 21
109891.0698920402
 31
0.0
  0
LINE
  5
62A3D
330
1F
100
AcDbEntity
  8
freecads.com
100
AcDbLine
 10
161230.2186544746
 20
109891.0698920402
 30
0.0
 11
161231.7130465548
 21
109891.280894244
 31
0.0
  0
LINE
  5
62A3E
330
1F
100
AcDbEntity
  8
freecads.com
100
AcDbLine
 10
161231.7130465548
 20
109891.280894244
 30
0.0
 11
161232.5587102914
 21
109892.5533014748
 31
0.0
  0
LINE
  5
62A3F
330
1F
100
AcDbEntity
  8
freecads.com
100
AcDbLine
 10
161232.5587102914
 20
109892.5533014748
 30
0.0
 11
161232.5587102914
 21
109893.6147065009
 31
0.0
  0
LINE
  5
62A40
330
1F
100
AcDbEntity
  8
freecads.com
100
AcDbLine
 10
161232.5587102914
 20
109893.6147065009
 30
0.0
 11
161231.9215663805
 21
109894.6761115272
 31
0.0
  0
LINE
  5
62A41
330
1F
100
AcDbEntity
  8
freecads.com
100
AcDbLine
 10
161231.9215663805
 20
109894.6761115272
 30
0.0
 11
161230.6472785597
 21
109898.4997272249
 31
0.0
  0
LINE
  5
62A42
330
1F
100
AcDbEntity
  8
freecads.com
100
AcDbLine
 10
161230.6472785597
 20
109898.4997272249
 30
0.0
 11
161228.3072227448
 21
109901.8949445088
 31
0.0
  0
LINE
  5
62A43
330
1F
100
AcDbEntity
  8
freecads.com
100
AcDbLine
 10
161228.3072227448
 20
109901.8949445088
 30
0.0
 11
161224.2758394576
 21
109904.8617633779
 31
0.0
  0
LINE
  5
62A44
330
1F
100
AcDbEntity
  8
freecads.com
100
AcDbLine
 10
161224.2758394576
 20
109904.8617633779
 30
0.0
 11
161217.9044003546
 21
109908.8963812793
 31
0.0
  0
LINE
  5
62A45
330
1F
100
AcDbEntity
  8
freecads.com
100
AcDbLine
 10
161217.9044003546
 20
109908.8963812793
 30
0.0
 11
161209.4014252614
 21
109913.3530035895
 31
0.0
  0
LINE
  5
62A46
330
1F
100
AcDbEntity
  8
freecads.com
100
AcDbLine
 10
161209.4014252614
 20
109913.3530035895
 30
0.0
 11
161204.7328980643
 21
109914.6254108196
 31
0.0
  0
LINE
  5
62A47
330
1F
100
AcDbEntity
  8
freecads.com
100
AcDbLine
 10
161204.7328980643
 20
109914.6254108196
 30
0.0
 11
161200.7015147781
 21
109914.2034064114
 31
0.0
  0
LINE
  5
62A48
330
1F
100
AcDbEntity
  8
freecads.com
100
AcDbLine
 10
161202.8214663336
 20
109906.5625690222
 30
0.0
 11
161203.0299861584
 21
109899.561132252
 31
0.0
  0
LINE
  5
62A49
330
1F
100
AcDbEntity
  8
freecads.com
100
AcDbLine
 10
161203.0299861584
 20
109899.561132252
 30
0.0
 11
161200.4814105158
 21
109891.280894244
 31
0.0
  0
LINE
  5
62A4A
330
1F
100
AcDbEntity
  8
freecads.com
100
AcDbLine
 10
161200.4814105158
 20
109891.280894244
 30
0.0
 11
161194.1099714147
 21
109885.5518647037
 31
0.0
  0
LINE
  5
62A4B
330
1F
100
AcDbEntity
  8
freecads.com
100
AcDbLine
 10
161194.1099714147
 20
109885.5518647037
 30
0.0
 11
161186.2557246651
 21
109878.9724323413
 31
0.0
  0
LINE
  5
62A4C
330
1F
100
AcDbEntity
  8
freecads.com
100
AcDbLine
 10
161186.2557246651
 20
109878.9724323413
 30
0.0
 11
161182.2243413789
 21
109877.0606244926
 31
0.0
  0
LINE
  5
62A4D
330
1F
100
AcDbEntity
  8
freecads.com
100
AcDbLine
 10
161182.2243413789
 20
109877.0606244926
 30
0.0
 11
161174.1499903708
 21
109878.1220295189
 31
0.0
  0
LINE
  5
62A4E
330
1F
100
AcDbEntity
  8
freecads.com
100
AcDbLine
 10
161174.1499903708
 20
109878.1220295189
 30
0.0
 11
161170.5356467342
 21
109877.7000251109
 31
0.0
  0
LINE
  5
62A4F
330
1F
100
AcDbEntity
  8
freecads.com
100
AcDbLine
 10
161170.5356467342
 20
109877.7000251109
 30
0.0
 11
161167.570031443
 21
109875.3662128537
 31
0.0
  0
LINE
  5
62A50
330
1F
100
AcDbEntity
  8
freecads.com
100
AcDbLine
 10
161167.570031443
 20
109875.3662128537
 30
0.0
 11
161167.570031443
 21
109872.6040021824
 31
0.0
  0
LINE
  5
62A51
330
1F
100
AcDbEntity
  8
freecads.com
100
AcDbLine
 10
161167.570031443
 20
109872.6040021824
 30
0.0
 11
161167.9870710926
 21
109869.6371833135
 31
0.0
  0
LINE
  5
62A52
330
1F
100
AcDbEntity
  8
freecads.com
100
AcDbLine
 10
161170.9642708202
 20
109866.0245698195
 30
0.0
 11
161174.1499903708
 21
109858.3837324303
 31
0.0
  0
LINE
  5
62A53
330
1F
100
AcDbEntity
  8
freecads.com
100
AcDbLine
 10
161174.1499903708
 20
109858.3837324303
 30
0.0
 11
161177.7643340066
 21
109856.4783185879
 31
0.0
  0
LINE
  5
62A54
330
1F
100
AcDbEntity
  8
freecads.com
100
AcDbLine
 10
161177.7643340066
 20
109856.4783185879
 30
0.0
 11
161179.6757657382
 21
109856.9003229959
 31
0.0
  0
LINE
  5
62A55
330
1F
100
AcDbEntity
  8
freecads.com
100
AcDbLine
 10
161179.6757657382
 20
109856.9003229959
 30
0.0
 11
161180.7299492987
 21
109861.7853437205
 31
0.0
  0
LINE
  5
62A56
330
1F
100
AcDbEntity
  8
freecads.com
100
AcDbLine
 10
161180.7299492987
 20
109861.7853437205
 30
0.0
 11
161179.884285563
 21
109864.9631647932
 31
0.0
  0
LINE
  5
62A57
330
1F
100
AcDbEntity
  8
freecads.com
100
AcDbLine
 10
161179.884285563
 20
109864.9631647932
 30
0.0
 11
161178.4014779174
 21
109863.6907575631
 31
0.0
  0
LINE
  5
62A58
330
1F
100
AcDbEntity
  8
freecads.com
100
AcDbLine
 10
161178.4014779174
 20
109863.6907575631
 30
0.0
 11
161177.1271900966
 21
109861.56794751
 31
0.0
  0
LINE
  5
62A59
330
1F
100
AcDbEntity
  8
freecads.com
100
AcDbLine
 10
161177.1271900966
 20
109861.56794751
 30
0.0
 11
161175.4242781916
 21
109859.8735358717
 31
0.0
  0
LINE
  5
62A5A
330
1F
100
AcDbEntity
  8
freecads.com
100
AcDbLine
 10
161206.4358099702
 20
109905.9231684043
 30
0.0
 11
161208.9148790011
 21
109900.929449575
 31
0.0
  0
LINE
  5
62A5B
330
1F
100
AcDbEntity
  8
freecads.com
100
AcDbLine
 10
161208.9148790011
 20
109900.929449575
 30
0.0
 11
161213.6992505466
 21
109897.1505919204
 31
0.0
  0
LINE
  5
62A5C
330
1F
100
AcDbEntity
  8
freecads.com
100
AcDbLine
 10
161213.6992505466
 20
109897.1505919204
 30
0.0
 11
161218.4952065268
 21
109892.5469074685
 31
0.0
  0
LINE
  5
62A5D
330
1F
100
AcDbEntity
  8
freecads.com
100
AcDbLine
 10
161218.4952065268
 20
109892.5469074685
 30
0.0
 11
161221.727263816
 21
109890.8588898358
 31
0.0
  0
LINE
  5
62A5E
330
1F
100
AcDbEntity
  8
freecads.com
100
AcDbLine
 10
161221.727263816
 20
109890.8588898358
 30
0.0
 11
161221.727263816
 21
109890.8588898358
 31
0.0
  0
LINE
  5
62A5F
330
1F
100
AcDbEntity
  8
freecads.com
100
AcDbLine
 10
161206.215705709
 20
109900.4051410676
 30
0.0
 11
161206.644329795
 21
109895.3155121461
 31
0.0
  0
LINE
  5
62A60
330
1F
100
AcDbEntity
  8
freecads.com
100
AcDbLine
 10
161206.644329795
 20
109895.3155121461
 30
0.0
 11
161207.9186176158
 21
109889.7974848095
 31
0.0
  0
LINE
  5
62A61
330
1F
100
AcDbEntity
  8
freecads.com
100
AcDbLine
 10
161207.9186176158
 20
109889.7974848095
 30
0.0
 11
161208.98438561
 21
109886.1912653225
 31
0.0
  0
LINE
  5
62A62
330
1F
100
AcDbEntity
  8
freecads.com
100
AcDbLine
 10
161208.98438561
 20
109886.1912653225
 30
0.0
 11
161210.0385691713
 21
109884.2794574735
 31
0.0
  0
ARC
  5
62A63
330
1F
100
AcDbEntity
  8
freecads.com
100
AcDbCircle
 10
161209.4014252614
 20
109898.7107294287
 30
0.0
 40
12.27151937066101
100
AcDbArc
 50
267.6964066267065
 51
326.5593949609466
  0
LINE
  5
62A64
330
1F
100
AcDbEntity
  8
freecads.com
100
AcDbLine
 10
161206.5516543168
 20
109900.0470767216
 30
0.0
 11
161207.4552402258
 21
109895.5456963684
 31
0.0
  0
LINE
  5
62A65
330
1F
100
AcDbEntity
  8
freecads.com
100
AcDbLine
 10
161207.4552402258
 20
109895.5456963684
 30
0.0
 11
161208.7411124812
 21
109890.4049153972
 31
0.0
  0
LINE
  5
62A66
330
1F
100
AcDbEntity
  8
freecads.com
100
AcDbLine
 10
161208.7411124812
 20
109890.4049153972
 30
0.0
 11
161210.6641286475
 21
109886.5493296685
 31
0.0
  0
LINE
  5
62A67
330
1F
100
AcDbEntity
  8
freecads.com
100
AcDbLine
 10
161210.6641286475
 20
109886.5493296685
 30
0.0
 11
161210.7915574297
 21
109884.2346994301
 31
0.0
  0
ENDSEC
  0
SECTION
  2
OBJECTS
  0
DICTIONARY
  5
C
330
0
100
AcDbDictionary
281
     1
  3
ACAD_ASSOCPERSSUBENTMANAGER
350
2C1D4
  3
ACAD_CIP_PREVIOUS_PRODUCT_INFO
350
1A5
  3
ACAD_COLOR
350
73
  3
ACAD_DETAILVIEWSTYLE
350
1AB
  3
ACAD_GROUP
350
D
  3
ACAD_LAYOUT
350
1A
  3
ACAD_MATERIAL
350
72
  3
ACAD_MLEADERSTYLE
350
D7
  3
ACAD_MLINESTYLE
350
17
  3
ACAD_PLOTSETTINGS
350
19
  3
ACAD_PLOTSTYLENAME
350
E
  3
ACAD_SCALELIST
350
B6
  3
ACAD_SECTIONVIEWSTYLE
350
1A8
  3
ACAD_TABLESTYLE
350
86
  3
ACAD_VISUALSTYLE
350
99
  3
ACAD_WIPEOUT_VARS
350
59B06
  3
ACDB_RECOMPOSE_DATA
350
67411
  3
ACDBVARIABLEDICTIONARY
350
4A0D5
  3
AEC_PROPERTY_SET_DEFS
350
22D1
  0
DICTIONARY
  5
18E
330
2
100
AcDbDictionary
280
     1
281
     1
  3
ACAD_LAYERSTATES
360
18F
  0
DICTIONARY
  5
E6
330
10
100
AcDbDictionary
280
     1
281
     1
  0
DICTIONARY
  5
15D
330
1F
100
AcDbDictionary
280
     1
281
     1
  3
ACAD_SORTENTS
360
28E
  0
ACDBASSOCPERSSUBENTMANAGER
  5
2C1D4
102
{ACAD_REACTORS
330
C
102
}
330
C
100
AcDbAssocPersSubentManager
 90
        2
 90
        3
 90
        0
 90
        2
 90
     1260
 90
        0
 90
     1260
 90
        1
 90
        2
 90
        3
 90
        4
 90
        5
 90
        6
 90
        7
 90
        8
 90
        9
 90
       10
 90
       11
 90
       12
 90
       13
 90
       14
 90
       15
 90
       16
 90
       17
 90
       18
 90
       19
 90
       20
 90
       21
 90
       22
 90
       23
 90
       24
 90
       25
 90
       26
 90
       27
 90
       28
 90
       29
 90
       30
 90
       31
 90
       32
 90
       33
 90
       34
 90
       35
 90
       36
 90
       37
 90
       38
 90
       39
 90
       40
 90
       41
 90
       42
 90
       43
 90
       44
 90
       45
 90
       46
 90
       47
 90
       48
 90
       49
 90
       50
 90
       51
 90
       52
 90
       53
 90
       54
 90
       55
 90
       56
 90
       57
 90
       58
 90
       59
 90
       60
 90
       61
 90
       62
 90
       63
 90
       64
 90
       65
 90
       66
 90
       67
 90
       68
 90
       69
 90
       70
 90
       71
 90
       72
 90
       73
 90
       74
 90
       75
 90
       76
 90
       77
 90
       78
 90
       79
 90
       80
 90
       81
 90
       82
 90
       83
 90
       84
 90
       85
 90
       86
 90
       87
 90
       88
 90
       89
 90
       90
 90
       91
 90
       92
 90
       93
 90
       94
 90
       95
 90
       96
 90
       97
 90
       98
 90
       99
 90
      100
 90
      101
 90
      102
 90
      103
 90
      104
 90
      105
 90
      106
 90
      107
 90
      108
 90
      109
 90
      110
 90
      111
 90
      112
 90
      113
 90
      114
 90
      115
 90
      116
 90
      117
 90
      118
 90
      119
 90
      120
 90
      121
 90
      122
 90
      123
 90
      124
 90
      125
 90
      126
 90
      127
 90
      128
 90
      129
 90
      130
 90
      131
 90
      132
 90
      133
 90
      134
 90
      135
 90
      136
 90
      137
 90
      138
 90
      139
 90
      140
 90
      141
 90
      142
 90
      143
 90
      144
 90
      145
 90
      146
 90
      147
 90
      148
 90
      149
 90
      150
 90
      151
 90
      152
 90
      153
 90
      154
 90
      155
 90
      156
 90
      157
 90
      158
 90
      159
 90
      160
 90
      161
 90
      162
 90
      163
 90
      164
 90
      165
 90
      166
 90
      167
 90
      168
 90
      169
 90
      170
 90
      171
 90
      172
 90
      173
 90
      174
 90
      175
 90
      176
 90
      177
 90
      178
 90
      179
 90
      180
 90
      181
 90
      182
 90
      183
 90
      184
 90
      185
 90
      186
 90
      187
 90
      188
 90
      189
 90
      190
 90
      191
 90
      192
 90
      193
 90
      194
 90
      195
 90
      196
 90
      197
 90
      198
 90
      199
 90
      200
 90
      201
 90
      202
 90
      203
 90
      204
 90
      205
 90
      206
 90
      207
 90
      208
 90
      209
 90
      210
 90
      211
 90
      212
 90
      213
 90
      214
 90
      215
 90
      216
 90
      217
 90
      218
 90
      219
 90
      220
 90
      221
 90
      222
 90
      223
 90
      224
 90
      225
 90
      226
 90
      227
 90
      228
 90
      229
 90
      230
 90
      231
 90
      232
 90
      233
 90
      234
 90
      235
 90
      236
 90
      237
 90
      238
 90
      239
 90
      240
 90
      241
 90
      242
 90
      243
 90
      244
 90
      245
 90
      246
 90
      247
 90
      248
 90
      249
 90
      250
 90
      251
 90
      252
 90
      253
 90
      254
 90
      255
 90
      256
 90
      257
 90
      258
 90
      259
 90
      260
 90
      261
 90
      262
 90
      263
 90
      264
 90
      265
 90
      266
 90
      267
 90
      268
 90
      269
 90
      270
 90
      271
 90
      272
 90
      273
 90
      274
 90
      275
 90
      276
 90
      277
 90
      278
 90
      279
 90
      280
 90
      281
 90
      282
 90
      283
 90
      284
 90
      285
 90
      286
 90
      287
 90
      288
 90
      289
 90
      290
 90
      291
 90
      292
 90
      293
 90
      294
 90
      295
 90
      296
 90
      297
 90
      298
 90
      299
 90
      300
 90
      301
 90
      302
 90
      303
 90
      304
 90
      305
 90
      306
 90
      307
 90
      308
 90
      309
 90
      310
 90
      311
 90
      312
 90
      313
 90
      314
 90
      315
 90
      316
 90
      317
 90
      318
 90
      319
 90
      320
 90
      321
 90
      322
 90
      323
 90
      324
 90
      325
 90
      326
 90
      327
 90
      328
 90
      329
 90
      330
 90
      331
 90
      332
 90
      333
 90
      334
 90
      335
 90
      336
 90
      337
 90
      338
 90
      339
 90
      340
 90
      341
 90
      342
 90
      343
 90
      344
 90
      345
 90
      346
 90
      347
 90
      348
 90
      349
 90
      350
 90
      351
 90
      352
 90
      353
 90
      354
 90
      355
 90
      356
 90
      357
 90
      358
 90
      359
 90
      360
 90
      361
 90
      362
 90
      363
 90
      364
 90
      365
 90
      366
 90
      367
 90
      368
 90
      369
 90
      370
 90
      371
 90
      372
 90
      373
 90
      374
 90
      375
 90
      376
 90
      377
 90
      378
 90
      379
 90
      380
 90
      381
 90
      382
 90
      383
 90
      384
 90
      385
 90
      386
 90
      387
 90
      388
 90
      389
 90
      390
 90
      391
 90
      392
 90
      393
 90
      394
 90
      395
 90
      396
 90
      397
 90
      398
 90
      399
 90
      400
 90
      401
 90
      402
 90
      403
 90
      404
 90
      405
 90
      406
 90
      407
 90
      408
 90
      409
 90
      410
 90
      411
 90
      412
 90
      413
 90
      414
 90
      415
 90
      416
 90
      417
 90
      418
 90
      419
 90
      420
 90
      421
 90
      422
 90
      423
 90
      424
 90
      425
 90
      426
 90
      427
 90
      428
 90
      429
 90
      430
 90
      431
 90
      432
 90
      433
 90
      434
 90
      435
 90
      436
 90
      437
 90
      438
 90
      439
 90
      440
 90
      441
 90
      442
 90
      443
 90
      444
 90
      445
 90
      446
 90
      447
 90
      448
 90
      449
 90
      450
 90
      451
 90
      452
 90
      453
 90
      454
 90
      455
 90
      456
 90
      457
 90
      458
 90
      459
 90
      460
 90
      461
 90
      462
 90
      463
 90
      464
 90
      465
 90
      466
 90
      467
 90
      468
 90
      469
 90
      470
 90
      471
 90
      472
 90
      473
 90
      474
 90
      475
 90
      476
 90
      477
 90
      478
 90
      479
 90
      480
 90
      481
 90
      482
 90
      483
 90
      484
 90
      485
 90
      486
 90
      487
 90
      488
 90
      489
 90
      490
 90
      491
 90
      492
 90
      493
 90
      494
 90
      495
 90
      496
 90
      497
 90
      498
 90
      499
 90
      500
 90
      501
 90
      502
 90
      503
 90
      504
 90
      505
 90
      506
 90
      507
 90
      508
 90
      509
 90
      510
 90
      511
 90
      512
 90
      513
 90
      514
 90
      515
 90
      516
 90
      517
 90
      518
 90
      519
 90
      520
 90
      521
 90
      522
 90
      523
 90
      524
 90
      525
 90
      526
 90
      527
 90
      528
 90
      529
 90
      530
 90
      531
 90
      532
 90
      533
 90
      534
 90
      535
 90
      536
 90
      537
 90
      538
 90
      539
 90
      540
 90
      541
 90
      542
 90
      543
 90
      544
 90
      545
 90
      546
 90
      547
 90
      548
 90
      549
 90
      550
 90
      551
 90
      552
 90
      553
 90
      554
 90
      555
 90
      556
 90
      557
 90
      558
 90
      559
 90
      560
 90
      561
 90
      562
 90
      563
 90
      564
 90
      565
 90
      566
 90
      567
 90
      568
 90
      569
 90
      570
 90
      571
 90
      572
 90
      573
 90
      574
 90
      575
 90
      576
 90
      577
 90
      578
 90
      579
 90
      580
 90
      581
 90
      582
 90
      583
 90
      584
 90
      585
 90
      586
 90
      587
 90
      588
 90
      589
 90
      590
 90
      591
 90
      592
 90
      593
 90
      594
 90
      595
 90
      596
 90
      597
 90
      598
 90
      599
 90
      600
 90
      601
 90
      602
 90
      603
 90
      604
 90
      605
 90
      606
 90
      607
 90
      608
 90
      609
 90
      610
 90
      611
 90
      612
 90
      613
 90
      614
 90
      615
 90
      616
 90
      617
 90
      618
 90
      619
 90
      620
 90
      621
 90
      622
 90
      623
 90
      624
 90
      625
 90
      626
 90
      627
 90
      628
 90
      629
 90
      630
 90
      631
 90
      632
 90
      633
 90
      634
 90
      635
 90
      636
 90
      637
 90
      638
 90
      639
 90
      640
 90
      641
 90
      642
 90
      643
 90
      644
 90
      645
 90
      646
 90
      647
 90
      648
 90
      649
 90
      650
 90
      651
 90
      652
 90
      653
 90
      654
 90
      655
 90
      656
 90
      657
 90
      658
 90
      659
 90
      660
 90
      661
 90
      662
 90
      663
 90
      664
 90
      665
 90
      666
 90
      667
 90
      668
 90
      669
 90
      670
 90
      671
 90
      672
 90
      673
 90
      674
 90
      675
 90
      676
 90
      677
 90
      678
 90
      679
 90
      680
 90
      681
 90
      682
 90
      683
 90
      684
 90
      685
 90
      686
 90
      687
 90
      688
 90
      689
 90
      690
 90
      691
 90
      692
 90
      693
 90
      694
 90
      695
 90
      696
 90
      697
 90
      698
 90
      699
 90
      700
 90
      701
 90
      702
 90
      703
 90
      704
 90
      705
 90
      706
 90
      707
 90
      708
 90
      709
 90
      710
 90
      711
 90
      712
 90
      713
 90
      714
 90
      715
 90
      716
 90
      717
 90
      718
 90
      719
 90
      720
 90
      721
 90
      722
 90
      723
 90
      724
 90
      725
 90
      726
 90
      727
 90
      728
 90
      729
 90
      730
 90
      731
 90
      732
 90
      733
 90
      734
 90
      735
 90
      736
 90
      737
 90
      738
 90
      739
 90
      740
 90
      741
 90
      742
 90
      743
 90
      744
 90
      745
 90
      746
 90
      747
 90
      748
 90
      749
 90
      750
 90
      751
 90
      752
 90
      753
 90
      754
 90
      755
 90
      756
 90
      757
 90
      758
 90
      759
 90
      760
 90
      761
 90
      762
 90
      763
 90
      764
 90
      765
 90
      766
 90
      767
 90
      768
 90
      769
 90
      770
 90
      771
 90
      772
 90
      773
 90
      774
 90
      775
 90
      776
 90
      777
 90
      778
 90
      779
 90
      780
 90
      781
 90
      782
 90
      783
 90
      784
 90
      785
 90
      786
 90
      787
 90
      788
 90
      789
 90
      790
 90
      791
 90
      792
 90
      793
 90
      794
 90
      795
 90
      796
 90
      797
 90
      798
 90
      799
 90
      800
 90
      801
 90
      802
 90
      803
 90
      804
 90
      805
 90
      806
 90
      807
 90
      808
 90
      809
 90
      810
 90
      811
 90
      812
 90
      813
 90
      814
 90
      815
 90
      816
 90
      817
 90
      818
 90
      819
 90
      820
 90
      821
 90
      822
 90
      823
 90
      824
 90
      825
 90
      826
 90
      827
 90
      828
 90
      829
 90
      830
 90
      831
 90
      832
 90
      833
 90
      834
 90
      835
 90
      836
 90
      837
 90
      838
 90
      839
 90
      840
 90
      841
 90
      842
 90
      843
 90
      844
 90
      845
 90
      846
 90
      847
 90
      848
 90
      849
 90
      850
 90
      851
 90
      852
 90
      853
 90
      854
 90
      855
 90
      856
 90
      857
 90
      858
 90
      859
 90
      860
 90
      861
 90
      862
 90
      863
 90
      864
 90
      865
 90
      866
 90
      867
 90
      868
 90
      869
 90
      870
 90
      871
 90
      872
 90
      873
 90
      874
 90
      875
 90
      876
 90
      877
 90
      878
 90
      879
 90
      880
 90
      881
 90
      882
 90
      883
 90
      884
 90
      885
 90
      886
 90
      887
 90
      888
 90
      889
 90
      890
 90
      891
 90
      892
 90
      893
 90
      894
 90
      895
 90
      896
 90
      897
 90
      898
 90
      899
 90
      900
 90
      901
 90
      902
 90
      903
 90
      904
 90
      905
 90
      906
 90
      907
 90
      908
 90
      909
 90
      910
 90
      911
 90
      912
 90
      913
 90
      914
 90
      915
 90
      916
 90
      917
 90
      918
 90
      919
 90
      920
 90
      921
 90
      922
 90
      923
 90
      924
 90
      925
 90
      926
 90
      927
 90
      928
 90
      929
 90
      930
 90
      931
 90
      932
 90
      933
 90
      934
 90
      935
 90
      936
 90
      937
 90
      938
 90
      939
 90
      940
 90
      941
 90
      942
 90
      943
 90
      944
 90
      945
 90
      946
 90
      947
 90
      948
 90
      949
 90
      950
 90
      951
 90
      952
 90
      953
 90
      954
 90
      955
 90
      956
 90
      957
 90
      958
 90
      959
 90
      960
 90
      961
 90
      962
 90
      963
 90
      964
 90
      965
 90
      966
 90
      967
 90
      968
 90
      969
 90
      970
 90
      971
 90
      972
 90
      973
 90
      974
 90
      975
 90
      976
 90
      977
 90
      978
 90
      979
 90
      980
 90
      981
 90
      982
 90
      983
 90
      984
 90
      985
 90
      986
 90
      987
 90
      988
 90
      989
 90
      990
 90
      991
 90
      992
 90
      993
 90
      994
 90
      995
 90
      996
 90
      997
 90
      998
 90
      999
 90
     1000
 90
     1001
 90
     1002
 90
     1003
 90
     1004
 90
     1005
 90
     1006
 90
     1007
 90
     1008
 90
     1009
 90
     1010
 90
     1011
 90
     1012
 90
     1013
 90
     1014
 90
     1015
 90
     1016
 90
     1017
 90
     1018
 90
     1019
 90
     1020
 90
     1021
 90
     1022
 90
     1023
 90
     1024
 90
     1025
 90
     1026
 90
     1027
 90
     1028
 90
     1029
 90
     1030
 90
     1031
 90
     1032
 90
     1033
 90
     1034
 90
     1035
 90
     1036
 90
     1037
 90
     1038
 90
     1039
 90
     1040
 90
     1041
 90
     1042
 90
     1043
 90
     1044
 90
     1045
 90
     1046
 90
     1047
 90
     1048
 90
     1049
 90
     1050
 90
     1051
 90
     1052
 90
     1053
 90
     1054
 90
     1055
 90
     1056
 90
     1057
 90
     1058
 90
     1059
 90
     1060
 90
     1061
 90
     1062
 90
     1063
 90
     1064
 90
     1065
 90
     1066
 90
     1067
 90
     1068
 90
     1069
 90
     1070
 90
     1071
 90
     1072
 90
     1073
 90
     1074
 90
     1075
 90
     1076
 90
     1077
 90
     1078
 90
     1079
 90
     1080
 90
     1081
 90
     1082
 90
     1083
 90
     1084
 90
     1085
 90
     1086
 90
     1087
 90
     1088
 90
     1089
 90
     1090
 90
     1091
 90
     1092
 90
     1093
 90
     1094
 90
     1095
 90
     1096
 90
     1097
 90
     1098
 90
     1099
 90
     1100
 90
     1101
 90
     1102
 90
     1103
 90
     1104
 90
     1105
 90
     1106
 90
     1107
 90
     1108
 90
     1109
 90
     1110
 90
     1111
 90
     1112
 90
     1113
 90
     1114
 90
     1115
 90
     1116
 90
     1117
 90
     1118
 90
     1119
 90
     1120
 90
     1121
 90
     1122
 90
     1123
 90
     1124
 90
     1125
 90
     1126
 90
     1127
 90
     1128
 90
     1129
 90
     1130
 90
     1131
 90
     1132
 90
     1133
 90
     1134
 90
     1135
 90
     1136
 90
     1137
 90
     1138
 90
     1139
 90
     1140
 90
     1141
 90
     1142
 90
     1143
 90
     1144
 90
     1145
 90
     1146
 90
     1147
 90
     1148
 90
     1149
 90
     1150
 90
     1151
 90
     1152
 90
     1153
 90
     1154
 90
     1155
 90
     1156
 90
     1157
 90
     1158
 90
     1159
 90
     1160
 90
     1161
 90
     1162
 90
     1163
 90
     1164
 90
     1165
 90
     1166
 90
     1167
 90
     1168
 90
     1169
 90
     1170
 90
     1171
 90
     1172
 90
     1173
 90
     1174
 90
     1175
 90
     1176
 90
     1177
 90
     1178
 90
     1179
 90
     1180
 90
     1181
 90
     1182
 90
     1183
 90
     1184
 90
     1185
 90
     1186
 90
     1187
 90
     1188
 90
     1189
 90
     1190
 90
     1191
 90
     1192
 90
     1193
 90
     1194
 90
     1195
 90
     1196
 90
     1197
 90
     1198
 90
     1199
 90
     1200
 90
     1201
 90
     1202
 90
     1203
 90
     1204
 90
     1205
 90
     1206
 90
     1207
 90
     1208
 90
     1209
 90
     1210
 90
     1211
 90
     1212
 90
     1213
 90
     1214
 90
     1215
 90
     1216
 90
     1217
 90
     1218
 90
     1219
 90
     1220
 90
     1221
 90
     1222
 90
     1223
 90
     1224
 90
     1225
 90
     1226
 90
     1227
 90
     1228
 90
     1229
 90
     1230
 90
     1231
 90
     1232
 90
     1233
 90
     1234
 90
     1235
 90
     1236
 90
     1237
 90
     1238
 90
     1239
 90
     1240
 90
     1241
 90
     1242
 90
     1243
 90
     1244
 90
     1245
 90
     1246
 90
     1247
 90
     1248
 90
     1249
 90
     1250
 90
     1251
 90
     1252
 90
     1253
 90
     1254
 90
     1255
 90
     1256
 90
     1257
 90
     1258
 90
     1259
 90
     1260
 90
        0
 90
        0
290
     0
  0
XRECORD
  5
1A5
102
{ACAD_REACTORS
330
C
102
}
330
C
100
AcDbXrecord
280
     1
300
ACD
300
2022
300

  0
DICTIONARY
  5
73
102
{ACAD_REACTORS
330
C
102
}
330
C
100
AcDbDictionary
281
     1
  0
DICTIONARY
  5
1AB
102
{ACAD_REACTORS
330
C
102
}
330
C
100
AcDbDictionary
281
     1
  3
Imperial24
350
1AC
  3
Metric50
350
224
  0
DICTIONARY
  5
D
102
{ACAD_REACTORS
330
C
102
}
330
C
100
AcDbDictionary
281
     1
  0
DICTIONARY
  5
1A
102
{ACAD_REACTORS
330
C
102
}
330
C
100
AcDbDictionary
281
     1
  3
Layout1
350
59
  3
Layout2
350
5E
  3
Model
350
22
  0
DICTIONARY
  5
72
102
{ACAD_REACTORS
330
C
102
}
330
C
100
AcDbDictionary
281
     1
  3
ByBlock
350
97
  3
ByLayer
350
96
  3
Global
350
98
  0
DICTIONARY
  5
D7
102
{ACAD_REACTORS
330
C
102
}
330
C
100
AcDbDictionary
281
     1
  3
Standard
350
D8
  0
DICTIONARY
  5
17
102
{ACAD_REACTORS
330
C
102
}
330
C
100
AcDbDictionary
281
     1
  3
Standard
350
18
  0
DICTIONARY
  5
19
102
{ACAD_REACTORS
330
C
102
}
330
C
100
AcDbDictionary
281
     1
  0
ACDBDICTIONARYWDFLT
  5
E
102
{ACAD_REACTORS
330
C
102
}
330
C
100
AcDbDictionary
281
     1
  3
Normal
350
F
100
AcDbDictionaryWithDefault
340
F
  0
DICTIONARY
  5
B6
102
{ACAD_REACTORS
330
C
102
}
330
C
100
AcDbDictionary
281
     1
  3
*A1
350
2283
  3
A0
350
B7
  3
A1
350
124
  3
A2
350
125
  3
A3
350
126
  3
A4
350
127
  3
A5
350
128
  3
A6
350
129
  3
A7
350
12A
  3
A8
350
12B
  3
A9
350
12C
  3
B0
350
12D
  3
B1
350
12E
  3
B2
350
12F
  3
B3
350
130
  3
B4
350
131
  3
B5
350
132
  3
B6
350
133
  3
B7
350
134
  3
B8
350
135
  3
B9
350
136
  3
C0
350
137
  3
C1
350
138
  3
C2
350
139
  3
C3
350
13A
  3
C4
350
13B
  3
C5
350
13C
  3
C6
350
13D
  3
C7
350
13E
  3
C8
350
13F
  3
C9
350
140
  3
D0
350
141
  3
D1
350
142
  3
D2
350
143
  0
DICTIONARY
  5
1A8
102
{ACAD_REACTORS
330
C
102
}
330
C
100
AcDbDictionary
281
     1
  3
Imperial24
350
1AA
  3
Metric50
350
223
  0
DICTIONARY
  5
86
102
{ACAD_REACTORS
330
C
102
}
330
C
100
AcDbDictionary
281
     1
  3
Standard
350
87
  0
DICTIONARY
  5
99
102
{ACAD_REACTORS
330
C
102
}
330
C
100
AcDbDictionary
281
     1
  3
2dWireframe
350
9F
  3
3dWireframe
350
22946
  3
Basic
350
9E
  3
Brighten
350
A5
  3
ColorChange
350
A9
  3
Conceptual
350
A2
  3
Dim
350
A4
  3
EdgeColorOff
350
175
  3
Facepattern
350
A8
  3
Flat
350
9A
  3
FlatWithEdges
350
9B
  3
Gouraud
350
9C
  3
GouraudWithEdges
350
9D
  3
Hidden
350
A1
  3
JitterOff
350
173
  3
Linepattern
350
A7
  3
OverhangOff
350
174
  3
Realistic
350
A3
  3
Shaded
350
182
  3
Shaded with edges
350
181
  3
Shades of Gray
350
17E
  3
Sketchy
350
17F
  3
Thicken
350
A6
  3
Wireframe
350
A0
  3
X-Ray
350
180
  0
WIPEOUTVARIABLES
  5
59B06
102
{ACAD_REACTORS
330
C
102
}
330
C
100
AcDbWipeoutVariables
 70
     1
  0
XRECORD
  5
67411
102
{ACAD_REACTORS
330
C
102
}
330
C
100
AcDbXrecord
280
     1
 90
        1
330
87
  0
DICTIONARY
  5
4A0D5
102
{ACAD_REACTORS
330
C
102
}
330
C
100
AcDbDictionary
281
     2
  3
#COMPAREDIFFTOTAL
350
4A0D6
  3
#REVCLOUDAPPROXARCLEN
350
4A0D7
  3
ANNOALLVISIBLE
350
4A0D8
  3
CANNOSCALE
350
4A0D9
  3
CMLEADERSTYLE
350
4A0DA
  3
CTABLESTYLE
350
4A0DB
  3
CVIEWDETAILSTYLE
350
4A0DC
  3
CVIEWSECTIONSTYLE
350
4A0DD
  3
DIMADEC
350
4A0DE
  3
DIMASSOC
350
4A0DF
  3
DWFFRAME
350
4A0E0
  3
HIDETEXT
350
4A0E1
  3
HPCOLOR
350
4A0E2
  3
HPLAYER
350
4A0E3
  3
HPTRANSPARENCY
350
4A0E4
  3
INDEXCTL
350
4A0E5
  3
LAYEREVAL
350
4A0E6
  3
LAYERNOTIFY
350
4A0E7
  3
LIGHTINGUNITS
350
4A0E8
  3
MLEADERSCALE
350
4A0E9
  3
MSLTSCALE
350
4A0EA
  3
MSOLESCALE
350
4A0EB
  3
PDFFRAME
350
4A0EC
  3
POINTCLOUDCLIPFRAME
350
4A0ED
  3
PROJECTNAME
350
4A0EE
  3
SOLIDHIST
350
4A0EF
  3
SORTENTS
350
4A0F0
  0
DICTIONARY
  5
22D1
102
{ACAD_REACTORS
330
C
102
}
330
C
100
AcDbDictionary
281
     1
  0
DICTIONARY
  5
18F
102
{ACAD_REACTORS
330
18E
102
}
330
18E
100
AcDbDictionary
281
     1
  0
SORTENTSTABLE
  5
28E
102
{ACAD_REACTORS
330
15D
102
}
330
15D
100
AcDbSortentsTable
330
1F
  0
ACDBDETAILVIEWSTYLE
  5
1AC
102
{ACAD_REACTORS
330
1AB
102
}
330
1AB
100
AcDbModelDocViewStyle
 70
     0
  3
Imperial24
290
     0
300
Imperial24
 90
        0
100
AcDbDetailViewStyle
 70
     0
 71
     0
 90
        3
 71
     1
340
11
 62
   256
 40
0.24
340
0
 62
   256
 40
0.24
300

 40
0.36
280
     3
 71
     2
340
16
 90
       25
 62
   256
 71
     3
340
11
 62
   256
 40
0.24
 90
        1
 40
0.75
 90
        1
300
%<\AcVar ViewType \f "%tc1">% %<\AcVar ViewDetailId>%\PSCALE %<\AcVar ViewScale \f "%sn">%
 71
     4
340
16
 90
       25
 62
   256
340
16
 90
       25
 62
   256
280
     0
  0
ACDBDETAILVIEWSTYLE
  5
224
102
{ACAD_REACTORS
330
1AB
102
}
330
1AB
100
AcDbModelDocViewStyle
 70
     0
  3
Metric50
290
     0
300
Metric50
 90
        0
100
AcDbDetailViewStyle
 70
     0
 71
     0
 90
        3
 71
     1
340
11
 62
   256
 40
5.0
340
0
 62
   256
 40
5.0
300

 40
0.0
280
     1
 71
     2
340
16
 90
       25
 62
   256
 71
     3
340
11
 62
   256
 40
5.0
 90
        0
 40
15.0
 90
        1
300
%<\AcVar ViewDetailId>% (%<\AcVar ViewScale \f "%sn">%)
 71
     4
340
16
 90
       25
 62
   256
340
16
 90
       25
 62
   256
280
     0
  0
LAYOUT
  5
59
102
{ACAD_REACTORS
330
1A
102
}
330
1A
100
AcDbPlotSettings
  1

  2
None
  4

  6

 40
0.0
 41
0.0
 42
0.0
 43
0.0
 44
0.0
 45
0.0
 46
0.0
 47
0.0
 48
0.0
 49
0.0
140
0.0
141
0.0
142
1.0
143
1.0
 70
   688
 72
     0
 73
     0
 74
     5
  7

 75
    16
147
1.0
 76
     0
 77
     2
 78
   300
148
0.0
149
0.0
100
AcDbLayout
  1
Layout1
 70
     1
 71
     1
 10
0.0
 20
0.0
 11
12.0
 21
9.0
 12
0.0
 22
0.0
 32
0.0
 14
0.0
 24
0.0
 34
0.0
 15
0.0
 25
0.0
 35
0.0
146
0.0
 13
0.0
 23
0.0
 33
0.0
 16
1.0
 26
0.0
 36
0.0
 17
0.0
 27
1.0
 37
0.0
 76
     0
330
58
  0
LAYOUT
  5
5E
102
{ACAD_REACTORS
330
1A
102
}
330
1A
100
AcDbPlotSettings
  1

  2
None
  4

  6

 40
0.0
 41
0.0
 42
0.0
 43
0.0
 44
0.0
 45
0.0
 46
0.0
 47
0.0
 48
0.0
 49
0.0
140
0.0
141
0.0
142
1.0
143
1.0
 70
   688
 72
     0
 73
     0
 74
     5
  7

 75
    16
147
1.0
 76
     0
 77
     2
 78
   300
148
0.0
149
0.0
100
AcDbLayout
  1
Layout2
 70
     1
 71
     2
 10
0.0
 20
0.0
 11
12.0
 21
9.0
 12
0.0
 22
0.0
 32
0.0
 14
0.0
 24
0.0
 34
0.0
 15
0.0
 25
0.0
 35
0.0
146
0.0
 13
0.0
 23
0.0
 33
0.0
 16
1.0
 26
0.0
 36
0.0
 17
0.0
 27
1.0
 37
0.0
 76
     0
330
5D
  0
LAYOUT
  5
22
102
{ACAD_XDICTIONARY
360
194
102
}
102
{ACAD_REACTORS
330
1A
102
}
330
1A
100
AcDbPlotSettings
  1

  2
none_device
  4
ANSI_A_(8.50_x_11.00_Inches)
  6

 40
6.349999904632568
 41
19.04999923706055
 42
6.350006103515625
 43
19.04998779296875
 44
215.8999938964844
 45
279.3999938964844
 46
0.0
 47
0.0
 48
0.0
 49
0.0
140
0.0
141
0.0
142
1.0
143
2.584895464708373
 70
 11952
 72
     0
 73
     1
 74
     0
  7

 75
     0
147
0.3868628397755418
 76
     0
 77
     2
 78
   300
148
0.0
149
0.0
100
AcDbLayout
  1
Model
 70
     1
 71
     0
 10
0.0
 20
0.0
 11
12.0
 21
9.0
 12
0.0
 22
0.0
 32
0.0
 14
0.0
 24
0.0
 34
0.0
 15
0.0
 25
0.0
 35
0.0
146
0.0
 13
0.0
 23
0.0
 33
0.0
 16
1.0
 26
0.0
 36
0.0
 17
0.0
 27
1.0
 37
0.0
 76
     0
330
1F
331
94
  0
MATERIAL
  5
97
102
{ACAD_XDICTIONARY
360
188
102
}
102
{ACAD_REACTORS
330
72
102
}
330
72
100
AcDbMaterial
  1
ByBlock
 94
       63
  0
MATERIAL
  5
96
102
{ACAD_XDICTIONARY
360
186
102
}
102
{ACAD_REACTORS
330
72
102
}
330
72
100
AcDbMaterial
  1
ByLayer
 94
       63
  0
MATERIAL
  5
98
102
{ACAD_XDICTIONARY
360
110
102
}
102
{ACAD_REACTORS
330
72
102
}
330
72
100
AcDbMaterial
  1
Global
 43
0.0208000000566244
 43
0.0
 43
0.0
 43
0.0
 43
0.0
 43
0.0208000000566244
 43
0.0
 43
0.0
 43
0.0
 43
0.0
 43
1.0
 43
0.0
 43
0.0
 43
0.0
 43
0.0
 43
1.0
 49
0.0208000000566244
 49
0.0
 49
0.0
 49
0.0
 49
0.0
 49
0.0208000000566244
 49
0.0
 49
0.0
 49
0.0
 49
0.0
 49
1.0
 49
0.0
 49
0.0
 49
0.0
 49
0.0
 49
1.0
142
0.0208000000566244
142
0.0
142
0.0
142
0.0
142
0.0
142
0.0208000000566244
142
0.0
142
0.0
142
0.0
142
0.0
142
1.0
142
0.0
142
0.0
142
0.0
142
0.0
142
1.0
144
0.0208000000566244
144
0.0
144
0.0
144
0.0
144
0.0
144
0.0208000000566244
144
0.0
144
0.0
144
0.0
144
0.0
144
1.0
144
0.0
144
0.0
144
0.0
144
0.0
144
1.0
 94
       63
1001
ACAD
1070
    -1
1070
     3
1070
     0
1000

1071
        0
1070
     0
  0
MLEADERSTYLE
  5
D8
102
{ACAD_REACTORS
330
D7
102
}
330
D7
100
AcDbMLeaderStyle
179
     2
170
     2
171
     1
172
     0
 90
        2
 40
0.0
 41
0.0
173
     1
 91
-1056964608
340
14
 92
       -2
290
     1
 42
0.09
291
     1
 43
0.36
  3
Standard
 44
0.18
300

342
11
174
     1
178
     1
175
     1
176
     0
 93
-1056964608
 45
0.18
292
     0
297
     0
 46
0.18
 94
-1056964608
 47
1.0
 49
1.0
140
1.0
293
     1
141
0.0
294
     1
177
     0
142
1.0
295
     0
296
     0
143
0.125
271
     0
272
     9
273
     9
298
     0
  0
MLINESTYLE
  5
18
102
{ACAD_REACTORS
330
17
102
}
330
17
100
AcDbMlineStyle
  2
STANDARD
 70
     0
  3

 62
   256
 51
90.0
 52
90.0
 71
     2
 49
0.5
 62
   256
  6
BYLAYER
 49
-0.5
 62
   256
  6
BYLAYER
  0
ACDBPLACEHOLDER
  5
F
102
{ACAD_REACTORS
330
E
102
}
330
E
  0
SCALE
  5
2283
102
{ACAD_REACTORS
330
B6
102
}
330
B6
100
AcDbScale
 70
     0
300
1:75
140
1.0
141
75.0
290
     0
  0
SCALE
  5
B7
102
{ACAD_REACTORS
330
B6
102
}
330
B6
100
AcDbScale
 70
     0
300
1:1
140
1.0
141
1.0
290
     1
  0
SCALE
  5
124
102
{ACAD_REACTORS
330
B6
102
}
330
B6
100
AcDbScale
 70
     0
300
1:2
140
1.0
141
2.0
290
     0
  0
SCALE
  5
125
102
{ACAD_REACTORS
330
B6
102
}
330
B6
100
AcDbScale
 70
     0
300
1:4
140
1.0
141
4.0
290
     0
  0
SCALE
  5
126
102
{ACAD_REACTORS
330
B6
102
}
330
B6
100
AcDbScale
 70
     0
300
1:5
140
1.0
141
5.0
290
     0
  0
SCALE
  5
127
102
{ACAD_REACTORS
330
B6
102
}
330
B6
100
AcDbScale
 70
     0
300
1:8
140
1.0
141
8.0
290
     0
  0
SCALE
  5
128
102
{ACAD_REACTORS
330
B6
102
}
330
B6
100
AcDbScale
 70
     0
300
1:10
140
1.0
141
10.0
290
     0
  0
SCALE
  5
129
102
{ACAD_REACTORS
330
B6
102
}
330
B6
100
AcDbScale
 70
     0
300
1:16
140
1.0
141
16.0
290
     0
  0
SCALE
  5
12A
102
{ACAD_REACTORS
330
B6
102
}
330
B6
100
AcDbScale
 70
     0
300
1:20
140
1.0
141
20.0
290
     0
  0
SCALE
  5
12B
102
{ACAD_REACTORS
330
B6
102
}
330
B6
100
AcDbScale
 70
     0
300
1:30
140
1.0
141
30.0
290
     0
  0
SCALE
  5
12C
102
{ACAD_REACTORS
330
B6
102
}
330
B6
100
AcDbScale
 70
     0
300
1:40
140
1.0
141
40.0
290
     0
  0
SCALE
  5
12D
102
{ACAD_REACTORS
330
B6
102
}
330
B6
100
AcDbScale
 70
     0
300
1:50
140
1.0
141
50.0
290
     0
  0
SCALE
  5
12E
102
{ACAD_REACTORS
330
B6
102
}
330
B6
100
AcDbScale
 70
     0
300
1:100
140
1.0
141
100.0
290
     0
  0
SCALE
  5
12F
102
{ACAD_REACTORS
330
B6
102
}
330
B6
100
AcDbScale
 70
     0
300
2:1
140
2.0
141
1.0
290
     0
  0
SCALE
  5
130
102
{ACAD_REACTORS
330
B6
102
}
330
B6
100
AcDbScale
 70
     0
300
4:1
140
4.0
141
1.0
290
     0
  0
SCALE
  5
131
102
{ACAD_REACTORS
330
B6
102
}
330
B6
100
AcDbScale
 70
     0
300
8:1
140
8.0
141
1.0
290
     0
  0
SCALE
  5
132
102
{ACAD_REACTORS
330
B6
102
}
330
B6
100
AcDbScale
 70
     0
300
10:1
140
10.0
141
1.0
290
     0
  0
SCALE
  5
133
102
{ACAD_REACTORS
330
B6
102
}
330
B6
100
AcDbScale
 70
     0
300
100:1
140
100.0
141
1.0
290
     0
  0
SCALE
  5
134
102
{ACAD_REACTORS
330
B6
102
}
330
B6
100
AcDbScale
 70
     0
300
1/128" = 1'-0"
140
0.0078125
141
12.0
290
     0
  0
SCALE
  5
135
102
{ACAD_REACTORS
330
B6
102
}
330
B6
100
AcDbScale
 70
     0
300
1/64" = 1'-0"
140
0.015625
141
12.0
290
     0
  0
SCALE
  5
136
102
{ACAD_REACTORS
330
B6
102
}
330
B6
100
AcDbScale
 70
     0
300
1/32" = 1'-0"
140
0.03125
141
12.0
290
     0
  0
SCALE
  5
137
102
{ACAD_REACTORS
330
B6
102
}
330
B6
100
AcDbScale
 70
     0
300
1/16" = 1'-0"
140
0.0625
141
12.0
290
     0
  0
SCALE
  5
138
102
{ACAD_REACTORS
330
B6
102
}
330
B6
100
AcDbScale
 70
     0
300
3/32" = 1'-0"
140
0.09375
141
12.0
290
     0
  0
SCALE
  5
139
102
{ACAD_REACTORS
330
B6
102
}
330
B6
100
AcDbScale
 70
     0
300
1/8" = 1'-0"
140
0.125
141
12.0
290
     0
  0
SCALE
  5
13A
102
{ACAD_REACTORS
330
B6
102
}
330
B6
100
AcDbScale
 70
     0
300
3/16" = 1'-0"
140
0.1875
141
12.0
290
     0
  0
SCALE
  5
13B
102
{ACAD_REACTORS
330
B6
102
}
330
B6
100
AcDbScale
 70
     0
300
1/4" = 1'-0"
140
0.25
141
12.0
290
     0
  0
SCALE
  5
13C
102
{ACAD_REACTORS
330
B6
102
}
330
B6
100
AcDbScale
 70
     0
300
3/8" = 1'-0"
140
0.375
141
12.0
290
     0
  0
SCALE
  5
13D
102
{ACAD_REACTORS
330
B6
102
}
330
B6
100
AcDbScale
 70
     0
300
1/2" = 1'-0"
140
0.5
141
12.0
290
     0
  0
SCALE
  5
13E
102
{ACAD_REACTORS
330
B6
102
}
330
B6
100
AcDbScale
 70
     0
300
3/4" = 1'-0"
140
0.75
141
12.0
290
     0
  0
SCALE
  5
13F
102
{ACAD_REACTORS
330
B6
102
}
330
B6
100
AcDbScale
 70
     0
300
1" = 1'-0"
140
1.0
141
12.0
290
     0
  0
SCALE
  5
140
102
{ACAD_REACTORS
330
B6
102
}
330
B6
100
AcDbScale
 70
     0
300
1-1/2" = 1'-0"
140
1.5
141
12.0
290
     0
  0
SCALE
  5
141
102
{ACAD_REACTORS
330
B6
102
}
330
B6
100
AcDbScale
 70
     0
300
3" = 1'-0"
140
3.0
141
12.0
290
     0
  0
SCALE
  5
142
102
{ACAD_REACTORS
330
B6
102
}
330
B6
100
AcDbScale
 70
     0
300
6" = 1'-0"
140
6.0
141
12.0
290
     0
  0
SCALE
  5
143
102
{ACAD_REACTORS
330
B6
102
}
330
B6
100
AcDbScale
 70
     0
300
1'-0" = 1'-0"
140
12.0
141
12.0
290
     0
  0
ACDBSECTIONVIEWSTYLE
  5
1AA
102
{ACAD_REACTORS
330
1A8
102
}
330
1A8
100
AcDbModelDocViewStyle
 70
     0
  3
Imperial24
290
     0
300
Imperial24
 90
        0
100
AcDbSectionViewStyle
 70
     0
 71
     0
 90
       78
 71
     1
340
11
 62
   256
 40
0.24
340
0
340
0
 62
   256
 40
0.24
300
I, O, Q, S, X, Z
 40
0.48
 90
        3
 40
0.18
 90
        1
 71
     2
340
16
 90
       25
 62
   256
340
16
 90
       50
 62
   256
 40
0.24
 40
0.0
 40
0.24
 71
     3
340
11
 62
   256
 40
0.24
 90
        1
 40
0.75
 90
        1
300
%<\AcVar ViewType \f "%tc1">% %<\AcVar ViewSectionStartId>%-%<\AcVar ViewSectionEndId>%\PSCALE %<\AcVar ViewScale \f "%sn">%
 71
     4
 62
   256
 62
   257
300
ANSI31
 40
1.0
 90
        0
290
     0
290
     0
 90
        6
 40
0.0
 40
1.570796326794896
 40
0.2617993877991494
 40
1.308996938995747
 40
-0.2617993877991494
 40
1.832595714594046
  0
ACDBSECTIONVIEWSTYLE
  5
223
102
{ACAD_REACTORS
330
1A8
102
}
330
1A8
100
AcDbModelDocViewStyle
 70
     0
  3
Metric50
290
     0
300
Metric50
 90
        0
100
AcDbSectionViewStyle
 70
     0
 71
     0
 90
      102
 71
     1
340
11
 62
   256
 40
5.0
340
0
340
0
 62
   256
 40
5.0
300
I, O, Q, S, X, Z
 40
10.0
 90
        0
 40
2.5
 90
        0
 71
     2
340
16
 90
       25
 62
   256
340
16
 90
       50
 62
   256
 40
5.0
 40
2.5
 40
5.0
 71
     3
340
11
 62
   256
 40
5.0
 90
        0
 40
15.0
 90
        1
300
%<\AcVar ViewSectionStartId>%-%<\AcVar ViewSectionEndId>% (%<\AcVar ViewScale \f "%sn">%)
 71
     4
 62
   256
 62
   257
300
ANSI31
 40
1.0
 90
        0
290
     0
290
     0
 90
        6
 40
0.0
 40
1.570796326794896
 40
0.2617993877991494
 40
1.308996938995747
 40
-0.2617993877991494
 40
1.832595714594046
  0
TABLESTYLE
  5
87
102
{ACAD_XDICTIONARY
360
104
102
}
102
{ACAD_REACTORS
330
86
102
}
330
86
100
AcDbTableStyle
280
     0
  3
Standard
 70
     0
 71
     0
 40
0.06
 41
0.06
280
     0
281
     0
  7
Standard
140
0.18
170
     2
 62
     0
 63
     7
283
     0
 90
      512
 91
        0
  1

274
    -2
284
     1
 64
     0
275
    -2
285
     1
 65
     0
276
    -2
286
     1
 66
     0
277
    -2
287
     1
 67
     0
278
    -2
288
     1
 68
     0
279
    -2
289
     1
 69
     0
  7
Standard
140
0.25
170
     5
 62
     0
 63
     7
283
     0
 90
      512
 91
        0
  1

274
    -2
284
     1
 64
     0
275
    -2
285
     1
 65
     0
276
    -2
286
     1
 66
     0
277
    -2
287
     1
 67
     0
278
    -2
288
     1
 68
     0
279
    -2
289
     1
 69
     0
  7
Standard
140
0.18
170
     5
 62
     0
 63
     7
283
     0
 90
      512
 91
        0
  1

274
    -2
284
     1
 64
     0
275
    -2
285
     1
 65
     0
276
    -2
286
     1
 66
     0
277
    -2
287
     1
 67
     0
278
    -2
288
     1
 68
     0
279
    -2
289
     1
 69
     0
  0
VISUALSTYLE
  5
9F
102
{ACAD_REACTORS
330
99
102
}
330
99
100
AcDbVisualStyle
  2
2dWireframe
 70
     4
177
     3
291
     0
 70
    58
 90
        0
176
     1
 90
        2
176
     1
 90
        1
176
     1
 90
        0
176
     1
 40
0.6
176
     1
 40
30.0
176
     1
 62
     7
420
 16777215
176
     1
 90
        1
176
     1
 90
        4
176
     1
 62
     7
176
     1
 62
   257
176
     1
 90
        1
176
     1
 90
        1
176
     1
 40
1.0
176
     1
 90
        0
176
     1
 62
   257
176
     1
 40
1.0
176
     1
 90
        1
176
     1
 90
        6
176
     1
 90
        2
176
     1
 62
     7
176
     1
 90
        5
176
     1
 90
        0
176
     1
 90
        0
176
     1
290
     0
176
     1
 90
        1
176
     1
 40
0.0
176
     1
 90
        0
176
     1
290
     1
176
     1
290
     1
176
     1
290
     0
176
     1
290
     0
176
     1
290
     0
176
     1
290
     0
176
     1
290
     0
176
     1
290
     0
176
     1
290
     0
176
     1
 90
       50
176
     1
 40
0.0
176
     1
 40
1.0
176
     1
 90
        0
176
     1
 62
    18
420
        0
176
     1
 90
       50
176
     1
 90
        3
176
     1
 62
     5
420
      255
176
     1
290
     0
176
     1
 90
       50
176
     1
 90
       50
176
     1
 90
       50
176
     1
290
     0
176
     1
 90
       50
176
     1
 62
   256
176
     0
 40
1.0
176
     0
 90
        2
176
     1
  1
strokes_ogs.tif
176
     1
290
     0
176
     1
 40
1.0
176
     1
 40
1.0
176
     1
  0
VISUALSTYLE
  5
22946
102
{ACAD_REACTORS
330
99
102
}
330
99
100
AcDbVisualStyle
  2
3dWireframe
 70
     5
177
     3
291
     0
 70
    58
 90
        0
176
     1
 90
        2
176
     1
 90
        0
176
     1
 90
        0
176
     1
 40
0.6
176
     1
 40
30.0
176
     1
 62
     7
176
     1
 90
        1
176
     1
 90
        4
176
     1
 62
     7
176
     1
 62
   257
176
     1
 90
        1
176
     1
 90
        1
176
     1
 40
1.0
176
     1
 90
        0
176
     1
 62
   257
176
     1
 40
1.0
176
     1
 90
        1
176
     1
 90
        6
176
     1
 90
        2
176
     1
 62
     7
176
     1
 90
        5
176
     1
 90
        0
176
     1
 90
        0
176
     1
290
     0
176
     1
 90
        1
176
     1
 40
0.0
176
     1
 90
        0
176
     1
290
     0
176
     1
290
     1
176
     1
290
     1
176
     1
290
     0
176
     1
290
     0
176
     1
290
     0
176
     1
290
     0
176
     1
290
     0
176
     1
290
     0
176
     1
 90
       50
176
     1
 40
0.0
176
     1
 40
1.0
176
     1
 90
        0
176
     1
 62
    18
420
        0
176
     1
 90
       50
176
     1
 90
        3
176
     1
 62
     5
420
      255
176
     1
290
     0
176
     1
 90
       50
176
     1
 90
       50
176
     1
 90
       50
176
     1
290
     0
176
     1
 90
       50
176
     1
 62
   256
176
     0
 40
1.0
176
     0
 90
        2
176
     1
  1
strokes_ogs.tif
176
     1
290
     0
176
     1
 40
1.0
176
     1
 40
1.0
176
     1
  0
VISUALSTYLE
  5
9E
102
{ACAD_REACTORS
330
99
102
}
330
99
100
AcDbVisualStyle
  2
Basic
 70
     7
177
     3
291
     1
 70
    58
 90
        1
176
     1
 90
        0
176
     1
 90
        1
176
     1
 90
        0
176
     1
 40
0.6
176
     1
 40
30.0
176
     1
 62
     7
420
 16777215
176
     1
 90
        0
176
     1
 90
        4
176
     1
 62
     7
176
     1
 62
   257
176
     1
 90
        1
176
     1
 90
        1
176
     1
 40
1.0
176
     1
 90
        8
176
     1
 62
     7
176
     1
 40
1.0
176
     1
 90
        1
176
     1
 90
        6
176
     1
 90
        2
176
     1
 62
     7
176
     1
 90
        5
176
     1
 90
        0
176
     1
 90
        0
176
     1
290
     0
176
     1
 90
        1
176
     1
 40
0.0
176
     1
 90
        0
176
     1
290
     0
176
     1
290
     1
176
     1
290
     1
176
     1
290
     0
176
     1
290
     0
176
     1
290
     0
176
     1
290
     0
176
     1
290
     0
176
     1
290
     0
176
     1
 90
       50
176
     1
 40
0.0
176
     1
 40
1.0
176
     1
 90
        0
176
     1
 62
    18
420
        0
176
     1
 90
       50
176
     1
 90
        3
176
     1
 62
     5
420
      255
176
     1
290
     0
176
     1
 90
       50
176
     1
 90
       50
176
     1
 90
       50
176
     1
290
     0
176
     1
 90
       50
176
     1
 62
   256
176
     0
 40
1.0
176
     0
 90
        2
176
     1
  1
strokes_ogs.tif
176
     1
290
     0
176
     1
 40
1.0
176
     1
 40
1.0
176
     1
  0
VISUALSTYLE
  5
A5
102
{ACAD_REACTORS
330
99
102
}
330
99
100
AcDbVisualStyle
  2
Brighten
 70
    12
177
     3
291
     1
 70
    58
 90
        2
176
     1
 90
        2
176
     1
 90
        1
176
     1
 90
        0
176
     1
 40
0.6
176
     1
 40
30.0
176
     1
 62
     7
420
 16777215
176
     1
 90
        1
176
     1
 90
        4
176
     1
 62
     7
176
     1
 62
   257
176
     1
 90
        1
176
     1
 90
        1
176
     1
 40
1.0
176
     1
 90
        8
176
     1
 62
     7
176
     1
 40
1.0
176
     1
 90
        1
176
     1
 90
        6
176
     1
 90
        2
176
     1
 62
     7
176
     1
 90
        5
176
     1
 90
        0
176
     1
 90
        0
176
     1
290
     0
176
     1
 90
        1
176
     1
 40
50.0
176
     1
 90
        0
176
     1
290
     0
176
     1
290
     1
176
     1
290
     1
176
     1
290
     0
176
     1
290
     0
176
     1
290
     0
176
     1
290
     0
176
     1
290
     0
176
     1
290
     0
176
     1
 90
       50
176
     1
 40
0.0
176
     1
 40
1.0
176
     1
 90
        0
176
     1
 62
    18
420
        0
176
     1
 90
       50
176
     1
 90
        3
176
     1
 62
     5
420
      255
176
     1
290
     0
176
     1
 90
       50
176
     1
 90
       50
176
     1
 90
       50
176
     1
290
     0
176
     1
 90
       50
176
     1
 62
   256
176
     0
 40
1.0
176
     0
 90
        2
176
     1
  1
strokes_ogs.tif
176
     1
290
     0
176
     1
 40
1.0
176
     1
 40
1.0
176
     1
  0
VISUALSTYLE
  5
A9
102
{ACAD_REACTORS
330
99
102
}
330
99
100
AcDbVisualStyle
  2
ColorChange
 70
    16
177
     3
291
     1
 70
    58
 90
        2
176
     1
 90
        2
176
     1
 90
        3
176
     1
 90
        0
176
     1
 40
0.6
176
     1
 40
30.0
176
     1
 62
     8
420
  8421504
176
     1
 90
        1
176
     1
 90
        4
176
     1
 62
     7
176
     1
 62
   257
176
     1
 90
        1
176
     1
 90
        1
176
     1
 40
1.0
176
     1
 90
        8
176
     1
 62
     8
420
  8421504
176
     1
 40
1.0
176
     1
 90
        1
176
     1
 90
        6
176
     1
 90
        2
176
     1
 62
     7
176
     1
 90
        5
176
     1
 90
        0
176
     1
 90
        0
176
     1
290
     0
176
     1
 90
        1
176
     1
 40
0.0
176
     1
 90
        0
176
     1
290
     0
176
     1
290
     1
176
     1
290
     1
176
     1
290
     0
176
     1
290
     0
176
     1
290
     0
176
     1
290
     0
176
     1
290
     0
176
     1
290
     0
176
     1
 90
       50
176
     1
 40
0.0
176
     1
 40
1.0
176
     1
 90
        0
176
     1
 62
    18
420
        0
176
     1
 90
       50
176
     1
 90
        3
176
     1
 62
     5
420
      255
176
     1
290
     0
176
     1
 90
       50
176
     1
 90
       50
176
     1
 90
       50
176
     1
290
     0
176
     1
 90
       50
176
     1
 62
   256
176
     0
 40
1.0
176
     0
 90
        2
176
     1
  1
strokes_ogs.tif
176
     1
290
     0
176
     1
 40
1.0
176
     1
 40
1.0
176
     1
  0
VISUALSTYLE
  5
A2
102
{ACAD_REACTORS
330
99
102
}
330
99
100
AcDbVisualStyle
  2
Conceptual
 70
     9
177
     3
291
     0
 70
    58
 90
        3
176
     1
 90
        2
176
     1
 90
        1
176
     1
 90
        0
176
     1
 40
0.6
176
     1
 40
30.0
176
     1
 62
     7
420
 16777215
176
     1
 90
        2
176
     1
 90
        2
176
     1
 62
     7
176
     1
 62
   257
176
     1
 90
        1
176
     1
 90
        1
176
     1
 40
40.0
176
     1
 90
        8
176
     1
 62
     7
176
     1
 40
1.0
176
     1
 90
        1
176
     1
 90
        6
176
     1
 90
        2
176
     1
 62
     7
176
     1
 90
        3
176
     1
 90
        0
176
     1
 90
        0
176
     1
290
     0
176
     1
 90
        1
176
     1
 40
0.0
176
     1
 90
        0
176
     1
290
     0
176
     1
290
     1
176
     1
290
     1
176
     1
290
     0
176
     1
290
     0
176
     1
290
     0
176
     1
290
     0
176
     1
290
     0
176
     1
290
     0
176
     1
 90
       50
176
     1
 40
0.0
176
     1
 40
1.0
176
     1
 90
        0
176
     1
 62
    18
420
        0
176
     1
 90
       50
176
     1
 90
        3
176
     1
 62
     5
420
      255
176
     1
290
     0
176
     1
 90
       50
176
     1
 90
       50
176
     1
 90
       50
176
     1
290
     0
176
     1
 90
       50
176
     1
 62
   256
176
     0
 40
1.0
176
     0
 90
        2
176
     1
  1
strokes_ogs.tif
176
     1
290
     0
176
     1
 40
1.0
176
     1
 40
1.0
176
     1
  0
VISUALSTYLE
  5
A4
102
{ACAD_REACTORS
330
99
102
}
330
99
100
AcDbVisualStyle
  2
Dim
 70
    11
177
     3
291
     1
 70
    58
 90
        2
176
     1
 90
        2
176
     1
 90
        1
176
     1
 90
        0
176
     1
 40
0.6
176
     1
 40
30.0
176
     1
 62
     7
420
 16777215
176
     1
 90
        1
176
     1
 90
        4
176
     1
 62
     7
176
     1
 62
   257
176
     1
 90
        1
176
     1
 90
        1
176
     1
 40
1.0
176
     1
 90
        8
176
     1
 62
     7
176
     1
 40
1.0
176
     1
 90
        1
176
     1
 90
        6
176
     1
 90
        2
176
     1
 62
     7
176
     1
 90
        5
176
     1
 90
        0
176
     1
 90
        0
176
     1
290
     0
176
     1
 90
        1
176
     1
 40
-50.0
176
     1
 90
        0
176
     1
290
     0
176
     1
290
     1
176
     1
290
     1
176
     1
290
     0
176
     1
290
     0
176
     1
290
     0
176
     1
290
     0
176
     1
290
     0
176
     1
290
     0
176
     1
 90
       50
176
     1
 40
0.0
176
     1
 40
1.0
176
     1
 90
        0
176
     1
 62
    18
420
        0
176
     1
 90
       50
176
     1
 90
        3
176
     1
 62
     5
420
      255
176
     1
290
     0
176
     1
 90
       50
176
     1
 90
       50
176
     1
 90
       50
176
     1
290
     0
176
     1
 90
       50
176
     1
 62
   256
176
     0
 40
1.0
176
     0
 90
        2
176
     1
  1
strokes_ogs.tif
176
     1
290
     0
176
     1
 40
1.0
176
     1
 40
1.0
176
     1
  0
VISUALSTYLE
  5
175
102
{ACAD_REACTORS
330
99
102
}
330
99
100
AcDbVisualStyle
  2
EdgeColorOff
 70
    22
177
     3
291
     1
 70
    58
 90
        2
176
     0
 90
        2
176
     0
 90
        0
176
     0
 90
        0
176
     0
 40
0.6
176
     0
 40
30.0
176
     0
 62
     7
420
 16777215
176
     0
 90
        1
176
     0
 90
        4
176
     0
 62
     7
176
     0
 62
   257
176
     0
 90
        1
176
     0
 90
        1
176
     0
 40
1.0
176
     0
 90
        8
176
     2
 62
     7
176
     0
 40
1.0
176
     0
 90
        1
176
     0
 90
        6
176
     0
 90
        2
176
     0
 62
     7
176
     0
 90
        5
176
     0
 90
        0
176
     0
 90
        0
176
     0
290
     0
176
     0
 90
        1
176
     0
 40
0.0
176
     0
 90
        0
176
     0
290
     0
176
     1
290
     1
176
     1
290
     1
176
     1
290
     0
176
     1
290
     0
176
     1
290
     0
176
     1
290
     0
176
     1
290
     0
176
     1
290
     0
176
     1
 90
       50
176
     1
 40
0.0
176
     1
 40
1.0
176
     1
 90
        0
176
     1
 62
    18
420
        0
176
     1
 90
       50
176
     1
 90
        3
176
     1
 62
     5
420
      255
176
     1
290
     0
176
     1
 90
       50
176
     1
 90
       50
176
     1
 90
       50
176
     1
290
     0
176
     1
 90
       50
176
     1
 62
   256
176
     0
 40
1.0
176
     0
 90
        2
176
     1
  1
strokes_ogs.tif
176
     1
290
     0
176
     1
 40
1.0
176
     1
 40
1.0
176
     1
  0
VISUALSTYLE
  5
A8
102
{ACAD_REACTORS
330
99
102
}
330
99
100
AcDbVisualStyle
  2
Facepattern
 70
    15
177
     3
291
     1
 70
    58
 90
        2
176
     1
 90
        2
176
     1
 90
        1
176
     1
 90
        0
176
     1
 40
0.6
176
     1
 40
30.0
176
     1
 62
     7
420
 16777215
176
     1
 90
        1
176
     1
 90
        4
176
     1
 62
     7
176
     1
 62
   257
176
     1
 90
        1
176
     1
 90
        1
176
     1
 40
1.0
176
     1
 90
        8
176
     1
 62
     7
176
     1
 40
1.0
176
     1
 90
        1
176
     1
 90
        6
176
     1
 90
        2
176
     1
 62
     7
176
     1
 90
        5
176
     1
 90
        0
176
     1
 90
        0
176
     1
290
     0
176
     1
 90
        1
176
     1
 40
0.0
176
     1
 90
        0
176
     1
290
     0
176
     1
290
     1
176
     1
290
     1
176
     1
290
     0
176
     1
290
     0
176
     1
290
     0
176
     1
290
     0
176
     1
290
     0
176
     1
290
     0
176
     1
 90
       50
176
     1
 40
0.0
176
     1
 40
1.0
176
     1
 90
        0
176
     1
 62
    18
420
        0
176
     1
 90
       50
176
     1
 90
        3
176
     1
 62
     5
420
      255
176
     1
290
     0
176
     1
 90
       50
176
     1
 90
       50
176
     1
 90
       50
176
     1
290
     0
176
     1
 90
       50
176
     1
 62
   256
176
     0
 40
1.0
176
     0
 90
        2
176
     1
  1
strokes_ogs.tif
176
     1
290
     0
176
     1
 40
1.0
176
     1
 40
1.0
176
     1
  0
VISUALSTYLE
  5
9A
102
{ACAD_REACTORS
330
99
102
}
330
99
100
AcDbVisualStyle
  2
Flat
 70
     0
177
     3
291
     1
 70
    58
 90
        2
176
     1
 90
        1
176
     1
 90
        1
176
     1
 90
        2
176
     1
 40
0.6
176
     1
 40
30.0
176
     1
 62
     7
420
 16777215
176
     1
 90
        0
176
     1
 90
        0
176
     1
 62
     7
176
     1
 62
   257
176
     1
 90
        1
176
     1
 90
        1
176
     1
 40
1.0
176
     1
 90
        8
176
     1
 62
     7
176
     1
 40
1.0
176
     1
 90
        1
176
     1
 90
        6
176
     1
 90
        2
176
     1
 62
     7
176
     1
 90
        5
176
     1
 90
        0
176
     1
 90
        0
176
     1
290
     0
176
     1
 90
       13
176
     1
 40
0.0
176
     1
 90
        0
176
     1
290
     0
176
     1
290
     1
176
     1
290
     1
176
     1
290
     0
176
     1
290
     0
176
     1
290
     0
176
     1
290
     0
176
     1
290
     0
176
     1
290
     0
176
     1
 90
       50
176
     1
 40
0.0
176
     1
 40
1.0
176
     1
 90
        0
176
     1
 62
    18
420
        0
176
     1
 90
       50
176
     1
 90
        3
176
     1
 62
     5
420
      255
176
     1
290
     0
176
     1
 90
       50
176
     1
 90
       50
176
     1
 90
       50
176
     1
290
     0
176
     1
 90
       50
176
     1
 62
   256
176
     0
 40
1.0
176
     0
 90
        2
176
     1
  1
strokes_ogs.tif
176
     1
290
     0
176
     1
 40
1.0
176
     1
 40
1.0
176
     1
  0
VISUALSTYLE
  5
9B
102
{ACAD_REACTORS
330
99
102
}
330
99
100
AcDbVisualStyle
  2
FlatWithEdges
 70
     1
177
     3
291
     1
 70
    58
 90
        2
176
     1
 90
        1
176
     1
 90
        1
176
     1
 90
        2
176
     1
 40
0.6
176
     1
 40
30.0
176
     1
 62
     7
420
 16777215
176
     1
 90
        1
176
     1
 90
        0
176
     1
 62
     7
176
     1
 62
   257
176
     1
 90
        1
176
     1
 90
        1
176
     1
 40
1.0
176
     1
 90
        0
176
     1
 62
   257
176
     1
 40
1.0
176
     1
 90
        1
176
     1
 90
        6
176
     1
 90
        2
176
     1
 62
     7
176
     1
 90
        5
176
     1
 90
        0
176
     1
 90
        0
176
     1
290
     0
176
     1
 90
       13
176
     1
 40
0.0
176
     1
 90
        0
176
     1
290
     0
176
     1
290
     1
176
     1
290
     1
176
     1
290
     0
176
     1
290
     0
176
     1
290
     0
176
     1
290
     0
176
     1
290
     0
176
     1
290
     0
176
     1
 90
       50
176
     1
 40
0.0
176
     1
 40
1.0
176
     1
 90
        0
176
     1
 62
    18
420
        0
176
     1
 90
       50
176
     1
 90
        3
176
     1
 62
     5
420
      255
176
     1
290
     0
176
     1
 90
       50
176
     1
 90
       50
176
     1
 90
       50
176
     1
290
     0
176
     1
 90
       50
176
     1
 62
   256
176
     0
 40
1.0
176
     0
 90
        2
176
     1
  1
strokes_ogs.tif
176
     1
290
     0
176
     1
 40
1.0
176
     1
 40
1.0
176
     1
  0
VISUALSTYLE
  5
9C
102
{ACAD_REACTORS
330
99
102
}
330
99
100
AcDbVisualStyle
  2
Gouraud
 70
     2
177
     3
291
     1
 70
    58
 90
        2
176
     1
 90
        2
176
     1
 90
        1
176
     1
 90
        2
176
     1
 40
0.6
176
     1
 40
30.0
176
     1
 62
     7
420
 16777215
176
     1
 90
        0
176
     1
 90
        0
176
     1
 62
     7
176
     1
 62
   257
176
     1
 90
        1
176
     1
 90
        1
176
     1
 40
1.0
176
     1
 90
        0
176
     1
 62
     7
176
     1
 40
1.0
176
     1
 90
        1
176
     1
 90
        6
176
     1
 90
        2
176
     1
 62
     7
176
     1
 90
        5
176
     1
 90
        0
176
     1
 90
        0
176
     1
290
     0
176
     1
 90
       13
176
     1
 40
0.0
176
     1
 90
        0
176
     1
290
     0
176
     1
290
     1
176
     1
290
     1
176
     1
290
     0
176
     1
290
     0
176
     1
290
     0
176
     1
290
     0
176
     1
290
     0
176
     1
290
     0
176
     1
 90
       50
176
     1
 40
0.0
176
     1
 40
1.0
176
     1
 90
        0
176
     1
 62
    18
420
        0
176
     1
 90
       50
176
     1
 90
        3
176
     1
 62
     5
420
      255
176
     1
290
     0
176
     1
 90
       50
176
     1
 90
       50
176
     1
 90
       50
176
     1
290
     0
176
     1
 90
       50
176
     1
 62
   256
176
     0
 40
1.0
176
     0
 90
        2
176
     1
  1
strokes_ogs.tif
176
     1
290
     0
176
     1
 40
1.0
176
     1
 40
1.0
176
     1
  0
VISUALSTYLE
  5
9D
102
{ACAD_REACTORS
330
99
102
}
330
99
100
AcDbVisualStyle
  2
GouraudWithEdges
 70
     3
177
     3
291
     1
 70
    58
 90
        2
176
     1
 90
        2
176
     1
 90
        1
176
     1
 90
        2
176
     1
 40
0.6
176
     1
 40
30.0
176
     1
 62
     7
420
 16777215
176
     1
 90
        1
176
     1
 90
        0
176
     1
 62
     7
176
     1
 62
   257
176
     1
 90
        1
176
     1
 90
        1
176
     1
 40
1.0
176
     1
 90
        0
176
     1
 62
   257
176
     1
 40
1.0
176
     1
 90
        1
176
     1
 90
        6
176
     1
 90
        2
176
     1
 62
     7
176
     1
 90
        5
176
     1
 90
        0
176
     1
 90
        0
176
     1
290
     0
176
     1
 90
       13
176
     1
 40
0.0
176
     1
 90
        0
176
     1
290
     0
176
     1
290
     1
176
     1
290
     1
176
     1
290
     0
176
     1
290
     0
176
     1
290
     0
176
     1
290
     0
176
     1
290
     0
176
     1
290
     0
176
     1
 90
       50
176
     1
 40
0.0
176
     1
 40
1.0
176
     1
 90
        0
176
     1
 62
    18
420
        0
176
     1
 90
       50
176
     1
 90
        3
176
     1
 62
     5
420
      255
176
     1
290
     0
176
     1
 90
       50
176
     1
 90
       50
176
     1
 90
       50
176
     1
290
     0
176
     1
 90
       50
176
     1
 62
   256
176
     0
 40
1.0
176
     0
 90
        2
176
     1
  1
strokes_ogs.tif
176
     1
290
     0
176
     1
 40
1.0
176
     1
 40
1.0
176
     1
  0
VISUALSTYLE
  5
A1
102
{ACAD_REACTORS
330
99
102
}
330
99
100
AcDbVisualStyle
  2
Hidden
 70
     6
177
     3
291
     0
 70
    58
 90
        1
176
     1
 90
        2
176
     1
 90
        2
176
     1
 90
        0
176
     1
 40
0.6
176
     1
 40
30.0
176
     1
 62
     7
420
 16777215
176
     1
 90
        2
176
     1
 90
        2
176
     1
 62
     7
176
     1
 62
   257
176
     1
 90
        2
176
     1
 90
        1
176
     1
 40
40.0
176
     1
 90
        0
176
     1
 62
   257
176
     1
 40
1.0
176
     1
 90
        1
176
     1
 90
        6
176
     1
 90
        2
176
     1
 62
     7
176
     1
 90
        3
176
     1
 90
        0
176
     1
 90
        0
176
     1
290
     0
176
     1
 90
        1
176
     1
 40
0.0
176
     1
 90
        0
176
     1
290
     0
176
     1
290
     1
176
     1
290
     1
176
     1
290
     0
176
     1
290
     0
176
     1
290
     0
176
     1
290
     0
176
     1
290
     0
176
     1
290
     0
176
     1
 90
       50
176
     1
 40
0.0
176
     1
 40
1.0
176
     1
 90
        0
176
     1
 62
    18
420
        0
176
     1
 90
       50
176
     1
 90
        3
176
     1
 62
     5
420
      255
176
     1
290
     0
176
     1
 90
       50
176
     1
 90
       50
176
     1
 90
       50
176
     1
290
     0
176
     1
 90
       50
176
     1
 62
   256
176
     0
 40
1.0
176
     0
 90
        2
176
     1
  1
strokes_ogs.tif
176
     1
290
     0
176
     1
 40
1.0
176
     1
 40
1.0
176
     1
  0
VISUALSTYLE
  5
173
102
{ACAD_REACTORS
330
99
102
}
330
99
100
AcDbVisualStyle
  2
JitterOff
 70
    20
177
     3
291
     1
 70
    58
 90
        2
176
     0
 90
        2
176
     0
 90
        0
176
     0
 90
        0
176
     0
 40
0.6
176
     0
 40
30.0
176
     0
 62
     7
420
 16777215
176
     0
 90
        1
176
     0
 90
        4
176
     0
 62
     7
176
     0
 62
   257
176
     0
 90
        1
176
     0
 90
        1
176
     0
 40
1.0
176
     0
 90
       10
176
     2
 62
     7
176
     0
 40
1.0
176
     0
 90
        1
176
     0
 90
        6
176
     0
 90
        2
176
     0
 62
     7
176
     0
 90
        5
176
     0
 90
        0
176
     0
 90
        0
176
     0
290
     0
176
     0
 90
        1
176
     0
 40
0.0
176
     0
 90
        0
176
     0
290
     0
176
     1
290
     1
176
     1
290
     1
176
     1
290
     0
176
     1
290
     0
176
     1
290
     0
176
     1
290
     0
176
     1
290
     0
176
     1
290
     0
176
     1
 90
       50
176
     1
 40
0.0
176
     1
 40
1.0
176
     1
 90
        0
176
     1
 62
    18
420
        0
176
     1
 90
       50
176
     1
 90
        3
176
     1
 62
     5
420
      255
176
     1
290
     0
176
     1
 90
       50
176
     1
 90
       50
176
     1
 90
       50
176
     1
290
     0
176
     1
 90
       50
176
     1
 62
   256
176
     0
 40
1.0
176
     0
 90
        2
176
     1
  1
strokes_ogs.tif
176
     1
290
     0
176
     1
 40
1.0
176
     1
 40
1.0
176
     1
  0
VISUALSTYLE
  5
A7
102
{ACAD_REACTORS
330
99
102
}
330
99
100
AcDbVisualStyle
  2
Linepattern
 70
    14
177
     3
291
     1
 70
    58
 90
        2
176
     1
 90
        2
176
     1
 90
        1
176
     1
 90
        0
176
     1
 40
0.6
176
     1
 40
30.0
176
     1
 62
     7
420
 16777215
176
     1
 90
        1
176
     1
 90
        4
176
     1
 62
     7
176
     1
 62
   257
176
     1
 90
        7
176
     1
 90
        7
176
     1
 40
1.0
176
     1
 90
        8
176
     1
 62
     7
176
     1
 40
1.0
176
     1
 90
        1
176
     1
 90
        6
176
     1
 90
        2
176
     1
 62
     7
176
     1
 90
        5
176
     1
 90
        0
176
     1
 90
        0
176
     1
290
     0
176
     1
 90
        1
176
     1
 40
0.0
176
     1
 90
        0
176
     1
290
     0
176
     1
290
     1
176
     1
290
     1
176
     1
290
     0
176
     1
290
     0
176
     1
290
     0
176
     1
290
     0
176
     1
290
     0
176
     1
290
     0
176
     1
 90
       50
176
     1
 40
0.0
176
     1
 40
1.0
176
     1
 90
        0
176
     1
 62
    18
420
        0
176
     1
 90
       50
176
     1
 90
        3
176
     1
 62
     5
420
      255
176
     1
290
     0
176
     1
 90
       50
176
     1
 90
       50
176
     1
 90
       50
176
     1
290
     0
176
     1
 90
       50
176
     1
 62
   256
176
     0
 40
1.0
176
     0
 90
        2
176
     1
  1
strokes_ogs.tif
176
     1
290
     0
176
     1
 40
1.0
176
     1
 40
1.0
176
     1
  0
VISUALSTYLE
  5
174
102
{ACAD_REACTORS
330
99
102
}
330
99
100
AcDbVisualStyle
  2
OverhangOff
 70
    21
177
     3
291
     1
 70
    58
 90
        2
176
     0
 90
        2
176
     0
 90
        0
176
     0
 90
        0
176
     0
 40
0.6
176
     0
 40
30.0
176
     0
 62
     7
420
 16777215
176
     0
 90
        1
176
     0
 90
        4
176
     0
 62
     7
176
     0
 62
   257
176
     0
 90
        1
176
     0
 90
        1
176
     0
 40
1.0
176
     0
 90
        9
176
     2
 62
     7
176
     0
 40
1.0
176
     0
 90
        1
176
     0
 90
        6
176
     0
 90
        2
176
     0
 62
     7
176
     0
 90
        5
176
     0
 90
        0
176
     0
 90
        0
176
     0
290
     0
176
     0
 90
        1
176
     0
 40
0.0
176
     0
 90
        0
176
     0
290
     0
176
     1
290
     1
176
     1
290
     1
176
     1
290
     0
176
     1
290
     0
176
     1
290
     0
176
     1
290
     0
176
     1
290
     0
176
     1
290
     0
176
     1
 90
       50
176
     1
 40
0.0
176
     1
 40
1.0
176
     1
 90
        0
176
     1
 62
    18
420
        0
176
     1
 90
       50
176
     1
 90
        3
176
     1
 62
     5
420
      255
176
     1
290
     0
176
     1
 90
       50
176
     1
 90
       50
176
     1
 90
       50
176
     1
290
     0
176
     1
 90
       50
176
     1
 62
   256
176
     0
 40
1.0
176
     0
 90
        2
176
     1
  1
strokes_ogs.tif
176
     1
290
     0
176
     1
 40
1.0
176
     1
 40
1.0
176
     1
  0
VISUALSTYLE
  5
A3
102
{ACAD_REACTORS
330
99
102
}
330
99
100
AcDbVisualStyle
  2
Realistic
 70
     8
177
     3
291
     0
 70
    58
 90
        2
176
     1
 90
        2
176
     1
 90
        0
176
     1
 90
        2
176
     1
 40
0.6
176
     1
 40
30.0
176
     1
 62
     7
420
 16777215
176
     1
 90
        0
176
     1
 90
        0
176
     1
 62
     7
176
     1
 62
   257
176
     1
 90
        1
176
     1
 90
        1
176
     1
 40
1.0
176
     1
 90
        8
176
     1
 62
   257
176
     1
 40
1.0
176
     1
 90
        1
176
     1
 90
        6
176
     1
 90
        2
176
     1
 62
     7
176
     1
 90
        3
176
     1
 90
        0
176
     1
 90
        0
176
     1
290
     0
176
     1
 90
       13
176
     1
 40
0.0
176
     1
 90
        0
176
     1
290
     0
176
     1
290
     1
176
     1
290
     1
176
     1
290
     0
176
     1
290
     0
176
     1
290
     0
176
     1
290
     0
176
     1
290
     0
176
     1
290
     0
176
     1
 90
       50
176
     1
 40
0.0
176
     1
 40
1.0
176
     1
 90
        0
176
     1
 62
    18
420
        0
176
     1
 90
       50
176
     1
 90
        3
176
     1
 62
     5
420
      255
176
     1
290
     0
176
     1
 90
       50
176
     1
 90
       50
176
     1
 90
       50
176
     1
290
     0
176
     1
 90
       50
176
     1
 62
   256
176
     0
 40
1.0
176
     0
 90
        2
176
     1
  1
strokes_ogs.tif
176
     1
290
     0
176
     1
 40
1.0
176
     1
 40
1.0
176
     1
  0
VISUALSTYLE
  5
182
102
{ACAD_REACTORS
330
99
102
}
330
99
100
AcDbVisualStyle
  2
Shaded
 70
    27
177
     3
291
     0
 70
    58
 90
        2
176
     1
 90
        2
176
     1
 90
        1
176
     1
 90
        2
176
     1
 40
0.6
176
     1
 40
30.0
176
     1
 62
     7
420
 16777215
176
     1
 90
        0
176
     1
 90
        4
176
     1
 62
     7
176
     1
 62
   257
176
     1
 90
        1
176
     1
 90
        1
176
     1
 40
1.0
176
     1
 90
        8
176
     1
 62
   257
176
     1
 40
1.0
176
     1
 90
        1
176
     1
 90
        6
176
     1
 90
        2
176
     1
 62
     8
420
  7895160
176
     1
 90
        3
176
     1
 90
        0
176
     1
 90
        0
176
     1
290
     0
176
     1
 90
        5
176
     1
 40
0.0
176
     1
 90
        0
176
     1
290
     0
176
     1
290
     1
176
     1
290
     1
176
     1
290
     0
176
     1
290
     0
176
     1
290
     0
176
     1
290
     0
176
     1
290
     0
176
     1
290
     0
176
     1
 90
       50
176
     1
 40
0.0
176
     1
 40
1.0
176
     1
 90
        0
176
     1
 62
    18
420
        0
176
     1
 90
       50
176
     1
 90
        3
176
     1
 62
     5
420
      255
176
     1
290
     0
176
     1
 90
       50
176
     1
 90
       50
176
     1
 90
       50
176
     1
290
     0
176
     1
 90
       50
176
     1
 62
   256
176
     0
 40
1.0
176
     0
 90
        2
176
     1
  1
strokes_ogs.tif
176
     1
290
     0
176
     1
 40
1.0
176
     1
 40
1.0
176
     1
  0
VISUALSTYLE
  5
181
102
{ACAD_REACTORS
330
99
102
}
330
99
100
AcDbVisualStyle
  2
Shaded with edges
 70
    26
177
     3
291
     0
 70
    58
 90
        2
176
     1
 90
        2
176
     1
 90
        1
176
     1
 90
        2
176
     1
 40
0.6
176
     1
 40
30.0
176
     1
 62
     7
420
 16777215
176
     1
 90
        1
176
     1
 90
        2
176
     1
 62
     7
176
     1
 62
   257
176
     1
 90
        2
176
     1
 90
        1
176
     1
 40
1.0
176
     1
 90
        8
176
     1
 62
   257
176
     1
 40
1.0
176
     1
 90
        1
176
     1
 90
        6
176
     1
 90
        2
176
     1
 62
     7
176
     1
 90
        3
176
     1
 90
        0
176
     1
 90
        0
176
     1
290
     0
176
     1
 90
        5
176
     1
 40
0.0
176
     1
 90
        0
176
     1
290
     0
176
     1
290
     1
176
     1
290
     1
176
     1
290
     0
176
     1
290
     0
176
     1
290
     0
176
     1
290
     0
176
     1
290
     0
176
     1
290
     0
176
     1
 90
       50
176
     1
 40
0.0
176
     1
 40
1.0
176
     1
 90
        0
176
     1
 62
    18
420
        0
176
     1
 90
       50
176
     1
 90
        3
176
     1
 62
     5
420
      255
176
     1
290
     0
176
     1
 90
       50
176
     1
 90
       50
176
     1
 90
       50
176
     1
290
     0
176
     1
 90
       50
176
     1
 62
   256
176
     0
 40
1.0
176
     0
 90
        2
176
     1
  1
strokes_ogs.tif
176
     1
290
     0
176
     1
 40
1.0
176
     1
 40
1.0
176
     1
  0
VISUALSTYLE
  5
17E
102
{ACAD_REACTORS
330
99
102
}
330
99
100
AcDbVisualStyle
  2
Shades of Gray
 70
    23
177
     3
291
     0
 70
    58
 90
        2
176
     1
 90
        2
176
     1
 90
        3
176
     1
 90
        0
176
     1
 40
0.6
176
     1
 40
30.0
176
     1
 62
     7
420
 16777215
176
     1
 90
        2
176
     1
 90
        2
176
     1
 62
     7
176
     1
 62
     7
176
     1
 90
        1
176
     1
 90
        1
176
     1
 40
40.0
176
     1
 90
        8
176
     1
 62
     7
176
     1
 40
1.0
176
     1
 90
        1
176
     1
 90
        6
176
     1
 90
        2
176
     1
 62
     7
176
     1
 90
        3
176
     1
 90
        0
176
     1
 90
        0
176
     1
290
     0
176
     1
 90
        1
176
     1
 40
0.0
176
     1
 90
        0
176
     1
290
     0
176
     1
290
     1
176
     1
290
     1
176
     1
290
     0
176
     1
290
     0
176
     1
290
     0
176
     1
290
     0
176
     1
290
     0
176
     1
290
     0
176
     1
 90
       50
176
     1
 40
0.0
176
     1
 40
1.0
176
     1
 90
        0
176
     1
 62
    18
420
        0
176
     1
 90
       50
176
     1
 90
        3
176
     1
 62
     5
420
      255
176
     1
290
     0
176
     1
 90
       50
176
     1
 90
       50
176
     1
 90
       50
176
     1
290
     0
176
     1
 90
       50
176
     1
 62
   256
176
     0
 40
1.0
176
     0
 90
        2
176
     1
  1
strokes_ogs.tif
176
     1
290
     0
176
     1
 40
1.0
176
     1
 40
1.0
176
     1
  0
VISUALSTYLE
  5
17F
102
{ACAD_REACTORS
330
99
102
}
330
99
100
AcDbVisualStyle
  2
Sketchy
 70
    24
177
     3
291
     0
 70
    58
 90
        1
176
     1
 90
        2
176
     1
 90
        2
176
     1
 90
        0
176
     1
 40
0.6
176
     1
 40
30.0
176
     1
 62
     7
420
 16777215
176
     1
 90
        2
176
     1
 90
        2
176
     1
 62
     7
176
     1
 62
     7
176
     1
 90
        1
176
     1
 90
        1
176
     1
 40
40.0
176
     1
 90
       11
176
     1
 62
     7
176
     1
 40
1.0
176
     1
 90
        1
176
     1
 90
        6
176
     1
 90
        2
176
     1
 62
     7
176
     1
 90
        6
176
     1
 90
        0
176
     1
 90
        0
176
     1
290
     0
176
     1
 90
        1
176
     1
 40
0.0
176
     1
 90
        0
176
     1
290
     0
176
     1
290
     1
176
     1
290
     1
176
     1
290
     0
176
     1
290
     0
176
     1
290
     0
176
     1
290
     0
176
     1
290
     0
176
     1
290
     0
176
     1
 90
       50
176
     1
 40
0.0
176
     1
 40
1.0
176
     1
 90
        0
176
     1
 62
    18
420
        0
176
     1
 90
       50
176
     1
 90
        3
176
     1
 62
     5
420
      255
176
     1
290
     0
176
     1
 90
       50
176
     1
 90
       50
176
     1
 90
       50
176
     1
290
     0
176
     1
 90
       50
176
     1
 62
   256
176
     0
 40
1.0
176
     0
 90
        2
176
     1
  1
strokes_ogs.tif
176
     1
290
     0
176
     1
 40
1.0
176
     1
 40
1.0
176
     1
  0
VISUALSTYLE
  5
A6
102
{ACAD_REACTORS
330
99
102
}
330
99
100
AcDbVisualStyle
  2
Thicken
 70
    13
177
     3
291
     1
 70
    58
 90
        2
176
     1
 90
        2
176
     1
 90
        1
176
     1
 90
        0
176
     1
 40
0.6
176
     1
 40
30.0
176
     1
 62
     7
420
 16777215
176
     1
 90
        1
176
     1
 90
        4
176
     1
 62
     7
176
     1
 62
   257
176
     1
 90
        1
176
     1
 90
        1
176
     1
 40
1.0
176
     1
 90
       12
176
     1
 62
     7
176
     1
 40
1.0
176
     1
 90
        1
176
     1
 90
        6
176
     1
 90
        2
176
     1
 62
     7
176
     1
 90
        5
176
     1
 90
        0
176
     1
 90
        0
176
     1
290
     0
176
     1
 90
        1
176
     1
 40
0.0
176
     1
 90
        0
176
     1
290
     0
176
     1
290
     1
176
     1
290
     1
176
     1
290
     0
176
     1
290
     0
176
     1
290
     0
176
     1
290
     0
176
     1
290
     0
176
     1
290
     0
176
     1
 90
       50
176
     1
 40
0.0
176
     1
 40
1.0
176
     1
 90
        0
176
     1
 62
    18
420
        0
176
     1
 90
       50
176
     1
 90
        3
176
     1
 62
     5
420
      255
176
     1
290
     0
176
     1
 90
       50
176
     1
 90
       50
176
     1
 90
       50
176
     1
290
     0
176
     1
 90
       50
176
     1
 62
   256
176
     0
 40
1.0
176
     0
 90
        2
176
     1
  1
strokes_ogs.tif
176
     1
290
     0
176
     1
 40
1.0
176
     1
 40
1.0
176
     1
  0
VISUALSTYLE
  5
A0
102
{ACAD_REACTORS
330
99
102
}
330
99
100
AcDbVisualStyle
  2
Wireframe
 70
     5
177
     3
291
     0
 70
    58
 90
        0
176
     1
 90
        2
176
     1
 90
        0
176
     1
 90
        0
176
     1
 40
0.6
176
     1
 40
30.0
176
     1
 62
     7
420
 16777215
176
     1
 90
        1
176
     1
 90
        4
176
     1
 62
     7
176
     1
 62
   257
176
     1
 90
        1
176
     1
 90
        1
176
     1
 40
1.0
176
     1
 90
        0
176
     1
 62
   257
176
     1
 40
1.0
176
     1
 90
        1
176
     1
 90
        6
176
     1
 90
        2
176
     1
 62
     7
176
     1
 90
        3
176
     1
 90
        0
176
     1
 90
        0
176
     1
290
     0
176
     1
 90
        1
176
     1
 40
0.0
176
     1
 90
        0
176
     1
290
     0
176
     1
290
     1
176
     1
290
     1
176
     1
290
     0
176
     1
290
     0
176
     1
290
     0
176
     1
290
     0
176
     1
290
     0
176
     1
290
     0
176
     1
 90
       50
176
     1
 40
0.0
176
     1
 40
1.0
176
     1
 90
        0
176
     1
 62
    18
420
        0
176
     1
 90
       50
176
     1
 90
        3
176
     1
 62
     5
420
      255
176
     1
290
     0
176
     1
 90
       50
176
     1
 90
       50
176
     1
 90
       50
176
     1
290
     0
176
     1
 90
       50
176
     1
 62
   256
176
     0
 40
1.0
176
     0
 90
        2
176
     1
  1
strokes_ogs.tif
176
     1
290
     0
176
     1
 40
1.0
176
     1
 40
1.0
176
     1
  0
VISUALSTYLE
  5
180
102
{ACAD_REACTORS
330
99
102
}
330
99
100
AcDbVisualStyle
  2
X-Ray
 70
    25
177
     3
291
     0
 70
    58
 90
        2
176
     1
 90
        2
176
     1
 90
        1
176
     1
 90
        1
176
     1
 40
0.5
176
     1
 40
30.0
176
     1
 62
     7
420
 16777215
176
     1
 90
        1
176
     1
 90
        0
176
     1
 62
     7
176
     1
 62
   257
176
     1
 90
        1
176
     1
 90
        1
176
     1
 40
1.0
176
     1
 90
        8
176
     1
 62
     7
176
     1
 40
1.0
176
     1
 90
        1
176
     1
 90
        6
176
     1
 90
        2
176
     1
 62
     7
176
     1
 90
        3
176
     1
 90
        0
176
     1
 90
        0
176
     1
290
     0
176
     1
 90
       13
176
     1
 40
0.0
176
     1
 90
        0
176
     1
290
     0
176
     1
290
     1
176
     1
290
     1
176
     1
290
     0
176
     1
290
     0
176
     1
290
     0
176
     1
290
     0
176
     1
290
     0
176
     1
290
     0
176
     1
 90
       50
176
     1
 40
0.0
176
     1
 40
1.0
176
     1
 90
        0
176
     1
 62
    18
420
        0
176
     1
 90
       50
176
     1
 90
        3
176
     1
 62
     5
420
      255
176
     1
290
     0
176
     1
 90
       50
176
     1
 90
       50
176
     1
 90
       50
176
     1
290
     0
176
     1
 90
       50
176
     1
 62
   256
176
     0
 40
1.0
176
     0
 90
        2
176
     1
  1
strokes_ogs.tif
176
     1
290
     0
176
     1
 40
1.0
176
     1
 40
1.0
176
     1
  0
DICTIONARYVAR
  5
4A0D6
102
{ACAD_REACTORS
330
4A0D5
102
}
330
4A0D5
100
DictionaryVariables
280
     0
  1
2
  0
DICTIONARYVAR
  5
4A0D7
102
{ACAD_REACTORS
330
4A0D5
102
}
330
4A0D5
100
DictionaryVariables
280
     0
  1
400.000000
  0
DICTIONARYVAR
  5
4A0D8
102
{ACAD_REACTORS
330
4A0D5
102
}
330
4A0D5
100
DictionaryVariables
280
     0
  1
1
  0
DICTIONARYVAR
  5
4A0D9
102
{ACAD_REACTORS
330
4A0D5
102
}
330
4A0D5
100
DictionaryVariables
280
     0
  1
1:1
  0
DICTIONARYVAR
  5
4A0DA
102
{ACAD_REACTORS
330
4A0D5
102
}
330
4A0D5
100
DictionaryVariables
280
     0
  1
STANDARD
  0
DICTIONARYVAR
  5
4A0DB
102
{ACAD_REACTORS
330
4A0D5
102
}
330
4A0D5
100
DictionaryVariables
280
     0
  1
STANDARD
  0
DICTIONARYVAR
  5
4A0DC
102
{ACAD_REACTORS
330
4A0D5
102
}
330
4A0D5
100
DictionaryVariables
280
     0
  1
Imperial24
  0
DICTIONARYVAR
  5
4A0DD
102
{ACAD_REACTORS
330
4A0D5
102
}
330
4A0D5
100
DictionaryVariables
280
     0
  1
Imperial24
  0
DICTIONARYVAR
  5
4A0DE
102
{ACAD_REACTORS
330
4A0D5
102
}
330
4A0D5
100
DictionaryVariables
280
     0
  1
-1
  0
DICTIONARYVAR
  5
4A0DF
102
{ACAD_REACTORS
330
4A0D5
102
}
330
4A0D5
100
DictionaryVariables
280
     0
  1
1
  0
DICTIONARYVAR
  5
4A0E0
102
{ACAD_REACTORS
330
4A0D5
102
}
330
4A0D5
100
DictionaryVariables
280
     0
  1
2
  0
DICTIONARYVAR
  5
4A0E1
102
{ACAD_REACTORS
330
4A0D5
102
}
330
4A0D5
100
DictionaryVariables
280
     0
  1
0
  0
DICTIONARYVAR
  5
4A0E2
102
{ACAD_REACTORS
330
4A0D5
102
}
330
4A0D5
100
DictionaryVariables
280
     0
  1
4
  0
DICTIONARYVAR
  5
4A0E3
102
{ACAD_REACTORS
330
4A0D5
102
}
330
4A0D5
100
DictionaryVariables
280
     0
  1
V-Construction
  0
DICTIONARYVAR
  5
4A0E4
102
{ACAD_REACTORS
330
4A0D5
102
}
330
4A0D5
100
DictionaryVariables
280
     0
  1
ByLayer
  0
DICTIONARYVAR
  5
4A0E5
102
{ACAD_REACTORS
330
4A0D5
102
}
330
4A0D5
100
DictionaryVariables
280
     0
  1
0
  0
DICTIONARYVAR
  5
4A0E6
102
{ACAD_REACTORS
330
4A0D5
102
}
330
4A0D5
100
DictionaryVariables
280
     0
  1
0
  0
DICTIONARYVAR
  5
4A0E7
102
{ACAD_REACTORS
330
4A0D5
102
}
330
4A0D5
100
DictionaryVariables
280
     0
  1
0
  0
DICTIONARYVAR
  5
4A0E8
102
{ACAD_REACTORS
330
4A0D5
102
}
330
4A0D5
100
DictionaryVariables
280
     0
  1
2
  0
DICTIONARYVAR
  5
4A0E9
102
{ACAD_REACTORS
330
4A0D5
102
}
330
4A0D5
100
DictionaryVariables
280
     0
  1
1.000000
  0
DICTIONARYVAR
  5
4A0EA
102
{ACAD_REACTORS
330
4A0D5
102
}
330
4A0D5
100
DictionaryVariables
280
     0
  1
1
  0
DICTIONARYVAR
  5
4A0EB
102
{ACAD_REACTORS
330
4A0D5
102
}
330
4A0D5
100
DictionaryVariables
280
     0
  1
1.000000
  0
DICTIONARYVAR
  5
4A0EC
102
{ACAD_REACTORS
330
4A0D5
102
}
330
4A0D5
100
DictionaryVariables
280
     0
  1
1
  0
DICTIONARYVAR
  5
4A0ED
102
{ACAD_REACTORS
330
4A0D5
102
}
330
4A0D5
100
DictionaryVariables
280
     0
  1
0
  0
DICTIONARYVAR
  5
4A0EE
102
{ACAD_REACTORS
330
4A0D5
102
}
330
4A0D5
100
DictionaryVariables
280
     0
  1

  0
DICTIONARYVAR
  5
4A0EF
102
{ACAD_REACTORS
330
4A0D5
102
}
330
4A0D5
100
DictionaryVariables
280
     0
  1
0
  0
DICTIONARYVAR
  5
4A0F0
102
{ACAD_REACTORS
330
4A0D5
102
}
330
4A0D5
100
DictionaryVariables
280
     0
  1
127
  0
DICTIONARY
  5
194
330
22
100
AcDbDictionary
280
     1
281
     1
  0
DICTIONARY
  5
188
330
97
100
AcDbDictionary
280
     1
281
     1
  3
FBXASSET
360
189
  0
DICTIONARY
  5
186
330
96
100
AcDbDictionary
280
     1
281
     1
  3
FBXASSET
360
187
  0
DICTIONARY
  5
110
330
98
100
AcDbDictionary
280
     1
281
     1
  3
BUMPTILE
360
112
  3
DIFFUSETILE
360
111
  3
FBXASSET
360
18A
  3
OPACITYTILE
360
113
  3
REFLECTIONTILE
360
114
  0
DICTIONARY
  5
104
330
87
100
AcDbDictionary
280
     1
281
     1
  3
ACAD_ROUNDTRIP_2008_TABLESTYLE_CELLSTYLEMAP
360
67410
  0
XRECORD
  5
189
102
{ACAD_REACTORS
330
188
102
}
330
188
100
AcDbXrecord
280
     1
 70
     1
 90
429727718
  1
508B35C9-AEE7-456F-BE74-D52651303AC6
310
504B03040A0000080000B670623B3DEE336E79000000790000001B0000006175746F6465736B2D64657369676E2D7061636B6167652E786D6C3C3F786D6C2076657273696F6E3D22312E302220656E636F64696E673D227574662D3822203F3E3C666F726D6174733E3C666F726D61743E687474703A2F2F736368656D612E
310
6175746F6465736B2E636F6D2F64657369676E2D7061636B6167652F323030393C2F666F726D61743E3C2F666F726D6174733E504B0304140006080800B670623BD486FD9CA0000000F4000000130000005B436F6E74656E745F54797065735D2E786D6C7D8EC10E82300C865F65E91D8A1E8C310C0EEA1BF002731658846E
310
D98AC1B77784ABF1D8FE5FBFBF75BBCE937A534CCEB38643598122B6FEE978D0B0485F9C41B54DDD7D022595594E1A469170414C76A4D9A4D207E29CF43ECE46F218070CC6BECC4078ACAA135ACF422C856C0E68EA1BF5669944DDD7BCDE7B1F8E415D77AECB980613C2E4AC91FC167A2B244592486606FC29C8FD7F045B9A
310
EF7053A7E60B504B0304140006080800B670623B28ED286BEB0000007C01000008000000636F72652E786D6C8D90416EC3201045AF82665B6183218D6D61A254764FD00B204C5C94182C03558F5F9C3852BBEB6A467FFE9B197D71FA9E6FE8CBACC17AD7012D0820E3B41FAD9B3A48F1826B40272956EFE32F1B20A766D3C1
310
268314D3EAD3B24BDABB685CCCAAF3A3D94515828980F42D371D04FD696655A814B3235C8B45E9AB9A4C419F5D8653B2237A1CB163DE672FD6AC209BF3C08E0D1B30EB19C3FC9D72FCC6EB231EFA33EDE96BDD341517E5064B11EDFCBCAF57A3A2194156843498524CAA0FCA5B7268F9E185D42D21A2DCEC7FA0B48CFF8492
310
759155FBBB0F2C80A4F991FB408A72CB22977B50B96EB9C91F504B0304140006080800B670623B55019EA25F0000007C00000007000000636E782E786D6C4DCB3B0E80201045D1AD90E915ED2CF8AC45050C11660C8261F98AB1B07AC9C97D42D718D865D3E909258CFD00CCE24AC6E326A164D74DC0B4128928FF32603847
310
2BA13128B1252AC747C6BAB984FC68F0B87FE8960A5C09FE86CFB69FBA01504B0304140006080800B670623B7BC41AC871010000D40300000C0000006662782F636F72652E786D6CC553ED6E8320147D15C2DF4501B56B6D90A64BBB27D80B50A5CE54C120983EFEAE1F4DD7A56BBA5FF3879273EEE59E7310BE393735EA95
310
ED2AA333CC428A91D2B9292A5D66D8BB63B0C26823B835C67D2BC348CB46657880B1E0A535BE9DA1DC68A7B403549B42CDA0EC3AE530CA6B5864B8CB3F552343E91D5474A7B095F949962A6421D0502778E72C0840D390E18DC5F170E664C205F7BE2A66B62A605A75AC94C522DDEEE3651AEF837817C741F2CE92E02D592D
310
83FD6ECB76EC7595A651C2C9D02CB8AB9A8BBADC2AE954814544691A3016D0E883256BBA58278B17BA5A53CAC9507ED3E4DBE2C9265F691747B3DCA9ADC382819091F8E1162272A8933DE82182932144F88C09DF060D8140C84E1EEA8B8F1340BDCA9DB1093085F157AA97B557309586747CD0EF0B4EA64E983A6E0EAEEFCE
310
889E9EF17847386AA94B30211D2C0FDE0D3AF9A4610EAD5536E8DD1969631B593F67E381C33F5157F17725E5A636F6BF1491F980C8FC7B90E13E8A2F504B0304140006080800B670623B70102A487D0000009D0000000B0000006662782F636E782E786D6C4DCCD10A83201886E15B91FFDC95A5C30335ACCDFB886521330D
310
A76397BF1A1DECE883878F57749FD5A3B74D2F17830472A901D9F088930B8B849267CC01754AA418F3DF0D5018572BE160506249B16C274D761E8BCFBB7A179E27F65CB39A0F14D396184C9921B81F34C3ACA1B4B99ABB6E6F062A25AA5F69DF23ACBE504B0304140006080800B670623B3610CA3329010000120200003100
310
00006662782F42384135303843342D343331462D343546312D424341352D3532343432364645413344462F636F72652E786D6C8D515B6EC32010BC0AE22B55850D0E446E848992B43E412FE000495162B07854397EA176A4F62F3F2C9A9D991D58BEBB8F37F0AD7D30CE76905418026DA553C65E3A98E219B510EC04F7CEC5
310
3F3408EC30EA0E16180A7EF12E4D0B249D8DDAC68C5AA7F4020E21E80881BCE54B0783FCD2E3500D296646B856D320AFC34557A4CAEDCC133C449F0380794839A138B47B86DB2345744D7A44594FD0E1B867883594369BFE63BF7EEF793D0B054FC9A8456E548E63CE46FB674D8A58F068C6477CE9F510B582A2C1F80D1182
310
70F349E816B32D65AFB8DD62CCEB42FF274A937A52948C8DEB66893BCB021484D7734370E5D2E9F608A3EF93F3119479ABA0E50B14B8C298119A43CCC4FCFCECB8A18B6388CEE7EF5D5D4F994BD86CBBA182D76543B9FCAE2FD7B24DF103504B0304140006080800B670623B1B8617914E0100003303000030000000666278
310
2F42384135303843342D343331462D343546312D424341352D3532343432364645413344462F636E782E786D6CD593C16EC32010447F0571AD6CE3D489D20813A9877E410FBD62D82434182CC055F3F75D1292E692438FBD206B7698593D61BEFD1E2DF982108D773D6D6B460938E5B571FB9ECE6957AD29D90A1EBC4F7736
310
4A9C1CA1A759A682EF839FA72269D8C9D92654AD71C72206887E0E0A22CAF926B15E498B01E0AA19451807D01A34B919F16B070157417138917400F2F6FA41FCF0092A45DEE414C19BDC21783E4BD39D891265658C3D8DEA00A3ACE59CBC8678ACB54CB26EEB6BD7839D7E9348BE70AD9C8321B9BCA7F9A4A26C542347DEE0
310
50F09802D22BA6749A800A394DD62899107273365E3C82CFC6A55557BC06C10774B7ABE7AEC3B0F34CF06446280E154026D0542C187BA9DAB6628BF7B6DBB0E5A65B3EB1F58631DE64BBE083F7B65CC218087E22CABB042E51D1F2268F1FE12B3EA24D40D63E9CFE00120194D60B9D5BC67FE6D39CDF37E20AF817881F504B
310
0304140006080800B670623BBFEF2E3B690500003C100000340000006662782F42384135303843342D343331462D343546312D424341352D3532343432364645413344462F6F626A656374732E786D6CAD575D739B3814FD2B0CFB0C98D84E931D4227B6938EA793B6534F3BFB90198F0099B001899144EAECAFDF231018B0
310
D37A3FFC609090EEE7B94757C1FB7D915B2F54C88CB31BDB7727B64559CC938CA53776A576CE956DBD0F03C1B9EA2DB32D460A7A63EB693B0C52C1ABD24C257447AA5C8D66EF177F5832A68CDA569C13296F6C193FD182B8A4523CA1F2D94D88226EBADBBBBEDB2C1C8A4D05299F46424B222853B014F30C52ACC6287F389C
310
D85E1878FA7B18E87FB36AFAF62AAFF667A83F635211161F291B8999FAB3D5DDC5FCDA99CF6653677679E13B8BFBC5CAF1DF4D27CBCBE5F2FAF6EE1A8AA51290642C117467871F101B91C581D77CEA2C36869F3229E68CD1B8F61F1ED6361B89092D294B90C78C4A68EB793D190E7D1D9BDEE7A91E1B95FDE9F3BCEAEFE809
310
6A6D6F9F7D4B79F4275C90E7A04248AA51D5C4C738DAE06F72885AC4796EBE65D22A88A22223B995679120E2D50EB1542F098381188D4EA111AE3DB043FF20AF6F2B4AE3D7D83D65E5AECA730D4D3BAC91BD05FEA992B565D95F549CD6069B90AB2A63EACA38A45E4B6A87D781574F86817E4C2FCCC72690D62E2729520E37
310
9BAF234797BAF6D62B3BFC781FED37BA1E4F2B2F052FA9501A3E80569BB8F6A9A364D4FA67654E6F803383981F82F21591FF84F23D9882BC896C3FDBCF8C162508933B2E0AE4C69DD43F6BD2BE38DDDBF10BF86CB4FA784D37F3AF16075E67EC9030DECA1FC0A55373F5DFF3378C591FA9BDF485C10B0A8C8BA909E5262639
310
A8E72163488806A595734C81CB77D1DE0ED7604A303B76913CEC0272F412782FF88EFF4636D8AA56DF7B322474C4B767303F625997056C7B032C473C592B36CEBD15F3F9FF5233B7ABCDC74D257624A60F8658567497B14CE1EC3C80B76FD02011038F9EE9EB0F2E12387A9C844D3F09855125116D1D731DF8B43D2CF4E0A0
310
79A020C6BE946BCE0B7EA1E1219331CD73C228AF5A2DDD31A4B1DA918CE91350854D40A71723140BFA92E94E62B0626016CEFA5864A50E5977E8753CEDBEE1CBB7F52780D20E17AF0BA0F5F9B02A3AD07DCC732EB6D1EBB661421BE0C39E21BABF0FE16D22EA6929407C8DE596724C88B749B6DB5512BC7B228ADFD7CB7EA6
310
3A22397E690BA8D5D8D4E40CEC8CDA23C2C0B7D5898640101CEC9C6D331CE328CB93CAFBBAC70A642DF70DF95155945B52F08AA973C23469FD69ADEF84F7BB18F983A8F8C90E37F5D35980B2139A1C523540813E824EF83448CF7C72B598CE97D7CEEDDDDD3B6736BFBC771677EF66CE6A7E7139F7A793E9EDF2B2B3A8B624
310
0CDA13AA5F8388264EC4A0129909F3B7F5A16CEDF08128E97D680ACA4B9BE7B7B58BB638F0B00700EF36AE8B32A705658A68F83EE897FC2B41573190D1CCAF0B92D233A47CFEB019D9809933F67DD1A5467F8CF69AD9A5AE859342D45355448C64F968A371DC2D596ADC6E43D93D1B466F877A64E2893E54F23C4B40388995
310
525E5005DA3983ED45412510D3EFCA13737B3863F74BD30F2A12E5B4B5E489A025CE25500DB855B11ACE5BBFA185D35DD48D8DC3CE7DC69F2944DB42AA6F6CF09BCA622ADD08C7A36E7C6AE18000BAB08E040135C2D21C9D75B3A91B77BB746C403F38018DFE6EC939DD92F16B40BC05294B9CDA035AAD6D330AE27FE4786B
310
8E45145EA34A75BE1C263A676A35A8ACC6297337400BF16C54EF515F3F77CB77EB3583889C754FFA29081AA98E2222ADEF05DA3E63D2EDEA8B8756C05A7FB6CABC4A91CBF325398202CC952E70A008A830324BA200D5E5EF8F5F04C75DB4B0EE3340E071C98B823333B83577596BF3849B69F2085AA0FAFA212F26BEFF5877
310
FDE622B28D88A42E49E43326DA82D31E8CB006401E1DA726059ECEC168F97A6599036306A135688F9AD2E61A6EA178F4CD51974A9F2CCB9F36FE5EBD14601068D9C3BF01504B0304140006080000B670623B000000000000000000000000350000006662782F42384135303843342D343331462D343546312D424341352D35
310
32343432364645413344462F76657274696365732E62696E504B0304140006080800B670623BF270F1330600000004000000360000006662782F42384135303843342D343331462D343546312D424341352D3532343432364645413344462F747269616E676C65732E62696E636660600000504B0304140006080000B67062
310
3B000000000000000000000000370000006662782F42384135303843342D343331462D343546312D424341352D3532343432364645413344462F617474726962757465732E62696E504B0304140006080800B670623B08DA0BD19000000041010000360000006662782F42384135303843342D343331462D343546312D4243
310
41352D3532343432364645413344462F6469726563746F72792E786D6C858F410AC3201045AF22B36F53E9A60B35CBEEBAE80D244E44489C6234F4F835464A48035D0DF398FF9F8AF63D0E6CC63039F212F8F9020C7D47C6792B21C5FE7403D62A1188E2E60C98D7234A5830286103A55745067B9D86B8A3CF9C7F90C11DE6
310
07FB144396D7B6A82D282E9A152AD114D5EF2CB866EEE831B8EEA07A7BB5A8D7D61A2BAAEB7FD5F70921FF497D00504B0304140006080800B670623B3B4606F3FE000000A00100003B0000006662782F42384135303843342D343331462D343546312D424341352D3532343432364645413344462F7265736F75726365732F
310
636F72652E786D6C8D504B6E833010BD0A9A6D65B08134808CA354A427E8052C332156828DFCA97AFC9A40A576D7CDCCE87D344F8F9FBEE647F689CE6B6B7A6039850C8DB2A336530F315C4903D94970676DF82583CCC8197B5861107C72362E3BA4AC096842428D1D7107A5F71820538F74F4E0D50D6799CB1892C2DFF345
310
AABB9C306779A2934E701F5C0A906D4FD609C2A1B7D129F4BCD858C163D4E3AED163FAA9AF1A1D88F67CA98E6D35906AA82A52BFB39ABCD5CD915C86331BD86BD3B665CD8BD52C78D0F34F46E550061C419494B6843142CB0F5677F4D0D58717DA7494F26295FF31C565FCA7296A13AA728FBBD93C0896823C09C18BB5AFB4
310
9E65A6BD762BBE01504B010214000A0000080000B670623B3DEE336E79000000790000001B00000000000000000000000000000000006175746F6465736B2D64657369676E2D7061636B6167652E786D6C504B01021400140006080800B670623BD486FD9CA0000000F40000001300000000000000000000000000B2000000
310
5B436F6E74656E745F54797065735D2E786D6C504B01021400140006080800B670623B28ED286BEB0000007C010000080000000000000000000000000083010000636F72652E786D6C504B01021400140006080800B670623B55019EA25F0000007C000000070000000000000000000000000094020000636E782E786D6C50
310
4B01021400140006080800B670623B7BC41AC871010000D40300000C00000000000000000000000000180300006662782F636F72652E786D6C504B01021400140006080800B670623B70102A487D0000009D0000000B00000000000000000000000000B30400006662782F636E782E786D6C504B01021400140006080800B6
310
70623B3610CA3329010000120200003100000000000000000000000000590500006662782F42384135303843342D343331462D343546312D424341352D3532343432364645413344462F636F72652E786D6C504B01021400140006080800B670623B1B8617914E010000330300003000000000000000000000000000D10600
310
006662782F42384135303843342D343331462D343546312D424341352D3532343432364645413344462F636E782E786D6C504B01021400140006080800B670623BBFEF2E3B690500003C10000034000000000000000000000000006D0800006662782F42384135303843342D343331462D343546312D424341352D35323434
310
32364645413344462F6F626A656374732E786D6C504B01021400140006080000B670623B0000000000000000000000003500000000000000000000000000280E00006662782F42384135303843342D343331462D343546312D424341352D3532343432364645413344462F76657274696365732E62696E504B010214001400
310
06080800B670623BF270F133060000000400000036000000000000000000000000007B0E00006662782F42384135303843342D343331462D343546312D424341352D3532343432364645413344462F747269616E676C65732E62696E504B01021400140006080000B670623B00000000000000000000000037000000000000
310
00000000000000D50E00006662782F42384135303843342D343331462D343546312D424341352D3532343432364645413344462F617474726962757465732E62696E504B01021400140006080800B670623B08DA0BD1900000004101000036000000000000000000000000002A0F00006662782F42384135303843342D3433
310
31462D343546312D424341352D3532343432364645413344462F6469726563746F72792E786D6C504B01021400140006080800B670623B3B4606F3FE000000A00100003B000000000000000000000000000E1000006662782F42384135303843342D343331462D343546312D424341352D3532343432364645413344462F72
310
65736F75726365732F636F72652E786D6C504B0506000000000E000E0080040000651100000000
  0
XRECORD
  5
187
102
{ACAD_REACTORS
330
186
102
}
330
186
100
AcDbXrecord
280
     1
 70
     1
 90
429727718
  1
887D55A9-D0DD-414E-B741-A7DCD4DA2B4C
310
504B03040A0000080000B670623B3DEE336E79000000790000001B0000006175746F6465736B2D64657369676E2D7061636B6167652E786D6C3C3F786D6C2076657273696F6E3D22312E302220656E636F64696E673D227574662D3822203F3E3C666F726D6174733E3C666F726D61743E687474703A2F2F736368656D612E
310
6175746F6465736B2E636F6D2F64657369676E2D7061636B6167652F323030393C2F666F726D61743E3C2F666F726D6174733E504B0304140006080800B670623BD486FD9CA0000000F4000000130000005B436F6E74656E745F54797065735D2E786D6C7D8EC10E82300C865F65E91D8A1E8C310C0EEA1BF002731658846E
310
D98AC1B77784ABF1D8FE5FBFBF75BBCE937A534CCEB38643598122B6FEE978D0B0485F9C41B54DDD7D022595594E1A469170414C76A4D9A4D207E29CF43ECE46F218070CC6BECC4078ACAA135ACF422C856C0E68EA1BF5669944DDD7BCDE7B1F8E415D77AECB980613C2E4AC91FC167A2B244592486606FC29C8FD7F045B9A
310
EF7053A7E60B504B0304140006080800B670623BBC1638F5EC0000007C01000008000000636F72652E786D6C8D90416EC3201045AF82665B61836BE2D8C24471DB9CA01740401C94182C03558F5F9C3852BBEB6A467FFE9B197D7EF89E6EE8CB2CC17AD7032D0820E394D7D68D3DA478C67B4007C117EFE32F1B202727D3C3
310
2A83E0E3E2D3BC49CABB685CCCAAF3DA6CA20CC14440EA969B1E82BA98491632C5EC08D76296EA2A4753D06797E194AC468F2356E77DF66CCD02825543D50CACC62D39ED70FDC68EB8FD68F6F8787A6784342D1DDA1D2F5758F068A7E77DB518198D065111D2624A31A93E69DD11D6D5EC85EC3B4278B9DAFF4069D6FF8492
310
75F1B5DADE7D600104CD8FDC0782976B16B9DC83CA75CD4DFC00504B0304140006080800B670623B55019EA25F0000007C00000007000000636E782E786D6C4DCB3B0E80201045D1AD90E915ED2CF8AC45050C11660C8261F98AB1B07AC9C97D42D718D865D3E909258CFD00CCE24AC6E326A164D74DC0B4128928FF326038
310
472BA13128B1252AC747C6BAB984FC68F0B87FE8960A5C09FE86CFB69FBA01504B0304140006080800B670623B3586FFB671010000D40300000C0000006662782F636F72652E786D6CC553ED6E8320147D15C2DF4541A76D6D90A6DDD627D80B50A4CE54C120983EFEAE1F4DD7A55BBA5FF3879273EEE59E7310B6393735EA
310
95ED2AA3731C851423A5A5292A5DE6D8BB63B0C268C39935C67D29C3488B46E578803167A535BE9D2169B453DA01AA4DA16650749D7218C91A1639EEE4876A4428BC838AEE14B6429E44A9C228041AEA38EB9C0501681A32BC313F1ECE8C4C3867DE57C5CC56054CAB8E95B298A7F12E5EEED224C8E87E11242FE936C8DE96
310
AB60BB7F4D295D66D12E5B30323473E6AAE6A24E5A259C2A308F29CD82280A68FC1E256B9AAE93F489AED694323294DF34F9B678B0C957DA3DC7B3DCA9ADC33C022123F1CD2D44E450277AD04338234388F01913BE0D1A0281909D38D4171F27807A259DB1093085F157AA17B557309586747CD0CF0B46A64E983A6E0EAEEF
310
CE881F9EF1FB8E70D44297604238581EBC1B74B249C31C5AAB6CD0BB33D2C636A27ECCC62F0EFF445DC5DF95244D6DEC7F2922F30191F9F720C37DE49F504B0304140006080800B670623B4220A0FF7D0000009D0000000B0000006662782F636E782E786D6C4DCCD10A83201886E15B91FFDCE542CB0335D0EC3E6259C84A
310
C3E9D8E5AF46073BFAE0E1E315DD675BD1DBA5978F41C2FD4600B9F088930F8B849267CC01754AA418F3DF0D50183727E164506249B1EC174D6E1ECB9A0F5D7D785E68DB8151CD286E5A5363CA6B8A39E90D36D40E96B086F55A43A544F52B1D7B86D517504B0304140006080800B670623B2FA3FEDE290100001202000031
310
0000006662782F45374635344235342D363743322D343832342D383044432D4334454645303536354442422F636F72652E786D6C8D515B6EC32010BC0AE22B55850D2E386E848994D7097A0117488A1283C5A3CAF10BB523B57FF961D1ECCCECC0F2ED7DBC816FED8371B687A4C210682B9D32F6D2C314CFA883602BB8772E
310
FEA141608751F7B0C050F08B77695A20E96CD43666D43AA5177008414708E42D5F7A18E4971E876A483133C2B59A06791D2EBA22556E679EE021FA1C00CC43CA09C5717D6274C7286AD7FB06D1AEA1A8C3873DDAD3E3E98859CB0EBB1DAF67A1E02919B5C88DCA71CCD968FFAC49110B1ECDF8882FBD1EA256503418BF2342
310
106E3E08DD60B6A1EC15771B8C795DE8FF4469524F8A92B1F1AD59E2CEB20005E1F5DC105CB9F4797B84D1F7C9F908CABC55D0F2050A5C61CC1AD2F27A26E6E767C7962E8E213A9FBF7775FDCC5CC266DB960A5E970DE5F2BBBE5CCB36C50F504B0304140006080800B670623B1B8617914E01000033030000300000006662
310
782F45374635344235342D363743322D343832342D383044432D4334454645303536354442422F636E782E786D6CD593C16EC32010447F0571AD6CE3D489D20813A9877E410FBD62D82434182CC055F3F75D1292E692438FBD206B7698593D61BEFD1E2DF982108D773D6D6B460938E5B571FB9ECE6957AD29D90A1EBC4F77
310
364A9C1CA1A759A682EF839FA72269D8C9D92654AD71C72206887E0E0A22CAF926B15E498B01E0AA19451807D01A34B919F16B070157417138917400F2F6FA41FCF0092A45DEE414C19BDC21783E4BD39D891265658C3D8DEA00A3ACE59CBC8678ACB54CB26EEB6BD7839D7E9348BE70AD9C8321B9BCA7F9A4A26C542347DE
310
E050F09802D22BA6749A800A394DD62899107273365E3C82CFC6A55557BC06C10774B7ABE7AEC3B0F34CF06446280E154026D0542C187BA9DAB6628BF7B6DBB0E5A65B3EB1F58631DE64BBE083F7B65CC218087E22CABB042E51D1F2268F1FE12B3EA24D40D63E9CFE00120194D60B9D5BC67FE6D39CDF37E20AF817881F50
310
4B0304140006080800B670623B29652116630500003C100000340000006662782F45374635344235342D363743322D343832342D383044432D4334454645303536354442422F6F626A656374732E786D6CAD575D739B3814FD2B0CFB0C989834C90EA1639B24E3E9A6EDD4D3CE3E64C623834CD8006224913AFDF57B040203
310
B65BEF871F0C12D2FD3CF7E8CA7FBFCB33E3957291B2E2D674ED8969D02262715A24B76625B7D6B569BC0F7CCE98EC2D338D82E4F4D654D366E0279C55A59E8AE99654991CCDDECFFF3444440B6A1A514684B83545F44C7362934AB2988A173B2692D8C97667BB76B3702836E1A47C1E092D09A78584A5982F20C5688C7287
310
C389E904BEA3BE07BEFAD7ABA6A75739B53F43FD69212429A20365233153D70BEF2E2E6FAC4BCF9B5ADEBB0BD79ADFCF43CBBD9A4E16EF168B9BD9DD0D140BC921495BC2E9D60C1E101B9E46BED37CEA2CD6861F3329624541A3DA7F7858DBAC25C6B4A4458C3CA654405BCFEBC970E8AAD8F43E4FD558ABEC4F9FE7557F47
310
4F506B7BFBEC5BCA367FC105710E2AB8A00A554D7CB4A30DFE26FBA86D18CBF4B75418399194A72433B274C3097F33032C554B027F2046A1932B842B0FCCC0DDCBEBDB8AD2F835768F59B9ADB24C41D30C6A64AF817F2A456D59FA83F2E3DA60137255A585BCD60EC9B7929AC18DEFD49381AF1ED30BFDB109A4B1CD488294
310
C3CDE6EBC8D185AABD6568061FEE37BB95AAC7E3CA4BCE4ACAA5820FA0D526AE7DAA2869B5EE5999531BE0CC20E6FBA07C41E43FA27CF7A6206F3CDD793B4F6B919C1462CB788EDCD893FA674CDA17AB7B3B7C019F8D561FAEE966FED562DFE98C1D12C6A9FC015C2A35D7FF3D7FC398F591DA4B5FE0BFA2C0189FEA50AE22
310
92817A1ED3020951A03432862970F976B33383259812CC8E5D240BBA801CBCF8CE2BBEE3BF910DB6AAD5F79E05123AE2DB33981FB1ACCB02B69D00CB014FD68AB573A7627EF9BFD4CC2C5C7D58557C4B22FAA88925A4DBB44825CECE3D78FB060D1231F0E885BE7D673C86A3874958F593906B5502D1563157814FDAC3420D
310
F69A070A22EC4B98E23CFF171A1E5311D12C23056555ABA53B8614563B92D17D02AAB009E8F46284624E5F53D5490C560CCCC2591FF1B45421EB0EBD8EA7ED13BE7C5D7E0428CD60FEF60779EB13E6664FF711CB185F6FDED60D139A001FF60CD1FD6D086F1D51474901E26B2CB794A343BC8ED3EDB612E0DD2351FCB65CF4
310
33D511C9E14B5B40ADC6A6263DB0336A8F700DDF56271A024E70B0B3629DE21847591E55DED73D56206AB927E46FAABC5C939C55853C274C93D69FD6FA4E78BF8B11DF898C9ECD60553FAD39283BA6F18984AA23E8884F83F45C5F5F859797B31B2B9C84A1E5B9DE9D35BFF25C6B76152E422F9C5DCC3D847F5801ED09D5AF
310
41441327A25FF15487F9EB725FB666F048A4701E9A827292E6F97569A32DF61DEC01C0BB8DCBBCCC684E0B49147C1FD54BF685A0AB18C868E6973949E819523E3DAC463660E68C7D9F55A9D1EFA3BD7A76A16AE1A810F95CE59B82A4D968A376DC2E8B44BBDD86B27B368CDE0ED548C7137DA860591A83706223A12CA712B4
310
7306DBF39C0A20A6DF95C7FAF670C6EED7A61F946493D1D6926782963813403548A78AE470DEF80D2D9CEAA26E4D1C76F60BFE74219A06527D6B82DF641A51616F703CAAC6A7160E08A00BEB4810A0274592A1B36E3675E36E978A0DE80727A0D6DF2D39A75BD27E0D8837276589537B40ABB56D5A41F48F1C6FCD3188C4EB
310
A6929D2FFB89CE995A4D00AE813BDD032DC48B56BD437DFDDC2DD7AED70C2272D63DE9A72068A45A92F0A4BE17A8A06B9366E16707AD80B1FC649459952097E74BB23805982B55E0401150A165964402AA8BDF9F3E7386BB686EDCA780C0D382E5392BF460A6EFB2C6EA1937D3F809B440D5F5435C4C5CF7A9EEFAF54564BD
310
2182DA24162F98680B4E7930C21A0079709CEAEB99A372305ABE0C0D7D6078105A83F6A0296DAEE1068A47DD1C55A9F4C9B2FC69E3EFD44B81028E963DF81B504B0304140006080000B670623B000000000000000000000000350000006662782F45374635344235342D363743322D343832342D383044432D433445464530
310
3536354442422F76657274696365732E62696E504B0304140006080800B670623BF270F1330600000004000000360000006662782F45374635344235342D363743322D343832342D383044432D4334454645303536354442422F747269616E676C65732E62696E636660600000504B0304140006080000B670623B00000000
310
0000000000000000370000006662782F45374635344235342D363743322D343832342D383044432D4334454645303536354442422F617474726962757465732E62696E504B0304140006080800B670623B08DA0BD19000000041010000360000006662782F45374635344235342D363743322D343832342D383044432D4334
310
454645303536354442422F6469726563746F72792E786D6C858F410AC3201045AF22B36F53E9A60B35CBEEBAE80D244E44489C6234F4F835464A48035D0DF398FF9F8AF63D0E6CC63039F212F8F9020C7D47C6792B21C5FE7403D62A1188E2E60C98D7234A5830286103A55745067B9D86B8A3CF9C7F90C11DE607FB144396
310
D7B6A82D282E9A152AD114D5EF2CB866EEE831B8EEA07A7BB5A8D7D61A2BAAEB7FD5F70921FF497D00504B0304140006080800B670623B6378F24DFF000000A00100003B0000006662782F45374635344235342D363743322D343832342D383044432D4334454645303536354442422F7265736F75726365732F636F72652E
310
786D6C8D504B6E833010BD0A9A6D65B0094E42641C85B639412F6099496225D8C89FAAC7AF09546A77DDCC8CDE47F3F4C4F16B7C149FE88371B603565228D06A37187BED20C50BD9437194C23B177FC9A0B06AC40E6618A4B87A97A615D2CE46B431A3D60DB8822A048C50E8473E3A08FA86A32A558A5911EEE5A4F45D5DB1
310
6465A6B34E8A107D0E502C4FE609D26370C96B0CA25A58295232C3AA3143FE692E063D485EF7F5AEE71BD2D2F39634AFFC44DAF7DD9E9CCE6F9CD25DCBFA762BAAD92C4534E34F46ED51451C40D694B6843142EB0FD61C283F34FC85EE0F948A6A96FF31A569F8A729191B37F51A77B105902C0779125254735F793DCBCC7B
310
EE567E03504B010214000A0000080000B670623B3DEE336E79000000790000001B00000000000000000000000000000000006175746F6465736B2D64657369676E2D7061636B6167652E786D6C504B01021400140006080800B670623BD486FD9CA0000000F40000001300000000000000000000000000B20000005B436F6E
310
74656E745F54797065735D2E786D6C504B01021400140006080800B670623BBC1638F5EC0000007C010000080000000000000000000000000083010000636F72652E786D6C504B01021400140006080800B670623B55019EA25F0000007C000000070000000000000000000000000095020000636E782E786D6C504B010214
310
00140006080800B670623B3586FFB671010000D40300000C00000000000000000000000000190300006662782F636F72652E786D6C504B01021400140006080800B670623B4220A0FF7D0000009D0000000B00000000000000000000000000B40400006662782F636E782E786D6C504B01021400140006080800B670623B2F
310
A3FEDE290100001202000031000000000000000000000000005A0500006662782F45374635344235342D363743322D343832342D383044432D4334454645303536354442422F636F72652E786D6C504B01021400140006080800B670623B1B8617914E010000330300003000000000000000000000000000D2060000666278
310
2F45374635344235342D363743322D343832342D383044432D4334454645303536354442422F636E782E786D6C504B01021400140006080800B670623B29652116630500003C10000034000000000000000000000000006E0800006662782F45374635344235342D363743322D343832342D383044432D4334454645303536
310
354442422F6F626A656374732E786D6C504B01021400140006080000B670623B0000000000000000000000003500000000000000000000000000230E00006662782F45374635344235342D363743322D343832342D383044432D4334454645303536354442422F76657274696365732E62696E504B01021400140006080800
310
B670623BF270F13306000000040000003600000000000000000000000000760E00006662782F45374635344235342D363743322D343832342D383044432D4334454645303536354442422F747269616E676C65732E62696E504B01021400140006080000B670623B0000000000000000000000003700000000000000000000
310
000000D00E00006662782F45374635344235342D363743322D343832342D383044432D4334454645303536354442422F617474726962757465732E62696E504B01021400140006080800B670623B08DA0BD190000000410100003600000000000000000000000000250F00006662782F45374635344235342D363743322D34
310
3832342D383044432D4334454645303536354442422F6469726563746F72792E786D6C504B01021400140006080800B670623B6378F24DFF000000A00100003B00000000000000000000000000091000006662782F45374635344235342D363743322D343832342D383044432D4334454645303536354442422F7265736F75
310
726365732F636F72652E786D6C504B0506000000000E000E0080040000611100000000
  0
XRECORD
  5
112
102
{ACAD_REACTORS
330
110
102
}
330
110
100
AcDbXrecord
280
     1
270
     1
271
     1
  0
XRECORD
  5
111
102
{ACAD_REACTORS
330
110
102
}
330
110
100
AcDbXrecord
280
     1
270
     1
271
     1
  0
XRECORD
  5
18A
102
{ACAD_REACTORS
330
110
102
}
330
110
100
AcDbXrecord
280
     1
 70
     0
 90
1778669749
  1
9BF507EE-FAF7-4A99-A33D-4EE51894BC40
310
504B03040A0000080000B670623B3DEE336E79000000790000001B0000006175746F6465736B2D64657369676E2D7061636B6167652E786D6C3C3F786D6C2076657273696F6E3D22312E302220656E636F64696E673D227574662D3822203F3E3C666F726D6174733E3C666F726D61743E687474703A2F2F736368656D612E
310
6175746F6465736B2E636F6D2F64657369676E2D7061636B6167652F323030393C2F666F726D61743E3C2F666F726D6174733E504B0304140006080800B670623BD486FD9CA0000000F4000000130000005B436F6E74656E745F54797065735D2E786D6C7D8EC10E82300C865F65E91D8A1E8C310C0EEA1BF002731658846E
310
D98AC1B77784ABF1D8FE5FBFBF75BBCE937A534CCEB38643598122B6FEE978D0B0485F9C41B54DDD7D022595594E1A469170414C76A4D9A4D207E29CF43ECE46F218070CC6BECC4078ACAA135ACF422C856C0E68EA1BF5669944DDD7BCDE7B1F8E415D77AECB980613C2E4AC91FC167A2B244592486606FC29C8FD7F045B9A
310
EF7053A7E60B504B0304140006080800B670623BCA089DFFEC0000007C01000008000000636F72652E786D6C8D90416E83301045AF62CDB632D8402020E32882F604BD80653BC44AB011B6AB1EBF262152BBEB6A467FFE9B197D76FA9EEFE84BAFDE38DB03CD08206DA553C64E3DC470C1474027CE56E7C22F1B202B66DDC3
310
260367D3EAE2B24BD2D9A06D48AA754AEFA2F05E0740F29E9A1EBCBCEA59642286E4F0B76C11F226269DD15797E0188D42CF2346A57DE662F40ABCAEC77628C6120F654571D50C04B7F5B9C1E3997CD4F550BE3745C3F20DE62C98F9755FAE5A04AD801784B498524C8A4F5A75E4D055873772EC0861F966FF03C545FD138A
310
C686B2D8DF7D621E384D8F3C069CE55B16A93C824A75CB8DFF00504B0304140006080800B670623B55019EA25F0000007C00000007000000636E782E786D6C4DCB3B0E80201045D1AD90E915ED2CF8AC45050C11660C8261F98AB1B07AC9C97D42D718D865D3E909258CFD00CCE24AC6E326A164D74DC0B4128928FF326038
310
472BA13128B1252AC747C6BAB984FC68F0B87FE8960A5C09FE86CFB69FBA01504B0304140006080800B670623B68FC0B7272010000D40300000C0000006662782F636F72652E786D6CC5535B6E833010BC8AE5DF0A6C1E8124328E22D29EA01770C0A128602363A31CBFCB234A53A555FA553EC09AD9F5CE8C31DB5DDA060D
310
D2F4B556190E7C8A9154852E6B5565D8D993B7C668C799D1DA7E29C3488956667884316795D1AE5BA0422B2B950554E9522EA0E87B69312A1A5864B82F3E642B7CE12C54F467BF13C55954D20F7CA0A18EB3DE1A1080E621E31BF3D3F1C2C88C73E65C5D2E6C5DC2B4FA544B8379921C36797888BC3C8A032F4E73EA6D927D
310
EA1DF6F42D49F2E8350D5346C666CE6CDD5ED515460A2B4BCC434A375E1078347C0FE22D5D6DE3D50B5D6F2965642CBF6B725DF96493AB958DC245EEDCD6631E809089F8E61622B2A81703E8219C913144F84C09DF070D8140C8561C9BAB8F3340832CAC363130A576376A108D933095FA747AD0CF0B46E64E983A6D0EAE1F
310
CE089F9EF1FB8E70D44255604258581E9D1D75B259C3125A278D37D80B52DAB4A279CEC62F0EFF44DDC43F9454E8469BFF5244960322CBEF41C6FBC83F01504B0304140006080800B670623B0F71DDB67E0000009D0000000B0000006662782F636E782E786D6C4DCCD10A83201886E15B91FFDCA54DB73F502386BB8F5816
310
32D3703976F9ABD1C18E3E78F87855FB990379BBFCF2296AE02706C4C5471A7C9C349475A408A4352AA7B4FEDD80C47E761A7606A3A69CCA72D0E0C6BE8475D3E0E3F3409428EA6B27A84079A782899AA2EC1A7AE3ECCC2FD858CB2D544655BFD2B67BD87C01504B0304140006080800B670623BE134B4FB28010000120200
310
00310000006662782F38353834323741342D343835462D343034322D383541392D4331303331363839454531452F636F72652E786D6C8D515B6EC32010BC0AE22B55850D0EA424C24451959EA0172086A42831583CAA1CBF503B52FB971F16CDCECC0EACD8DFC71BF836215AEF7A481A0C817183D7D65D7A98D3197108F652
310
04EFD31F1A044E8DA6871586525C82CFD3020DDE25E352419DD76601558C264130DCCAA58771F832A36A544E8511AFCDA486ABBA988634A55D7852C4144A00300FA927949C71DABD1D28A29C7D208A6987383B6CD13BC16BB2E1DBE3911C453B0BA5C8D9EA456E758963CFD684674DAA588A64C747FC2118958C86B2C3788B
310
0841B8FB247487D98EB257CC77188BB6D2FF89F2A49F1465EBD2BA5BE2CEB2082511EDDC9042FB7CBA3DC298FBE4430275DE2A9AE1054ADC60CC08E3A29D89E5F9C5714317C7987C28DFBBBA9E0A97B0D97643A568EB864AF95D5FA9759BF207504B0304140006080800B670623B1B8617914E010000330300003000000066
310
62782F38353834323741342D343835462D343034322D383541392D4331303331363839454531452F636E782E786D6CD593C16EC32010447F0571AD6CE3D489D20813A9877E410FBD62D82434182CC055F3F75D1292E692438FBD206B7698593D61BEFD1E2DF982108D773D6D6B460938E5B571FB9ECE6957AD29D90A1EBC4F
310
77364A9C1CA1A759A682EF839FA72269D8C9D92654AD71C72206887E0E0A22CAF926B15E498B01E0AA19451807D01A34B919F16B070157417138917400F2F6FA41FCF0092A45DEE414C19BDC21783E4BD39D891265658C3D8DEA00A3ACE59CBC8678ACB54CB26EEB6BD7839D7E9348BE70AD9C8321B9BCA7F9A4A26C542347
310
DEE050F09802D22BA6749A800A394DD62899107273365E3C82CFC6A55557BC06C10774B7ABE7AEC3B0F34CF06446280E154026D0542C187BA9DAB6628BF7B6DBB0E5A65B3EB1F58631DE64BBE083F7B65CC218087E22CABB042E51D1F2268F1FE12B3EA24D40D63E9CFE00120194D60B9D5BC67FE6D39CDF37E20AF817881F
310
504B0304140006080800B670623B5933D422630500003B100000340000006662782F38353834323741342D343835462D343034322D383541392D4331303331363839454531452F6F626A656374732E786D6CAD575B6FA33814FE2B887D0642934E9B156594264D158D3A534DD4D13E548A0C38942D60649B4EBABF7E3F8321
310
40924EF6928780CDF1B97EE762EFF32E4B8D37CA45C2F21BD3B547A641F39045491EDF98A5DC5AD7A6F1D9F73863B243661A39C9E88DA9B64DDF8B392B0BBD15D12D295339D85DDEFE618890E6D434C2940871638AF08566C426A5641115AF764424B1E3EDCE76ED9AB0CF36E6A47819302D08A7B984A6D8CFC1C5A89572FB
310
CB91E9F89EA3BEFB9EFAD754E3D3544E654F5F7E920B49F2F040D880CDD89D2CEE2E2EA7D6E56432B6269F2E5CEB7679BBB0DCABF168FE693E9FCEEEA6102C240727AD09A75BD3BF876F78127A4EFDA9D5582B7E4CA590E5390D2BFB6161A5B3E618D182E611E2985001691DAB47FDA5AB7CD3F93C566B2DB2BB7D9E55DD13
310
1D468DEECDB3AB290BFE8409E21C54704115AA6AFF68436BFC8DF65E0B184BF5B74418199194272435D224E084BF9B3E481589EFF5D828747285706581E9BB7B7E5D5D911ABFC6EE312DB7659A2A689A7E85EC0DF04FA5A8344BFEA2FCB834E8845895492EAFB541F2BDA0A63FF59C6AD3F7D4637CA13FD68E34B629891172
310
98597F1D183A57B9B75A98FE9765B05BAB7C3C2EBCE0ACA05C2AF8005A4DE09AA7F29216EB9E15397500C6F47CBE77CA7778FE2BD277AF0AE2C693DD6437D1522427B9D8329E2136F6A8FA19A3E6C56ADF0E5F50CF06D48734EDCEBF22F69C56D97EC138153F804B85E6FABFC7AFEFB32E523BE1F3BD372418E363EDCA7548
310
52949E8724474014288D94610BB57C1BEC4C7F854A89CA8E5324F55B871CBC78CE1BBEE3BFE68D6A5589EF3C730474506FCFA8FCF0659516D0ED04580EEA6425581B77CAE797FF4BCECC16EB2FEB926F49481F746159D06D922712BD730FDEAE42BD40F42C7AA5EF3F198F60E86110D6DD20645A9480B795CF95E3E3A659A8
310
C55E724F408873315335CFFB8584874484344D494E59D94869DB90C26A5B64F49C802CAC1D3ABE18A098D3B7444D123D8A9E5AE8F5214F0AE5B2B6E9B575DA3E61CBD3EA2B4009FA940524DD1305FB6A1FB294F14DF0BEA90BA109ECE1481FDC3FFAE8D60E75141700BE82725371B4873751B2DD960265F788137FACE6DD40
310
B575E4F0A5C99F46629D92131467A41EE11ABD8D4CCC039CA0AFB37C93A08B232B8F0AEFCA1E0A1015DF13FC83322B362463652ECF71D3A8B1A7D1BE65DE1D62C44F22C317D35F574FEB16153BA2D13E543D10A80E74C4A65E78A6B7CBCBD1D5DD9DB59C2DAFACC96C3AB566E3F1C29ADCDD5DBAD7D3C9ED7C822ED74F80A6
310
41755310DE4443F44A9E68373FADF6596BFA0F440AE7BECE2727AE9F4F2B1B53B1E7E00CF0DD1E5C65454A339A4BA2D0FBA05ED2EF0443458F47BDBFCA484CCFE0F2ED7E3DD0013B679C7B5499467F0ECEEADDB9CA85A34CE44B99053949D2C1416DB85DE4B136BB7165FBAC0B7AB3542BED4F8CA182A549847A1319316519
310
95A83A67147B9E5101C47487F2485F1ECE38FD568F839204296D3479219888530154036E6528FBFBC66F98E0D4107563A2D7D9AFF8D389681A08F58D89F22693900A3B407754734FC51C10C010D6D640809EE4718AC1BA3ED4AEDB53CA37283F68805A7E4B72CEB0A4EDEAD5DD8C14059A76AFAA56BA6901E13F32BC51C720
310
12AF41295B5BF61BAD3195181FB506E6B40F4C10AF5AF40EF9F5B159AE5DD1F43C72D635E94310D45C2D49785C5D0B94D3B54AB3C5A38349C0587D338AB48C11CBF339599C02CCA54A70A008A8D03C0B2201D5F9EFCF8F9CE12A9A19CB0410789EB32C63B95ECCF455D658BFE0621A3DA32C5075FB101723D77DAE867E7D0F
310
D90444509B44E2151B4DC2290B065803200FBAA9BE9D392A0603F2D5C2D00D6302A615680F66D2FA166E2079D4C551A54AB758161FCEFD4E450A14704CECFEDF504B0304140006080000B670623B000000000000000000000000350000006662782F38353834323741342D343835462D343034322D383541392D4331303331
310
363839454531452F76657274696365732E62696E504B0304140006080800B670623BF270F1330600000004000000360000006662782F38353834323741342D343835462D343034322D383541392D4331303331363839454531452F747269616E676C65732E62696E636660600000504B0304140006080000B670623B000000
310
000000000000000000370000006662782F38353834323741342D343835462D343034322D383541392D4331303331363839454531452F617474726962757465732E62696E504B0304140006080800B670623B08DA0BD19000000041010000360000006662782F38353834323741342D343835462D343034322D383541392D43
310
31303331363839454531452F6469726563746F72792E786D6C858F410AC3201045AF22B36F53E9A60B35CBEEBAE80D244E44489C6234F4F835464A48035D0DF398FF9F8AF63D0E6CC63039F212F8F9020C7D47C6792B21C5FE7403D62A1188E2E60C98D7234A5830286103A55745067B9D86B8A3CF9C7F90C11DE607FB1443
310
96D7B6A82D282E9A152AD114D5EF2CB866EEE831B8EEA07A7BB5A8D7D61A2BAAEB7FD5F70921FF497D00504B0304140006080800B670623BD9A3B367FE000000A00100003B0000006662782F38353834323741342D343835462D343034322D383541392D4331303331363839454531452F7265736F75726365732F636F7265
310
2E786D6C8D504B6E833010BD0A9A6D65B01D0201194711694FD00B586642AD043BF2A7EAF16B122AB5BB6E6646EFA3797AE2F8B5DC8A4FF4C1383B002B291468B59B8C9D0748F1420E501CA5F0CEC55F3228AC5A708015062966EFD27D83B4B3116DCCA875136EA00A012314FA968F0182FEC045952AC5AC08D7F2AEF455CD
310
58B232D3592745883E07289E4FD609D26370C96B0CA27AB252A464A64D63A6FCD35C0C7A904D73EE467EE664DCD58CD4ED4849D79C5A723ED1B7A61977AF2D6F45B59AA58866F9C9A83DAA8813484E6947182394BFB3BAA7FBBEDEBFD0434FA9A856F91F53BA4FFF342563E38E6F719FB60092E5200F428A6AED2BAF479979
310
AFDDCA6F504B010214000A0000080000B670623B3DEE336E79000000790000001B00000000000000000000000000000000006175746F6465736B2D64657369676E2D7061636B6167652E786D6C504B01021400140006080800B670623BD486FD9CA0000000F40000001300000000000000000000000000B20000005B436F6E
310
74656E745F54797065735D2E786D6C504B01021400140006080800B670623BCA089DFFEC0000007C010000080000000000000000000000000083010000636F72652E786D6C504B01021400140006080800B670623B55019EA25F0000007C000000070000000000000000000000000095020000636E782E786D6C504B010214
310
00140006080800B670623B68FC0B7272010000D40300000C00000000000000000000000000190300006662782F636F72652E786D6C504B01021400140006080800B670623B0F71DDB67E0000009D0000000B00000000000000000000000000B50400006662782F636E782E786D6C504B01021400140006080800B670623BE1
310
34B4FB280100001202000031000000000000000000000000005C0500006662782F38353834323741342D343835462D343034322D383541392D4331303331363839454531452F636F72652E786D6C504B01021400140006080800B670623B1B8617914E010000330300003000000000000000000000000000D3060000666278
310
2F38353834323741342D343835462D343034322D383541392D4331303331363839454531452F636E782E786D6C504B01021400140006080800B670623B5933D422630500003B10000034000000000000000000000000006F0800006662782F38353834323741342D343835462D343034322D383541392D4331303331363839
310
454531452F6F626A656374732E786D6C504B01021400140006080000B670623B0000000000000000000000003500000000000000000000000000240E00006662782F38353834323741342D343835462D343034322D383541392D4331303331363839454531452F76657274696365732E62696E504B01021400140006080800
310
B670623BF270F13306000000040000003600000000000000000000000000770E00006662782F38353834323741342D343835462D343034322D383541392D4331303331363839454531452F747269616E676C65732E62696E504B01021400140006080000B670623B0000000000000000000000003700000000000000000000
310
000000D10E00006662782F38353834323741342D343835462D343034322D383541392D4331303331363839454531452F617474726962757465732E62696E504B01021400140006080800B670623B08DA0BD190000000410100003600000000000000000000000000260F00006662782F38353834323741342D343835462D34
310
3034322D383541392D4331303331363839454531452F6469726563746F72792E786D6C504B01021400140006080800B670623BD9A3B367FE000000A00100003B000000000000000000000000000A1000006662782F38353834323741342D343835462D343034322D383541392D4331303331363839454531452F7265736F75
310
726365732F636F72652E786D6C504B0506000000000E000E0080040000611100000000
  0
XRECORD
  5
113
102
{ACAD_REACTORS
330
110
102
}
330
110
100
AcDbXrecord
280
     1
270
     1
271
     1
  0
XRECORD
  5
114
102
{ACAD_REACTORS
330
110
102
}
330
110
100
AcDbXrecord
280
     1
270
     1
271
     1
  0
CELLSTYLEMAP
  5
67410
102
{ACAD_REACTORS
330
104
102
}
330
104
100
AcDbCellStyleMap
 90
        3
300
CELLSTYLE
  1
TABLEFORMAT_BEGIN
 90
        5
170
     1
 91
        0
 92
    32768
 62
   257
 93
        1
300
CONTENTFORMAT
  1
CONTENTFORMAT_BEGIN
 90
        0
 91
        0
 92
      512
 93
        0
300

 40
0.0
140
1.0
 94
        5
 62
     0
340
11
144
0.25
309
CONTENTFORMAT_END
171
     1
301
MARGIN
  1
CELLMARGIN_BEGIN
 40
0.06
 40
0.06
 40
0.06
 40
0.06
 40
0.18
 40
0.18
309
CELLMARGIN_END
 94
        6
 95
        1
302
GRIDFORMAT
  1
GRIDFORMAT_BEGIN
 90
        0
 91
        1
 62
     0
 92
       -2
340
0
 93
        0
 40
0.045
309
GRIDFORMAT_END
 95
        2
302
GRIDFORMAT
  1
GRIDFORMAT_BEGIN
 90
        0
 91
        1
 62
     0
 92
       -2
340
0
 93
        0
 40
0.045
309
GRIDFORMAT_END
 95
        4
302
GRIDFORMAT
  1
GRIDFORMAT_BEGIN
 90
        0
 91
        1
 62
     0
 92
       -2
340
0
 93
        0
 40
0.045
309
GRIDFORMAT_END
 95
        8
302
GRIDFORMAT
  1
GRIDFORMAT_BEGIN
 90
        0
 91
        1
 62
     0
 92
       -2
340
0
 93
        0
 40
0.045
309
GRIDFORMAT_END
 95
       16
302
GRIDFORMAT
  1
GRIDFORMAT_BEGIN
 90
        0
 91
        1
 62
     0
 92
       -2
340
0
 93
        0
 40
0.045
309
GRIDFORMAT_END
 95
       32
302
GRIDFORMAT
  1
GRIDFORMAT_BEGIN
 90
        0
 91
        1
 62
     0
 92
       -2
340
0
 93
        0
 40
0.045
309
GRIDFORMAT_END
309
TABLEFORMAT_END
  1
CELLSTYLE_BEGIN
 90
        1
 91
        1
300
_TITLE
309
CELLSTYLE_END
300
CELLSTYLE
  1
TABLEFORMAT_BEGIN
 90
        5
170
     1
 91
        0
 92
        0
 62
   257
 93
        1
300
CONTENTFORMAT
  1
CONTENTFORMAT_BEGIN
 90
        0
 91
        0
 92
      512
 93
        0
300

 40
0.0
140
1.0
 94
        5
 62
     0
340
11
144
0.18
309
CONTENTFORMAT_END
171
     1
301
MARGIN
  1
CELLMARGIN_BEGIN
 40
0.06
 40
0.06
 40
0.06
 40
0.06
 40
0.18
 40
0.18
309
CELLMARGIN_END
 94
        6
 95
        1
302
GRIDFORMAT
  1
GRIDFORMAT_BEGIN
 90
        0
 91
        1
 62
     0
 92
       -2
340
0
 93
        0
 40
0.045
309
GRIDFORMAT_END
 95
        2
302
GRIDFORMAT
  1
GRIDFORMAT_BEGIN
 90
        0
 91
        1
 62
     0
 92
       -2
340
0
 93
        0
 40
0.045
309
GRIDFORMAT_END
 95
        4
302
GRIDFORMAT
  1
GRIDFORMAT_BEGIN
 90
        0
 91
        1
 62
     0
 92
       -2
340
0
 93
        0
 40
0.045
309
GRIDFORMAT_END
 95
        8
302
GRIDFORMAT
  1
GRIDFORMAT_BEGIN
 90
        0
 91
        1
 62
     0
 92
       -2
340
0
 93
        0
 40
0.045
309
GRIDFORMAT_END
 95
       16
302
GRIDFORMAT
  1
GRIDFORMAT_BEGIN
 90
        0
 91
        1
 62
     0
 92
       -2
340
0
 93
        0
 40
0.045
309
GRIDFORMAT_END
 95
       32
302
GRIDFORMAT
  1
GRIDFORMAT_BEGIN
 90
        0
 91
        1
 62
     0
 92
       -2
340
0
 93
        0
 40
0.045
309
GRIDFORMAT_END
309
TABLEFORMAT_END
  1
CELLSTYLE_BEGIN
 90
        2
 91
        1
300
_HEADER
309
CELLSTYLE_END
300
CELLSTYLE
  1
TABLEFORMAT_BEGIN
 90
        5
170
     1
 91
        0
 92
        0
 62
   257
 93
        1
300
CONTENTFORMAT
  1
CONTENTFORMAT_BEGIN
 90
        0
 91
        0
 92
      512
 93
        0
300

 40
0.0
140
1.0
 94
        2
 62
     0
340
11
144
0.18
309
CONTENTFORMAT_END
171
     1
301
MARGIN
  1
CELLMARGIN_BEGIN
 40
0.06
 40
0.06
 40
0.06
 40
0.06
 40
0.18
 40
0.18
309
CELLMARGIN_END
 94
        6
 95
        1
302
GRIDFORMAT
  1
GRIDFORMAT_BEGIN
 90
        0
 91
        1
 62
     0
 92
       -2
340
0
 93
        0
 40
0.045
309
GRIDFORMAT_END
 95
        2
302
GRIDFORMAT
  1
GRIDFORMAT_BEGIN
 90
        0
 91
        1
 62
     0
 92
       -2
340
0
 93
        0
 40
0.045
309
GRIDFORMAT_END
 95
        4
302
GRIDFORMAT
  1
GRIDFORMAT_BEGIN
 90
        0
 91
        1
 62
     0
 92
       -2
340
0
 93
        0
 40
0.045
309
GRIDFORMAT_END
 95
        8
302
GRIDFORMAT
  1
GRIDFORMAT_BEGIN
 90
        0
 91
        1
 62
     0
 92
       -2
340
0
 93
        0
 40
0.045
309
GRIDFORMAT_END
 95
       16
302
GRIDFORMAT
  1
GRIDFORMAT_BEGIN
 90
        0
 91
        1
 62
     0
 92
       -2
340
0
 93
        0
 40
0.045
309
GRIDFORMAT_END
 95
       32
302
GRIDFORMAT
  1
GRIDFORMAT_BEGIN
 90
        0
 91
        1
 62
     0
 92
       -2
340
0
 93
        0
 40
0.045
309
GRIDFORMAT_END
309
TABLEFORMAT_END
  1
CELLSTYLE_BEGIN
 90
        3
 91
        2
300
_DATA
309
CELLSTYLE_END
  0
ENDSEC
  0
SECTION
  2
ACDSDATA
 70
     2
 71
     8
  0
ACDSSCHEMA
 90
        0
  1
AcDb_Thumbnail_Schema
  2
AcDbDs::ID
280
    10
 91
        8
  2
Thumbnail_Data
280
    15
 91
        0
101
ACDSRECORD
 95
        0
 90
        1
  2
AcDbDs::TreatedAsObjectData
280
     1
291
     1
101
ACDSRECORD
 95
        0
 90
        2
  2
AcDbDs::Legacy
280
     1
291
     1
101
ACDSRECORD
  1
AcDbDs::ID
 90
        3
  2
AcDs:Indexable
280
     1
291
     1
101
ACDSRECORD
  1
AcDbDs::ID
 90
        4
  2
AcDbDs::HandleAttribute
280
     7
282
     1
  0
ACDSSCHEMA
 90
        1
  1
AcDbDs::TreatedAsObjectDataSchema
  2
AcDbDs::TreatedAsObjectData
280
     1
 91
        0
  0
ACDSSCHEMA
 90
        2
  1
AcDbDs::LegacySchema
  2
AcDbDs::Legacy
280
     1
 91
        0
  0
ACDSSCHEMA
 90
        3
  1
AcDbDs::IndexedPropertySchema
  2
AcDs:Indexable
280
     1
 91
        0
  0
ACDSSCHEMA
 90
        4
  1
AcDbDs::HandleAttributeSchema
  2
AcDbDs::HandleAttribute
280
     7
 91
        1
284
     1
  0
ACDSSCHEMA
 90
        5
  1
AcDb3DSolid_ASM_Data
  2
AcDbDs::ID
280
    10
 91
        8
  2
ASM_Data
280
    15
 91
        0
101
ACDSRECORD
 95
        5
 90
        1
  2
AcDbDs::TreatedAsObjectData
280
     1
291
     1
101
ACDSRECORD
 95
        5
 90
        2
  2
AcDbDs::Legacy
280
     1
291
     1
101
ACDSRECORD
  1
AcDbDs::ID
 90
        3
  2
AcDs:Indexable
280
     1
291
     1
101
ACDSRECORD
  1
AcDbDs::ID
 90
        4
  2
AcDbDs::HandleAttribute
280
     7
282
     1
  0
ACDSRECORD
 90
        0
  2
AcDbDs::ID
280
    10
320
22
  2
Thumbnail_Data
280
    15
 94
     1666
310
89504E470D0A1A0A0000000D49484452000001000000006C0803000000B2ED9CC100000300504C5445212830FFFFFF2128300000000000000000000000000000000000000000000000000000330000660000990000CC0000FF0033000033330033660033990033CC0033FF0066000066330066660066990066CC0066FF0099
310
000099330099660099990099CC0099FF00CC0000CC3300CC6600CC9900CCCC00CCFF00FF0000FF3300FF6600FF9900FFCC00FFFF3300003300333300663300993300CC3300FF3333003333333333663333993333CC3333FF3366003366333366663366993366CC3366FF3399003399333399663399993399CC3399FF33CC00
310
33CC3333CC6633CC9933CCCC33CCFF33FF0033FF3333FF6633FF9933FFCC33FFFF6600006600336600666600996600CC6600FF6633006633336633666633996633CC6633FF6666006666336666666666996666CC6666FF6699006699336699666699996699CC6699FF66CC0066CC3366CC6666CC9966CCCC66CCFF66FF0066
310
FF3366FF6666FF9966FFCC66FFFF9900009900339900669900999900CC9900FF9933009933339933669933999933CC9933FF9966009966339966669966999966CC9966FF9999009999339999669999999999CC9999FF99CC0099CC3399CC6699CC9999CCCC99CCFF99FF0099FF3399FF6699FF9999FFCC99FFFFCC0000CC00
310
33CC0066CC0099CC00CCCC00FFCC3300CC3333CC3366CC3399CC33CCCC33FFCC6600CC6633CC6666CC6699CC66CCCC66FFCC9900CC9933CC9966CC9999CC99CCCC99FFCCCC00CCCC33CCCC66CCCC99CCCCCCCCCCFFCCFF00CCFF33CCFF66CCFF99CCFFCCCCFFFFFF0000FF0033FF0066FF0099FF00CCFF00FFFF3300FF3333
310
FF3366FF3399FF33CCFF33FFFF6600FF6633FF6666FF6699FF66CCFF66FFFF9900FF9933FF9966FF9999FF99CCFF99FFFFCC00FFCC33FFCC66FFCC99FFCCCCFFCCFFFFFF00FFFF33FFFF66FFFF99FFFFCCFFFFFF0000000D0D0D1A1A1A2828283535354343435050505D5D5D6B6B6B787878868686939393A1A1A1AEAEAEBB
310
BBBBC9C9C9D6D6D6E4E4E4F1F1F1FFFFFF0000000000000000000000000000000000000000000000000000000000002E4550F1000001634944415478DAED9BCB72C2301004F7FFFF77EE297044EC5816962E2133DD557040EC615BD25A0FA802000000000000000000804F43F2C842F3110D8FFC67F390D30858E848598D80
310
4712D302DACB640AD4FC14D056396C04AC960D93A7C08280168200042020514021000108400002C205F89C07AC0B28135605140210902D20BD06B4F7D875809C044CF37D969A2DC0A6126E53E094CB28B96788998053215085093876F938B526C0EC31B84B5A3742FC04B48BE2F723DB56C0D6F5BA17622AE0E7D66BB0E537
310
16703481808B9BD30C01BBB28880500117FB80B422D8DB0AA508B80890CAE7507CD4931A9E08D99C896994E8E808A122050C56072102DE8420C04A40A70501084040928073539A80F369F96B2F902AA0967E60FE7F05FC6E8C9B0217AB2104244D01E9CE67CE35205A40F7BF417102E247C07125142540DD6F070B50190AD0
310
FDDDE0EEBAC428FD4136FD7B212B0100000000000000000000F0F77C015593AD5B220BCA400000000049454E44AE4260829E009C02AB882400670008AA1A09C01F803DB482842B007804B0C60D91CF2F9E2F7FB1C23DC1579225015C3F890CE05202B8F9242E001C5FF3827301006B5440D9FC87A325E680CBB4BF3A80E341
310
024800126BCED8DCCAFE0BC89323148B0004169DB1773E315BC236EF7D16429C74C0FC8810FAB822E4686C54F4D26BA9A9E2DD7790D975BD451A1FD53D220800A0797E05CB04E203000DE41FA502A8BD05F61574D1160836078CE58FF12DE253CECF072C2F70EA6F011040B1F60060AF8009C658FE140940F746886607B0F5
310
F2D84660BD1618B88A08D2027100640B8C5D0B2DBC0AC45A06BBF6C2581840B855A0358D18E98F251203406F1A612A80B202BAD38891FF580B500000D49D4988F37FAC813E72214627000A3582A5C338FE00598ED82311F33F3A0000000049454E44AE4260820F467818FD4AC64A010000000049454E44AE42608200187F52
310
539FF6AC0FF2D01229B97F7B56AE64E8787DBF9E93B283504D4929EEDB336DE133B927D0B706F146D8FDD54728002424931276690CDE5FFA471401522320E6FA719CDCC9E90D234F422DA512220CD4066298BF969A4028B717C4D481E25C1BC6C59A99842240E2F24B1F92F8AC20F021F00EFE737AFD0FDF7E00E9E9886BC5
310
1247A50000000049454E44AE426082
  0
ENDSEC
  0
EOF
