  0
SECTION
  2
HEADER
  9
$ACADVER
  1
AC1032
  9
$ACADMAINTVER
 90
      197
  9
$DWGCODEPAGE
  3
ANSI_1252
  9
$LASTSAVEDBY
  1
gregb
  9
$REQUIREDVERSIONS
160
                 0
  9
$INSBASE
 10
0.0
 20
0.0
 30
0.0
  9
$EXTMIN
 10
158348.6049508497
 20
108375.2253516922
 30
-920.6693527648292
  9
$EXTMAX
 10
159396.4585902331
 20
110175.6458364645
 30
0.0280978851196778
  9
$LIMMIN
 10
0.0
 20
0.0
  9
$LIMMAX
 10
12.0
 20
9.0
  9
$ORTHOMODE
 70
     0
  9
$REGENMODE
 70
     1
  9
$FILLMODE
 70
     1
  9
$QTEXTMODE
 70
     0
  9
$MIRRTEXT
 70
     0
  9
$LTSCALE
 40
1.0
  9
$ATTMODE
 70
     1
  9
$TEXTSIZE
 40
0.2
  9
$TRACEWID
 40
0.05
  9
$TEXTSTYLE
  7
Standard
  9
$CLAYER
  8
freecads.com
  9
$CELTYPE
  6
ByLayer
  9
$CECOLOR
 62
   256
  9
$CELTSCALE
 40
1.0
  9
$DISPSILH
 70
     1
  9
$DIMSCALE
 40
1.0
  9
$DIMASZ
 40
0.18
  9
$DIMEXO
 40
0.0625
  9
$DIMDLI
 40
0.38
  9
$DIMRND
 40
0.0
  9
$DIMDLE
 40
0.0
  9
$DIMEXE
 40
0.18
  9
$DIMTP
 40
0.0
  9
$DIMTM
 40
0.0
  9
$DIMTXT
 40
0.18
  9
$DIMCEN
 40
0.09
  9
$DIMTSZ
 40
0.0
  9
$DIMTOL
 70
     0
  9
$DIMLIM
 70
     0
  9
$DIMTIH
 70
     1
  9
$DIMTOH
 70
     1
  9
$DIMSE1
 70
     0
  9
$DIMSE2
 70
     0
  9
$DIMTAD
 70
     0
  9
$DIMZIN
 70
     0
  9
$DIMBLK
  1

  9
$DIMASO
 70
     1
  9
$DIMSHO
 70
     1
  9
$DIMPOST
  1

  9
$DIMAPOST
  1

  9
$DIMALT
 70
     0
  9
$DIMALTD
 70
     2
  9
$DIMALTF
 40
25.4
  9
$DIMLFAC
 40
1.0
  9
$DIMTOFL
 70
     0
  9
$DIMTVP
 40
0.0
  9
$DIMTIX
 70
     0
  9
$DIMSOXD
 70
     0
  9
$DIMSAH
 70
     0
  9
$DIMBLK1
  1

  9
$DIMBLK2
  1

  9
$DIMSTYLE
  2
Standard
  9
$DIMCLRD
 70
     0
  9
$DIMCLRE
 70
     0
  9
$DIMCLRT
 70
     0
  9
$DIMTFAC
 40
1.0
  9
$DIMGAP
 40
0.09
  9
$DIMJUST
 70
     0
  9
$DIMSD1
 70
     0
  9
$DIMSD2
 70
     0
  9
$DIMTOLJ
 70
     1
  9
$DIMTZIN
 70
     0
  9
$DIMALTZ
 70
     0
  9
$DIMALTTZ
 70
     0
  9
$DIMUPT
 70
     0
  9
$DIMDEC
 70
     4
  9
$DIMTDEC
 70
     4
  9
$DIMALTU
 70
     2
  9
$DIMALTTD
 70
     2
  9
$DIMTXSTY
  7
Standard
  9
$DIMAUNIT
 70
     0
  9
$DIMADEC
 70
     0
  9
$DIMALTRND
 40
0.0
  9
$DIMAZIN
 70
     0
  9
$DIMDSEP
 70
    46
  9
$DIMATFIT
 70
     3
  9
$DIMFRAC
 70
     0
  9
$DIMLDRBLK
  1

  9
$DIMLUNIT
 70
     2
  9
$DIMLWD
 70
    -2
  9
$DIMLWE
 70
    -2
  9
$DIMTMOVE
 70
     0
  9
$DIMFXL
 40
1.0
  9
$DIMFXLON
 70
     0
  9
$DIMJOGANG
 40
0.7853981633974483
  9
$DIMTFILL
 70
     0
  9
$DIMTFILLCLR
 70
     0
  9
$DIMARCSYM
 70
     0
  9
$DIMLTYPE
  6

  9
$DIMLTEX1
  6

  9
$DIMLTEX2
  6

  9
$DIMTXTDIRECTION
 70
     0
  9
$LUNITS
 70
     2
  9
$LUPREC
 70
     4
  9
$SKETCHINC
 40
0.1
  9
$FILLETRAD
 40
0.0
  9
$AUNITS
 70
     0
  9
$AUPREC
 70
     0
  9
$MENU
  1
.
  9
$ELEVATION
 40
0.0
  9
$PELEVATION
 40
0.0
  9
$THICKNESS
 40
0.0
  9
$LIMCHECK
 70
     0
  9
$CHAMFERA
 40
0.0
  9
$CHAMFERB
 40
0.0
  9
$CHAMFERC
 40
0.0
  9
$CHAMFERD
 40
0.0
  9
$SKPOLY
 70
     0
  9
$TDCREATE
 40
2458157.454583334
  9
$TDUCREATE
 40
2458157.287916667
  9
$TDUPDATE
 40
2460668.824629629
  9
$TDUUPDATE
 40
2460668.657962963
  9
$TDINDWG
 40
0.2094560185
  9
$TDUSRTIMER
 40
0.2094560185
  9
$USRTIMER
 70
     1
  9
$ANGBASE
 50
0.0
  9
$ANGDIR
 70
     0
  9
$PDMODE
 70
     0
  9
$PDSIZE
 40
0.0
  9
$PLINEWID
 40
0.0
  9
$SPLFRAME
 70
     0
  9
$SPLINETYPE
 70
     6
  9
$SPLINESEGS
 70
     8
  9
$HANDSEED
  5
67412
  9
$SURFTAB1
 70
     6
  9
$SURFTAB2
 70
     6
  9
$SURFTYPE
 70
     6
  9
$SURFU
 70
     6
  9
$SURFV
 70
     6
  9
$UCSBASE
  2

  9
$UCSNAME
  2

  9
$UCSORG
 10
0.0
 20
0.0
 30
0.0
  9
$UCSXDIR
 10
1.0
 20
0.0
 30
0.0
  9
$UCSYDIR
 10
0.0
 20
1.0
 30
0.0
  9
$UCSORTHOREF
  2

  9
$UCSORTHOVIEW
 70
     0
  9
$UCSORGTOP
 10
0.0
 20
0.0
 30
0.0
  9
$UCSORGBOTTOM
 10
0.0
 20
0.0
 30
0.0
  9
$UCSORGLEFT
 10
0.0
 20
0.0
 30
0.0
  9
$UCSORGRIGHT
 10
0.0
 20
0.0
 30
0.0
  9
$UCSORGFRONT
 10
0.0
 20
0.0
 30
0.0
  9
$UCSORGBACK
 10
0.0
 20
0.0
 30
0.0
  9
$PUCSBASE
  2

  9
$PUCSNAME
  2

  9
$PUCSORG
 10
0.0
 20
0.0
 30
0.0
  9
$PUCSXDIR
 10
1.0
 20
0.0
 30
0.0
  9
$PUCSYDIR
 10
0.0
 20
1.0
 30
0.0
  9
$PUCSORTHOREF
  2

  9
$PUCSORTHOVIEW
 70
     0
  9
$PUCSORGTOP
 10
0.0
 20
0.0
 30
0.0
  9
$PUCSORGBOTTOM
 10
0.0
 20
0.0
 30
0.0
  9
$PUCSORGLEFT
 10
0.0
 20
0.0
 30
0.0
  9
$PUCSORGRIGHT
 10
0.0
 20
0.0
 30
0.0
  9
$PUCSORGFRONT
 10
0.0
 20
0.0
 30
0.0
  9
$PUCSORGBACK
 10
0.0
 20
0.0
 30
0.0
  9
$USERI1
 70
     0
  9
$USERI2
 70
     0
  9
$USERI3
 70
     0
  9
$USERI4
 70
     0
  9
$USERI5
 70
     0
  9
$USERR1
 40
0.0
  9
$USERR2
 40
0.0
  9
$USERR3
 40
0.0
  9
$USERR4
 40
0.0
  9
$USERR5
 40
0.0
  9
$WORLDVIEW
 70
     1
  9
$SHADEDGE
 70
     3
  9
$SHADEDIF
 70
    70
  9
$TILEMODE
 70
     1
  9
$MAXACTVP
 70
    64
  9
$PINSBASE
 10
0.0
 20
0.0
 30
0.0
  9
$PLIMCHECK
 70
     0
  9
$PEXTMIN
 10
0.0
 20
0.0
 30
0.0
  9
$PEXTMAX
 10
0.0
 20
0.0
 30
0.0
  9
$PLIMMIN
 10
0.0
 20
0.0
  9
$PLIMMAX
 10
12.0
 20
9.0
  9
$UNITMODE
 70
     0
  9
$VISRETAIN
 70
     1
  9
$PLINEGEN
 70
     0
  9
$PSLTSCALE
 70
     1
  9
$TREEDEPTH
 70
  3020
  9
$CMLSTYLE
  2
Standard
  9
$CMLJUST
 70
     0
  9
$CMLSCALE
 40
1.0
  9
$PROXYGRAPHICS
 70
     1
  9
$MEASUREMENT
 70
     0
  9
$CELWEIGHT
370
    -1
  9
$ENDCAPS
280
     0
  9
$JOINSTYLE
280
     0
  9
$LWDISPLAY
290
     0
  9
$INSUNITS
 70
     1
  9
$HYPERLINKBASE
  1

  9
$STYLESHEET
  1
monochrome.ctb
  9
$XEDIT
290
     1
  9
$CEPSNTYPE
380
     0
  9
$PSTYLEMODE
290
     1
  9
$FINGERPRINTGUID
  2
{358EB121-6EE0-9143-8A3E-6E8E8869FDA6}
  9
$VERSIONGUID
  2
{A51CBC9E-E06C-8D4E-A9B0-2E6E83E6CD0B}
  9
$EXTNAMES
290
     1
  9
$PSVPSCALE
 40
0.0
  9
$OLESTARTUP
290
     0
  9
$SORTENTS
280
   127
  9
$INDEXCTL
280
     0
  9
$HIDETEXT
280
     1
  9
$XCLIPFRAME
280
     2
  9
$HALOGAP
280
     0
  9
$OBSCOLOR
 70
   257
  9
$OBSLTYPE
280
     0
  9
$INTERSECTIONDISPLAY
280
     0
  9
$INTERSECTIONCOLOR
 70
   257
  9
$DIMASSOC
280
     2
  9
$PROJECTNAME
  1

  9
$CAMERADISPLAY
290
     0
  9
$LENSLENGTH
 40
50.0
  9
$CAMERAHEIGHT
 40
0.0
  9
$STEPSPERSEC
 40
2.0
  9
$STEPSIZE
 40
6.0
  9
$3DDWFPREC
 40
2.0
  9
$PSOLWIDTH
 40
0.25
  9
$PSOLHEIGHT
 40
4.0
  9
$LOFTANG1
 40
1.570796326794896
  9
$LOFTANG2
 40
1.570796326794896
  9
$LOFTMAG1
 40
0.0
  9
$LOFTMAG2
 40
0.0
  9
$LOFTPARAM
 70
     7
  9
$LOFTNORMALS
280
     1
  9
$LATITUDE
 40
37.795
  9
$LONGITUDE
 40
-122.394
  9
$NORTHDIRECTION
 40
0.0
  9
$TIMEZONE
 70
 -8000
  9
$LIGHTGLYPHDISPLAY
280
     1
  9
$TILEMODELIGHTSYNCH
280
     1
  9
$CMATERIAL
347
96
  9
$SOLIDHIST
280
     0
  9
$SHOWHIST
280
     1
  9
$DWFFRAME
280
     2
  9
$DGNFRAME
280
     0
  9
$REALWORLDSCALE
290
     1
  9
$INTERFERECOLOR
 62
     1
  9
$INTERFEREOBJVS
345
A3
  9
$INTERFEREVPVS
346
A0
  9
$CSHADOW
280
     0
  9
$SHADOWPLANELOCATION
 40
0.0
  0
ENDSEC
  0
SECTION
  2
CLASSES
  0
CLASS
  1
ACDBDICTIONARYWDFLT
  2
AcDbDictionaryWithDefault
  3
ObjectDBX Classes
 90
        0
 91
        1
280
     0
281
     0
  0
CLASS
  1
DICTIONARYVAR
  2
AcDbDictionaryVar
  3
ObjectDBX Classes
 90
        0
 91
       27
280
     0
281
     0
  0
CLASS
  1
TABLESTYLE
  2
AcDbTableStyle
  3
ObjectDBX Classes
 90
     4095
 91
        1
280
     0
281
     0
  0
CLASS
  1
MATERIAL
  2
AcDbMaterial
  3
ObjectDBX Classes
 90
     1153
 91
        3
280
     0
281
     0
  0
CLASS
  1
VISUALSTYLE
  2
AcDbVisualStyle
  3
ObjectDBX Classes
 90
     4095
 91
       25
280
     0
281
     0
  0
CLASS
  1
SCALE
  2
AcDbScale
  3
ObjectDBX Classes
 90
     1153
 91
       34
280
     0
281
     0
  0
CLASS
  1
MLEADERSTYLE
  2
AcDbMLeaderStyle
  3
ACDB_MLEADERSTYLE_CLASS
 90
     4095
 91
        1
280
     0
281
     0
  0
CLASS
  1
CELLSTYLEMAP
  2
AcDbCellStyleMap
  3
ObjectDBX Classes
 90
     1152
 91
        1
280
     0
281
     0
  0
CLASS
  1
EXACXREFPANELOBJECT
  2
ExAcXREFPanelObject
  3
EXAC_ESW
 90
     1025
 91
        1
280
     0
281
     0
  0
CLASS
  1
NPOCOLLECTION
  2
AcDbImpNonPersistentObjectsCollection
  3
ObjectDBX Classes
 90
     1153
 91
        1
280
     0
281
     0
  0
CLASS
  1
LAYER_INDEX
  2
AcDbLayerIndex
  3
ObjectDBX Classes
 90
        0
 91
        0
280
     0
281
     0
  0
CLASS
  1
SPATIAL_INDEX
  2
AcDbSpatialIndex
  3
ObjectDBX Classes
 90
        0
 91
        0
280
     0
281
     0
  0
CLASS
  1
IDBUFFER
  2
AcDbIdBuffer
  3
ObjectDBX Classes
 90
        0
 91
        0
280
     0
281
     0
  0
CLASS
  1
ACDBSECTIONVIEWSTYLE
  2
AcDbSectionViewStyle
  3
ObjectDBX Classes
 90
     1025
 91
        2
280
     0
281
     0
  0
CLASS
  1
ACDBDETAILVIEWSTYLE
  2
AcDbDetailViewStyle
  3
ObjectDBX Classes
 90
     1025
 91
        2
280
     0
281
     0
  0
CLASS
  1
SORTENTSTABLE
  2
AcDbSortentsTable
  3
ObjectDBX Classes
 90
        0
 91
        1
280
     0
281
     0
  0
CLASS
  1
ACAD_EVALUATION_GRAPH
  2
AcDbEvalGraph
  3
ObjectDBX Classes
 90
     1153
 91
        0
280
     0
281
     0
  0
CLASS
  1
BLOCKLINEARPARAMETER
  2
AcDbBlockLinearParameter
  3
ObjectDBX Classes
 90
     1153
 91
        0
280
     0
281
     0
  0
CLASS
  1
BLOCKLINEARGRIP
  2
AcDbBlockLinearGrip
  3
ObjectDBX Classes
 90
     1153
 91
        0
280
     0
281
     0
  0
CLASS
  1
BLOCKGRIPLOCATIONCOMPONENT
  2
AcDbBlockGripExpr
  3
ObjectDBX Classes
 90
     1153
 91
        0
280
     0
281
     0
  0
CLASS
  1
BLOCKSTRETCHACTION
  2
AcDbBlockStretchAction
  3
ObjectDBX Classes
 90
     1153
 91
        0
280
     0
281
     0
  0
CLASS
  1
ACDB_DYNAMICBLOCKPURGEPREVENTER_VERSION
  2
AcDbDynamicBlockPurgePreventer
  3
ObjectDBX Classes
 90
     1153
 91
        0
280
     0
281
     0
  0
CLASS
  1
BLOCKVISIBILITYPARAMETER
  2
AcDbBlockVisibilityParameter
  3
ObjectDBX Classes
 90
     1153
 91
        0
280
     0
281
     0
  0
CLASS
  1
BLOCKVISIBILITYGRIP
  2
AcDbBlockVisibilityGrip
  3
ObjectDBX Classes
 90
     1153
 91
        0
280
     0
281
     0
  0
CLASS
  1
ACDB_BLOCKREPRESENTATION_DATA
  2
AcDbBlockRepresentationData
  3
ObjectDBX Classes
 90
     1153
 91
        0
280
     0
281
     0
  0
CLASS
  1
SURFACE
  2
AcDbSurface
  3
ObjectDBX Classes
 90
     4095
 91
        0
280
     0
281
     1
  0
CLASS
  1
ACDBASSOCPERSSUBENTMANAGER
  2
AcDbAssocPersSubentManager
  3
ObjectDBX Classes
 90
     1024
 91
        1
280
     0
281
     0
  0
CLASS
  1
BLOCKARRAYACTION
  2
AcDbBlockArrayAction
  3
ObjectDBX Classes
 90
     1153
 91
        0
280
     0
281
     0
  0
CLASS
  1
BLOCKLOOKUPPARAMETER
  2
AcDbBlockLookupParameter
  3
ObjectDBX Classes
 90
     1153
 91
        0
280
     0
281
     0
  0
CLASS
  1
BLOCKLOOKUPGRIP
  2
AcDbBlockLookupGrip
  3
ObjectDBX Classes
 90
     1153
 91
        0
280
     0
281
     0
  0
CLASS
  1
BLOCKLOOKUPACTION
  2
AcDbBlockLookupAction
  3
ObjectDBX Classes
 90
     1153
 91
        0
280
     0
281
     0
  0
CLASS
  1
WIPEOUT
  2
AcDbWipeout
  3
WipeOut|Product Desc: Object Enabler for WipeOut entity | Company: Autodesk, Inc. | WEB Address: www.autodesk.com
 90
     2175
 91
        0
280
     0
281
     1
  0
CLASS
  1
WIPEOUTVARIABLES
  2
AcDbWipeoutVariables
  3
"WipeOut|Product Desc:     WipeOut Dbx Application|Company:          Autodesk, Inc.|WEB Address:      www.autodesk.com"
 90
        0
 91
        1
280
     0
281
     0
  0
ENDSEC
  0
SECTION
  2
TABLES
  0
TABLE
  2
VPORT
  5
8
330
0
100
AcDbSymbolTable
 70
     1
  0
VPORT
  5
94
330
8
100
AcDbSymbolTableRecord
100
AcDbViewportTableRecord
  2
*Active
 70
     0
 10
0.0
 20
0.0
 11
1.0
 21
1.0
 12
159388.5840048782
 22
108714.9368764784
 13
0.0
 23
0.0
 14
0.5
 24
0.5
 15
0.5
 25
0.5
 16
0.0
 26
0.0
 36
1.0
 17
0.0
 27
0.0
 37
0.0
 40
4751.166000368393
 41
2.293369663941871
 42
50.0
 43
0.0
 44
0.0
 50
0.0
 51
0.0
 71
     0
 72
  1000
 73
     1
 74
     3
 75
     0
 76
     0
 77
     0
 78
     0
281
     0
 65
     1
110
0.0
120
0.0
130
0.0
111
1.0
121
0.0
131
0.0
112
0.0
122
1.0
132
0.0
 79
     0
146
0.0
348
9F
 60
     3
 61
     5
292
     1
282
     1
141
0.0
142
0.0
 63
   250
421
  3355443
1001
ACAD_NAV_VCDISPLAY
1070
     3
  0
ENDTAB
  0
TABLE
  2
LTYPE
  5
5
330
0
100
AcDbSymbolTable
 70
     1
  0
LTYPE
  5
14
330
5
100
AcDbSymbolTableRecord
100
AcDbLinetypeTableRecord
  2
ByBlock
 70
     0
  3

 72
    65
 73
     0
 40
0.0
  0
LTYPE
  5
15
330
5
100
AcDbSymbolTableRecord
100
AcDbLinetypeTableRecord
  2
ByLayer
 70
     0
  3

 72
    65
 73
     0
 40
0.0
  0
LTYPE
  5
16
330
5
100
AcDbSymbolTableRecord
100
AcDbLinetypeTableRecord
  2
Continuous
 70
     0
  3
Solid line
 72
    65
 73
     0
 40
0.0
  0
ENDTAB
  0
TABLE
  2
LAYER
  5
2
102
{ACAD_XDICTIONARY
360
18E
102
}
330
0
100
AcDbSymbolTable
 70
     2
  0
LAYER
  5
10
102
{ACAD_XDICTIONARY
360
E6
102
}
330
2
100
AcDbSymbolTableRecord
100
AcDbLayerTableRecord
  2
0
 70
     0
 62
     7
  6
Continuous
370
    -3
390
F
347
98
348
0
  0
LAYER
  5
204
330
2
100
AcDbSymbolTableRecord
100
AcDbLayerTableRecord
  2
freecads.com
 70
     0
 62
     7
  6
Continuous
370
    -3
390
F
347
98
348
0
1001
AcAecLayerStandard
1000

1000

1001
AcCmTransparency
1071
        0
  0
ENDTAB
  0
TABLE
  2
STYLE
  5
3
330
0
100
AcDbSymbolTable
 70
     2
  0
STYLE
  5
11
330
3
100
AcDbSymbolTableRecord
100
AcDbTextStyleTableRecord
  2
Standard
 70
     0
 40
0.0
 41
1.0
 50
0.0
 71
     0
 42
0.2
  3
arial.ttf
  4

1001
ACAD
1000
Arial
1071
       34
  0
ENDTAB
  0
TABLE
  2
VIEW
  5
6
330
0
100
AcDbSymbolTable
 70
     0
  0
ENDTAB
  0
TABLE
  2
UCS
  5
7
330
0
100
AcDbSymbolTable
 70
     0
  0
ENDTAB
  0
TABLE
  2
APPID
  5
9
330
0
100
AcDbSymbolTable
 70
    31
  0
APPID
  5
12
330
9
100
AcDbSymbolTableRecord
100
AcDbRegAppTableRecord
  2
ACAD
 70
     0
  0
APPID
  5
DD
330
9
100
AcDbSymbolTableRecord
100
AcDbRegAppTableRecord
  2
AcadAnnoPO
 70
     0
  0
APPID
  5
DE
330
9
100
AcDbSymbolTableRecord
100
AcDbRegAppTableRecord
  2
AcadAnnotative
 70
     0
  0
APPID
  5
DF
330
9
100
AcDbSymbolTableRecord
100
AcDbRegAppTableRecord
  2
ACAD_DSTYLE_DIMJAG
 70
     0
  0
APPID
  5
E0
330
9
100
AcDbSymbolTableRecord
100
AcDbRegAppTableRecord
  2
ACAD_DSTYLE_DIMTALN
 70
     0
  0
APPID
  5
107
330
9
100
AcDbSymbolTableRecord
100
AcDbRegAppTableRecord
  2
ACAD_MLEADERVER
 70
     0
  0
APPID
  5
1A6
330
9
100
AcDbSymbolTableRecord
100
AcDbRegAppTableRecord
  2
ACAD_NAV_VCDISPLAY
 70
     0
  0
APPID
  5
205
330
9
100
AcDbSymbolTableRecord
100
AcDbRegAppTableRecord
  2
AcAecLayerStandard
 70
     0
  0
APPID
  5
206
330
9
100
AcDbSymbolTableRecord
100
AcDbRegAppTableRecord
  2
AcCmTransparency
 70
     0
  0
APPID
  5
222
330
9
100
AcDbSymbolTableRecord
100
AcDbRegAppTableRecord
  2
ACAD_PSEXT
 70
     0
  0
APPID
  5
2DA
330
9
100
AcDbSymbolTableRecord
100
AcDbRegAppTableRecord
  2
GradientColor1ACI
 70
     0
  0
APPID
  5
2DB
330
9
100
AcDbSymbolTableRecord
100
AcDbRegAppTableRecord
  2
GradientColor2ACI
 70
     0
  0
APPID
  5
2F3
330
9
100
AcDbSymbolTableRecord
100
AcDbRegAppTableRecord
  2
ACAD_EXEMPT_FROM_CAD_STANDARDS
 70
     0
  0
APPID
  5
A1A
330
9
100
AcDbSymbolTableRecord
100
AcDbRegAppTableRecord
  2
AcDbBlockRepETag
 70
     0
  0
APPID
  5
2282
330
9
100
AcDbSymbolTableRecord
100
AcDbRegAppTableRecord
  2
RAK
 70
     0
  0
APPID
  5
39F4
330
9
100
AcDbSymbolTableRecord
100
AcDbRegAppTableRecord
  2
ACAD_DSTYLE_DIMJOGGED_JOGANGLE_SYMBOL
 70
     0
  0
APPID
  5
39F5
330
9
100
AcDbSymbolTableRecord
100
AcDbRegAppTableRecord
  2
AcDbDynamicBlockGUID
 70
     0
  0
APPID
  5
39F6
330
9
100
AcDbSymbolTableRecord
100
AcDbRegAppTableRecord
  2
ACAD_DSTYLE_DIMBREAK
 70
     0
  0
APPID
  5
3B59
330
9
100
AcDbSymbolTableRecord
100
AcDbRegAppTableRecord
  2
AEC_XDATA_BOUND_SPACE
 70
     0
  0
APPID
  5
75C5
330
9
100
AcDbSymbolTableRecord
100
AcDbRegAppTableRecord
  2
AcDbDynamicBlockTrueName
 70
     0
  0
APPID
  5
75C6
330
9
100
AcDbSymbolTableRecord
100
AcDbRegAppTableRecord
  2
AcDbBlockRepBTag
 70
     0
  0
APPID
  5
75C7
330
9
100
AcDbSymbolTableRecord
100
AcDbRegAppTableRecord
  2
ACAUTHENVIRON
 70
     0
  0
APPID
  5
AA90
330
9
100
AcDbSymbolTableRecord
100
AcDbRegAppTableRecord
  2
Acad_TC
 70
     0
  0
APPID
  5
AA9C
330
9
100
AcDbSymbolTableRecord
100
AcDbRegAppTableRecord
  2
AcDbBlockArrayActionTag
 70
     0
  0
APPID
  5
BEE4
330
9
100
AcDbSymbolTableRecord
100
AcDbRegAppTableRecord
  2
ACAD_DSTYLE_DIMTEXT_FILL
 70
     0
  0
APPID
  5
219E5
330
9
100
AcDbSymbolTableRecord
100
AcDbRegAppTableRecord
  2
AECLAY
 70
     0
  0
APPID
  5
26B46
330
9
100
AcDbSymbolTableRecord
100
AcDbRegAppTableRecord
  2
REVIT
 70
     0
  0
APPID
  5
280A5
330
9
100
AcDbSymbolTableRecord
100
AcDbRegAppTableRecord
  2
HATCHBACKGROUNDCOLOR
 70
     0
  0
APPID
  5
29EE0
330
9
100
AcDbSymbolTableRecord
100
AcDbRegAppTableRecord
  2
ACAD_STEPID
 70
     0
  0
APPID
  5
29EE1
330
9
100
AcDbSymbolTableRecord
100
AcDbRegAppTableRecord
  2
AcLayerTools
 70
     0
  0
APPID
  5
4D86C
330
9
100
AcDbSymbolTableRecord
100
AcDbRegAppTableRecord
  2
PE_URL
 70
     0
  0
ENDTAB
  0
TABLE
  2
DIMSTYLE
  5
A
330
0
100
AcDbSymbolTable
 70
     2
100
AcDbDimStyleTable
 71
     1
340
27
  0
DIMSTYLE
105
27
330
A
100
AcDbSymbolTableRecord
100
AcDbDimStyleTableRecord
  2
Standard
 70
     0
340
11
  0
ENDTAB
  0
TABLE
  2
BLOCK_RECORD
  5
1
330
0
100
AcDbSymbolTable
 70
     2
  0
BLOCK_RECORD
  5
1F
102
{ACAD_XDICTIONARY
360
15D
102
}
330
1
100
AcDbSymbolTableRecord
100
AcDbBlockTableRecord
  2
*Model_Space
340
22
 70
     0
280
     1
281
     0
  0
BLOCK_RECORD
  5
58
330
1
100
AcDbSymbolTableRecord
100
AcDbBlockTableRecord
  2
*Paper_Space
340
59
 70
     0
280
     1
281
     0
  0
BLOCK_RECORD
  5
5D
330
1
100
AcDbSymbolTableRecord
100
AcDbBlockTableRecord
  2
*Paper_Space0
340
5E
 70
     0
280
     1
281
     0
  0
ENDTAB
  0
ENDSEC
  0
SECTION
  2
BLOCKS
  0
BLOCK
  5
20
330
1F
100
AcDbEntity
  8
0
100
AcDbBlockBegin
  2
*Model_Space
 70
     0
 10
0.0
 20
0.0
 30
0.0
  3
*Model_Space
  1

  0
ENDBLK
  5
21
330
1F
100
AcDbEntity
  8
0
100
AcDbBlockEnd
  0
BLOCK
  5
5A
330
58
100
AcDbEntity
 67
     1
  8
0
100
AcDbBlockBegin
  2
*Paper_Space
 70
     0
 10
0.0
 20
0.0
 30
0.0
  3
*Paper_Space
  1

  0
ENDBLK
  5
5B
330
58
100
AcDbEntity
 67
     1
  8
0
100
AcDbBlockEnd
  0
BLOCK
  5
5F
330
5D
100
AcDbEntity
 67
     1
  8
0
100
AcDbBlockBegin
  2
*Paper_Space0
 70
     0
 10
0.0
 20
0.0
 30
0.0
  3
*Paper_Space0
  1

  0
ENDBLK
  5
60
330
5D
100
AcDbEntity
 67
     1
  8
0
100
AcDbBlockEnd
  0
ENDSEC
  0
SECTION
  2
ENTITIES
  0
HATCH
  5
60D30
330
1F
100
AcDbEntity
  8
freecads.com
100
AcDbHatch
 10
0.0
 20
0.0
 30
-920.6412591667797
210
0.0
220
0.0
230
1.0
  2
SOLID
 70
     1
 71
     0
 91
        1
 92
        5
 93
        6
 72
     4
 94
        3
 73
     0
 74
     0
 95
        9
 96
        5
 40
35.5795513084414
 40
35.5795513084414
 40
35.5795513084414
 40
35.5795513084414
 40
37.06808377312571
 40
38.1973034793221
 40
38.1973034793221
 40
38.1973034793221
 40
38.1973034793221
 10
159192.5645031843
 20
109363.2934841841
 10
159189.7821757643
 20
109368.0837339929
 10
159184.5059125581
 20
109376.1826192492
 10
159178.3556452609
 20
109383.1571119701
 10
159175.6568503259
 20
109386.1313187764
 97
        0
 72
     2
 10
159239.9281589331
 20
109450.9686896579
 40
91.29450023365315
 50
134.7487948018442
 51
137.4744807255005
 73
     0
 72
     2
 10
159125.679621442
 20
109494.4088023942
 40
115.1603958688485
 50
65.93098082106806
 51
73.95612745939942
 73
     0
 72
     1
 10
159157.5068838222
 20
109383.7338632886
 11
159065.5889487062
 21
109353.3648751829
 72
     2
 10
158872.3258642511
 20
109226.2141232319
 40
231.3394335923432
 50
326.6584679486016
 51
353.9953702684965
 73
     0
 72
     2
 10
159240.4471410094
 20
109232.5914933137
 40
139.1968297868312
 50
187.3563518674212
 51
249.8797057623053
 73
     0
 97
        0
 75
     0
 76
     1
 47
0.0007454424399967
 98
        1
 10
159123.1587848839
 20
109334.359801371
450
        0
451
        0
460
0.0
461
0.0
452
        0
462
0.0
453
        0
470

  0
SPLINE
  5
60D31
330
1F
100
AcDbEntity
  8
freecads.com
100
AcDbSpline
210
0.0
220
0.0
230
1.0
 70
     8
 71
     3
 72
    12
 73
     8
 74
     0
 42
0.000000001
 43
0.0000000001
 40
0.0
 40
0.0
 40
0.0
 40
0.0
 40
4.30120768877123
 40
11.76875625128945
 40
18.49704897806118
 40
26.65468551003182
 40
32.35617987591453
 40
32.35617987591453
 40
32.35617987591453
 40
32.35617987591453
 10
159101.1685781644
 20
109017.4362114725
 30
0.0
 10
159109.6514558287
 20
109030.1325863198
 30
0.0
 10
159135.1179987642
 20
109081.5767204483
 30
0.0
 10
159163.9339444568
 20
109122.7772921647
 30
0.0
 10
159199.7634590847
 20
109185.5993708988
 30
0.0
 10
159212.9651974784
 20
109267.91170216
 30
0.0
 10
159198.1421307457
 20
109310.4454996241
 30
0.0
 10
159190.0625224512
 20
109328.9447370782
 30
0.0
  0
SPLINE
  5
60D34
330
1F
100
AcDbEntity
  8
freecads.com
100
AcDbSpline
210
0.0
220
0.0
230
1.0
 70
     8
 71
     3
 72
    11
 73
     7
 74
     0
 42
0.000000001
 43
0.0000000001
 40
0.0
 40
0.0
 40
0.0
 40
0.0
 40
4.30120768877123
 40
11.76875625128945
 40
18.49704897806118
 40
19.40480274836216
 40
19.40480274836216
 40
19.40480274836216
 40
19.40480274836216
 10
159186.242068101
 20
109069.1536307179
 30
0.0
 10
159190.567011557
 20
109083.7978108531
 30
0.0
 10
159199.5887231757
 20
109140.4868967937
 30
0.0
 10
159214.8536471838
 20
109188.3912591311
 30
0.0
 10
159225.3493138988
 20
109236.1161689994
 30
0.0
 10
159225.676144287
 20
109263.567374873
 30
0.0
 10
159225.6434777736
 20
109266.8631985878
 30
0.0
  0
SPLINE
  5
60D39
330
1F
100
AcDbEntity
  8
freecads.com
100
AcDbSpline
210
0.0
220
0.0
230
1.0
 70
     8
 71
     3
 72
    15
 73
    11
 74
     0
 42
0.000000001
 43
0.0000000001
 40
0.4491288558947835
 40
0.4491288558947835
 40
0.4491288558947835
 40
0.4491288558947835
 40
0.4504757324214067
 40
0.4729326705909655
 40
0.497920116921471
 40
0.5903333622658711
 40
0.6721374980877517
 40
0.7116802994003513
 40
0.7710104940803833
 40
0.7886945583510704
 40
0.7886945583510704
 40
0.7886945583510704
 40
0.7886945583510704
 10
159116.9582908524
 20
109381.2362804294
 30
0.0
 10
159130.4356060748
 20
109437.9510716354
 30
0.0
 10
159133.311867178
 20
109445.8263906601
 30
0.0
 10
159135.1241657579
 20
109463.5216680534
 30
0.0
 10
159131.395040974
 20
109512.8781763822
 30
0.0
 10
159128.2427754079
 20
109583.8371420506
 30
0.0
 10
159137.018588138
 20
109659.6310404431
 30
0.0
 10
159131.3090143696
 20
109723.6747275142
 30
0.0
 10
159130.7482828137
 20
109765.0868405878
 30
0.0
 10
159128.3214044245
 20
109792.3361267394
 30
0.0
 10
159127.7641430289
 20
109798.5931255627
 30
0.0
  0
SPLINE
  5
60D3A
330
1F
100
AcDbEntity
  8
freecads.com
100
AcDbSpline
210
0.0
220
0.0
230
1.0
 70
  1064
 71
     3
 72
    24
 73
    20
 74
    18
 42
0.000000001
 43
0.0000000001
 44
0.0000000001
 40
0.0
 40
0.0
 40
0.0
 40
0.0
 40
64.12233496994445
 40
85.4241614387414
 40
97.34345805766638
 40
105.538134116985
 40
114.8783599687512
 40
120.1172242890249
 40
132.1657913877757
 40
153.6855015845492
 40
190.1998826836292
 40
217.976204037863
 40
244.3241214062886
 40
269.3139591087781
 40
292.5086034623213
 40
314.8384154183578
 40
331.2896124416149
 40
347.5936282424813
 40
364.1708025639925
 40
364.1708025639925
 40
364.1708025639925
 40
364.1708025639925
 10
159029.0753765381
 20
109841.2917193437
 30
0.0
 10
159018.4313252625
 20
109823.0781451369
 30
0.0
 10
159004.2512559473
 20
109798.8139117128
 30
0.0
 10
158991.1487210672
 20
109767.5115719742
 30
0.0
 10
158983.9594772165
 20
109757.7913199773
 30
0.0
 10
158976.3094033665
 20
109746.1715242905
 30
0.0
 10
158970.2780225767
 20
109759.2621034517
 30
0.0
 10
158963.4142962789
 20
109749.9837687139
 30
0.0
 10
158961.2244902167
 20
109738.289745662
 30
0.0
 10
158958.1801864555
 20
109714.1398644991
 30
0.0
 10
158941.1066973092
 20
109690.4722886397
 30
0.0
 10
158926.0788572487
 20
109664.4448716268
 30
0.0
 10
158914.0972960836
 20
109640.6592428228
 30
0.0
 10
158911.515883135
 20
109615.2692376093
 30
0.0
 10
158918.5707097358
 20
109592.1506352515
 30
0.0
 10
158932.6768336277
 20
109576.1970207481
 30
0.0
 10
158949.1413502655
 20
109567.4397917295
 30
0.0
 10
158966.9667339465
 20
109567.2863133159
 30
0.0
 10
158975.3088908127
 20
109574.9339924352
 30
0.0
 10
158979.5146202305
 20
109578.7895983133
 30
0.0
 11
159029.0753765381
 21
109841.2917193437
 31
0.0
 11
158998.6543369789
 21
109784.8449816688
 31
0.0
 11
158989.3533133291
 21
109765.6809849569
 31
0.0
 11
158982.7044991953
 21
109755.788416913
 31
0.0
 11
158976.5873603933
 21
109750.335589335
 31
0.0
 11
158969.2341413061
 21
109756.0949285347
 31
0.0
 11
158965.4892592976
 21
109752.4313840613
 31
0.0
 11
158961.815099423
 21
109740.9566937235
 31
0.0
 11
158957.5904543149
 21
109719.855738753
 31
0.0
 11
158940.0559660522
 21
109687.8269743621
 31
0.0
 11
158926.0466243873
 21
109663.8423464915
 31
0.0
 11
158915.4712032824
 21
109639.7099363734
 31
0.0
 11
158913.1992570711
 21
109614.8235897389
 31
0.0
 11
158920.1646845592
 21
109592.6995226039
 31
0.0
 11
158934.9313894063
 21
109575.9494500683
 31
0.0
 11
158949.701251626
 21
109568.7042410644
 31
0.0
 11
158965.9979518176
 21
109569.1925996418
 31
0.0
 11
158979.5146202305
 21
109578.7895983133
 31
0.0
  0
SPLINE
  5
60D3B
330
1F
100
AcDbEntity
  8
freecads.com
100
AcDbSpline
210
0.0
220
0.0
230
1.0
 70
     8
 71
     3
 72
    10
 73
     6
 74
     0
 42
0.000000001
 43
0.0000000001
 40
0.6566073589763841
 40
0.6566073589763841
 40
0.6566073589763841
 40
0.6566073589763841
 40
0.6761852227503035
 40
0.6981353320278697
 40
0.700933172403683
 40
0.700933172403683
 40
0.700933172403683
 40
0.700933172403683
 10
158814.2455537587
 20
109485.1625598632
 30
0.0
 10
158807.6504375128
 20
109487.2958275185
 30
0.0
 10
158793.4272242192
 20
109491.2975617522
 30
0.0
 10
158776.379124652
 20
109490.8630416141
 30
0.0
 10
158769.0908945055
 20
109494.6500049118
 30
0.0
 10
158768.2918591974
 20
109495.1240225588
 30
0.0
  0
SPLINE
  5
60D3D
330
1F
100
AcDbEntity
  8
freecads.com
100
AcDbSpline
210
0.0
220
0.0
230
1.0
 70
     8
 71
     3
 72
    10
 73
     6
 74
     0
 42
0.000000001
 43
0.0000000001
 40
0.0
 40
0.0
 40
0.0
 40
0.0
 40
0.0311865868366867
 40
0.0859953779069916
 40
0.1095202917001087
 40
0.1095202917001087
 40
0.1095202917001087
 40
0.1095202917001087
 10
158949.867088878
 20
109568.6660252539
 30
0.0
 10
158952.7837461962
 20
109557.9604074737
 30
0.0
 10
158960.8262758139
 20
109528.4402278028
 30
0.0
 10
158963.0420601361
 20
109489.3552600266
 30
0.0
 10
158963.8214297421
 20
109461.5346729472
 30
0.0
 10
158964.0592535639
 20
109453.1855067527
 30
0.0
  0
SPLINE
  5
60D3F
330
1F
100
AcDbEntity
  8
freecads.com
100
AcDbSpline
210
0.0
220
0.0
230
1.0
 70
     8
 71
     3
 72
    10
 73
     6
 74
     0
 42
0.000000001
 43
0.0000000001
 40
0.4318332305298387
 40
0.4318332305298387
 40
0.4318332305298387
 40
0.4318332305298387
 40
0.4354939018439265
 40
0.5020347344915097
 40
0.5663180923635365
 40
0.5663180923635365
 40
0.5663180923635365
 40
0.5663180923635365
 10
159050.0084344375
 20
109447.2849188186
 30
0.0
 10
159048.7197427447
 20
109447.1418254646
 30
0.0
 10
159023.9848989069
 20
109444.7139726841
 30
0.0
 10
158975.9398604861
 20
109452.3657374714
 30
0.0
 10
158930.5721512278
 20
109461.0255226626
 30
0.0
 10
158908.0683266024
 20
109464.8244334046
 30
0.0
  0
SPLINE
  5
60D40
330
1F
100
AcDbEntity
  8
freecads.com
100
AcDbSpline
210
0.0
220
0.0
230
1.0
 70
     8
 71
     3
 72
    13
 73
     9
 74
     0
 42
0.000000001
 43
0.0000000001
 40
0.330150067607007
 40
0.330150067607007
 40
0.330150067607007
 40
0.330150067607007
 40
0.3637546630043285
 40
0.423341435910967
 40
0.4504757324212381
 40
0.4729326705907276
 40
0.4979201169213008
 40
0.5000311923770089
 40
0.5000311923770089
 40
0.5000311923770089
 40
0.5000311923770089
 10
158938.7234896353
 20
109380.3646995299
 30
0.0
 10
158950.4553716042
 20
109377.9177383609
 30
0.0
 10
158983.4502326876
 20
109373.5171410333
 30
0.0
 10
159026.6027870962
 20
109377.8102697232
 30
0.0
 10
159064.3949366617
 20
109365.4882166819
 30
0.0
 10
159091.0281039763
 20
109370.9586032071
 30
0.0
 10
159107.3148971117
 20
109377.4647540731
 30
0.0
 10
159116.261101667
 20
109380.9640509853
 30
0.0
 10
159116.9582908522
 20
109381.2362804293
 30
0.0
  0
SPLINE
  5
60D41
330
1F
100
AcDbEntity
  8
freecads.com
100
AcDbSpline
210
0.0
220
0.0
230
1.0
 70
     8
 71
     3
 72
    16
 73
    12
 74
     0
 42
0.000000001
 43
0.0000000001
 40
0.0071308767964426
 40
0.0071308767964426
 40
0.0071308767964426
 40
0.0071308767964426
 40
0.0322481590419207
 40
0.071818432080107
 40
0.1089952050513093
 40
0.194396449497402
 40
0.2311752255374583
 40
0.2853077402737914
 40
0.338359933086293
 40
0.3963208872584599
 40
0.4318332305300599
 40
0.4318332305300599
 40
0.4318332305300599
 40
0.4318332305300599
 10
159085.4923282127
 20
109860.9354359757
 30
0.0
 10
159076.6481462322
 20
109859.5620524826
 30
0.0
 10
159054.1016710998
 20
109855.0649311824
 30
0.0
 10
159022.8342787069
 20
109830.3748645744
 30
0.0
 10
159014.328367336
 20
109770.6929542557
 30
0.0
 10
159025.7258844782
 20
109715.1601823902
 30
0.0
 10
159041.337604029
 20
109654.4409317803
 30
0.0
 10
159046.0132351666
 20
109603.3648402345
 30
0.0
 10
159050.844372827
 20
109544.9525331787
 30
0.0
 10
159054.8388593966
 20
109493.0768893171
 30
0.0
 10
159052.4340820237
 20
109459.6273119488
 30
0.0
 10
159050.0084344373
 20
109447.2849188187
 30
0.0
  0
SPLINE
  5
60D43
330
1F
100
AcDbEntity
  8
freecads.com
100
AcDbSpline
210
0.0
220
0.0
230
1.0
 70
     8
 71
     3
 72
    13
 73
     9
 74
     0
 42
0.000000001
 43
0.0000000001
 40
0.4491288558947835
 40
0.4491288558947835
 40
0.4491288558947835
 40
0.4491288558947835
 40
0.4504757324214067
 40
0.4729326705909655
 40
0.497920116921471
 40
0.5903333622658711
 40
0.6721374980877517
 40
0.7046518800189393
 40
0.7046518800189393
 40
0.7046518800189393
 40
0.7046518800189393
 10
159292.7178512052
 20
109444.4965194987
 30
0.0
 10
159280.0393618255
 20
109501.395214336
 30
0.0
 10
159279.1825220776
 20
109509.7354393522
 30
0.0
 10
159273.0749480176
 20
109526.4418694696
 30
0.0
 10
159248.1395860225
 20
109569.1993133623
 30
0.0
 10
159214.2771222799
 20
109631.636843232
 30
0.0
 10
159189.8580687335
 20
109701.2708682386
 30
0.0
 10
159169.3228779377
 20
109736.345002085
 30
0.0
 10
159163.5898029046
 20
109746.3809644001
 30
0.0
  0
SPLINE
  5
60D44
330
1F
100
AcDbEntity
  8
freecads.com
100
AcDbSpline
210
0.0
220
0.0
230
1.0
 70
     8
 71
     3
 72
    10
 73
     6
 74
     0
 42
0.000000001
 43
0.0000000001
 40
0.3236217764144585
 40
0.3236217764144585
 40
0.3236217764144585
 40
0.3236217764144585
 40
0.338359933086293
 40
0.3963208872584599
 40
0.4318332305300599
 40
0.4318332305300599
 40
0.4318332305300599
 40
0.4318332305300599
 10
159152.7653388337
 20
109577.8094257179
 30
0.0
 10
159155.4283398544
 20
109573.3057273419
 30
0.0
 10
159168.5433307443
 20
109551.0808794258
 30
0.0
 10
159187.9482352447
 20
109517.9163610419
 30
0.0
 10
159200.4116982587
 20
109486.7824684161
 30
0.0
 10
159203.6270635972
 20
109474.6218820763
 30
0.0
  0
SPLINE
  5
60D45
330
1F
100
AcDbEntity
  8
freecads.com
100
AcDbSpline
210
0.0
220
0.0
230
1.0
 70
     8
 71
     3
 72
    12
 73
     8
 74
     0
 42
0.000000001
 43
0.0000000001
 40
0.3760436177485769
 40
0.3760436177485769
 40
0.3760436177485769
 40
0.3760436177485769
 40
0.423341435910967
 40
0.4504757324212381
 40
0.4729326705907276
 40
0.4979201169213008
 40
0.5000311923770089
 40
0.5000311923770089
 40
0.5000311923770089
 40
0.5000311923770089
 10
159178.7724723456
 20
109382.6416385695
 30
0.0
 10
159193.9760780821
 20
109389.9253848462
 30
0.0
 10
159217.3881216585
 20
109402.5192325047
 30
0.0
 10
159252.3317800249
 20
109407.3498780599
 30
0.0
 10
159273.8919411889
 20
109423.9152087392
 30
0.0
 10
159285.6943463614
 20
109436.8879826088
 30
0.0
 10
159292.2098795475
 20
109443.9468410243
 30
0.0
 10
159292.717851205
 20
109444.4965194986
 30
0.0
  0
SPLINE
  5
60D46
330
1F
100
AcDbEntity
  8
freecads.com
100
AcDbSpline
210
0.0
220
0.0
230
1.0
 70
     8
 71
     3
 72
     9
 73
     5
 74
     0
 42
0.000000001
 43
0.0000000001
 40
0.4318332305298387
 40
0.4318332305298387
 40
0.4318332305298387
 40
0.4318332305298387
 40
0.4354939018439265
 40
0.4794732304131803
 40
0.4794732304131803
 40
0.4794732304131803
 40
0.4794732304131803
 10
159203.6270635972
 20
109474.6218820763
 30
0.0
 10
159202.5306669102
 20
109473.9296998086
 30
0.0
 10
159188.1552923139
 20
109465.1083369307
 30
0.0
 10
159172.3439044525
 20
109458.8773407572
 30
0.0
 10
159157.3847952098
 20
109454.0000752284
 30
0.0
  0
SPLINE
  5
60D4A
330
1F
100
AcDbEntity
  8
freecads.com
100
AcDbSpline
210
0.0
220
0.0
230
1.0
 70
     8
 71
     3
 72
    11
 73
     7
 74
     0
 42
0.000000001
 43
0.0000000001
 40
20.46541170303364
 40
20.46541170303364
 40
20.46541170303364
 40
20.46541170303364
 40
26.65468551003182
 40
33.20101074039878
 40
37.06808377312571
 40
38.1973034793221
 40
38.1973034793221
 40
38.1973034793221
 40
38.1973034793221
 10
159218.790618419
 20
109208.148100183
 30
0.0
 10
159224.2741241562
 20
109230.3777835837
 30
0.0
 10
159229.3463702921
 20
109279.616380512
 30
0.0
 10
159209.8574832809
 20
109329.6297366013
 30
0.0
 10
159190.0941651184
 20
109369.8454594283
 30
0.0
 10
159178.3556452609
 20
109383.1571119701
 30
0.0
 10
159175.6568503259
 20
109386.1313187764
 30
0.0
  0
SPLINE
  5
60D4C
330
1F
100
AcDbEntity
  8
freecads.com
100
AcDbSpline
210
0.0
220
0.0
230
1.0
 70
     8
 71
     3
 72
    13
 73
     9
 74
     0
 42
0.000000001
 43
0.0000000001
 40
56.44745001467674
 40
56.44745001467674
 40
56.44745001467674
 40
56.44745001467674
 40
57.73970792381604
 40
60.52102341156868
 40
62.44939735356374
 40
67.50723037154099
 40
73.27922377384031
 40
79.50984639235585
 40
79.50984639235585
 40
79.50984639235585
 40
79.50984639235585
 10
158924.2457886667
 20
108828.0932003847
 30
0.0
 10
158920.662492839
 20
108831.0340503523
 30
0.0
 10
158910.0074817074
 20
108841.3833786562
 30
0.0
 10
158896.8399380878
 20
108859.5524561673
 30
0.0
 10
158897.8748741375
 20
108895.2270797357
 30
0.0
 10
158907.3293063426
 20
108939.244703731
 30
0.0
 10
158922.1129219841
 20
108998.1418496942
 30
0.0
 10
158935.8077151996
 20
109038.5922729399
 30
0.0
 10
158943.8624134366
 20
109059.2216669588
 30
0.0
  0
SPLINE
  5
60D4D
330
1F
100
AcDbEntity
  8
freecads.com
100
AcDbSpline
210
0.0
220
0.0
230
1.0
 70
     8
 71
     3
 72
    11
 73
     7
 74
     0
 42
0.000000001
 43
0.0000000001
 40
0.0
 40
0.0
 40
0.0
 40
0.0
 40
3.827156797231427
 40
8.375341052981065
 40
15.21839554611442
 40
16.34248656397558
 40
16.34248656397558
 40
16.34248656397558
 40
16.34248656397558
 10
159129.583804921
 20
108905.6853398358
 30
0.0
 10
159131.0156208382
 20
108919.2645374924
 30
0.0
 10
159134.1490034679
 20
108948.9812221295
 30
0.0
 10
159154.6400886941
 20
108999.467657708
 30
0.0
 10
159177.3505261849
 20
109038.312609115
 30
0.0
 10
159185.057367017
 20
109065.3432216617
 30
0.0
 10
159186.0406622358
 20
109069.1922682741
 30
0.0
  0
SPLINE
  5
60D50
330
1F
100
AcDbEntity
  8
freecads.com
100
AcDbSpline
210
0.0
220
0.0
230
1.0
 70
     8
 71
     3
 72
    11
 73
     7
 74
     0
 42
0.000000001
 43
0.0000000001
 40
0.0
 40
0.0
 40
0.0
 40
0.0
 40
3.827156797231427
 40
8.375341052981065
 40
15.21839554611442
 40
16.34248656397558
 40
16.34248656397558
 40
16.34248656397558
 40
16.34248656397558
 10
158998.4755064694
 20
108878.2019702228
 30
0.0
 10
159003.8794553907
 20
108890.7415891117
 30
0.0
 10
159015.7054446681
 20
108918.1832619859
 30
0.0
 10
159050.2788803459
 20
108960.295520256
 30
0.0
 10
159083.5105131948
 20
108990.6328371945
 30
0.0
 10
159098.9046678528
 20
109014.1502650434
 30
0.0
 10
159100.9877642784
 20
109017.5329767653
 30
0.0
  0
SPLINE
  5
60D52
330
1F
100
AcDbEntity
  8
freecads.com
100
AcDbSpline
210
0.0
220
0.0
230
1.0
 70
     8
 71
     3
 72
     8
 73
     4
 74
     0
 42
0.000000001
 43
0.0000000001
 40
64.27884639002726
 40
64.27884639002726
 40
64.27884639002726
 40
64.27884639002726
 40
66.97232208192
 40
66.97232208192
 40
66.97232208192
 40
66.97232208192
 10
159028.3676840527
 20
108900.3244016051
 30
0.0
 10
159027.0009260099
 20
108909.8003940208
 30
0.0
 10
159026.1048260144
 20
108919.283077114
 30
0.0
 10
159025.3533251825
 20
108928.7888506079
 30
0.0
  0
SPLINE
  5
60D91
330
1F
100
AcDbEntity
  8
freecads.com
100
AcDbSpline
210
0.0
220
0.0
230
1.0
 70
     8
 71
     3
 72
    16
 73
    12
 74
     0
 42
0.000000001
 43
0.0000000001
 40
0.0
 40
0.0
 40
0.0
 40
0.0
 40
0.0226790126579811
 40
0.0587490422864239
 40
0.0791706463210574
 40
0.102140762069998
 40
0.1208443042946191
 40
0.1336015177176471
 40
0.1372103305127947
 40
0.1490242800600559
 40
0.1774497092892605
 40
0.1774497092892605
 40
0.1774497092892605
 40
0.1774497092892605
 10
159125.0334959287
 20
109849.1522510082
 30
0.0
 10
159132.0063670822
 20
109829.3939480128
 30
0.0
 10
159137.7802365121
 20
109809.3462807561
 30
0.0
 10
159147.5780576594
 20
109782.8920939512
 30
0.0
 10
159151.8616159229
 20
109754.8117714598
 30
0.0
 10
159157.8994340611
 20
109733.9353987715
 30
0.0
 10
159156.6504117633
 20
109712.8353948491
 30
0.0
 10
159166.3771801149
 20
109704.3737951776
 30
0.0
 10
159176.0975867094
 20
109699.0019088091
 30
0.0
 10
159161.3490532627
 20
109682.1615168348
 30
0.0
 10
159161.1887347071
 20
109668.3961475406
 30
0.0
 10
159160.8833089243
 20
109658.7509121601
 30
0.0
  0
SPLINE
  5
60D92
330
1F
100
AcDbEntity
  8
freecads.com
100
AcDbSpline
210
0.0
220
0.0
230
1.0
 70
     8
 71
     3
 72
    13
 73
     9
 74
     0
 42
0.000000001
 43
0.0000000001
 40
0.0
 40
0.0
 40
0.0
 40
0.0
 40
1.689368989229583
 40
3.469460685923518
 40
5.034127261183684
 40
5.507845923771623
 40
5.970699949127217
 40
6.15999908427292
 40
6.15999908427292
 40
6.15999908427292
 40
6.15999908427292
 10
159114.5871068615
 20
109853.0162829697
 30
0.0
 10
159120.6407878622
 20
109839.2706298824
 30
0.0
 10
159133.0732454079
 20
109811.0411529045
 30
0.0
 10
159144.0207643266
 20
109767.4675557059
 30
0.0
 10
159151.1556503651
 20
109734.5805108678
 30
0.0
 10
159148.5573881363
 20
109711.2600439362
 30
0.0
 10
159140.2671479072
 20
109704.7082249505
 30
0.0
 10
159135.5336415154
 20
109701.2895282214
 30
0.0
 10
159134.1630381142
 20
109700.3157566097
 30
0.0
  0
SPLINE
  5
60D93
330
1F
100
AcDbEntity
  8
freecads.com
100
AcDbSpline
210
0.0
220
0.0
230
1.0
 70
  1064
 71
     3
 72
    11
 73
     7
 74
     5
 42
0.000000001
 43
0.0000000001
 44
0.0000000001
 40
0.0
 40
0.0
 40
0.0
 40
0.0
 40
29.23721542530156
 40
74.56482182763743
 40
104.4708369206847
 40
124.7264034470005
 40
124.7264034470005
 40
124.7264034470005
 40
124.7264034470005
 10
159167.4631649083
 20
109704.0550144934
 30
0.0
 10
159167.2133936956
 20
109713.8292172377
 30
0.0
 10
159166.5763923361
 20
109738.7567513935
 30
0.0
 10
159156.9263726188
 20
109772.4476318109
 30
0.0
 10
159153.3626269816
 20
109804.2795253544
 30
0.0
 10
159147.3157962029
 20
109819.9307552837
 30
0.0
 10
159144.8740473754
 20
109826.2508217333
 30
0.0
 11
159167.4631649083
 21
109704.0550144934
 31
0.0
 11
159165.7528482081
 21
109733.2421620521
 31
0.0
 11
159157.0052477304
 21
109777.7176765297
 31
0.0
 11
159151.5185602276
 21
109807.1160778296
 31
0.0
 11
159144.8740473754
 21
109826.2508217333
 31
0.0
  0
SPLINE
  5
60DDE
330
1F
100
AcDbEntity
  8
freecads.com
100
AcDbSpline
210
0.0
220
0.0
230
1.0
 70
     8
 71
     3
 72
    11
 73
     7
 74
     0
 42
0.000000001
 43
0.0000000001
 40
0.0
 40
0.0
 40
0.0
 40
0.0
 40
0.642633357477585
 40
1.476890404334418
 40
2.113446903444085
 40
2.466109665507595
 40
2.466109665507595
 40
2.466109665507595
 40
2.466109665507595
 10
159022.3660125537
 20
109728.7221979555
 30
0.0
 10
159017.3347735564
 20
109732.1442595835
 30
0.0
 10
159005.7720550781
 20
109740.0087906145
 30
0.0
 10
159004.4262487374
 20
109760.2360640327
 30
0.0
 10
159003.5872647578
 20
109777.0954934319
 30
0.0
 10
159007.7838599379
 20
109784.7203162539
 30
0.0
 10
159022.1663589808
 20
109815.1415277638
 30
0.0
  0
HATCH
  5
60DE5
330
1F
100
AcDbEntity
  8
freecads.com
100
AcDbHatch
 10
0.0
 20
0.0
 30
-920.6412591667797
210
0.0
220
0.0
230
1.0
  2
SOLID
 70
     1
 71
     0
 91
        1
 92
        1
 93
       15
 72
     1
 10
159003.6083660084
 20
108832.9890968497
 11
159031.4334069542
 21
108833.4420316937
 72
     1
 10
159031.4334069542
 20
108833.4420316937
 11
159059.2412610786
 21
108832.1474624773
 72
     1
 10
159059.2412610786
 20
108832.1474624773
 11
159086.7533559463
 21
108829.1326446167
 72
     1
 10
159086.7533559463
 20
108829.1326446167
 11
159117.9856559723
 21
108823.5732545819
 72
     1
 10
159117.9856559723
 20
108823.5732545819
 11
159127.9750094169
 21
108814.2926722202
 72
     1
 10
159127.9750094169
 20
108814.2926722202
 11
159135.5512137735
 21
108805.998996245
 72
     1
 10
159135.5512137735
 20
108805.998996245
 11
159141.7897611792
 21
108798.1263811856
 72
     1
 10
159141.7897611792
 20
108798.1263811856
 11
159147.506854057
 21
108791.5098454708
 72
     1
 10
159147.5068540595
 20
108791.509845468
 11
159146.2771102881
 21
108788.8064429078
 72
     1
 10
159146.2771102881
 20
108788.8064429078
 11
159136.2149785337
 21
108782.3564571454
 72
     1
 10
159136.2149785337
 20
108782.3564571453
 11
159128.3730637855
 21
108776.503658683
 72
     1
 10
159128.3730637855
 20
108776.503658683
 11
159121.221836599
 21
108770.432810513
 72
     1
 10
159121.221836599
 20
108770.432810513
 11
159119.7439004549
 21
108769.0802966053
 72
     1
 10
159119.7439004549
 20
108769.0802966053
 11
159117.6210037514
 21
108766.6331600048
 72
     1
 10
159117.6210037514
 20
108766.6331600048
 11
159003.6083660084
 21
108832.9890968498
 97
        0
 75
     0
 76
     1
 98
        1
 10
-367497.9971641793
 20
-340053.0725437878
450
        0
451
        0
460
0.0
461
0.0
452
        0
462
0.0
453
        0
470

  0
SPLINE
  5
60DF0
330
1F
100
AcDbEntity
  8
freecads.com
100
AcDbSpline
210
0.0
220
0.0
230
1.0
 70
     8
 71
     3
 72
    12
 73
     8
 74
     0
 42
0.000000001
 43
0.0000000001
 40
13.50793688741983
 40
13.50793688741983
 40
13.50793688741983
 40
13.50793688741983
 40
14.49086280932742
 40
17.13523516321357
 40
21.72224855236786
 40
27.97516223317517
 40
30.48126440687907
 40
30.48126440687907
 40
30.48126440687907
 40
30.48126440687907
 10
159048.5377932573
 20
108539.8371070462
 30
0.0
 10
159048.9470868193
 20
108543.3063947321
 30
0.0
 10
159050.3309799159
 20
108556.1085196188
 30
0.0
 10
159048.1680825951
 20
108585.3348509599
 30
0.0
 10
159050.4094080298
 20
108633.3276592148
 30
0.0
 10
159040.7760033079
 20
108680.102223425
 30
0.0
 10
159035.0082034552
 20
108710.6418527586
 30
0.0
 10
159032.8095020123
 20
108747.0057977823
 30
0.0
  0
SPLINE
  5
60DF3
330
1F
100
AcDbEntity
  8
freecads.com
100
AcDbSpline
210
0.0
220
0.0
230
1.0
 70
     8
 71
     3
 72
    10
 73
     6
 74
     0
 42
0.000000001
 43
0.0000000001
 40
0.0431966734575421
 40
0.0431966734575421
 40
0.0431966734575421
 40
0.0431966734575421
 40
0.0650181843712852
 40
0.1292382006483869
 40
0.1447391876333723
 40
0.1447391876333723
 40
0.1447391876333723
 40
0.1447391876333723
 10
159121.3449063231
 20
108544.7362599976
 30
0.0
 10
159122.6146471052
 20
108552.3750900588
 30
0.0
 10
159129.2498297511
 20
108581.8344647473
 30
0.0
 10
159130.7040200896
 20
108618.2913988509
 30
0.0
 10
159135.4976473855
 20
108646.2449791718
 30
0.0
 10
159140.9368759679
 20
108677.0770122519
 30
0.0
  0
SPLINE
  5
60DF8
330
1F
100
AcDbEntity
  8
freecads.com
100
AcDbSpline
210
0.0
220
0.0
230
1.0
 70
     8
 71
     3
 72
     9
 73
     5
 74
     0
 42
0.000000001
 43
0.0000000001
 40
19.30115228144445
 40
19.30115228144445
 40
19.30115228144445
 40
19.30115228144445
 40
24.37530930447833
 40
29.1749762837
 40
29.1749762837
 40
29.1749762837
 40
29.1749762837
 10
159345.2977251097
 20
108619.9446921882
 30
0.0
 10
159338.4390844774
 20
108623.6325414438
 30
0.0
 10
159323.0185713207
 20
108626.6079497026
 30
0.0
 10
159308.0460533449
 20
108628.9663788986
 30
0.0
 10
159300.7905122695
 20
108630.0816846335
 30
0.0
  0
SPLINE
  5
60DFD
330
1F
100
AcDbEntity
  8
freecads.com
100
AcDbSpline
210
0.0
220
0.0
230
1.0
 70
     8
 71
     3
 72
     8
 73
     4
 74
     0
 42
0.000000001
 43
0.0000000001
 40
0.0
 40
0.0
 40
0.0
 40
0.0
 40
0.0017770436571885
 40
0.0017770436571885
 40
0.0017770436571885
 40
0.0017770436571885
 10
159134.4025456186
 20
108505.1541364674
 30
0.0
 10
159133.8392108308
 20
108505.4398184564
 30
0.0
 10
159133.2758760428
 20
108505.7255004455
 30
0.0
 10
159132.715110623
 20
108506.0157322704
 30
0.0
  0
SPLINE
  5
60DFE
330
1F
100
AcDbEntity
  8
freecads.com
100
AcDbSpline
210
0.0
220
0.0
230
1.0
 70
     8
 71
     3
 72
    15
 73
    11
 74
     0
 42
0.000000001
 43
0.0000000001
 40
0.1033862426706799
 40
0.1033862426706799
 40
0.1033862426706799
 40
0.1033862426706799
 40
0.8846379149879339
 40
1.582882488467127
 40
2.584451426763792
 40
3.689005951601782
 40
4.373868699145188
 40
4.998319242056706
 40
5.743465059704266
 40
6.091626698687198
 40
6.091626698687198
 40
6.091626698687198
 40
6.091626698687198
 10
159119.6567875594
 20
108493.5245965993
 30
0.0
 10
159119.9323462215
 20
108495.9754086493
 30
0.0
 10
159118.9345915384
 20
108497.956224668
 30
0.0
 10
159118.6045556853
 20
108502.7478532182
 30
0.0
 10
159124.6029430827
 20
108501.9835479247
 30
0.0
 10
159127.0461352731
 20
108505.0258182712
 30
0.0
 10
159131.7357812017
 20
108507.0291626719
 30
0.0
 10
159132.0072840726
 20
108503.0674325719
 30
0.0
 10
159134.3175380729
 20
108500.5950934921
 30
0.0
 10
159135.8704582918
 20
108501.4097015666
 30
0.0
 10
159136.3663564951
 20
108501.7088771977
 30
0.0
  0
SPLINE
  5
60DFF
330
1F
100
AcDbEntity
  8
freecads.com
100
AcDbSpline
210
0.0
220
0.0
230
1.0
 70
     8
 71
     3
 72
     9
 73
     5
 74
     0
 42
0.000000001
 43
0.0000000001
 40
19.30115228144445
 40
19.30115228144445
 40
19.30115228144445
 40
19.30115228144445
 40
24.37530930447833
 40
29.1749762837
 40
29.1749762837
 40
29.1749762837
 40
29.1749762837
 10
159148.5466283423
 20
108457.7169280664
 30
0.0
 10
159148.5411538596
 20
108465.5041710627
 30
0.0
 10
159143.8484377666
 20
108480.491622347
 30
0.0
 10
159138.8249578784
 20
108494.792081522
 30
0.0
 10
159136.3663564951
 20
108501.7088771977
 30
0.0
  0
ARC
  5
60E00
330
1F
100
AcDbEntity
  8
freecads.com
100
AcDbCircle
 10
158872.3258642511
 20
109226.2141232319
 30
0.0
 40
231.3394335923331
100
AcDbArc
 50
311.8402521809872
 51
33.34153205203852
  0
LINE
  5
60E01
330
1F
100
AcDbEntity
  8
freecads.com
100
AcDbLine
 10
158970.5462914643
 20
109234.0682985071
 30
0.0
 11
158943.8624134366
 21
109059.2216669588
 31
0.0
  0
ARC
  5
60E02
330
1F
100
AcDbEntity
  8
freecads.com
100
AcDbCircle
 10
159240.4471410094
 20
109232.5914933137
 30
0.0
 40
139.1968297868415
100
AcDbArc
 50
110.1202942368784
 51
189.3413490136792
  0
ARC
  5
60E03
330
1F
100
AcDbEntity
  8
freecads.com
100
AcDbCircle
 10
159239.9281589326
 20
109450.9686896584
 30
0.0
 40
91.29450023366061
100
AcDbArc
 50
184.559373901232
 51
225.2512051992947
  0
ARC
  5
60E04
330
1F
100
AcDbEntity
  8
freecads.com
100
AcDbCircle
 10
159125.6796214426
 20
109494.4088023945
 30
0.0
 40
115.1603958688559
100
AcDbArc
 50
286.0438725367695
 51
294.0690191792341
  0
LINE
  5
60E05
330
1F
100
AcDbEntity
  8
freecads.com
100
AcDbLine
 10
159157.5068838157
 20
109383.7338632864
 30
0.0
 11
158973.6710135968
 21
109322.9958870794
 31
0.0
  0
LINE
  5
60E06
330
1F
100
AcDbEntity
  8
freecads.com
100
AcDbLine
 10
158755.6568503192
 20
109452.6529474035
 30
0.0
 11
158938.7234896355
 21
109380.36469953
 31
0.0
  0
LINE
  5
60E07
330
1F
100
AcDbEntity
  8
freecads.com
100
AcDbLine
 10
158768.2918591974
 20
109495.1240225588
 30
0.0
 11
158908.0683266024
 21
109464.8244334046
 31
0.0
  0
ARC
  5
60E08
330
1F
100
AcDbEntity
  8
freecads.com
100
AcDbCircle
 10
159845.5658176189
 20
109512.8157125526
 30
0.0
 40
700.0622973684084
100
AcDbArc
 50
188.6953167848971
 51
190.6253505052222
  0
ARC
  5
60E09
330
1F
100
AcDbEntity
  8
freecads.com
100
AcDbCircle
 10
159900.3284931343
 20
109543.7109353653
 30
0.0
 40
748.340414993329
100
AcDbArc
 50
171.1570377423497
 51
187.562009880451
  0
LINE
  5
60E0A
330
1F
100
AcDbEntity
  8
freecads.com
100
AcDbLine
 10
159158.4963832729
 20
109445.2299854778
 30
0.0
 11
159131.4345860842
 21
109440.9377533556
 31
0.0
  0
ARC
  5
60E0B
330
1F
100
AcDbEntity
  8
freecads.com
100
AcDbCircle
 10
157964.4795746528
 20
109313.9379879896
 30
0.0
 40
1009.232087269193
100
AcDbArc
 50
355.4609187823694
 51
3.519041828699374
  0
ARC
  5
60E0C
330
1F
100
AcDbEntity
  8
freecads.com
100
AcDbCircle
 10
159193.5440194269
 20
108872.4156453293
 30
0.0
 40
246.5357864840775
100
AcDbArc
 50
132.6087278887048
 51
172.302019646288
  0
ARC
  5
60E0D
330
1F
100
AcDbEntity
  8
freecads.com
100
AcDbCircle
 10
159017.1405280035
 20
108899.7780696661
 30
0.0
 40
68.14606590354703
100
AcDbArc
 50
175.2345607336766
 51
258.5463098643931
  0
ARC
  5
60E0E
330
1F
100
AcDbEntity
  8
freecads.com
100
AcDbCircle
 10
159082.8066949328
 20
108905.943986015
 30
0.0
 40
58.31667397740305
100
AcDbArc
 50
174.9029974004793
 51
225.7747167197977
  0
ARC
  5
60E0F
330
1F
100
AcDbEntity
  8
freecads.com
100
AcDbCircle
 10
158911.8402079938
 20
108837.8876183667
 30
0.0
 40
256.4219789981508
100
AcDbArc
 50
346.1162460924679
 51
24.67151706118281
  0
LINE
  5
60E10
330
1F
100
AcDbEntity
  8
freecads.com
100
AcDbLine
 10
159024.7206217333
 20
108911.124967007
 30
0.0
 11
159031.0512949668
 21
108936.2666442748
 31
0.0
  0
LINE
  5
60E11
330
1F
100
AcDbEntity
  8
freecads.com
100
AcDbLine
 10
159144.8549106949
 20
108944.9220971038
 30
0.0
 11
159143.4251738513
 21
108970.8091056598
 31
0.0
  0
ARC
  5
60E12
330
1F
100
AcDbEntity
  8
freecads.com
100
AcDbCircle
 10
158645.6273075353
 20
109492.6516360296
 30
0.0
 40
3.232079891502914
100
AcDbArc
 50
128.8725199504771
 51
229.8416083604712
  0
LINE
  5
60E13
330
1F
100
AcDbEntity
  8
freecads.com
100
AcDbLine
 10
158668.833749889
 20
109484.1660091537
 30
0.0
 11
158688.6282626871
 21
109500.1087649123
 31
0.0
  0
LINE
  5
60E14
330
1F
100
AcDbEntity
  8
freecads.com
100
AcDbLine
 10
158684.07422025
 20
109515.7257576001
 30
0.0
 11
158651.7118929653
 21
109488.2133164966
 31
0.0
  0
LINE
  5
60E15
330
1F
100
AcDbEntity
  8
freecads.com
100
AcDbLine
 10
158701.2347373678
 20
109488.696468635
 30
0.0
 11
158689.6997537786
 21
109483.7543840503
 31
0.0
  0
LINE
  5
60E16
330
1F
100
AcDbEntity
  8
freecads.com
100
AcDbLine
 10
158643.5988874002
 20
109495.1679532155
 30
0.0
 11
158689.4189808529
 21
109532.1038374022
 31
0.0
  0
LINE
  5
60E17
330
1F
100
AcDbEntity
  8
freecads.com
100
AcDbLine
 10
158702.0435962797
 20
109533.1027159352
 30
0.0
 11
158768.2918591974
 21
109495.1240225588
 31
0.0
  0
LINE
  5
60E18
330
1F
100
AcDbEntity
  8
freecads.com
100
AcDbLine
 10
158684.07422025
 20
109515.7257576001
 30
0.0
 11
158651.7118929653
 21
109488.2133164966
 31
0.0
  0
LINE
  5
60E19
330
1F
100
AcDbEntity
  8
freecads.com
100
AcDbLine
 10
158668.833749889
 20
109484.1660091537
 30
0.0
 11
158688.6282626871
 21
109500.1087649123
 31
0.0
  0
LINE
  5
60E1A
330
1F
100
AcDbEntity
  8
freecads.com
100
AcDbLine
 10
158697.4160047034
 20
109524.5542931219
 30
0.0
 11
158700.8305821278
 21
109492.4914783768
 31
0.0
  0
ARC
  5
60E1B
330
1F
100
AcDbEntity
  8
freecads.com
100
AcDbCircle
 10
158713.4249133327
 20
109462.0950815189
 30
0.0
 40
3.232079891502914
100
AcDbArc
 50
261.0712907928724
 51
329.4856255565099
  0
LINE
  5
60E1C
330
1F
100
AcDbEntity
  8
freecads.com
100
AcDbLine
 10
158719.9391381715
 20
109464.8577910376
 30
0.0
 11
158717.9105058995
 21
109461.4158317648
 31
0.0
  0
LINE
  5
60E1D
330
1F
100
AcDbEntity
  8
freecads.com
100
AcDbLine
 10
158712.7666946377
 20
109457.3372182701
 30
0.0
 11
158675.533857711
 21
109463.186840197
 31
0.0
  0
ARC
  5
60E1E
330
1F
100
AcDbEntity
  8
freecads.com
100
AcDbCircle
 10
158670.8611112791
 20
109481.6488388735
 30
0.0
 40
3.232079891502914
100
AcDbArc
 50
128.8484167284054
 51
227.0928018132445
  0
ARC
  5
60E1F
330
1F
100
AcDbEntity
  8
freecads.com
100
AcDbCircle
 10
158653.8053415418
 20
109485.7508353327
 30
0.0
 40
3.232079891502914
100
AcDbArc
 50
130.3691234008492
 51
229.8416083604712
  0
LINE
  5
60E20
330
1F
100
AcDbEntity
  8
freecads.com
100
AcDbLine
 10
158681.1356634769
 20
109467.686077497
 30
0.0
 11
158668.6606696129
 21
109479.281478128
 31
0.0
  0
LINE
  5
60E21
330
1F
100
AcDbEntity
  8
freecads.com
100
AcDbLine
 10
158687.7864348194
 20
109465.6521235461
 30
0.0
 11
158681.1356634769
 21
109467.686077497
 31
0.0
  0
ARC
  5
60E22
330
1F
100
AcDbEntity
  8
freecads.com
100
AcDbCircle
 10
158687.7363838781
 20
109462.6652894089
 30
0.0
 40
2.987253464376216
100
AcDbArc
 50
321.029800823182
 51
89.03997370231234
  0
LINE
  5
60E23
330
1F
100
AcDbEntity
  8
freecads.com
100
AcDbLine
 10
158689.6997537786
 20
109483.7543840503
 30
0.0
 11
158706.1540590917
 21
109458.3761242756
 31
0.0
  0
LINE
  5
60E24
330
1F
100
AcDbEntity
  8
freecads.com
100
AcDbLine
 10
158675.533857711
 20
109463.186840197
 30
0.0
 11
158643.5429300126
 21
109490.181471912
 31
0.0
  0
LINE
  5
60E25
330
1F
100
AcDbEntity
  8
freecads.com
100
AcDbLine
 10
158718.8806402211
 20
109466.7171767482
 30
0.0
 11
158708.3353741894
 21
109467.4851089855
 31
0.0
  0
LINE
  5
60E26
330
1F
100
AcDbEntity
  8
freecads.com
100
AcDbLine
 10
158755.6568503192
 20
109452.6529474035
 30
0.0
 11
158718.8806402211
 21
109466.7171767482
 31
0.0
  0
LINE
  5
60E27
330
1F
100
AcDbEntity
  8
freecads.com
100
AcDbLine
 10
159162.7872782035
 20
109832.7220578749
 30
-920.6412591667797
 11
159158.5738348225
 21
109817.1422863192
 31
0.0
  0
LINE
  5
60E28
330
1F
100
AcDbEntity
  8
freecads.com
100
AcDbLine
 10
159187.8305272912
 20
109896.5291787842
 30
-920.6412591667797
 11
159190.3344407106
 21
109889.0232373827
 31
-920.6412591667797
  0
LINE
  5
60E29
330
1F
100
AcDbEntity
  8
freecads.com
100
AcDbLine
 10
159186.5775418576
 20
109907.7898960674
 30
-920.6412591667797
 11
159187.8305272912
 21
109896.5291787842
 31
-920.6412591667797
  0
LINE
  5
60E2A
330
1F
100
AcDbEntity
  8
freecads.com
100
AcDbLine
 10
159186.5775418576
 20
109922.8041857782
 30
-920.6412591667797
 11
159186.5775418576
 21
109907.7898960674
 31
-920.6412591667797
  0
LINE
  5
60E2B
330
1F
100
AcDbEntity
  8
freecads.com
100
AcDbLine
 10
159186.5775418576
 20
109934.0636996074
 30
-920.6412591667797
 11
159186.5775418576
 21
109922.8041857782
 31
-920.6412591667797
  0
LINE
  5
60E2C
330
1F
100
AcDbEntity
  8
freecads.com
100
AcDbLine
 10
159186.5775418576
 20
109947.8263973578
 30
-920.6412591667797
 11
159186.5775418576
 21
109934.0636996074
 31
-920.6412591667797
  0
LINE
  5
60E2D
330
1F
100
AcDbEntity
  8
freecads.com
100
AcDbLine
 10
159185.3266138717
 20
109964.0910755752
 30
-920.6412591667797
 11
159186.5775418576
 21
109947.8263973578
 31
-920.6412591667797
  0
LINE
  5
60E2E
330
1F
100
AcDbEntity
  8
freecads.com
100
AcDbLine
 10
159184.0736284386
 20
109980.3557537928
 30
-920.6412591667797
 11
159185.3266138717
 21
109964.0910755752
 31
-920.6412591667797
  0
LINE
  5
60E2F
330
1F
100
AcDbEntity
  8
freecads.com
100
AcDbLine
 10
159174.0559173138
 20
109994.1184515431
 30
-920.6412591667797
 11
159184.0736284386
 21
109980.3557537928
 31
-920.6412591667797
  0
LINE
  5
60E30
330
1F
100
AcDbEntity
  8
freecads.com
100
AcDbLine
 10
159160.283364784
 20
109997.8720239708
 30
-920.6412591667797
 11
159174.0559173138
 21
109994.1184515431
 31
-920.6412591667797
  0
LINE
  5
60E31
330
1F
100
AcDbEntity
  8
freecads.com
100
AcDbLine
 10
159175.3089027472
 20
109962.8394836148
 30
-920.6412591667797
 11
159182.8206430051
 21
109890.2736258894
 31
-920.6412591667797
  0
LINE
  5
60E32
330
1F
100
AcDbEntity
  8
freecads.com
100
AcDbLine
 10
159155.2755379451
 20
109916.5474294294
 30
-920.6412591667797
 11
159164.0402636366
 21
109889.0232373827
 31
-920.6412591667797
  0
LINE
  5
60E33
330
1F
100
AcDbEntity
  8
freecads.com
100
AcDbLine
 10
159154.0246099593
 20
109942.8212329696
 30
-920.6412591667797
 11
159155.2755379451
 21
109916.5474294294
 31
-920.6412591667797
  0
LINE
  5
60E34
330
1F
100
AcDbEntity
  8
freecads.com
100
AcDbLine
 10
159161.5363502171
 20
109981.6073457533
 30
-920.6412591667797
 11
159154.0246099593
 21
109942.8212329696
 31
-920.6412591667797
  0
LINE
  5
60E35
330
1F
100
AcDbEntity
  8
freecads.com
100
AcDbLine
 10
159166.5441770559
 20
109845.2331636645
 30
-920.6412591667797
 11
159162.7872782035
 21
109832.7220578749
 31
-920.6412591667797
  0
LINE
  5
60E36
330
1F
100
AcDbEntity
  8
freecads.com
100
AcDbLine
 10
159159.032436798
 20
109862.7494338425
 30
-920.6412591667797
 11
159166.5441770559
 21
109845.2331636645
 31
-920.6412591667797
  0
LINE
  5
60E37
330
1F
100
AcDbEntity
  8
freecads.com
100
AcDbLine
 10
159147.7637976872
 20
109891.5252178499
 30
-920.6412591667797
 11
159159.032436798
 21
109862.7494338425
 31
-920.6412591667797
  0
LINE
  5
60E38
330
1F
100
AcDbEntity
  8
freecads.com
100
AcDbLine
 10
159138.9990719959
 20
109919.0506133506
 30
-920.6412591667797
 11
159147.7637976872
 21
109891.5252178499
 31
-920.6412591667797
  0
LINE
  5
60E39
330
1F
100
AcDbEntity
  8
freecads.com
100
AcDbLine
 10
159136.4951585766
 20
109941.5708444629
 30
-920.6412591667797
 11
159138.9990719959
 21
109919.0506133506
 31
-920.6412591667797
  0
LINE
  5
60E3A
330
1F
100
AcDbEntity
  8
freecads.com
100
AcDbLine
 10
159138.9990719959
 20
109975.3517928584
 30
-920.6412591667797
 11
159136.4951585766
 21
109941.5708444629
 31
-920.6412591667797
  0
LINE
  5
60E3B
330
1F
100
AcDbEntity
  8
freecads.com
100
AcDbLine
 10
159125.2265194663
 20
109957.8355226804
 30
-920.6412591667797
 11
159112.7048949222
 21
109964.0910755752
 31
-920.6412591667797
  0
LINE
  5
60E3C
330
1F
100
AcDbEntity
  8
freecads.com
100
AcDbLine
 10
159161.5363502171
 20
110025.3974194715
 30
-920.6412591667797
 11
159125.2265194663
 21
109957.8355226804
 31
-920.6412591667797
  0
LINE
  5
60E3D
330
1F
100
AcDbEntity
  8
freecads.com
100
AcDbLine
 10
159141.5029854154
 20
110035.4065447939
 30
-920.6412591667797
 11
159161.5363502171
 21
110025.3974194715
 31
-920.6412591667797
  0
LINE
  5
60E3E
330
1F
100
AcDbEntity
  8
freecads.com
100
AcDbLine
 10
159159.0180056199
 20
110020.7115221747
 30
0.0
 11
159166.0554204499
 21
110026.1831539751
 31
0.0
  0
LINE
  5
60E3F
330
1F
100
AcDbEntity
  8
freecads.com
100
AcDbLine
 10
159166.0554204499
 20
110026.1831539751
 30
0.0
 11
159193.8270964343
 21
110025.4112719953
 31
0.0
  0
LINE
  5
60E40
330
1F
100
AcDbEntity
  8
freecads.com
100
AcDbLine
 10
159193.8270964343
 20
110025.4112719953
 30
0.0
 11
159216.968284305
 21
110011.5375574527
 31
0.0
  0
LINE
  5
60E41
330
1F
100
AcDbEntity
  8
freecads.com
100
AcDbLine
 10
159216.968284305
 20
110011.5375574527
 30
0.0
 11
159229.3125017103
 21
109972.9981814317
 31
0.0
  0
LINE
  5
60E42
330
1F
100
AcDbEntity
  8
freecads.com
100
AcDbLine
 10
159229.3125017103
 20
109972.9981814317
 30
0.0
 11
159225.4528238886
 21
109929.0613918646
 31
0.0
  0
ARC
  5
60E43
330
1F
100
AcDbEntity
  8
freecads.com
100
AcDbCircle
 10
159458.8583205255
 20
109933.2223381518
 30
0.0
 40
233.4425825214734
100
AcDbArc
 50
181.0213101828317
 51
200.9721679044631
  0
ARC
  5
60E44
330
1F
100
AcDbEntity
  8
freecads.com
100
AcDbCircle
 10
159155.5560147658
 20
109808.7640337159
 30
0.0
 40
94.62303330394149
100
AcDbArc
 50
335.4880037270827
 51
25.61381619777911
  0
LINE
  5
60E45
330
1F
100
AcDbEntity
  8
freecads.com
100
AcDbLine
 10
159212.3377961894
 20
109929.0613918646
 30
0.0
 11
159212.3377961894
 21
109900.5420807996
 31
0.0
  0
LINE
  5
60E46
330
1F
100
AcDbEntity
  8
freecads.com
100
AcDbLine
 10
159212.3377961894
 20
109900.5420807996
 30
0.0
 11
159213.88504313
 21
109883.5837184938
 31
0.0
  0
LINE
  5
60E47
330
1F
100
AcDbEntity
  8
freecads.com
100
AcDbLine
 10
159213.88504313
 20
109883.5837184938
 30
0.0
 11
159225.4528238886
 21
109858.1490551924
 31
0.0
  0
LINE
  5
60E48
330
1F
100
AcDbEntity
  8
freecads.com
100
AcDbLine
 10
159225.4528238886
 20
109858.1490551924
 30
0.0
 11
159231.6249325912
 21
109840.4188109064
 31
0.0
  0
LINE
  5
60E49
330
1F
100
AcDbEntity
  8
freecads.com
100
AcDbLine
 10
159231.6249325912
 20
109840.4188109064
 30
0.0
 11
159233.9373634722
 21
109818.8377971912
 31
0.0
  0
LINE
  5
60E4A
330
1F
100
AcDbEntity
  8
freecads.com
100
AcDbLine
 10
159233.9373634722
 20
109818.8377971912
 30
0.0
 11
159225.4528238886
 21
109770.2783562144
 31
0.0
  0
LINE
  5
60E4B
330
1F
100
AcDbEntity
  8
freecads.com
100
AcDbLine
 10
159225.4528238886
 20
109770.2783562144
 30
0.0
 11
159227.7652547696
 21
109750.2353461454
 31
0.0
  0
LINE
  5
60E4C
330
1F
100
AcDbEntity
  8
freecads.com
100
AcDbLine
 10
159219.6689335092
 20
109870.8663868431
 30
0.0
 11
159221.5987724197
 21
109837.3370432998
 31
0.0
  0
LINE
  5
60E4D
330
1F
100
AcDbEntity
  8
freecads.com
100
AcDbLine
 10
159199.2283948438
 20
109913.6467935187
 30
0.0
 11
159207.7129344274
 21
109835.0242775169
 31
0.0
  0
ARC
  5
60E4E
330
1F
100
AcDbEntity
  8
freecads.com
100
AcDbCircle
 10
159081.9295389822
 20
109804.5911423417
 30
0.0
 40
123.1489632273831
100
AcDbArc
 50
340.0477518482343
 51
29.42085167033587
  0
ARC
  5
60E4F
330
1F
100
AcDbEntity
  8
freecads.com
100
AcDbCircle
 10
159236.0926292598
 20
109746.0596277091
 30
0.0
 40
41.80361102202859
100
AcDbArc
 50
156.7398102324226
 51
230.0586045415384
  0
ARC
  5
60E50
330
1F
100
AcDbEntity
  8
freecads.com
100
AcDbCircle
 10
159181.9496912742
 20
109983.9616751933
 30
0.0
 40
31.33418985642772
100
AcDbArc
 50
354.0351533375189
 51
123.8106045755234
  0
ARC
  5
60E51
330
1F
100
AcDbEntity
  8
freecads.com
100
AcDbCircle
 10
159149.1340292378
 20
109961.9489722692
 30
0.0
 40
55.76907191298078
100
AcDbArc
 50
335.7926916352846
 51
44.08029980991467
  0
ARC
  5
60E52
330
1F
100
AcDbEntity
  8
freecads.com
100
AcDbCircle
 10
159212.6961587384
 20
109974.0117427524
 30
0.0
 40
88.22025966604146
100
AcDbArc
 50
152.3923331420455
 51
158.5898661593322
  0
ARC
  5
60E53
330
1F
100
AcDbEntity
  8
freecads.com
100
AcDbCircle
 10
159226.3993940885
 20
109789.7497000235
 30
0.0
 40
39.53795313118138
100
AcDbArc
 50
223.4309009526622
 51
271.9797086107552
  0
ARC
  5
60E54
330
1F
100
AcDbEntity
  8
freecads.com
100
AcDbCircle
 10
159223.8066929825
 20
109776.3689782589
 30
0.0
 40
19.11848751808141
100
AcDbArc
 50
338.9645215306011
 51
72.06155192737998
  0
ARC
  5
60E55
330
1F
100
AcDbEntity
  8
freecads.com
100
AcDbCircle
 10
159081.9295389822
 20
109804.5911423417
 30
0.0
 40
112.4942013226213
100
AcDbArc
 50
340.0477518482343
 51
29.42085167033587
  0
ARC
  5
60E56
330
1F
100
AcDbEntity
  8
freecads.com
100
AcDbCircle
 10
159243.9961052033
 20
109795.1002823597
 30
0.0
 40
77.56549776127958
100
AcDbArc
 50
152.3923331420455
 51
231.7926066654344
  0
LINE
  5
60E57
330
1F
100
AcDbEntity
  8
freecads.com
100
AcDbLine
 10
159101.3338827239
 20
109952.9385447445
 30
0.0
 11
159133.4300861202
 21
109994.8017365532
 31
0.0
  0
ARC
  5
60E58
330
1F
100
AcDbEntity
  8
freecads.com
100
AcDbCircle
 10
159104.3795633472
 20
110055.133239624
 30
0.0
 40
41.098168446223
100
AcDbArc
 50
323.4187591709913
 51
71.85372961596542
  0
ARC
  5
60E59
330
1F
100
AcDbEntity
  8
freecads.com
100
AcDbCircle
 10
159072.8140338331
 20
110034.2407122859
 30
0.0
 40
64.66818328262364
100
AcDbArc
 50
334.1424334226296
 51
36.76001869981077
  0
ARC
  5
60E5A
330
1F
100
AcDbEntity
  8
freecads.com
100
AcDbCircle
 10
159113.2252807143
 20
110008.0367954941
 30
0.0
 40
23.32956535050022
100
AcDbArc
 50
275.1904260606705
 51
16.20388661409801
  0
ARC
  5
60E5B
330
1F
100
AcDbEntity
  8
freecads.com
100
AcDbCircle
 10
159087.6022319052
 20
110083.8833736911
 30
0.0
 40
56.71355163292943
100
AcDbArc
 50
345.5218357466762
 51
70.85816646021903
  0
LINE
  5
60E5C
330
1F
100
AcDbEntity
  8
freecads.com
100
AcDbLine
 10
159114.5871068615
 20
109853.0162829697
 30
0.0
 11
159099.8737942208
 21
109859.1813794204
 31
0.0
  0
ARC
  5
60E5D
330
1F
100
AcDbEntity
  8
freecads.com
100
AcDbCircle
 10
159088.6248842652
 20
109823.0783466753
 30
0.0
 40
44.78208894666455
100
AcDbArc
 50
35.60821691068753
 51
104.4560155355167
  0
ARC
  5
60E5E
330
1F
100
AcDbEntity
  8
freecads.com
100
AcDbCircle
 10
158954.068596305
 20
109726.2900156642
 30
0.0
 40
215.4039992854175
100
AcDbArc
 50
27.64953178286698
 51
47.36094303867409
  0
ARC
  5
60E5F
330
1F
100
AcDbEntity
  8
freecads.com
100
AcDbCircle
 10
159243.9961052033
 20
109795.1002823597
 30
0.0
 40
88.22025966604146
100
AcDbArc
 50
165.5312484393508
 51
246.8085548171107
  0
ARC
  5
60E60
330
1F
100
AcDbEntity
  8
freecads.com
100
AcDbCircle
 10
158824.8092780271
 20
110006.4294557829
 30
0.0
 40
110.9863526736071
100
AcDbArc
 50
29.00154377864578
 51
34.67034343272325
  0
LINE
  5
60E68
330
1F
100
AcDbEntity
  8
freecads.com
100
AcDbLine
 10
159019.0708269652
 20
109927.3685118343
 30
0.0
 11
159035.9172451738
 21
109941.6996484348
 31
0.0
  0
ARC
  5
60E77
330
1F
100
AcDbEntity
  8
freecads.com
100
AcDbCircle
 10
158917.366722821
 20
109982.2406964647
 30
0.0
 40
10.73565274634926
100
AcDbArc
 50
317.375476413687
 51
28.06651777636444
  0
LINE
  5
60EB3
330
1F
100
AcDbEntity
  8
freecads.com
100
AcDbLine
 10
158994.2684338264
 20
109918.0611228744
 30
0.0
 11
159019.0708269652
 21
109927.3685118343
 31
0.0
  0
LINE
  5
60EB4
330
1F
100
AcDbEntity
  8
freecads.com
100
AcDbLine
 10
158970.4994737351
 20
109916.509891381
 30
0.0
 11
158994.2684338264
 21
109918.0611228744
 31
0.0
  0
LINE
  5
60EB5
330
1F
100
AcDbEntity
  8
freecads.com
100
AcDbLine
 10
158949.3140962625
 20
109915.4757370521
 30
0.0
 11
158970.4994737351
 21
109916.509891381
 31
0.0
  0
ARC
  5
60EBD
330
1F
100
AcDbEntity
  8
freecads.com
100
AcDbCircle
 10
158945.4461243666
 20
109929.0701980123
 30
0.0
 40
14.04032321426744
100
AcDbArc
 50
154.4549765754857
 51
242.0498026591351
  0
ARC
  5
60ECD
330
1F
100
AcDbEntity
  8
freecads.com
100
AcDbCircle
 10
158922.6417262181
 20
109940.5874197351
 30
0.0
 40
11.23453610526617
100
AcDbArc
 50
333.1808192177887
 51
65.96846253572993
  0
ARC
  5
60ED0
330
1F
100
AcDbEntity
  8
freecads.com
100
AcDbCircle
 10
159164.5219020176
 20
109928.6149165423
 30
0.0
 40
88.95761101278969
100
AcDbArc
 50
131.9077249710334
 51
173.066893971119
  0
ARC
  5
60ED1
330
1F
100
AcDbEntity
  8
freecads.com
100
AcDbCircle
 10
159225.3607679374
 20
109887.9364145632
 30
0.0
 40
153.2322621302892
100
AcDbArc
 50
142.1093072235136
 51
160.1271172827087
  0
LINE
  5
60ED2
330
1F
100
AcDbEntity
  8
freecads.com
100
AcDbLine
 10
159108.4634211882
 20
109973.3049773272
 30
0.0
 11
159089.3157847843
 21
109945.7400293284
 31
0.0
  0
ARC
  5
60ED3
330
1F
100
AcDbEntity
  8
freecads.com
100
AcDbCircle
 10
159045.3367483047
 20
110113.2815680388
 30
0.0
 40
55.48017920129606
100
AcDbArc
 50
72.87783387148933
 51
124.0681508481829
  0
ARC
  5
60ED4
330
1F
100
AcDbEntity
  8
freecads.com
100
AcDbCircle
 10
159121.9194707694
 20
109921.6269694397
 30
0.0
 40
37.4885670781879
100
AcDbArc
 50
130.8319861922116
 51
209.7331008911885
  0
ARC
  5
60ED5
330
1F
100
AcDbEntity
  8
freecads.com
100
AcDbCircle
 10
158985.6542199961
 20
109885.2055245008
 30
0.0
 40
32.93209946163037
100
AcDbArc
 50
26.43123559811635
 51
101.1522393033242
  0
ARC
  5
60ED6
330
1F
100
AcDbEntity
  8
freecads.com
100
AcDbCircle
 10
159062.0313417853
 20
110108.0230501802
 30
0.0
 40
74.35272908397101
100
AcDbArc
 50
192.3190822454598
 51
262.542260351828
  0
ARC
  5
60ED7
330
1F
100
AcDbEntity
  8
freecads.com
100
AcDbCircle
 10
159068.5594214634
 20
110018.6000080387
 30
0.0
 40
32.75848650777869
100
AcDbArc
 50
188.9891971774534
 51
254.8115864663675
  0
LINE
  5
60ED8
330
1F
100
AcDbEntity
  8
freecads.com
100
AcDbLine
 10
158938.4211657662
 20
110106.4773333375
 30
0.0
 11
158926.7471738686
 21
110106.9180326289
 31
0.0
  0
LINE
  5
60ED9
330
1F
100
AcDbEntity
  8
freecads.com
100
AcDbLine
 10
158910.7295309039
 20
110105.026446234
 30
0.0
 11
158917.0559025175
 21
110122.8712362298
 31
0.0
  0
ARC
  5
60EDA
330
1F
100
AcDbEntity
  8
freecads.com
100
AcDbCircle
 10
158966.4788829239
 20
110089.840683819
 30
0.0
 40
48.77322390936635
100
AcDbArc
 50
226.5522180643986
 51
253.7158883356656
  0
ARC
  5
60EDB
330
1F
100
AcDbEntity
  8
freecads.com
100
AcDbCircle
 10
158943.719149527
 20
110059.6080549298
 30
0.0
 40
11.95973615431802
100
AcDbArc
 50
205.6487196467538
 51
260.2739030215563
  0
ARC
  5
60EDC
330
1F
100
AcDbEntity
  8
freecads.com
100
AcDbCircle
 10
158941.6528032711
 20
110042.9856338743
 30
0.0
 40
6.054225837119213
100
AcDbArc
 50
115.883999649738
 51
213.4773994801129
  0
ARC
  5
60EDD
330
1F
100
AcDbEntity
  8
freecads.com
100
AcDbCircle
 10
158960.591604535
 20
110060.8421836634
 30
0.0
 40
22.20775415168875
100
AcDbArc
 50
220.0350715910404
 51
244.6169153943111
  0
ARC
  5
60EDE
330
1F
100
AcDbEntity
  8
freecads.com
100
AcDbCircle
 10
158958.3240147449
 20
109975.0588069452
 30
0.0
 40
67.27312602514027
100
AcDbArc
 50
97.89173208154007
 51
112.7557862824839
  0
ARC
  5
60EDF
330
1F
100
AcDbEntity
  8
freecads.com
100
AcDbCircle
 10
158934.1744708675
 20
110022.0004110799
 30
0.0
 40
39.06182015692387
100
AcDbArc
 50
44.10968294234537
 51
96.26240762080932
  0
ARC
  5
60EE0
330
1F
100
AcDbEntity
  8
freecads.com
100
AcDbCircle
 10
158927.5823845084
 20
110015.6992135043
 30
0.0
 40
48.20647663182136
100
AcDbArc
 50
41.38437135107413
 51
90.44920659856476
  0
LINE
  5
60EE1
330
1F
100
AcDbEntity
  8
freecads.com
100
AcDbLine
 10
158929.9135239712
 20
110060.8291391755
 30
0.0
 11
158927.2044431354
 21
110063.9042085731
 31
0.0
  0
ARC
  5
60EE2
330
1F
100
AcDbEntity
  8
freecads.com
100
AcDbCircle
 10
159006.3511519207
 20
110060.6056009614
 30
0.0
 40
35.07150231149788
100
AcDbArc
 50
181.4803120420484
 51
260.7514531086827
  0
ARC
  5
60EE6
330
1F
100
AcDbEntity
  8
freecads.com
100
AcDbCircle
 10
158917.5638910954
 20
109962.6650430762
 30
0.0
 40
11.66643036805734
100
AcDbArc
 50
345.4908629373912
 51
23.3062591535327
  0
ARC
  5
60EE7
330
1F
100
AcDbEntity
  8
freecads.com
100
AcDbCircle
 10
158931.8414564741
 20
109952.0701057083
 30
0.0
 40
16.49746181225635
100
AcDbArc
 50
81.04448408224527
 51
108.3858551937804
  0
ARC
  5
60EE8
330
1F
100
AcDbEntity
  8
freecads.com
100
AcDbCircle
 10
158924.698935216
 20
109978.6571717321
 30
0.0
 40
11.10236324249542
100
AcDbArc
 50
239.784179015185
 51
280.0580304906876
  0
ARC
  5
60EE9
330
1F
100
AcDbEntity
  8
freecads.com
100
AcDbCircle
 10
158924.744867929
 20
109955.6872880879
 30
0.0
 40
2.685311465397762
100
AcDbArc
 50
112.5193624909299
 51
253.8599105794861
  0
ARC
  5
60EEA
330
1F
100
AcDbEntity
  8
freecads.com
100
AcDbCircle
 10
158961.4731845597
 20
109836.4681545836
 30
0.0
 40
127.4220899788151
100
AcDbArc
 50
97.68350877132903
 51
107.2362672639468
  0
ARC
  5
60EEB
330
1F
100
AcDbEntity
  8
freecads.com
100
AcDbCircle
 10
158943.888693459
 20
109971.6737657542
 30
0.0
 40
8.94435734315104
100
AcDbArc
 50
273.512815143543
 51
319.6864519718494
  0
ARC
  5
60EEC
330
1F
100
AcDbEntity
  8
freecads.com
100
AcDbCircle
 10
158947.8959261799
 20
109967.7932136858
 30
0.0
 40
3.397993808916843
100
AcDbArc
 50
255.5764959053607
 51
325.8769488736249
  0
ARC
  5
60EED
330
1F
100
AcDbEntity
  8
freecads.com
100
AcDbCircle
 10
158955.7344815681
 20
110019.3544816841
 30
0.0
 40
55.53546544103898
100
AcDbArc
 50
239.7860895083463
 51
261.0028293484031
  0
ARC
  5
60EEE
330
1F
100
AcDbEntity
  8
freecads.com
100
AcDbCircle
 10
158924.1911368176
 20
109967.4158628867
 30
0.0
 40
5.340012309340405
100
AcDbArc
 50
47.6658931966033
 51
162.0315412149193
  0
ARC
  5
60EEF
330
1F
100
AcDbEntity
  8
freecads.com
100
AcDbCircle
 10
158954.7442937065
 20
110067.1205086718
 30
0.0
 40
46.95173942879768
100
AcDbArc
 50
127.5292929489098
 51
176.7506420421927
  0
ARC
  5
60EF0
330
1F
100
AcDbEntity
  8
freecads.com
100
AcDbCircle
 10
158947.8186479787
 20
110070.8435426684
 30
0.0
 40
31.0054508713014
100
AcDbArc
 50
148.2080942926541
 51
192.5473910172756
  0
ARC
  5
60EF1
330
1F
100
AcDbEntity
  8
freecads.com
100
AcDbCircle
 10
159010.6755531654
 20
110119.6325595017
 30
0.0
 40
78.54570231560359
100
AcDbArc
 50
190.8743270015066
 51
196.2421830655259
  0
ARC
  5
60EF2
330
1F
100
AcDbEntity
  8
freecads.com
100
AcDbCircle
 10
159038.208912733
 20
110087.2267460255
 30
0.0
 40
61.95591605145182
100
AcDbArc
 50
213.7916863317123
 51
261.9228952236179
  0
ARC
  5
60EF3
330
1F
100
AcDbEntity
  8
freecads.com
100
AcDbCircle
 10
159015.2669726539
 20
110080.1445887089
 30
0.0
 40
35.47525731198021
100
AcDbArc
 50
218.5245451548743
 51
256.8479174757722
  0
ARC
  5
60EF4
330
1F
100
AcDbEntity
  8
freecads.com
100
AcDbCircle
 10
158987.5995183667
 20
110103.0507735926
 30
0.0
 40
36.70271527223933
100
AcDbArc
 50
179.6102694988722
 51
245.6338216441256
  0
ARC
  5
60EF5
330
1F
100
AcDbEntity
  8
freecads.com
100
AcDbCircle
 10
158978.3909212958
 20
110091.0255843583
 30
0.0
 40
50.91714914417161
100
AcDbArc
 50
166.3697161092266
 51
212.8834267924375
  0
ARC
  5
60EF6
330
1F
100
AcDbEntity
  8
freecads.com
100
AcDbCircle
 10
158955.4257704578
 20
110076.6771192315
 30
0.0
 40
39.97489017864238
100
AcDbArc
 50
135.743620239066
 51
190.2490824172125
  0
ARC
  5
60EF7
330
1F
100
AcDbEntity
  8
freecads.com
100
AcDbCircle
 10
158925.2619327106
 20
110099.5191571384
 30
0.0
 40
15.54094384053437
100
AcDbArc
 50
159.244985181458
 51
216.0259564633083
  0
ARC
  5
60EF8
330
1F
100
AcDbEntity
  8
freecads.com
100
AcDbCircle
 10
158941.1811844284
 20
110098.6430844996
 30
0.0
 40
34.19111819682425
100
AcDbArc
 50
98.16656777995998
 51
134.8781059139834
  0
ARC
  5
60EF9
330
1F
100
AcDbEntity
  8
freecads.com
100
AcDbCircle
 10
158966.6948599617
 20
110108.2761943076
 30
0.0
 40
44.57840888963129
100
AcDbArc
 50
73.4430662574226
 51
147.7998539566134
  0
ARC
  5
60EFA
330
1F
100
AcDbEntity
  8
freecads.com
100
AcDbCircle
 10
159003.3618662584
 20
110105.5094230207
 30
0.0
 40
57.20372969468226
100
AcDbArc
 50
76.1035032319997
 51
124.5039492711563
  0
LINE
  5
60EFB
330
1F
100
AcDbEntity
  8
freecads.com
100
AcDbLine
 10
158927.8902363458
 20
110047.7961364829
 30
0.0
 11
158921.8786794805
 21
110060.2393227337
 31
0.0
  0
LINE
  5
60EFC
330
1F
100
AcDbEntity
  8
freecads.com
100
AcDbLine
 10
158928.0067524486
 20
110045.173543275
 30
0.0
 11
158911.377605958
 21
110001.1621304521
 31
0.0
  0
LINE
  5
60EFD
330
1F
100
AcDbEntity
  8
freecads.com
100
AcDbLine
 10
158911.377605958
 20
110001.1621304521
 30
0.0
 11
158909.9295650564
 21
109997.5395015587
 31
0.0
  0
LINE
  5
60EFE
330
1F
100
AcDbEntity
  8
freecads.com
100
AcDbLine
 10
158909.9295650564
 20
109997.5395015587
 30
0.0
 11
158910.6535855071
 21
109995.728187112
 31
0.0
  0
LINE
  5
60EFF
330
1F
100
AcDbEntity
  8
freecads.com
100
AcDbLine
 10
158910.6535855071
 20
109995.728187112
 30
0.0
 11
158912.4636366342
 21
109994.641398444
 31
0.0
  0
LINE
  5
60F00
330
1F
100
AcDbEntity
  8
freecads.com
100
AcDbLine
 10
158912.4636366342
 20
109994.641398444
 30
0.0
 11
158914.6356979867
 21
109993.1923468867
 31
0.0
  0
LINE
  5
60F01
330
1F
100
AcDbEntity
  8
freecads.com
100
AcDbLine
 10
158914.6356979867
 20
109993.1923468867
 30
0.0
 11
158925.8580149742
 21
109989.207455104
 31
0.0
  0
LINE
  5
60F02
330
1F
100
AcDbEntity
  8
freecads.com
100
AcDbLine
 10
158923.4013286892
 20
109993.3771214534
 30
0.0
 11
158925.5733900417
 21
109994.8261730107
 31
0.0
  0
LINE
  5
60F03
330
1F
100
AcDbEntity
  8
freecads.com
100
AcDbLine
 10
158925.5733900417
 20
109994.8261730107
 30
0.0
 11
158928.1074616195
 21
109994.4639101214
 31
0.0
  0
LINE
  5
60F04
330
1F
100
AcDbEntity
  8
freecads.com
100
AcDbLine
 10
158928.1074616195
 20
109994.4639101214
 30
0.0
 11
158931.0035434229
 21
109993.0148585641
 31
0.0
  0
LINE
  5
60F05
330
1F
100
AcDbEntity
  8
freecads.com
100
AcDbLine
 10
158931.0035434229
 20
109993.0148585641
 30
0.0
 11
158932.0895740989
 21
109991.2035441174
 31
0.0
  0
LINE
  5
60F06
330
1F
100
AcDbEntity
  8
freecads.com
100
AcDbLine
 10
158932.0895740989
 20
109991.2035441174
 30
0.0
 11
158934.9856559023
 21
109990.1167554493
 31
0.0
  0
LINE
  5
60F07
330
1F
100
AcDbEntity
  8
freecads.com
100
AcDbLine
 10
158934.9856559023
 20
109990.1167554493
 30
0.0
 11
158937.8817377055
 21
109990.4790183387
 31
0.0
  0
LINE
  5
60F08
330
1F
100
AcDbEntity
  8
freecads.com
100
AcDbLine
 10
158937.8817377055
 20
109990.4790183387
 30
0.0
 11
158940.7778195087
 21
109992.2903327854
 31
0.0
  0
ARC
  5
60F09
330
1F
100
AcDbEntity
  8
freecads.com
100
AcDbCircle
 10
158924.8952348178
 20
110046.3491902076
 30
0.0
 40
3.326212211627646
100
AcDbArc
 50
339.3015727409885
 51
25.7861349116294
  0
LINE
  5
60F0A
330
1F
100
AcDbEntity
  8
freecads.com
100
AcDbLine
 10
158931.5278092079
 20
109951.5513259491
 30
0.0
 11
158932.6726834114
 21
109952.2061265371
 31
0.0
  0
ARC
  5
60F0B
330
1F
100
AcDbEntity
  8
freecads.com
100
AcDbCircle
 10
158928.6960715108
 20
109956.8427658025
 30
0.0
 40
6.001505986670126
100
AcDbArc
 50
218.486850850099
 51
298.1536618011664
  0
LINE
  5
60F0C
330
1F
100
AcDbEntity
  8
freecads.com
100
AcDbLine
 10
158940.1296725872
 20
109916.2927000668
 30
0.0
 11
158949.3140962625
 21
109915.4757370521
 31
0.0
  0
ARC
  5
60F0D
330
1F
100
AcDbEntity
  8
freecads.com
100
AcDbCircle
 10
158940.4243786527
 20
109919.6058309142
 30
0.0
 40
3.326212211627646
100
AcDbArc
 50
242.0498026591351
 51
264.9168654101484
  0
ARC
  5
60F0E
330
1F
100
AcDbEntity
  8
freecads.com
100
AcDbCircle
 10
158944.0396334783
 20
109865.5573430776
 30
0.0
 40
78.948016324419
100
AcDbArc
 50
353.2405698806564
 51
25.75679993510041
  0
ARC
  5
60F0F
330
1F
100
AcDbEntity
  8
freecads.com
100
AcDbCircle
 10
159124.5758832201
 20
109911.2461422598
 30
0.0
 40
36.15440505371639
100
AcDbArc
 50
193.1285975249421
 51
227.1294426110416
  0
ARC
  5
60F10
330
1F
100
AcDbEntity
  8
freecads.com
100
AcDbCircle
 10
159073.7313177245
 20
110122.3484205625
 30
0.0
 40
45.57903532744162
100
AcDbArc
 50
14.80127893404949
 51
105.3437506246104
  0
LINE
  5
60F11
330
1F
100
AcDbEntity
  8
freecads.com
100
AcDbLine
 10
159016.8911882145
 20
109832.4433909332
 30
0.0
 11
159022.4388899113
 21
109856.2650951093
 31
0.0
  0
LINE
  5
60F12
330
1F
100
AcDbEntity
  8
freecads.com
100
AcDbLine
 10
158970.4040545954
 20
109755.787832585
 30
0.0
 11
159016.8911882145
 21
109832.4433909332
 31
0.0
  0
ARC
  5
60F13
330
1F
100
AcDbEntity
  8
freecads.com
100
AcDbCircle
 10
159089.5796964955
 20
109834.6139976454
 30
0.0
 40
26.63690476190476
100
AcDbArc
 50
67.26559234155762
 51
98.82677144012978
  0
ARC
  5
60F14
330
1F
100
AcDbEntity
  8
freecads.com
100
AcDbCircle
 10
159081.9264188917
 20
109798.7368206021
 30
0.0
 40
67.85390250205082
100
AcDbArc
 50
93.7863289092454
 51
141.1594826754475
  0
ARC
  5
60F15
330
1F
100
AcDbEntity
  8
freecads.com
100
AcDbCircle
 10
159010.6755531654
 20
110119.6325595017
 30
0.0
 40
78.54570231560359
100
AcDbArc
 50
221.2821811278141
 51
224.4448329076997
  0
LINE
  5
60F16
330
1F
100
AcDbEntity
  8
freecads.com
100
AcDbLine
 10
159003.6083660084
 20
108832.9890968497
 30
0.0
 11
159117.3363640637
 21
108766.7988217553
 31
-740.7384055638179
  0
ARC
  5
60F17
330
1F
100
AcDbEntity
  8
freecads.com
100
AcDbCircle
 10
159223.6646686906
 20
108657.0064287688
 30
-920.6412591667797
 40
152.8400403118881
100
AcDbArc
 50
119.2738339501931
 51
157.4160107384921
  0
ARC
  5
60F18
330
1F
100
AcDbEntity
  8
freecads.com
100
AcDbCircle
 10
159083.6596295922
 20
108483.1278798091
 30
-920.6412591667797
 40
220.4189365908184
100
AcDbArc
 50
84.6735614389709
 51
101.5082579228801
  0
LINE
  5
60F19
330
1F
100
AcDbEntity
  8
freecads.com
100
AcDbLine
 10
159003.6083660084
 20
108832.9890968497
 30
0.0
 11
159031.4334069542
 21
108833.4420316937
 31
0.0
  0
LINE
  5
60F1A
330
1F
100
AcDbEntity
  8
freecads.com
100
AcDbLine
 10
159031.4334069542
 20
108833.4420316937
 30
0.0
 11
159059.2412610786
 21
108832.1474624773
 31
0.0
  0
LINE
  5
60F1B
330
1F
100
AcDbEntity
  8
freecads.com
100
AcDbLine
 10
159059.2412610786
 20
108832.1474624773
 30
0.0
 11
159086.7533559463
 21
108829.1326446167
 31
0.0
  0
LINE
  5
60F1C
330
1F
100
AcDbEntity
  8
freecads.com
100
AcDbLine
 10
159086.7533559463
 20
108829.1326446167
 30
0.0
 11
159117.9856559723
 21
108823.5732545819
 31
0.0
  0
LINE
  5
60F1D
330
1F
100
AcDbEntity
  8
freecads.com
100
AcDbLine
 10
159136.2149785337
 20
108782.3564571453
 30
0.0
 11
159128.3730637855
 21
108776.503658683
 31
0.0
  0
LINE
  5
60F1E
330
1F
100
AcDbEntity
  8
freecads.com
100
AcDbLine
 10
159128.3730637855
 20
108776.503658683
 30
0.0
 11
159121.221836599
 21
108770.432810513
 31
0.0
  0
LINE
  5
60F1F
330
1F
100
AcDbEntity
  8
freecads.com
100
AcDbLine
 10
159121.221836599
 20
108770.432810513
 30
0.0
 11
159119.7439004549
 21
108769.0802966053
 31
0.0
  0
LINE
  5
60F20
330
1F
100
AcDbEntity
  8
freecads.com
100
AcDbLine
 10
159119.7439004549
 20
108769.0802966053
 30
0.0
 11
159117.6210037514
 21
108766.6331600048
 31
0.0
  0
LINE
  5
60F21
330
1F
100
AcDbEntity
  8
freecads.com
100
AcDbLine
 10
159117.6210037514
 20
108766.6331600048
 30
0.0
 11
159003.6083660084
 21
108832.9890968497
 31
0.0
  0
LINE
  5
60F22
330
1F
100
AcDbEntity
  8
freecads.com
100
AcDbLine
 10
159117.9856559723
 20
108823.5732545819
 30
0.0
 11
159127.9750094169
 21
108814.2926722202
 31
0.0
  0
LINE
  5
60F23
330
1F
100
AcDbEntity
  8
freecads.com
100
AcDbLine
 10
159127.9750094169
 20
108814.2926722202
 30
0.0
 11
159135.5512137735
 21
108805.998996245
 31
0.0
  0
LINE
  5
60F24
330
1F
100
AcDbEntity
  8
freecads.com
100
AcDbLine
 10
159135.5512137735
 20
108805.998996245
 30
0.0
 11
159141.7897611792
 21
108798.1263811856
 31
0.0
  0
LINE
  5
60F25
330
1F
100
AcDbEntity
  8
freecads.com
100
AcDbLine
 10
159141.7897611792
 20
108798.1263811856
 30
0.0
 11
159147.506854057
 21
108791.5098454708
 31
0.0
  0
LINE
  5
60F26
330
1F
100
AcDbEntity
  8
freecads.com
100
AcDbLine
 10
159147.506854057
 20
108791.5098454708
 30
0.0
 11
159147.5068540595
 21
108791.509845468
 31
0.0
  0
LINE
  5
60F27
330
1F
100
AcDbEntity
  8
freecads.com
100
AcDbLine
 10
159147.5068540595
 20
108791.509845468
 30
0.0
 11
159146.2771102881
 21
108788.8064429078
 31
0.0
  0
LINE
  5
60F28
330
1F
100
AcDbEntity
  8
freecads.com
100
AcDbLine
 10
159146.2771102881
 20
108788.8064429078
 30
0.0
 11
159136.2149785337
 21
108782.3564571453
 31
0.0
  0
ARC
  5
60F29
330
1F
100
AcDbEntity
  8
freecads.com
100
AcDbCircle
 10
159024.7323956833
 20
108390.1925963761
 30
0.0
 40
443.3000851132568
100
AcDbArc
 50
77.85646349348251
 51
92.73127910107751
  0
ARC
  5
60F2A
330
1F
100
AcDbEntity
  8
freecads.com
100
AcDbCircle
 10
158487.982520127
 20
108200.7669038375
 30
0.0
 40
885.4092670259863
100
AcDbArc
 50
34.215626167129
 51
42.2983103241325
  0
ARC
  5
60F2B
330
1F
100
AcDbEntity
  8
freecads.com
100
AcDbCircle
 10
159019.7745482685
 20
108707.8452085632
 30
0.0
 40
151.7840647489524
100
AcDbArc
 50
35.80309280107989
 51
73.18092356731821
  0
LINE
  5
60F2C
330
1F
100
AcDbEntity
  8
freecads.com
100
AcDbLine
 10
159029.7477575005
 20
108881.3110345281
 30
0.0
 11
159031.7436151728
 21
108880.1314640645
 31
0.0
  0
ARC
  5
60F2D
330
1F
100
AcDbEntity
  8
freecads.com
100
AcDbCircle
 10
159708.382481788
 20
109777.9002259794
 30
0.0
 40
1232.534856744846
100
AcDbArc
 50
234.2779703264222
 51
236.8899740879779
  0
LINE
  5
60F2E
330
1F
100
AcDbEntity
  8
freecads.com
100
AcDbLine
 10
158924.2457886667
 20
108828.0932003847
 30
0.0
 11
158988.762807055
 21
108777.255585346
 31
0.0
  0
LINE
  5
60F2F
330
1F
100
AcDbEntity
  8
freecads.com
100
AcDbLine
 10
159126.6957783222
 20
108688.5595441119
 30
0.0
 11
159035.112114548
 21
108745.5005041239
 31
0.0
  0
ARC
  5
60F30
330
1F
100
AcDbEntity
  8
freecads.com
100
AcDbCircle
 10
159094.3565278904
 20
108939.7506273827
 30
0.0
 40
91.88170888612456
100
AcDbArc
 50
235.3619809501262
 51
253.8388794828704
  0
ARC
  5
60F31
330
1F
100
AcDbEntity
  8
freecads.com
100
AcDbCircle
 10
159378.3800134018
 20
108806.2354728518
 30
0.0
 40
191.3450615440958
100
AcDbArc
 50
214.215626167129
 51
234.8784432173786
  0
LINE
  5
60F32
330
1F
100
AcDbEntity
  8
freecads.com
100
AcDbLine
 10
159189.8943580091
 20
108637.6028185266
 30
0.0
 11
159126.6957783222
 21
108688.5595441119
 31
0.0
  0
LINE
  5
60F33
330
1F
100
AcDbEntity
  8
freecads.com
100
AcDbLine
 10
159305.6885188469
 20
108629.2358141044
 30
0.0
 11
159305.6885188469
 21
108629.2358141044
 31
0.0
  0
LINE
  5
60F34
330
1F
100
AcDbEntity
  8
freecads.com
100
AcDbLine
 10
159305.6885188469
 20
108629.2358141044
 30
0.0
 11
159291.6138337304
 21
108642.5312850115
 31
0.0
  0
LINE
  5
60F35
330
1F
100
AcDbEntity
  8
freecads.com
100
AcDbLine
 10
159291.6138337304
 20
108642.5312850115
 30
0.0
 11
159290.6493492512
 21
108650.240885412
 31
0.0
  0
LINE
  5
60F36
330
1F
100
AcDbEntity
  8
freecads.com
100
AcDbLine
 10
159331.6076573986
 20
108614.8726401472
 30
0.0
 11
159324.1434410431
 21
108588.4767052117
 31
0.0
  0
LINE
  5
60F37
330
1F
100
AcDbEntity
  8
freecads.com
100
AcDbLine
 10
159324.1434410431
 20
108588.4767052117
 30
0.0
 11
159322.7176068013
 21
108556.5754879265
 31
0.0
  0
ARC
  5
60F38
330
1F
100
AcDbEntity
  8
freecads.com
100
AcDbCircle
 10
159314.767650451
 20
108535.2467074851
 30
0.0
 40
90.03240567388571
100
AcDbArc
 50
58.38621193536362
 51
70.17789119497358
  0
LINE
  5
60F39
330
1F
100
AcDbEntity
  8
freecads.com
100
AcDbLine
 10
159228.2994640719
 20
108606.6187883368
 30
0.0
 11
159189.8943580091
 21
108637.6028185266
 31
0.0
  0
LINE
  5
60F3A
330
1F
100
AcDbEntity
  8
freecads.com
100
AcDbLine
 10
159234.2012837186
 20
108598.6657580189
 30
0.0
 11
159228.2994640719
 21
108606.6187883368
 31
0.0
  0
LINE
  5
60F3B
330
1F
100
AcDbEntity
  8
freecads.com
100
AcDbLine
 10
159265.3217989269
 20
108541.629544524
 30
0.0
 11
159256.7899198609
 21
108568.2263141126
 31
0.0
  0
LINE
  5
60F3C
330
1F
100
AcDbEntity
  8
freecads.com
100
AcDbLine
 10
159266.9116115741
 20
108529.2209652917
 30
0.0
 11
159265.3217989269
 21
108541.629544524
 31
0.0
  0
LINE
  5
60F3D
330
1F
100
AcDbEntity
  8
freecads.com
100
AcDbLine
 10
159290.6493492512
 20
108650.240885412
 30
0.0
 11
159283.8986517712
 21
108647.3497091622
 31
0.0
  0
LINE
  5
60F3E
330
1F
100
AcDbEntity
  8
freecads.com
100
AcDbLine
 10
159283.8986517712
 20
108647.3497091622
 30
0.0
 11
159280.0407138549
 21
108656.9865574637
 31
0.0
  0
LINE
  5
60F3F
330
1F
100
AcDbEntity
  8
freecads.com
100
AcDbLine
 10
159280.0407138549
 20
108656.9865574637
 30
0.0
 11
159271.3610474166
 21
108658.9140082969
 31
0.0
  0
LINE
  5
60F40
330
1F
100
AcDbEntity
  8
freecads.com
100
AcDbLine
 10
159271.3610474166
 20
108658.9140082969
 30
0.0
 11
159260.7524120202
 21
108627.1122871427
 31
0.0
  0
LINE
  5
60F41
330
1F
100
AcDbEntity
  8
freecads.com
100
AcDbLine
 10
159267.5034564371
 20
108636.7491354442
 30
0.0
 11
159239.5351412274
 21
108612.6568117583
 31
0.0
  0
LINE
  5
60F42
330
1F
100
AcDbEntity
  8
freecads.com
100
AcDbLine
 10
159239.5351412274
 20
108612.6568117583
 30
0.0
 11
159231.8199592683
 21
108592.4193897388
 31
0.0
  0
LINE
  5
60F43
330
1F
100
AcDbEntity
  8
freecads.com
100
AcDbLine
 10
159231.8199592683
 20
108592.4193897388
 30
0.0
 11
159244.3575636231
 21
108577.0001889377
 31
0.0
  0
LINE
  5
60F44
330
1F
100
AcDbEntity
  8
freecads.com
100
AcDbLine
 10
159244.3575636231
 20
108577.0001889377
 30
0.0
 11
159257.8593055198
 21
108557.7264923347
 31
0.0
  0
LINE
  5
60F45
330
1F
100
AcDbEntity
  8
freecads.com
100
AcDbLine
 10
159257.8593055198
 20
108557.7264923347
 30
0.0
 11
159263.6458654577
 21
108550.0168919342
 31
0.0
  0
LINE
  5
60F46
330
1F
100
AcDbEntity
  8
freecads.com
100
AcDbLine
 10
159235.610327859
 20
108587.7578569006
 30
0.0
 11
159246.2861856443
 21
108607.8383876075
 31
0.0
  0
LINE
  5
60F47
330
1F
100
AcDbEntity
  8
freecads.com
100
AcDbLine
 10
159246.2861856443
 20
108607.8383876075
 30
0.0
 11
159266.5389719579
 21
108618.4389613256
 31
0.0
  0
LINE
  5
60F48
330
1F
100
AcDbEntity
  8
freecads.com
100
AcDbLine
 10
159258.823789999
 20
108596.2740884729
 30
0.0
 11
159276.1831228754
 21
108638.6765862774
 31
0.0
  0
LINE
  5
60F49
330
1F
100
AcDbEntity
  8
freecads.com
100
AcDbLine
 10
159042.9090210669
 20
108507.5691402304
 30
0.0
 11
159041.9448835246
 21
108517.2061914642
 31
0.0
  0
LINE
  5
60F4A
330
1F
100
AcDbEntity
  8
freecads.com
100
AcDbLine
 10
159041.9448835246
 20
108517.2061914642
 30
0.0
 11
159041.9448835246
 21
108531.6614639164
 31
0.0
  0
LINE
  5
60F4B
330
1F
100
AcDbEntity
  8
freecads.com
100
AcDbLine
 10
159046.2058264484
 20
108539.3254970869
 30
0.0
 11
159046.7669589832
 21
108540.3347897335
 31
0.0
  0
LINE
  5
60F4C
330
1F
100
AcDbEntity
  8
freecads.com
100
AcDbLine
 10
159046.7669589832
 20
108540.3347897335
 30
0.0
 11
159077.6280337563
 21
108531.6614639164
 31
0.0
  0
LINE
  5
60F4D
330
1F
100
AcDbEntity
  8
freecads.com
100
AcDbLine
 10
159077.6280337563
 20
108531.6614639164
 30
0.0
 11
159106.5608334453
 21
108532.625189333
 31
0.0
  0
LINE
  5
60F4E
330
1F
100
AcDbEntity
  8
freecads.com
100
AcDbLine
 10
159058.3397319219
 20
108533.5889147496
 30
0.0
 11
159104.6318644869
 21
108542.2620376344
 31
0.0
  0
LINE
  5
60F4F
330
1F
100
AcDbEntity
  8
freecads.com
100
AcDbLine
 10
159104.6318644869
 20
108542.2620376344
 30
0.0
 11
159130.6712107385
 21
108546.1169393008
 31
0.0
  0
LINE
  5
60F50
330
1F
100
AcDbEntity
  8
freecads.com
100
AcDbLine
 10
159130.6712107385
 20
108546.1169393008
 30
0.0
 11
159125.8491352799
 21
108535.5163655828
 31
0.0
  0
LINE
  5
60F51
330
1F
100
AcDbEntity
  8
freecads.com
100
AcDbLine
 10
159125.8491352799
 20
108535.5163655828
 30
0.0
 11
159124.8846508007
 21
108523.9520664481
 31
0.0
  0
LINE
  5
60F52
330
1F
100
AcDbEntity
  8
freecads.com
100
AcDbLine
 10
159124.8846508007
 20
108523.9520664481
 30
0.0
 11
159128.7422417801
 21
108515.278740631
 31
0.0
  0
LINE
  5
60F53
330
1F
100
AcDbEntity
  8
freecads.com
100
AcDbLine
 10
159128.7422417801
 20
108515.278740631
 30
0.0
 11
159134.5288017181
 21
108501.7869906631
 31
0.0
  0
LINE
  5
60F54
330
1F
100
AcDbEntity
  8
freecads.com
100
AcDbLine
 10
159134.5288017181
 20
108501.7869906631
 30
0.0
 11
159142.2439836771
 21
108489.2591690442
 31
0.0
  0
LINE
  5
60F55
330
1F
100
AcDbEntity
  8
freecads.com
100
AcDbLine
 10
159041.9448835246
 20
108518.017655739
 30
0.0
 11
159067.0197452969
 21
108511.4240418969
 31
0.0
  0
LINE
  5
60F56
330
1F
100
AcDbEntity
  8
freecads.com
100
AcDbLine
 10
159053.5176564632
 20
108512.3877673134
 30
0.0
 11
159119.098090863
 21
108525.879314349
 31
0.0
  0
LINE
  5
60F57
330
1F
100
AcDbEntity
  8
freecads.com
100
AcDbLine
 10
159065.0907763388
 20
108505.6418923295
 30
0.0
 11
159110.4184244249
 21
108510.4603164803
 31
0.0
  0
LINE
  5
60F58
330
1F
100
AcDbEntity
  8
freecads.com
100
AcDbLine
 10
159149.3821223283
 20
108439.2394946228
 30
0.0
 11
159148.0858730732
 21
108409.1210312435
 31
0.0
  0
LINE
  5
60F59
330
1F
100
AcDbEntity
  8
freecads.com
100
AcDbLine
 10
159148.0858730732
 20
108409.1210312435
 30
0.0
 11
159137.3548051022
 21
108399.0044356863
 31
0.0
  0
LINE
  5
60F5A
330
1F
100
AcDbEntity
  8
freecads.com
100
AcDbLine
 10
159137.3548051022
 20
108399.0044356863
 30
0.0
 11
159131.9255506963
 21
108401.6658494116
 31
0.0
  0
LINE
  5
60F5B
330
1F
100
AcDbEntity
  8
freecads.com
100
AcDbLine
 10
159131.9255506963
 20
108401.6658494116
 30
0.0
 11
159131.165876222
 21
108400.1161219313
 31
0.0
  0
LINE
  5
60F5C
330
1F
100
AcDbEntity
  8
freecads.com
100
AcDbLine
 10
159131.165876222
 20
108400.1161219313
 30
0.0
 11
159126.9239374112
 21
108399.3123466929
 31
0.0
  0
LINE
  5
60F5D
330
1F
100
AcDbEntity
  8
freecads.com
100
AcDbLine
 10
159126.9239374112
 20
108399.3123466929
 30
0.0
 11
159121.9222985833
 21
108396.9588564952
 31
0.0
  0
LINE
  5
60F5E
330
1F
100
AcDbEntity
  8
freecads.com
100
AcDbLine
 10
159121.9222985833
 20
108396.9588564952
 30
0.0
 11
159116.1291362485
 21
108396.9154689001
 31
0.0
  0
LINE
  5
60F5F
330
1F
100
AcDbEntity
  8
freecads.com
100
AcDbLine
 10
159116.1291362485
 20
108396.9154689001
 30
0.0
 11
159113.0107718616
 21
108400.3662061842
 31
0.0
  0
LINE
  5
60F60
330
1F
100
AcDbEntity
  8
freecads.com
100
AcDbLine
 10
159113.0107718616
 20
108400.3662061842
 30
0.0
 11
159110.7158151406
 21
108397.6469531844
 31
0.0
  0
LINE
  5
60F61
330
1F
100
AcDbEntity
  8
freecads.com
100
AcDbLine
 10
159110.7158151406
 20
108397.6469531844
 30
0.0
 11
159106.8696253118
 21
108395.6881329052
 31
0.0
  0
LINE
  5
60F62
330
1F
100
AcDbEntity
  8
freecads.com
100
AcDbLine
 10
159106.8696253118
 20
108395.6881329052
 30
0.0
 11
159103.7671942228
 21
108397.2089407482
 31
0.0
  0
LINE
  5
60F63
330
1F
100
AcDbEntity
  8
freecads.com
100
AcDbLine
 10
159103.7671942228
 20
108397.2089407482
 30
0.0
 11
159096.8185908684
 21
108396.7708995129
 31
0.0
  0
LINE
  5
60F64
330
1F
100
AcDbEntity
  8
freecads.com
100
AcDbLine
 10
159096.8185908684
 20
108396.7708995129
 30
0.0
 11
159086.7834641801
 21
108395.9237492005
 31
0.0
  0
LINE
  5
60F65
330
1F
100
AcDbEntity
  8
freecads.com
100
AcDbLine
 10
159086.7834641801
 20
108395.9237492005
 30
0.0
 11
159081.3382764763
 21
108400.5150923669
 31
0.0
  0
LINE
  5
60F66
330
1F
100
AcDbEntity
  8
freecads.com
100
AcDbLine
 10
159081.3382764763
 20
108400.5150923669
 30
0.0
 11
159081.6862175851
 21
108405.1498193713
 31
0.0
  0
LINE
  5
60F67
330
1F
100
AcDbEntity
  8
freecads.com
100
AcDbLine
 10
159081.6862175851
 20
108405.1498193713
 30
0.0
 11
159070.0999008949
 21
108405.0630604593
 31
0.0
  0
LINE
  5
60F68
330
1F
100
AcDbEntity
  8
freecads.com
100
AcDbLine
 10
159070.0999008949
 20
108405.0630604593
 30
0.0
 11
159051.2488632313
 21
108396.0437157457
 31
0.0
  0
LINE
  5
60F69
330
1F
100
AcDbEntity
  8
freecads.com
100
AcDbLine
 10
159051.2488632313
 20
108396.0437157457
 30
0.0
 11
159046.6589497894
 21
108390.6052097459
 31
0.0
  0
LINE
  5
60F6A
330
1F
100
AcDbEntity
  8
freecads.com
100
AcDbLine
 10
159046.6589497894
 20
108390.6052097459
 30
0.0
 11
159039.3464209426
 21
108387.4623959892
 31
0.0
  0
LINE
  5
60F6B
330
1F
100
AcDbEntity
  8
freecads.com
100
AcDbLine
 10
159039.3464209426
 20
108387.4623959892
 30
0.0
 11
159035.8482153288
 21
108390.1382613941
 31
0.0
  0
LINE
  5
60F6C
330
1F
100
AcDbEntity
  8
freecads.com
100
AcDbLine
 10
159035.8482153288
 20
108390.1382613941
 30
0.0
 11
159033.9171665367
 21
108390.1238097146
 31
0.0
  0
LINE
  5
60F6D
330
1F
100
AcDbEntity
  8
freecads.com
100
AcDbLine
 10
159033.9171665367
 20
108390.1238097146
 30
0.0
 11
159032.3978175882
 21
108387.0243547539
 31
0.0
  0
LINE
  5
60F6E
330
1F
100
AcDbEntity
  8
freecads.com
100
AcDbLine
 10
159032.3978175882
 20
108387.0243547539
 30
0.0
 11
159024.6895142166
 21
108385.0365985592
 31
0.0
  0
LINE
  5
60F6F
330
1F
100
AcDbEntity
  8
freecads.com
100
AcDbLine
 10
159024.6895142166
 20
108385.0365985592
 30
0.0
 11
159023.8979731464
 21
108387.3467299611
 31
0.0
  0
LINE
  5
60F70
330
1F
100
AcDbEntity
  8
freecads.com
100
AcDbLine
 10
159023.8979731464
 20
108387.3467299611
 30
0.0
 11
159019.2602598109
 21
108387.6980122846
 31
0.0
  0
LINE
  5
60F71
330
1F
100
AcDbEntity
  8
freecads.com
100
AcDbLine
 10
159019.2602598109
 20
108387.6980122846
 30
0.0
 11
159018.1048108117
 21
108387.3033423661
 31
0.0
  0
LINE
  5
60F72
330
1F
100
AcDbEntity
  8
freecads.com
100
AcDbLine
 10
159018.1048108117
 20
108387.3033423661
 30
0.0
 11
159011.5519564392
 21
108385.7102560899
 31
0.0
  0
LINE
  5
60F73
330
1F
100
AcDbEntity
  8
freecads.com
100
AcDbLine
 10
159011.5519564392
 20
108385.7102560899
 30
0.0
 11
159006.1705019271
 21
108382.5818814918
 31
0.0
  0
LINE
  5
60F74
330
1F
100
AcDbEntity
  8
freecads.com
100
AcDbLine
 10
159006.1705019271
 20
108382.5818814918
 30
0.0
 11
159005.7588020839
 21
108385.666884773
 31
0.0
  0
LINE
  5
60F75
330
1F
100
AcDbEntity
  8
freecads.com
100
AcDbLine
 10
159005.7588020839
 20
108385.666884773
 30
0.0
 11
159002.2765297679
 21
108386.4128207368
 31
0.0
  0
LINE
  5
60F76
330
1F
100
AcDbEntity
  8
freecads.com
100
AcDbLine
 10
159002.2765297679
 20
108386.4128207368
 30
0.0
 11
159000.377347572
 21
108382.5385101749
 31
0.0
  0
LINE
  5
60F77
330
1F
100
AcDbEntity
  8
freecads.com
100
AcDbLine
 10
159000.377347572
 20
108382.5385101749
 30
0.0
 11
158994.5682343758
 21
108384.4250808203
 31
0.0
  0
LINE
  5
60F78
330
1F
100
AcDbEntity
  8
freecads.com
100
AcDbLine
 10
158994.5682343758
 20
108384.4250808203
 30
0.0
 11
158993.0010775538
 21
108387.1153979047
 31
0.0
  0
LINE
  5
60F79
330
1F
100
AcDbEntity
  8
freecads.com
100
AcDbLine
 10
158993.0010775538
 20
108387.1153979047
 30
0.0
 11
158989.13897997
 21
108387.0864945455
 31
0.0
  0
LINE
  5
60F7A
330
1F
100
AcDbEntity
  8
freecads.com
100
AcDbLine
 10
158989.13897997
 20
108387.0864945455
 30
0.0
 11
158987.9994642688
 21
108384.761895186
 31
0.0
  0
LINE
  5
60F7B
330
1F
100
AcDbEntity
  8
freecads.com
100
AcDbLine
 10
158987.9994642688
 20
108384.761895186
 30
0.0
 11
158975.6215809656
 21
108386.9852801969
 31
0.0
  0
LINE
  5
60F7C
330
1F
100
AcDbEntity
  8
freecads.com
100
AcDbLine
 10
158975.6215809656
 20
108386.9852801969
 30
0.0
 11
158945.0726600041
 21
108391.3886789021
 31
0.0
  0
LINE
  5
60F7D
330
1F
100
AcDbEntity
  8
freecads.com
100
AcDbLine
 10
158945.0726600041
 20
108391.3886789021
 30
0.0
 11
158926.8219303133
 21
108403.2183523228
 31
0.0
  0
LINE
  5
60F7E
330
1F
100
AcDbEntity
  8
freecads.com
100
AcDbLine
 10
158926.8219303133
 20
108403.2183523228
 30
0.0
 11
158933.1994848862
 21
108426.0406586941
 31
0.0
  0
LINE
  5
60F7F
330
1F
100
AcDbEntity
  8
freecads.com
100
AcDbLine
 10
158933.1994848862
 20
108426.0406586941
 30
0.0
 11
158936.3019159751
 21
108424.5198508511
 31
0.0
  0
LINE
  5
60F80
330
1F
100
AcDbEntity
  8
freecads.com
100
AcDbLine
 10
158936.3019159751
 20
108424.5198508511
 30
0.0
 11
158943.9464861551
 21
108434.2273248103
 31
0.0
  0
LINE
  5
60F81
330
1F
100
AcDbEntity
  8
freecads.com
100
AcDbLine
 10
158943.9464861551
 20
108434.2273248103
 30
0.0
 11
158955.1210950223
 21
108437.3990707252
 31
0.0
  0
LINE
  5
60F82
330
1F
100
AcDbEntity
  8
freecads.com
100
AcDbLine
 10
158955.1210950223
 20
108437.3990707252
 30
0.0
 11
158970.949376066
 21
108438.2895923547
 31
0.0
  0
LINE
  5
60F83
330
1F
100
AcDbEntity
  8
freecads.com
100
AcDbLine
 10
158970.949376066
 20
108438.2895923547
 30
0.0
 11
158993.6147193992
 21
108453.1276450288
 31
0.0
  0
LINE
  5
60F84
330
1F
100
AcDbEntity
  8
freecads.com
100
AcDbLine
 10
158993.6147193992
 20
108453.1276450288
 30
0.0
 11
159007.4004185654
 21
108467.5132210663
 31
0.0
  0
LINE
  5
60F85
330
1F
100
AcDbEntity
  8
freecads.com
100
AcDbLine
 10
159007.4004185654
 20
108467.5132210663
 30
0.0
 11
159018.0995864183
 21
108481.4896717487
 31
0.0
  0
LINE
  5
60F86
330
1F
100
AcDbEntity
  8
freecads.com
100
AcDbLine
 10
159018.0995864183
 20
108481.4896717487
 30
0.0
 11
159019.2231608422
 21
108485.7441842713
 31
0.0
  0
LINE
  5
60F87
330
1F
100
AcDbEntity
  8
freecads.com
100
AcDbLine
 10
159146.5346319859
 20
108409.8814476861
 30
0.0
 11
159147.2624398643
 21
108415.2910340487
 31
0.0
  0
LINE
  5
60F88
330
1F
100
AcDbEntity
  8
freecads.com
100
AcDbLine
 10
159147.2624398643
 20
108415.2910340487
 30
0.0
 11
159141.8172521606
 21
108419.8823772152
 31
0.0
  0
LINE
  5
60F89
330
1F
100
AcDbEntity
  8
freecads.com
100
AcDbLine
 10
159141.8172521606
 20
108419.8823772152
 30
0.0
 11
159124.389947699
 21
108425.5420315527
 31
0.0
  0
LINE
  5
60F8A
330
1F
100
AcDbEntity
  8
freecads.com
100
AcDbLine
 10
159124.389947699
 20
108425.5420315527
 30
0.0
 11
159110.0969489019
 21
108425.8210354429
 31
0.0
  0
LINE
  5
60F8B
330
1F
100
AcDbEntity
  8
freecads.com
100
AcDbLine
 10
159110.0969489019
 20
108425.8210354429
 30
0.0
 11
159087.6998722083
 21
108425.2673407005
 31
0.0
  0
LINE
  5
60F8C
330
1F
100
AcDbEntity
  8
freecads.com
100
AcDbLine
 10
159087.6998722083
 20
108425.2673407005
 30
0.0
 11
159070.3681755139
 21
108419.3474346693
 31
0.0
  0
LINE
  5
60F8D
330
1F
100
AcDbEntity
  8
freecads.com
100
AcDbLine
 10
159070.3681755139
 20
108419.3474346693
 30
0.0
 11
159019.8924343793
 21
108404.6871715368
 31
0.0
  0
LINE
  5
60F8E
330
1F
100
AcDbEntity
  8
freecads.com
100
AcDbLine
 10
159019.8924343793
 20
108404.6871715368
 30
0.0
 11
158964.2716722988
 21
108405.0427543772
 31
0.0
  0
LINE
  5
60F8F
330
1F
100
AcDbEntity
  8
freecads.com
100
AcDbLine
 10
158964.2716722988
 20
108405.0427543772
 30
0.0
 11
158935.5581747987
 21
108421.0401939298
 31
0.0
  0
ARC
  5
60F90
330
1F
100
AcDbEntity
  8
freecads.com
100
AcDbCircle
 10
159059.4996280735
 20
108444.4328844584
 30
0.0
 40
90.03240567388571
100
AcDbArc
 50
356.6931397598984
 51
8.484819019139427
  0
ARC
  5
60F91
330
1F
100
AcDbEntity
  8
freecads.com
100
AcDbCircle
 10
159058.5646079858
 20
108685.0278602942
 30
0.0
 40
203.1298426932028
100
AcDbArc
 50
258.8325898057813
 51
292.9284189560182
  0
LINE
  5
60F92
330
1F
100
AcDbEntity
  8
freecads.com
100
AcDbLine
 10
159030.1173178099
 20
108483.899829741
 30
0.0
 11
159031.8583881071
 21
108491.5107027348
 31
0.0
  0
LINE
  5
60F93
330
1F
100
AcDbEntity
  8
freecads.com
100
AcDbLine
 10
159031.8583881071
 20
108491.5107027348
 30
0.0
 11
159028.6100182589
 21
108504.4941073312
 31
0.0
  0
LINE
  5
60F94
330
1F
100
AcDbEntity
  8
freecads.com
100
AcDbLine
 10
159028.6100182589
 20
108504.4941073312
 30
0.0
 11
159034.0239680058
 21
108509.5432654889
 31
0.0
  0
LINE
  5
60F95
330
1F
100
AcDbEntity
  8
freecads.com
100
AcDbLine
 10
159034.0239680058
 20
108509.5432654889
 30
0.0
 11
159036.550362242
 21
108519.2807682032
 31
0.0
  0
LINE
  5
60F96
330
1F
100
AcDbEntity
  8
freecads.com
100
AcDbLine
 10
159036.550362242
 20
108519.2807682032
 30
0.0
 11
159041.9639650521
 21
108530.821527193
 31
0.0
  0
LINE
  5
60F97
330
1F
100
AcDbEntity
  8
freecads.com
100
AcDbLine
 10
159041.9639650521
 20
108530.821527193
 30
0.0
 11
159038.3547808664
 21
108543.4441181885
 31
0.0
  0
LINE
  5
60F98
330
1F
100
AcDbEntity
  8
freecads.com
100
AcDbLine
 10
159038.3547808664
 20
108543.4441181885
 30
0.0
 11
159067.2286012885
 21
108528.2970495803
 31
0.0
  0
LINE
  5
60F99
330
1F
100
AcDbEntity
  8
freecads.com
100
AcDbLine
 10
159137.5893350651
 20
108467.3647977733
 30
0.0
 11
159110.8103338201
 21
108461.4196317339
 31
0.0
  0
LINE
  5
60F9A
330
1F
100
AcDbEntity
  8
freecads.com
100
AcDbLine
 10
159110.8103338201
 20
108461.4196317339
 30
0.0
 11
159082.0477403552
 21
108447.5475776418
 31
0.0
  0
LINE
  5
60F9B
330
1F
100
AcDbEntity
  8
freecads.com
100
AcDbLine
 10
159386.458961927
 20
108595.4899606169
 30
0.0
 11
159382.041376389
 21
108598.6959342504
 31
0.0
  0
LINE
  5
60F9C
330
1F
100
AcDbEntity
  8
freecads.com
100
AcDbLine
 10
159382.041376389
 20
108598.6959342504
 30
0.0
 11
159375.4169869606
 21
108596.0790724085
 31
0.0
  0
LINE
  5
60F9D
330
1F
100
AcDbEntity
  8
freecads.com
100
AcDbLine
 10
159375.4169869606
 20
108596.0790724085
 30
0.0
 11
159362.1701791192
 21
108583.4195025094
 31
0.0
  0
LINE
  5
60F9E
330
1F
100
AcDbEntity
  8
freecads.com
100
AcDbLine
 10
159362.1701791192
 20
108583.4195025094
 30
0.0
 11
159355.1468747019
 21
108570.9679623297
 31
0.0
  0
LINE
  5
60F9F
330
1F
100
AcDbEntity
  8
freecads.com
100
AcDbLine
 10
159355.1468747019
 20
108570.9679623297
 30
0.0
 11
159345.0137843145
 21
108550.9865684473
 31
0.0
  0
LINE
  5
60FA0
330
1F
100
AcDbEntity
  8
freecads.com
100
AcDbLine
 10
159345.0137843145
 20
108550.9865684473
 30
0.0
 11
159342.007189978
 21
108532.9202077671
 31
0.0
  0
LINE
  5
60FA1
330
1F
100
AcDbEntity
  8
freecads.com
100
AcDbLine
 10
159342.007189978
 20
108532.9202077671
 30
0.0
 11
159330.9790519283
 21
108481.5285359774
 31
0.0
  0
LINE
  5
60FA2
330
1F
100
AcDbEntity
  8
freecads.com
100
AcDbLine
 10
159330.9790519283
 20
108481.5285359774
 30
0.0
 11
159304.2909209199
 21
108432.727518807
 31
0.0
  0
LINE
  5
60FA3
330
1F
100
AcDbEntity
  8
freecads.com
100
AcDbLine
 10
159304.2909209199
 20
108432.727518807
 30
0.0
 11
159276.5906674268
 21
108415.0334811861
 31
0.0
  0
LINE
  5
60FA4
330
1F
100
AcDbEntity
  8
freecads.com
100
AcDbLine
 10
159361.9618142884
 20
108611.9183774234
 30
0.0
 11
159387.86403804
 21
108596.4951189096
 31
0.0
  0
LINE
  5
60FA5
330
1F
100
AcDbEntity
  8
freecads.com
100
AcDbLine
 10
159387.86403804
 20
108596.4951189096
 30
0.0
 11
159391.6822761347
 21
108582.2500361326
 31
0.0
  0
LINE
  5
60FA6
330
1F
100
AcDbEntity
  8
freecads.com
100
AcDbLine
 10
159391.6822761347
 20
108582.2500361326
 30
0.0
 11
159386.7645907147
 21
108578.7320400366
 31
0.0
  0
LINE
  5
60FA7
330
1F
100
AcDbEntity
  8
freecads.com
100
AcDbLine
 10
159386.7645907147
 20
108578.7320400366
 30
0.0
 11
159387.768768235
 21
108577.3283349115
 31
0.0
  0
LINE
  5
60FA8
330
1F
100
AcDbEntity
  8
freecads.com
100
AcDbLine
 10
159387.768768235
 20
108577.3283349115
 30
0.0
 11
159386.4649232872
 21
108573.2125011126
 31
0.0
  0
LINE
  5
60FA9
330
1F
100
AcDbEntity
  8
freecads.com
100
AcDbLine
 10
159386.4649232872
 20
108573.2125011126
 30
0.0
 11
159386.1652327237
 21
108567.6929456377
 31
0.0
  0
LINE
  5
60FAA
330
1F
100
AcDbEntity
  8
freecads.com
100
AcDbLine
 10
159386.1652327237
 20
108567.6929456377
 30
0.0
 11
159383.4563453465
 21
108562.5719553525
 31
0.0
  0
LINE
  5
60FAB
330
1F
100
AcDbEntity
  8
freecads.com
100
AcDbLine
 10
159383.4563453465
 20
108562.5719553525
 30
0.0
 11
159378.9395353838
 21
108561.4628061232
 31
0.0
  0
LINE
  5
60FAC
330
1F
100
AcDbEntity
  8
freecads.com
100
AcDbLine
 10
159378.9395353838
 20
108561.4628061232
 30
0.0
 11
159380.2453639354
 21
108558.1528250023
 31
0.0
  0
LINE
  5
60FAD
330
1F
100
AcDbEntity
  8
freecads.com
100
AcDbLine
 10
159380.2453639354
 20
108558.1528250023
 30
0.0
 11
159380.1461058266
 21
108553.8377003327
 31
0.0
  0
LINE
  5
60FAE
330
1F
100
AcDbEntity
  8
freecads.com
100
AcDbLine
 10
159380.1461058266
 20
108553.8377003327
 30
0.0
 11
159377.3359998723
 21
108551.8274168492
 31
0.0
  0
LINE
  5
60FAF
330
1F
100
AcDbEntity
  8
freecads.com
100
AcDbLine
 10
159377.3359998723
 20
108551.8274168492
 30
0.0
 11
159374.4266694928
 21
108545.5020105031
 31
0.0
  0
LINE
  5
60FB0
330
1F
100
AcDbEntity
  8
freecads.com
100
AcDbLine
 10
159374.4266694928
 20
108545.5020105031
 30
0.0
 11
159370.4139140321
 21
108536.2651698681
 31
0.0
  0
LINE
  5
60FB1
330
1F
100
AcDbEntity
  8
freecads.com
100
AcDbLine
 10
159370.4139140321
 20
108536.2651698681
 30
0.0
 11
159363.7895246037
 21
108533.6483080264
 31
0.0
  0
LINE
  5
60FB2
330
1F
100
AcDbEntity
  8
freecads.com
100
AcDbLine
 10
159363.7895246037
 20
108533.6483080264
 30
0.0
 11
159359.8740099637
 21
108536.1524051741
 31
0.0
  0
LINE
  5
60FB3
330
1F
100
AcDbEntity
  8
freecads.com
100
AcDbLine
 10
159359.8740099637
 20
108536.1524051741
 30
0.0
 11
159354.4562246619
 21
108525.9104393484
 31
0.0
  0
LINE
  5
60FB4
330
1F
100
AcDbEntity
  8
freecads.com
100
AcDbLine
 10
159354.4562246619
 20
108525.9104393484
 30
0.0
 11
159353.457974818
 21
108505.0366831626
 31
0.0
  0
LINE
  5
60FB5
330
1F
100
AcDbEntity
  8
freecads.com
100
AcDbLine
 10
159353.457974818
 20
108505.0366831626
 30
0.0
 11
159356.0696319217
 21
108498.4167209203
 31
0.0
  0
LINE
  5
60FB6
330
1F
100
AcDbEntity
  8
freecads.com
100
AcDbLine
 10
159356.0696319217
 20
108498.4167209203
 30
0.0
 11
159355.3690659015
 21
108490.4883185785
 31
0.0
  0
LINE
  5
60FB7
330
1F
100
AcDbEntity
  8
freecads.com
100
AcDbLine
 10
159355.3690659015
 20
108490.4883185785
 30
0.0
 11
159351.3543499724
 21
108488.6773094145
 31
0.0
  0
LINE
  5
60FB8
330
1F
100
AcDbEntity
  8
freecads.com
100
AcDbLine
 10
159351.3543499724
 20
108488.6773094145
 30
0.0
 11
159350.4513804816
 21
108486.9703224825
 31
0.0
  0
LINE
  5
60FB9
330
1F
100
AcDbEntity
  8
freecads.com
100
AcDbLine
 10
159350.4513804816
 20
108486.9703224825
 30
0.0
 11
159352.459735522
 21
108484.1629122323
 31
0.0
  0
LINE
  5
60FBA
330
1F
100
AcDbEntity
  8
freecads.com
100
AcDbLine
 10
159352.459735522
 20
108484.1629122323
 30
0.0
 11
159350.5545595268
 21
108476.43378421
 31
0.0
  0
LINE
  5
60FBB
330
1F
100
AcDbEntity
  8
freecads.com
100
AcDbLine
 10
159350.5545595268
 20
108476.43378421
 30
0.0
 11
159348.1453290295
 21
108476.8323475932
 31
0.0
  0
LINE
  5
60FBC
330
1F
100
AcDbEntity
  8
freecads.com
100
AcDbLine
 10
159348.1453290295
 20
108476.8323475932
 30
0.0
 11
159345.636874107
 21
108472.9157881141
 31
0.0
  0
LINE
  5
60FBD
330
1F
100
AcDbEntity
  8
freecads.com
100
AcDbLine
 10
159345.636874107
 20
108472.9157881141
 30
0.0
 11
159345.4364416524
 21
108471.7113573083
 31
0.0
  0
LINE
  5
60FBE
330
1F
100
AcDbEntity
  8
freecads.com
100
AcDbLine
 10
159345.4364416524
 20
108471.7113573083
 30
0.0
 11
159343.7316981118
 21
108465.1866600915
 31
0.0
  0
LINE
  5
60FBF
330
1F
100
AcDbEntity
  8
freecads.com
100
AcDbLine
 10
159343.7316981118
 20
108465.1866600915
 30
0.0
 11
159343.9341247184
 21
108458.9652612328
 31
0.0
  0
LINE
  5
60FC0
330
1F
100
AcDbEntity
  8
freecads.com
100
AcDbLine
 10
159343.9341247184
 20
108458.9652612328
 30
0.0
 11
159341.0228001869
 21
108460.0656845509
 31
0.0
  0
LINE
  5
60FC1
330
1F
100
AcDbEntity
  8
freecads.com
100
AcDbLine
 10
159341.0228001869
 20
108460.0656845509
 30
0.0
 11
159338.7147882667
 21
108457.3535411327
 31
0.0
  0
LINE
  5
60FC2
330
1F
100
AcDbEntity
  8
freecads.com
100
AcDbLine
 10
159338.7147882667
 20
108457.3535411327
 30
0.0
 11
159341.2252267935
 21
108453.8442856922
 31
0.0
  0
LINE
  5
60FC3
330
1F
100
AcDbEntity
  8
freecads.com
100
AcDbLine
 10
159341.2252267935
 20
108453.8442856922
 30
0.0
 11
159336.8096017238
 21
108449.6244278546
 31
0.0
  0
LINE
  5
60FC4
330
1F
100
AcDbEntity
  8
freecads.com
100
AcDbLine
 10
159336.8096017238
 20
108449.6244278546
 30
0.0
 11
159333.6978552857
 21
108449.5204056227
 31
0.0
  0
LINE
  5
60FC5
330
1F
100
AcDbEntity
  8
freecads.com
100
AcDbLine
 10
159333.6978552857
 20
108449.5204056227
 30
0.0
 11
159331.8919163042
 21
108446.1064317586
 31
0.0
  0
LINE
  5
60FC6
330
1F
100
AcDbEntity
  8
freecads.com
100
AcDbLine
 10
159331.8919163042
 20
108446.1064317586
 30
0.0
 11
159333.3981878581
 21
108444.0008666989
 31
0.0
  0
LINE
  5
60FC7
330
1F
100
AcDbEntity
  8
freecads.com
100
AcDbLine
 10
159333.3981878581
 20
108444.0008666989
 30
0.0
 11
159325.5711489229
 21
108434.1574477053
 31
0.0
  0
LINE
  5
60FC8
330
1F
100
AcDbEntity
  8
freecads.com
100
AcDbLine
 10
159325.5711489229
 20
108434.1574477053
 30
0.0
 11
159307.2081731276
 21
108409.3496341779
 31
0.0
  0
LINE
  5
60FC9
330
1F
100
AcDbEntity
  8
freecads.com
100
AcDbLine
 10
159307.2081731276
 20
108409.3496341779
 30
0.0
 11
159288.1386930877
 21
108398.8908943642
 31
0.0
  0
LINE
  5
60FCA
330
1F
100
AcDbEntity
  8
freecads.com
100
AcDbLine
 10
159288.1386930877
 20
108398.8908943642
 30
0.0
 11
159271.0696799436
 21
108415.3280370819
 31
0.0
  0
LINE
  5
60FCB
330
1F
100
AcDbEntity
  8
freecads.com
100
AcDbLine
 10
159271.0696799436
 20
108415.3280370819
 30
0.0
 11
159273.8797858976
 21
108417.3383205654
 31
0.0
  0
LINE
  5
60FCC
330
1F
100
AcDbEntity
  8
freecads.com
100
AcDbLine
 10
159273.8797858976
 20
108417.3383205654
 30
0.0
 11
159268.9581458579
 21
108428.6719856046
 31
0.0
  0
LINE
  5
60FCD
330
1F
100
AcDbEntity
  8
freecads.com
100
AcDbLine
 10
159268.9581458579
 20
108428.6719856046
 30
0.0
 11
159271.4646171763
 21
108440.0143600039
 31
0.0
  0
LINE
  5
60FCE
330
1F
100
AcDbEntity
  8
freecads.com
100
AcDbLine
 10
159271.4646171763
 20
108440.0143600039
 30
0.0
 11
159278.1862705617
 21
108454.3721761797
 31
0.0
  0
LINE
  5
60FCF
330
1F
100
AcDbEntity
  8
freecads.com
100
AcDbLine
 10
159278.1862705617
 20
108454.3721761797
 30
0.0
 11
159275.8703368134
 21
108481.3633237367
 31
0.0
  0
LINE
  5
60FD0
330
1F
100
AcDbEntity
  8
freecads.com
100
AcDbLine
 10
159275.8703368134
 20
108481.3633237367
 30
0.0
 11
159269.7420926467
 21
108500.3220927595
 31
0.0
  0
LINE
  5
60FD1
330
1F
100
AcDbEntity
  8
freecads.com
100
AcDbLine
 10
159269.7420926467
 20
108500.3220927595
 30
0.0
 11
159262.5104339463
 21
108516.3694127497
 31
0.0
  0
LINE
  5
60FD2
330
1F
100
AcDbEntity
  8
freecads.com
100
AcDbLine
 10
159262.5104339463
 20
108516.3694127497
 30
0.0
 11
159259.2974689312
 21
108519.3760973195
 31
0.0
  0
ARC
  5
60FD3
330
1F
100
AcDbEntity
  8
freecads.com
100
AcDbCircle
 10
159102.4996346372
 20
108648.5123515368
 30
0.0
 40
203.1298426932028
100
AcDbArc
 50
320.5256619801569
 51
354.6214911322303
  0
LINE
  5
60FD4
330
1F
100
AcDbEntity
  8
freecads.com
100
AcDbLine
 10
159136.3964011043
 20
108653.8270163404
 30
0.0
 11
159170.3319376188
 21
108653.8270163404
 31
0.0
  0
ARC
  5
60FD5
330
1F
100
AcDbEntity
  8
freecads.com
100
AcDbCircle
 10
158383.2044162015
 20
108407.5818814917
 30
0.0
 40
25.0
100
AcDbArc
 50
153.434948822922
 51
270.0
  0
ARC
  5
60FD6
330
1F
100
AcDbEntity
  8
freecads.com
100
AcDbCircle
 10
158702.3027167643
 20
108407.5818814917
 30
0.0
 40
25.0
100
AcDbArc
 50
270.0
 51
26.56505117707799
  0
ARC
  5
60FD7
330
1F
100
AcDbEntity
  8
freecads.com
100
AcDbCircle
 10
158452.7535664829
 20
108392.5818814917
 30
0.0
 40
10.0
100
AcDbArc
 50
90.0
 51
180.0
  0
ARC
  5
60FD8
330
1F
100
AcDbEntity
  8
freecads.com
100
AcDbCircle
 10
158632.7535664829
 20
108392.5818814917
 30
0.0
 40
10.0
100
AcDbArc
 50
0.0
 51
90.0
  0
LINE
  5
60FD9
330
1F
100
AcDbEntity
  8
freecads.com
100
AcDbLine
 10
158452.7535664829
 20
108402.5818814916
 30
0.0
 11
158632.7535664829
 21
108402.5818814917
 31
0.0
  0
ARC
  5
60FDA
330
1F
100
AcDbEntity
  8
freecads.com
100
AcDbCircle
 10
158652.7535664829
 20
108392.5818814917
 30
0.0
 40
10.0
100
AcDbArc
 50
180.0
 51
270.0
  0
LINE
  5
60FDB
330
1F
100
AcDbEntity
  8
freecads.com
100
AcDbLine
 10
158642.7535664829
 20
108392.5818814917
 30
0.0
 11
158642.7535664829
 21
108392.5818814918
 31
0.0
  0
LINE
  5
60FDC
330
1F
100
AcDbEntity
  8
freecads.com
100
AcDbLine
 10
158652.7535664829
 20
108382.5818814917
 30
0.0
 11
158702.3027167643
 21
108382.5818814918
 31
0.0
  0
ARC
  5
60FDD
330
1F
100
AcDbEntity
  8
freecads.com
100
AcDbCircle
 10
158432.7535664829
 20
108392.5818814917
 30
0.0
 40
10.0
100
AcDbArc
 50
270.0
 51
0.0
  0
LINE
  5
60FDE
330
1F
100
AcDbEntity
  8
freecads.com
100
AcDbLine
 10
158383.2044162015
 20
108382.5818814917
 30
0.0
 11
158432.7535664829
 21
108382.5818814917
 31
0.0
  0
LINE
  5
60FDF
330
1F
100
AcDbEntity
  8
freecads.com
100
AcDbLine
 10
158442.7535664829
 20
108392.5818814917
 30
0.0
 11
158442.7535664829
 21
108392.5818814916
 31
0.0
  0
ARC
  5
60FE0
330
1F
100
AcDbEntity
  8
freecads.com
100
AcDbCircle
 10
158677.3027167641
 20
108457.5818814918
 30
0.0
 40
25.0
100
AcDbArc
 50
26.56505117707799
 51
90.0
  0
LINE
  5
60FE1
330
1F
100
AcDbEntity
  8
freecads.com
100
AcDbLine
 10
158699.663396539
 20
108468.7622213794
 30
0.0
 11
158724.6633965391
 21
108418.7622213792
 31
0.0
  0
ARC
  5
60FE2
330
1F
100
AcDbEntity
  8
freecads.com
100
AcDbCircle
 10
158408.2044162015
 20
108457.5818814918
 30
0.0
 40
25.0
100
AcDbArc
 50
90.0
 51
153.434948822922
  0
LINE
  5
60FE3
330
1F
100
AcDbEntity
  8
freecads.com
100
AcDbLine
 10
158385.8437364265
 20
108468.7622213793
 30
0.0
 11
158360.8437364265
 21
108418.7622213792
 31
0.0
  0
LINE
  5
60FE4
330
1F
100
AcDbEntity
  8
freecads.com
100
AcDbLine
 10
158408.2044162015
 20
108482.5818814917
 30
0.0
 11
158677.3027167641
 21
108482.5818814918
 31
0.0
  0
ENDSEC
  0
SECTION
  2
OBJECTS
  0
DICTIONARY
  5
C
330
0
100
AcDbDictionary
281
     1
  3
ACAD_ASSOCPERSSUBENTMANAGER
350
2C1D4
  3
ACAD_CIP_PREVIOUS_PRODUCT_INFO
350
1A5
  3
ACAD_COLOR
350
73
  3
ACAD_DETAILVIEWSTYLE
350
1AB
  3
ACAD_GROUP
350
D
  3
ACAD_LAYOUT
350
1A
  3
ACAD_MATERIAL
350
72
  3
ACAD_MLEADERSTYLE
350
D7
  3
ACAD_MLINESTYLE
350
17
  3
ACAD_PLOTSETTINGS
350
19
  3
ACAD_PLOTSTYLENAME
350
E
  3
ACAD_SCALELIST
350
B6
  3
ACAD_SECTIONVIEWSTYLE
350
1A8
  3
ACAD_TABLESTYLE
350
86
  3
ACAD_VISUALSTYLE
350
99
  3
ACAD_WIPEOUT_VARS
350
59B06
  3
ACDB_RECOMPOSE_DATA
350
67411
  3
ACDBVARIABLEDICTIONARY
350
4A0D5
  3
AEC_PROPERTY_SET_DEFS
350
22D1
  0
DICTIONARY
  5
18E
330
2
100
AcDbDictionary
280
     1
281
     1
  3
ACAD_LAYERSTATES
360
18F
  0
DICTIONARY
  5
E6
330
10
100
AcDbDictionary
280
     1
281
     1
  0
DICTIONARY
  5
15D
330
1F
100
AcDbDictionary
280
     1
281
     1
  3
ACAD_SORTENTS
360
28E
  0
ACDBASSOCPERSSUBENTMANAGER
  5
2C1D4
102
{ACAD_REACTORS
330
C
102
}
330
C
100
AcDbAssocPersSubentManager
 90
        2
 90
        3
 90
        0
 90
        2
 90
     1260
 90
        0
 90
     1260
 90
        1
 90
        2
 90
        3
 90
        4
 90
        5
 90
        6
 90
        7
 90
        8
 90
        9
 90
       10
 90
       11
 90
       12
 90
       13
 90
       14
 90
       15
 90
       16
 90
       17
 90
       18
 90
       19
 90
       20
 90
       21
 90
       22
 90
       23
 90
       24
 90
       25
 90
       26
 90
       27
 90
       28
 90
       29
 90
       30
 90
       31
 90
       32
 90
       33
 90
       34
 90
       35
 90
       36
 90
       37
 90
       38
 90
       39
 90
       40
 90
       41
 90
       42
 90
       43
 90
       44
 90
       45
 90
       46
 90
       47
 90
       48
 90
       49
 90
       50
 90
       51
 90
       52
 90
       53
 90
       54
 90
       55
 90
       56
 90
       57
 90
       58
 90
       59
 90
       60
 90
       61
 90
       62
 90
       63
 90
       64
 90
       65
 90
       66
 90
       67
 90
       68
 90
       69
 90
       70
 90
       71
 90
       72
 90
       73
 90
       74
 90
       75
 90
       76
 90
       77
 90
       78
 90
       79
 90
       80
 90
       81
 90
       82
 90
       83
 90
       84
 90
       85
 90
       86
 90
       87
 90
       88
 90
       89
 90
       90
 90
       91
 90
       92
 90
       93
 90
       94
 90
       95
 90
       96
 90
       97
 90
       98
 90
       99
 90
      100
 90
      101
 90
      102
 90
      103
 90
      104
 90
      105
 90
      106
 90
      107
 90
      108
 90
      109
 90
      110
 90
      111
 90
      112
 90
      113
 90
      114
 90
      115
 90
      116
 90
      117
 90
      118
 90
      119
 90
      120
 90
      121
 90
      122
 90
      123
 90
      124
 90
      125
 90
      126
 90
      127
 90
      128
 90
      129
 90
      130
 90
      131
 90
      132
 90
      133
 90
      134
 90
      135
 90
      136
 90
      137
 90
      138
 90
      139
 90
      140
 90
      141
 90
      142
 90
      143
 90
      144
 90
      145
 90
      146
 90
      147
 90
      148
 90
      149
 90
      150
 90
      151
 90
      152
 90
      153
 90
      154
 90
      155
 90
      156
 90
      157
 90
      158
 90
      159
 90
      160
 90
      161
 90
      162
 90
      163
 90
      164
 90
      165
 90
      166
 90
      167
 90
      168
 90
      169
 90
      170
 90
      171
 90
      172
 90
      173
 90
      174
 90
      175
 90
      176
 90
      177
 90
      178
 90
      179
 90
      180
 90
      181
 90
      182
 90
      183
 90
      184
 90
      185
 90
      186
 90
      187
 90
      188
 90
      189
 90
      190
 90
      191
 90
      192
 90
      193
 90
      194
 90
      195
 90
      196
 90
      197
 90
      198
 90
      199
 90
      200
 90
      201
 90
      202
 90
      203
 90
      204
 90
      205
 90
      206
 90
      207
 90
      208
 90
      209
 90
      210
 90
      211
 90
      212
 90
      213
 90
      214
 90
      215
 90
      216
 90
      217
 90
      218
 90
      219
 90
      220
 90
      221
 90
      222
 90
      223
 90
      224
 90
      225
 90
      226
 90
      227
 90
      228
 90
      229
 90
      230
 90
      231
 90
      232
 90
      233
 90
      234
 90
      235
 90
      236
 90
      237
 90
      238
 90
      239
 90
      240
 90
      241
 90
      242
 90
      243
 90
      244
 90
      245
 90
      246
 90
      247
 90
      248
 90
      249
 90
      250
 90
      251
 90
      252
 90
      253
 90
      254
 90
      255
 90
      256
 90
      257
 90
      258
 90
      259
 90
      260
 90
      261
 90
      262
 90
      263
 90
      264
 90
      265
 90
      266
 90
      267
 90
      268
 90
      269
 90
      270
 90
      271
 90
      272
 90
      273
 90
      274
 90
      275
 90
      276
 90
      277
 90
      278
 90
      279
 90
      280
 90
      281
 90
      282
 90
      283
 90
      284
 90
      285
 90
      286
 90
      287
 90
      288
 90
      289
 90
      290
 90
      291
 90
      292
 90
      293
 90
      294
 90
      295
 90
      296
 90
      297
 90
      298
 90
      299
 90
      300
 90
      301
 90
      302
 90
      303
 90
      304
 90
      305
 90
      306
 90
      307
 90
      308
 90
      309
 90
      310
 90
      311
 90
      312
 90
      313
 90
      314
 90
      315
 90
      316
 90
      317
 90
      318
 90
      319
 90
      320
 90
      321
 90
      322
 90
      323
 90
      324
 90
      325
 90
      326
 90
      327
 90
      328
 90
      329
 90
      330
 90
      331
 90
      332
 90
      333
 90
      334
 90
      335
 90
      336
 90
      337
 90
      338
 90
      339
 90
      340
 90
      341
 90
      342
 90
      343
 90
      344
 90
      345
 90
      346
 90
      347
 90
      348
 90
      349
 90
      350
 90
      351
 90
      352
 90
      353
 90
      354
 90
      355
 90
      356
 90
      357
 90
      358
 90
      359
 90
      360
 90
      361
 90
      362
 90
      363
 90
      364
 90
      365
 90
      366
 90
      367
 90
      368
 90
      369
 90
      370
 90
      371
 90
      372
 90
      373
 90
      374
 90
      375
 90
      376
 90
      377
 90
      378
 90
      379
 90
      380
 90
      381
 90
      382
 90
      383
 90
      384
 90
      385
 90
      386
 90
      387
 90
      388
 90
      389
 90
      390
 90
      391
 90
      392
 90
      393
 90
      394
 90
      395
 90
      396
 90
      397
 90
      398
 90
      399
 90
      400
 90
      401
 90
      402
 90
      403
 90
      404
 90
      405
 90
      406
 90
      407
 90
      408
 90
      409
 90
      410
 90
      411
 90
      412
 90
      413
 90
      414
 90
      415
 90
      416
 90
      417
 90
      418
 90
      419
 90
      420
 90
      421
 90
      422
 90
      423
 90
      424
 90
      425
 90
      426
 90
      427
 90
      428
 90
      429
 90
      430
 90
      431
 90
      432
 90
      433
 90
      434
 90
      435
 90
      436
 90
      437
 90
      438
 90
      439
 90
      440
 90
      441
 90
      442
 90
      443
 90
      444
 90
      445
 90
      446
 90
      447
 90
      448
 90
      449
 90
      450
 90
      451
 90
      452
 90
      453
 90
      454
 90
      455
 90
      456
 90
      457
 90
      458
 90
      459
 90
      460
 90
      461
 90
      462
 90
      463
 90
      464
 90
      465
 90
      466
 90
      467
 90
      468
 90
      469
 90
      470
 90
      471
 90
      472
 90
      473
 90
      474
 90
      475
 90
      476
 90
      477
 90
      478
 90
      479
 90
      480
 90
      481
 90
      482
 90
      483
 90
      484
 90
      485
 90
      486
 90
      487
 90
      488
 90
      489
 90
      490
 90
      491
 90
      492
 90
      493
 90
      494
 90
      495
 90
      496
 90
      497
 90
      498
 90
      499
 90
      500
 90
      501
 90
      502
 90
      503
 90
      504
 90
      505
 90
      506
 90
      507
 90
      508
 90
      509
 90
      510
 90
      511
 90
      512
 90
      513
 90
      514
 90
      515
 90
      516
 90
      517
 90
      518
 90
      519
 90
      520
 90
      521
 90
      522
 90
      523
 90
      524
 90
      525
 90
      526
 90
      527
 90
      528
 90
      529
 90
      530
 90
      531
 90
      532
 90
      533
 90
      534
 90
      535
 90
      536
 90
      537
 90
      538
 90
      539
 90
      540
 90
      541
 90
      542
 90
      543
 90
      544
 90
      545
 90
      546
 90
      547
 90
      548
 90
      549
 90
      550
 90
      551
 90
      552
 90
      553
 90
      554
 90
      555
 90
      556
 90
      557
 90
      558
 90
      559
 90
      560
 90
      561
 90
      562
 90
      563
 90
      564
 90
      565
 90
      566
 90
      567
 90
      568
 90
      569
 90
      570
 90
      571
 90
      572
 90
      573
 90
      574
 90
      575
 90
      576
 90
      577
 90
      578
 90
      579
 90
      580
 90
      581
 90
      582
 90
      583
 90
      584
 90
      585
 90
      586
 90
      587
 90
      588
 90
      589
 90
      590
 90
      591
 90
      592
 90
      593
 90
      594
 90
      595
 90
      596
 90
      597
 90
      598
 90
      599
 90
      600
 90
      601
 90
      602
 90
      603
 90
      604
 90
      605
 90
      606
 90
      607
 90
      608
 90
      609
 90
      610
 90
      611
 90
      612
 90
      613
 90
      614
 90
      615
 90
      616
 90
      617
 90
      618
 90
      619
 90
      620
 90
      621
 90
      622
 90
      623
 90
      624
 90
      625
 90
      626
 90
      627
 90
      628
 90
      629
 90
      630
 90
      631
 90
      632
 90
      633
 90
      634
 90
      635
 90
      636
 90
      637
 90
      638
 90
      639
 90
      640
 90
      641
 90
      642
 90
      643
 90
      644
 90
      645
 90
      646
 90
      647
 90
      648
 90
      649
 90
      650
 90
      651
 90
      652
 90
      653
 90
      654
 90
      655
 90
      656
 90
      657
 90
      658
 90
      659
 90
      660
 90
      661
 90
      662
 90
      663
 90
      664
 90
      665
 90
      666
 90
      667
 90
      668
 90
      669
 90
      670
 90
      671
 90
      672
 90
      673
 90
      674
 90
      675
 90
      676
 90
      677
 90
      678
 90
      679
 90
      680
 90
      681
 90
      682
 90
      683
 90
      684
 90
      685
 90
      686
 90
      687
 90
      688
 90
      689
 90
      690
 90
      691
 90
      692
 90
      693
 90
      694
 90
      695
 90
      696
 90
      697
 90
      698
 90
      699
 90
      700
 90
      701
 90
      702
 90
      703
 90
      704
 90
      705
 90
      706
 90
      707
 90
      708
 90
      709
 90
      710
 90
      711
 90
      712
 90
      713
 90
      714
 90
      715
 90
      716
 90
      717
 90
      718
 90
      719
 90
      720
 90
      721
 90
      722
 90
      723
 90
      724
 90
      725
 90
      726
 90
      727
 90
      728
 90
      729
 90
      730
 90
      731
 90
      732
 90
      733
 90
      734
 90
      735
 90
      736
 90
      737
 90
      738
 90
      739
 90
      740
 90
      741
 90
      742
 90
      743
 90
      744
 90
      745
 90
      746
 90
      747
 90
      748
 90
      749
 90
      750
 90
      751
 90
      752
 90
      753
 90
      754
 90
      755
 90
      756
 90
      757
 90
      758
 90
      759
 90
      760
 90
      761
 90
      762
 90
      763
 90
      764
 90
      765
 90
      766
 90
      767
 90
      768
 90
      769
 90
      770
 90
      771
 90
      772
 90
      773
 90
      774
 90
      775
 90
      776
 90
      777
 90
      778
 90
      779
 90
      780
 90
      781
 90
      782
 90
      783
 90
      784
 90
      785
 90
      786
 90
      787
 90
      788
 90
      789
 90
      790
 90
      791
 90
      792
 90
      793
 90
      794
 90
      795
 90
      796
 90
      797
 90
      798
 90
      799
 90
      800
 90
      801
 90
      802
 90
      803
 90
      804
 90
      805
 90
      806
 90
      807
 90
      808
 90
      809
 90
      810
 90
      811
 90
      812
 90
      813
 90
      814
 90
      815
 90
      816
 90
      817
 90
      818
 90
      819
 90
      820
 90
      821
 90
      822
 90
      823
 90
      824
 90
      825
 90
      826
 90
      827
 90
      828
 90
      829
 90
      830
 90
      831
 90
      832
 90
      833
 90
      834
 90
      835
 90
      836
 90
      837
 90
      838
 90
      839
 90
      840
 90
      841
 90
      842
 90
      843
 90
      844
 90
      845
 90
      846
 90
      847
 90
      848
 90
      849
 90
      850
 90
      851
 90
      852
 90
      853
 90
      854
 90
      855
 90
      856
 90
      857
 90
      858
 90
      859
 90
      860
 90
      861
 90
      862
 90
      863
 90
      864
 90
      865
 90
      866
 90
      867
 90
      868
 90
      869
 90
      870
 90
      871
 90
      872
 90
      873
 90
      874
 90
      875
 90
      876
 90
      877
 90
      878
 90
      879
 90
      880
 90
      881
 90
      882
 90
      883
 90
      884
 90
      885
 90
      886
 90
      887
 90
      888
 90
      889
 90
      890
 90
      891
 90
      892
 90
      893
 90
      894
 90
      895
 90
      896
 90
      897
 90
      898
 90
      899
 90
      900
 90
      901
 90
      902
 90
      903
 90
      904
 90
      905
 90
      906
 90
      907
 90
      908
 90
      909
 90
      910
 90
      911
 90
      912
 90
      913
 90
      914
 90
      915
 90
      916
 90
      917
 90
      918
 90
      919
 90
      920
 90
      921
 90
      922
 90
      923
 90
      924
 90
      925
 90
      926
 90
      927
 90
      928
 90
      929
 90
      930
 90
      931
 90
      932
 90
      933
 90
      934
 90
      935
 90
      936
 90
      937
 90
      938
 90
      939
 90
      940
 90
      941
 90
      942
 90
      943
 90
      944
 90
      945
 90
      946
 90
      947
 90
      948
 90
      949
 90
      950
 90
      951
 90
      952
 90
      953
 90
      954
 90
      955
 90
      956
 90
      957
 90
      958
 90
      959
 90
      960
 90
      961
 90
      962
 90
      963
 90
      964
 90
      965
 90
      966
 90
      967
 90
      968
 90
      969
 90
      970
 90
      971
 90
      972
 90
      973
 90
      974
 90
      975
 90
      976
 90
      977
 90
      978
 90
      979
 90
      980
 90
      981
 90
      982
 90
      983
 90
      984
 90
      985
 90
      986
 90
      987
 90
      988
 90
      989
 90
      990
 90
      991
 90
      992
 90
      993
 90
      994
 90
      995
 90
      996
 90
      997
 90
      998
 90
      999
 90
     1000
 90
     1001
 90
     1002
 90
     1003
 90
     1004
 90
     1005
 90
     1006
 90
     1007
 90
     1008
 90
     1009
 90
     1010
 90
     1011
 90
     1012
 90
     1013
 90
     1014
 90
     1015
 90
     1016
 90
     1017
 90
     1018
 90
     1019
 90
     1020
 90
     1021
 90
     1022
 90
     1023
 90
     1024
 90
     1025
 90
     1026
 90
     1027
 90
     1028
 90
     1029
 90
     1030
 90
     1031
 90
     1032
 90
     1033
 90
     1034
 90
     1035
 90
     1036
 90
     1037
 90
     1038
 90
     1039
 90
     1040
 90
     1041
 90
     1042
 90
     1043
 90
     1044
 90
     1045
 90
     1046
 90
     1047
 90
     1048
 90
     1049
 90
     1050
 90
     1051
 90
     1052
 90
     1053
 90
     1054
 90
     1055
 90
     1056
 90
     1057
 90
     1058
 90
     1059
 90
     1060
 90
     1061
 90
     1062
 90
     1063
 90
     1064
 90
     1065
 90
     1066
 90
     1067
 90
     1068
 90
     1069
 90
     1070
 90
     1071
 90
     1072
 90
     1073
 90
     1074
 90
     1075
 90
     1076
 90
     1077
 90
     1078
 90
     1079
 90
     1080
 90
     1081
 90
     1082
 90
     1083
 90
     1084
 90
     1085
 90
     1086
 90
     1087
 90
     1088
 90
     1089
 90
     1090
 90
     1091
 90
     1092
 90
     1093
 90
     1094
 90
     1095
 90
     1096
 90
     1097
 90
     1098
 90
     1099
 90
     1100
 90
     1101
 90
     1102
 90
     1103
 90
     1104
 90
     1105
 90
     1106
 90
     1107
 90
     1108
 90
     1109
 90
     1110
 90
     1111
 90
     1112
 90
     1113
 90
     1114
 90
     1115
 90
     1116
 90
     1117
 90
     1118
 90
     1119
 90
     1120
 90
     1121
 90
     1122
 90
     1123
 90
     1124
 90
     1125
 90
     1126
 90
     1127
 90
     1128
 90
     1129
 90
     1130
 90
     1131
 90
     1132
 90
     1133
 90
     1134
 90
     1135
 90
     1136
 90
     1137
 90
     1138
 90
     1139
 90
     1140
 90
     1141
 90
     1142
 90
     1143
 90
     1144
 90
     1145
 90
     1146
 90
     1147
 90
     1148
 90
     1149
 90
     1150
 90
     1151
 90
     1152
 90
     1153
 90
     1154
 90
     1155
 90
     1156
 90
     1157
 90
     1158
 90
     1159
 90
     1160
 90
     1161
 90
     1162
 90
     1163
 90
     1164
 90
     1165
 90
     1166
 90
     1167
 90
     1168
 90
     1169
 90
     1170
 90
     1171
 90
     1172
 90
     1173
 90
     1174
 90
     1175
 90
     1176
 90
     1177
 90
     1178
 90
     1179
 90
     1180
 90
     1181
 90
     1182
 90
     1183
 90
     1184
 90
     1185
 90
     1186
 90
     1187
 90
     1188
 90
     1189
 90
     1190
 90
     1191
 90
     1192
 90
     1193
 90
     1194
 90
     1195
 90
     1196
 90
     1197
 90
     1198
 90
     1199
 90
     1200
 90
     1201
 90
     1202
 90
     1203
 90
     1204
 90
     1205
 90
     1206
 90
     1207
 90
     1208
 90
     1209
 90
     1210
 90
     1211
 90
     1212
 90
     1213
 90
     1214
 90
     1215
 90
     1216
 90
     1217
 90
     1218
 90
     1219
 90
     1220
 90
     1221
 90
     1222
 90
     1223
 90
     1224
 90
     1225
 90
     1226
 90
     1227
 90
     1228
 90
     1229
 90
     1230
 90
     1231
 90
     1232
 90
     1233
 90
     1234
 90
     1235
 90
     1236
 90
     1237
 90
     1238
 90
     1239
 90
     1240
 90
     1241
 90
     1242
 90
     1243
 90
     1244
 90
     1245
 90
     1246
 90
     1247
 90
     1248
 90
     1249
 90
     1250
 90
     1251
 90
     1252
 90
     1253
 90
     1254
 90
     1255
 90
     1256
 90
     1257
 90
     1258
 90
     1259
 90
     1260
 90
        0
 90
        0
290
     0
  0
XRECORD
  5
1A5
102
{ACAD_REACTORS
330
C
102
}
330
C
100
AcDbXrecord
280
     1
300
ACD
300
2022
300

  0
DICTIONARY
  5
73
102
{ACAD_REACTORS
330
C
102
}
330
C
100
AcDbDictionary
281
     1
  0
DICTIONARY
  5
1AB
102
{ACAD_REACTORS
330
C
102
}
330
C
100
AcDbDictionary
281
     1
  3
Imperial24
350
1AC
  3
Metric50
350
224
  0
DICTIONARY
  5
D
102
{ACAD_REACTORS
330
C
102
}
330
C
100
AcDbDictionary
281
     1
  0
DICTIONARY
  5
1A
102
{ACAD_REACTORS
330
C
102
}
330
C
100
AcDbDictionary
281
     1
  3
Layout1
350
59
  3
Layout2
350
5E
  3
Model
350
22
  0
DICTIONARY
  5
72
102
{ACAD_REACTORS
330
C
102
}
330
C
100
AcDbDictionary
281
     1
  3
ByBlock
350
97
  3
ByLayer
350
96
  3
Global
350
98
  0
DICTIONARY
  5
D7
102
{ACAD_REACTORS
330
C
102
}
330
C
100
AcDbDictionary
281
     1
  3
Standard
350
D8
  0
DICTIONARY
  5
17
102
{ACAD_REACTORS
330
C
102
}
330
C
100
AcDbDictionary
281
     1
  3
Standard
350
18
  0
DICTIONARY
  5
19
102
{ACAD_REACTORS
330
C
102
}
330
C
100
AcDbDictionary
281
     1
  0
ACDBDICTIONARYWDFLT
  5
E
102
{ACAD_REACTORS
330
C
102
}
330
C
100
AcDbDictionary
281
     1
  3
Normal
350
F
100
AcDbDictionaryWithDefault
340
F
  0
DICTIONARY
  5
B6
102
{ACAD_REACTORS
330
C
102
}
330
C
100
AcDbDictionary
281
     1
  3
*A1
350
2283
  3
A0
350
B7
  3
A1
350
124
  3
A2
350
125
  3
A3
350
126
  3
A4
350
127
  3
A5
350
128
  3
A6
350
129
  3
A7
350
12A
  3
A8
350
12B
  3
A9
350
12C
  3
B0
350
12D
  3
B1
350
12E
  3
B2
350
12F
  3
B3
350
130
  3
B4
350
131
  3
B5
350
132
  3
B6
350
133
  3
B7
350
134
  3
B8
350
135
  3
B9
350
136
  3
C0
350
137
  3
C1
350
138
  3
C2
350
139
  3
C3
350
13A
  3
C4
350
13B
  3
C5
350
13C
  3
C6
350
13D
  3
C7
350
13E
  3
C8
350
13F
  3
C9
350
140
  3
D0
350
141
  3
D1
350
142
  3
D2
350
143
  0
DICTIONARY
  5
1A8
102
{ACAD_REACTORS
330
C
102
}
330
C
100
AcDbDictionary
281
     1
  3
Imperial24
350
1AA
  3
Metric50
350
223
  0
DICTIONARY
  5
86
102
{ACAD_REACTORS
330
C
102
}
330
C
100
AcDbDictionary
281
     1
  3
Standard
350
87
  0
DICTIONARY
  5
99
102
{ACAD_REACTORS
330
C
102
}
330
C
100
AcDbDictionary
281
     1
  3
2dWireframe
350
9F
  3
3dWireframe
350
22946
  3
Basic
350
9E
  3
Brighten
350
A5
  3
ColorChange
350
A9
  3
Conceptual
350
A2
  3
Dim
350
A4
  3
EdgeColorOff
350
175
  3
Facepattern
350
A8
  3
Flat
350
9A
  3
FlatWithEdges
350
9B
  3
Gouraud
350
9C
  3
GouraudWithEdges
350
9D
  3
Hidden
350
A1
  3
JitterOff
350
173
  3
Linepattern
350
A7
  3
OverhangOff
350
174
  3
Realistic
350
A3
  3
Shaded
350
182
  3
Shaded with edges
350
181
  3
Shades of Gray
350
17E
  3
Sketchy
350
17F
  3
Thicken
350
A6
  3
Wireframe
350
A0
  3
X-Ray
350
180
  0
WIPEOUTVARIABLES
  5
59B06
102
{ACAD_REACTORS
330
C
102
}
330
C
100
AcDbWipeoutVariables
 70
     1
  0
XRECORD
  5
67411
102
{ACAD_REACTORS
330
C
102
}
330
C
100
AcDbXrecord
280
     1
 90
        1
330
87
  0
DICTIONARY
  5
4A0D5
102
{ACAD_REACTORS
330
C
102
}
330
C
100
AcDbDictionary
281
     2
  3
#COMPAREDIFFTOTAL
350
4A0D6
  3
#REVCLOUDAPPROXARCLEN
350
4A0D7
  3
ANNOALLVISIBLE
350
4A0D8
  3
CANNOSCALE
350
4A0D9
  3
CMLEADERSTYLE
350
4A0DA
  3
CTABLESTYLE
350
4A0DB
  3
CVIEWDETAILSTYLE
350
4A0DC
  3
CVIEWSECTIONSTYLE
350
4A0DD
  3
DIMADEC
350
4A0DE
  3
DIMASSOC
350
4A0DF
  3
DWFFRAME
350
4A0E0
  3
HIDETEXT
350
4A0E1
  3
HPCOLOR
350
4A0E2
  3
HPLAYER
350
4A0E3
  3
HPTRANSPARENCY
350
4A0E4
  3
INDEXCTL
350
4A0E5
  3
LAYEREVAL
350
4A0E6
  3
LAYERNOTIFY
350
4A0E7
  3
LIGHTINGUNITS
350
4A0E8
  3
MLEADERSCALE
350
4A0E9
  3
MSLTSCALE
350
4A0EA
  3
MSOLESCALE
350
4A0EB
  3
PDFFRAME
350
4A0EC
  3
POINTCLOUDCLIPFRAME
350
4A0ED
  3
PROJECTNAME
350
4A0EE
  3
SOLIDHIST
350
4A0EF
  3
SORTENTS
350
4A0F0
  0
DICTIONARY
  5
22D1
102
{ACAD_REACTORS
330
C
102
}
330
C
100
AcDbDictionary
281
     1
  0
DICTIONARY
  5
18F
102
{ACAD_REACTORS
330
18E
102
}
330
18E
100
AcDbDictionary
281
     1
  0
SORTENTSTABLE
  5
28E
102
{ACAD_REACTORS
330
15D
102
}
330
15D
100
AcDbSortentsTable
330
1F
  0
ACDBDETAILVIEWSTYLE
  5
1AC
102
{ACAD_REACTORS
330
1AB
102
}
330
1AB
100
AcDbModelDocViewStyle
 70
     0
  3
Imperial24
290
     0
300
Imperial24
 90
        0
100
AcDbDetailViewStyle
 70
     0
 71
     0
 90
        3
 71
     1
340
11
 62
   256
 40
0.24
340
0
 62
   256
 40
0.24
300

 40
0.36
280
     3
 71
     2
340
16
 90
       25
 62
   256
 71
     3
340
11
 62
   256
 40
0.24
 90
        1
 40
0.75
 90
        1
300
%<\AcVar ViewType \f "%tc1">% %<\AcVar ViewDetailId>%\PSCALE %<\AcVar ViewScale \f "%sn">%
 71
     4
340
16
 90
       25
 62
   256
340
16
 90
       25
 62
   256
280
     0
  0
ACDBDETAILVIEWSTYLE
  5
224
102
{ACAD_REACTORS
330
1AB
102
}
330
1AB
100
AcDbModelDocViewStyle
 70
     0
  3
Metric50
290
     0
300
Metric50
 90
        0
100
AcDbDetailViewStyle
 70
     0
 71
     0
 90
        3
 71
     1
340
11
 62
   256
 40
5.0
340
0
 62
   256
 40
5.0
300

 40
0.0
280
     1
 71
     2
340
16
 90
       25
 62
   256
 71
     3
340
11
 62
   256
 40
5.0
 90
        0
 40
15.0
 90
        1
300
%<\AcVar ViewDetailId>% (%<\AcVar ViewScale \f "%sn">%)
 71
     4
340
16
 90
       25
 62
   256
340
16
 90
       25
 62
   256
280
     0
  0
LAYOUT
  5
59
102
{ACAD_REACTORS
330
1A
102
}
330
1A
100
AcDbPlotSettings
  1

  2
None
  4

  6

 40
0.0
 41
0.0
 42
0.0
 43
0.0
 44
0.0
 45
0.0
 46
0.0
 47
0.0
 48
0.0
 49
0.0
140
0.0
141
0.0
142
1.0
143
1.0
 70
   688
 72
     0
 73
     0
 74
     5
  7

 75
    16
147
1.0
 76
     0
 77
     2
 78
   300
148
0.0
149
0.0
100
AcDbLayout
  1
Layout1
 70
     1
 71
     1
 10
0.0
 20
0.0
 11
12.0
 21
9.0
 12
0.0
 22
0.0
 32
0.0
 14
0.0
 24
0.0
 34
0.0
 15
0.0
 25
0.0
 35
0.0
146
0.0
 13
0.0
 23
0.0
 33
0.0
 16
1.0
 26
0.0
 36
0.0
 17
0.0
 27
1.0
 37
0.0
 76
     0
330
58
  0
LAYOUT
  5
5E
102
{ACAD_REACTORS
330
1A
102
}
330
1A
100
AcDbPlotSettings
  1

  2
None
  4

  6

 40
0.0
 41
0.0
 42
0.0
 43
0.0
 44
0.0
 45
0.0
 46
0.0
 47
0.0
 48
0.0
 49
0.0
140
0.0
141
0.0
142
1.0
143
1.0
 70
   688
 72
     0
 73
     0
 74
     5
  7

 75
    16
147
1.0
 76
     0
 77
     2
 78
   300
148
0.0
149
0.0
100
AcDbLayout
  1
Layout2
 70
     1
 71
     2
 10
0.0
 20
0.0
 11
12.0
 21
9.0
 12
0.0
 22
0.0
 32
0.0
 14
0.0
 24
0.0
 34
0.0
 15
0.0
 25
0.0
 35
0.0
146
0.0
 13
0.0
 23
0.0
 33
0.0
 16
1.0
 26
0.0
 36
0.0
 17
0.0
 27
1.0
 37
0.0
 76
     0
330
5D
  0
LAYOUT
  5
22
102
{ACAD_XDICTIONARY
360
194
102
}
102
{ACAD_REACTORS
330
1A
102
}
330
1A
100
AcDbPlotSettings
  1

  2
none_device
  4
ANSI_A_(8.50_x_11.00_Inches)
  6

 40
6.349999904632568
 41
19.04999923706055
 42
6.350006103515625
 43
19.04998779296875
 44
215.8999938964844
 45
279.3999938964844
 46
0.0
 47
0.0
 48
0.0
 49
0.0
140
0.0
141
0.0
142
1.0
143
2.584895464708373
 70
 11952
 72
     0
 73
     1
 74
     0
  7

 75
     0
147
0.3868628397755418
 76
     0
 77
     2
 78
   300
148
0.0
149
0.0
100
AcDbLayout
  1
Model
 70
     1
 71
     0
 10
0.0
 20
0.0
 11
12.0
 21
9.0
 12
0.0
 22
0.0
 32
0.0
 14
0.0
 24
0.0
 34
0.0
 15
0.0
 25
0.0
 35
0.0
146
0.0
 13
0.0
 23
0.0
 33
0.0
 16
1.0
 26
0.0
 36
0.0
 17
0.0
 27
1.0
 37
0.0
 76
     0
330
1F
331
94
  0
MATERIAL
  5
97
102
{ACAD_XDICTIONARY
360
188
102
}
102
{ACAD_REACTORS
330
72
102
}
330
72
100
AcDbMaterial
  1
ByBlock
 94
       63
  0
MATERIAL
  5
96
102
{ACAD_XDICTIONARY
360
186
102
}
102
{ACAD_REACTORS
330
72
102
}
330
72
100
AcDbMaterial
  1
ByLayer
 94
       63
  0
MATERIAL
  5
98
102
{ACAD_XDICTIONARY
360
110
102
}
102
{ACAD_REACTORS
330
72
102
}
330
72
100
AcDbMaterial
  1
Global
 43
0.0208000000566244
 43
0.0
 43
0.0
 43
0.0
 43
0.0
 43
0.0208000000566244
 43
0.0
 43
0.0
 43
0.0
 43
0.0
 43
1.0
 43
0.0
 43
0.0
 43
0.0
 43
0.0
 43
1.0
 49
0.0208000000566244
 49
0.0
 49
0.0
 49
0.0
 49
0.0
 49
0.0208000000566244
 49
0.0
 49
0.0
 49
0.0
 49
0.0
 49
1.0
 49
0.0
 49
0.0
 49
0.0
 49
0.0
 49
1.0
142
0.0208000000566244
142
0.0
142
0.0
142
0.0
142
0.0
142
0.0208000000566244
142
0.0
142
0.0
142
0.0
142
0.0
142
1.0
142
0.0
142
0.0
142
0.0
142
0.0
142
1.0
144
0.0208000000566244
144
0.0
144
0.0
144
0.0
144
0.0
144
0.0208000000566244
144
0.0
144
0.0
144
0.0
144
0.0
144
1.0
144
0.0
144
0.0
144
0.0
144
0.0
144
1.0
 94
       63
1001
ACAD
1070
    -1
1070
     3
1070
     0
1000

1071
        0
1070
     0
  0
MLEADERSTYLE
  5
D8
102
{ACAD_REACTORS
330
D7
102
}
330
D7
100
AcDbMLeaderStyle
179
     2
170
     2
171
     1
172
     0
 90
        2
 40
0.0
 41
0.0
173
     1
 91
-1056964608
340
14
 92
       -2
290
     1
 42
0.09
291
     1
 43
0.36
  3
Standard
 44
0.18
300

342
11
174
     1
178
     1
175
     1
176
     0
 93
-1056964608
 45
0.18
292
     0
297
     0
 46
0.18
 94
-1056964608
 47
1.0
 49
1.0
140
1.0
293
     1
141
0.0
294
     1
177
     0
142
1.0
295
     0
296
     0
143
0.125
271
     0
272
     9
273
     9
298
     0
  0
MLINESTYLE
  5
18
102
{ACAD_REACTORS
330
17
102
}
330
17
100
AcDbMlineStyle
  2
STANDARD
 70
     0
  3

 62
   256
 51
90.0
 52
90.0
 71
     2
 49
0.5
 62
   256
  6
BYLAYER
 49
-0.5
 62
   256
  6
BYLAYER
  0
ACDBPLACEHOLDER
  5
F
102
{ACAD_REACTORS
330
E
102
}
330
E
  0
SCALE
  5
2283
102
{ACAD_REACTORS
330
B6
102
}
330
B6
100
AcDbScale
 70
     0
300
1:75
140
1.0
141
75.0
290
     0
  0
SCALE
  5
B7
102
{ACAD_REACTORS
330
B6
102
}
330
B6
100
AcDbScale
 70
     0
300
1:1
140
1.0
141
1.0
290
     1
  0
SCALE
  5
124
102
{ACAD_REACTORS
330
B6
102
}
330
B6
100
AcDbScale
 70
     0
300
1:2
140
1.0
141
2.0
290
     0
  0
SCALE
  5
125
102
{ACAD_REACTORS
330
B6
102
}
330
B6
100
AcDbScale
 70
     0
300
1:4
140
1.0
141
4.0
290
     0
  0
SCALE
  5
126
102
{ACAD_REACTORS
330
B6
102
}
330
B6
100
AcDbScale
 70
     0
300
1:5
140
1.0
141
5.0
290
     0
  0
SCALE
  5
127
102
{ACAD_REACTORS
330
B6
102
}
330
B6
100
AcDbScale
 70
     0
300
1:8
140
1.0
141
8.0
290
     0
  0
SCALE
  5
128
102
{ACAD_REACTORS
330
B6
102
}
330
B6
100
AcDbScale
 70
     0
300
1:10
140
1.0
141
10.0
290
     0
  0
SCALE
  5
129
102
{ACAD_REACTORS
330
B6
102
}
330
B6
100
AcDbScale
 70
     0
300
1:16
140
1.0
141
16.0
290
     0
  0
SCALE
  5
12A
102
{ACAD_REACTORS
330
B6
102
}
330
B6
100
AcDbScale
 70
     0
300
1:20
140
1.0
141
20.0
290
     0
  0
SCALE
  5
12B
102
{ACAD_REACTORS
330
B6
102
}
330
B6
100
AcDbScale
 70
     0
300
1:30
140
1.0
141
30.0
290
     0
  0
SCALE
  5
12C
102
{ACAD_REACTORS
330
B6
102
}
330
B6
100
AcDbScale
 70
     0
300
1:40
140
1.0
141
40.0
290
     0
  0
SCALE
  5
12D
102
{ACAD_REACTORS
330
B6
102
}
330
B6
100
AcDbScale
 70
     0
300
1:50
140
1.0
141
50.0
290
     0
  0
SCALE
  5
12E
102
{ACAD_REACTORS
330
B6
102
}
330
B6
100
AcDbScale
 70
     0
300
1:100
140
1.0
141
100.0
290
     0
  0
SCALE
  5
12F
102
{ACAD_REACTORS
330
B6
102
}
330
B6
100
AcDbScale
 70
     0
300
2:1
140
2.0
141
1.0
290
     0
  0
SCALE
  5
130
102
{ACAD_REACTORS
330
B6
102
}
330
B6
100
AcDbScale
 70
     0
300
4:1
140
4.0
141
1.0
290
     0
  0
SCALE
  5
131
102
{ACAD_REACTORS
330
B6
102
}
330
B6
100
AcDbScale
 70
     0
300
8:1
140
8.0
141
1.0
290
     0
  0
SCALE
  5
132
102
{ACAD_REACTORS
330
B6
102
}
330
B6
100
AcDbScale
 70
     0
300
10:1
140
10.0
141
1.0
290
     0
  0
SCALE
  5
133
102
{ACAD_REACTORS
330
B6
102
}
330
B6
100
AcDbScale
 70
     0
300
100:1
140
100.0
141
1.0
290
     0
  0
SCALE
  5
134
102
{ACAD_REACTORS
330
B6
102
}
330
B6
100
AcDbScale
 70
     0
300
1/128" = 1'-0"
140
0.0078125
141
12.0
290
     0
  0
SCALE
  5
135
102
{ACAD_REACTORS
330
B6
102
}
330
B6
100
AcDbScale
 70
     0
300
1/64" = 1'-0"
140
0.015625
141
12.0
290
     0
  0
SCALE
  5
136
102
{ACAD_REACTORS
330
B6
102
}
330
B6
100
AcDbScale
 70
     0
300
1/32" = 1'-0"
140
0.03125
141
12.0
290
     0
  0
SCALE
  5
137
102
{ACAD_REACTORS
330
B6
102
}
330
B6
100
AcDbScale
 70
     0
300
1/16" = 1'-0"
140
0.0625
141
12.0
290
     0
  0
SCALE
  5
138
102
{ACAD_REACTORS
330
B6
102
}
330
B6
100
AcDbScale
 70
     0
300
3/32" = 1'-0"
140
0.09375
141
12.0
290
     0
  0
SCALE
  5
139
102
{ACAD_REACTORS
330
B6
102
}
330
B6
100
AcDbScale
 70
     0
300
1/8" = 1'-0"
140
0.125
141
12.0
290
     0
  0
SCALE
  5
13A
102
{ACAD_REACTORS
330
B6
102
}
330
B6
100
AcDbScale
 70
     0
300
3/16" = 1'-0"
140
0.1875
141
12.0
290
     0
  0
SCALE
  5
13B
102
{ACAD_REACTORS
330
B6
102
}
330
B6
100
AcDbScale
 70
     0
300
1/4" = 1'-0"
140
0.25
141
12.0
290
     0
  0
SCALE
  5
13C
102
{ACAD_REACTORS
330
B6
102
}
330
B6
100
AcDbScale
 70
     0
300
3/8" = 1'-0"
140
0.375
141
12.0
290
     0
  0
SCALE
  5
13D
102
{ACAD_REACTORS
330
B6
102
}
330
B6
100
AcDbScale
 70
     0
300
1/2" = 1'-0"
140
0.5
141
12.0
290
     0
  0
SCALE
  5
13E
102
{ACAD_REACTORS
330
B6
102
}
330
B6
100
AcDbScale
 70
     0
300
3/4" = 1'-0"
140
0.75
141
12.0
290
     0
  0
SCALE
  5
13F
102
{ACAD_REACTORS
330
B6
102
}
330
B6
100
AcDbScale
 70
     0
300
1" = 1'-0"
140
1.0
141
12.0
290
     0
  0
SCALE
  5
140
102
{ACAD_REACTORS
330
B6
102
}
330
B6
100
AcDbScale
 70
     0
300
1-1/2" = 1'-0"
140
1.5
141
12.0
290
     0
  0
SCALE
  5
141
102
{ACAD_REACTORS
330
B6
102
}
330
B6
100
AcDbScale
 70
     0
300
3" = 1'-0"
140
3.0
141
12.0
290
     0
  0
SCALE
  5
142
102
{ACAD_REACTORS
330
B6
102
}
330
B6
100
AcDbScale
 70
     0
300
6" = 1'-0"
140
6.0
141
12.0
290
     0
  0
SCALE
  5
143
102
{ACAD_REACTORS
330
B6
102
}
330
B6
100
AcDbScale
 70
     0
300
1'-0" = 1'-0"
140
12.0
141
12.0
290
     0
  0
ACDBSECTIONVIEWSTYLE
  5
1AA
102
{ACAD_REACTORS
330
1A8
102
}
330
1A8
100
AcDbModelDocViewStyle
 70
     0
  3
Imperial24
290
     0
300
Imperial24
 90
        0
100
AcDbSectionViewStyle
 70
     0
 71
     0
 90
       78
 71
     1
340
11
 62
   256
 40
0.24
340
0
340
0
 62
   256
 40
0.24
300
I, O, Q, S, X, Z
 40
0.48
 90
        3
 40
0.18
 90
        1
 71
     2
340
16
 90
       25
 62
   256
340
16
 90
       50
 62
   256
 40
0.24
 40
0.0
 40
0.24
 71
     3
340
11
 62
   256
 40
0.24
 90
        1
 40
0.75
 90
        1
300
%<\AcVar ViewType \f "%tc1">% %<\AcVar ViewSectionStartId>%-%<\AcVar ViewSectionEndId>%\PSCALE %<\AcVar ViewScale \f "%sn">%
 71
     4
 62
   256
 62
   257
300
ANSI31
 40
1.0
 90
        0
290
     0
290
     0
 90
        6
 40
0.0
 40
1.570796326794896
 40
0.2617993877991494
 40
1.308996938995747
 40
-0.2617993877991494
 40
1.832595714594046
  0
ACDBSECTIONVIEWSTYLE
  5
223
102
{ACAD_REACTORS
330
1A8
102
}
330
1A8
100
AcDbModelDocViewStyle
 70
     0
  3
Metric50
290
     0
300
Metric50
 90
        0
100
AcDbSectionViewStyle
 70
     0
 71
     0
 90
      102
 71
     1
340
11
 62
   256
 40
5.0
340
0
340
0
 62
   256
 40
5.0
300
I, O, Q, S, X, Z
 40
10.0
 90
        0
 40
2.5
 90
        0
 71
     2
340
16
 90
       25
 62
   256
340
16
 90
       50
 62
   256
 40
5.0
 40
2.5
 40
5.0
 71
     3
340
11
 62
   256
 40
5.0
 90
        0
 40
15.0
 90
        1
300
%<\AcVar ViewSectionStartId>%-%<\AcVar ViewSectionEndId>% (%<\AcVar ViewScale \f "%sn">%)
 71
     4
 62
   256
 62
   257
300
ANSI31
 40
1.0
 90
        0
290
     0
290
     0
 90
        6
 40
0.0
 40
1.570796326794896
 40
0.2617993877991494
 40
1.308996938995747
 40
-0.2617993877991494
 40
1.832595714594046
  0
TABLESTYLE
  5
87
102
{ACAD_XDICTIONARY
360
104
102
}
102
{ACAD_REACTORS
330
86
102
}
330
86
100
AcDbTableStyle
280
     0
  3
Standard
 70
     0
 71
     0
 40
0.06
 41
0.06
280
     0
281
     0
  7
Standard
140
0.18
170
     2
 62
     0
 63
     7
283
     0
 90
      512
 91
        0
  1

274
    -2
284
     1
 64
     0
275
    -2
285
     1
 65
     0
276
    -2
286
     1
 66
     0
277
    -2
287
     1
 67
     0
278
    -2
288
     1
 68
     0
279
    -2
289
     1
 69
     0
  7
Standard
140
0.25
170
     5
 62
     0
 63
     7
283
     0
 90
      512
 91
        0
  1

274
    -2
284
     1
 64
     0
275
    -2
285
     1
 65
     0
276
    -2
286
     1
 66
     0
277
    -2
287
     1
 67
     0
278
    -2
288
     1
 68
     0
279
    -2
289
     1
 69
     0
  7
Standard
140
0.18
170
     5
 62
     0
 63
     7
283
     0
 90
      512
 91
        0
  1

274
    -2
284
     1
 64
     0
275
    -2
285
     1
 65
     0
276
    -2
286
     1
 66
     0
277
    -2
287
     1
 67
     0
278
    -2
288
     1
 68
     0
279
    -2
289
     1
 69
     0
  0
VISUALSTYLE
  5
9F
102
{ACAD_REACTORS
330
99
102
}
330
99
100
AcDbVisualStyle
  2
2dWireframe
 70
     4
177
     3
291
     0
 70
    58
 90
        0
176
     1
 90
        2
176
     1
 90
        1
176
     1
 90
        0
176
     1
 40
0.6
176
     1
 40
30.0
176
     1
 62
     7
420
 16777215
176
     1
 90
        1
176
     1
 90
        4
176
     1
 62
     7
176
     1
 62
   257
176
     1
 90
        1
176
     1
 90
        1
176
     1
 40
1.0
176
     1
 90
        0
176
     1
 62
   257
176
     1
 40
1.0
176
     1
 90
        1
176
     1
 90
        6
176
     1
 90
        2
176
     1
 62
     7
176
     1
 90
        5
176
     1
 90
        0
176
     1
 90
        0
176
     1
290
     0
176
     1
 90
        1
176
     1
 40
0.0
176
     1
 90
        0
176
     1
290
     1
176
     1
290
     1
176
     1
290
     0
176
     1
290
     0
176
     1
290
     0
176
     1
290
     0
176
     1
290
     0
176
     1
290
     0
176
     1
290
     0
176
     1
 90
       50
176
     1
 40
0.0
176
     1
 40
1.0
176
     1
 90
        0
176
     1
 62
    18
420
        0
176
     1
 90
       50
176
     1
 90
        3
176
     1
 62
     5
420
      255
176
     1
290
     0
176
     1
 90
       50
176
     1
 90
       50
176
     1
 90
       50
176
     1
290
     0
176
     1
 90
       50
176
     1
 62
   256
176
     0
 40
1.0
176
     0
 90
        2
176
     1
  1
strokes_ogs.tif
176
     1
290
     0
176
     1
 40
1.0
176
     1
 40
1.0
176
     1
  0
VISUALSTYLE
  5
22946
102
{ACAD_REACTORS
330
99
102
}
330
99
100
AcDbVisualStyle
  2
3dWireframe
 70
     5
177
     3
291
     0
 70
    58
 90
        0
176
     1
 90
        2
176
     1
 90
        0
176
     1
 90
        0
176
     1
 40
0.6
176
     1
 40
30.0
176
     1
 62
     7
176
     1
 90
        1
176
     1
 90
        4
176
     1
 62
     7
176
     1
 62
   257
176
     1
 90
        1
176
     1
 90
        1
176
     1
 40
1.0
176
     1
 90
        0
176
     1
 62
   257
176
     1
 40
1.0
176
     1
 90
        1
176
     1
 90
        6
176
     1
 90
        2
176
     1
 62
     7
176
     1
 90
        5
176
     1
 90
        0
176
     1
 90
        0
176
     1
290
     0
176
     1
 90
        1
176
     1
 40
0.0
176
     1
 90
        0
176
     1
290
     0
176
     1
290
     1
176
     1
290
     1
176
     1
290
     0
176
     1
290
     0
176
     1
290
     0
176
     1
290
     0
176
     1
290
     0
176
     1
290
     0
176
     1
 90
       50
176
     1
 40
0.0
176
     1
 40
1.0
176
     1
 90
        0
176
     1
 62
    18
420
        0
176
     1
 90
       50
176
     1
 90
        3
176
     1
 62
     5
420
      255
176
     1
290
     0
176
     1
 90
       50
176
     1
 90
       50
176
     1
 90
       50
176
     1
290
     0
176
     1
 90
       50
176
     1
 62
   256
176
     0
 40
1.0
176
     0
 90
        2
176
     1
  1
strokes_ogs.tif
176
     1
290
     0
176
     1
 40
1.0
176
     1
 40
1.0
176
     1
  0
VISUALSTYLE
  5
9E
102
{ACAD_REACTORS
330
99
102
}
330
99
100
AcDbVisualStyle
  2
Basic
 70
     7
177
     3
291
     1
 70
    58
 90
        1
176
     1
 90
        0
176
     1
 90
        1
176
     1
 90
        0
176
     1
 40
0.6
176
     1
 40
30.0
176
     1
 62
     7
420
 16777215
176
     1
 90
        0
176
     1
 90
        4
176
     1
 62
     7
176
     1
 62
   257
176
     1
 90
        1
176
     1
 90
        1
176
     1
 40
1.0
176
     1
 90
        8
176
     1
 62
     7
176
     1
 40
1.0
176
     1
 90
        1
176
     1
 90
        6
176
     1
 90
        2
176
     1
 62
     7
176
     1
 90
        5
176
     1
 90
        0
176
     1
 90
        0
176
     1
290
     0
176
     1
 90
        1
176
     1
 40
0.0
176
     1
 90
        0
176
     1
290
     0
176
     1
290
     1
176
     1
290
     1
176
     1
290
     0
176
     1
290
     0
176
     1
290
     0
176
     1
290
     0
176
     1
290
     0
176
     1
290
     0
176
     1
 90
       50
176
     1
 40
0.0
176
     1
 40
1.0
176
     1
 90
        0
176
     1
 62
    18
420
        0
176
     1
 90
       50
176
     1
 90
        3
176
     1
 62
     5
420
      255
176
     1
290
     0
176
     1
 90
       50
176
     1
 90
       50
176
     1
 90
       50
176
     1
290
     0
176
     1
 90
       50
176
     1
 62
   256
176
     0
 40
1.0
176
     0
 90
        2
176
     1
  1
strokes_ogs.tif
176
     1
290
     0
176
     1
 40
1.0
176
     1
 40
1.0
176
     1
  0
VISUALSTYLE
  5
A5
102
{ACAD_REACTORS
330
99
102
}
330
99
100
AcDbVisualStyle
  2
Brighten
 70
    12
177
     3
291
     1
 70
    58
 90
        2
176
     1
 90
        2
176
     1
 90
        1
176
     1
 90
        0
176
     1
 40
0.6
176
     1
 40
30.0
176
     1
 62
     7
420
 16777215
176
     1
 90
        1
176
     1
 90
        4
176
     1
 62
     7
176
     1
 62
   257
176
     1
 90
        1
176
     1
 90
        1
176
     1
 40
1.0
176
     1
 90
        8
176
     1
 62
     7
176
     1
 40
1.0
176
     1
 90
        1
176
     1
 90
        6
176
     1
 90
        2
176
     1
 62
     7
176
     1
 90
        5
176
     1
 90
        0
176
     1
 90
        0
176
     1
290
     0
176
     1
 90
        1
176
     1
 40
50.0
176
     1
 90
        0
176
     1
290
     0
176
     1
290
     1
176
     1
290
     1
176
     1
290
     0
176
     1
290
     0
176
     1
290
     0
176
     1
290
     0
176
     1
290
     0
176
     1
290
     0
176
     1
 90
       50
176
     1
 40
0.0
176
     1
 40
1.0
176
     1
 90
        0
176
     1
 62
    18
420
        0
176
     1
 90
       50
176
     1
 90
        3
176
     1
 62
     5
420
      255
176
     1
290
     0
176
     1
 90
       50
176
     1
 90
       50
176
     1
 90
       50
176
     1
290
     0
176
     1
 90
       50
176
     1
 62
   256
176
     0
 40
1.0
176
     0
 90
        2
176
     1
  1
strokes_ogs.tif
176
     1
290
     0
176
     1
 40
1.0
176
     1
 40
1.0
176
     1
  0
VISUALSTYLE
  5
A9
102
{ACAD_REACTORS
330
99
102
}
330
99
100
AcDbVisualStyle
  2
ColorChange
 70
    16
177
     3
291
     1
 70
    58
 90
        2
176
     1
 90
        2
176
     1
 90
        3
176
     1
 90
        0
176
     1
 40
0.6
176
     1
 40
30.0
176
     1
 62
     8
420
  8421504
176
     1
 90
        1
176
     1
 90
        4
176
     1
 62
     7
176
     1
 62
   257
176
     1
 90
        1
176
     1
 90
        1
176
     1
 40
1.0
176
     1
 90
        8
176
     1
 62
     8
420
  8421504
176
     1
 40
1.0
176
     1
 90
        1
176
     1
 90
        6
176
     1
 90
        2
176
     1
 62
     7
176
     1
 90
        5
176
     1
 90
        0
176
     1
 90
        0
176
     1
290
     0
176
     1
 90
        1
176
     1
 40
0.0
176
     1
 90
        0
176
     1
290
     0
176
     1
290
     1
176
     1
290
     1
176
     1
290
     0
176
     1
290
     0
176
     1
290
     0
176
     1
290
     0
176
     1
290
     0
176
     1
290
     0
176
     1
 90
       50
176
     1
 40
0.0
176
     1
 40
1.0
176
     1
 90
        0
176
     1
 62
    18
420
        0
176
     1
 90
       50
176
     1
 90
        3
176
     1
 62
     5
420
      255
176
     1
290
     0
176
     1
 90
       50
176
     1
 90
       50
176
     1
 90
       50
176
     1
290
     0
176
     1
 90
       50
176
     1
 62
   256
176
     0
 40
1.0
176
     0
 90
        2
176
     1
  1
strokes_ogs.tif
176
     1
290
     0
176
     1
 40
1.0
176
     1
 40
1.0
176
     1
  0
VISUALSTYLE
  5
A2
102
{ACAD_REACTORS
330
99
102
}
330
99
100
AcDbVisualStyle
  2
Conceptual
 70
     9
177
     3
291
     0
 70
    58
 90
        3
176
     1
 90
        2
176
     1
 90
        1
176
     1
 90
        0
176
     1
 40
0.6
176
     1
 40
30.0
176
     1
 62
     7
420
 16777215
176
     1
 90
        2
176
     1
 90
        2
176
     1
 62
     7
176
     1
 62
   257
176
     1
 90
        1
176
     1
 90
        1
176
     1
 40
40.0
176
     1
 90
        8
176
     1
 62
     7
176
     1
 40
1.0
176
     1
 90
        1
176
     1
 90
        6
176
     1
 90
        2
176
     1
 62
     7
176
     1
 90
        3
176
     1
 90
        0
176
     1
 90
        0
176
     1
290
     0
176
     1
 90
        1
176
     1
 40
0.0
176
     1
 90
        0
176
     1
290
     0
176
     1
290
     1
176
     1
290
     1
176
     1
290
     0
176
     1
290
     0
176
     1
290
     0
176
     1
290
     0
176
     1
290
     0
176
     1
290
     0
176
     1
 90
       50
176
     1
 40
0.0
176
     1
 40
1.0
176
     1
 90
        0
176
     1
 62
    18
420
        0
176
     1
 90
       50
176
     1
 90
        3
176
     1
 62
     5
420
      255
176
     1
290
     0
176
     1
 90
       50
176
     1
 90
       50
176
     1
 90
       50
176
     1
290
     0
176
     1
 90
       50
176
     1
 62
   256
176
     0
 40
1.0
176
     0
 90
        2
176
     1
  1
strokes_ogs.tif
176
     1
290
     0
176
     1
 40
1.0
176
     1
 40
1.0
176
     1
  0
VISUALSTYLE
  5
A4
102
{ACAD_REACTORS
330
99
102
}
330
99
100
AcDbVisualStyle
  2
Dim
 70
    11
177
     3
291
     1
 70
    58
 90
        2
176
     1
 90
        2
176
     1
 90
        1
176
     1
 90
        0
176
     1
 40
0.6
176
     1
 40
30.0
176
     1
 62
     7
420
 16777215
176
     1
 90
        1
176
     1
 90
        4
176
     1
 62
     7
176
     1
 62
   257
176
     1
 90
        1
176
     1
 90
        1
176
     1
 40
1.0
176
     1
 90
        8
176
     1
 62
     7
176
     1
 40
1.0
176
     1
 90
        1
176
     1
 90
        6
176
     1
 90
        2
176
     1
 62
     7
176
     1
 90
        5
176
     1
 90
        0
176
     1
 90
        0
176
     1
290
     0
176
     1
 90
        1
176
     1
 40
-50.0
176
     1
 90
        0
176
     1
290
     0
176
     1
290
     1
176
     1
290
     1
176
     1
290
     0
176
     1
290
     0
176
     1
290
     0
176
     1
290
     0
176
     1
290
     0
176
     1
290
     0
176
     1
 90
       50
176
     1
 40
0.0
176
     1
 40
1.0
176
     1
 90
        0
176
     1
 62
    18
420
        0
176
     1
 90
       50
176
     1
 90
        3
176
     1
 62
     5
420
      255
176
     1
290
     0
176
     1
 90
       50
176
     1
 90
       50
176
     1
 90
       50
176
     1
290
     0
176
     1
 90
       50
176
     1
 62
   256
176
     0
 40
1.0
176
     0
 90
        2
176
     1
  1
strokes_ogs.tif
176
     1
290
     0
176
     1
 40
1.0
176
     1
 40
1.0
176
     1
  0
VISUALSTYLE
  5
175
102
{ACAD_REACTORS
330
99
102
}
330
99
100
AcDbVisualStyle
  2
EdgeColorOff
 70
    22
177
     3
291
     1
 70
    58
 90
        2
176
     0
 90
        2
176
     0
 90
        0
176
     0
 90
        0
176
     0
 40
0.6
176
     0
 40
30.0
176
     0
 62
     7
420
 16777215
176
     0
 90
        1
176
     0
 90
        4
176
     0
 62
     7
176
     0
 62
   257
176
     0
 90
        1
176
     0
 90
        1
176
     0
 40
1.0
176
     0
 90
        8
176
     2
 62
     7
176
     0
 40
1.0
176
     0
 90
        1
176
     0
 90
        6
176
     0
 90
        2
176
     0
 62
     7
176
     0
 90
        5
176
     0
 90
        0
176
     0
 90
        0
176
     0
290
     0
176
     0
 90
        1
176
     0
 40
0.0
176
     0
 90
        0
176
     0
290
     0
176
     1
290
     1
176
     1
290
     1
176
     1
290
     0
176
     1
290
     0
176
     1
290
     0
176
     1
290
     0
176
     1
290
     0
176
     1
290
     0
176
     1
 90
       50
176
     1
 40
0.0
176
     1
 40
1.0
176
     1
 90
        0
176
     1
 62
    18
420
        0
176
     1
 90
       50
176
     1
 90
        3
176
     1
 62
     5
420
      255
176
     1
290
     0
176
     1
 90
       50
176
     1
 90
       50
176
     1
 90
       50
176
     1
290
     0
176
     1
 90
       50
176
     1
 62
   256
176
     0
 40
1.0
176
     0
 90
        2
176
     1
  1
strokes_ogs.tif
176
     1
290
     0
176
     1
 40
1.0
176
     1
 40
1.0
176
     1
  0
VISUALSTYLE
  5
A8
102
{ACAD_REACTORS
330
99
102
}
330
99
100
AcDbVisualStyle
  2
Facepattern
 70
    15
177
     3
291
     1
 70
    58
 90
        2
176
     1
 90
        2
176
     1
 90
        1
176
     1
 90
        0
176
     1
 40
0.6
176
     1
 40
30.0
176
     1
 62
     7
420
 16777215
176
     1
 90
        1
176
     1
 90
        4
176
     1
 62
     7
176
     1
 62
   257
176
     1
 90
        1
176
     1
 90
        1
176
     1
 40
1.0
176
     1
 90
        8
176
     1
 62
     7
176
     1
 40
1.0
176
     1
 90
        1
176
     1
 90
        6
176
     1
 90
        2
176
     1
 62
     7
176
     1
 90
        5
176
     1
 90
        0
176
     1
 90
        0
176
     1
290
     0
176
     1
 90
        1
176
     1
 40
0.0
176
     1
 90
        0
176
     1
290
     0
176
     1
290
     1
176
     1
290
     1
176
     1
290
     0
176
     1
290
     0
176
     1
290
     0
176
     1
290
     0
176
     1
290
     0
176
     1
290
     0
176
     1
 90
       50
176
     1
 40
0.0
176
     1
 40
1.0
176
     1
 90
        0
176
     1
 62
    18
420
        0
176
     1
 90
       50
176
     1
 90
        3
176
     1
 62
     5
420
      255
176
     1
290
     0
176
     1
 90
       50
176
     1
 90
       50
176
     1
 90
       50
176
     1
290
     0
176
     1
 90
       50
176
     1
 62
   256
176
     0
 40
1.0
176
     0
 90
        2
176
     1
  1
strokes_ogs.tif
176
     1
290
     0
176
     1
 40
1.0
176
     1
 40
1.0
176
     1
  0
VISUALSTYLE
  5
9A
102
{ACAD_REACTORS
330
99
102
}
330
99
100
AcDbVisualStyle
  2
Flat
 70
     0
177
     3
291
     1
 70
    58
 90
        2
176
     1
 90
        1
176
     1
 90
        1
176
     1
 90
        2
176
     1
 40
0.6
176
     1
 40
30.0
176
     1
 62
     7
420
 16777215
176
     1
 90
        0
176
     1
 90
        0
176
     1
 62
     7
176
     1
 62
   257
176
     1
 90
        1
176
     1
 90
        1
176
     1
 40
1.0
176
     1
 90
        8
176
     1
 62
     7
176
     1
 40
1.0
176
     1
 90
        1
176
     1
 90
        6
176
     1
 90
        2
176
     1
 62
     7
176
     1
 90
        5
176
     1
 90
        0
176
     1
 90
        0
176
     1
290
     0
176
     1
 90
       13
176
     1
 40
0.0
176
     1
 90
        0
176
     1
290
     0
176
     1
290
     1
176
     1
290
     1
176
     1
290
     0
176
     1
290
     0
176
     1
290
     0
176
     1
290
     0
176
     1
290
     0
176
     1
290
     0
176
     1
 90
       50
176
     1
 40
0.0
176
     1
 40
1.0
176
     1
 90
        0
176
     1
 62
    18
420
        0
176
     1
 90
       50
176
     1
 90
        3
176
     1
 62
     5
420
      255
176
     1
290
     0
176
     1
 90
       50
176
     1
 90
       50
176
     1
 90
       50
176
     1
290
     0
176
     1
 90
       50
176
     1
 62
   256
176
     0
 40
1.0
176
     0
 90
        2
176
     1
  1
strokes_ogs.tif
176
     1
290
     0
176
     1
 40
1.0
176
     1
 40
1.0
176
     1
  0
VISUALSTYLE
  5
9B
102
{ACAD_REACTORS
330
99
102
}
330
99
100
AcDbVisualStyle
  2
FlatWithEdges
 70
     1
177
     3
291
     1
 70
    58
 90
        2
176
     1
 90
        1
176
     1
 90
        1
176
     1
 90
        2
176
     1
 40
0.6
176
     1
 40
30.0
176
     1
 62
     7
420
 16777215
176
     1
 90
        1
176
     1
 90
        0
176
     1
 62
     7
176
     1
 62
   257
176
     1
 90
        1
176
     1
 90
        1
176
     1
 40
1.0
176
     1
 90
        0
176
     1
 62
   257
176
     1
 40
1.0
176
     1
 90
        1
176
     1
 90
        6
176
     1
 90
        2
176
     1
 62
     7
176
     1
 90
        5
176
     1
 90
        0
176
     1
 90
        0
176
     1
290
     0
176
     1
 90
       13
176
     1
 40
0.0
176
     1
 90
        0
176
     1
290
     0
176
     1
290
     1
176
     1
290
     1
176
     1
290
     0
176
     1
290
     0
176
     1
290
     0
176
     1
290
     0
176
     1
290
     0
176
     1
290
     0
176
     1
 90
       50
176
     1
 40
0.0
176
     1
 40
1.0
176
     1
 90
        0
176
     1
 62
    18
420
        0
176
     1
 90
       50
176
     1
 90
        3
176
     1
 62
     5
420
      255
176
     1
290
     0
176
     1
 90
       50
176
     1
 90
       50
176
     1
 90
       50
176
     1
290
     0
176
     1
 90
       50
176
     1
 62
   256
176
     0
 40
1.0
176
     0
 90
        2
176
     1
  1
strokes_ogs.tif
176
     1
290
     0
176
     1
 40
1.0
176
     1
 40
1.0
176
     1
  0
VISUALSTYLE
  5
9C
102
{ACAD_REACTORS
330
99
102
}
330
99
100
AcDbVisualStyle
  2
Gouraud
 70
     2
177
     3
291
     1
 70
    58
 90
        2
176
     1
 90
        2
176
     1
 90
        1
176
     1
 90
        2
176
     1
 40
0.6
176
     1
 40
30.0
176
     1
 62
     7
420
 16777215
176
     1
 90
        0
176
     1
 90
        0
176
     1
 62
     7
176
     1
 62
   257
176
     1
 90
        1
176
     1
 90
        1
176
     1
 40
1.0
176
     1
 90
        0
176
     1
 62
     7
176
     1
 40
1.0
176
     1
 90
        1
176
     1
 90
        6
176
     1
 90
        2
176
     1
 62
     7
176
     1
 90
        5
176
     1
 90
        0
176
     1
 90
        0
176
     1
290
     0
176
     1
 90
       13
176
     1
 40
0.0
176
     1
 90
        0
176
     1
290
     0
176
     1
290
     1
176
     1
290
     1
176
     1
290
     0
176
     1
290
     0
176
     1
290
     0
176
     1
290
     0
176
     1
290
     0
176
     1
290
     0
176
     1
 90
       50
176
     1
 40
0.0
176
     1
 40
1.0
176
     1
 90
        0
176
     1
 62
    18
420
        0
176
     1
 90
       50
176
     1
 90
        3
176
     1
 62
     5
420
      255
176
     1
290
     0
176
     1
 90
       50
176
     1
 90
       50
176
     1
 90
       50
176
     1
290
     0
176
     1
 90
       50
176
     1
 62
   256
176
     0
 40
1.0
176
     0
 90
        2
176
     1
  1
strokes_ogs.tif
176
     1
290
     0
176
     1
 40
1.0
176
     1
 40
1.0
176
     1
  0
VISUALSTYLE
  5
9D
102
{ACAD_REACTORS
330
99
102
}
330
99
100
AcDbVisualStyle
  2
GouraudWithEdges
 70
     3
177
     3
291
     1
 70
    58
 90
        2
176
     1
 90
        2
176
     1
 90
        1
176
     1
 90
        2
176
     1
 40
0.6
176
     1
 40
30.0
176
     1
 62
     7
420
 16777215
176
     1
 90
        1
176
     1
 90
        0
176
     1
 62
     7
176
     1
 62
   257
176
     1
 90
        1
176
     1
 90
        1
176
     1
 40
1.0
176
     1
 90
        0
176
     1
 62
   257
176
     1
 40
1.0
176
     1
 90
        1
176
     1
 90
        6
176
     1
 90
        2
176
     1
 62
     7
176
     1
 90
        5
176
     1
 90
        0
176
     1
 90
        0
176
     1
290
     0
176
     1
 90
       13
176
     1
 40
0.0
176
     1
 90
        0
176
     1
290
     0
176
     1
290
     1
176
     1
290
     1
176
     1
290
     0
176
     1
290
     0
176
     1
290
     0
176
     1
290
     0
176
     1
290
     0
176
     1
290
     0
176
     1
 90
       50
176
     1
 40
0.0
176
     1
 40
1.0
176
     1
 90
        0
176
     1
 62
    18
420
        0
176
     1
 90
       50
176
     1
 90
        3
176
     1
 62
     5
420
      255
176
     1
290
     0
176
     1
 90
       50
176
     1
 90
       50
176
     1
 90
       50
176
     1
290
     0
176
     1
 90
       50
176
     1
 62
   256
176
     0
 40
1.0
176
     0
 90
        2
176
     1
  1
strokes_ogs.tif
176
     1
290
     0
176
     1
 40
1.0
176
     1
 40
1.0
176
     1
  0
VISUALSTYLE
  5
A1
102
{ACAD_REACTORS
330
99
102
}
330
99
100
AcDbVisualStyle
  2
Hidden
 70
     6
177
     3
291
     0
 70
    58
 90
        1
176
     1
 90
        2
176
     1
 90
        2
176
     1
 90
        0
176
     1
 40
0.6
176
     1
 40
30.0
176
     1
 62
     7
420
 16777215
176
     1
 90
        2
176
     1
 90
        2
176
     1
 62
     7
176
     1
 62
   257
176
     1
 90
        2
176
     1
 90
        1
176
     1
 40
40.0
176
     1
 90
        0
176
     1
 62
   257
176
     1
 40
1.0
176
     1
 90
        1
176
     1
 90
        6
176
     1
 90
        2
176
     1
 62
     7
176
     1
 90
        3
176
     1
 90
        0
176
     1
 90
        0
176
     1
290
     0
176
     1
 90
        1
176
     1
 40
0.0
176
     1
 90
        0
176
     1
290
     0
176
     1
290
     1
176
     1
290
     1
176
     1
290
     0
176
     1
290
     0
176
     1
290
     0
176
     1
290
     0
176
     1
290
     0
176
     1
290
     0
176
     1
 90
       50
176
     1
 40
0.0
176
     1
 40
1.0
176
     1
 90
        0
176
     1
 62
    18
420
        0
176
     1
 90
       50
176
     1
 90
        3
176
     1
 62
     5
420
      255
176
     1
290
     0
176
     1
 90
       50
176
     1
 90
       50
176
     1
 90
       50
176
     1
290
     0
176
     1
 90
       50
176
     1
 62
   256
176
     0
 40
1.0
176
     0
 90
        2
176
     1
  1
strokes_ogs.tif
176
     1
290
     0
176
     1
 40
1.0
176
     1
 40
1.0
176
     1
  0
VISUALSTYLE
  5
173
102
{ACAD_REACTORS
330
99
102
}
330
99
100
AcDbVisualStyle
  2
JitterOff
 70
    20
177
     3
291
     1
 70
    58
 90
        2
176
     0
 90
        2
176
     0
 90
        0
176
     0
 90
        0
176
     0
 40
0.6
176
     0
 40
30.0
176
     0
 62
     7
420
 16777215
176
     0
 90
        1
176
     0
 90
        4
176
     0
 62
     7
176
     0
 62
   257
176
     0
 90
        1
176
     0
 90
        1
176
     0
 40
1.0
176
     0
 90
       10
176
     2
 62
     7
176
     0
 40
1.0
176
     0
 90
        1
176
     0
 90
        6
176
     0
 90
        2
176
     0
 62
     7
176
     0
 90
        5
176
     0
 90
        0
176
     0
 90
        0
176
     0
290
     0
176
     0
 90
        1
176
     0
 40
0.0
176
     0
 90
        0
176
     0
290
     0
176
     1
290
     1
176
     1
290
     1
176
     1
290
     0
176
     1
290
     0
176
     1
290
     0
176
     1
290
     0
176
     1
290
     0
176
     1
290
     0
176
     1
 90
       50
176
     1
 40
0.0
176
     1
 40
1.0
176
     1
 90
        0
176
     1
 62
    18
420
        0
176
     1
 90
       50
176
     1
 90
        3
176
     1
 62
     5
420
      255
176
     1
290
     0
176
     1
 90
       50
176
     1
 90
       50
176
     1
 90
       50
176
     1
290
     0
176
     1
 90
       50
176
     1
 62
   256
176
     0
 40
1.0
176
     0
 90
        2
176
     1
  1
strokes_ogs.tif
176
     1
290
     0
176
     1
 40
1.0
176
     1
 40
1.0
176
     1
  0
VISUALSTYLE
  5
A7
102
{ACAD_REACTORS
330
99
102
}
330
99
100
AcDbVisualStyle
  2
Linepattern
 70
    14
177
     3
291
     1
 70
    58
 90
        2
176
     1
 90
        2
176
     1
 90
        1
176
     1
 90
        0
176
     1
 40
0.6
176
     1
 40
30.0
176
     1
 62
     7
420
 16777215
176
     1
 90
        1
176
     1
 90
        4
176
     1
 62
     7
176
     1
 62
   257
176
     1
 90
        7
176
     1
 90
        7
176
     1
 40
1.0
176
     1
 90
        8
176
     1
 62
     7
176
     1
 40
1.0
176
     1
 90
        1
176
     1
 90
        6
176
     1
 90
        2
176
     1
 62
     7
176
     1
 90
        5
176
     1
 90
        0
176
     1
 90
        0
176
     1
290
     0
176
     1
 90
        1
176
     1
 40
0.0
176
     1
 90
        0
176
     1
290
     0
176
     1
290
     1
176
     1
290
     1
176
     1
290
     0
176
     1
290
     0
176
     1
290
     0
176
     1
290
     0
176
     1
290
     0
176
     1
290
     0
176
     1
 90
       50
176
     1
 40
0.0
176
     1
 40
1.0
176
     1
 90
        0
176
     1
 62
    18
420
        0
176
     1
 90
       50
176
     1
 90
        3
176
     1
 62
     5
420
      255
176
     1
290
     0
176
     1
 90
       50
176
     1
 90
       50
176
     1
 90
       50
176
     1
290
     0
176
     1
 90
       50
176
     1
 62
   256
176
     0
 40
1.0
176
     0
 90
        2
176
     1
  1
strokes_ogs.tif
176
     1
290
     0
176
     1
 40
1.0
176
     1
 40
1.0
176
     1
  0
VISUALSTYLE
  5
174
102
{ACAD_REACTORS
330
99
102
}
330
99
100
AcDbVisualStyle
  2
OverhangOff
 70
    21
177
     3
291
     1
 70
    58
 90
        2
176
     0
 90
        2
176
     0
 90
        0
176
     0
 90
        0
176
     0
 40
0.6
176
     0
 40
30.0
176
     0
 62
     7
420
 16777215
176
     0
 90
        1
176
     0
 90
        4
176
     0
 62
     7
176
     0
 62
   257
176
     0
 90
        1
176
     0
 90
        1
176
     0
 40
1.0
176
     0
 90
        9
176
     2
 62
     7
176
     0
 40
1.0
176
     0
 90
        1
176
     0
 90
        6
176
     0
 90
        2
176
     0
 62
     7
176
     0
 90
        5
176
     0
 90
        0
176
     0
 90
        0
176
     0
290
     0
176
     0
 90
        1
176
     0
 40
0.0
176
     0
 90
        0
176
     0
290
     0
176
     1
290
     1
176
     1
290
     1
176
     1
290
     0
176
     1
290
     0
176
     1
290
     0
176
     1
290
     0
176
     1
290
     0
176
     1
290
     0
176
     1
 90
       50
176
     1
 40
0.0
176
     1
 40
1.0
176
     1
 90
        0
176
     1
 62
    18
420
        0
176
     1
 90
       50
176
     1
 90
        3
176
     1
 62
     5
420
      255
176
     1
290
     0
176
     1
 90
       50
176
     1
 90
       50
176
     1
 90
       50
176
     1
290
     0
176
     1
 90
       50
176
     1
 62
   256
176
     0
 40
1.0
176
     0
 90
        2
176
     1
  1
strokes_ogs.tif
176
     1
290
     0
176
     1
 40
1.0
176
     1
 40
1.0
176
     1
  0
VISUALSTYLE
  5
A3
102
{ACAD_REACTORS
330
99
102
}
330
99
100
AcDbVisualStyle
  2
Realistic
 70
     8
177
     3
291
     0
 70
    58
 90
        2
176
     1
 90
        2
176
     1
 90
        0
176
     1
 90
        2
176
     1
 40
0.6
176
     1
 40
30.0
176
     1
 62
     7
420
 16777215
176
     1
 90
        0
176
     1
 90
        0
176
     1
 62
     7
176
     1
 62
   257
176
     1
 90
        1
176
     1
 90
        1
176
     1
 40
1.0
176
     1
 90
        8
176
     1
 62
   257
176
     1
 40
1.0
176
     1
 90
        1
176
     1
 90
        6
176
     1
 90
        2
176
     1
 62
     7
176
     1
 90
        3
176
     1
 90
        0
176
     1
 90
        0
176
     1
290
     0
176
     1
 90
       13
176
     1
 40
0.0
176
     1
 90
        0
176
     1
290
     0
176
     1
290
     1
176
     1
290
     1
176
     1
290
     0
176
     1
290
     0
176
     1
290
     0
176
     1
290
     0
176
     1
290
     0
176
     1
290
     0
176
     1
 90
       50
176
     1
 40
0.0
176
     1
 40
1.0
176
     1
 90
        0
176
     1
 62
    18
420
        0
176
     1
 90
       50
176
     1
 90
        3
176
     1
 62
     5
420
      255
176
     1
290
     0
176
     1
 90
       50
176
     1
 90
       50
176
     1
 90
       50
176
     1
290
     0
176
     1
 90
       50
176
     1
 62
   256
176
     0
 40
1.0
176
     0
 90
        2
176
     1
  1
strokes_ogs.tif
176
     1
290
     0
176
     1
 40
1.0
176
     1
 40
1.0
176
     1
  0
VISUALSTYLE
  5
182
102
{ACAD_REACTORS
330
99
102
}
330
99
100
AcDbVisualStyle
  2
Shaded
 70
    27
177
     3
291
     0
 70
    58
 90
        2
176
     1
 90
        2
176
     1
 90
        1
176
     1
 90
        2
176
     1
 40
0.6
176
     1
 40
30.0
176
     1
 62
     7
420
 16777215
176
     1
 90
        0
176
     1
 90
        4
176
     1
 62
     7
176
     1
 62
   257
176
     1
 90
        1
176
     1
 90
        1
176
     1
 40
1.0
176
     1
 90
        8
176
     1
 62
   257
176
     1
 40
1.0
176
     1
 90
        1
176
     1
 90
        6
176
     1
 90
        2
176
     1
 62
     8
420
  7895160
176
     1
 90
        3
176
     1
 90
        0
176
     1
 90
        0
176
     1
290
     0
176
     1
 90
        5
176
     1
 40
0.0
176
     1
 90
        0
176
     1
290
     0
176
     1
290
     1
176
     1
290
     1
176
     1
290
     0
176
     1
290
     0
176
     1
290
     0
176
     1
290
     0
176
     1
290
     0
176
     1
290
     0
176
     1
 90
       50
176
     1
 40
0.0
176
     1
 40
1.0
176
     1
 90
        0
176
     1
 62
    18
420
        0
176
     1
 90
       50
176
     1
 90
        3
176
     1
 62
     5
420
      255
176
     1
290
     0
176
     1
 90
       50
176
     1
 90
       50
176
     1
 90
       50
176
     1
290
     0
176
     1
 90
       50
176
     1
 62
   256
176
     0
 40
1.0
176
     0
 90
        2
176
     1
  1
strokes_ogs.tif
176
     1
290
     0
176
     1
 40
1.0
176
     1
 40
1.0
176
     1
  0
VISUALSTYLE
  5
181
102
{ACAD_REACTORS
330
99
102
}
330
99
100
AcDbVisualStyle
  2
Shaded with edges
 70
    26
177
     3
291
     0
 70
    58
 90
        2
176
     1
 90
        2
176
     1
 90
        1
176
     1
 90
        2
176
     1
 40
0.6
176
     1
 40
30.0
176
     1
 62
     7
420
 16777215
176
     1
 90
        1
176
     1
 90
        2
176
     1
 62
     7
176
     1
 62
   257
176
     1
 90
        2
176
     1
 90
        1
176
     1
 40
1.0
176
     1
 90
        8
176
     1
 62
   257
176
     1
 40
1.0
176
     1
 90
        1
176
     1
 90
        6
176
     1
 90
        2
176
     1
 62
     7
176
     1
 90
        3
176
     1
 90
        0
176
     1
 90
        0
176
     1
290
     0
176
     1
 90
        5
176
     1
 40
0.0
176
     1
 90
        0
176
     1
290
     0
176
     1
290
     1
176
     1
290
     1
176
     1
290
     0
176
     1
290
     0
176
     1
290
     0
176
     1
290
     0
176
     1
290
     0
176
     1
290
     0
176
     1
 90
       50
176
     1
 40
0.0
176
     1
 40
1.0
176
     1
 90
        0
176
     1
 62
    18
420
        0
176
     1
 90
       50
176
     1
 90
        3
176
     1
 62
     5
420
      255
176
     1
290
     0
176
     1
 90
       50
176
     1
 90
       50
176
     1
 90
       50
176
     1
290
     0
176
     1
 90
       50
176
     1
 62
   256
176
     0
 40
1.0
176
     0
 90
        2
176
     1
  1
strokes_ogs.tif
176
     1
290
     0
176
     1
 40
1.0
176
     1
 40
1.0
176
     1
  0
VISUALSTYLE
  5
17E
102
{ACAD_REACTORS
330
99
102
}
330
99
100
AcDbVisualStyle
  2
Shades of Gray
 70
    23
177
     3
291
     0
 70
    58
 90
        2
176
     1
 90
        2
176
     1
 90
        3
176
     1
 90
        0
176
     1
 40
0.6
176
     1
 40
30.0
176
     1
 62
     7
420
 16777215
176
     1
 90
        2
176
     1
 90
        2
176
     1
 62
     7
176
     1
 62
     7
176
     1
 90
        1
176
     1
 90
        1
176
     1
 40
40.0
176
     1
 90
        8
176
     1
 62
     7
176
     1
 40
1.0
176
     1
 90
        1
176
     1
 90
        6
176
     1
 90
        2
176
     1
 62
     7
176
     1
 90
        3
176
     1
 90
        0
176
     1
 90
        0
176
     1
290
     0
176
     1
 90
        1
176
     1
 40
0.0
176
     1
 90
        0
176
     1
290
     0
176
     1
290
     1
176
     1
290
     1
176
     1
290
     0
176
     1
290
     0
176
     1
290
     0
176
     1
290
     0
176
     1
290
     0
176
     1
290
     0
176
     1
 90
       50
176
     1
 40
0.0
176
     1
 40
1.0
176
     1
 90
        0
176
     1
 62
    18
420
        0
176
     1
 90
       50
176
     1
 90
        3
176
     1
 62
     5
420
      255
176
     1
290
     0
176
     1
 90
       50
176
     1
 90
       50
176
     1
 90
       50
176
     1
290
     0
176
     1
 90
       50
176
     1
 62
   256
176
     0
 40
1.0
176
     0
 90
        2
176
     1
  1
strokes_ogs.tif
176
     1
290
     0
176
     1
 40
1.0
176
     1
 40
1.0
176
     1
  0
VISUALSTYLE
  5
17F
102
{ACAD_REACTORS
330
99
102
}
330
99
100
AcDbVisualStyle
  2
Sketchy
 70
    24
177
     3
291
     0
 70
    58
 90
        1
176
     1
 90
        2
176
     1
 90
        2
176
     1
 90
        0
176
     1
 40
0.6
176
     1
 40
30.0
176
     1
 62
     7
420
 16777215
176
     1
 90
        2
176
     1
 90
        2
176
     1
 62
     7
176
     1
 62
     7
176
     1
 90
        1
176
     1
 90
        1
176
     1
 40
40.0
176
     1
 90
       11
176
     1
 62
     7
176
     1
 40
1.0
176
     1
 90
        1
176
     1
 90
        6
176
     1
 90
        2
176
     1
 62
     7
176
     1
 90
        6
176
     1
 90
        0
176
     1
 90
        0
176
     1
290
     0
176
     1
 90
        1
176
     1
 40
0.0
176
     1
 90
        0
176
     1
290
     0
176
     1
290
     1
176
     1
290
     1
176
     1
290
     0
176
     1
290
     0
176
     1
290
     0
176
     1
290
     0
176
     1
290
     0
176
     1
290
     0
176
     1
 90
       50
176
     1
 40
0.0
176
     1
 40
1.0
176
     1
 90
        0
176
     1
 62
    18
420
        0
176
     1
 90
       50
176
     1
 90
        3
176
     1
 62
     5
420
      255
176
     1
290
     0
176
     1
 90
       50
176
     1
 90
       50
176
     1
 90
       50
176
     1
290
     0
176
     1
 90
       50
176
     1
 62
   256
176
     0
 40
1.0
176
     0
 90
        2
176
     1
  1
strokes_ogs.tif
176
     1
290
     0
176
     1
 40
1.0
176
     1
 40
1.0
176
     1
  0
VISUALSTYLE
  5
A6
102
{ACAD_REACTORS
330
99
102
}
330
99
100
AcDbVisualStyle
  2
Thicken
 70
    13
177
     3
291
     1
 70
    58
 90
        2
176
     1
 90
        2
176
     1
 90
        1
176
     1
 90
        0
176
     1
 40
0.6
176
     1
 40
30.0
176
     1
 62
     7
420
 16777215
176
     1
 90
        1
176
     1
 90
        4
176
     1
 62
     7
176
     1
 62
   257
176
     1
 90
        1
176
     1
 90
        1
176
     1
 40
1.0
176
     1
 90
       12
176
     1
 62
     7
176
     1
 40
1.0
176
     1
 90
        1
176
     1
 90
        6
176
     1
 90
        2
176
     1
 62
     7
176
     1
 90
        5
176
     1
 90
        0
176
     1
 90
        0
176
     1
290
     0
176
     1
 90
        1
176
     1
 40
0.0
176
     1
 90
        0
176
     1
290
     0
176
     1
290
     1
176
     1
290
     1
176
     1
290
     0
176
     1
290
     0
176
     1
290
     0
176
     1
290
     0
176
     1
290
     0
176
     1
290
     0
176
     1
 90
       50
176
     1
 40
0.0
176
     1
 40
1.0
176
     1
 90
        0
176
     1
 62
    18
420
        0
176
     1
 90
       50
176
     1
 90
        3
176
     1
 62
     5
420
      255
176
     1
290
     0
176
     1
 90
       50
176
     1
 90
       50
176
     1
 90
       50
176
     1
290
     0
176
     1
 90
       50
176
     1
 62
   256
176
     0
 40
1.0
176
     0
 90
        2
176
     1
  1
strokes_ogs.tif
176
     1
290
     0
176
     1
 40
1.0
176
     1
 40
1.0
176
     1
  0
VISUALSTYLE
  5
A0
102
{ACAD_REACTORS
330
99
102
}
330
99
100
AcDbVisualStyle
  2
Wireframe
 70
     5
177
     3
291
     0
 70
    58
 90
        0
176
     1
 90
        2
176
     1
 90
        0
176
     1
 90
        0
176
     1
 40
0.6
176
     1
 40
30.0
176
     1
 62
     7
420
 16777215
176
     1
 90
        1
176
     1
 90
        4
176
     1
 62
     7
176
     1
 62
   257
176
     1
 90
        1
176
     1
 90
        1
176
     1
 40
1.0
176
     1
 90
        0
176
     1
 62
   257
176
     1
 40
1.0
176
     1
 90
        1
176
     1
 90
        6
176
     1
 90
        2
176
     1
 62
     7
176
     1
 90
        3
176
     1
 90
        0
176
     1
 90
        0
176
     1
290
     0
176
     1
 90
        1
176
     1
 40
0.0
176
     1
 90
        0
176
     1
290
     0
176
     1
290
     1
176
     1
290
     1
176
     1
290
     0
176
     1
290
     0
176
     1
290
     0
176
     1
290
     0
176
     1
290
     0
176
     1
290
     0
176
     1
 90
       50
176
     1
 40
0.0
176
     1
 40
1.0
176
     1
 90
        0
176
     1
 62
    18
420
        0
176
     1
 90
       50
176
     1
 90
        3
176
     1
 62
     5
420
      255
176
     1
290
     0
176
     1
 90
       50
176
     1
 90
       50
176
     1
 90
       50
176
     1
290
     0
176
     1
 90
       50
176
     1
 62
   256
176
     0
 40
1.0
176
     0
 90
        2
176
     1
  1
strokes_ogs.tif
176
     1
290
     0
176
     1
 40
1.0
176
     1
 40
1.0
176
     1
  0
VISUALSTYLE
  5
180
102
{ACAD_REACTORS
330
99
102
}
330
99
100
AcDbVisualStyle
  2
X-Ray
 70
    25
177
     3
291
     0
 70
    58
 90
        2
176
     1
 90
        2
176
     1
 90
        1
176
     1
 90
        1
176
     1
 40
0.5
176
     1
 40
30.0
176
     1
 62
     7
420
 16777215
176
     1
 90
        1
176
     1
 90
        0
176
     1
 62
     7
176
     1
 62
   257
176
     1
 90
        1
176
     1
 90
        1
176
     1
 40
1.0
176
     1
 90
        8
176
     1
 62
     7
176
     1
 40
1.0
176
     1
 90
        1
176
     1
 90
        6
176
     1
 90
        2
176
     1
 62
     7
176
     1
 90
        3
176
     1
 90
        0
176
     1
 90
        0
176
     1
290
     0
176
     1
 90
       13
176
     1
 40
0.0
176
     1
 90
        0
176
     1
290
     0
176
     1
290
     1
176
     1
290
     1
176
     1
290
     0
176
     1
290
     0
176
     1
290
     0
176
     1
290
     0
176
     1
290
     0
176
     1
290
     0
176
     1
 90
       50
176
     1
 40
0.0
176
     1
 40
1.0
176
     1
 90
        0
176
     1
 62
    18
420
        0
176
     1
 90
       50
176
     1
 90
        3
176
     1
 62
     5
420
      255
176
     1
290
     0
176
     1
 90
       50
176
     1
 90
       50
176
     1
 90
       50
176
     1
290
     0
176
     1
 90
       50
176
     1
 62
   256
176
     0
 40
1.0
176
     0
 90
        2
176
     1
  1
strokes_ogs.tif
176
     1
290
     0
176
     1
 40
1.0
176
     1
 40
1.0
176
     1
  0
DICTIONARYVAR
  5
4A0D6
102
{ACAD_REACTORS
330
4A0D5
102
}
330
4A0D5
100
DictionaryVariables
280
     0
  1
2
  0
DICTIONARYVAR
  5
4A0D7
102
{ACAD_REACTORS
330
4A0D5
102
}
330
4A0D5
100
DictionaryVariables
280
     0
  1
400.000000
  0
DICTIONARYVAR
  5
4A0D8
102
{ACAD_REACTORS
330
4A0D5
102
}
330
4A0D5
100
DictionaryVariables
280
     0
  1
1
  0
DICTIONARYVAR
  5
4A0D9
102
{ACAD_REACTORS
330
4A0D5
102
}
330
4A0D5
100
DictionaryVariables
280
     0
  1
1:1
  0
DICTIONARYVAR
  5
4A0DA
102
{ACAD_REACTORS
330
4A0D5
102
}
330
4A0D5
100
DictionaryVariables
280
     0
  1
STANDARD
  0
DICTIONARYVAR
  5
4A0DB
102
{ACAD_REACTORS
330
4A0D5
102
}
330
4A0D5
100
DictionaryVariables
280
     0
  1
STANDARD
  0
DICTIONARYVAR
  5
4A0DC
102
{ACAD_REACTORS
330
4A0D5
102
}
330
4A0D5
100
DictionaryVariables
280
     0
  1
Imperial24
  0
DICTIONARYVAR
  5
4A0DD
102
{ACAD_REACTORS
330
4A0D5
102
}
330
4A0D5
100
DictionaryVariables
280
     0
  1
Imperial24
  0
DICTIONARYVAR
  5
4A0DE
102
{ACAD_REACTORS
330
4A0D5
102
}
330
4A0D5
100
DictionaryVariables
280
     0
  1
-1
  0
DICTIONARYVAR
  5
4A0DF
102
{ACAD_REACTORS
330
4A0D5
102
}
330
4A0D5
100
DictionaryVariables
280
     0
  1
1
  0
DICTIONARYVAR
  5
4A0E0
102
{ACAD_REACTORS
330
4A0D5
102
}
330
4A0D5
100
DictionaryVariables
280
     0
  1
2
  0
DICTIONARYVAR
  5
4A0E1
102
{ACAD_REACTORS
330
4A0D5
102
}
330
4A0D5
100
DictionaryVariables
280
     0
  1
0
  0
DICTIONARYVAR
  5
4A0E2
102
{ACAD_REACTORS
330
4A0D5
102
}
330
4A0D5
100
DictionaryVariables
280
     0
  1
4
  0
DICTIONARYVAR
  5
4A0E3
102
{ACAD_REACTORS
330
4A0D5
102
}
330
4A0D5
100
DictionaryVariables
280
     0
  1
V-Construction
  0
DICTIONARYVAR
  5
4A0E4
102
{ACAD_REACTORS
330
4A0D5
102
}
330
4A0D5
100
DictionaryVariables
280
     0
  1
ByLayer
  0
DICTIONARYVAR
  5
4A0E5
102
{ACAD_REACTORS
330
4A0D5
102
}
330
4A0D5
100
DictionaryVariables
280
     0
  1
0
  0
DICTIONARYVAR
  5
4A0E6
102
{ACAD_REACTORS
330
4A0D5
102
}
330
4A0D5
100
DictionaryVariables
280
     0
  1
0
  0
DICTIONARYVAR
  5
4A0E7
102
{ACAD_REACTORS
330
4A0D5
102
}
330
4A0D5
100
DictionaryVariables
280
     0
  1
0
  0
DICTIONARYVAR
  5
4A0E8
102
{ACAD_REACTORS
330
4A0D5
102
}
330
4A0D5
100
DictionaryVariables
280
     0
  1
2
  0
DICTIONARYVAR
  5
4A0E9
102
{ACAD_REACTORS
330
4A0D5
102
}
330
4A0D5
100
DictionaryVariables
280
     0
  1
1.000000
  0
DICTIONARYVAR
  5
4A0EA
102
{ACAD_REACTORS
330
4A0D5
102
}
330
4A0D5
100
DictionaryVariables
280
     0
  1
1
  0
DICTIONARYVAR
  5
4A0EB
102
{ACAD_REACTORS
330
4A0D5
102
}
330
4A0D5
100
DictionaryVariables
280
     0
  1
1.000000
  0
DICTIONARYVAR
  5
4A0EC
102
{ACAD_REACTORS
330
4A0D5
102
}
330
4A0D5
100
DictionaryVariables
280
     0
  1
1
  0
DICTIONARYVAR
  5
4A0ED
102
{ACAD_REACTORS
330
4A0D5
102
}
330
4A0D5
100
DictionaryVariables
280
     0
  1
0
  0
DICTIONARYVAR
  5
4A0EE
102
{ACAD_REACTORS
330
4A0D5
102
}
330
4A0D5
100
DictionaryVariables
280
     0
  1

  0
DICTIONARYVAR
  5
4A0EF
102
{ACAD_REACTORS
330
4A0D5
102
}
330
4A0D5
100
DictionaryVariables
280
     0
  1
0
  0
DICTIONARYVAR
  5
4A0F0
102
{ACAD_REACTORS
330
4A0D5
102
}
330
4A0D5
100
DictionaryVariables
280
     0
  1
127
  0
DICTIONARY
  5
194
330
22
100
AcDbDictionary
280
     1
281
     1
  0
DICTIONARY
  5
188
330
97
100
AcDbDictionary
280
     1
281
     1
  3
FBXASSET
360
189
  0
DICTIONARY
  5
186
330
96
100
AcDbDictionary
280
     1
281
     1
  3
FBXASSET
360
187
  0
DICTIONARY
  5
110
330
98
100
AcDbDictionary
280
     1
281
     1
  3
BUMPTILE
360
112
  3
DIFFUSETILE
360
111
  3
FBXASSET
360
18A
  3
OPACITYTILE
360
113
  3
REFLECTIONTILE
360
114
  0
DICTIONARY
  5
104
330
87
100
AcDbDictionary
280
     1
281
     1
  3
ACAD_ROUNDTRIP_2008_TABLESTYLE_CELLSTYLEMAP
360
67410
  0
XRECORD
  5
189
102
{ACAD_REACTORS
330
188
102
}
330
188
100
AcDbXrecord
280
     1
 70
     1
 90
429727718
  1
508B35C9-AEE7-456F-BE74-D52651303AC6
310
504B03040A0000080000B670623B3DEE336E79000000790000001B0000006175746F6465736B2D64657369676E2D7061636B6167652E786D6C3C3F786D6C2076657273696F6E3D22312E302220656E636F64696E673D227574662D3822203F3E3C666F726D6174733E3C666F726D61743E687474703A2F2F736368656D612E
310
6175746F6465736B2E636F6D2F64657369676E2D7061636B6167652F323030393C2F666F726D61743E3C2F666F726D6174733E504B0304140006080800B670623BD486FD9CA0000000F4000000130000005B436F6E74656E745F54797065735D2E786D6C7D8EC10E82300C865F65E91D8A1E8C310C0EEA1BF002731658846E
310
D98AC1B77784ABF1D8FE5FBFBF75BBCE937A534CCEB38643598122B6FEE978D0B0485F9C41B54DDD7D022595594E1A469170414C76A4D9A4D207E29CF43ECE46F218070CC6BECC4078ACAA135ACF422C856C0E68EA1BF5669944DDD7BCDE7B1F8E415D77AECB980613C2E4AC91FC167A2B244592486606FC29C8FD7F045B9A
310
EF7053A7E60B504B0304140006080800B670623B28ED286BEB0000007C01000008000000636F72652E786D6C8D90416EC3201045AF82665B6183218D6D61A254764FD00B204C5C94182C03558F5F9C3852BBEB6A467FFE9B197D71FA9E6FE8CBACC17AD7012D0820E3B41FAD9B3A48F1826B40272956EFE32F1B20A766D3C1
310
268314D3EAD3B24BDABB685CCCAAF3A3D94515828980F42D371D04FD696655A814B3235C8B45E9AB9A4C419F5D8653B2237A1CB163DE672FD6AC209BF3C08E0D1B30EB19C3FC9D72FCC6EB231EFA33EDE96BDD341517E5064B11EDFCBCAF57A3A2194156843498524CAA0FCA5B7268F9E185D42D21A2DCEC7FA0B48CFF8492
310
759155FBBB0F2C80A4F991FB408A72CB22977B50B96EB9C91F504B0304140006080800B670623B55019EA25F0000007C00000007000000636E782E786D6C4DCB3B0E80201045D1AD90E915ED2CF8AC45050C11660C8261F98AB1B07AC9C97D42D718D865D3E909258CFD00CCE24AC6E326A164D74DC0B4128928FF32603847
310
2BA13128B1252AC747C6BAB984FC68F0B87FE8960A5C09FE86CFB69FBA01504B0304140006080800B670623B7BC41AC871010000D40300000C0000006662782F636F72652E786D6CC553ED6E8320147D15C2DF4501B56B6D90A64BBB27D80B50A5CE54C120983EFEAE1F4DD7A56BBA5FF3879273EEE59E7310BE393735EA95
310
ED2AA333CC428A91D2B9292A5D66D8BB63B0C26823B835C67D2BC348CB46657880B1E0A535BE9DA1DC68A7B403549B42CDA0EC3AE530CA6B5864B8CB3F552343E91D5474A7B095F949962A6421D0502778E72C0840D390E18DC5F170E664C205F7BE2A66B62A605A75AC94C522DDEEE3651AEF837817C741F2CE92E02D592D
310
83FD6ECB76EC7595A651C2C9D02CB8AB9A8BBADC2AE954814544691A3016D0E883256BBA58278B17BA5A53CAC9507ED3E4DBE2C9265F691747B3DCA9ADC382819091F8E1162272A8933DE82182932144F88C09DF060D8140C84E1EEA8B8F1340BDCA9DB1093085F157AA97B557309586747CD0EF0B4EA64E983A6E0EAEEFCE
310
889E9EF17847386AA94B30211D2C0FDE0D3AF9A4610EAD5536E8DD1969631B593F67E381C33F5157F17725E5A636F6BF1491F980C8FC7B90E13E8A2F504B0304140006080800B670623B70102A487D0000009D0000000B0000006662782F636E782E786D6C4DCCD10A83201886E15B91FFDC95A5C30335ACCDFB886521330D
310
A76397BF1A1DECE883878F57749FD5A3B74D2F17830472A901D9F088930B8B849267CC01754AA418F3DF0D5018572BE160506249B16C274D761E8BCFBB7A179E27F65CB39A0F14D396184C9921B81F34C3ACA1B4B99ABB6E6F062A25AA5F69DF23ACBE504B0304140006080800B670623B3610CA3329010000120200003100
310
00006662782F42384135303843342D343331462D343546312D424341352D3532343432364645413344462F636F72652E786D6C8D515B6EC32010BC0AE22B55850D0E446E848992B43E412FE000495162B07854397EA176A4F62F3F2C9A9D991D58BEBB8F37F0AD7D30CE76905418026DA553C65E3A98E219B510EC04F7CEC5
310
3F3408EC30EA0E16180A7EF12E4D0B249D8DDAC68C5AA7F4020E21E80881BCE54B0783FCD2E3500D296646B856D320AFC34557A4CAEDCC133C449F0380794839A138B47B86DB2345744D7A44594FD0E1B867883594369BFE63BF7EEF793D0B054FC9A8456E548E63CE46FB674D8A58F068C6477CE9F510B582A2C1F80D1182
310
70F349E816B32D65AFB8DD62CCEB42FF274A937A52948C8DEB66893BCB021484D7734370E5D2E9F608A3EF93F3119479ABA0E50B14B8C298119A43CCC4FCFCECB8A18B6388CEE7EF5D5D4F994BD86CBBA182D76543B9FCAE2FD7B24DF103504B0304140006080800B670623B1B8617914E0100003303000030000000666278
310
2F42384135303843342D343331462D343546312D424341352D3532343432364645413344462F636E782E786D6CD593C16EC32010447F0571AD6CE3D489D20813A9877E410FBD62D82434182CC055F3F75D1292E692438FBD206B7698593D61BEFD1E2DF982108D773D6D6B460938E5B571FB9ECE6957AD29D90A1EBC4F7736
310
4A9C1CA1A759A682EF839FA72269D8C9D92654AD71C72206887E0E0A22CAF926B15E498B01E0AA19451807D01A34B919F16B070157417138917400F2F6FA41FCF0092A45DEE414C19BDC21783E4BD39D891265658C3D8DEA00A3ACE59CBC8678ACB54CB26EEB6BD7839D7E9348BE70AD9C8321B9BCA7F9A4A26C542347DEE0
310
50F09802D22BA6749A800A394DD62899107273365E3C82CFC6A55557BC06C10774B7ABE7AEC3B0F34CF06446280E154026D0542C187BA9DAB6628BF7B6DBB0E5A65B3EB1F58631DE64BBE083F7B65CC218087E22CABB042E51D1F2268F1FE12B3EA24D40D63E9CFE00120194D60B9D5BC67FE6D39CDF37E20AF817881F504B
310
0304140006080800B670623BBFEF2E3B690500003C100000340000006662782F42384135303843342D343331462D343546312D424341352D3532343432364645413344462F6F626A656374732E786D6CAD575D739B3814FD2B0CFB0C98D84E931D4227B6938EA793B6534F3BFB90198F0099B001899144EAECAFDF231018B0
310
D37A3FFC609090EEE7B94757C1FB7D915B2F54C88CB31BDB7727B64559CC938CA53776A576CE956DBD0F03C1B9EA2DB32D460A7A63EB693B0C52C1ABD24C257447AA5C8D66EF177F5832A68CDA569C13296F6C193FD182B8A4523CA1F2D94D88226EBADBBBBEDB2C1C8A4D05299F46424B222853B014F30C52ACC6287F389C
310
D85E1878FA7B18E87FB36AFAF62AAFF667A83F635211161F291B8999FAB3D5DDC5FCDA99CF6653677679E13B8BFBC5CAF1DF4D27CBCBE5F2FAF6EE1A8AA51290642C117467871F101B91C581D77CEA2C36869F3229E68CD1B8F61F1ED6361B89092D294B90C78C4A68EB793D190E7D1D9BDEE7A91E1B95FDE9F3BCEAEFE809
310
6A6D6F9F7D4B79F4275C90E7A04248AA51D5C4C738DAE06F72885AC4796EBE65D22A88A22223B995679120E2D50EB1542F098381188D4EA111AE3DB043FF20AF6F2B4AE3D7D83D65E5AECA730D4D3BAC91BD05FEA992B565D95F549CD6069B90AB2A63EACA38A45E4B6A87D781574F86817E4C2FCCC72690D62E2729520E37
310
9BAF234797BAF6D62B3BFC781FED37BA1E4F2B2F052FA9501A3E80569BB8F6A9A364D4FA67654E6F803383981F82F21591FF84F23D9882BC896C3FDBCF8C162508933B2E0AE4C69DD43F6BD2BE38DDDBF10BF86CB4FA784D37F3AF16075E67EC9030DECA1FC0A55373F5DFF3378C591FA9BDF485C10B0A8C8BA909E5262639
310
A8E72163488806A595734C81CB77D1DE0ED7604A303B76913CEC0272F412782FF88EFF4636D8AA56DF7B322474C4B767303F625997056C7B032C473C592B36CEBD15F3F9FF5233B7ABCDC74D257624A60F8658567497B14CE1EC3C80B76FD02011038F9EE9EB0F2E12387A9C844D3F09855125116D1D731DF8B43D2CF4E0A0
310
79A020C6BE946BCE0B7EA1E1219331CD73C228AF5A2DDD31A4B1DA918CE91350854D40A71723140BFA92E94E62B0626016CEFA5864A50E5977E8753CEDBEE1CBB7F52780D20E17AF0BA0F5F9B02A3AD07DCC732EB6D1EBB661421BE0C39E21BABF0FE16D22EA6929407C8DE596724C88B749B6DB5512BC7B228ADFD7CB7EA6
310
3A22397E690BA8D5D8D4E40CEC8CDA23C2C0B7D5898640101CEC9C6D331CE328CB93CAFBBAC70A642DF70DF95155945B52F08AA973C23469FD69ADEF84F7BB18F983A8F8C90E37F5D35980B2139A1C523540813E824EF83448CF7C72B598CE97D7CEEDDDDD3B6736BFBC771677EF66CE6A7E7139F7A793E9EDF2B2B3A8B624
310
0CDA13AA5F8388264EC4A0129909F3B7F5A16CEDF08128E97D680ACA4B9BE7B7B58BB638F0B00700EF36AE8B32A705658A68F83EE897FC2B41573190D1CCAF0B92D233A47CFEB019D9809933F67DD1A5467F8CF69AD9A5AE859342D45355448C64F968A371DC2D596ADC6E43D93D1B466F877A64E2893E54F23C4B40388995
310
525E5005DA3983ED45412510D3EFCA13737B3863F74BD30F2A12E5B4B5E489A025CE25500DB855B11ACE5BBFA185D35DD48D8DC3CE7DC69F2944DB42AA6F6CF09BCA622ADD08C7A36E7C6AE18000BAB08E040135C2D21C9D75B3A91B77BB746C403F38018DFE6EC939DD92F16B40BC05294B9CDA035AAD6D330AE27FE4786B
310
8E45145EA34A75BE1C263A676A35A8ACC6297337400BF16C54EF515F3F77CB77EB3583889C754FFA29081AA98E2222ADEF05DA3E63D2EDEA8B8756C05A7FB6CABC4A91CBF325398202CC952E70A008A830324BA200D5E5EF8F5F04C75DB4B0EE3340E071C98B823333B83577596BF3849B69F2085AA0FAFA212F26BEFF5877
310
FDE622B28D88A42E49E43326DA82D31E8CB006401E1DA726059ECEC168F97A6599036306A135688F9AD2E61A6EA178F4CD51974A9F2CCB9F36FE5EBD14601068D9C3BF01504B0304140006080000B670623B000000000000000000000000350000006662782F42384135303843342D343331462D343546312D424341352D35
310
32343432364645413344462F76657274696365732E62696E504B0304140006080800B670623BF270F1330600000004000000360000006662782F42384135303843342D343331462D343546312D424341352D3532343432364645413344462F747269616E676C65732E62696E636660600000504B0304140006080000B67062
310
3B000000000000000000000000370000006662782F42384135303843342D343331462D343546312D424341352D3532343432364645413344462F617474726962757465732E62696E504B0304140006080800B670623B08DA0BD19000000041010000360000006662782F42384135303843342D343331462D343546312D4243
310
41352D3532343432364645413344462F6469726563746F72792E786D6C858F410AC3201045AF22B36F53E9A60B35CBEEBAE80D244E44489C6234F4F835464A48035D0DF398FF9F8AF63D0E6CC63039F212F8F9020C7D47C6792B21C5FE7403D62A1188E2E60C98D7234A5830286103A55745067B9D86B8A3CF9C7F90C11DE6
310
07FB144396D7B6A82D282E9A152AD114D5EF2CB866EEE831B8EEA07A7BB5A8D7D61A2BAAEB7FD5F70921FF497D00504B0304140006080800B670623B3B4606F3FE000000A00100003B0000006662782F42384135303843342D343331462D343546312D424341352D3532343432364645413344462F7265736F75726365732F
310
636F72652E786D6C8D504B6E833010BD0A9A6D65B08134808CA354A427E8052C332156828DFCA97AFC9A40A576D7CDCCE87D344F8F9FBEE647F689CE6B6B7A6039850C8DB2A336530F315C4903D94970676DF82583CCC8197B5861107C72362E3BA4AC096842428D1D7107A5F71820538F74F4E0D50D6799CB1892C2DFF345
310
AABB9C306779A2934E701F5C0A906D4FD609C2A1B7D129F4BCD858C163D4E3AED163FAA9AF1A1D88F67CA98E6D35906AA82A52BFB39ABCD5CD915C86331BD86BD3B665CD8BD52C78D0F34F46E550061C419494B6843142CB0F5677F4D0D58717DA7494F26295FF31C565FCA7296A13AA728FBBD93C0896823C09C18BB5AFB4
310
9E65A6BD762BBE01504B010214000A0000080000B670623B3DEE336E79000000790000001B00000000000000000000000000000000006175746F6465736B2D64657369676E2D7061636B6167652E786D6C504B01021400140006080800B670623BD486FD9CA0000000F40000001300000000000000000000000000B2000000
310
5B436F6E74656E745F54797065735D2E786D6C504B01021400140006080800B670623B28ED286BEB0000007C010000080000000000000000000000000083010000636F72652E786D6C504B01021400140006080800B670623B55019EA25F0000007C000000070000000000000000000000000094020000636E782E786D6C50
310
4B01021400140006080800B670623B7BC41AC871010000D40300000C00000000000000000000000000180300006662782F636F72652E786D6C504B01021400140006080800B670623B70102A487D0000009D0000000B00000000000000000000000000B30400006662782F636E782E786D6C504B01021400140006080800B6
310
70623B3610CA3329010000120200003100000000000000000000000000590500006662782F42384135303843342D343331462D343546312D424341352D3532343432364645413344462F636F72652E786D6C504B01021400140006080800B670623B1B8617914E010000330300003000000000000000000000000000D10600
310
006662782F42384135303843342D343331462D343546312D424341352D3532343432364645413344462F636E782E786D6C504B01021400140006080800B670623BBFEF2E3B690500003C10000034000000000000000000000000006D0800006662782F42384135303843342D343331462D343546312D424341352D35323434
310
32364645413344462F6F626A656374732E786D6C504B01021400140006080000B670623B0000000000000000000000003500000000000000000000000000280E00006662782F42384135303843342D343331462D343546312D424341352D3532343432364645413344462F76657274696365732E62696E504B010214001400
310
06080800B670623BF270F133060000000400000036000000000000000000000000007B0E00006662782F42384135303843342D343331462D343546312D424341352D3532343432364645413344462F747269616E676C65732E62696E504B01021400140006080000B670623B00000000000000000000000037000000000000
310
00000000000000D50E00006662782F42384135303843342D343331462D343546312D424341352D3532343432364645413344462F617474726962757465732E62696E504B01021400140006080800B670623B08DA0BD1900000004101000036000000000000000000000000002A0F00006662782F42384135303843342D3433
310
31462D343546312D424341352D3532343432364645413344462F6469726563746F72792E786D6C504B01021400140006080800B670623B3B4606F3FE000000A00100003B000000000000000000000000000E1000006662782F42384135303843342D343331462D343546312D424341352D3532343432364645413344462F72
310
65736F75726365732F636F72652E786D6C504B0506000000000E000E0080040000651100000000
  0
XRECORD
  5
187
102
{ACAD_REACTORS
330
186
102
}
330
186
100
AcDbXrecord
280
     1
 70
     1
 90
429727718
  1
887D55A9-D0DD-414E-B741-A7DCD4DA2B4C
310
504B03040A0000080000B670623B3DEE336E79000000790000001B0000006175746F6465736B2D64657369676E2D7061636B6167652E786D6C3C3F786D6C2076657273696F6E3D22312E302220656E636F64696E673D227574662D3822203F3E3C666F726D6174733E3C666F726D61743E687474703A2F2F736368656D612E
310
6175746F6465736B2E636F6D2F64657369676E2D7061636B6167652F323030393C2F666F726D61743E3C2F666F726D6174733E504B0304140006080800B670623BD486FD9CA0000000F4000000130000005B436F6E74656E745F54797065735D2E786D6C7D8EC10E82300C865F65E91D8A1E8C310C0EEA1BF002731658846E
310
D98AC1B77784ABF1D8FE5FBFBF75BBCE937A534CCEB38643598122B6FEE978D0B0485F9C41B54DDD7D022595594E1A469170414C76A4D9A4D207E29CF43ECE46F218070CC6BECC4078ACAA135ACF422C856C0E68EA1BF5669944DDD7BCDE7B1F8E415D77AECB980613C2E4AC91FC167A2B244592486606FC29C8FD7F045B9A
310
EF7053A7E60B504B0304140006080800B670623BBC1638F5EC0000007C01000008000000636F72652E786D6C8D90416EC3201045AF82665B61836BE2D8C24471DB9CA01740401C94182C03558F5F9C3852BBEB6A467FFE9B197D7EF89E6EE8CB2CC17AD7032D0820E394D7D68D3DA478C67B4007C117EFE32F1B202727D3C3
310
2A83E0E3E2D3BC49CABB685CCCAAF3DA6CA20CC14440EA969B1E82BA98491632C5EC08D76296EA2A4753D06797E194AC468F2356E77DF66CCD02825543D50CACC62D39ED70FDC68EB8FD68F6F8787A6784342D1DDA1D2F5758F068A7E77DB518198D065111D2624A31A93E69DD11D6D5EC85EC3B4278B9DAFF4069D6FF8492
310
75F1B5DADE7D600104CD8FDC0782976B16B9DC83CA75CD4DFC00504B0304140006080800B670623B55019EA25F0000007C00000007000000636E782E786D6C4DCB3B0E80201045D1AD90E915ED2CF8AC45050C11660C8261F98AB1B07AC9C97D42D718D865D3E909258CFD00CCE24AC6E326A164D74DC0B4128928FF326038
310
472BA13128B1252AC747C6BAB984FC68F0B87FE8960A5C09FE86CFB69FBA01504B0304140006080800B670623B3586FFB671010000D40300000C0000006662782F636F72652E786D6CC553ED6E8320147D15C2DF4541A76D6D90A6DDD627D80B50A4CE54C120983EFEAE1F4DD7A55BBA5FF3879273EEE59E7310B6393735EA
310
95ED2AA3731C851423A5A5292A5DE6D8BB63B0C268C39935C67D29C3488B46E578803167A535BE9D2169B453DA01AA4DA16650749D7218C91A1639EEE4876A4428BC838AEE14B6429E44A9C228041AEA38EB9C0501681A32BC313F1ECE8C4C3867DE57C5CC56054CAB8E95B298A7F12E5EEED224C8E87E11242FE936C8DE96
310
AB60BB7F4D295D66D12E5B30323473E6AAE6A24E5A259C2A308F29CD82280A68FC1E256B9AAE93F489AED694323294DF34F9B678B0C957DA3DC7B3DCA9ADC33C022123F1CD2D44E450277AD04338234388F01913BE0D1A0281909D38D4171F27807A259DB1093085F157AA17B557309586747CD0CF0B46A64E983A6E0EAEEF
310
CE881F9EF1FB8E70D44297604238581EBC1B74B249C31C5AAB6CD0BB33D2C636A27ECCC62F0EFF445DC5DF95244D6DEC7F2922F30191F9F720C37DE49F504B0304140006080800B670623B4220A0FF7D0000009D0000000B0000006662782F636E782E786D6C4DCCD10A83201886E15B91FFDCE542CB0335D0EC3E6259C84A
310
C3E9D8E5AF46073BFAE0E1E315DD675BD1DBA5978F41C2FD4600B9F088930F8B849267CC01754AA418F3DF0D50183727E164506249B1EC174D6E1ECB9A0F5D7D785E68DB8151CD286E5A5363CA6B8A39E90D36D40E96B086F55A43A544F52B1D7B86D517504B0304140006080800B670623B2FA3FEDE290100001202000031
310
0000006662782F45374635344235342D363743322D343832342D383044432D4334454645303536354442422F636F72652E786D6C8D515B6EC32010BC0AE22B55850D2E386E848994D7097A0117488A1283C5A3CAF10BB523B57FF961D1ECCCECC0F2ED7DBC816FED8371B687A4C210682B9D32F6D2C314CFA883602BB8772E
310
FEA141608751F7B0C050F08B77695A20E96CD43666D43AA5177008414708E42D5F7A18E4971E876A483133C2B59A06791D2EBA22556E679EE021FA1C00CC43CA09C5717D6274C7286AD7FB06D1AEA1A8C3873DDAD3E3E98859CB0EBB1DAF67A1E02919B5C88DCA71CCD968FFAC49110B1ECDF8882FBD1EA256503418BF2342
310
106E3E08DD60B6A1EC15771B8C795DE8FF4469524F8A92B1F1AD59E2CEB20005E1F5DC105CB9F4797B84D1F7C9F908CABC55D0F2050A5C61CC1AD2F27A26E6E767C7962E8E213A9FBF7775FDCC5CC266DB960A5E970DE5F2BBBE5CCB36C50F504B0304140006080800B670623B1B8617914E01000033030000300000006662
310
782F45374635344235342D363743322D343832342D383044432D4334454645303536354442422F636E782E786D6CD593C16EC32010447F0571AD6CE3D489D20813A9877E410FBD62D82434182CC055F3F75D1292E692438FBD206B7698593D61BEFD1E2DF982108D773D6D6B460938E5B571FB9ECE6957AD29D90A1EBC4F77
310
364A9C1CA1A759A682EF839FA72269D8C9D92654AD71C72206887E0E0A22CAF926B15E498B01E0AA19451807D01A34B919F16B070157417138917400F2F6FA41FCF0092A45DEE414C19BDC21783E4BD39D891265658C3D8DEA00A3ACE59CBC8678ACB54CB26EEB6BD7839D7E9348BE70AD9C8321B9BCA7F9A4A26C542347DE
310
E050F09802D22BA6749A800A394DD62899107273365E3C82CFC6A55557BC06C10774B7ABE7AEC3B0F34CF06446280E154026D0542C187BA9DAB6628BF7B6DBB0E5A65B3EB1F58631DE64BBE083F7B65CC218087E22CABB042E51D1F2268F1FE12B3EA24D40D63E9CFE00120194D60B9D5BC67FE6D39CDF37E20AF817881F50
310
4B0304140006080800B670623B29652116630500003C100000340000006662782F45374635344235342D363743322D343832342D383044432D4334454645303536354442422F6F626A656374732E786D6CAD575D739B3814FD2B0CFB0C989834C90EA1639B24E3E9A6EDD4D3CE3E64C623834CD8006224913AFDF57B040203
310
B65BEF871F0C12D2FD3CF7E8CA7FBFCB33E3957291B2E2D674ED8969D02262715A24B76625B7D6B569BC0F7CCE98EC2D338D82E4F4D654D366E0279C55A59E8AE99654991CCDDECFFF3444440B6A1A514684B83545F44C7362934AB2988A173B2692D8C97667BB76B3702836E1A47C1E092D09A78584A5982F20C5688C7287
310
C389E904BEA3BE07BEFAD7ABA6A75739B53F43FD69212429A20365233153D70BEF2E2E6FAC4BCF9B5ADEBB0BD79ADFCF43CBBD9A4E16EF168B9BD9DD0D140BC921495BC2E9D60C1E101B9E46BED37CEA2CD6861F3329624541A3DA7F7858DBAC25C6B4A4458C3CA654405BCFEBC970E8AAD8F43E4FD558ABEC4F9FE7557F47
310
4F506B7BFBEC5BCA367FC105710E2AB8A00A554D7CB4A30DFE26FBA86D18CBF4B75418399194A72433B274C3097F33032C554B027F2046A1932B842B0FCCC0DDCBEBDB8AD2F835768F59B9ADB24C41D30C6A64AF817F2A456D59FA83F2E3DA60137255A585BCD60EC9B7929AC18DEFD49381AF1ED30BFDB109A4B1CD488294
310
C3CDE6EBC8D185AABD6568061FEE37BB95AAC7E3CA4BCE4ACAA5820FA0D526AE7DAA2869B5EE5999531BE0CC20E6FBA07C41E43FA27CF7A6206F3CDD793B4F6B919C1462CB788EDCD893FA674CDA17AB7B3B7C019F8D561FAEE966FED562DFE98C1D12C6A9FC015C2A35D7FF3D7FC398F591DA4B5FE0BFA2C0189FEA50AE22
310
92817A1ED3020951A03432862970F976B33383259812CC8E5D240BBA801CBCF8CE2BBEE3BF910DB6AAD5F79E05123AE2DB33981FB1ACCB02B69D00CB014FD68AB573A7627EF9BFD4CC2C5C7D58557C4B22FAA88925A4DBB44825CECE3D78FB060D1231F0E885BE7D673C86A3874958F593906B5502D1563157814FDAC3420D
310
F69A070A22EC4B98E23CFF171A1E5311D12C23056555ABA53B8614563B92D17D02AAB009E8F46284624E5F53D5490C560CCCC2591FF1B45421EB0EBD8EA7ED13BE7C5D7E0428CD60FEF60779EB13E6664FF711CB185F6FDED60D139A001FF60CD1FD6D086F1D51474901E26B2CB794A343BC8ED3EDB612E0DD2351FCB65CF4
310
33D511C9E14B5B40ADC6A6263DB0336A8F700DDF56271A024E70B0B3629DE21847591E55DED73D56206AB927E46FAABC5C939C55853C274C93D69FD6FA4E78BF8B11DF898C9ECD60553FAD39283BA6F18984AA23E8884F83F45C5F5F859797B31B2B9C84A1E5B9DE9D35BFF25C6B76152E422F9C5DCC3D847F5801ED09D5AF
310
41441327A25FF15487F9EB725FB666F048A4701E9A827292E6F97569A32DF61DEC01C0BB8DCBBCCC684E0B49147C1FD54BF685A0AB18C868E6973949E819523E3DAC463660E68C7D9F55A9D1EFA3BD7A76A16AE1A810F95CE59B82A4D968A376DC2E8B44BBDD86B27B368CDE0ED548C7137DA860591A83706223A12CA712B4
310
7306DBF39C0A20A6DF95C7FAF670C6EED7A61F946493D1D6926782963813403548A78AE470DEF80D2D9CEAA26E4D1C76F60BFE74219A06527D6B82DF641A51616F703CAAC6A7160E08A00BEB4810A0274592A1B36E3675E36E978A0DE80727A0D6DF2D39A75BD27E0D8837276589537B40ABB56D5A41F48F1C6FCD3188C4EB
310
A6929D2FFB89CE995A4D00AE813BDD032DC48B56BD437DFDDC2DD7AED70C2272D63DE9A72068A45A92F0A4BE17A8A06B9366E16707AD80B1FC649459952097E74BB23805982B55E0401150A165964402AA8BDF9F3E7386BB686EDCA780C0D382E5392BF460A6EFB2C6EA1937D3F809B440D5F5435C4C5CF7A9EEFAF54564BD
310
2182DA24162F98680B4E7930C21A0079709CEAEB99A372305ABE0C0D7D6078105A83F6A0296DAEE1068A47DD1C55A9F4C9B2FC69E3EFD44B81028E963DF81B504B0304140006080000B670623B000000000000000000000000350000006662782F45374635344235342D363743322D343832342D383044432D433445464530
310
3536354442422F76657274696365732E62696E504B0304140006080800B670623BF270F1330600000004000000360000006662782F45374635344235342D363743322D343832342D383044432D4334454645303536354442422F747269616E676C65732E62696E636660600000504B0304140006080000B670623B00000000
310
0000000000000000370000006662782F45374635344235342D363743322D343832342D383044432D4334454645303536354442422F617474726962757465732E62696E504B0304140006080800B670623B08DA0BD19000000041010000360000006662782F45374635344235342D363743322D343832342D383044432D4334
310
454645303536354442422F6469726563746F72792E786D6C858F410AC3201045AF22B36F53E9A60B35CBEEBAE80D244E44489C6234F4F835464A48035D0DF398FF9F8AF63D0E6CC63039F212F8F9020C7D47C6792B21C5FE7403D62A1188E2E60C98D7234A5830286103A55745067B9D86B8A3CF9C7F90C11DE607FB144396
310
D7B6A82D282E9A152AD114D5EF2CB866EEE831B8EEA07A7BB5A8D7D61A2BAAEB7FD5F70921FF497D00504B0304140006080800B670623B6378F24DFF000000A00100003B0000006662782F45374635344235342D363743322D343832342D383044432D4334454645303536354442422F7265736F75726365732F636F72652E
310
786D6C8D504B6E833010BD0A9A6D65B0094E42641C85B639412F6099496225D8C89FAAC7AF09546A77DDCC8CDE47F3F4C4F16B7C149FE88371B603565228D06A37187BED20C50BD9437194C23B177FC9A0B06AC40E6618A4B87A97A615D2CE46B431A3D60DB8822A048C50E8473E3A08FA86A32A558A5911EEE5A4F45D5DB1
310
6465A6B34E8A107D0E502C4FE609D26370C96B0CA25A58295232C3AA3143FE692E063D485EF7F5AEE71BD2D2F39634AFFC44DAF7DD9E9CCE6F9CD25DCBFA762BAAD92C4534E34F46ED51451C40D694B6843142EB0FD61C283F34FC85EE0F948A6A96FF31A569F8A729191B37F51A77B105902C0779125254735F793DCBCC7B
310
EE567E03504B010214000A0000080000B670623B3DEE336E79000000790000001B00000000000000000000000000000000006175746F6465736B2D64657369676E2D7061636B6167652E786D6C504B01021400140006080800B670623BD486FD9CA0000000F40000001300000000000000000000000000B20000005B436F6E
310
74656E745F54797065735D2E786D6C504B01021400140006080800B670623BBC1638F5EC0000007C010000080000000000000000000000000083010000636F72652E786D6C504B01021400140006080800B670623B55019EA25F0000007C000000070000000000000000000000000095020000636E782E786D6C504B010214
310
00140006080800B670623B3586FFB671010000D40300000C00000000000000000000000000190300006662782F636F72652E786D6C504B01021400140006080800B670623B4220A0FF7D0000009D0000000B00000000000000000000000000B40400006662782F636E782E786D6C504B01021400140006080800B670623B2F
310
A3FEDE290100001202000031000000000000000000000000005A0500006662782F45374635344235342D363743322D343832342D383044432D4334454645303536354442422F636F72652E786D6C504B01021400140006080800B670623B1B8617914E010000330300003000000000000000000000000000D2060000666278
310
2F45374635344235342D363743322D343832342D383044432D4334454645303536354442422F636E782E786D6C504B01021400140006080800B670623B29652116630500003C10000034000000000000000000000000006E0800006662782F45374635344235342D363743322D343832342D383044432D4334454645303536
310
354442422F6F626A656374732E786D6C504B01021400140006080000B670623B0000000000000000000000003500000000000000000000000000230E00006662782F45374635344235342D363743322D343832342D383044432D4334454645303536354442422F76657274696365732E62696E504B01021400140006080800
310
B670623BF270F13306000000040000003600000000000000000000000000760E00006662782F45374635344235342D363743322D343832342D383044432D4334454645303536354442422F747269616E676C65732E62696E504B01021400140006080000B670623B0000000000000000000000003700000000000000000000
310
000000D00E00006662782F45374635344235342D363743322D343832342D383044432D4334454645303536354442422F617474726962757465732E62696E504B01021400140006080800B670623B08DA0BD190000000410100003600000000000000000000000000250F00006662782F45374635344235342D363743322D34
310
3832342D383044432D4334454645303536354442422F6469726563746F72792E786D6C504B01021400140006080800B670623B6378F24DFF000000A00100003B00000000000000000000000000091000006662782F45374635344235342D363743322D343832342D383044432D4334454645303536354442422F7265736F75
310
726365732F636F72652E786D6C504B0506000000000E000E0080040000611100000000
  0
XRECORD
  5
112
102
{ACAD_REACTORS
330
110
102
}
330
110
100
AcDbXrecord
280
     1
270
     1
271
     1
  0
XRECORD
  5
111
102
{ACAD_REACTORS
330
110
102
}
330
110
100
AcDbXrecord
280
     1
270
     1
271
     1
  0
XRECORD
  5
18A
102
{ACAD_REACTORS
330
110
102
}
330
110
100
AcDbXrecord
280
     1
 70
     0
 90
1778669749
  1
9BF507EE-FAF7-4A99-A33D-4EE51894BC40
310
504B03040A0000080000B670623B3DEE336E79000000790000001B0000006175746F6465736B2D64657369676E2D7061636B6167652E786D6C3C3F786D6C2076657273696F6E3D22312E302220656E636F64696E673D227574662D3822203F3E3C666F726D6174733E3C666F726D61743E687474703A2F2F736368656D612E
310
6175746F6465736B2E636F6D2F64657369676E2D7061636B6167652F323030393C2F666F726D61743E3C2F666F726D6174733E504B0304140006080800B670623BD486FD9CA0000000F4000000130000005B436F6E74656E745F54797065735D2E786D6C7D8EC10E82300C865F65E91D8A1E8C310C0EEA1BF002731658846E
310
D98AC1B77784ABF1D8FE5FBFBF75BBCE937A534CCEB38643598122B6FEE978D0B0485F9C41B54DDD7D022595594E1A469170414C76A4D9A4D207E29CF43ECE46F218070CC6BECC4078ACAA135ACF422C856C0E68EA1BF5669944DDD7BCDE7B1F8E415D77AECB980613C2E4AC91FC167A2B244592486606FC29C8FD7F045B9A
310
EF7053A7E60B504B0304140006080800B670623BCA089DFFEC0000007C01000008000000636F72652E786D6C8D90416E83301045AF62CDB632D8402020E32882F604BD80653BC44AB011B6AB1EBF262152BBEB6A467FFE9B197D76FA9EEFE84BAFDE38DB03CD08206DA553C64E3DC470C1474027CE56E7C22F1B202B66DDC3
310
260367D3EAE2B24BD2D9A06D48AA754AEFA2F05E0740F29E9A1EBCBCEA59642286E4F0B76C11F226269DD15797E0188D42CF2346A57DE662F40ABCAEC77628C6120F654571D50C04B7F5B9C1E3997CD4F550BE3745C3F20DE62C98F9755FAE5A04AD801784B498524C8A4F5A75E4D055873772EC0861F966FF03C545FD138A
310
C686B2D8DF7D621E384D8F3C069CE55B16A93C824A75CB8DFF00504B0304140006080800B670623B55019EA25F0000007C00000007000000636E782E786D6C4DCB3B0E80201045D1AD90E915ED2CF8AC45050C11660C8261F98AB1B07AC9C97D42D718D865D3E909258CFD00CCE24AC6E326A164D74DC0B4128928FF326038
310
472BA13128B1252AC747C6BAB984FC68F0B87FE8960A5C09FE86CFB69FBA01504B0304140006080800B670623B68FC0B7272010000D40300000C0000006662782F636F72652E786D6CC5535B6E833010BC8AE5DF0A6C1E8124328E22D29EA01770C0A128602363A31CBFCB234A53A555FA553EC09AD9F5CE8C31DB5DDA060D
310
D2F4B556190E7C8A9154852E6B5565D8D993B7C668C799D1DA7E29C3488956667884316795D1AE5BA0422B2B950554E9522EA0E87B69312A1A5864B82F3E642B7CE12C54F467BF13C55954D20F7CA0A18EB3DE1A1080E621E31BF3D3F1C2C88C73E65C5D2E6C5DC2B4FA544B8379921C36797888BC3C8A032F4E73EA6D927D
310
EA1DF6F42D49F2E8350D5346C666CE6CDD5ED515460A2B4BCC434A375E1078347C0FE22D5D6DE3D50B5D6F2965642CBF6B725DF96493AB958DC245EEDCD6631E809089F8E61622B2A81703E8219C913144F84C09DF070D8140C8561C9BAB8F3340832CAC363130A576376A108D933095FA747AD0CF0B46E64E983A6D0EAE1F
310
CE089F9EF1FB8E70D44255604258581E9D1D75B259C3125A278D37D80B52DAB4A279CEC62F0EFF44DDC43F9454E8469BFF5244960322CBEF41C6FBC83F01504B0304140006080800B670623B0F71DDB67E0000009D0000000B0000006662782F636E782E786D6C4DCCD10A83201886E15B91FFDCA54DB73F502386BB8F5816
310
32D3703976F9ABD1C18E3E78F87855FB990379BBFCF2296AE02706C4C5471A7C9C349475A408A4352AA7B4FEDD80C47E761A7606A3A69CCA72D0E0C6BE8475D3E0E3F3409428EA6B27A84079A782899AA2EC1A7AE3ECCC2FD858CB2D544655BFD2B67BD87C01504B0304140006080800B670623BE134B4FB28010000120200
310
00310000006662782F38353834323741342D343835462D343034322D383541392D4331303331363839454531452F636F72652E786D6C8D515B6EC32010BC0AE22B55850D0EA424C24451959EA0172086A42831583CAA1CBF503B52FB971F16CDCECC0EACD8DFC71BF836215AEF7A481A0C817183D7D65D7A98D3197108F652
310
04EFD31F1A044E8DA6871586525C82CFD3020DDE25E352419DD76601558C264130DCCAA58771F832A36A544E8511AFCDA486ABBA988634A55D7852C4144A00300FA927949C71DABD1D28A29C7D208A6987383B6CD13BC16BB2E1DBE3911C453B0BA5C8D9EA456E758963CFD684674DAA588A64C747FC2118958C86B2C3788B
310
0841B8FB247487D98EB257CC77188BB6D2FF89F2A49F1465EBD2BA5BE2CEB2082511EDDC9042FB7CBA3DC298FBE4430275DE2A9AE1054ADC60CC08E3A29D89E5F9C5714317C7987C28DFBBBA9E0A97B0D97643A568EB864AF95D5FA9759BF207504B0304140006080800B670623B1B8617914E010000330300003000000066
310
62782F38353834323741342D343835462D343034322D383541392D4331303331363839454531452F636E782E786D6CD593C16EC32010447F0571AD6CE3D489D20813A9877E410FBD62D82434182CC055F3F75D1292E692438FBD206B7698593D61BEFD1E2DF982108D773D6D6B460938E5B571FB9ECE6957AD29D90A1EBC4F
310
77364A9C1CA1A759A682EF839FA72269D8C9D92654AD71C72206887E0E0A22CAF926B15E498B01E0AA19451807D01A34B919F16B070157417138917400F2F6FA41FCF0092A45DEE414C19BDC21783E4BD39D891265658C3D8DEA00A3ACE59CBC8678ACB54CB26EEB6BD7839D7E9348BE70AD9C8321B9BCA7F9A4A26C542347
310
DEE050F09802D22BA6749A800A394DD62899107273365E3C82CFC6A55557BC06C10774B7ABE7AEC3B0F34CF06446280E154026D0542C187BA9DAB6628BF7B6DBB0E5A65B3EB1F58631DE64BBE083F7B65CC218087E22CABB042E51D1F2268F1FE12B3EA24D40D63E9CFE00120194D60B9D5BC67FE6D39CDF37E20AF817881F
310
504B0304140006080800B670623B5933D422630500003B100000340000006662782F38353834323741342D343835462D343034322D383541392D4331303331363839454531452F6F626A656374732E786D6CAD575B6FA33814FE2B887D0642934E9B156594264D158D3A534DD4D13E548A0C38942D60649B4EBABF7E3F8321
310
40924EF6928780CDF1B97EE762EFF32E4B8D37CA45C2F21BD3B547A641F39045491EDF98A5DC5AD7A6F1D9F73863B243661A39C9E88DA9B64DDF8B392B0BBD15D12D295339D85DDEFE618890E6D434C2940871638AF08566C426A5641115AF764424B1E3EDCE76ED9AB0CF36E6A47819302D08A7B984A6D8CFC1C5A89572FB
310
CB91E9F89EA3BEFB9EFAD754E3D3544E654F5F7E920B49F2F040D880CDD89D2CEE2E2EA7D6E56432B6269F2E5CEB7679BBB0DCABF168FE693E9FCEEEA6102C240727AD09A75BD3BF876F78127A4EFDA9D5582B7E4CA590E5390D2BFB6161A5B3E618D182E611E2985001691DAB47FDA5AB7CD3F93C566B2DB2BB7D9E55DD13
310
1D468DEECDB3AB290BFE8409E21C54704115AA6AFF68436BFC8DF65E0B184BF5B74418199194272435D224E084BF9B3E481589EFF5D828747285706581E9BB7B7E5D5D911ABFC6EE312DB7659A2A689A7E85EC0DF04FA5A8344BFEA2FCB834E8845895492EAFB541F2BDA0A63FF59C6AD3F7D4637CA13FD68E34B629891172
310
98597F1D183A57B9B75A98FE9765B05BAB7C3C2EBCE0ACA05C2AF8005A4DE09AA7F29216EB9E15397500C6F47CBE77CA7778FE2BD277AF0AE2C693DD6437D1522427B9D8329E2136F6A8FA19A3E6C56ADF0E5F50CF06D48734EDCEBF22F69C56D97EC138153F804B85E6FABFC7AFEFB32E523BE1F3BD372418E363EDCA7548
310
52949E8724474014288D94610BB57C1BEC4C7F854A89CA8E5324F55B871CBC78CE1BBEE3BFE68D6A5589EF3C730474506FCFA8FCF0659516D0ED04580EEA6425581B77CAE797FF4BCECC16EB2FEB926F49481F746159D06D922712BD730FDEAE42BD40F42C7AA5EF3F198F60E86110D6DD20645A9480B795CF95E3E3A659A8
310
C55E724F408873315335CFFB8584874484344D494E59D94869DB90C26A5B64F49C802CAC1D3ABE18A098D3B7444D123D8A9E5AE8F5214F0AE5B2B6E9B575DA3E61CBD3EA2B4009FA940524DD1305FB6A1FB294F14DF0BEA90BA109ECE1481FDC3FFAE8D60E75141700BE82725371B4873751B2DD960265F788137FACE6DD40
310
B575E4F0A5C99F46629D92131467A41EE11ABD8D4CCC039CA0AFB37C93A08B232B8F0AEFCA1E0A1015DF13FC83322B362463652ECF71D3A8B1A7D1BE65DE1D62C44F22C317D35F574FEB16153BA2D13E543D10A80E74C4A65E78A6B7CBCBD1D5DD9DB59C2DAFACC96C3AB566E3F1C29ADCDD5DBAD7D3C9ED7C822ED74F80A6
310
41755310DE4443F44A9E68373FADF6596BFA0F440AE7BECE2727AE9F4F2B1B53B1E7E00CF0DD1E5C65454A339A4BA2D0FBA05ED2EF0443458F47BDBFCA484CCFE0F2ED7E3DD0013B679C7B5499467F0ECEEADDB9CA85A34CE44B99053949D2C1416DB85DE4B136BB7165FBAC0B7AB3542BED4F8CA182A549847A1319316519
310
95A83A67147B9E5101C47487F2485F1ECE38FD568F839204296D3479219888530154036E6528FBFBC66F98E0D4107563A2D7D9AFF8D389681A08F58D89F22693900A3B407754734FC51C10C010D6D640809EE4718AC1BA3ED4AEDB53CA37283F68805A7E4B72CEB0A4EDEAD5DD8C14059A76AFAA56BA6901E13F32BC51C720
310
12AF41295B5BF61BAD3195181FB506E6B40F4C10AF5AF40EF9F5B159AE5DD1F43C72D635E94310D45C2D49785C5D0B94D3B54AB3C5A38349C0587D338AB48C11CBF339599C02CCA54A70A008A8D03C0B2201D5F9EFCF8F9CE12A9A19CB0410789EB32C63B95ECCF455D658BFE0621A3DA32C5075FB101723D77DAE867E7D0F
310
D90444509B44E2151B4DC2290B065803200FBAA9BE9D392A0603F2D5C2D00D6302A615680F66D2FA166E2079D4C551A54AB758161FCEFD4E450A14704CECFEDF504B0304140006080000B670623B000000000000000000000000350000006662782F38353834323741342D343835462D343034322D383541392D4331303331
310
363839454531452F76657274696365732E62696E504B0304140006080800B670623BF270F1330600000004000000360000006662782F38353834323741342D343835462D343034322D383541392D4331303331363839454531452F747269616E676C65732E62696E636660600000504B0304140006080000B670623B000000
310
000000000000000000370000006662782F38353834323741342D343835462D343034322D383541392D4331303331363839454531452F617474726962757465732E62696E504B0304140006080800B670623B08DA0BD19000000041010000360000006662782F38353834323741342D343835462D343034322D383541392D43
310
31303331363839454531452F6469726563746F72792E786D6C858F410AC3201045AF22B36F53E9A60B35CBEEBAE80D244E44489C6234F4F835464A48035D0DF398FF9F8AF63D0E6CC63039F212F8F9020C7D47C6792B21C5FE7403D62A1188E2E60C98D7234A5830286103A55745067B9D86B8A3CF9C7F90C11DE607FB1443
310
96D7B6A82D282E9A152AD114D5EF2CB866EEE831B8EEA07A7BB5A8D7D61A2BAAEB7FD5F70921FF497D00504B0304140006080800B670623BD9A3B367FE000000A00100003B0000006662782F38353834323741342D343835462D343034322D383541392D4331303331363839454531452F7265736F75726365732F636F7265
310
2E786D6C8D504B6E833010BD0A9A6D65B01D0201194711694FD00B586642AD043BF2A7EAF16B122AB5BB6E6646EFA3797AE2F8B5DC8A4FF4C1383B002B291468B59B8C9D0748F1420E501CA5F0CEC55F3228AC5A708015062966EFD27D83B4B3116DCCA875136EA00A012314FA968F0182FEC045952AC5AC08D7F2AEF455CD
310
58B232D3592745883E07289E4FD609D26370C96B0CA27AB252A464A64D63A6FCD35C0C7A904D73EE467EE664DCD58CD4ED4849D79C5A723ED1B7A61977AF2D6F45B59AA58866F9C9A83DAA8813484E6947182394BFB3BAA7FBBEDEBFD0434FA9A856F91F53BA4FFF342563E38E6F719FB60092E5200F428A6AED2BAF479979
310
AFDDCA6F504B010214000A0000080000B670623B3DEE336E79000000790000001B00000000000000000000000000000000006175746F6465736B2D64657369676E2D7061636B6167652E786D6C504B01021400140006080800B670623BD486FD9CA0000000F40000001300000000000000000000000000B20000005B436F6E
310
74656E745F54797065735D2E786D6C504B01021400140006080800B670623BCA089DFFEC0000007C010000080000000000000000000000000083010000636F72652E786D6C504B01021400140006080800B670623B55019EA25F0000007C000000070000000000000000000000000095020000636E782E786D6C504B010214
310
00140006080800B670623B68FC0B7272010000D40300000C00000000000000000000000000190300006662782F636F72652E786D6C504B01021400140006080800B670623B0F71DDB67E0000009D0000000B00000000000000000000000000B50400006662782F636E782E786D6C504B01021400140006080800B670623BE1
310
34B4FB280100001202000031000000000000000000000000005C0500006662782F38353834323741342D343835462D343034322D383541392D4331303331363839454531452F636F72652E786D6C504B01021400140006080800B670623B1B8617914E010000330300003000000000000000000000000000D3060000666278
310
2F38353834323741342D343835462D343034322D383541392D4331303331363839454531452F636E782E786D6C504B01021400140006080800B670623B5933D422630500003B10000034000000000000000000000000006F0800006662782F38353834323741342D343835462D343034322D383541392D4331303331363839
310
454531452F6F626A656374732E786D6C504B01021400140006080000B670623B0000000000000000000000003500000000000000000000000000240E00006662782F38353834323741342D343835462D343034322D383541392D4331303331363839454531452F76657274696365732E62696E504B01021400140006080800
310
B670623BF270F13306000000040000003600000000000000000000000000770E00006662782F38353834323741342D343835462D343034322D383541392D4331303331363839454531452F747269616E676C65732E62696E504B01021400140006080000B670623B0000000000000000000000003700000000000000000000
310
000000D10E00006662782F38353834323741342D343835462D343034322D383541392D4331303331363839454531452F617474726962757465732E62696E504B01021400140006080800B670623B08DA0BD190000000410100003600000000000000000000000000260F00006662782F38353834323741342D343835462D34
310
3034322D383541392D4331303331363839454531452F6469726563746F72792E786D6C504B01021400140006080800B670623BD9A3B367FE000000A00100003B000000000000000000000000000A1000006662782F38353834323741342D343835462D343034322D383541392D4331303331363839454531452F7265736F75
310
726365732F636F72652E786D6C504B0506000000000E000E0080040000611100000000
  0
XRECORD
  5
113
102
{ACAD_REACTORS
330
110
102
}
330
110
100
AcDbXrecord
280
     1
270
     1
271
     1
  0
XRECORD
  5
114
102
{ACAD_REACTORS
330
110
102
}
330
110
100
AcDbXrecord
280
     1
270
     1
271
     1
  0
CELLSTYLEMAP
  5
67410
102
{ACAD_REACTORS
330
104
102
}
330
104
100
AcDbCellStyleMap
 90
        3
300
CELLSTYLE
  1
TABLEFORMAT_BEGIN
 90
        5
170
     1
 91
        0
 92
    32768
 62
   257
 93
        1
300
CONTENTFORMAT
  1
CONTENTFORMAT_BEGIN
 90
        0
 91
        0
 92
      512
 93
        0
300

 40
0.0
140
1.0
 94
        5
 62
     0
340
11
144
0.25
309
CONTENTFORMAT_END
171
     1
301
MARGIN
  1
CELLMARGIN_BEGIN
 40
0.06
 40
0.06
 40
0.06
 40
0.06
 40
0.18
 40
0.18
309
CELLMARGIN_END
 94
        6
 95
        1
302
GRIDFORMAT
  1
GRIDFORMAT_BEGIN
 90
        0
 91
        1
 62
     0
 92
       -2
340
0
 93
        0
 40
0.045
309
GRIDFORMAT_END
 95
        2
302
GRIDFORMAT
  1
GRIDFORMAT_BEGIN
 90
        0
 91
        1
 62
     0
 92
       -2
340
0
 93
        0
 40
0.045
309
GRIDFORMAT_END
 95
        4
302
GRIDFORMAT
  1
GRIDFORMAT_BEGIN
 90
        0
 91
        1
 62
     0
 92
       -2
340
0
 93
        0
 40
0.045
309
GRIDFORMAT_END
 95
        8
302
GRIDFORMAT
  1
GRIDFORMAT_BEGIN
 90
        0
 91
        1
 62
     0
 92
       -2
340
0
 93
        0
 40
0.045
309
GRIDFORMAT_END
 95
       16
302
GRIDFORMAT
  1
GRIDFORMAT_BEGIN
 90
        0
 91
        1
 62
     0
 92
       -2
340
0
 93
        0
 40
0.045
309
GRIDFORMAT_END
 95
       32
302
GRIDFORMAT
  1
GRIDFORMAT_BEGIN
 90
        0
 91
        1
 62
     0
 92
       -2
340
0
 93
        0
 40
0.045
309
GRIDFORMAT_END
309
TABLEFORMAT_END
  1
CELLSTYLE_BEGIN
 90
        1
 91
        1
300
_TITLE
309
CELLSTYLE_END
300
CELLSTYLE
  1
TABLEFORMAT_BEGIN
 90
        5
170
     1
 91
        0
 92
        0
 62
   257
 93
        1
300
CONTENTFORMAT
  1
CONTENTFORMAT_BEGIN
 90
        0
 91
        0
 92
      512
 93
        0
300

 40
0.0
140
1.0
 94
        5
 62
     0
340
11
144
0.18
309
CONTENTFORMAT_END
171
     1
301
MARGIN
  1
CELLMARGIN_BEGIN
 40
0.06
 40
0.06
 40
0.06
 40
0.06
 40
0.18
 40
0.18
309
CELLMARGIN_END
 94
        6
 95
        1
302
GRIDFORMAT
  1
GRIDFORMAT_BEGIN
 90
        0
 91
        1
 62
     0
 92
       -2
340
0
 93
        0
 40
0.045
309
GRIDFORMAT_END
 95
        2
302
GRIDFORMAT
  1
GRIDFORMAT_BEGIN
 90
        0
 91
        1
 62
     0
 92
       -2
340
0
 93
        0
 40
0.045
309
GRIDFORMAT_END
 95
        4
302
GRIDFORMAT
  1
GRIDFORMAT_BEGIN
 90
        0
 91
        1
 62
     0
 92
       -2
340
0
 93
        0
 40
0.045
309
GRIDFORMAT_END
 95
        8
302
GRIDFORMAT
  1
GRIDFORMAT_BEGIN
 90
        0
 91
        1
 62
     0
 92
       -2
340
0
 93
        0
 40
0.045
309
GRIDFORMAT_END
 95
       16
302
GRIDFORMAT
  1
GRIDFORMAT_BEGIN
 90
        0
 91
        1
 62
     0
 92
       -2
340
0
 93
        0
 40
0.045
309
GRIDFORMAT_END
 95
       32
302
GRIDFORMAT
  1
GRIDFORMAT_BEGIN
 90
        0
 91
        1
 62
     0
 92
       -2
340
0
 93
        0
 40
0.045
309
GRIDFORMAT_END
309
TABLEFORMAT_END
  1
CELLSTYLE_BEGIN
 90
        2
 91
        1
300
_HEADER
309
CELLSTYLE_END
300
CELLSTYLE
  1
TABLEFORMAT_BEGIN
 90
        5
170
     1
 91
        0
 92
        0
 62
   257
 93
        1
300
CONTENTFORMAT
  1
CONTENTFORMAT_BEGIN
 90
        0
 91
        0
 92
      512
 93
        0
300

 40
0.0
140
1.0
 94
        2
 62
     0
340
11
144
0.18
309
CONTENTFORMAT_END
171
     1
301
MARGIN
  1
CELLMARGIN_BEGIN
 40
0.06
 40
0.06
 40
0.06
 40
0.06
 40
0.18
 40
0.18
309
CELLMARGIN_END
 94
        6
 95
        1
302
GRIDFORMAT
  1
GRIDFORMAT_BEGIN
 90
        0
 91
        1
 62
     0
 92
       -2
340
0
 93
        0
 40
0.045
309
GRIDFORMAT_END
 95
        2
302
GRIDFORMAT
  1
GRIDFORMAT_BEGIN
 90
        0
 91
        1
 62
     0
 92
       -2
340
0
 93
        0
 40
0.045
309
GRIDFORMAT_END
 95
        4
302
GRIDFORMAT
  1
GRIDFORMAT_BEGIN
 90
        0
 91
        1
 62
     0
 92
       -2
340
0
 93
        0
 40
0.045
309
GRIDFORMAT_END
 95
        8
302
GRIDFORMAT
  1
GRIDFORMAT_BEGIN
 90
        0
 91
        1
 62
     0
 92
       -2
340
0
 93
        0
 40
0.045
309
GRIDFORMAT_END
 95
       16
302
GRIDFORMAT
  1
GRIDFORMAT_BEGIN
 90
        0
 91
        1
 62
     0
 92
       -2
340
0
 93
        0
 40
0.045
309
GRIDFORMAT_END
 95
       32
302
GRIDFORMAT
  1
GRIDFORMAT_BEGIN
 90
        0
 91
        1
 62
     0
 92
       -2
340
0
 93
        0
 40
0.045
309
GRIDFORMAT_END
309
TABLEFORMAT_END
  1
CELLSTYLE_BEGIN
 90
        3
 91
        2
300
_DATA
309
CELLSTYLE_END
  0
ENDSEC
  0
SECTION
  2
ACDSDATA
 70
     2
 71
     8
  0
ACDSSCHEMA
 90
        0
  1
AcDb_Thumbnail_Schema
  2
AcDbDs::ID
280
    10
 91
        8
  2
Thumbnail_Data
280
    15
 91
        0
101
ACDSRECORD
 95
        0
 90
        1
  2
AcDbDs::TreatedAsObjectData
280
     1
291
     1
101
ACDSRECORD
 95
        0
 90
        2
  2
AcDbDs::Legacy
280
     1
291
     1
101
ACDSRECORD
  1
AcDbDs::ID
 90
        3
  2
AcDs:Indexable
280
     1
291
     1
101
ACDSRECORD
  1
AcDbDs::ID
 90
        4
  2
AcDbDs::HandleAttribute
280
     7
282
     1
  0
ACDSSCHEMA
 90
        1
  1
AcDbDs::TreatedAsObjectDataSchema
  2
AcDbDs::TreatedAsObjectData
280
     1
 91
        0
  0
ACDSSCHEMA
 90
        2
  1
AcDbDs::LegacySchema
  2
AcDbDs::Legacy
280
     1
 91
        0
  0
ACDSSCHEMA
 90
        3
  1
AcDbDs::IndexedPropertySchema
  2
AcDs:Indexable
280
     1
 91
        0
  0
ACDSSCHEMA
 90
        4
  1
AcDbDs::HandleAttributeSchema
  2
AcDbDs::HandleAttribute
280
     7
 91
        1
284
     1
  0
ACDSSCHEMA
 90
        5
  1
AcDb3DSolid_ASM_Data
  2
AcDbDs::ID
280
    10
 91
        8
  2
ASM_Data
280
    15
 91
        0
101
ACDSRECORD
 95
        5
 90
        1
  2
AcDbDs::TreatedAsObjectData
280
     1
291
     1
101
ACDSRECORD
 95
        5
 90
        2
  2
AcDbDs::Legacy
280
     1
291
     1
101
ACDSRECORD
  1
AcDbDs::ID
 90
        3
  2
AcDs:Indexable
280
     1
291
     1
101
ACDSRECORD
  1
AcDbDs::ID
 90
        4
  2
AcDbDs::HandleAttribute
280
     7
282
     1
  0
ACDSRECORD
 90
        0
  2
AcDbDs::ID
280
    10
320
22
  2
Thumbnail_Data
280
    15
 94
     1666
310
89504E470D0A1A0A0000000D49484452000001000000006C0803000000B2ED9CC100000300504C5445212830FFFFFF2128300000000000000000000000000000000000000000000000000000330000660000990000CC0000FF0033000033330033660033990033CC0033FF0066000066330066660066990066CC0066FF0099
310
000099330099660099990099CC0099FF00CC0000CC3300CC6600CC9900CCCC00CCFF00FF0000FF3300FF6600FF9900FFCC00FFFF3300003300333300663300993300CC3300FF3333003333333333663333993333CC3333FF3366003366333366663366993366CC3366FF3399003399333399663399993399CC3399FF33CC00
310
33CC3333CC6633CC9933CCCC33CCFF33FF0033FF3333FF6633FF9933FFCC33FFFF6600006600336600666600996600CC6600FF6633006633336633666633996633CC6633FF6666006666336666666666996666CC6666FF6699006699336699666699996699CC6699FF66CC0066CC3366CC6666CC9966CCCC66CCFF66FF0066
310
FF3366FF6666FF9966FFCC66FFFF9900009900339900669900999900CC9900FF9933009933339933669933999933CC9933FF9966009966339966669966999966CC9966FF9999009999339999669999999999CC9999FF99CC0099CC3399CC6699CC9999CCCC99CCFF99FF0099FF3399FF6699FF9999FFCC99FFFFCC0000CC00
310
33CC0066CC0099CC00CCCC00FFCC3300CC3333CC3366CC3399CC33CCCC33FFCC6600CC6633CC6666CC6699CC66CCCC66FFCC9900CC9933CC9966CC9999CC99CCCC99FFCCCC00CCCC33CCCC66CCCC99CCCCCCCCCCFFCCFF00CCFF33CCFF66CCFF99CCFFCCCCFFFFFF0000FF0033FF0066FF0099FF00CCFF00FFFF3300FF3333
310
FF3366FF3399FF33CCFF33FFFF6600FF6633FF6666FF6699FF66CCFF66FFFF9900FF9933FF9966FF9999FF99CCFF99FFFFCC00FFCC33FFCC66FFCC99FFCCCCFFCCFFFFFF00FFFF33FFFF66FFFF99FFFFCCFFFFFF0000000D0D0D1A1A1A2828283535354343435050505D5D5D6B6B6B787878868686939393A1A1A1AEAEAEBB
310
BBBBC9C9C9D6D6D6E4E4E4F1F1F1FFFFFF0000000000000000000000000000000000000000000000000000000000002E4550F1000001634944415478DAED9BCB72C2301004F7FFFF77EE297044EC5816962E2133DD557040EC615BD25A0FA802000000000000000000804F43F2C842F3110D8FFC67F390D30858E848598D80
310
4712D302DACB640AD4FC14D056396C04AC960D93A7C08280168200042020514021000108400002C205F89C07AC0B28135605140210902D20BD06B4F7D875809C044CF37D969A2DC0A6126E53E094CB28B96788998053215085093876F938B526C0EC31B84B5A3742FC04B48BE2F723DB56C0D6F5BA17622AE0E7D66BB0E537
310
16703481808B9BD30C01BBB28880500117FB80B422D8DB0AA508B80890CAE7507CD4931A9E08D99C896994E8E808A122050C56072102DE8420C04A40A70501084040928073539A80F369F96B2F902AA0967E60FE7F05FC6E8C9B0217AB2104244D01E9CE67CE35205A40F7BF417102E247C07125142540DD6F070B50190AD0
310
FDDDE0EEBAC428FD4136FD7B212B0100000000000000000000F0F77C015593AD5B220BCA400000000049454E44AE4260829E009C02AB882400670008AA1A09C01F803DB482842B007804B0C60D91CF2F9E2F7FB1C23DC1579225015C3F890CE05202B8F9242E001C5FF3827301006B5440D9FC87A325E680CBB4BF3A80E341
310
024800126BCED8DCCAFE0BC89323148B0004169DB1773E315BC236EF7D16429C74C0FC8810FAB822E4686C54F4D26BA9A9E2DD7790D975BD451A1FD53D220800A0797E05CB04E203000DE41FA502A8BD05F61574D1160836078CE58FF12DE253CECF072C2F70EA6F011040B1F60060AF8009C658FE140940F746886607B0F5
310
F2D84660BD1618B88A08D2027100640B8C5D0B2DBC0AC45A06BBF6C2581840B855A0358D18E98F251203406F1A612A80B202BAD38891FF580B500000D49D4988F37FAC813E72214627000A3582A5C338FE00598ED82311F33F3A0000000049454E44AE4260820F467818FD4AC64A010000000049454E44AE42608200187F52
310
539FF6AC0FF2D01229B97F7B56AE64E8787DBF9E93B283504D4929EEDB336DE133B927D0B706F146D8FDD54728002424931276690CDE5FFA471401522320E6FA719CDCC9E90D234F422DA512220CD4066298BF969A4028B717C4D481E25C1BC6C59A99842240E2F24B1F92F8AC20F021F00EFE737AFD0FDF7E00E9E9886BC5
310
1247A50000000049454E44AE426082
  0
ENDSEC
  0
EOF
