  0
SECTION
  2
HEADER
  9
$ACADVER
  1
AC1032
  9
$ACADMAINTVER
 90
      197
  9
$DWGCODEPAGE
  3
ANSI_1252
  9
$LASTSAVEDBY
  1
gregb
  9
$REQUIREDVERSIONS
160
                 0
  9
$INSBASE
 10
0.0
 20
0.0
 30
0.0
  9
$EXTMIN
 10
156904.6112522652
 20
108375.2253516922
 30
-864.1266728261671
  9
$EXTMAX
 10
157978.0223022431
 20
110276.6040016876
 30
0.0280978851196778
  9
$LIMMIN
 10
0.0
 20
0.0
  9
$LIMMAX
 10
12.0
 20
9.0
  9
$ORTHOMODE
 70
     0
  9
$REGENMODE
 70
     1
  9
$FILLMODE
 70
     1
  9
$QTEXTMODE
 70
     0
  9
$MIRRTEXT
 70
     0
  9
$LTSCALE
 40
1.0
  9
$ATTMODE
 70
     1
  9
$TEXTSIZE
 40
0.2
  9
$TRACEWID
 40
0.05
  9
$TEXTSTYLE
  7
Standard
  9
$CLAYER
  8
freecads.com
  9
$CELTYPE
  6
ByLayer
  9
$CECOLOR
 62
   256
  9
$CELTSCALE
 40
1.0
  9
$DISPSILH
 70
     1
  9
$DIMSCALE
 40
1.0
  9
$DIMASZ
 40
0.18
  9
$DIMEXO
 40
0.0625
  9
$DIMDLI
 40
0.38
  9
$DIMRND
 40
0.0
  9
$DIMDLE
 40
0.0
  9
$DIMEXE
 40
0.18
  9
$DIMTP
 40
0.0
  9
$DIMTM
 40
0.0
  9
$DIMTXT
 40
0.18
  9
$DIMCEN
 40
0.09
  9
$DIMTSZ
 40
0.0
  9
$DIMTOL
 70
     0
  9
$DIMLIM
 70
     0
  9
$DIMTIH
 70
     1
  9
$DIMTOH
 70
     1
  9
$DIMSE1
 70
     0
  9
$DIMSE2
 70
     0
  9
$DIMTAD
 70
     0
  9
$DIMZIN
 70
     0
  9
$DIMBLK
  1

  9
$DIMASO
 70
     1
  9
$DIMSHO
 70
     1
  9
$DIMPOST
  1

  9
$DIMAPOST
  1

  9
$DIMALT
 70
     0
  9
$DIMALTD
 70
     2
  9
$DIMALTF
 40
25.4
  9
$DIMLFAC
 40
1.0
  9
$DIMTOFL
 70
     0
  9
$DIMTVP
 40
0.0
  9
$DIMTIX
 70
     0
  9
$DIMSOXD
 70
     0
  9
$DIMSAH
 70
     0
  9
$DIMBLK1
  1

  9
$DIMBLK2
  1

  9
$DIMSTYLE
  2
Standard
  9
$DIMCLRD
 70
     0
  9
$DIMCLRE
 70
     0
  9
$DIMCLRT
 70
     0
  9
$DIMTFAC
 40
1.0
  9
$DIMGAP
 40
0.09
  9
$DIMJUST
 70
     0
  9
$DIMSD1
 70
     0
  9
$DIMSD2
 70
     0
  9
$DIMTOLJ
 70
     1
  9
$DIMTZIN
 70
     0
  9
$DIMALTZ
 70
     0
  9
$DIMALTTZ
 70
     0
  9
$DIMUPT
 70
     0
  9
$DIMDEC
 70
     4
  9
$DIMTDEC
 70
     4
  9
$DIMALTU
 70
     2
  9
$DIMALTTD
 70
     2
  9
$DIMTXSTY
  7
Standard
  9
$DIMAUNIT
 70
     0
  9
$DIMADEC
 70
     0
  9
$DIMALTRND
 40
0.0
  9
$DIMAZIN
 70
     0
  9
$DIMDSEP
 70
    46
  9
$DIMATFIT
 70
     3
  9
$DIMFRAC
 70
     0
  9
$DIMLDRBLK
  1

  9
$DIMLUNIT
 70
     2
  9
$DIMLWD
 70
    -2
  9
$DIMLWE
 70
    -2
  9
$DIMTMOVE
 70
     0
  9
$DIMFXL
 40
1.0
  9
$DIMFXLON
 70
     0
  9
$DIMJOGANG
 40
0.7853981633974483
  9
$DIMTFILL
 70
     0
  9
$DIMTFILLCLR
 70
     0
  9
$DIMARCSYM
 70
     0
  9
$DIMLTYPE
  6

  9
$DIMLTEX1
  6

  9
$DIMLTEX2
  6

  9
$DIMTXTDIRECTION
 70
     0
  9
$LUNITS
 70
     2
  9
$LUPREC
 70
     4
  9
$SKETCHINC
 40
0.1
  9
$FILLETRAD
 40
0.0
  9
$AUNITS
 70
     0
  9
$AUPREC
 70
     0
  9
$MENU
  1
.
  9
$ELEVATION
 40
0.0
  9
$PELEVATION
 40
0.0
  9
$THICKNESS
 40
0.0
  9
$LIMCHECK
 70
     0
  9
$CHAMFERA
 40
0.0
  9
$CHAMFERB
 40
0.0
  9
$CHAMFERC
 40
0.0
  9
$CHAMFERD
 40
0.0
  9
$SKPOLY
 70
     0
  9
$TDCREATE
 40
2458157.454583334
  9
$TDUCREATE
 40
2458157.287916667
  9
$TDUPDATE
 40
2460668.824398148
  9
$TDUUPDATE
 40
2460668.657731481
  9
$TDINDWG
 40
0.2090856481
  9
$TDUSRTIMER
 40
0.2090856481
  9
$USRTIMER
 70
     1
  9
$ANGBASE
 50
0.0
  9
$ANGDIR
 70
     0
  9
$PDMODE
 70
     0
  9
$PDSIZE
 40
0.0
  9
$PLINEWID
 40
0.0
  9
$SPLFRAME
 70
     0
  9
$SPLINETYPE
 70
     6
  9
$SPLINESEGS
 70
     8
  9
$HANDSEED
  5
67412
  9
$SURFTAB1
 70
     6
  9
$SURFTAB2
 70
     6
  9
$SURFTYPE
 70
     6
  9
$SURFU
 70
     6
  9
$SURFV
 70
     6
  9
$UCSBASE
  2

  9
$UCSNAME
  2

  9
$UCSORG
 10
0.0
 20
0.0
 30
0.0
  9
$UCSXDIR
 10
1.0
 20
0.0
 30
0.0
  9
$UCSYDIR
 10
0.0
 20
1.0
 30
0.0
  9
$UCSORTHOREF
  2

  9
$UCSORTHOVIEW
 70
     0
  9
$UCSORGTOP
 10
0.0
 20
0.0
 30
0.0
  9
$UCSORGBOTTOM
 10
0.0
 20
0.0
 30
0.0
  9
$UCSORGLEFT
 10
0.0
 20
0.0
 30
0.0
  9
$UCSORGRIGHT
 10
0.0
 20
0.0
 30
0.0
  9
$UCSORGFRONT
 10
0.0
 20
0.0
 30
0.0
  9
$UCSORGBACK
 10
0.0
 20
0.0
 30
0.0
  9
$PUCSBASE
  2

  9
$PUCSNAME
  2

  9
$PUCSORG
 10
0.0
 20
0.0
 30
0.0
  9
$PUCSXDIR
 10
1.0
 20
0.0
 30
0.0
  9
$PUCSYDIR
 10
0.0
 20
1.0
 30
0.0
  9
$PUCSORTHOREF
  2

  9
$PUCSORTHOVIEW
 70
     0
  9
$PUCSORGTOP
 10
0.0
 20
0.0
 30
0.0
  9
$PUCSORGBOTTOM
 10
0.0
 20
0.0
 30
0.0
  9
$PUCSORGLEFT
 10
0.0
 20
0.0
 30
0.0
  9
$PUCSORGRIGHT
 10
0.0
 20
0.0
 30
0.0
  9
$PUCSORGFRONT
 10
0.0
 20
0.0
 30
0.0
  9
$PUCSORGBACK
 10
0.0
 20
0.0
 30
0.0
  9
$USERI1
 70
     0
  9
$USERI2
 70
     0
  9
$USERI3
 70
     0
  9
$USERI4
 70
     0
  9
$USERI5
 70
     0
  9
$USERR1
 40
0.0
  9
$USERR2
 40
0.0
  9
$USERR3
 40
0.0
  9
$USERR4
 40
0.0
  9
$USERR5
 40
0.0
  9
$WORLDVIEW
 70
     1
  9
$SHADEDGE
 70
     3
  9
$SHADEDIF
 70
    70
  9
$TILEMODE
 70
     1
  9
$MAXACTVP
 70
    64
  9
$PINSBASE
 10
0.0
 20
0.0
 30
0.0
  9
$PLIMCHECK
 70
     0
  9
$PEXTMIN
 10
0.0
 20
0.0
 30
0.0
  9
$PEXTMAX
 10
0.0
 20
0.0
 30
0.0
  9
$PLIMMIN
 10
0.0
 20
0.0
  9
$PLIMMAX
 10
12.0
 20
9.0
  9
$UNITMODE
 70
     0
  9
$VISRETAIN
 70
     1
  9
$PLINEGEN
 70
     0
  9
$PSLTSCALE
 70
     1
  9
$TREEDEPTH
 70
  3020
  9
$CMLSTYLE
  2
Standard
  9
$CMLJUST
 70
     0
  9
$CMLSCALE
 40
1.0
  9
$PROXYGRAPHICS
 70
     1
  9
$MEASUREMENT
 70
     0
  9
$CELWEIGHT
370
    -1
  9
$ENDCAPS
280
     0
  9
$JOINSTYLE
280
     0
  9
$LWDISPLAY
290
     0
  9
$INSUNITS
 70
     1
  9
$HYPERLINKBASE
  1

  9
$STYLESHEET
  1
monochrome.ctb
  9
$XEDIT
290
     1
  9
$CEPSNTYPE
380
     0
  9
$PSTYLEMODE
290
     1
  9
$FINGERPRINTGUID
  2
{358EB121-6EE0-9143-8A3E-6E8E8869FDA6}
  9
$VERSIONGUID
  2
{2B8FAEC5-3472-504C-8C37-53DE2F08B69C}
  9
$EXTNAMES
290
     1
  9
$PSVPSCALE
 40
0.0
  9
$OLESTARTUP
290
     0
  9
$SORTENTS
280
   127
  9
$INDEXCTL
280
     0
  9
$HIDETEXT
280
     1
  9
$XCLIPFRAME
280
     2
  9
$HALOGAP
280
     0
  9
$OBSCOLOR
 70
   257
  9
$OBSLTYPE
280
     0
  9
$INTERSECTIONDISPLAY
280
     0
  9
$INTERSECTIONCOLOR
 70
   257
  9
$DIMASSOC
280
     2
  9
$PROJECTNAME
  1

  9
$CAMERADISPLAY
290
     0
  9
$LENSLENGTH
 40
50.0
  9
$CAMERAHEIGHT
 40
0.0
  9
$STEPSPERSEC
 40
2.0
  9
$STEPSIZE
 40
6.0
  9
$3DDWFPREC
 40
2.0
  9
$PSOLWIDTH
 40
0.25
  9
$PSOLHEIGHT
 40
4.0
  9
$LOFTANG1
 40
1.570796326794896
  9
$LOFTANG2
 40
1.570796326794896
  9
$LOFTMAG1
 40
0.0
  9
$LOFTMAG2
 40
0.0
  9
$LOFTPARAM
 70
     7
  9
$LOFTNORMALS
280
     1
  9
$LATITUDE
 40
37.795
  9
$LONGITUDE
 40
-122.394
  9
$NORTHDIRECTION
 40
0.0
  9
$TIMEZONE
 70
 -8000
  9
$LIGHTGLYPHDISPLAY
280
     1
  9
$TILEMODELIGHTSYNCH
280
     1
  9
$CMATERIAL
347
96
  9
$SOLIDHIST
280
     0
  9
$SHOWHIST
280
     1
  9
$DWFFRAME
280
     2
  9
$DGNFRAME
280
     0
  9
$REALWORLDSCALE
290
     1
  9
$INTERFERECOLOR
 62
     1
  9
$INTERFEREOBJVS
345
A3
  9
$INTERFEREVPVS
346
A0
  9
$CSHADOW
280
     0
  9
$SHADOWPLANELOCATION
 40
0.0
  0
ENDSEC
  0
SECTION
  2
CLASSES
  0
CLASS
  1
ACDBDICTIONARYWDFLT
  2
AcDbDictionaryWithDefault
  3
ObjectDBX Classes
 90
        0
 91
        1
280
     0
281
     0
  0
CLASS
  1
DICTIONARYVAR
  2
AcDbDictionaryVar
  3
ObjectDBX Classes
 90
        0
 91
       27
280
     0
281
     0
  0
CLASS
  1
TABLESTYLE
  2
AcDbTableStyle
  3
ObjectDBX Classes
 90
     4095
 91
        1
280
     0
281
     0
  0
CLASS
  1
MATERIAL
  2
AcDbMaterial
  3
ObjectDBX Classes
 90
     1153
 91
        3
280
     0
281
     0
  0
CLASS
  1
VISUALSTYLE
  2
AcDbVisualStyle
  3
ObjectDBX Classes
 90
     4095
 91
       25
280
     0
281
     0
  0
CLASS
  1
SCALE
  2
AcDbScale
  3
ObjectDBX Classes
 90
     1153
 91
       34
280
     0
281
     0
  0
CLASS
  1
MLEADERSTYLE
  2
AcDbMLeaderStyle
  3
ACDB_MLEADERSTYLE_CLASS
 90
     4095
 91
        1
280
     0
281
     0
  0
CLASS
  1
CELLSTYLEMAP
  2
AcDbCellStyleMap
  3
ObjectDBX Classes
 90
     1152
 91
        1
280
     0
281
     0
  0
CLASS
  1
EXACXREFPANELOBJECT
  2
ExAcXREFPanelObject
  3
EXAC_ESW
 90
     1025
 91
        1
280
     0
281
     0
  0
CLASS
  1
NPOCOLLECTION
  2
AcDbImpNonPersistentObjectsCollection
  3
ObjectDBX Classes
 90
     1153
 91
        1
280
     0
281
     0
  0
CLASS
  1
LAYER_INDEX
  2
AcDbLayerIndex
  3
ObjectDBX Classes
 90
        0
 91
        0
280
     0
281
     0
  0
CLASS
  1
SPATIAL_INDEX
  2
AcDbSpatialIndex
  3
ObjectDBX Classes
 90
        0
 91
        0
280
     0
281
     0
  0
CLASS
  1
IDBUFFER
  2
AcDbIdBuffer
  3
ObjectDBX Classes
 90
        0
 91
        0
280
     0
281
     0
  0
CLASS
  1
ACDBSECTIONVIEWSTYLE
  2
AcDbSectionViewStyle
  3
ObjectDBX Classes
 90
     1025
 91
        2
280
     0
281
     0
  0
CLASS
  1
ACDBDETAILVIEWSTYLE
  2
AcDbDetailViewStyle
  3
ObjectDBX Classes
 90
     1025
 91
        2
280
     0
281
     0
  0
CLASS
  1
SORTENTSTABLE
  2
AcDbSortentsTable
  3
ObjectDBX Classes
 90
        0
 91
        1
280
     0
281
     0
  0
CLASS
  1
ACAD_EVALUATION_GRAPH
  2
AcDbEvalGraph
  3
ObjectDBX Classes
 90
     1153
 91
        0
280
     0
281
     0
  0
CLASS
  1
BLOCKLINEARPARAMETER
  2
AcDbBlockLinearParameter
  3
ObjectDBX Classes
 90
     1153
 91
        0
280
     0
281
     0
  0
CLASS
  1
BLOCKLINEARGRIP
  2
AcDbBlockLinearGrip
  3
ObjectDBX Classes
 90
     1153
 91
        0
280
     0
281
     0
  0
CLASS
  1
BLOCKGRIPLOCATIONCOMPONENT
  2
AcDbBlockGripExpr
  3
ObjectDBX Classes
 90
     1153
 91
        0
280
     0
281
     0
  0
CLASS
  1
BLOCKSTRETCHACTION
  2
AcDbBlockStretchAction
  3
ObjectDBX Classes
 90
     1153
 91
        0
280
     0
281
     0
  0
CLASS
  1
ACDB_DYNAMICBLOCKPURGEPREVENTER_VERSION
  2
AcDbDynamicBlockPurgePreventer
  3
ObjectDBX Classes
 90
     1153
 91
        0
280
     0
281
     0
  0
CLASS
  1
BLOCKVISIBILITYPARAMETER
  2
AcDbBlockVisibilityParameter
  3
ObjectDBX Classes
 90
     1153
 91
        0
280
     0
281
     0
  0
CLASS
  1
BLOCKVISIBILITYGRIP
  2
AcDbBlockVisibilityGrip
  3
ObjectDBX Classes
 90
     1153
 91
        0
280
     0
281
     0
  0
CLASS
  1
ACDB_BLOCKREPRESENTATION_DATA
  2
AcDbBlockRepresentationData
  3
ObjectDBX Classes
 90
     1153
 91
        0
280
     0
281
     0
  0
CLASS
  1
SURFACE
  2
AcDbSurface
  3
ObjectDBX Classes
 90
     4095
 91
        0
280
     0
281
     1
  0
CLASS
  1
ACDBASSOCPERSSUBENTMANAGER
  2
AcDbAssocPersSubentManager
  3
ObjectDBX Classes
 90
     1024
 91
        1
280
     0
281
     0
  0
CLASS
  1
BLOCKARRAYACTION
  2
AcDbBlockArrayAction
  3
ObjectDBX Classes
 90
     1153
 91
        0
280
     0
281
     0
  0
CLASS
  1
BLOCKLOOKUPPARAMETER
  2
AcDbBlockLookupParameter
  3
ObjectDBX Classes
 90
     1153
 91
        0
280
     0
281
     0
  0
CLASS
  1
BLOCKLOOKUPGRIP
  2
AcDbBlockLookupGrip
  3
ObjectDBX Classes
 90
     1153
 91
        0
280
     0
281
     0
  0
CLASS
  1
BLOCKLOOKUPACTION
  2
AcDbBlockLookupAction
  3
ObjectDBX Classes
 90
     1153
 91
        0
280
     0
281
     0
  0
CLASS
  1
WIPEOUT
  2
AcDbWipeout
  3
WipeOut|Product Desc: Object Enabler for WipeOut entity | Company: Autodesk, Inc. | WEB Address: www.autodesk.com
 90
     2175
 91
        0
280
     0
281
     1
  0
CLASS
  1
WIPEOUTVARIABLES
  2
AcDbWipeoutVariables
  3
"WipeOut|Product Desc:     WipeOut Dbx Application|Company:          Autodesk, Inc.|WEB Address:      www.autodesk.com"
 90
        0
 91
        1
280
     0
281
     0
  0
ENDSEC
  0
SECTION
  2
TABLES
  0
TABLE
  2
VPORT
  5
8
330
0
100
AcDbSymbolTable
 70
     1
  0
VPORT
  5
94
330
8
100
AcDbSymbolTableRecord
100
AcDbViewportTableRecord
  2
*Active
 70
     0
 10
0.0
 20
0.0
 11
1.0
 21
1.0
 12
157231.7598925832
 22
109422.4883967539
 13
0.0
 23
0.0
 14
0.5
 24
0.5
 15
0.5
 25
0.5
 16
0.0
 26
0.0
 36
1.0
 17
0.0
 27
0.0
 37
0.0
 40
4757.944028519582
 41
2.293369663941871
 42
50.0
 43
0.0
 44
0.0
 50
0.0
 51
0.0
 71
     0
 72
  1000
 73
     1
 74
     3
 75
     0
 76
     0
 77
     0
 78
     0
281
     0
 65
     1
110
0.0
120
0.0
130
0.0
111
1.0
121
0.0
131
0.0
112
0.0
122
1.0
132
0.0
 79
     0
146
0.0
348
9F
 60
     3
 61
     5
292
     1
282
     1
141
0.0
142
0.0
 63
   250
421
  3355443
1001
ACAD_NAV_VCDISPLAY
1070
     3
  0
ENDTAB
  0
TABLE
  2
LTYPE
  5
5
330
0
100
AcDbSymbolTable
 70
     1
  0
LTYPE
  5
14
330
5
100
AcDbSymbolTableRecord
100
AcDbLinetypeTableRecord
  2
ByBlock
 70
     0
  3

 72
    65
 73
     0
 40
0.0
  0
LTYPE
  5
15
330
5
100
AcDbSymbolTableRecord
100
AcDbLinetypeTableRecord
  2
ByLayer
 70
     0
  3

 72
    65
 73
     0
 40
0.0
  0
LTYPE
  5
16
330
5
100
AcDbSymbolTableRecord
100
AcDbLinetypeTableRecord
  2
Continuous
 70
     0
  3
Solid line
 72
    65
 73
     0
 40
0.0
  0
ENDTAB
  0
TABLE
  2
LAYER
  5
2
102
{ACAD_XDICTIONARY
360
18E
102
}
330
0
100
AcDbSymbolTable
 70
     2
  0
LAYER
  5
10
102
{ACAD_XDICTIONARY
360
E6
102
}
330
2
100
AcDbSymbolTableRecord
100
AcDbLayerTableRecord
  2
0
 70
     0
 62
     7
  6
Continuous
370
    -3
390
F
347
98
348
0
  0
LAYER
  5
204
330
2
100
AcDbSymbolTableRecord
100
AcDbLayerTableRecord
  2
freecads.com
 70
     0
 62
     7
  6
Continuous
370
    -3
390
F
347
98
348
0
1001
AcAecLayerStandard
1000

1000

1001
AcCmTransparency
1071
        0
  0
ENDTAB
  0
TABLE
  2
STYLE
  5
3
330
0
100
AcDbSymbolTable
 70
     2
  0
STYLE
  5
11
330
3
100
AcDbSymbolTableRecord
100
AcDbTextStyleTableRecord
  2
Standard
 70
     0
 40
0.0
 41
1.0
 50
0.0
 71
     0
 42
0.2
  3
arial.ttf
  4

1001
ACAD
1000
Arial
1071
       34
  0
ENDTAB
  0
TABLE
  2
VIEW
  5
6
330
0
100
AcDbSymbolTable
 70
     0
  0
ENDTAB
  0
TABLE
  2
UCS
  5
7
330
0
100
AcDbSymbolTable
 70
     0
  0
ENDTAB
  0
TABLE
  2
APPID
  5
9
330
0
100
AcDbSymbolTable
 70
    31
  0
APPID
  5
12
330
9
100
AcDbSymbolTableRecord
100
AcDbRegAppTableRecord
  2
ACAD
 70
     0
  0
APPID
  5
DD
330
9
100
AcDbSymbolTableRecord
100
AcDbRegAppTableRecord
  2
AcadAnnoPO
 70
     0
  0
APPID
  5
DE
330
9
100
AcDbSymbolTableRecord
100
AcDbRegAppTableRecord
  2
AcadAnnotative
 70
     0
  0
APPID
  5
DF
330
9
100
AcDbSymbolTableRecord
100
AcDbRegAppTableRecord
  2
ACAD_DSTYLE_DIMJAG
 70
     0
  0
APPID
  5
E0
330
9
100
AcDbSymbolTableRecord
100
AcDbRegAppTableRecord
  2
ACAD_DSTYLE_DIMTALN
 70
     0
  0
APPID
  5
107
330
9
100
AcDbSymbolTableRecord
100
AcDbRegAppTableRecord
  2
ACAD_MLEADERVER
 70
     0
  0
APPID
  5
1A6
330
9
100
AcDbSymbolTableRecord
100
AcDbRegAppTableRecord
  2
ACAD_NAV_VCDISPLAY
 70
     0
  0
APPID
  5
205
330
9
100
AcDbSymbolTableRecord
100
AcDbRegAppTableRecord
  2
AcAecLayerStandard
 70
     0
  0
APPID
  5
206
330
9
100
AcDbSymbolTableRecord
100
AcDbRegAppTableRecord
  2
AcCmTransparency
 70
     0
  0
APPID
  5
222
330
9
100
AcDbSymbolTableRecord
100
AcDbRegAppTableRecord
  2
ACAD_PSEXT
 70
     0
  0
APPID
  5
2DA
330
9
100
AcDbSymbolTableRecord
100
AcDbRegAppTableRecord
  2
GradientColor1ACI
 70
     0
  0
APPID
  5
2DB
330
9
100
AcDbSymbolTableRecord
100
AcDbRegAppTableRecord
  2
GradientColor2ACI
 70
     0
  0
APPID
  5
2F3
330
9
100
AcDbSymbolTableRecord
100
AcDbRegAppTableRecord
  2
ACAD_EXEMPT_FROM_CAD_STANDARDS
 70
     0
  0
APPID
  5
A1A
330
9
100
AcDbSymbolTableRecord
100
AcDbRegAppTableRecord
  2
AcDbBlockRepETag
 70
     0
  0
APPID
  5
2282
330
9
100
AcDbSymbolTableRecord
100
AcDbRegAppTableRecord
  2
RAK
 70
     0
  0
APPID
  5
39F4
330
9
100
AcDbSymbolTableRecord
100
AcDbRegAppTableRecord
  2
ACAD_DSTYLE_DIMJOGGED_JOGANGLE_SYMBOL
 70
     0
  0
APPID
  5
39F5
330
9
100
AcDbSymbolTableRecord
100
AcDbRegAppTableRecord
  2
AcDbDynamicBlockGUID
 70
     0
  0
APPID
  5
39F6
330
9
100
AcDbSymbolTableRecord
100
AcDbRegAppTableRecord
  2
ACAD_DSTYLE_DIMBREAK
 70
     0
  0
APPID
  5
3B59
330
9
100
AcDbSymbolTableRecord
100
AcDbRegAppTableRecord
  2
AEC_XDATA_BOUND_SPACE
 70
     0
  0
APPID
  5
75C5
330
9
100
AcDbSymbolTableRecord
100
AcDbRegAppTableRecord
  2
AcDbDynamicBlockTrueName
 70
     0
  0
APPID
  5
75C6
330
9
100
AcDbSymbolTableRecord
100
AcDbRegAppTableRecord
  2
AcDbBlockRepBTag
 70
     0
  0
APPID
  5
75C7
330
9
100
AcDbSymbolTableRecord
100
AcDbRegAppTableRecord
  2
ACAUTHENVIRON
 70
     0
  0
APPID
  5
AA90
330
9
100
AcDbSymbolTableRecord
100
AcDbRegAppTableRecord
  2
Acad_TC
 70
     0
  0
APPID
  5
AA9C
330
9
100
AcDbSymbolTableRecord
100
AcDbRegAppTableRecord
  2
AcDbBlockArrayActionTag
 70
     0
  0
APPID
  5
BEE4
330
9
100
AcDbSymbolTableRecord
100
AcDbRegAppTableRecord
  2
ACAD_DSTYLE_DIMTEXT_FILL
 70
     0
  0
APPID
  5
219E5
330
9
100
AcDbSymbolTableRecord
100
AcDbRegAppTableRecord
  2
AECLAY
 70
     0
  0
APPID
  5
26B46
330
9
100
AcDbSymbolTableRecord
100
AcDbRegAppTableRecord
  2
REVIT
 70
     0
  0
APPID
  5
280A5
330
9
100
AcDbSymbolTableRecord
100
AcDbRegAppTableRecord
  2
HATCHBACKGROUNDCOLOR
 70
     0
  0
APPID
  5
29EE0
330
9
100
AcDbSymbolTableRecord
100
AcDbRegAppTableRecord
  2
ACAD_STEPID
 70
     0
  0
APPID
  5
29EE1
330
9
100
AcDbSymbolTableRecord
100
AcDbRegAppTableRecord
  2
AcLayerTools
 70
     0
  0
APPID
  5
4D86C
330
9
100
AcDbSymbolTableRecord
100
AcDbRegAppTableRecord
  2
PE_URL
 70
     0
  0
ENDTAB
  0
TABLE
  2
DIMSTYLE
  5
A
330
0
100
AcDbSymbolTable
 70
     2
100
AcDbDimStyleTable
 71
     1
340
27
  0
DIMSTYLE
105
27
330
A
100
AcDbSymbolTableRecord
100
AcDbDimStyleTableRecord
  2
Standard
 70
     0
340
11
  0
ENDTAB
  0
TABLE
  2
BLOCK_RECORD
  5
1
330
0
100
AcDbSymbolTable
 70
     2
  0
BLOCK_RECORD
  5
1F
102
{ACAD_XDICTIONARY
360
15D
102
}
330
1
100
AcDbSymbolTableRecord
100
AcDbBlockTableRecord
  2
*Model_Space
340
22
 70
     0
280
     1
281
     0
  0
BLOCK_RECORD
  5
58
330
1
100
AcDbSymbolTableRecord
100
AcDbBlockTableRecord
  2
*Paper_Space
340
59
 70
     0
280
     1
281
     0
  0
BLOCK_RECORD
  5
5D
330
1
100
AcDbSymbolTableRecord
100
AcDbBlockTableRecord
  2
*Paper_Space0
340
5E
 70
     0
280
     1
281
     0
  0
ENDTAB
  0
ENDSEC
  0
SECTION
  2
BLOCKS
  0
BLOCK
  5
20
330
1F
100
AcDbEntity
  8
0
100
AcDbBlockBegin
  2
*Model_Space
 70
     0
 10
0.0
 20
0.0
 30
0.0
  3
*Model_Space
  1

  0
ENDBLK
  5
21
330
1F
100
AcDbEntity
  8
0
100
AcDbBlockEnd
  0
BLOCK
  5
5A
330
58
100
AcDbEntity
 67
     1
  8
0
100
AcDbBlockBegin
  2
*Paper_Space
 70
     0
 10
0.0
 20
0.0
 30
0.0
  3
*Paper_Space
  1

  0
ENDBLK
  5
5B
330
58
100
AcDbEntity
 67
     1
  8
0
100
AcDbBlockEnd
  0
BLOCK
  5
5F
330
5D
100
AcDbEntity
 67
     1
  8
0
100
AcDbBlockBegin
  2
*Paper_Space0
 70
     0
 10
0.0
 20
0.0
 30
0.0
  3
*Paper_Space0
  1

  0
ENDBLK
  5
60
330
5D
100
AcDbEntity
 67
     1
  8
0
100
AcDbBlockEnd
  0
ENDSEC
  0
SECTION
  2
ENTITIES
  0
LINE
  5
60DEA
330
1F
100
AcDbEntity
  8
freecads.com
100
AcDbLine
 10
156965.9615571048
 20
108482.5818814918
 30
0.0
 11
157921.2401975548
 21
108482.5818814918
 31
0.0
  0
ARC
  5
60DEB
330
1F
100
AcDbEntity
  8
freecads.com
100
AcDbCircle
 10
156940.9615571048
 20
108407.5818814918
 30
0.0
 40
25.0
100
AcDbArc
 50
153.434948822922
 51
270.0
  0
LINE
  5
60DEC
330
1F
100
AcDbEntity
  8
freecads.com
100
AcDbLine
 10
156943.6008773298
 20
108468.7622213794
 30
0.0
 11
156918.6008773298
 21
108418.7622213792
 31
0.0
  0
ARC
  5
60DED
330
1F
100
AcDbEntity
  8
freecads.com
100
AcDbCircle
 10
157010.5107073861
 20
108392.5818814917
 30
0.0
 40
10.0
100
AcDbArc
 50
90.0
 51
180.0
  0
ARC
  5
60DEE
330
1F
100
AcDbEntity
  8
freecads.com
100
AcDbCircle
 10
156990.5107073861
 20
108392.5818814918
 30
0.0
 40
10.0
100
AcDbArc
 50
270.0
 51
0.0
  0
LINE
  5
60DEF
330
1F
100
AcDbEntity
  8
freecads.com
100
AcDbLine
 10
156940.9615571048
 20
108382.5818814918
 30
0.0
 11
156990.5107073861
 21
108382.5818814918
 31
0.0
  0
LINE
  5
60DF1
330
1F
100
AcDbEntity
  8
freecads.com
100
AcDbLine
 10
157000.5107073862
 20
108392.5818814918
 30
0.0
 11
157000.5107073862
 21
108392.5818814917
 31
0.0
  0
ARC
  5
60DF2
330
1F
100
AcDbEntity
  8
freecads.com
100
AcDbCircle
 10
156965.9615571048
 20
108457.5818814919
 30
0.0
 40
25.0
100
AcDbArc
 50
90.0
 51
153.434948822922
  0
ARC
  5
60DF4
330
1F
100
AcDbEntity
  8
freecads.com
100
AcDbCircle
 10
157921.2401975548
 20
108457.5818814919
 30
0.0
 40
25.0
100
AcDbArc
 50
26.56505117707799
 51
90.0
  0
ARC
  5
60DF5
330
1F
100
AcDbEntity
  8
freecads.com
100
AcDbCircle
 10
157946.2401975547
 20
108407.5818814918
 30
0.0
 40
25.0
100
AcDbArc
 50
270.0
 51
26.56505117707799
  0
LINE
  5
60DF6
330
1F
100
AcDbEntity
  8
freecads.com
100
AcDbLine
 10
157943.6008773298
 20
108468.7622213794
 30
0.0
 11
157968.6008773298
 21
108418.7622213792
 31
0.0
  0
LINE
  5
60DF7
330
1F
100
AcDbEntity
  8
freecads.com
100
AcDbLine
 10
157896.6910472735
 20
108382.5818814917
 30
0.0
 11
157946.2401975547
 21
108382.5818814918
 31
0.0
  0
ARC
  5
60DF9
330
1F
100
AcDbEntity
  8
freecads.com
100
AcDbCircle
 10
157876.6910472735
 20
108392.5818814917
 30
0.0
 40
10.0
100
AcDbArc
 50
0.0
 51
90.0
  0
ARC
  5
60DFA
330
1F
100
AcDbEntity
  8
freecads.com
100
AcDbCircle
 10
157896.6910472735
 20
108392.5818814917
 30
0.0
 40
10.0
100
AcDbArc
 50
180.0
 51
270.0
  0
LINE
  5
60DFB
330
1F
100
AcDbEntity
  8
freecads.com
100
AcDbLine
 10
157886.6910472735
 20
108392.5818814917
 30
0.0
 11
157886.6910472735
 21
108392.5818814918
 31
0.0
  0
LINE
  5
60DFC
330
1F
100
AcDbEntity
  8
freecads.com
100
AcDbLine
 10
157010.5107073861
 20
108402.5818814917
 30
0.0
 11
157876.6910472735
 21
108402.5818814917
 31
0.0
  0
SPLINE
  5
60E61
330
1F
100
AcDbEntity
  8
freecads.com
 48
0.02
100
AcDbSpline
210
0.0
220
0.0
230
1.0
 70
  1064
 71
     3
 72
    13
 73
     9
 74
     7
 42
0.000000001
 43
0.0000000001
 44
0.0000000001
 40
0.0
 40
0.0
 40
0.0
 40
0.0
 40
16.46061766435556
 40
47.83096295185209
 40
66.00491926405922
 40
80.08815682657601
 40
97.62210650115854
 40
113.4946495016509
 40
113.4946495016509
 40
113.4946495016509
 40
113.4946495016509
 10
157360.5224249984
 20
110187.1901998323
 30
0.0
 10
157364.6299313152
 20
110183.55882841
 30
0.0
 10
157376.5654483457
 20
110173.0068554825
 30
0.0
 10
157393.0717044322
 20
110158.2583768211
 30
0.0
 10
157405.8262841138
 20
110141.3181884755
 30
0.0
 10
157422.7009403445
 20
110133.939777058
 30
0.0
 10
157422.1528686522
 20
110115.850727805
 30
0.0
 10
157423.1060748413
 20
110105.0436261757
 30
0.0
 10
157423.5589750117
 20
110099.9088104083
 30
0.0
 11
157360.5224249984
 21
110187.1901998323
 31
0.0
 11
157372.8480073497
 21
110176.2800232254
 31
0.0
 11
157395.3862194509
 21
110154.4596758694
 31
0.0
 11
157408.0639541922
 21
110141.437858413
 31
0.0
 11
157419.3330602428
 21
110132.9912715839
 31
0.0
 11
157422.502498711
 21
110115.7461548551
 31
0.0
 11
157423.5589750117
 21
110099.9088104083
 31
0.0
  0
SPLINE
  5
60E62
330
1F
100
AcDbEntity
  8
freecads.com
 48
0.02
100
AcDbSpline
210
0.0
220
0.0
230
1.0
 70
  1064
 71
     3
 72
    22
 73
    18
 74
    16
 42
0.000000001
 43
0.0000000001
 44
0.0000000001
 40
0.0
 40
0.0
 40
0.0
 40
0.0
 40
3.328356722988772
 40
9.605059820428671
 40
21.98157747389295
 40
49.36079573204992
 40
70.8985473297745
 40
84.66875657192856
 40
100.0362024700349
 40
119.0222151352297
 40
143.5625883512998
 40
170.5921362155837
 40
184.540329504328
 40
202.598894069573
 40
217.9047333674305
 40
227.1313724037865
 40
236.1192134717163
 40
236.1192134717163
 40
236.1192134717163
 40
236.1192134717163
 10
157418.6856427959
 20
110075.2464006251
 30
0.0
 10
157418.6225386164
 20
110074.1376805323
 30
0.0
 10
157418.440430907
 20
110070.9381067779
 30
0.0
 10
157417.3567203715
 20
110063.7181049402
 30
0.0
 10
157416.2989094642
 20
110047.9890734573
 30
0.0
 10
157400.1581905121
 20
110032.8306054003
 30
0.0
 10
157385.2282078111
 20
110018.988223638
 30
0.0
 10
157371.8619551734
 20
110008.0328629489
 30
0.0
 10
157355.7247683569
 20
110004.8673388445
 30
0.0
 10
157335.2342766004
 20
110007.5191727889
 30
0.0
 10
157319.0134636382
 20
110026.360380331
 30
0.0
 10
157305.9139763607
 20
110043.0951544494
 30
0.0
 10
157294.6885011956
 20
110060.0333987372
 30
0.0
 10
157295.5647610856
 20
110076.3974437385
 30
0.0
 10
157292.5505343579
 20
110090.3044700135
 30
0.0
 10
157293.2555290138
 20
110101.5195566809
 30
0.0
 10
157293.5834479488
 20
110107.5753930381
 30
0.0
 10
157293.7452578524
 20
110110.5636141897
 30
0.0
 11
157418.6856427959
 21
110075.2464006251
 31
0.0
 11
157418.4613362442
 21
110071.9256108025
 31
0.0
 11
157417.7130387217
 21
110065.6936726937
 31
0.0
 11
157415.7175818499
 21
110053.4790772809
 31
0.0
 11
157399.0056197885
 21
110031.7919401603
 31
0.0
 11
157383.0419648155
 21
110017.333846794
 31
0.0
 11
157371.8175211083
 21
110009.3569723411
 31
0.0
 11
157356.8515897881
 21
110005.8670879375
 31
0.0
 11
157338.1441804208
 21
110009.1076915364
 31
0.0
 11
157319.9356328798
 21
110025.5600079093
 31
0.0
 11
157303.4731065146
 21
110046.9978642252
 31
0.0
 11
157296.7384383771
 21
110059.212459638
 31
0.0
 11
157294.7429815054
 21
110077.1604374079
 31
0.0
 11
157292.9969603298
 21
110092.3663614728
 31
0.0
 11
157293.246396026
 21
110101.5896282335
 31
0.0
 11
157293.7452578524
 21
110110.5636141897
 31
0.0
  0
SPLINE
  5
60E63
330
1F
100
AcDbEntity
  8
freecads.com
 48
0.02
100
AcDbSpline
210
0.0
220
0.0
230
1.0
 70
  1064
 71
     3
 72
    11
 73
     7
 74
     5
 42
0.000000001
 43
0.0000000001
 44
0.0000000001
 40
0.0
 40
0.0
 40
0.0
 40
0.0
 40
4.988418962741275
 40
12.45814446680836
 40
22.19099478678783
 40
30.8756370733445
 40
30.8756370733445
 40
30.8756370733445
 40
30.8756370733445
 10
157371.9764077057
 20
110106.9651102268
 30
0.0
 10
157373.3027832677
 20
110107.9963791486
 30
0.0
 10
157376.6152913976
 20
110110.5718839946
 30
0.0
 10
157384.4296720247
 20
110111.5163991233
 30
0.0
 10
157392.550960047
 20
110108.3353772104
 30
0.0
 10
157398.630691432
 20
110107.4042003072
 30
0.0
 10
157401.497547057
 20
110106.9651102268
 30
0.0
 11
157371.9764077057
 21
110106.9651102268
 31
0.0
 11
157376.127815087
 21
110109.7309989633
 31
0.0
 11
157383.5081023163
 21
110110.8834569967
 31
0.0
 11
157392.9640932362
 21
110108.5785467875
 31
0.0
 11
157401.497547057
 21
110106.9651102268
 31
0.0
  0
SPLINE
  5
60E64
330
1F
100
AcDbEntity
  8
freecads.com
 48
0.02
100
AcDbSpline
210
0.0
220
0.0
230
1.0
 70
  1064
 71
     3
 72
    12
 73
     8
 74
     6
 42
0.000000001
 43
0.0000000001
 44
0.0000000001
 40
0.0
 40
0.0
 40
0.0
 40
0.0
 40
3.865920487224013
 40
7.829339155903996
 40
14.80700489133581
 40
23.224215537241
 40
29.11685745895378
 40
29.11685745895378
 40
29.11685745895378
 40
29.11685745895378
 10
157305.5538417735
 20
110112.0359091725
 30
0.0
 10
157306.7881686534
 20
110111.4419858103
 30
0.0
 10
157309.2879520307
 20
110110.2391603901
 30
0.0
 10
157313.916054989
 20
110112.845889558
 30
0.0
 10
157319.9493817728
 20
110115.0682123475
 30
0.0
 10
157327.4037154792
 20
110113.7282740662
 30
0.0
 10
157331.3671699254
 20
110111.0601802799
 30
0.0
 10
157332.9992774342
 20
110109.9614882268
 30
0.0
 11
157305.5538417735
 21
110112.0359091725
 31
0.0
 11
157309.2439901711
 21
110110.8834569967
 31
0.0
 11
157312.972631023
 21
110112.2273040642
 31
0.0
 11
157319.6225086248
 21
110114.3408193817
 31
0.0
 11
157327.9253329533
 21
110112.9578720846
 31
0.0
 11
157332.9992774342
 21
110109.9614882268
 31
0.0
  0
SPLINE
  5
60E65
330
1F
100
AcDbEntity
  8
freecads.com
 48
0.02
100
AcDbSpline
210
0.0
220
0.0
230
1.0
 70
  1064
 71
     3
 72
    10
 73
     6
 74
     4
 42
0.000000001
 43
0.0000000001
 44
0.0000000001
 40
0.0
 40
0.0
 40
0.0
 40
0.0
 40
7.189304940563327
 40
16.99052061039545
 40
25.75218955807045
 40
25.75218955807045
 40
25.75218955807045
 40
25.75218955807045
 10
157342.1209273338
 20
110114.4314440487
 30
0.0
 10
157343.501081897
 20
110112.4422025737
 30
0.0
 10
157346.7628081342
 20
110107.7410181674
 30
0.0
 10
157347.7743559675
 20
110098.8315427913
 30
0.0
 10
157346.657991462
 20
110092.7534307063
 30
0.0
 10
157346.1310681727
 20
110089.8845659252
 30
0.0
 11
157342.1209273338
 21
110114.4314440487
 31
0.0
 11
157345.7968897696
 21
110108.2529809956
 31
0.0
 11
157347.3006878013
 21
110098.5678160467
 31
0.0
 11
157346.1310681727
 21
110089.8845659252
 31
0.0
  0
SPLINE
  5
60E66
330
1F
100
AcDbEntity
  8
freecads.com
 48
0.02
100
AcDbSpline
210
0.0
220
0.0
230
1.0
 70
  1064
 71
     3
 72
    21
 73
    17
 74
    15
 42
0.000000001
 43
0.0000000001
 44
0.0000000001
 40
0.0
 40
0.0
 40
0.0
 40
0.0
 40
19.05226901671595
 40
50.39342758127062
 40
78.33170042765762
 40
108.2718798777849
 40
132.3454178696852
 40
153.4394348328399
 40
163.429429579006
 40
172.7317353484183
 40
183.2288474936513
 40
222.0474736826641
 40
239.9494655896112
 40
251.5848442136473
 40
259.0320536144104
 40
273.2400356012481
 40
273.2400356012481
 40
273.2400356012481
 40
273.2400356012481
 10
157373.7304832168
 20
110238.8207789761
 30
0.0
 10
157380.1286550212
 20
110238.5437416723
 30
0.0
 10
157397.0518785595
 20
110237.8109754439
 30
0.0
 10
157420.6328785853
 20
110223.6512502511
 30
0.0
 10
157438.9750583254
 20
110199.6773059167
 30
0.0
 10
157448.3159469088
 20
110173.9419983555
 30
0.0
 10
157465.3618551108
 20
110153.9600042859
 30
0.0
 10
157463.5281109231
 20
110133.989741711
 30
0.0
 10
157454.2083564301
 20
110122.2037094146
 30
0.0
 10
157460.1320831043
 20
110112.6098072598
 30
0.0
 10
157464.0385331292
 20
110094.5642516345
 30
0.0
 10
157464.6621118158
 20
110062.7828467375
 30
0.0
 10
157437.1261674441
 20
110061.4943571342
 30
0.0
 10
157431.5333412335
 20
110049.9432044684
 30
0.0
 10
157424.9321409675
 20
110039.9717457645
 30
0.0
 10
157416.895155992
 20
110041.7873905047
 30
0.0
 10
157411.6220860978
 20
110042.978635934
 30
0.0
 11
157373.7304832168
 21
110238.8207789761
 31
0.0
 11
157392.6744623877
 21
110236.7923293567
 31
0.0
 11
157420.0755705053
 21
110221.5789308509
 31
0.0
 11
157437.3281200606
 21
110199.6040218981
 31
0.0
 11
157450.859528288
 21
110172.8960579756
 31
0.0
 11
157462.6995164657
 21
110151.9353826191
 31
0.0
 11
157460.3315226563
 21
110130.974701405
 31
0.0
 11
157456.2720992316
 21
110121.846663473
 31
0.0
 11
157459.3166668002
 21
110113.0566975488
 31
0.0
 11
157462.0229427063
 21
110102.9144377361
 31
0.0
 11
157453.9077499614
 21
110064.9535448868
 31
0.0
 11
157437.3317645997
 21
110058.1920344398
 31
0.0
 11
157430.5660652688
 21
110048.7259186424
 31
0.0
 11
157425.8300680846
 21
110042.978635934
 31
0.0
 11
157411.6220860978
 21
110042.978635934
 31
0.0
  0
SPLINE
  5
60E67
330
1F
100
AcDbEntity
  8
freecads.com
 48
0.02
100
AcDbSpline
210
0.0
220
0.0
230
1.0
 70
  1064
 71
     3
 72
    22
 73
    18
 74
    16
 42
0.000000001
 43
0.0000000001
 44
0.0000000001
 40
0.0
 40
0.0
 40
0.0
 40
0.0
 40
23.74264467092008
 40
34.55110972674877
 40
62.22531712707151
 40
74.93047192110765
 40
88.52102291874816
 40
104.804961193395
 40
116.7147231291265
 40
134.1703723369694
 40
149.9030608412474
 40
166.2225110254214
 40
177.710989355829
 40
196.549626059656
 40
220.9688300760115
 40
254.4052991946934
 40
270.0579707863922
 40
270.0579707863922
 40
270.0579707863922
 40
270.0579707863922
 10
157297.5399404303
 20
110051.7994778598
 30
0.0
 10
157293.8982277534
 20
110059.7304058076
 30
0.0
 10
157288.5986827348
 20
110071.2717637969
 30
0.0
 10
157267.8240843752
 20
110074.8089859734
 30
0.0
 10
157251.8606078938
 20
110093.5412539701
 30
0.0
 10
157264.7080045811
 20
110108.7970400089
 30
0.0
 10
157264.7003748505
 20
110123.5207155494
 30
0.0
 10
157262.5783555226
 20
110137.0764987195
 30
0.0
 10
157263.5538690192
 20
110152.8049601548
 30
0.0
 10
157273.4118622423
 20
110164.8272378975
 30
0.0
 10
157282.7950485694
 20
110178.5982303727
 30
0.0
 10
157281.3501084898
 20
110195.3266908252
 30
0.0
 10
157296.8261408267
 20
110203.3160303303
 30
0.0
 10
157299.3238091702
 20
110223.5370924511
 30
0.0
 10
157323.6665788137
 20
110237.1376964284
 30
0.0
 10
157347.8180887612
 20
110242.3214572245
 30
0.0
 10
157364.1019562384
 20
110239.9325104151
 30
0.0
 10
157369.2942661092
 20
110239.1707655707
 30
0.0
 11
157297.5399404303
 21
110051.7994778598
 31
0.0
 11
157283.6702405403
 21
110071.0697814622
 31
0.0
 11
157273.5216819782
 21
110074.7886086933
 31
0.0
 11
157257.6222703759
 21
110097.4396675193
 31
0.0
 11
157263.0348413195
 21
110108.9342329361
 31
0.0
 11
157264.3879792725
 21
110122.4572538301
 31
0.0
 11
157263.0348413195
 21
110138.6848742167
 31
0.0
 11
157264.3879792725
 21
110150.517517499
 31
0.0
 11
157273.5216819782
 21
110165.3928381393
 31
0.0
 11
157280.9639550686
 21
110179.2539368988
 31
0.0
 11
157284.6850963964
 21
110195.14347942
 31
0.0
 11
157293.1422253429
 21
110202.9192176056
 31
0.0
 11
157301.2989141781
 21
110219.9004619683
 31
0.0
 11
157320.9194671085
 21
110234.4377047431
 31
0.0
 11
157353.7331366037
 21
110240.8611431824
 31
0.0
 11
157369.2942661092
 21
110239.1707655707
 31
0.0
  0
SPLINE
  5
60E69
330
1F
100
AcDbEntity
  8
freecads.com
 48
0.02
100
AcDbSpline
210
0.0
220
0.0
230
1.0
 70
  1064
 71
     3
 72
    10
 73
     6
 74
     4
 42
0.000000001
 43
0.0000000001
 44
0.0000000001
 40
0.0
 40
0.0
 40
0.0
 40
0.0
 40
17.3838308876543
 40
36.59092420220279
 40
48.38038645872723
 40
48.38038645872723
 40
48.38038645872723
 40
48.38038645872723
 10
157433.3466943883
 20
108624.146893856
 30
0.0
 10
157428.1927715698
 20
108626.553449152
 30
0.0
 10
157417.3443687972
 20
108631.6189656652
 30
0.0
 10
157399.7522679571
 20
108635.6145426349
 30
0.0
 10
157391.4648572211
 20
108628.7991920029
 30
0.0
 10
157388.31276131
 20
108626.2069904643
 30
0.0
 11
157433.3466943883
 21
108624.146893856
 31
0.0
 11
157417.3304082525
 21
108630.9053074824
 31
0.0
 11
157398.2006652419
 21
108632.6273312754
 31
0.0
 11
157388.31276131
 21
108626.2069904643
 31
0.0
  0
SPLINE
  5
60E6A
330
1F
100
AcDbEntity
  8
freecads.com
 48
0.02
100
AcDbSpline
210
0.0
220
0.0
230
1.0
 70
     8
 71
     3
 72
    11
 73
     7
 74
     0
 42
0.000000001
 43
0.0000000001
 40
0.0336426344779401
 40
0.0336426344779401
 40
0.0336426344779401
 40
0.0336426344779401
 40
0.0379589175894659
 40
0.0653529379358408
 40
0.111005106692207
 40
0.1318309484179372
 40
0.1318309484179372
 40
0.1318309484179372
 40
0.1318309484179372
 10
157362.5123418815
 20
108547.7415909308
 30
0.0
 10
157362.3788477505
 20
108549.1540150944
 30
0.0
 10
157361.940164564
 20
108559.480369912
 30
0.0
 10
157375.3954822941
 20
108583.5354430007
 30
0.0
 10
157375.6410813671
 20
108615.1948141935
 30
0.0
 10
157376.4778578462
 20
108637.3467862894
 30
0.0
 10
157376.8896442419
 20
108644.2693670281
 30
0.0
  0
SPLINE
  5
60E6B
330
1F
100
AcDbEntity
  8
freecads.com
 48
0.02
100
AcDbSpline
210
0.0
220
0.0
230
1.0
 70
     8
 71
     3
 72
     9
 73
     5
 74
     0
 42
0.000000001
 43
0.0000000001
 40
48.31333518538338
 40
48.31333518538338
 40
48.31333518538338
 40
48.31333518538338
 40
53.86025505846582
 40
58.42139386826048
 40
58.42139386826048
 40
58.42139386826048
 40
58.42139386826048
 10
157445.0218321094
 20
108648.5985210547
 30
0.0
 10
157445.6477685717
 20
108630.0263932367
 30
0.0
 10
157446.0105653106
 20
108596.4066045922
 30
0.0
 10
157450.4459468706
 20
108562.956106674
 30
0.0
 10
157452.4473589718
 20
108547.8619754418
 30
0.0
  0
SPLINE
  5
60E6C
330
1F
100
AcDbEntity
  8
freecads.com
 48
0.02
100
AcDbSpline
210
0.0
220
0.0
230
1.0
 70
     8
 71
     3
 72
    11
 73
     7
 74
     0
 42
0.000000001
 43
0.0000000001
 40
0.0
 40
0.0
 40
0.0
 40
0.0
 40
1.487694047277929
 40
5.709939309302136
 40
12.68543069445607
 40
15.2285508408171
 40
15.2285508408171
 40
15.2285508408171
 40
15.2285508408171
 10
157448.8004010801
 20
108501.1361823913
 30
0.0
 10
157451.6539949176
 20
108505.2450144503
 30
0.0
 10
157462.6064132971
 20
108521.0151801853
 30
0.0
 10
157464.6642266793
 20
108565.6069403496
 30
0.0
 10
157457.0728083646
 20
108610.1165906684
 30
0.0
 10
157455.7652231117
 20
108641.8472147456
 30
0.0
 10
157455.4769438677
 20
108650.3386710732
 30
0.0
  0
SPLINE
  5
60E6D
330
1F
100
AcDbEntity
  8
freecads.com
 48
0.02
100
AcDbSpline
210
0.0
220
0.0
230
1.0
 70
     8
 71
     3
 72
    11
 73
     7
 74
     0
 42
0.000000001
 43
0.0000000001
 40
2.457217880654827
 40
2.457217880654827
 40
2.457217880654827
 40
2.457217880654827
 40
3.386081025010945
 40
6.37279328655984
 40
8.930390986911792
 40
11.365685943261
 40
11.365685943261
 40
11.365685943261
 40
11.365685943261
 10
157417.4477872391
 20
108560.644605479
 30
0.0
 10
157417.7510581983
 20
108563.7178372055
 30
0.0
 10
157419.3663165505
 20
108576.6088832246
 30
0.0
 10
157425.2713564267
 20
108597.3055065038
 30
0.0
 10
157429.7306569213
 20
108624.2774744197
 30
0.0
 10
157431.7449394877
 20
108639.0867789587
 30
0.0
 10
157432.8625507139
 20
108646.7492339867
 30
0.0
  0
SPLINE
  5
60E6E
330
1F
100
AcDbEntity
  8
freecads.com
 48
0.02
100
AcDbSpline
210
0.0
220
0.0
230
1.0
 70
  1064
 71
     3
 72
    10
 73
     6
 74
     4
 42
0.000000001
 43
0.0000000001
 44
0.0000000001
 40
0.0
 40
0.0
 40
0.0
 40
0.0
 40
17.38383088752023
 40
36.59092420207263
 40
48.38038645862084
 40
48.38038645862084
 40
48.38038645862084
 40
48.38038645862084
 10
157429.4758895994
 20
108569.7952575406
 30
0.0
 10
157424.3219667809
 20
108572.2018128366
 30
0.0
 10
157413.4735640085
 20
108577.2673293497
 30
0.0
 10
157395.8814631683
 20
108581.2629063196
 30
0.0
 10
157387.5940524324
 20
108574.4475556875
 30
0.0
 10
157384.4419565212
 20
108571.8553541489
 30
0.0
 11
157429.4758895994
 21
108569.7952575406
 31
0.0
 11
157413.4596034637
 21
108576.553671167
 31
0.0
 11
157394.3298604532
 21
108578.27569496
 31
0.0
 11
157384.4419565212
 21
108571.8553541489
 31
0.0
  0
SPLINE
  5
60E6F
330
1F
100
AcDbEntity
  8
freecads.com
 48
0.02
100
AcDbSpline
210
0.0
220
0.0
230
1.0
 70
  1064
 71
     3
 72
    10
 73
     6
 74
     4
 42
0.000000001
 43
0.0000000001
 44
0.0000000001
 40
0.0
 40
0.0
 40
0.0
 40
0.0
 40
20.93554520671658
 40
45.4393612464076
 40
78.64025328362612
 40
78.64025328362612
 40
78.64025328362612
 40
78.64025328362612
 10
157427.5513830572
 20
108634.7281087191
 30
0.0
 10
157430.5484159215
 20
108627.9150422796
 30
0.0
 10
157437.0532982948
 20
108613.1276849846
 30
0.0
 10
157472.9564860284
 20
108614.3906118393
 30
0.0
 10
157464.9330950964
 20
108590.4374778077
 30
0.0
 10
157460.316769237
 20
108576.6558394728
 30
0.0
 11
157427.5513830572
 21
108634.7281087191
 31
0.0
 11
157439.5654090832
 21
108617.5828402246
 31
0.0
 11
157462.7885023275
 21
108609.7645961332
 31
0.0
 11
157460.316769237
 21
108576.6558394728
 31
0.0
  0
SPLINE
  5
60E70
330
1F
100
AcDbEntity
  8
freecads.com
 48
0.02
100
AcDbSpline
210
0.0
220
0.0
230
1.0
 70
  1064
 71
     3
 72
    11
 73
     7
 74
     5
 42
0.000000001
 43
0.0000000001
 44
0.0000000001
 40
0.0
 40
0.0
 40
0.0
 40
0.0
 40
15.7184022464968
 40
46.8759778365176
 40
82.03868798552536
 40
94.84225295986602
 40
94.84225295986602
 40
94.84225295986602
 40
94.84225295986602
 10
157450.8536322291
 20
108542.842083424
 30
0.0
 10
157448.2462249759
 20
108547.7529835193
 30
0.0
 10
157440.470322394
 20
108562.3984443248
 30
0.0
 10
157408.8621234816
 20
108559.5293086334
 30
0.0
 10
157381.9847495975
 20
108560.9021608417
 30
0.0
 10
157369.1969080266
 20
108550.7584138444
 30
0.0
 10
157365.7834688964
 20
108548.0507588632
 30
0.0
 11
157450.8536322291
 21
108542.842083424
 31
0.0
 11
157441.8750153566
 21
108555.7437348004
 31
0.0
 11
157411.0726808981
 21
108560.4352919567
 31
0.0
 11
157376.2735700495
 21
108555.3916752807
 31
0.0
 11
157365.7834688964
 21
108548.0507588632
 31
0.0
  0
SPLINE
  5
60E71
330
1F
100
AcDbEntity
  8
freecads.com
 48
0.02
100
AcDbSpline
210
0.0
220
0.0
230
1.0
 70
  1064
 71
     3
 72
    10
 73
     6
 74
     4
 42
0.000000001
 43
0.0000000001
 44
0.0000000001
 40
0.0
 40
0.0
 40
0.0
 40
0.0
 40
17.38383088763167
 40
36.59092420218538
 40
48.38038645871775
 40
48.38038645871775
 40
48.38038645871775
 40
48.38038645871775
 10
157433.3082472065
 20
108601.5548361679
 30
0.0
 10
157428.1543243879
 20
108603.9613914638
 30
0.0
 10
157417.3059216154
 20
108609.0269079769
 30
0.0
 10
157399.7138207752
 20
108613.0224849468
 30
0.0
 10
157391.4264100392
 20
108606.2071343147
 30
0.0
 10
157388.2743141281
 20
108603.6149327761
 30
0.0
 11
157433.3082472065
 21
108601.5548361679
 31
0.0
 11
157417.2919610706
 21
108608.3132497942
 31
0.0
 11
157398.16221806
 21
108610.0352735872
 31
0.0
 11
157388.2743141281
 21
108603.6149327761
 31
0.0
  0
SPLINE
  5
60E72
330
1F
100
AcDbEntity
  8
freecads.com
 48
0.02
100
AcDbSpline
210
0.0
220
0.0
230
1.0
 70
  1064
 71
     3
 72
    10
 73
     6
 74
     4
 42
0.000000001
 43
0.0000000001
 44
0.0000000001
 40
0.0
 40
0.0
 40
0.0
 40
0.0
 40
17.3838308875372
 40
36.5909242020896
 40
48.38038645861404
 40
48.38038645861404
 40
48.38038645861404
 40
48.38038645861404
 10
157434.435400982
 20
108614.0802404799
 30
0.0
 10
157429.2814781635
 20
108616.4867957759
 30
0.0
 10
157418.4330753911
 20
108621.5523122891
 30
0.0
 10
157400.8409745509
 20
108625.5478892589
 30
0.0
 10
157392.553563815
 20
108618.7325386268
 30
0.0
 10
157389.4014679038
 20
108616.1403370883
 30
0.0
 11
157434.435400982
 21
108614.0802404799
 31
0.0
 11
157418.4191148463
 21
108620.8386541063
 31
0.0
 11
157399.2893718358
 21
108622.5606778993
 31
0.0
 11
157389.4014679038
 21
108616.1403370883
 31
0.0
  0
SPLINE
  5
60E73
330
1F
100
AcDbEntity
  8
freecads.com
 48
0.02
100
AcDbSpline
210
0.0
220
0.0
230
1.0
 70
  1064
 71
     3
 72
    10
 73
     6
 74
     4
 42
0.000000001
 43
0.0000000001
 44
0.0000000001
 40
0.0
 40
0.0
 40
0.0
 40
0.0
 40
17.38383088767693
 40
36.59092420222933
 40
48.38038645878548
 40
48.38038645878548
 40
48.38038645878548
 40
48.38038645878548
 10
157432.0683946835
 20
108580.3998157187
 30
0.0
 10
157426.9144718649
 20
108582.8063710147
 30
0.0
 10
157416.0660690924
 20
108587.8718875279
 30
0.0
 10
157398.4739682522
 20
108591.8674644977
 30
0.0
 10
157390.1865575162
 20
108585.0521138656
 30
0.0
 10
157387.0344616051
 20
108582.459912327
 30
0.0
 11
157432.0683946835
 21
108580.3998157187
 31
0.0
 11
157416.0521085476
 21
108587.1582293451
 31
0.0
 11
157396.922365537
 21
108588.8802531382
 31
0.0
 11
157387.0344616051
 21
108582.459912327
 31
0.0
  0
SPLINE
  5
60E74
330
1F
100
AcDbEntity
  8
freecads.com
 48
0.02
100
AcDbSpline
210
0.0
220
0.0
230
1.0
 70
  1064
 71
     3
 72
    10
 73
     6
 74
     4
 42
0.000000001
 43
0.0000000001
 44
0.0000000001
 40
0.0
 40
0.0
 40
0.0
 40
0.0
 40
17.38383088751457
 40
36.59092420206176
 40
48.38038645870825
 40
48.38038645870825
 40
48.38038645870825
 40
48.38038645870825
 10
157430.9796880896
 20
108590.4664690949
 30
0.0
 10
157425.8257652711
 20
108592.8730243909
 30
0.0
 10
157414.9773624986
 20
108597.9385409041
 30
0.0
 10
157397.3852616584
 20
108601.9341178737
 30
0.0
 10
157389.0978509224
 20
108595.1187672417
 30
0.0
 10
157385.9457550112
 20
108592.5265657031
 30
0.0
 11
157430.9796880896
 21
108590.4664690949
 31
0.0
 11
157414.9634019539
 21
108597.2248827212
 31
0.0
 11
157395.8336589433
 21
108598.9469065142
 31
0.0
 11
157385.9457550112
 21
108592.5265657031
 31
0.0
  0
SPLINE
  5
60E75
330
1F
100
AcDbEntity
  8
freecads.com
 48
0.02
100
AcDbSpline
210
0.0
220
0.0
230
1.0
 70
     8
 71
     3
 72
    11
 73
     7
 74
     0
 42
0.000000001
 43
0.0000000001
 40
1.386316201715079
 40
1.386316201715079
 40
1.386316201715079
 40
1.386316201715079
 40
3.013792278561373
 40
5.430970693677275
 40
8.811359059603786
 40
9.56389066278378
 40
9.56389066278378
 40
9.56389066278378
 40
9.56389066278378
 10
157455.4769438677
 20
108650.3386710731
 30
0.0
 10
157450.3027793917
 20
108648.4560780208
 30
0.0
 10
157437.430776476
 20
108645.0982740894
 30
0.0
 10
157413.6717688819
 20
108652.0349093287
 30
0.0
 10
157388.2565375048
 20
108655.668156727
 30
0.0
 10
157378.5549524619
 20
108646.1843028352
 30
0.0
 10
157376.8896442421
 20
108644.2693670281
 30
0.0
  0
SPLINE
  5
60E76
330
1F
100
AcDbEntity
  8
freecads.com
 48
0.02
100
AcDbSpline
210
0.0
220
0.0
230
1.0
 70
     8
 71
     3
 72
     8
 73
     4
 74
     0
 42
0.000000001
 43
0.0000000001
 40
28.27088343204873
 40
28.27088343204873
 40
28.27088343204873
 40
28.27088343204873
 40
30.54181081933851
 40
30.54181081933851
 40
30.54181081933851
 40
30.54181081933851
 10
157396.9136505967
 20
108653.4256331036
 30
0.0
 10
157397.4767471753
 20
108645.9960555212
 30
0.0
 10
157396.3018745644
 20
108637.6274158032
 30
0.0
 10
157395.1270019534
 20
108629.2587760852
 30
0.0
  0
SPLINE
  5
60E78
330
1F
100
AcDbEntity
  8
freecads.com
 48
0.02
100
AcDbSpline
210
0.0
220
0.0
230
1.0
 70
     8
 71
     3
 72
    18
 73
    14
 74
     0
 42
0.000000001
 43
0.0000000001
 40
76.07060892127595
 40
76.07060892127595
 40
76.07060892127595
 40
76.07060892127595
 40
77.84186052699313
 40
79.69547717302001
 40
82.89629819930967
 40
88.57666449303012
 40
94.71654643450667
 40
100.451917631413
 40
107.3146234378907
 40
110.5031080114634
 40
113.6866515048922
 40
115.386833506624
 40
116.3326769867891
 40
116.3326769867891
 40
116.3326769867891
 40
116.3326769867891
 10
157351.1186247735
 20
109067.2327050467
 30
0.0
 10
157351.7516458378
 20
109061.0880999222
 30
0.0
 10
157353.0539729798
 20
109048.5073356917
 30
0.0
 10
157356.1955996102
 20
109024.8930333466
 30
0.0
 10
157353.3026638709
 20
108987.4024736752
 30
0.0
 10
157348.3167764178
 20
108935.4601098042
 30
0.0
 10
157349.6327565982
 20
108873.7682066626
 30
0.0
 10
157366.8072637242
 20
108810.5355657985
 30
0.0
 10
157376.1608665397
 20
108756.3526976647
 30
0.0
 10
157386.148934783
 20
108711.328397753
 30
0.0
 10
157390.3952885277
 20
108683.5075384544
 30
0.0
 10
157389.3820257558
 20
108662.8794980972
 30
0.0
 10
157386.2533450429
 20
108654.2330700565
 30
0.0
 10
157385.4707094142
 20
108650.9949531363
 30
0.0
  0
SPLINE
  5
60E79
330
1F
100
AcDbEntity
  8
freecads.com
 48
0.02
100
AcDbSpline
210
0.0
220
0.0
230
1.0
 70
     8
 71
     3
 72
    23
 73
    19
 74
     0
 42
0.000000001
 43
0.0000000001
 40
13.94946580005597
 40
13.94946580005597
 40
13.94946580005597
 40
13.94946580005597
 40
14.82414747133632
 40
15.77783104360427
 40
16.9162692517613
 40
19.23362567916012
 40
22.61841239998701
 40
26.19790439447963
 40
30.13752816568159
 40
33.20668940095425
 40
37.03438980447019
 40
40.17462847896359
 40
43.639041946485
 40
45.97115420487597
 40
49.02397004683966
 40
51.97141499567662
 40
53.88002521965037
 40
54.74872922350363
 40
54.74872922350363
 40
54.74872922350363
 40
54.74872922350363
 10
157449.2320120664
 20
108648.3659604343
 30
0.0
 10
157449.6648604279
 20
108651.431457864
 30
0.0
 10
157450.5082930975
 20
108657.8118160452
 30
0.0
 10
157446.2378604732
 20
108667.5802946717
 30
0.0
 10
157439.1907218698
 20
108681.1488017166
 30
0.0
 10
157434.6946691246
 20
108704.9271238446
 30
0.0
 10
157432.8530419945
 20
108737.3450558802
 30
0.0
 10
157440.3878591627
 20
108774.8304281547
 30
0.0
 10
157441.0627997766
 20
108811.8012484926
 30
0.0
 10
157446.1633666787
 20
108849.1946063184
 30
0.0
 10
157453.3785153399
 20
108883.6889350256
 30
0.0
 10
157449.6704168498
 20
108920.1999893871
 30
0.0
 10
157444.6451235612
 20
108950.6778063149
 30
0.0
 10
157438.7005559652
 20
108981.4860905404
 30
0.0
 10
157447.5218765235
 20
109009.7875923725
 30
0.0
 10
157452.6052149505
 20
109037.0058096887
 30
0.0
 10
157451.0180882934
 20
109056.9809004546
 30
0.0
 10
157450.6397497772
 20
109066.6513272589
 30
0.0
 10
157450.5339141161
 20
109069.67506859
 30
0.0
  0
SPLINE
  5
60E7A
330
1F
100
AcDbEntity
  8
freecads.com
 48
0.02
100
AcDbSpline
210
0.0
220
0.0
230
1.0
 70
     8
 71
     3
 72
    13
 73
     9
 74
     0
 42
0.000000001
 43
0.0000000001
 40
1.203729891008501
 40
1.203729891008501
 40
1.203729891008501
 40
1.203729891008501
 40
5.655765950268273
 40
16.16411155429129
 40
25.23005535591988
 40
36.55087173216251
 40
42.21536940631547
 40
44.57538441538433
 40
44.57538441538433
 40
44.57538441538433
 40
44.57538441538433
 10
157456.4715757696
 20
109073.328764974
 30
0.0
 10
157453.1644512444
 20
109088.5833955979
 30
0.0
 10
157443.3350529291
 20
109139.8951525909
 30
0.0
 10
157460.0989465218
 20
109223.5928208635
 30
0.0
 10
157462.7652771764
 20
109331.5584637031
 30
0.0
 10
157443.2973253735
 20
109420.8707610437
 30
0.0
 10
157440.6417137667
 20
109488.3051042643
 30
0.0
 10
157437.1782289048
 20
109516.0481413412
 30
0.0
 10
157436.1448648498
 20
109524.2059587213
 30
0.0
  0
SPLINE
  5
60E7B
330
1F
100
AcDbEntity
  8
freecads.com
 48
0.02
100
AcDbSpline
210
0.0
220
0.0
230
1.0
 70
     8
 71
     3
 72
    13
 73
     9
 74
     0
 42
0.000000001
 43
0.0000000001
 40
0.4148066163137587
 40
0.4148066163137587
 40
0.4148066163137587
 40
0.4148066163137587
 40
6.085263584135165
 40
20.16476510667215
 40
29.1156683148867
 40
39.68665371134932
 40
46.48069461600145
 40
52.58453596868751
 40
52.58453596868751
 40
52.58453596868751
 40
52.58453596868751
 10
157163.191664545
 20
109062.8162583477
 30
0.0
 10
157160.266376009
 20
109082.3641146934
 30
0.0
 10
157149.9385547273
 20
109150.4185027942
 30
0.0
 10
157124.5965821935
 20
109247.0914945172
 30
0.0
 10
157101.9340855233
 20
109362.5857623806
 30
0.0
 10
157105.4907911706
 20
109454.2493541084
 30
0.0
 10
157115.5712326696
 20
109536.956120107
 30
0.0
 10
157139.9032346936
 20
109575.3696346269
 30
0.0
 10
157151.4182010411
 20
109593.548587865
 30
0.0
  0
SPLINE
  5
60E7C
330
1F
100
AcDbEntity
  8
freecads.com
 48
0.02
100
AcDbSpline
210
0.0
220
0.0
230
1.0
 70
     8
 71
     3
 72
    13
 73
     9
 74
     0
 42
0.000000001
 43
0.0000000001
 40
0.0
 40
0.0
 40
0.0
 40
0.0
 40
1.4752063743715
 40
4.240405437259257
 40
9.106455871306536
 40
18.97326236418681
 40
27.1947885613493
 40
27.61503708429976
 40
27.61503708429976
 40
27.61503708429976
 40
27.61503708429976
 10
157281.2831477207
 20
109345.9298976269
 30
0.0
 10
157285.1734587488
 20
109342.2752653963
 30
0.0
 10
157296.3559592603
 20
109331.7702115604
 30
0.0
 10
157292.502556627
 20
109297.0831349493
 30
0.0
 10
157304.311282416
 20
109238.5835940766
 30
0.0
 10
157316.5272028481
 20
109158.6739953513
 30
0.0
 10
157338.4340687264
 20
109097.7423257156
 30
0.0
 10
157343.99275034
 20
109068.1789724302
 30
0.0
 10
157344.2547005255
 20
109066.7393137752
 30
0.0
  0
SPLINE
  5
60E7D
330
1F
100
AcDbEntity
  8
freecads.com
 48
0.02
100
AcDbSpline
210
0.0
220
0.0
230
1.0
 70
     8
 71
     3
 72
    11
 73
     7
 74
     0
 42
0.000000001
 43
0.0000000001
 40
0.0
 40
0.0
 40
0.0
 40
0.0
 40
2.981848315922595
 40
10.40541611059915
 40
15.37838537016807
 40
26.89461736018935
 40
26.89461736018935
 40
26.89461736018935
 40
26.89461736018935
 10
157283.2865478799
 20
109346.6439153479
 30
0.0
 10
157282.110396122
 20
109336.3179616735
 30
0.0
 10
157278.0061134241
 20
109300.2846583871
 30
0.0
 10
157279.5988391317
 20
109246.5013225741
 30
0.0
 10
157267.1678026334
 20
109163.877249453
 30
0.0
 10
157270.4843127876
 20
109106.3117576154
 30
0.0
 10
157272.9730004231
 20
109066.0988329163
 30
0.0
  0
SPLINE
  5
60E7E
330
1F
100
AcDbEntity
  8
freecads.com
 48
0.02
100
AcDbSpline
210
0.0
220
0.0
230
1.0
 70
  1064
 71
     3
 72
    10
 73
     6
 74
     4
 42
0.000000001
 43
0.0000000001
 44
0.0000000001
 40
0.0
 40
0.0
 40
0.0
 40
0.0
 40
18.11803938959952
 40
22.44517246193252
 40
54.56563287265334
 40
54.56563287265334
 40
54.56563287265334
 40
54.56563287265334
 10
157265.0926100712
 20
109351.1844189471
 30
0.0
 10
157271.0489715417
 20
109349.1705054203
 30
0.0
 10
157278.4278913893
 20
109346.6756087341
 30
0.0
 10
157296.2680442918
 20
109351.4116398365
 30
0.0
 10
157304.8022848783
 20
109360.7694458364
 30
0.0
 10
157312.3233229139
 20
109369.0162739099
 30
0.0
 11
157265.0926100712
 21
109351.1844189471
 31
0.0
 11
157282.9353023976
 21
109348.0377251474
 31
0.0
 11
157287.1333845491
 21
109349.0866230806
 31
0.0
 11
157312.3233229139
 21
109369.0162739099
 31
0.0
  0
SPLINE
  5
60E7F
330
1F
100
AcDbEntity
  8
freecads.com
 48
0.02
100
AcDbSpline
210
0.0
220
0.0
230
1.0
 70
     8
 71
     3
 72
     9
 73
     5
 74
     0
 42
0.000000001
 43
0.0000000001
 40
3.20635092706065
 40
3.20635092706065
 40
3.20635092706065
 40
3.20635092706065
 40
3.850057434339835
 40
5.553543285534287
 40
5.553543285534287
 40
5.553543285534287
 40
5.553543285534287
 10
157285.5629529029
 20
109348.4780552373
 30
0.0
 10
157286.2971220714
 20
109347.5518654745
 30
0.0
 10
157289.133621089
 20
109344.323037733
 30
0.0
 10
157292.6662495201
 20
109341.8095760096
 30
0.0
 10
157295.2821945866
 20
109340.0389831807
 30
0.0
  0
SPLINE
  5
60E80
330
1F
100
AcDbEntity
  8
freecads.com
 48
0.02
100
AcDbSpline
210
0.0
220
0.0
230
1.0
 70
     8
 71
     3
 72
     8
 73
     4
 74
     0
 42
0.000000001
 43
0.0000000001
 40
94.87269715095781
 40
94.87269715095781
 40
94.87269715095781
 40
94.87269715095781
 40
97.73800235038741
 40
97.73800235038741
 40
97.73800235038741
 40
97.73800235038741
 10
157433.3487270546
 20
109523.618294029
 30
0.0
 10
157431.4009953867
 20
109533.3751848463
 30
0.0
 10
157428.7331450991
 20
109543.0171503592
 30
0.0
 10
157426.7278698218
 20
109552.8176227585
 30
0.0
  0
SPLINE
  5
60E81
330
1F
100
AcDbEntity
  8
freecads.com
 48
0.02
100
AcDbSpline
210
0.0
220
0.0
230
1.0
 70
     8
 71
     3
 72
    11
 73
     7
 74
     0
 42
0.000000001
 43
0.0000000001
 40
0.0
 40
0.0
 40
0.0
 40
0.0
 40
4.01547355935423
 40
13.78296661296731
 40
24.72855403771302
 40
28.60748836814126
 40
28.60748836814126
 40
28.60748836814126
 40
28.60748836814126
 10
157151.4182010411
 20
109593.548587865
 30
0.0
 10
157163.2559988693
 20
109585.9988904662
 30
0.0
 10
157203.888808381
 20
109560.0848293604
 30
0.0
 10
157286.8620606863
 20
109536.1806176989
 30
0.0
 10
157371.8939184906
 20
109511.7685919404
 30
0.0
 10
157422.8230861377
 20
109521.3822734011
 30
0.0
 10
157436.1448648498
 20
109524.2059587213
 30
0.0
  0
SPLINE
  5
60E82
330
1F
100
AcDbEntity
  8
freecads.com
 48
0.02
100
AcDbSpline
210
0.0
220
0.0
230
1.0
 70
  1064
 71
     3
 72
    13
 73
     9
 74
     7
 42
0.000000001
 43
0.0000000001
 44
0.0000000001
 40
0.0
 40
0.0
 40
0.0
 40
0.0
 40
2.087923338461949
 40
5.659046883947457
 40
9.803850906011891
 40
15.19959754557181
 40
22.13786038524639
 40
27.69632325677594
 40
27.69632325677594
 40
27.69632325677594
 40
27.69632325677594
 10
157418.6856427959
 20
110075.2464006251
 30
0.0
 10
157419.258397488
 20
110075.6768284764
 30
0.0
 10
157420.8107752004
 20
110076.8434476456
 30
0.0
 10
157424.2852060516
 20
110076.3209568732
 30
0.0
 10
157428.5514836969
 20
110076.630119563
 30
0.0
 10
157434.1079104269
 20
110078.9077632255
 30
0.0
 10
157435.6987981802
 20
110085.2128748454
 30
0.0
 10
157436.4968471663
 20
110089.2354450746
 30
0.0
 10
157436.8518142002
 20
110091.024658328
 30
0.0
 11
157418.6856427959
 21
110075.2464006251
 31
0.0
 11
157420.4655935777
 21
110076.3378212964
 31
0.0
 11
157424.0339416714
 21
110076.4785879807
 31
0.0
 11
157428.1657106312
 21
110076.8070474825
 31
0.0
 11
157433.0017556735
 21
110079.2001104042
 31
0.0
 11
157435.7249724683
 21
110085.5816134811
 31
0.0
 11
157436.8518142002
 21
110091.024658328
 31
0.0
  0
SPLINE
  5
60E83
330
1F
100
AcDbEntity
  8
freecads.com
 48
0.02
100
AcDbSpline
210
0.0
220
0.0
230
1.0
 70
  1064
 71
     3
 72
    12
 73
     8
 74
     6
 42
0.000000001
 43
0.0000000001
 44
0.0000000001
 40
0.0
 40
0.0
 40
0.0
 40
0.0
 40
3.730874978901323
 40
7.273459119154562
 40
10.41772245120967
 40
14.5936189985886
 40
17.30280405019983
 40
17.30280405019983
 40
17.30280405019983
 40
17.30280405019983
 10
157423.5589750117
 20
110099.9088104083
 30
0.0
 10
157424.753536446
 20
110099.8038313051
 30
0.0
 10
157427.0823718548
 20
110099.5991712134
 30
0.0
 10
157431.0311409893
 20
110098.2629839188
 30
0.0
 10
157430.2258612293
 20
110093.5913577861
 30
0.0
 10
157434.5948997747
 20
110093.2590142624
 30
0.0
 10
157436.2145170469
 20
110091.6555855179
 30
0.0
 10
157436.8518142002
 20
110091.024658328
 30
0.0
 11
157423.5589750117
 21
110099.9088104083
 31
0.0
 11
157427.2553028639
 21
110099.4022647371
 31
0.0
 11
157430.3315999234
 21
110097.645478241
 31
0.0
 11
157430.9908023365
 21
110094.5710930862
 31
0.0
 11
157434.7263018092
 21
110092.7045037731
 31
0.0
 11
157436.8518142002
 21
110091.024658328
 31
0.0
  0
SPLINE
  5
60E84
330
1F
100
AcDbEntity
  8
freecads.com
 48
0.02
100
AcDbSpline
210
0.0
220
0.0
230
1.0
 70
  1064
 71
     3
 72
    11
 73
     7
 74
     5
 42
0.000000001
 43
0.0000000001
 44
0.0000000001
 40
0.0
 40
0.0
 40
0.0
 40
0.0
 40
3.277106361600738
 40
10.66070517406169
 40
19.45203338341656
 40
27.56332608404026
 40
27.56332608404026
 40
27.56332608404026
 40
27.56332608404026
 10
157373.1404313883
 20
110106.0503757317
 30
0.0
 10
157373.9521005276
 20
110105.3012966423
 30
0.0
 10
157376.5925291369
 20
110102.8644787783
 30
0.0
 10
157383.3792661388
 20
110101.7552451146
 30
0.0
 10
157391.4126389626
 20
110102.5068969831
 30
0.0
 10
157396.8320187345
 20
110104.1225824122
 30
0.0
 10
157399.4326908919
 20
110104.8979235559
 30
0.0
 11
157373.1404313883
 21
110106.0503757317
 31
0.0
 11
157375.6774036287
 21
110103.9759606437
 31
0.0
 11
157382.8270518003
 21
110102.1320348195
 31
0.0
 11
157391.5911446785
 21
110102.8235026103
 31
0.0
 11
157399.4326908919
 21
110104.8979235559
 31
0.0
  0
SPLINE
  5
60E85
330
1F
100
AcDbEntity
  8
freecads.com
 48
0.02
100
AcDbSpline
210
0.0
220
0.0
230
1.0
 70
  1064
 71
     3
 72
    11
 73
     7
 74
     5
 42
0.000000001
 43
0.0000000001
 44
0.0000000001
 40
0.0
 40
0.0
 40
0.0
 40
0.0
 40
5.500463204793611
 40
11.42984574682046
 40
17.66122100485275
 40
24.44397374215752
 40
24.44397374215752
 40
24.44397374215752
 40
24.44397374215752
 10
157308.7827216214
 20
110109.5005096997
 30
0.0
 10
157310.2616706339
 20
110108.3796477851
 30
0.0
 10
157313.334895279
 20
110106.0505205261
 30
0.0
 10
157319.2567425193
 20
110104.8949247977
 30
0.0
 10
157325.6463253638
 20
110105.0085023319
 30
0.0
 10
157329.721957422
 20
110106.5977819543
 30
0.0
 10
157331.8461108428
 20
110107.426088754
 30
0.0
 11
157308.7827216214
 21
110109.5005096997
 31
0.0
 11
157313.3953975524
 21
110106.5041258419
 31
0.0
 11
157319.1612496407
 21
110105.1211844025
 31
0.0
 11
157325.388360713
 21
110105.3516736661
 31
0.0
 11
157331.8461108428
 21
110107.426088754
 31
0.0
  0
SPLINE
  5
60E86
330
1F
100
AcDbEntity
  8
freecads.com
 48
0.02
100
AcDbSpline
210
0.0
220
0.0
230
1.0
 70
  1064
 71
     3
 72
    14
 73
    10
 74
     8
 42
0.000000001
 43
0.0000000001
 44
0.0000000001
 40
0.0
 40
0.0
 40
0.0
 40
0.0
 40
5.55265319690462
 40
10.63282013200069
 40
16.0930427449993
 40
21.13068897121023
 40
23.56343088063593
 40
27.07230889765495
 40
28.61274570455289
 40
28.61274570455289
 40
28.61274570455289
 40
28.61274570455289
 10
157365.5134155615
 20
110082.0362448265
 30
0.0
 10
157366.7437770558
 20
110080.7206465307
 30
0.0
 10
157369.0998061474
 20
110078.2013968046
 30
0.0
 10
157374.4364482872
 20
110074.977444577
 30
0.0
 10
157371.4713504237
 20
110068.4739211261
 30
0.0
 10
157366.5941089795
 20
110068.6067591687
 30
0.0
 10
157363.2156778973
 20
110069.9407330002
 30
0.0
 10
157360.6243960416
 20
110069.868252166
 30
0.0
 10
157358.9932856236
 20
110069.4675782149
 30
0.0
 10
157358.4956690931
 20
110069.3453412534
 30
0.0
 11
157365.5134155615
 21
110082.0362448265
 31
0.0
 11
157369.5235564005
 21
110078.1955771794
 31
0.0
 11
157373.0324248519
 21
110074.5218953369
 31
0.0
 11
157370.8602700135
 21
110069.5123270579
 31
0.0
 11
157365.8475939647
 21
110069.0113696442
 31
0.0
 11
157363.5083451419
 21
110069.6793128625
 31
0.0
 11
157359.9994671249
 21
110069.6793128625
 31
0.0
 11
157358.4956690931
 21
110069.3453412534
 31
0.0
  0
SPLINE
  5
60E87
330
1F
100
AcDbEntity
  8
freecads.com
 48
0.02
100
AcDbSpline
210
0.0
220
0.0
230
1.0
 70
  1064
 71
     3
 72
     9
 73
     5
 74
     3
 42
0.000000001
 43
0.0000000001
 44
0.0000000001
 40
0.0
 40
0.0
 40
0.0
 40
0.0
 40
5.748217520440161
 40
11.2814957003045
 40
11.2814957003045
 40
11.2814957003045
 40
11.2814957003045
 10
157348.4703169955
 20
110066.1726168245
 30
0.0
 10
157346.5577370716
 20
110067.0833278648
 30
0.0
 10
157342.8040930745
 20
110068.8706963226
 30
0.0
 10
157343.1304684087
 20
110072.9983478024
 30
0.0
 10
157343.2905469624
 20
110075.0228527506
 30
0.0
 11
157348.4703169955
 21
110066.1726168245
 31
0.0
 11
157343.79181935
 21
110069.5123270579
 31
0.0
 11
157343.2905469624
 21
110075.0228527506
 31
0.0
  0
SPLINE
  5
60E88
330
1F
100
AcDbEntity
  8
freecads.com
 48
0.02
100
AcDbSpline
210
0.0
220
0.0
230
1.0
 70
  1064
 71
     3
 72
    10
 73
     6
 74
     4
 42
0.000000001
 43
0.0000000001
 44
0.0000000001
 40
0.0
 40
0.0
 40
0.0
 40
0.0
 40
4.631189945039038
 40
9.499646521635565
 40
15.05390394295344
 40
15.05390394295344
 40
15.05390394295344
 40
15.05390394295344
 10
157337.1082512848
 20
110079.865435225
 30
0.0
 10
157336.3085728673
 20
110078.5929580735
 30
0.0
 10
157334.6682466471
 20
110075.9828118065
 30
0.0
 10
157334.6956649628
 20
110069.464835152
 30
0.0
 10
157338.8855859766
 20
110069.9315553762
 30
0.0
 10
157341.1183921239
 20
110070.1802702761
 30
0.0
 11
157337.1082512848
 21
110079.865435225
 31
0.0
 11
157335.1031808653
 21
110075.6907959688
 31
0.0
 11
157335.6044436875
 21
110070.8482134944
 31
0.0
 11
157341.1183921239
 21
110070.1802702761
 31
0.0
  0
SPLINE
  5
60E89
330
1F
100
AcDbEntity
  8
freecads.com
 48
0.02
100
AcDbSpline
210
0.0
220
0.0
230
1.0
 70
  1064
 71
     3
 72
    28
 73
    24
 74
    22
 42
0.000000001
 43
0.0000000001
 44
0.0000000001
 40
0.0
 40
0.0
 40
0.0
 40
0.0
 40
12.35374382881382
 40
31.81860156097336
 40
42.30071695994931
 40
53.46826088113054
 40
89.32514481638049
 40
103.2233322582216
 40
117.0095050473801
 40
129.7265664143272
 40
156.800162989379
 40
178.1648440469278
 40
194.6584474662213
 40
213.6293625164391
 40
244.0157204473886
 40
311.9994115799236
 40
357.3160224685008
 40
402.6112152751089
 40
419.8293468265134
 40
436.2405481492235
 40
445.7102920732408
 40
457.6633237843835
 40
483.2294879658268
 40
483.2294879658268
 40
483.2294879658268
 40
483.2294879658268
 10
157400.3329398653
 20
110031.8336060679
 30
0.0
 10
157399.6369578061
 20
110027.7635289659
 30
0.0
 10
157397.8443695718
 20
110017.2805398877
 30
0.0
 10
157398.014036413
 20
110003.2391786154
 30
0.0
 10
157404.4287190528
 20
109989.4044940711
 30
0.0
 10
157425.2636968793
 20
109987.9329947893
 30
0.0
 10
157443.6845281184
 20
109981.1472055016
 30
0.0
 10
157464.6828752036
 20
109977.4334348623
 30
0.0
 10
157478.0277685889
 20
109975.8022779171
 30
0.0
 10
157495.772211183
 20
109973.6130140165
 30
0.0
 10
157515.4142332628
 20
109967.4816478362
 30
0.0
 10
157533.1255011148
 20
109952.6562067964
 30
0.0
 10
157536.9750722221
 20
109933.5010282926
 30
0.0
 10
157540.1565762706
 20
109911.9919078917
 30
0.0
 10
157550.500284676
 20
109873.7098703705
 30
0.0
 10
157539.6629320011
 20
109825.4729703165
 30
0.0
 10
157539.6685671765
 20
109772.9970565555
 30
0.0
 10
157539.3112475509
 20
109736.256073124
 30
0.0
 10
157540.8152105006
 20
109711.2483968229
 30
0.0
 10
157539.095607354
 20
109694.002810231
 30
0.0
 10
157552.1696940661
 20
109689.1039493821
 30
0.0
 10
157562.3412340089
 20
109676.9302305716
 30
0.0
 10
157567.0120478138
 20
109665.2252397283
 30
0.0
 10
157570.1948130557
 20
109657.2492767438
 30
0.0
 11
157400.3329398653
 21
110031.8336060679
 31
0.0
 11
157398.5344507195
 21
110019.611477637
 31
0.0
 11
157399.973240123
 21
110000.1998684408
 31
0.0
 11
157405.3687075604
 21
109991.213007233
 31
0.0
 11
157416.1596233039
 21
109988.3372160984
 31
0.0
 11
157451.0502782963
 21
109980.0693070676
 31
0.0
 11
157464.7187728469
 21
109977.5529861638
 31
0.0
 11
157478.3872769631
 21
109975.7556115791
 31
0.0
 11
157490.9766818525
 21
109973.9582428522
 31
0.0
 11
157516.5152009392
 21
109964.9713816445
 31
0.0
 11
157531.9821942011
 21
109950.2329381674
 31
0.0
 11
157536.6582525883
 21
109934.4160664251
 31
0.0
 11
157539.8955311376
 21
109915.723403548
 31
0.0
 11
157545.6506887516
 21
109885.8870346479
 31
0.0
 11
157541.0314507371
 21
109818.0604550484
 31
0.0
 11
157539.5926613336
 21
109772.7666904943
 31
0.0
 11
157539.952361076
 21
109727.4729259402
 31
0.0
 11
157540.3108651032
 21
109710.2585270548
 31
0.0
 11
157542.8299398829
 21
109694.0418137285
 31
0.0
 11
157550.7711513255
 21
109688.8830143709
 31
0.0
 11
157559.04419757
 21
109680.2556351094
 31
0.0
 11
157570.1948130557
 21
109657.2492767438
 31
0.0
  0
SPLINE
  5
60E8A
330
1F
100
AcDbEntity
  8
freecads.com
 48
0.02
100
AcDbSpline
210
0.0
220
0.0
230
1.0
 70
  1064
 71
     3
 72
    17
 73
    13
 74
    11
 42
0.000000001
 43
0.0000000001
 44
0.0000000001
 40
0.0
 40
0.0
 40
0.0
 40
0.0
 40
7.450262367147752
 40
14.0481896276021
 40
22.03898075576182
 40
31.19127366663198
 40
46.96648815767459
 40
59.26307049552504
 40
66.78793610680212
 40
71.38662346405578
 40
74.31589770949614
 40
79.70068948938212
 40
79.70068948938212
 40
79.70068948938212
 40
79.70068948938212
 10
157553.7990841082
 20
109658.2485321698
 30
0.0
 10
157551.2641949497
 20
109657.151394745
 30
0.0
 10
157546.4844164896
 20
109655.0826361118
 30
0.0
 10
157547.0999409844
 20
109646.7397942487
 30
0.0
 10
157542.1406655673
 20
109640.1916998282
 30
0.0
 10
157533.1715856159
 20
109633.4848386002
 30
0.0
 10
157530.7475006231
 20
109620.1032964556
 30
0.0
 10
157532.2199306388
 20
109608.3284232301
 30
0.0
 10
157529.1452145905
 20
109600.4582715878
 30
0.0
 10
157524.4384718448
 20
109597.239568317
 30
0.0
 10
157525.341366649
 20
109592.5518609498
 30
0.0
 10
157527.0933960209
 20
109590.4103613807
 30
0.0
 10
157528.2281372331
 20
109589.0233710391
 30
0.0
 11
157553.7990841082
 21
109658.2485321698
 31
0.0
 11
157547.6491109963
 21
109654.0432687937
 31
0.0
 11
157546.3543717595
 21
109647.5736247198
 31
0.0
 11
157542.1464979371
 21
109640.7805001995
 31
0.0
 11
157535.6728400161
 21
109634.3108619833
 31
0.0
 11
157531.4649661936
 21
109619.1072048531
 31
0.0
 11
157531.1412813845
 21
109606.8148834558
 31
0.0
 11
157527.904452424
 21
109600.0217589355
 31
0.0
 11
157524.9913082726
 21
109596.4634564521
 31
0.0
 11
157525.3149930817
 21
109593.5521207193
 31
0.0
 11
157528.2281372331
 21
109589.0233710391
 31
0.0
  0
SPLINE
  5
60E8B
330
1F
100
AcDbEntity
  8
freecads.com
 48
0.02
100
AcDbSpline
210
0.0
220
0.0
230
1.0
 70
  1064
 71
     3
 72
    14
 73
    10
 74
     8
 42
0.000000001
 43
0.0000000001
 44
0.0000000001
 40
0.0
 40
0.0
 40
0.0
 40
0.0
 40
4.249870380956966
 40
9.626446805490449
 40
19.14231203218304
 40
31.44041297496114
 40
44.46193056080534
 40
63.97738224049394
 40
81.17709486051779
 40
81.17709486051779
 40
81.17709486051779
 40
81.17709486051779
 10
157480.7710637748
 20
109668.2728996648
 30
0.0
 10
157480.6430725898
 20
109666.8516985496
 30
0.0
 10
157480.3531577869
 20
109663.6325140311
 30
0.0
 10
157482.4894604764
 20
109657.3879751735
 30
0.0
 10
157488.8532039949
 20
109650.7202775227
 30
0.0
 10
157493.3619449295
 20
109639.9069186079
 30
0.0
 10
157499.1805730675
 20
109626.0050533069
 30
0.0
 10
157512.8781385672
 20
109615.0650182436
 30
0.0
 10
157524.65377924
 20
109611.6496709001
 30
0.0
 10
157530.1702365227
 20
109610.0497054927
 30
0.0
 11
157480.7710637748
 21
109668.2728996648
 31
0.0
 11
157480.652984536
 21
109664.024669969
 31
0.0
 11
157482.2651812987
 21
109658.8954989203
 31
0.0
 11
157487.7677847921
 21
109651.1319272031
 31
0.0
 11
157493.2703978513
 21
109640.1335393067
 31
0.0
 11
157499.0966861541
 21
109628.4881846599
 31
0.0
 11
157513.9860917199
 21
109615.8723828161
 31
0.0
 11
157530.1702365227
 21
109610.0497054927
 31
0.0
  0
SPLINE
  5
60E8C
330
1F
100
AcDbEntity
  8
freecads.com
 48
0.02
100
AcDbSpline
210
0.0
220
0.0
230
1.0
 70
  1064
 71
     3
 72
    12
 73
     8
 74
     6
 42
0.000000001
 43
0.0000000001
 44
0.0000000001
 40
0.0
 40
0.0
 40
0.0
 40
0.0
 40
8.631848494541724
 40
40.89126209561411
 40
57.80527902171574
 40
66.77686160251004
 40
69.95454691793987
 40
69.95454691793987
 40
69.95454691793987
 40
69.95454691793987
 10
157475.7915233776
 20
109737.5311861586
 30
0.0
 10
157476.4621746348
 20
109734.7344563452
 30
0.0
 10
157479.6392202411
 20
109721.4856357847
 30
0.0
 10
157481.9143238474
 20
109702.1112820104
 30
0.0
 10
157481.7287812449
 20
109682.9744645861
 30
0.0
 10
157482.9103434123
 20
109672.9649196911
 30
0.0
 10
157481.2145933788
 20
109669.2456802906
 30
0.0
 10
157480.7710637748
 20
109668.2728996648
 30
0.0
 11
157475.7915233776
 21
109737.5311861586
 31
0.0
 11
157477.7336226672
 21
109729.1206535487
 31
0.0
 11
157481.6178116804
 21
109697.0959311987
 31
0.0
 11
157482.1880146413
 21
109680.1915283059
 31
0.0
 11
157481.9518561635
 21
109671.2230544571
 31
0.0
 11
157480.7710637748
 21
109668.2728996648
 31
0.0
  0
SPLINE
  5
60E8D
330
1F
100
AcDbEntity
  8
freecads.com
 48
0.02
100
AcDbSpline
210
0.0
220
0.0
230
1.0
 70
  1064
 71
     3
 72
    10
 73
     6
 74
     4
 42
0.000000001
 43
0.0000000001
 44
0.0000000001
 40
0.0
 40
0.0
 40
0.0
 40
0.0
 40
8.830830301375847
 40
24.13761510569953
 40
39.05286368940743
 40
39.05286368940743
 40
39.05286368940743
 40
39.05286368940743
 10
157498.5851210523
 20
109677.6048328465
 30
0.0
 10
157501.2243914791
 20
109678.9066464984
 30
0.0
 10
157508.4384009828
 20
109682.4649389574
 30
0.0
 10
157519.8889645478
 20
109688.7280595453
 30
0.0
 10
157529.4261409348
 20
109692.0284187687
 30
0.0
 10
157534.1329505254
 20
109693.6572197697
 30
0.0
 11
157498.5851210523
 21
109677.6048328465
 31
0.0
 11
157506.4846355244
 21
109681.552140146
 31
0.0
 11
157520.1771400303
 21
109688.3941414177
 31
0.0
 11
157534.1329505254
 21
109693.6572197697
 31
0.0
  0
SPLINE
  5
60E8E
330
1F
100
AcDbEntity
  8
freecads.com
 48
0.02
100
AcDbSpline
210
0.0
220
0.0
230
1.0
 70
  1064
 71
     3
 72
    10
 73
     6
 74
     4
 42
0.000000001
 43
0.0000000001
 44
0.0000000001
 40
0.0
 40
0.0
 40
0.0
 40
0.0
 40
5.691473205925633
 40
13.75752358107998
 40
17.2020264194994
 40
17.2020264194994
 40
17.2020264194994
 40
17.2020264194994
 10
157550.3093566612
 20
109619.1157043936
 30
0.0
 10
157549.3037695248
 20
109617.4243088493
 30
0.0
 10
157546.8730475939
 20
109613.3358394417
 30
0.0
 10
157548.8560139495
 20
109607.3558082678
 30
0.0
 10
157548.0438733719
 20
109603.5894165868
 30
0.0
 10
157547.8008424355
 20
109602.4623337616
 30
0.0
 11
157550.3093566612
 21
109619.1157043936
 31
0.0
 11
157547.9800274893
 21
109613.9227194271
 31
0.0
 11
157548.3383880308
 21
109605.8646336509
 31
0.0
 11
157547.8008424355
 21
109602.4623337616
 31
0.0
  0
SPLINE
  5
60E8F
330
1F
100
AcDbEntity
  8
freecads.com
 48
0.02
100
AcDbSpline
210
0.0
220
0.0
230
1.0
 70
  1064
 71
     3
 72
    12
 73
     8
 74
     6
 42
0.000000001
 43
0.0000000001
 44
0.0000000001
 40
0.0
 40
0.0
 40
0.0
 40
0.0
 40
3.582791822999806
 40
15.36066493206713
 40
27.23523069663458
 40
36.78645912344416
 40
40.47544735053072
 40
40.47544735053072
 40
40.47544735053072
 40
40.47544735053072
 10
157530.2412332912
 20
109596.3740033276
 30
0.0
 10
157531.1716086173
 20
109597.1388470613
 30
0.0
 10
157535.1604487036
 20
109600.4179960877
 30
0.0
 10
157544.7015927307
 20
109601.4832075377
 30
0.0
 10
157555.8121334396
 20
109601.2500211445
 30
0.0
 10
157563.4981736262
 20
109605.0789667781
 30
0.0
 10
157567.336943926
 20
109607.233963859
 30
0.0
 10
157568.4065018353
 20
109607.8343889932
 30
0.0
 11
157530.2412332912
 21
109596.3740033276
 31
0.0
 11
157533.1081080584
 21
109598.5228230772
 31
0.0
 11
157544.5756071269
 21
109601.2088536218
 31
0.0
 11
157556.401466737
 21
109602.2832634966
 31
0.0
 11
157565.1812760922
 21
109606.043703916
 31
0.0
 11
157568.4065018353
 21
109607.8343889932
 31
0.0
  0
SPLINE
  5
60E90
330
1F
100
AcDbEntity
  8
freecads.com
 48
0.02
100
AcDbSpline
210
0.0
220
0.0
230
1.0
 70
  1064
 71
     3
 72
    10
 73
     6
 74
     4
 42
0.000000001
 43
0.0000000001
 44
0.0000000001
 40
0.0
 40
0.0
 40
0.0
 40
0.0
 40
4.649101382374323
 40
10.20354536095331
 40
12.9313009115446
 40
12.9313009115446
 40
12.9313009115446
 40
12.9313009115446
 10
157562.672752301
 20
109619.8319795961
 30
0.0
 10
157563.0629078325
 20
109618.3309315305
 30
0.0
 10
157563.9191958194
 20
109615.0365288564
 30
0.0
 10
157565.5159041051
 20
109611.0227551915
 30
0.0
 10
157566.6120513883
 20
109608.4896130951
 30
0.0
 10
157566.9730692345
 20
109607.6553187281
 30
0.0
 11
157562.672752301
 21
109619.8319795961
 31
0.0
 11
157563.9270094138
 21
109615.3552639743
 31
0.0
 11
157565.8979876097
 21
109610.1622790077
 31
0.0
 11
157566.9730692345
 21
109607.6553187281
 31
0.0
  0
SPLINE
  5
60E91
330
1F
100
AcDbEntity
  8
freecads.com
 48
0.02
100
AcDbSpline
210
0.0
220
0.0
230
1.0
 70
  1064
 71
     3
 72
    10
 73
     6
 74
     4
 42
0.000000001
 43
0.0000000001
 44
0.0000000001
 40
0.0
 40
0.0
 40
0.0
 40
0.0
 40
3.061589049938347
 40
6.111022722555009
 40
8.643466625458337
 40
8.643466625458337
 40
8.643466625458337
 40
8.643466625458337
 10
157532.8163727514
 20
109596.0158627975
 30
0.0
 10
157534.0189686994
 20
109595.8359399854
 30
0.0
 10
157536.4193859483
 20
109595.4768087058
 30
0.0
 10
157535.6393691019
 20
109591.9560486671
 30
0.0
 10
157536.0393266669
 20
109590.191077696
 30
0.0
 10
157536.2207835482
 20
109589.3903274262
 30
0.0
 11
157532.8163727514
 21
109596.0158627975
 31
0.0
 11
157535.6832475188
 21
109594.9414529228
 31
0.0
 11
157535.8624230065
 21
109591.8972877058
 31
0.0
 11
157536.2207835482
 21
109589.3903274262
 31
0.0
  0
SPLINE
  5
60E92
330
1F
100
AcDbEntity
  8
freecads.com
 48
0.02
100
AcDbSpline
210
0.0
220
0.0
230
1.0
 70
  1064
 71
     3
 72
    14
 73
    10
 74
     8
 42
0.000000001
 43
0.0000000001
 44
0.0000000001
 40
0.0
 40
0.0
 40
0.0
 40
0.0
 40
7.902184451036959
 40
19.19617833878227
 40
32.1764121052298
 40
44.90906672287643
 40
52.48768375274984
 40
53.13360612467602
 40
54.92499820890762
 40
54.92499820890762
 40
54.92499820890762
 40
54.92499820890762
 10
157529.5245217737
 20
109586.8833671465
 30
0.0
 10
157532.1528486642
 20
109586.647825563
 30
0.0
 10
157538.5376441641
 20
109586.0756422292
 30
0.0
 10
157549.2291070051
 20
109586.7923554475
 30
0.0
 10
157561.7223190652
 20
109587.2610661062
 30
0.0
 10
157571.9033609753
 20
109592.116325777
 30
0.0
 10
157579.5767090587
 20
109590.7433607029
 30
0.0
 10
157582.3426244481
 20
109592.6504373997
 30
0.0
 10
157582.9852649562
 20
109593.1452339581
 30
0.0
 10
157583.4575967542
 20
109593.5089025179
 30
0.0
 11
157529.5245217737
 21
109586.8833671465
 31
0.0
 11
157537.4084249919
 21
109586.3461622092
 31
0.0
 11
157548.6967390067
 21
109586.7043027393
 31
0.0
 11
157561.5976802418
 21
109588.1368472863
 31
0.0
 11
157573.9610758815
 21
109591.1810125034
 31
0.0
 11
157581.4866185583
 21
109592.0763579708
 31
0.0
 11
157582.0241641536
 21
109592.4344926432
 31
0.0
 11
157583.4575967542
 21
109593.5089025179
 31
0.0
  0
SPLINE
  5
60E93
330
1F
100
AcDbEntity
  8
freecads.com
 48
0.02
100
AcDbSpline
210
0.0
220
0.0
230
1.0
 70
  1064
 71
     3
 72
    14
 73
    10
 74
     8
 42
0.000000001
 43
0.0000000001
 44
0.0000000001
 40
0.0
 40
0.0
 40
0.0
 40
0.0
 40
4.919195875072612
 40
9.399490239896854
 40
12.57274921684451
 40
17.39689736962555
 40
38.68820938413207
 40
56.44144938137499
 40
69.70195073300692
 40
69.70195073300692
 40
69.70195073300692
 40
69.70195073300692
 10
157525.7617504352
 20
109586.5252324742
 30
0.0
 10
157524.0458985732
 20
109585.828830839
 30
0.0
 10
157520.7672869383
 20
109584.4981620592
 30
0.0
 10
157521.3945339349
 20
109579.803561211
 30
0.0
 10
157522.0250905057
 20
109575.3679198652
 30
0.0
 10
157533.1742361658
 20
109573.4127082657
 30
0.0
 10
157546.4784065035
 20
109571.2543007113
 30
0.0
 10
157564.2720483409
 20
109572.91762491
 30
0.0
 10
157574.5735191052
 20
109572.9165056287
 30
0.0
 10
157578.9781043327
 20
109572.9160270591
 30
0.0
 11
157525.7617504352
 21
109586.5252324742
 31
0.0
 11
157521.6406185554
 21
109583.8392019296
 31
0.0
 11
157521.4614335017
 21
109579.3624921655
 31
0.0
 11
157522.3573300729
 21
109576.3183269484
 31
0.0
 11
157526.8368224944
 21
109574.5276418713
 31
0.0
 11
157547.9800274893
 21
109572.0206815917
 31
0.0
 11
157565.7188121217
 21
109572.7369567941
 31
0.0
 11
157578.9781043327
 21
109572.9160270591
 31
0.0
  0
SPLINE
  5
60E94
330
1F
100
AcDbEntity
  8
freecads.com
 48
0.02
100
AcDbSpline
210
0.0
220
0.0
230
1.0
 70
  1064
 71
     3
 72
    13
 73
     9
 74
     7
 42
0.000000001
 43
0.0000000001
 44
0.0000000001
 40
0.0
 40
0.0
 40
0.0
 40
0.0
 40
4.272239592691851
 40
11.35675528378726
 40
17.84687249011006
 40
33.29372910779098
 40
48.34908425806827
 40
61.83044278639946
 40
61.83044278639946
 40
61.83044278639946
 40
61.83044278639946
 10
157528.2702646608
 20
109572.378816264
 30
0.0
 10
157527.2814471785
 20
109571.2784778394
 30
0.0
 10
157524.6529058892
 20
109568.3534840634
 30
0.0
 10
157527.5971452289
 20
109560.6436804183
 30
0.0
 10
157538.3050612266
 20
109562.1174294645
 30
0.0
 10
157550.0191593384
 20
109560.0087510872
 30
0.0
 10
157564.881740958
 20
109559.721326574
 30
0.0
 10
157574.3336454618
 20
109560.655959926
 30
0.0
 10
157578.7989288446
 20
109561.0975008635
 30
0.0
 11
157528.2702646608
 21
109572.378816264
 31
0.0
 11
157525.9409259232
 21
109568.7974461097
 31
0.0
 11
157528.4494401488
 21
109562.1719107383
 31
0.0
 11
157534.8999107663
 21
109561.4556355358
 31
0.0
 11
157550.3093566612
 21
109560.3812256611
 31
0.0
 11
157565.3604515801
 21
109560.0230909887
 31
0.0
 11
157578.7989288446
 21
109561.0975008635
 31
0.0
  0
SPLINE
  5
60E95
330
1F
100
AcDbEntity
  8
freecads.com
 48
0.02
100
AcDbSpline
210
0.0
220
0.0
230
1.0
 70
  1064
 71
     3
 72
    25
 73
    21
 74
    19
 42
0.000000001
 43
0.0000000001
 44
0.0000000001
 40
0.0
 40
0.0
 40
0.0
 40
0.0
 40
3.267744511780202
 40
7.244560565759034
 40
13.02820032557488
 40
22.30739588583408
 40
28.94670819410678
 40
38.17043773789564
 40
47.57172155874065
 40
52.13981584095487
 40
55.12064704901773
 40
63.24244737122795
 40
70.66298459683237
 40
78.11199775031603
 40
81.55262116520329
 40
83.90793307619409
 40
86.41489335574974
 40
89.64331739868049
 40
93.57100728982947
 40
100.1965426611935
 40
100.1965426611935
 40
100.1965426611935
 40
100.1965426611935
 10
157535.9749828255
 20
109559.1277455213
 30
0.0
 10
157535.6208412372
 20
109558.0366215299
 30
0.0
 10
157534.8357124806
 20
109555.6176093299
 30
0.0
 10
157538.0632432838
 20
109551.7106024865
 30
0.0
 10
157544.556161558
 20
109551.0398457249
 30
0.0
 10
157551.5392308988
 20
109549.3632528633
 30
0.0
 10
157559.9585735728
 20
109548.8094816524
 30
0.0
 10
157568.3827263702
 20
109550.3759968908
 30
0.0
 10
157575.6278230996
 20
109551.7552022677
 30
0.0
 10
157582.0132534996
 20
109551.595797122
 30
0.0
 10
157584.5887792036
 20
109556.6714740252
 30
0.0
 10
157585.1548093174
 20
109562.7366141844
 30
0.0
 10
157588.1949716892
 20
109569.8419998728
 30
0.0
 10
157590.2455922267
 20
109575.6918511441
 30
0.0
 10
157593.876476292
 20
109578.688528952
 30
0.0
 10
157594.1071554888
 20
109581.5806762145
 30
0.0
 10
157593.8090025193
 20
109584.2816128494
 30
0.0
 10
157595.1602072603
 20
109587.3091140171
 30
0.0
 10
157597.483257141
 20
109591.3659036348
 30
0.0
 10
157597.0124632247
 20
109594.9924938244
 30
0.0
 10
157596.716888965
 20
109597.2693429373
 30
0.0
 11
157535.9749828255
 21
109559.1277455213
 31
0.0
 11
157535.4374467958
 21
109555.904515897
 31
0.0
 11
157537.7667855335
 21
109552.6812804149
 31
0.0
 11
157543.321350014
 21
109551.0696656028
 31
0.0
 11
157552.4595199108
 21
109549.4580449329
 31
0.0
 11
157559.0891660162
 21
109549.0999102606
 31
0.0
 11
157568.2273263473
 21
109550.3533904004
 31
0.0
 11
157577.5446717321
 21
109551.6068705402
 31
0.0
 11
157582.0241641536
 21
109552.5022101499
 31
0.0
 11
157583.6367722422
 21
109555.0091704295
 31
0.0
 11
157585.6077504381
 21
109562.8881859407
 31
0.0
 11
157588.1162646637
 21
109569.8718618421
 31
0.0
 11
157591.5206850261
 21
109576.4973972135
 31
0.0
 11
157593.67083871
 21
109579.1834219004
 31
0.0
 11
157594.0291992517
 21
109581.511311915
 31
0.0
 11
157594.0291992517
 21
109584.0182721946
 31
0.0
 11
157595.1042713109
 21
109587.0624374116
 31
0.0
 11
157596.716888965
 21
109590.643807566
 31
0.0
 11
157596.716888965
 21
109597.2693429373
 31
0.0
  0
SPLINE
  5
60E96
330
1F
100
AcDbEntity
  8
freecads.com
 48
0.02
100
AcDbSpline
210
0.0
220
0.0
230
1.0
 70
  1064
 71
     3
 72
    10
 73
     6
 74
     4
 42
0.000000001
 43
0.0000000001
 44
0.0000000001
 40
0.0
 40
0.0
 40
0.0
 40
0.0
 40
2.237567283309009
 40
6.437746686829374
 40
9.005684860582084
 40
9.005684860582084
 40
9.005684860582084
 40
9.005684860582084
 10
157530.2412332912
 20
109596.3740033276
 30
0.0
 10
157529.9599866438
 20
109595.6923809145
 30
0.0
 10
157529.1508066538
 20
109593.7312723193
 30
0.0
 10
157528.407380282
 20
109590.5146286729
 30
0.0
 10
157529.6700407116
 20
109588.5681916611
 30
0.0
 10
157530.1491154146
 20
109587.8296805687
 30
0.0
 11
157530.2412332912
 21
109596.3740033276
 31
0.0
 11
157529.4310455649
 21
109594.2882652819
 31
0.0
 11
157528.9740911545
 21
109590.1130168235
 31
0.0
 11
157530.1491154146
 21
109587.8296805687
 31
0.0
  0
SPLINE
  5
60E97
330
1F
100
AcDbEntity
  8
freecads.com
 48
0.02
100
AcDbSpline
210
0.0
220
0.0
230
1.0
 70
  1064
 71
     3
 72
    11
 73
     7
 74
     5
 42
0.000000001
 43
0.0000000001
 44
0.0000000001
 40
0.0
 40
0.0
 40
0.0
 40
0.0
 40
4.163983268659551
 40
6.426768376687823
 40
9.906507095108128
 40
13.63024165840493
 40
13.63024165840493
 40
13.63024165840493
 40
13.63024165840493
 10
157527.4726845525
 20
109584.372048729
 30
0.0
 10
157528.8461518403
 20
109584.293136632
 30
0.0
 10
157530.9659865185
 20
109584.1713422498
 30
0.0
 10
157534.2048029563
 20
109582.4573879999
 30
0.0
 10
157533.8109535852
 20
109578.8258229855
 30
0.0
 10
157533.7207756942
 20
109576.5041114405
 30
0.0
 10
157533.6741594972
 20
109575.3039351939
 30
0.0
 11
157527.4726845525
 21
109584.372048729
 31
0.0
 11
157531.5852455479
 21
109583.7196694523
 31
0.0
 11
157533.4783300918
 21
109582.4801423833
 31
0.0
 11
157533.869998468
 21
109579.0225164012
 31
0.0
 11
157533.6741594972
 21
109575.3039351939
 31
0.0
  0
SPLINE
  5
60E98
330
1F
100
AcDbEntity
  8
freecads.com
 48
0.02
100
AcDbSpline
210
0.0
220
0.0
230
1.0
 70
  1064
 71
     3
 72
    11
 73
     7
 74
     5
 42
0.000000001
 43
0.0000000001
 44
0.0000000001
 40
0.0
 40
0.0
 40
0.0
 40
0.0
 40
5.222299221204593
 40
6.97991692237901
 40
9.543476192268
 40
13.65348730865125
 40
13.65348730865125
 40
13.65348730865125
 40
13.65348730865125
 10
157527.9288641396
 20
109570.5823203362
 30
0.0
 10
157529.5970378703
 20
109570.6550625096
 30
0.0
 10
157531.8266523676
 20
109570.7522867982
 30
0.0
 10
157535.4070731453
 20
109570.3522025129
 30
0.0
 10
157535.5476464389
 20
109566.928476365
 30
0.0
 10
157535.5189038425
 20
109564.8293586581
 30
0.0
 10
157535.5012023149
 20
109563.5365878307
 30
0.0
 11
157527.9288641396
 21
109570.5823203362
 31
0.0
 11
157533.1511633607
 21
109570.5823203362
 31
0.0
 11
157534.8484184993
 21
109570.1256530853
 31
0.0
 11
157535.5012023149
 21
109567.6465989471
 31
0.0
 11
157535.5012023149
 21
109563.5365878307
 31
0.0
  0
SPLINE
  5
60E99
330
1F
100
AcDbEntity
  8
freecads.com
 48
0.02
100
AcDbSpline
210
0.0
220
0.0
230
1.0
 70
  1064
 71
     3
 72
    11
 73
     7
 74
     5
 42
0.000000001
 43
0.0000000001
 44
0.0000000001
 40
0.0
 40
0.0
 40
0.0
 40
0.0
 40
4.314728883420529
 40
5.541066248842008
 40
8.613509497080436
 40
10.50992080662707
 40
10.50992080662707
 40
10.50992080662707
 40
10.50992080662707
 10
157536.8720559801
 20
109559.8180066234
 30
0.0
 10
157538.2388707371
 20
109559.6438993738
 30
0.0
 10
157539.994163207
 20
109559.4203071551
 30
0.0
 10
157543.0885022274
 20
109558.4047958995
 30
0.0
 10
157541.7654092924
 20
109555.7405495695
 30
0.0
 10
157542.0507345361
 20
109554.158817319
 30
0.0
 10
157542.1596316698
 20
109553.555133936
 30
0.0
 11
157536.8720559801
 21
109559.8180066234
 31
0.0
 11
157541.1151699124
 21
109559.0351468053
 31
0.0
 11
157542.2249081382
 21
109558.5132422124
 31
0.0
 11
157542.0290787329
 21
109555.4470461395
 31
0.0
 11
157542.1596316698
 21
109553.555133936
 31
0.0
  0
SPLINE
  5
60E9A
330
1F
100
AcDbEntity
  8
freecads.com
 48
0.02
100
AcDbSpline
210
0.0
220
0.0
230
1.0
 70
  1064
 71
     3
 72
    19
 73
    15
 74
    13
 42
0.000000001
 43
0.0000000001
 44
0.0000000001
 40
0.0
 40
0.0
 40
0.0
 40
0.0
 40
6.249491400681367
 40
10.95965401388693
 40
15.6805097751023
 40
20.42987056692152
 40
27.48486751886959
 40
31.63575205584194
 40
35.11857516665377
 40
42.71152532122615
 40
50.2338801846034
 40
62.10156133994707
 40
66.85354490119611
 40
71.00501787247323
 40
71.00501787247323
 40
71.00501787247323
 40
71.00501787247323
 10
157593.2040411746
 20
109594.3092886112
 30
0.0
 10
157593.8118085188
 20
109596.3063484988
 30
0.0
 10
157594.877642422
 20
109599.808567161
 30
0.0
 10
157597.7776437972
 20
109604.3002336178
 30
0.0
 10
157597.2914833913
 20
109609.4854706623
 30
0.0
 10
157593.2420889058
 20
109613.4672580735
 30
0.0
 10
157591.3943628049
 20
109618.5424783563
 30
0.0
 10
157589.182965909
 20
109622.9020993023
 30
0.0
 10
157587.2469538016
 20
109627.6008162428
 30
0.0
 10
157584.0405769426
 20
109632.9460153593
 30
0.0
 10
157580.4742453106
 20
109641.1342007917
 30
0.0
 10
157578.3250458271
 20
109649.3453025444
 30
0.0
 10
157572.8717889243
 20
109653.815794813
 30
0.0
 10
157571.0460924869
 20
109656.1574280725
 30
0.0
 10
157570.1948130557
 20
109657.2492767438
 30
0.0
 11
157593.2040411746
 21
109594.3092886112
 31
0.0
 11
157595.3398462796
 21
109600.1824887033
 31
0.0
 11
157597.2599539804
 21
109604.4835139601
 31
0.0
 11
157596.7964757496
 21
109609.1815632412
 31
0.0
 11
157594.0540222932
 21
109613.0591110449
 31
0.0
 11
157590.9037248293
 21
109619.3716864212
 31
0.0
 11
157589.1352146477
 21
109623.1269779115
 31
0.0
 11
157587.7199760452
 21
109626.3092972731
 31
0.0
 11
157584.1818651899
 21
109633.0275309417
 31
0.0
 11
157581.1744795722
 21
109639.9225620828
 31
0.0
 11
157576.2211301143
 21
109650.7070966185
 31
0.0
 11
157572.8599276717
 21
109654.0662134528
 31
0.0
 11
157570.1948130557
 21
109657.2492767438
 31
0.0
  0
SPLINE
  5
60E9B
330
1F
100
AcDbEntity
  8
freecads.com
 48
0.02
100
AcDbSpline
210
0.0
220
0.0
230
1.0
 70
  1064
 71
     3
 72
    23
 73
    19
 74
    17
 42
0.000000001
 43
0.0000000001
 44
0.0000000001
 40
0.0
 40
0.0
 40
0.0
 40
0.0
 40
20.47514399728376
 40
42.15746680498884
 40
52.03181913404979
 40
64.26579222763994
 40
85.20273710495345
 40
104.5047853796213
 40
119.3159289459057
 40
139.3090866069825
 40
160.4819340589896
 40
180.2795687167533
 40
242.2166072058535
 40
280.7771313948564
 40
320.7791834287239
 40
351.1263949495146
 40
413.547585645937
 40
440.6874685874038
 40
440.6874685874038
 40
440.6874685874038
 40
440.6874685874038
 10
157308.0297751594
 20
110039.8464175857
 30
0.0
 10
157307.309012139
 20
110033.054463219
 30
0.0
 10
157305.8249911665
 20
110019.0701126916
 30
0.0
 10
157302.4844880187
 20
110002.0609412209
 30
0.0
 10
157295.8703198766
 20
109988.4948712141
 30
0.0
 10
157282.5817130572
 20
109981.5806510429
 30
0.0
 10
157266.0349713778
 20
109976.5529369182
 30
0.0
 10
157249.2502800241
 20
109968.8894488621
 30
0.0
 10
157231.8659789162
 20
109963.9094358431
 30
0.0
 10
157213.4991089211
 20
109960.7951838279
 30
0.0
 10
157193.4737859266
 20
109956.3764371503
 30
0.0
 10
157164.5613203125
 20
109935.2096947413
 30
0.0
 10
157161.1691873531
 20
109890.049423517
 30
0.0
 10
157162.1426033175
 20
109844.2673422166
 30
0.0
 10
157168.0695032272
 20
109808.122258779
 30
0.0
 10
157170.3856539691
 20
109763.9569112017
 30
0.0
 10
157171.2143239215
 20
109723.9630981593
 30
0.0
 10
157170.6632556531
 20
109694.1149446661
 30
0.0
 10
157170.4962642618
 20
109685.0699951259
 30
0.0
 11
157308.0297751594
 21
110039.8464175857
 31
0.0
 11
157305.5791048383
 21
110019.5184630234
 31
0.0
 11
157300.432690468
 21
109998.4557580341
 31
0.0
 11
157295.5313498261
 21
109989.8837282961
 31
0.0
 11
157285.2385306514
 21
109983.2710154569
 31
0.0
 11
157265.6331585176
 21
109975.9235639062
 31
0.0
 11
157247.7018924817
 21
109968.779421834
 31
0.0
 11
157233.4879988805
 21
109964.6158653695
 31
0.0
 11
157213.8826267465
 21
109960.697225714
 31
0.0
 11
157193.5420525598
 21
109954.8192574441
 31
0.0
 11
157177.6126906903
 21
109943.0633326199
 31
0.0
 11
157161.8508628285
 21
109883.1654067856
 31
0.0
 11
157163.0314734683
 21
109844.6229602591
 31
0.0
 11
157167.7538777655
 21
109804.9006357479
 31
0.0
 11
157169.7215557883
 21
109774.6172823952
 31
0.0
 11
157170.8897979533
 21
109712.2070247591
 31
0.0
 11
157170.4962642618
 21
109685.0699951259
 31
0.0
  0
SPLINE
  5
60E9C
330
1F
100
AcDbEntity
  8
freecads.com
 48
0.02
100
AcDbSpline
210
0.0
220
0.0
230
1.0
 70
     8
 71
     3
 72
     9
 73
     5
 74
     0
 42
0.000000001
 43
0.0000000001
 40
19.76245601271056
 40
19.76245601271056
 40
19.76245601271056
 40
19.76245601271056
 40
21.93646311772192
 40
24.03591062854119
 40
24.03591062854119
 40
24.03591062854119
 40
24.03591062854119
 10
157177.9496628235
 20
109629.6510453833
 30
0.0
 10
157173.6356936097
 20
109623.4373814869
 30
0.0
 10
157165.140385413
 20
109611.2298184636
 30
0.0
 10
157156.6242384535
 20
109598.9267847973
 30
0.0
 10
157152.625709091
 20
109592.7785761158
 30
0.0
  0
SPLINE
  5
60E9D
330
1F
100
AcDbEntity
  8
freecads.com
 48
0.02
100
AcDbSpline
210
0.0
220
0.0
230
1.0
 70
  1064
 71
     3
 72
    11
 73
     7
 74
     5
 42
0.000000001
 43
0.0000000001
 44
0.0000000001
 40
0.0
 40
0.0
 40
0.0
 40
0.0
 40
5.968815529922721
 40
10.44775355185504
 40
13.53635225487342
 40
16.96578711245133
 40
16.96578711245133
 40
16.96578711245133
 40
16.96578711245133
 10
157301.9050172834
 20
109566.5537958557
 30
0.0
 10
157301.7601147585
 20
109568.4739820574
 30
0.0
 10
157301.5064788634
 20
109571.8350563121
 30
0.0
 10
157302.9034834783
 20
109577.0164417672
 30
0.0
 10
157307.293504682
 20
109577.1495133931
 30
0.0
 10
157308.8123576778
 20
109575.5055452268
 30
0.0
 10
157309.6114955403
 20
109574.6405785644
 30
0.0
 11
157301.9050172834
 21
109566.5537958557
 31
0.0
 11
157301.9050172834
 21
109572.5226113856
 31
0.0
 11
157303.8316392391
 21
109576.5660027399
 31
0.0
 11
157306.9142305419
 21
109576.7585457433
 31
0.0
 11
157309.6114955403
 21
109574.6405785644
 31
0.0
  0
SPLINE
  5
60E9E
330
1F
100
AcDbEntity
  8
freecads.com
 48
0.02
100
AcDbSpline
210
0.0
220
0.0
230
1.0
 70
  1064
 71
     3
 72
    10
 73
     6
 74
     4
 42
0.000000001
 43
0.0000000001
 44
0.0000000001
 40
0.0
 40
0.0
 40
0.0
 40
0.0
 40
22.88279653203989
 40
49.68565231832816
 40
70.40149507817353
 40
70.40149507817353
 40
70.40149507817353
 40
70.40149507817353
 10
157479.377950681
 20
109857.453400397
 30
0.0
 10
157481.5475073332
 20
109850.148577801
 30
0.0
 10
157486.2582880873
 20
109834.2875410941
 30
0.0
 10
157492.9049183557
 20
109811.6503261822
 30
0.0
 10
157493.9564402153
 20
109795.8045350377
 30
0.0
 10
157494.4148526333
 20
109788.8965403367
 30
0.0
 11
157479.377950681
 21
109857.453400397
 31
0.0
 11
157485.8823910866
 21
109835.5145163749
 31
0.0
 11
157492.3868314924
 21
109809.5128754015
 31
0.0
 11
157494.4148526333
 21
109788.8965403367
 31
0.0
  0
SPLINE
  5
60E9F
330
1F
100
AcDbEntity
  8
freecads.com
 48
0.02
100
AcDbSpline
210
0.0
220
0.0
230
1.0
 70
  1064
 71
     3
 72
     9
 73
     5
 74
     3
 42
0.000000001
 43
0.0000000001
 44
0.0000000001
 40
0.0
 40
0.0
 40
0.0
 40
0.0
 40
13.37547019437008
 40
37.22336646039903
 40
37.22336646039903
 40
37.22336646039903
 40
37.22336646039903
 10
157497.8052375246
 20
109847.0557326124
 30
0.0
 10
157497.0179986579
 20
109842.6666394106
 30
0.0
 10
157494.8271462692
 20
109830.4519791178
 30
0.0
 10
157493.3159342512
 20
109818.1329557008
 30
0.0
 10
157492.3477459634
 20
109810.2405262812
 30
0.0
 11
157497.8052375246
 21
109847.0557326124
 31
0.0
 11
157495.531274736
 21
109833.8749778481
 31
0.0
 11
157492.3477459634
 21
109810.2405262812
 31
0.0
  0
SPLINE
  5
60EA0
330
1F
100
AcDbEntity
  8
freecads.com
 48
0.02
100
AcDbSpline
210
0.0
220
0.0
230
1.0
 70
  1064
 71
     3
 72
    12
 73
     8
 74
     6
 42
0.000000001
 43
0.0000000001
 44
0.0000000001
 40
0.0
 40
0.0
 40
0.0
 40
0.0
 40
6.011176794990393
 40
26.50746371513769
 40
40.84986320772253
 40
55.0100520819253
 40
61.55238326359822
 40
61.55238326359822
 40
61.55238326359822
 40
61.55238326359822
 10
156981.4499488489
 20
109775.7473288214
 30
0.0
 10
156980.296680278
 20
109774.0245040143
 30
0.0
 10
156975.2111161959
 20
109766.4273699392
 30
0.0
 10
156984.2010399372
 20
109751.7872567146
 30
0.0
 10
156995.4324885991
 20
109741.041557096
 30
0.0
 10
157004.4541387561
 20
109733.2975023002
 30
0.0
 10
157008.7968906424
 20
109727.9376270206
 30
0.0
 10
157010.1692704784
 20
109726.2438197412
 30
0.0
 11
156981.4499488489
 21
109775.7473288214
 31
0.0
 11
156978.5516698254
 21
109770.4809994391
 31
0.0
 11
156985.6656282982
 21
109751.2588930936
 31
0.0
 11
156995.6778657946
 21
109740.9895443547
 31
0.0
 11
157005.953591029
 21
109731.2468332402
 31
0.0
 11
157010.1692704784
 21
109726.2438197412
 31
0.0
  0
SPLINE
  5
60EA1
330
1F
100
AcDbEntity
  8
freecads.com
 48
0.02
100
AcDbSpline
210
0.0
220
0.0
230
1.0
 70
  1064
 71
     3
 72
    25
 73
    21
 74
    19
 42
0.000000001
 43
0.0000000001
 44
0.0000000001
 40
0.0
 40
0.0
 40
0.0
 40
0.0
 40
12.49095398372702
 40
21.71069086786951
 40
35.1679131579762
 40
48.18275183493556
 40
56.35423963646834
 40
67.10102300157543
 40
83.13982405334318
 40
93.22446107476045
 40
100.0563861369645
 40
108.884855478603
 40
115.4061733272556
 40
121.2551376032574
 40
138.8512691522103
 40
160.0667261790218
 40
180.175854111644
 40
200.5473748999134
 40
217.3974309767304
 40
228.4569927212796
 40
228.4569927212796
 40
228.4569927212796
 40
228.4569927212796
 10
156983.8212715285
 20
109775.4840129381
 30
0.0
 10
156986.4655219931
 20
109772.229334018
 30
0.0
 10
156991.0615283903
 20
109766.5723339201
 30
0.0
 10
157000.9463265336
 20
109760.0903690874
 30
0.0
 10
157009.7861487254
 20
109752.244389096
 30
0.0
 10
157018.4173372679
 20
109744.1310387166
 30
0.0
 10
157029.6522514468
 20
109742.3077628513
 30
0.0
 10
157035.4114771092
 20
109731.0155833764
 30
0.0
 10
157040.3726771145
 20
109719.974794935
 30
0.0
 10
157048.6221597756
 20
109712.3791570292
 30
0.0
 10
157052.7732262188
 20
109704.7551628946
 30
0.0
 10
157053.4566694766
 20
109696.9367240703
 30
0.0
 10
157058.9928365186
 20
109692.0901015436
 30
0.0
 10
157066.889420441
 20
109685.9038815549
 30
0.0
 10
157082.4934417239
 20
109684.6605508058
 30
0.0
 10
157100.8612634425
 20
109678.011937289
 30
0.0
 10
157121.6450867989
 20
109676.3168659886
 30
0.0
 10
157140.6581981898
 20
109678.4698280509
 30
0.0
 10
157156.5242215416
 20
109681.2131322496
 30
0.0
 10
157165.5984779587
 20
109683.2686744883
 30
0.0
 10
157169.1942742098
 20
109684.0832107695
 30
0.0
 11
156983.8212715285
 21
109775.4840129381
 31
0.0
 11
156992.2526304271
 21
109766.2679335902
 31
0.0
 11
156999.630067072
 21
109760.7382883246
 31
0.0
 11
157009.9057827406
 21
109752.0488407435
 31
0.0
 11
157020.4449861468
 21
109744.4126625535
 31
0.0
 11
157028.0859009637
 21
109741.5161761214
 31
0.0
 11
157034.4094249205
 21
109732.8267343979
 31
0.0
 11
157042.3138179096
 21
109718.8709574346
 31
0.0
 11
157048.9008200383
 21
109711.2347733868
 31
0.0
 11
157052.0625772339
 21
109705.1784963546
 31
0.0
 11
157054.6973780856
 21
109696.7523646568
 31
0.0
 11
157059.1765357068
 21
109692.0126670412
 31
0.0
 11
157063.9191810659
 21
109688.5895547001
 31
0.0
 11
157080.9284935113
 21
109684.0832107695
 31
0.0
 11
157101.4799248483
 21
109678.8168755295
 31
0.0
 11
157121.5043998412
 21
109676.9736643461
 31
0.0
 11
157141.7923625719
 21
109678.8168755295
 31
0.0
 11
157158.3916021972
 21
109681.7133619617
 31
0.0
 11
157169.1942742098
 21
109684.0832107695
 31
0.0
  0
SPLINE
  5
60EA2
330
1F
100
AcDbEntity
  8
freecads.com
 48
0.02
100
AcDbSpline
210
0.0
220
0.0
230
1.0
 70
  1064
 71
     3
 72
     9
 73
     5
 74
     3
 42
0.000000001
 43
0.0000000001
 44
0.0000000001
 40
0.0
 40
0.0
 40
0.0
 40
0.0
 40
7.4595654682773
 40
22.84641702772625
 40
22.84641702772625
 40
22.84641702772625
 40
22.84641702772625
 10
157172.6195191431
 20
109681.976677845
 30
0.0
 10
157174.4452274337
 20
109680.2868373767
 30
0.0
 10
157180.0368256517
 20
109675.1113616449
 30
0.0
 10
157186.1532894156
 20
109670.5597391251
 30
0.0
 10
157190.2726714565
 20
109667.4942632572
 30
0.0
 11
157172.6195191431
 21
109681.976677845
 31
0.0
 11
157178.1525990182
 21
109676.9736643461
 31
0.0
 11
157190.2726714565
 21
109667.4942632572
 31
0.0
  0
SPLINE
  5
60EA3
330
1F
100
AcDbEntity
  8
freecads.com
 48
0.02
100
AcDbSpline
210
0.0
220
0.0
230
1.0
 70
  1064
 71
     3
 72
    18
 73
    14
 74
    12
 42
0.000000001
 43
0.0000000001
 44
0.0000000001
 40
0.0
 40
0.0
 40
0.0
 40
0.0
 40
16.6077015437297
 40
66.20513310547086
 40
101.3538248299662
 40
119.7499874208193
 40
136.0673856702073
 40
147.6045661837009
 40
162.3072119892897
 40
186.2362456304346
 40
212.9235869173135
 40
227.1214258916621
 40
242.0058920882472
 40
242.0058920882472
 40
242.0058920882472
 40
242.0058920882472
 10
157164.6758971394
 20
109609.6174824752
 30
0.0
 10
157159.1442422983
 20
109609.9497749318
 30
0.0
 10
157137.0927895983
 20
109611.274429416
 30
0.0
 10
157104.2128547213
 20
109620.0191997439
 30
0.0
 10
157071.4232770091
 20
109630.4989483872
 30
0.0
 10
157050.7247171484
 20
109641.4867206686
 30
0.0
 10
157035.1737512132
 20
109643.9764699377
 30
0.0
 10
157023.3101995206
 20
109652.2555439262
 30
0.0
 10
157006.6851807542
 20
109655.5788017754
 30
0.0
 10
156987.0447865744
 20
109665.469879758
 30
0.0
 10
156969.7698263271
 20
109678.5837491983
 30
0.0
 10
156956.2423045766
 20
109691.3402189172
 30
0.0
 10
156948.9413417455
 20
109697.7188550513
 30
0.0
 10
156945.2046732171
 20
109700.9834722596
 30
0.0
 11
157164.6758971394
 21
109609.6174824752
 31
0.0
 11
157148.1170535466
 21
109610.8904512238
 31
0.0
 11
157099.7142843825
 21
109621.7106709429
 31
0.0
 11
157066.5965971969
 21
109633.4856157589
 31
0.0
 11
157049.7193108092
 21
109640.8051787414
 31
0.0
 11
157034.1157860357
 21
109645.5788042266
 31
0.0
 11
157023.9257313834
 21
109650.9889170151
 31
0.0
 11
157009.9144014536
 21
109655.4442988487
 31
0.0
 11
156988.2605305346
 21
109665.6280371222
 31
0.0
 11
156966.8585441359
 21
109681.5707208095
 31
0.0
 11
156956.3500466886
 21
109691.1179776376
 31
0.0
 11
156945.2046732171
 21
109700.9834722596
 31
0.0
  0
SPLINE
  5
60EA4
330
1F
100
AcDbEntity
  8
freecads.com
 48
0.02
100
AcDbSpline
210
0.0
220
0.0
230
1.0
 70
  1064
 71
     3
 72
    13
 73
     9
 74
     7
 42
0.000000001
 43
0.0000000001
 44
0.0000000001
 40
0.0
 40
0.0
 40
0.0
 40
0.0
 40
7.180082677385245
 40
14.297073608303
 40
22.58260445295285
 40
31.83813343937611
 40
37.39617167540828
 40
46.66883148975159
 40
46.66883148975159
 40
46.66883148975159
 40
46.66883148975159
 10
156942.6571595539
 20
109703.5294038991
 30
0.0
 10
156941.7767104333
 20
109705.7899985559
 30
0.0
 10
156940.0235487425
 20
109710.2913239107
 30
0.0
 10
156943.8248615528
 20
109718.7761721695
 30
0.0
 10
156952.6333645153
 20
109717.2316833199
 30
0.0
 10
156962.3127911419
 20
109715.3206876469
 30
0.0
 10
156959.6856892285
 20
109705.255502076
 30
0.0
 10
156954.1064592399
 20
109705.1725074063
 30
0.0
 10
156950.6181337724
 20
109705.1206162993
 30
0.0
 11
156942.6571595539
 21
109703.5294038991
 31
0.0
 11
156941.0649551446
 21
109710.53072323
 31
0.0
 11
156944.2493543976
 21
109716.8955611154
 31
0.0
 11
156952.5287714112
 21
109717.2137989093
 31
0.0
 11
156960.8081979904
 21
109713.0766607272
 31
0.0
 11
156959.534436376
 21
109707.6665479389
 31
0.0
 11
156950.6181337724
 21
109705.1206162993
 31
0.0
  0
SPLINE
  5
60EA5
330
1F
100
AcDbEntity
  8
freecads.com
 48
0.02
100
AcDbSpline
210
0.0
220
0.0
230
1.0
 70
  1064
 71
     3
 72
    15
 73
    11
 74
     9
 42
0.000000001
 43
0.0000000001
 44
0.0000000001
 40
0.0
 40
0.0
 40
0.0
 40
0.0
 40
6.18036946357706
 40
15.23226970317296
 40
19.38237779427108
 40
28.34964895820733
 40
37.01166454349838
 40
42.7753160399947
 40
50.91136261905568
 40
56.04599133833296
 40
56.04599133833296
 40
56.04599133833296
 40
56.04599133833296
 10
156942.9755927832
 20
109718.8050113095
 30
0.0
 10
156941.5088557315
 20
109720.4318998181
 30
0.0
 10
156937.8939044755
 20
109724.4415637525
 30
0.0
 10
156940.230192721
 20
109731.176146663
 30
0.0
 10
156943.7736758375
 20
109738.6230624532
 30
0.0
 10
156952.0705013314
 20
109734.3840879378
 30
0.0
 10
156961.1027833165
 20
109735.1079154493
 30
0.0
 10
156962.3005214433
 20
109725.4388978001
 30
0.0
 10
156954.9648436767
 20
109722.2487873493
 30
0.0
 10
156950.6827477948
 20
109723.2076413932
 30
0.0
 10
156949.0259389287
 20
109723.5786367947
 30
0.0
 11
156942.9755927832
 21
109718.8050113095
 31
0.0
 11
156939.4727603007
 21
109723.8968804463
 31
0.0
 11
156941.0649551446
 21
109732.8076499712
 31
0.0
 11
156943.2940355783
 21
109736.3083067079
 31
0.0
 11
156952.2103381818
 21
109735.3535816108
 31
0.0
 11
156960.4897551955
 21
109732.8076499712
 31
0.0
 11
156961.1266312197
 21
109727.0792935313
 31
0.0
 11
156954.1209662549
 21
109722.9421553493
 31
0.0
 11
156949.0259389287
 21
109723.5786367947
 31
0.0
  0
SPLINE
  5
60EA6
330
1F
100
AcDbEntity
  8
freecads.com
 48
0.02
100
AcDbSpline
210
0.0
220
0.0
230
1.0
 70
  1064
 71
     3
 72
    10
 73
     6
 74
     4
 42
0.000000001
 43
0.0000000001
 44
0.0000000001
 40
0.0
 40
0.0
 40
0.0
 40
0.0
 40
4.151199256881689
 40
7.709325428591018
 40
13.18680825053142
 40
13.18680825053142
 40
13.18680825053142
 40
13.18680825053142
 10
156963.3557116534
 20
109708.9395166875
 30
0.0
 10
156964.8737134526
 20
109708.4917382244
 30
0.0
 10
156967.6928433345
 20
109707.6601544632
 30
0.0
 10
156966.3136628788
 20
109701.0205325886
 30
0.0
 10
156963.480817799
 20
109704.3657018202
 30
0.0
 10
156961.7635168099
 20
109706.3935791902
 30
0.0
 11
156963.3557116534
 21
109708.9395166875
 31
0.0
 11
156966.8585441359
 21
109706.7118228418
 31
0.0
 11
156966.2216585459
 21
109703.2111602475
 31
0.0
 11
156961.7635168099
 21
109706.3935791902
 31
0.0
  0
SPLINE
  5
60EA7
330
1F
100
AcDbEntity
  8
freecads.com
 48
0.02
100
AcDbSpline
210
0.0
220
0.0
230
1.0
 70
  1064
 71
     3
 72
    21
 73
    17
 74
    15
 42
0.000000001
 43
0.0000000001
 44
0.0000000001
 40
0.0
 40
0.0
 40
0.0
 40
0.0
 40
6.319151218302738
 40
9.703293596468343
 40
18.10619405321293
 40
30.80783635505671
 40
43.62092433183749
 40
51.38127609044603
 40
56.8190726672354
 40
65.39188048971261
 40
73.30572230171307
 40
83.26978255181467
 40
95.48348972712608
 40
104.1425267789803
 40
108.1292607135242
 40
115.6746841099135
 40
115.6746841099135
 40
115.6746841099135
 40
115.6746841099135
 10
156962.4003928343
 20
109726.1245684342
 30
0.0
 10
156963.8526686848
 20
109723.840391669
 30
0.0
 10
156966.082692698
 20
109720.3329526137
 30
0.0
 10
156972.0907119909
 20
109725.7351959428
 30
0.0
 10
156962.5511848105
 20
109732.4706433262
 30
0.0
 10
156955.594588178
 20
109739.4300526116
 30
0.0
 10
156945.5104076263
 20
109744.5374799689
 30
0.0
 10
156937.4703336956
 20
109749.261061295
 30
0.0
 10
156936.9463712104
 20
109757.6108167644
 30
0.0
 10
156945.3395024035
 20
109762.1845538742
 30
0.0
 10
156953.1684859985
 20
109756.8596971743
 30
0.0
 10
156961.2609442931
 20
109751.4677332298
 30
0.0
 10
156970.7797731648
 20
109746.4140156964
 30
0.0
 10
156976.2376793976
 20
109741.3433328393
 30
0.0
 10
156985.0599226737
 20
109738.985358686
 30
0.0
 10
156981.3721346554
 20
109743.71543031
 30
0.0
 10
156978.9592364269
 20
109746.8102886331
 30
0.0
 11
156962.4003928343
 21
109726.1245684342
 31
0.0
 11
156967.1769773653
 21
109721.9874302522
 31
0.0
 11
156969.7244910285
 21
109724.2151182402
 31
0.0
 11
156964.8428462022
 21
109731.0545831225
 31
0.0
 11
156954.9980853191
 21
109739.0803167536
 31
0.0
 11
156943.9309116027
 21
109745.5373198844
 31
0.0
 11
156938.0530353758
 21
109750.6042351668
 31
0.0
 11
156937.880565457
 21
109756.0392959519
 31
0.0
 11
156945.2046732171
 21
109760.4946836432
 31
0.0
 11
156952.4668716417
 21
109757.3499473637
 31
0.0
 11
156960.8339297753
 21
109751.9393249544
 31
0.0
 11
156971.2400166319
 21
109745.5449524835
 31
0.0
 11
156978.55239682
 21
109740.9072786431
 31
0.0
 11
156982.4620689094
 21
109740.127207096
 31
0.0
 11
156978.9592364269
 21
109746.8102886331
 31
0.0
  0
SPLINE
  5
60EA8
330
1F
100
AcDbEntity
  8
freecads.com
 48
0.02
100
AcDbSpline
210
0.0
220
0.0
230
1.0
 70
  1064
 71
     3
 72
    10
 73
     6
 74
     4
 42
0.000000001
 43
0.0000000001
 44
0.0000000001
 40
0.0
 40
0.0
 40
0.0
 40
0.0
 40
3.443840051262024
 40
9.617192510560146
 40
13.50024361193348
 40
13.50024361193348
 40
13.50024361193348
 40
13.50024361193348
 10
156954.5070673825
 20
109753.961887573
 30
0.0
 10
156954.5808540236
 20
109752.8546272344
 30
0.0
 10
156954.7869089857
 20
109749.7625161964
 30
0.0
 10
156953.4225622835
 20
109744.0935801167
 30
0.0
 10
156949.7411551106
 20
109744.369278062
 30
0.0
 10
156948.3196636111
 20
109744.4757325419
 30
0.0
 11
156954.5070673825
 21
109753.961887573
 31
0.0
 11
156954.5773754192
 21
109750.5187652866
 31
0.0
 11
156952.1867873811
 21
109744.827072268
 31
0.0
 11
156948.3196636111
 21
109744.4757325419
 31
0.0
  0
SPLINE
  5
60EA9
330
1F
100
AcDbEntity
  8
freecads.com
 48
0.02
100
AcDbSpline
210
0.0
220
0.0
230
1.0
 70
  1064
 71
     3
 72
    11
 73
     7
 74
     5
 42
0.000000001
 43
0.0000000001
 44
0.0000000001
 40
0.0
 40
0.0
 40
0.0
 40
0.0
 40
9.177902410821358
 40
17.76505738983093
 40
24.74994005560657
 40
28.01019174190371
 40
28.01019174190371
 40
28.01019174190371
 40
28.01019174190371
 10
156957.586052409
 20
109769.9447083049
 30
0.0
 10
156959.4004550795
 20
109767.3578732867
 30
0.0
 10
156962.9124740711
 20
109762.3507081961
 30
0.0
 10
156973.9360080826
 20
109762.6891863767
 30
0.0
 10
156974.6911561566
 20
109770.4705493965
 30
0.0
 10
156973.3002919178
 20
109773.5449959425
 30
0.0
 10
156972.8576849861
 20
109774.5233598361
 30
0.0
 11
156957.586052409
 21
109769.9447083049
 31
0.0
 11
156964.2037604969
 21
109763.5854762501
 31
0.0
 11
156972.7304226567
 21
109764.602955019
 31
0.0
 11
156974.0030555163
 21
109771.4709235294
 31
0.0
 11
156972.8576849861
 21
109774.5233598361
 31
0.0
  0
SPLINE
  5
60EAA
330
1F
100
AcDbEntity
  8
freecads.com
 48
0.02
100
AcDbSpline
210
0.0
220
0.0
230
1.0
 70
  1064
 71
     3
 72
    10
 73
     6
 74
     4
 42
0.000000001
 43
0.0000000001
 44
0.0000000001
 40
0.0
 40
0.0
 40
0.0
 40
0.0
 40
4.987383238716666
 40
12.87569699261045
 40
20.41221998658629
 40
20.41221998658629
 40
20.41221998658629
 40
20.41221998658629
 10
156967.0035604404
 20
109763.3311050935
 30
0.0
 10
156968.0148630826
 20
109762.0120414765
 30
0.0
 10
156970.6256964126
 20
109758.6066758503
 30
0.0
 10
156974.9804520737
 20
109753.3608812013
 30
0.0
 10
156977.6532946141
 20
109748.960365635
 30
0.0
 10
156978.9592364269
 20
109746.8102886331
 30
0.0
 11
156967.0035604404
 21
109763.3311050935
 31
0.0
 11
156970.0578850426
 21
109759.388378525
 31
0.0
 11
156974.8939013877
 21
109753.1563291197
 31
0.0
 11
156978.9592364269
 21
109746.8102886331
 31
0.0
  0
SPLINE
  5
60EAB
330
1F
100
AcDbEntity
  8
freecads.com
 48
0.02
100
AcDbSpline
210
0.0
220
0.0
230
1.0
 70
  1064
 71
     3
 72
    12
 73
     8
 74
     6
 42
0.000000001
 43
0.0000000001
 44
0.0000000001
 40
0.0
 40
0.0
 40
0.0
 40
0.0
 40
6.867974368055001
 40
12.02081139826065
 40
17.77022559699104
 40
25.04076923313537
 40
34.42390929586756
 40
34.42390929586756
 40
34.42390929586756
 40
34.42390929586756
 10
156957.586052409
 20
109769.9447083049
 30
0.0
 10
156957.037458406
 20
109772.494684598
 30
0.0
 10
156956.0772706284
 20
109776.9578323106
 30
0.0
 10
156962.1110178227
 20
109780.0144481489
 30
0.0
 10
156968.3154457309
 20
109780.8936693252
 30
0.0
 10
156974.5854736283
 20
109775.7954717925
 30
0.0
 10
156977.9573646203
 20
109771.4837562788
 30
0.0
 10
156979.8571800621
 20
109769.0544180431
 30
0.0
 11
156957.586052409
 21
109769.9447083049
 31
0.0
 11
156957.586052409
 21
109776.8126826729
 31
0.0
 11
156961.9130098708
 21
109779.610747823
 31
0.0
 11
156967.6398720873
 21
109780.1194842786
 31
0.0
 11
156973.7485308576
 21
109776.1767577102
 31
0.0
 11
156979.8571800621
 21
109769.0544180431
 31
0.0
  0
SPLINE
  5
60EAC
330
1F
100
AcDbEntity
  8
freecads.com
 48
0.02
100
AcDbSpline
210
0.0
220
0.0
230
1.0
 70
  1064
 71
     3
 72
     9
 73
     5
 74
     3
 42
0.000000001
 43
0.0000000001
 44
0.0000000001
 40
0.0
 40
0.0
 40
0.0
 40
0.0
 40
10.82147624632302
 40
27.84471342224246
 40
27.84471342224246
 40
27.84471342224246
 40
27.84471342224246
 10
157008.9719102638
 20
109720.9264521118
 30
0.0
 10
157008.751220154
 20
109717.2309441329
 30
0.0
 10
157008.1833629854
 20
109707.7220418094
 30
0.0
 10
157014.0464542103
 20
109699.9972374083
 30
0.0
 10
157017.6309332815
 20
109695.2745751399
 30
0.0
 11
157008.9719102638
 21
109720.9264521118
 31
0.0
 11
157009.2811604026
 21
109710.1093955573
 31
0.0
 11
157017.6309332815
 21
109695.2745751399
 31
0.0
  0
SPLINE
  5
60EAD
330
1F
100
AcDbEntity
  8
freecads.com
 48
0.02
100
AcDbSpline
210
0.0
220
0.0
230
1.0
 70
  1064
 71
     3
 72
    13
 73
     9
 74
     7
 42
0.000000001
 43
0.0000000001
 44
0.0000000001
 40
0.0
 40
0.0
 40
0.0
 40
0.0
 40
9.634897598954932
 40
19.50565055464318
 40
26.07692745463714
 40
32.88253927203383
 40
44.43506305536576
 40
57.16385222027025
 40
57.16385222027025
 40
57.16385222027025
 40
57.16385222027025
 10
157324.981061992
 20
110055.3122309285
 30
0.0
 10
157328.157827383
 20
110055.4177829121
 30
0.0
 10
157334.5891230947
 20
110055.6314707157
 30
0.0
 10
157343.5966537761
 20
110058.3343985887
 30
0.0
 10
157350.4796141787
 20
110052.5010456026
 30
0.0
 10
157358.6330780175
 20
110057.7473851987
 30
0.0
 10
157368.8203022934
 20
110052.818423518
 30
0.0
 10
157376.8732539364
 20
110052.4657891026
 30
0.0
 10
157381.0947852777
 20
110052.2809305187
 30
0.0
 11
157324.981061992
 21
110055.3122309285
 31
0.0
 11
157334.5861107827
 21
110056.070049819
 31
0.0
 11
157344.4439258838
 21
110056.5752679345
 31
0.0
 11
157350.5102747312
 21
110054.04918564
 31
0.0
 11
157357.0821561996
 21
110055.8174407614
 31
0.0
 11
157368.4565549622
 21
110053.7965848648
 31
0.0
 11
157381.0947852777
 21
110052.2809305187
 31
0.0
  0
SPLINE
  5
60EAE
330
1F
100
AcDbEntity
  8
freecads.com
 48
0.02
100
AcDbSpline
210
0.0
220
0.0
230
1.0
 70
  1064
 71
     3
 72
    12
 73
     8
 74
     6
 42
0.000000001
 43
0.0000000001
 44
0.0000000001
 40
0.0
 40
0.0
 40
0.0
 40
0.0
 40
8.399791448016179
 40
19.50118184705958
 40
38.94898832841333
 40
54.56092548610833
 40
62.78801481327585
 40
62.78801481327585
 40
62.78801481327585
 40
62.78801481327585
 10
157325.739346721
 20
110053.5439758072
 30
0.0
 10
157327.7758115555
 20
110051.6294629487
 30
0.0
 10
157332.5037231124
 20
110047.1846783809
 30
0.0
 10
157341.4832128114
 20
110037.5919853695
 30
0.0
 10
157358.8529116474
 20
110034.9280117174
 30
0.0
 10
157371.3722472462
 20
110043.1452115878
 30
0.0
 10
157377.0969991649
 20
110048.6224375592
 30
0.0
 10
157379.0726689952
 20
110050.5126836798
 30
0.0
 11
157325.739346721
 21
110053.5439758072
 31
0.0
 11
157331.8056955683
 21
110047.7339923277
 31
0.0
 11
157340.1469270085
 21
110040.4083710671
 31
0.0
 11
157359.3570387927
 21
110037.3770706572
 31
0.0
 11
157373.0063201483
 21
110044.955309258
 31
0.0
 11
157379.0726689952
 21
110050.5126836798
 31
0.0
  0
SPLINE
  5
60EAF
330
1F
100
AcDbEntity
  8
freecads.com
 48
0.02
100
AcDbSpline
210
0.0
220
0.0
230
1.0
 70
  1064
 71
     3
 72
    10
 73
     6
 74
     4
 42
0.000000001
 43
0.0000000001
 44
0.0000000001
 40
0.0
 40
0.0
 40
0.0
 40
0.0
 40
12.62168773201794
 40
24.65220935710317
 40
36.84735202291765
 40
36.84735202291765
 40
36.84735202291765
 40
36.84735202291765
 10
157332.5266554751
 20
110051.0754902662
 30
0.0
 10
157336.5723657882
 20
110049.9112127654
 30
0.0
 10
157344.4742961604
 20
110047.6371894089
 30
0.0
 10
157356.9018960684
 20
110046.7095554386
 30
0.0
 10
157364.8104029418
 20
110048.5178295294
 30
0.0
 10
157368.7915267796
 20
110049.4281104716
 30
0.0
 11
157332.5266554751
 21
110051.0754902662
 31
0.0
 11
157344.7719383547
 21
110048.0160706476
 31
0.0
 11
157356.7817254659
 21
110047.3100507356
 31
0.0
 11
157368.7915267796
 21
110049.4281104716
 31
0.0
  0
SPLINE
  5
60EB0
330
1F
100
AcDbEntity
  8
freecads.com
 48
0.02
100
AcDbSpline
210
0.0
220
0.0
230
1.0
 70
     8
 71
     3
 72
     8
 73
     4
 74
     0
 42
0.000000001
 43
0.0000000001
 40
0.0
 40
0.0
 40
0.0
 40
0.0
 40
1.009296308725491
 40
1.009296308725491
 40
1.009296308725491
 40
1.009296308725491
 10
157199.091190826
 20
109824.4055761705
 30
0.0
 10
157198.942463884
 20
109820.8752139435
 30
0.0
 10
157198.9064712683
 20
109817.2520732268
 30
0.0
 10
157198.9773188743
 20
109813.5749213997
 30
0.0
  0
SPLINE
  5
60EB1
330
1F
100
AcDbEntity
  8
freecads.com
 48
0.02
100
AcDbSpline
210
0.0
220
0.0
230
1.0
 70
     8
 71
     3
 72
    12
 73
     8
 74
     0
 42
0.000000001
 43
0.0000000001
 40
97.07529634822263
 40
97.07529634822263
 40
97.07529634822263
 40
97.07529634822263
 40
102.4340344703718
 40
102.4340344703718
 40
109.9953717897859
 40
109.9953717897859
 40
114.2505871291929
 40
114.2505871291929
 40
114.2505871291929
 40
114.2505871291929
 10
157438.4347498151
 20
109548.4545654294
 30
0.0
 10
157434.8255452499
 20
109566.4848639736
 30
0.0
 10
157432.2982606368
 20
109583.4003498538
 30
0.0
 10
157438.477342031
 20
109624.296648799
 30
0.0
 10
157450.8356121589
 20
109647.5070283501
 30
0.0
 10
157465.5931489849
 20
109687.2582978676
 30
0.0
 10
157469.3469007449
 20
109702.3277104698
 30
0.0
 10
157494.4148526335
 20
109788.8965403367
 30
0.0
  0
SPLINE
  5
60EB2
330
1F
100
AcDbEntity
  8
freecads.com
 48
0.02
100
AcDbSpline
210
0.0
220
0.0
230
1.0
 70
     8
 71
     3
 72
    12
 73
     8
 74
     0
 42
0.000000001
 43
0.0000000001
 40
0.1062568657738022
 40
0.1062568657738022
 40
0.1062568657738022
 40
0.1062568657738022
 40
0.1230797101765713
 40
0.1230797101765713
 40
0.1734233660399045
 40
0.1734233660399045
 40
0.1994727117975458
 40
0.1994727117975458
 40
0.1994727117975458
 40
0.1994727117975458
 10
157208.1017379242
 20
109754.3601620609
 30
0.0
 10
157204.561782478
 20
109760.0132057221
 30
0.0
 10
157201.9391488059
 20
109766.1744261839
 30
0.0
 10
157196.234125909
 20
109791.6578840946
 30
0.0
 10
157197.7767971807
 20
109810.7822156844
 30
0.0
 10
157203.3216856199
 20
109837.4323195189
 30
0.0
 10
157206.3933188537
 20
109846.3481333392
 30
0.0
 10
157221.4368958842
 20
109878.2419043905
 30
0.0
  0
SPLINE
  5
60EB6
330
1F
100
AcDbEntity
  8
freecads.com
 48
0.02
100
AcDbSpline
210
0.0
220
0.0
230
1.0
 70
     8
 71
     3
 72
    12
 73
     8
 74
     0
 42
0.000000001
 43
0.0000000001
 40
6.538261964605864
 40
6.538261964605864
 40
6.538261964605864
 40
6.538261964605864
 40
10.53524429773563
 40
10.53524429773563
 40
15.80286644660345
 40
15.80286644660345
 40
19.97102088771027
 40
19.97102088771027
 40
19.97102088771027
 40
19.97102088771027
 10
157208.1017378996
 20
109754.3601620558
 30
0.0
 10
157210.8298048732
 20
109741.3226496383
 30
0.0
 10
157212.1901637296
 20
109729.0333234144
 30
0.0
 10
157208.449765316
 20
109699.5086546167
 30
0.0
 10
157202.410669392
 20
109684.0854971745
 30
0.0
 10
157185.3755395778
 20
109657.5014646035
 30
0.0
 10
157176.9357690998
 20
109645.5400610083
 30
0.0
 10
157168.5500765117
 20
109633.5898130551
 30
0.0
  0
SPLINE
  5
60EB7
330
1F
100
AcDbEntity
  8
freecads.com
 48
0.02
100
AcDbSpline
210
0.0
220
0.0
230
1.0
 70
     8
 71
     3
 72
    12
 73
     8
 74
     0
 42
0.000000001
 43
0.0000000001
 40
0.0
 40
0.0
 40
0.0
 40
0.0
 40
13.64924583652723
 40
13.64924583652723
 40
24.33404867074007
 40
24.33404867074007
 40
28.60748836814126
 40
28.60748836814126
 40
28.60748836814126
 40
28.60748836814126
 10
157140.6639133451
 20
109576.6860466523
 30
0.0
 10
157181.7216722288
 20
109550.5009689931
 30
0.0
 10
157229.258440689
 20
109531.8568928792
 30
0.0
 10
157313.3112129013
 20
109507.0100437604
 30
0.0
 10
157352.6933661287
 20
109496.9918993758
 30
0.0
 10
157409.0157028043
 20
109499.2684890385
 30
0.0
 10
157424.9436797647
 20
109501.3874196729
 30
0.0
 10
157440.2919321647
 20
109504.640636524
 30
0.0
  0
HATCH
  5
60EB8
330
1F
100
AcDbEntity
  8
freecads.com
 48
0.02
100
AcDbHatch
 10
0.0
 20
0.0
 30
0.0
210
0.0
220
0.0
230
1.0
  2
SOLID
 70
     1
 71
     0
 91
        1
 92
        5
 93
        4
 72
     4
 94
        3
 73
     0
 74
     0
 95
       12
 96
        8
 40
0.0180465709987255
 40
0.0180465709987255
 40
0.0180465709987255
 40
0.0180465709987255
 40
13.64924583652723
 40
13.64924583652723
 40
24.33404867074007
 40
24.33404867074007
 40
28.44480180142497
 40
28.44480180142497
 40
28.44480180142497
 40
28.44480180142497
 10
157140.8268028462
 20
109576.5822231226
 10
157181.8473745597
 20
109550.4516760886
 10
157229.3207757465
 20
109531.8384660061
 10
157313.3112129013
 20
109507.0100437604
 10
157352.6933661287
 20
109496.9918993758
 10
157408.4031383561
 20
109499.2437287396
 10
157423.7307120927
 20
109501.2282158392
 10
157438.5365461018
 20
109504.2740442138
 97
        0
 72
     4
 94
        3
 73
     0
 74
     0
 95
        8
 96
        4
 40
42.65454673370336
 40
42.65454673370336
 40
42.65454673370336
 40
42.65454673370336
 40
44.57538441538433
 40
44.57538441538433
 40
44.57538441538433
 40
44.57538441538433
 10
157438.536546102
 20
109504.2740442138
 10
157437.8172221237
 20
109510.9255679041
 10
157436.9859292533
 20
109517.5662369552
 10
157436.1448648498
 20
109524.2059587213
 97
        0
 72
     4
 94
        3
 73
     0
 74
     0
 95
       11
 96
        7
 40
0.0
 40
0.0
 40
0.0
 40
0.0
 40
3.878934330428243
 40
14.82452175517395
 40
24.59201480878703
 40
28.60748836814126
 40
28.60748836814126
 40
28.60748836814126
 40
28.60748836814126
 10
157436.1448648498
 20
109524.2059587213
 10
157422.8230861377
 20
109521.3822734011
 10
157371.8939184906
 20
109511.7685919404
 10
157286.8620606863
 20
109536.1806176989
 10
157203.888808381
 20
109560.0848293604
 10
157163.2559988693
 20
109585.9988904662
 10
157151.4182010411
 20
109593.548587865
 97
        0
 72
     4
 94
        3
 73
     0
 74
     0
 95
        8
 96
        4
 40
50.69090580315195
 40
50.69090580315195
 40
50.69090580315195
 40
50.69090580315195
 40
52.58453596868751
 40
52.58453596868751
 40
52.58453596868751
 40
52.58453596868751
 10
157151.4182010411
 20
109593.548587865
 10
157147.8458461304
 20
109587.9088255841
 10
157144.2734912197
 20
109582.2690633032
 10
157140.8268028462
 20
109576.5822231226
 97
        0
 97
        0
 75
     0
 76
     1
 47
0.0005672049339177
 98
        1
 10
157274.4822776565
 20
109525.7978054789
450
        0
451
        0
460
0.0
461
0.0
452
        0
462
0.0
453
        0
470

  0
SPLINE
  5
60EB9
330
1F
100
AcDbEntity
  8
freecads.com
 48
0.02
100
AcDbSpline
210
0.0
220
0.0
230
1.0
 70
     8
 71
     3
 72
     9
 73
     5
 74
     0
 42
0.000000001
 43
0.0000000001
 40
0.0056916780422332
 40
0.0056916780422332
 40
0.0056916780422332
 40
0.0056916780422332
 40
0.0363606947183959
 40
0.0831284672757809
 40
0.0831284672757809
 40
0.0831284672757809
 40
0.0831284672757809
 10
157217.4277215089
 20
109961.3739913337
 30
0.0
 10
157216.2713841646
 20
109945.1923570928
 30
0.0
 10
157215.9886531795
 20
109919.36967216
 30
0.0
 10
157219.1116307401
 20
109893.6725263514
 30
0.0
 10
157221.4368958841
 20
109878.2419043905
 30
0.0
  0
SPLINE
  5
60EBA
330
1F
100
AcDbEntity
  8
freecads.com
 48
0.02
100
AcDbSpline
210
0.0
220
0.0
230
1.0
 70
     8
 71
     3
 72
    11
 73
     7
 74
     0
 42
0.000000001
 43
0.0000000001
 40
0.0023453361356365
 40
0.0023453361356365
 40
0.0023453361356365
 40
0.0023453361356365
 40
0.0187234429107858
 40
0.0637220980041092
 40
0.1060011937976867
 40
0.1210710891903497
 40
0.1210710891903497
 40
0.1210710891903497
 40
0.1210710891903497
 10
157475.7814674237
 20
109976.0762578352
 30
0.0
 10
157476.3865060562
 20
109970.6466676187
 30
0.0
 10
157478.5574339484
 20
109950.294236873
 30
0.0
 10
157477.350748527
 20
109915.6641721342
 30
0.0
 10
157478.2562890656
 20
109881.5678914373
 30
0.0
 10
157479.1445402544
 20
109862.4714678458
 30
0.0
 10
157479.377950681
 20
109857.453400397
 30
0.0
  0
SPLINE
  5
60EBB
330
1F
100
AcDbEntity
  8
freecads.com
 48
0.02
100
AcDbSpline
210
0.0
220
0.0
230
1.0
 70
     8
 71
     3
 72
    23
 73
    19
 74
     0
 42
0.000000001
 43
0.0000000001
 40
13.94946580005597
 40
13.94946580005597
 40
13.94946580005597
 40
13.94946580005597
 40
14.82414747133632
 40
15.77783104360427
 40
16.9162692517613
 40
19.23362567916012
 40
22.61841239998701
 40
26.19790439447963
 40
30.13752816568159
 40
33.20668940095425
 40
37.03438980447019
 40
40.17462847896359
 40
43.639041946485
 40
45.97115420487597
 40
49.02397004683966
 40
51.97141499567662
 40
53.88002521965037
 40
54.74872922350363
 40
54.74872922350363
 40
54.74872922350363
 40
54.74872922350363
 10
157268.1689760859
 20
108644.4429050068
 30
0.0
 10
157268.6018244476
 20
108647.5084024365
 30
0.0
 10
157269.4452571172
 20
108653.8887606177
 30
0.0
 10
157265.1748244927
 20
108663.6572392442
 30
0.0
 10
157258.1276858895
 20
108677.2257462891
 30
0.0
 10
157253.6316331443
 20
108701.0040684171
 30
0.0
 10
157251.7900060142
 20
108733.4220004527
 30
0.0
 10
157259.3248231823
 20
108770.9073727272
 30
0.0
 10
157259.9997637962
 20
108807.8781930651
 30
0.0
 10
157265.1003306984
 20
108845.271550891
 30
0.0
 10
157272.3154793596
 20
108879.7658795981
 30
0.0
 10
157268.6073808694
 20
108916.2769339596
 30
0.0
 10
157263.5820875809
 20
108946.7547508874
 30
0.0
 10
157257.6375199847
 20
108977.5630351129
 30
0.0
 10
157266.4588405432
 20
109005.864536945
 30
0.0
 10
157271.54217897
 20
109033.0827542612
 30
0.0
 10
157269.955052313
 20
109053.0578450271
 30
0.0
 10
157269.5767137967
 20
109062.7282718314
 30
0.0
 10
157269.4708781358
 20
109065.7520131625
 30
0.0
  0
SPLINE
  5
60EBC
330
1F
100
AcDbEntity
  8
freecads.com
 48
0.02
100
AcDbSpline
210
0.0
220
0.0
230
1.0
 70
     8
 71
     3
 72
    18
 73
    14
 74
     0
 42
0.000000001
 43
0.0000000001
 40
76.07060892127595
 40
76.07060892127595
 40
76.07060892127595
 40
76.07060892127595
 40
77.84186052699313
 40
79.69547717302001
 40
82.89629819930967
 40
88.57666449303012
 40
94.71654643450667
 40
100.451917631413
 40
107.3146234378907
 40
110.5031080114634
 40
113.6866515048922
 40
115.386833506624
 40
116.3326769867891
 40
116.3326769867891
 40
116.3326769867891
 40
116.3326769867891
 10
157170.0555887932
 20
109063.3096496192
 30
0.0
 10
157170.6886098575
 20
109057.1650444947
 30
0.0
 10
157171.9909369994
 20
109044.5842802642
 30
0.0
 10
157175.1325636298
 20
109020.9699779191
 30
0.0
 10
157172.2396278905
 20
108983.4794182477
 30
0.0
 10
157167.2537404373
 20
108931.5370543767
 30
0.0
 10
157168.5697206177
 20
108869.8451512351
 30
0.0
 10
157185.7442277437
 20
108806.612510371
 30
0.0
 10
157195.0978305594
 20
108752.4296422372
 30
0.0
 10
157205.0858988025
 20
108707.4053423255
 30
0.0
 10
157209.3322525473
 20
108679.5844830269
 30
0.0
 10
157208.3189897754
 20
108658.9564426697
 30
0.0
 10
157205.1903090625
 20
108650.310014629
 30
0.0
 10
157204.4076734339
 20
108647.0718977088
 30
0.0
  0
SPLINE
  5
60EBE
330
1F
100
AcDbEntity
  8
freecads.com
 48
0.02
100
AcDbSpline
210
0.0
220
0.0
230
1.0
 70
     8
 71
     3
 72
     8
 73
     4
 74
     0
 42
0.000000001
 43
0.0000000001
 40
28.27088343204873
 40
28.27088343204873
 40
28.27088343204873
 40
28.27088343204873
 40
30.54181081933851
 40
30.54181081933851
 40
30.54181081933851
 40
30.54181081933851
 10
157215.8506146162
 20
108649.5025776761
 30
0.0
 10
157216.4137111949
 20
108642.0730000938
 30
0.0
 10
157215.2388385839
 20
108633.7043603757
 30
0.0
 10
157214.0639659731
 20
108625.3357206577
 30
0.0
  0
SPLINE
  5
60EBF
330
1F
100
AcDbEntity
  8
freecads.com
 48
0.02
100
AcDbSpline
210
0.0
220
0.0
230
1.0
 70
     8
 71
     3
 72
    11
 73
     7
 74
     0
 42
0.000000001
 43
0.0000000001
 40
1.386316201715079
 40
1.386316201715079
 40
1.386316201715079
 40
1.386316201715079
 40
3.013792278561373
 40
5.430970693677275
 40
8.811359059603786
 40
9.56389066278378
 40
9.56389066278378
 40
9.56389066278378
 40
9.56389066278378
 10
157274.4139078872
 20
108646.4156156456
 30
0.0
 10
157269.2397434113
 20
108644.5330225933
 30
0.0
 10
157256.3677404955
 20
108641.1752186619
 30
0.0
 10
157232.6087329014
 20
108648.1118539012
 30
0.0
 10
157207.1935015243
 20
108651.7451012994
 30
0.0
 10
157197.4919164815
 20
108642.2612474077
 30
0.0
 10
157195.8266082617
 20
108640.3463116005
 30
0.0
  0
SPLINE
  5
60EC0
330
1F
100
AcDbEntity
  8
freecads.com
 48
0.02
100
AcDbSpline
210
0.0
220
0.0
230
1.0
 70
  1064
 71
     3
 72
    10
 73
     6
 74
     4
 42
0.000000001
 43
0.0000000001
 44
0.0000000001
 40
0.0
 40
0.0
 40
0.0
 40
0.0
 40
17.38383088751457
 40
36.59092420220669
 40
48.38038645872321
 40
48.38038645872321
 40
48.38038645872321
 40
48.38038645872321
 10
157249.9166521093
 20
108586.5434136674
 30
0.0
 10
157244.7627292907
 20
108588.9499689634
 30
0.0
 10
157233.9143265182
 20
108594.0154854766
 30
0.0
 10
157216.322225678
 20
108598.0110624463
 30
0.0
 10
157208.034814942
 20
108591.1957118142
 30
0.0
 10
157204.8827190309
 20
108588.6035102757
 30
0.0
 11
157249.9166521093
 21
108586.5434136674
 31
0.0
 11
157233.9003659736
 21
108593.3018272937
 31
0.0
 11
157214.7706229628
 21
108595.0238510867
 31
0.0
 11
157204.8827190309
 21
108588.6035102757
 31
0.0
  0
SPLINE
  5
60EC1
330
1F
100
AcDbEntity
  8
freecads.com
 48
0.02
100
AcDbSpline
210
0.0
220
0.0
230
1.0
 70
  1064
 71
     3
 72
    10
 73
     6
 74
     4
 42
0.000000001
 43
0.0000000001
 44
0.0000000001
 40
0.0
 40
0.0
 40
0.0
 40
0.0
 40
17.38383088767693
 40
36.59092420223064
 40
48.38038645879471
 40
48.38038645879471
 40
48.38038645879471
 40
48.38038645879471
 10
157251.005358703
 20
108576.4767602912
 30
0.0
 10
157245.8514358844
 20
108578.8833155872
 30
0.0
 10
157235.0030331119
 20
108583.9488321004
 30
0.0
 10
157217.4109322717
 20
108587.9444090703
 30
0.0
 10
157209.1235215358
 20
108581.1290584381
 30
0.0
 10
157205.9714256246
 20
108578.5368568995
 30
0.0
 11
157251.005358703
 21
108576.4767602912
 31
0.0
 11
157234.9890725671
 21
108583.2351739177
 31
0.0
 11
157215.8593295566
 21
108584.9571977107
 31
0.0
 11
157205.9714256246
 21
108578.5368568995
 31
0.0
  0
SPLINE
  5
60EC2
330
1F
100
AcDbEntity
  8
freecads.com
 48
0.02
100
AcDbSpline
210
0.0
220
0.0
230
1.0
 70
  1064
 71
     3
 72
    10
 73
     6
 74
     4
 42
0.000000001
 43
0.0000000001
 44
0.0000000001
 40
0.0
 40
0.0
 40
0.0
 40
0.0
 40
17.3838308875372
 40
36.5909242020896
 40
48.38038645861404
 40
48.38038645861404
 40
48.38038645861404
 40
48.38038645861404
 10
157253.3723650016
 20
108610.1571850524
 30
0.0
 10
157248.2184421831
 20
108612.5637403484
 30
0.0
 10
157237.3700394106
 20
108617.6292568616
 30
0.0
 10
157219.7779385705
 20
108621.6248338313
 30
0.0
 10
157211.4905278345
 20
108614.8094831993
 30
0.0
 10
157208.3384319233
 20
108612.2172816607
 30
0.0
 11
157253.3723650016
 21
108610.1571850524
 31
0.0
 11
157237.3560788659
 21
108616.9155986788
 31
0.0
 11
157218.2263358553
 21
108618.6376224718
 31
0.0
 11
157208.3384319233
 21
108612.2172816607
 31
0.0
  0
SPLINE
  5
60EC3
330
1F
100
AcDbEntity
  8
freecads.com
 48
0.02
100
AcDbSpline
210
0.0
220
0.0
230
1.0
 70
  1064
 71
     3
 72
    10
 73
     6
 74
     4
 42
0.000000001
 43
0.0000000001
 44
0.0000000001
 40
0.0
 40
0.0
 40
0.0
 40
0.0
 40
17.38383088763167
 40
36.59092420218538
 40
48.38038645883187
 40
48.38038645883187
 40
48.38038645883187
 40
48.38038645883187
 10
157252.2452112261
 20
108597.6317807404
 30
0.0
 10
157247.0912884076
 20
108600.0383360363
 30
0.0
 10
157236.242885635
 20
108605.1038525494
 30
0.0
 10
157218.6507847948
 20
108609.0994295193
 30
0.0
 10
157210.3633740588
 20
108602.2840788873
 30
0.0
 10
157207.2112781476
 20
108599.6918773487
 30
0.0
 11
157252.2452112261
 21
108597.6317807404
 31
0.0
 11
157236.2289250903
 21
108604.3901943667
 31
0.0
 11
157217.0991820797
 21
108606.1122181597
 31
0.0
 11
157207.2112781476
 21
108599.6918773487
 31
0.0
  0
SPLINE
  5
60EC4
330
1F
100
AcDbEntity
  8
freecads.com
 48
0.02
100
AcDbSpline
210
0.0
220
0.0
230
1.0
 70
  1064
 71
     3
 72
    11
 73
     7
 74
     5
 42
0.000000001
 43
0.0000000001
 44
0.0000000001
 40
0.0
 40
0.0
 40
0.0
 40
0.0
 40
12.49443280209069
 40
41.58997891371621
 40
70.19233044022847
 40
88.84226397947159
 40
88.84226397947159
 40
88.84226397947159
 40
88.84226397947159
 10
157267.7373650996
 20
108497.2131269638
 30
0.0
 10
157264.3029079331
 20
108494.8086922156
 30
0.0
 10
157252.8706962112
 20
108486.805096369
 30
0.0
 10
157228.7496477865
 20
108483.349074956
 30
0.0
 10
157203.2881281487
 20
108485.3284662076
 30
0.0
 10
157188.2575448356
 20
108490.1990584082
 30
0.0
 10
157182.3251464457
 20
108492.1214251406
 30
0.0
 11
157267.7373650996
 21
108497.2131269638
 31
0.0
 11
157257.1758860993
 21
108490.5373489289
 31
0.0
 11
157228.7290659036
 21
108484.4275842617
 31
0.0
 11
157200.2357106339
 21
108486.9222221749
 31
0.0
 11
157182.3251464457
 21
108492.1214251406
 31
0.0
  0
SPLINE
  5
60EC5
330
1F
100
AcDbEntity
  8
freecads.com
 48
0.02
100
AcDbSpline
210
0.0
220
0.0
230
1.0
 70
  1064
 71
     3
 72
    11
 73
     7
 74
     5
 42
0.000000001
 43
0.0000000001
 44
0.0000000001
 40
0.0
 40
0.0
 40
0.0
 40
0.0
 40
15.71840224657992
 40
46.87597783645687
 40
82.03868798546462
 40
94.8422529599245
 40
94.8422529599245
 40
94.8422529599245
 40
94.8422529599245
 10
157269.7905962488
 20
108538.9190279965
 30
0.0
 10
157267.1831889955
 20
108543.8299280918
 30
0.0
 10
157259.4072864135
 20
108558.4753888973
 30
0.0
 10
157227.7990875013
 20
108555.6062532059
 30
0.0
 10
157200.9217136172
 20
108556.9791054142
 30
0.0
 10
157188.1338720461
 20
108546.8353584168
 30
0.0
 10
157184.7204329159
 20
108544.1277034357
 30
0.0
 11
157269.7905962488
 21
108538.9190279965
 31
0.0
 11
157260.8119793762
 21
108551.8206793729
 31
0.0
 11
157230.0096449177
 21
108556.5122365292
 31
0.0
 11
157195.2105340692
 21
108551.4686198532
 31
0.0
 11
157184.7204329159
 21
108544.1277034357
 31
0.0
  0
SPLINE
  5
60EC6
330
1F
100
AcDbEntity
  8
freecads.com
 48
0.02
100
AcDbSpline
210
0.0
220
0.0
230
1.0
 70
  1064
 71
     3
 72
    10
 73
     6
 74
     4
 42
0.000000001
 43
0.0000000001
 44
0.0000000001
 40
0.0
 40
0.0
 40
0.0
 40
0.0
 40
20.93554520671658
 40
45.43936124640295
 40
78.64025328363599
 40
78.64025328363599
 40
78.64025328363599
 40
78.64025328363599
 10
157246.4883470767
 20
108630.8050532916
 30
0.0
 10
157249.485379941
 20
108623.9919868521
 30
0.0
 10
157255.9902623144
 20
108609.2046295571
 30
0.0
 10
157291.8934500479
 20
108610.4675564117
 30
0.0
 10
157283.8700591159
 20
108586.5144223802
 30
0.0
 10
157279.2537332565
 20
108572.7327840453
 30
0.0
 11
157246.4883470767
 21
108630.8050532916
 31
0.0
 11
157258.5023731027
 21
108613.6597847971
 31
0.0
 11
157281.725466347
 21
108605.8415407056
 31
0.0
 11
157279.2537332565
 21
108572.7327840453
 31
0.0
  0
SPLINE
  5
60EC7
330
1F
100
AcDbEntity
  8
freecads.com
 48
0.02
100
AcDbSpline
210
0.0
220
0.0
230
1.0
 70
  1064
 71
     3
 72
    10
 73
     6
 74
     4
 42
0.000000001
 43
0.0000000001
 44
0.0000000001
 40
0.0
 40
0.0
 40
0.0
 40
0.0
 40
17.38383088752589
 40
36.59092420222322
 40
48.38038645865732
 40
48.38038645865732
 40
48.38038645865732
 40
48.38038645865732
 10
157248.4128536191
 20
108565.8722021131
 30
0.0
 10
157243.2589308006
 20
108568.2787574091
 30
0.0
 10
157232.4105280281
 20
108573.3442739223
 30
0.0
 10
157214.8184271878
 20
108577.3398508921
 30
0.0
 10
157206.531016452
 20
108570.52450026
 30
0.0
 10
157203.3789205409
 20
108567.9322987214
 30
0.0
 11
157248.4128536191
 21
108565.8722021131
 31
0.0
 11
157232.3965674834
 21
108572.6306157395
 31
0.0
 11
157213.2668244727
 21
108574.3526395325
 31
0.0
 11
157203.3789205409
 21
108567.9322987214
 31
0.0
  0
SPLINE
  5
60EC8
330
1F
100
AcDbEntity
  8
freecads.com
 48
0.02
100
AcDbSpline
210
0.0
220
0.0
230
1.0
 70
     8
 71
     3
 72
    11
 73
     7
 74
     0
 42
0.000000001
 43
0.0000000001
 40
2.457217880654827
 40
2.457217880654827
 40
2.457217880654827
 40
2.457217880654827
 40
3.386081025010945
 40
6.37279328655984
 40
8.930390986911792
 40
11.365685943261
 40
11.365685943261
 40
11.365685943261
 40
11.365685943261
 10
157236.3847512588
 20
108556.7215500515
 30
0.0
 10
157236.6880222179
 20
108559.794781778
 30
0.0
 10
157238.30328057
 20
108572.6858277971
 30
0.0
 10
157244.2083204464
 20
108593.3824510763
 30
0.0
 10
157248.6676209408
 20
108620.3544189922
 30
0.0
 10
157250.6819035072
 20
108635.1637235313
 30
0.0
 10
157251.7995147334
 20
108642.8261785592
 30
0.0
  0
SPLINE
  5
60EC9
330
1F
100
AcDbEntity
  8
freecads.com
 48
0.02
100
AcDbSpline
210
0.0
220
0.0
230
1.0
 70
     8
 71
     3
 72
    11
 73
     7
 74
     0
 42
0.000000001
 43
0.0000000001
 40
0.0
 40
0.0
 40
0.0
 40
0.0
 40
1.487694047277929
 40
5.709939309302136
 40
12.68543069445607
 40
15.2285508408171
 40
15.2285508408171
 40
15.2285508408171
 40
15.2285508408171
 10
157267.7373650996
 20
108497.2131269638
 30
0.0
 10
157270.5909589373
 20
108501.3219590227
 30
0.0
 10
157281.5433773167
 20
108517.0921247579
 30
0.0
 10
157283.601190699
 20
108561.6838849221
 30
0.0
 10
157276.0097723843
 20
108606.1935352409
 30
0.0
 10
157274.7021871312
 20
108637.9241593181
 30
0.0
 10
157274.4139078872
 20
108646.4156156457
 30
0.0
  0
SPLINE
  5
60ECA
330
1F
100
AcDbEntity
  8
freecads.com
 48
0.02
100
AcDbSpline
210
0.0
220
0.0
230
1.0
 70
     8
 71
     3
 72
     9
 73
     5
 74
     0
 42
0.000000001
 43
0.0000000001
 40
48.31333518538338
 40
48.31333518538338
 40
48.31333518538338
 40
48.31333518538338
 40
53.86025505846582
 40
58.42139386826048
 40
58.42139386826048
 40
58.42139386826048
 40
58.42139386826048
 10
157263.9587961289
 20
108644.6754656272
 30
0.0
 10
157264.5847325912
 20
108626.1033378092
 30
0.0
 10
157264.9475293301
 20
108592.4835491647
 30
0.0
 10
157269.3829108901
 20
108559.0330512465
 30
0.0
 10
157271.3843229915
 20
108543.9389200143
 30
0.0
  0
SPLINE
  5
60ECB
330
1F
100
AcDbEntity
  8
freecads.com
 48
0.02
100
AcDbSpline
210
0.0
220
0.0
230
1.0
 70
     8
 71
     3
 72
    11
 73
     7
 74
     0
 42
0.000000001
 43
0.0000000001
 40
0.0336426344779401
 40
0.0336426344779401
 40
0.0336426344779401
 40
0.0336426344779401
 40
0.0379589175894659
 40
0.0653529379358408
 40
0.111005106692207
 40
0.1318309484179372
 40
0.1318309484179372
 40
0.1318309484179372
 40
0.1318309484179372
 10
157181.4493059011
 20
108543.8185355033
 30
0.0
 10
157181.3158117702
 20
108545.2309596669
 30
0.0
 10
157180.8771285835
 20
108555.5573144845
 30
0.0
 10
157194.3324463138
 20
108579.6123875732
 30
0.0
 10
157194.5780453868
 20
108611.271758766
 30
0.0
 10
157195.4148218659
 20
108633.4237308618
 30
0.0
 10
157195.8266082616
 20
108640.3463116006
 30
0.0
  0
SPLINE
  5
60ECC
330
1F
100
AcDbEntity
  8
freecads.com
 48
0.02
100
AcDbSpline
210
0.0
220
0.0
230
1.0
 70
  1064
 71
     3
 72
    10
 73
     6
 74
     4
 42
0.000000001
 43
0.0000000001
 44
0.0000000001
 40
0.0
 40
0.0
 40
0.0
 40
0.0
 40
17.3838308876543
 40
36.59092420220279
 40
48.38038645884928
 40
48.38038645884928
 40
48.38038645884928
 40
48.38038645884928
 10
157252.283658408
 20
108620.2238384285
 30
0.0
 10
157247.1297355894
 20
108622.6303937245
 30
0.0
 10
157236.2813328169
 20
108627.6959102376
 30
0.0
 10
157218.6892319767
 20
108631.6914872074
 30
0.0
 10
157210.4018212407
 20
108624.8761365754
 30
0.0
 10
157207.2497253295
 20
108622.2839350368
 30
0.0
 11
157252.283658408
 21
108620.2238384285
 31
0.0
 11
157236.2673722721
 21
108626.9822520549
 31
0.0
 11
157217.1376292616
 21
108628.7042758479
 31
0.0
 11
157207.2497253295
 21
108622.2839350368
 31
0.0
  0
SPLINE
  5
60ECE
330
1F
100
AcDbEntity
  8
freecads.com
 48
0.02
100
AcDbSpline
210
0.0
220
0.0
230
1.0
 70
  1064
 71
     3
 72
    13
 73
     9
 74
     7
 42
0.000000001
 43
0.0000000001
 44
0.0000000001
 40
0.0
 40
0.0
 40
0.0
 40
0.0
 40
24.61983548829045
 40
51.55245700259669
 40
65.71242050041854
 40
72.60799921763233
 40
91.54324710630463
 40
109.1751721333008
 40
109.1751721333008
 40
109.1751721333008
 40
109.1751721333008
 10
157356.7813678428
 20
110183.9972955845
 30
0.0
 10
157348.5871298207
 20
110182.5632033861
 30
0.0
 10
157331.428887496
 20
110179.5603004451
 30
0.0
 10
157312.7124615093
 20
110169.5460403468
 30
0.0
 10
157297.2284683641
 20
110160.8571990327
 30
0.0
 10
157295.6507415042
 20
110146.9961670777
 30
0.0
 10
157296.3576975685
 20
110132.75309396
 30
0.0
 10
157295.1292167008
 20
110120.5674713864
 30
0.0
 10
157294.536868952
 20
110114.6918193604
 30
0.0
 11
157356.7813678428
 21
110183.9972955845
 31
0.0
 11
157332.7631093908
 21
110178.5880848838
 31
0.0
 11
157308.4065688419
 21
110167.093519467
 31
0.0
 11
157297.5814365206
 21
110157.9654815351
 31
0.0
 11
157296.2282985675
 21
110151.2039710881
 31
0.0
 11
157295.8900069048
 21
110132.2717453511
 31
0.0
 11
157294.536868952
 21
110114.6918193604
 31
0.0
  0
SPLINE
  5
60ECF
330
1F
100
AcDbEntity
  8
freecads.com
 48
0.02
100
AcDbSpline
210
0.0
220
0.0
230
1.0
 70
  1064
 71
     3
 72
    11
 73
     7
 74
     5
 42
0.000000001
 43
0.0000000001
 44
0.0000000001
 40
0.0
 40
0.0
 40
0.0
 40
0.0
 40
12.49443280208291
 40
41.58997891370844
 40
70.19233044036567
 40
88.84226397946903
 40
88.84226397946903
 40
88.84226397946903
 40
88.84226397946903
 10
157448.8004010801
 20
108501.1361823913
 30
0.0
 10
157445.3659439135
 20
108498.7317476431
 30
0.0
 10
157433.9337321917
 20
108490.7281517966
 30
0.0
 10
157409.8126837669
 20
108487.2721303836
 30
0.0
 10
157384.3511641291
 20
108489.2515216351
 30
0.0
 10
157369.320580816
 20
108494.1221138357
 30
0.0
 10
157363.3881824261
 20
108496.0444805681
 30
0.0
 11
157448.8004010801
 21
108501.1361823913
 31
0.0
 11
157438.2389220798
 21
108494.4604043564
 31
0.0
 11
157409.7921018841
 21
108488.3506396892
 31
0.0
 11
157381.2987466142
 21
108490.8452776024
 31
0.0
 11
157363.3881824261
 21
108496.0444805681
 31
0.0
  0
SPLINE
  5
60EE3
330
1F
100
AcDbEntity
  8
freecads.com
 48
0.02
100
AcDbSpline
210
0.0
220
0.0
230
1.0
 70
  1064
 71
     3
 72
    12
 73
     8
 74
     6
 42
0.000000001
 43
0.0000000001
 44
0.0000000001
 40
0.0
 40
0.0
 40
0.0
 40
0.0
 40
4.798183484455147
 40
9.95468215763619
 40
13.41418193167126
 40
23.40560197199368
 40
35.0033469179431
 40
35.0033469179431
 40
35.0033469179431
 40
35.0033469179431
 10
157301.6330734498
 20
110124.9433958002
 30
0.0
 10
157302.9221846459
 20
110125.8678925627
 30
0.0
 10
157305.5966743282
 20
110127.7859249714
 30
0.0
 10
157309.5105442565
 20
110130.3264313725
 30
0.0
 10
157315.9094838447
 20
110130.0300018778
 30
0.0
 10
157323.4767479391
 20
110126.2565054616
 30
0.0
 10
157330.4216356862
 20
110124.352691899
 30
0.0
 10
157334.1524440255
 20
110123.3299592395
 30
0.0
 11
157301.6330734498
 21
110124.9433958002
 31
0.0
 11
157305.5538417735
 21
110127.7092845366
 31
0.0
 11
157310.1665272705
 21
110130.0141947458
 31
0.0
 11
157313.6260270445
 21
110130.0141947458
 31
0.0
 11
157323.0820179646
 21
110126.7873216245
 31
0.0
 11
157334.1524440255
 21
110123.3299592395
 31
0.0
  0
SPLINE
  5
60EE4
330
1F
100
AcDbEntity
  8
freecads.com
 48
0.02
100
AcDbSpline
210
0.0
220
0.0
230
1.0
 70
  1064
 71
     3
 72
    12
 73
     8
 74
     6
 42
0.000000001
 43
0.0000000001
 44
0.0000000001
 40
0.0
 40
0.0
 40
0.0
 40
0.0
 40
8.681300793849965
 40
21.80085711388109
 40
27.80176676513995
 40
33.49752860969797
 40
38.07426555818519
 40
38.07426555818519
 40
38.07426555818519
 40
38.07426555818519
 10
157372.2070467632
 20
110120.1030861182
 30
0.0
 10
157374.9612003631
 20
110121.012102594
 30
0.0
 10
157381.8775497129
 20
110123.294863988
 30
0.0
 10
157391.0222309536
 20
110124.664686343
 30
0.0
 10
157399.3548037818
 20
110125.6888296152
 30
0.0
 10
157404.6317219667
 20
110123.5719857812
 30
0.0
 10
157407.0904723194
 20
110121.1722482983
 30
0.0
 10
157408.1859266789
 20
110120.1030861182
 30
0.0
 11
157372.2070467632
 21
110120.1030861182
 31
0.0
 11
157380.5098615261
 21
110122.638485591
 31
0.0
 11
157393.4253617859
 21
110124.9433958002
 31
0.0
 11
157399.4218433662
 21
110125.1738850638
 31
0.0
 11
157404.726417339
 21
110123.0994699759
 31
0.0
 11
157408.1859266789
 21
110120.1030861182
 31
0.0
  0
SPLINE
  5
60EE5
330
1F
100
AcDbEntity
  8
freecads.com
 48
0.02
100
AcDbSpline
210
0.0
220
0.0
230
1.0
 70
  1064
 71
     3
 72
    10
 73
     6
 74
     4
 42
0.000000001
 43
0.0000000001
 44
0.0000000001
 40
0.0
 40
0.0
 40
0.0
 40
0.0
 40
18.28771600710455
 40
34.60325423506223
 40
44.75116013633139
 40
44.75116013633139
 40
44.75116013633139
 40
44.75116013633139
 10
157368.6562039358
 20
110234.4257960141
 30
0.0
 10
157364.5628279211
 20
110229.6347348825
 30
0.0
 10
157356.8175123844
 20
110220.5692886383
 30
0.0
 10
157356.6704218445
 20
110204.9549091126
 30
0.0
 10
157357.0203289522
 20
110196.1998165383
 30
0.0
 10
157357.1545074206
 20
110192.8425114511
 30
0.0
 11
157368.6562039358
 21
110234.4257960141
 31
0.0
 11
157358.5076453736
 21
110219.212403366
 31
0.0
 11
157356.8162157582
 21
110202.9847771217
 31
0.0
 11
157357.1545074206
 21
110192.8425114511
 31
0.0
  0
LINE
  5
60FE5
330
1F
100
AcDbEntity
  8
freecads.com
 48
0.02
100
AcDbLine
 10
157263.929814802
 20
110112.9942776539
 30
-864.0655393297151
 11
157257.9162763847
 21
110096.9696293762
 31
-864.0655393297151
  0
LINE
  5
60FE6
330
1F
100
AcDbEntity
  8
freecads.com
 48
0.02
100
AcDbLine
 10
157249.8977017902
 20
110042.8873565059
 30
-864.0655393297151
 11
157247.8934506702
 21
110028.8662467963
 31
-864.0655393297151
  0
LINE
  5
60FE7
330
1F
100
AcDbEntity
  8
freecads.com
 48
0.02
100
AcDbLine
 10
157259.9205275046
 20
110056.9089237488
 30
-864.0655393297151
 11
157249.8977017902
 21
110042.8873565059
 31
-864.0655393297151
  0
LINE
  5
60FE8
330
1F
100
AcDbEntity
  8
freecads.com
 48
0.02
100
AcDbLine
 10
157257.9162763847
 20
110072.9331144931
 30
-864.0655393297151
 11
157259.9205275046
 21
110056.9089237488
 31
-864.0655393297151
  0
LINE
  5
60FE9
330
1F
100
AcDbEntity
  8
freecads.com
 48
0.02
100
AcDbLine
 10
157257.9162763847
 20
110096.9696293762
 30
-864.0655393297151
 11
157257.9162763847
 21
110072.9331144931
 31
-864.0655393297151
  0
LINE
  5
60FEA
330
1F
100
AcDbEntity
  8
freecads.com
 48
0.02
100
AcDbLine
 10
157436.3228881262
 20
110050.8996806447
 30
-864.0655393297151
 11
157436.3228881262
 21
110056.9089237488
 31
-864.0655393297151
  0
LINE
  5
60FEB
330
1F
100
AcDbEntity
  8
freecads.com
 48
0.02
100
AcDbLine
 10
157436.3228881262
 20
110042.8873565059
 30
-864.0655393297151
 11
157436.3228881262
 21
110050.8996806447
 31
-864.0655393297151
  0
LINE
  5
60FEC
330
1F
100
AcDbEntity
  8
freecads.com
 48
0.02
100
AcDbLine
 10
157444.3414627207
 20
110034.8750323671
 30
-864.0655393297151
 11
157436.3228881262
 21
110042.8873565059
 31
-864.0655393297151
  0
LINE
  5
60FED
330
1F
100
AcDbEntity
  8
freecads.com
 48
0.02
100
AcDbLine
 10
157456.3693246125
 20
110024.8600847268
 30
-864.0655393297151
 11
157444.3414627207
 21
110034.8750323671
 31
-864.0655393297151
  0
LINE
  5
60FEE
330
1F
100
AcDbEntity
  8
freecads.com
 48
0.02
100
AcDbLine
 10
157472.4056887444
 20
110014.8446795533
 30
-864.0655393297151
 11
157456.3693246125
 21
110024.8600847268
 31
-864.0655393297151
  0
LINE
  5
60FEF
330
1F
100
AcDbEntity
  8
freecads.com
 48
0.02
100
AcDbLine
 10
157472.4056887444
 20
110018.8508416227
 30
-864.0655393297151
 11
157472.4056887444
 21
110014.8446795533
 31
-864.0655393297151
  0
LINE
  5
60FF0
330
1F
100
AcDbEntity
  8
freecads.com
 48
0.02
100
AcDbLine
 10
157466.392150327
 20
110024.8600847268
 30
-864.0655393297151
 11
157472.4056887444
 21
110018.8508416227
 31
-864.0655393297151
  0
LINE
  5
60FF1
330
1F
100
AcDbEntity
  8
freecads.com
 48
0.02
100
AcDbLine
 10
157462.3828630296
 20
110028.8662467963
 30
-864.0655393297151
 11
157466.392150327
 21
110024.8600847268
 31
-864.0655393297151
  0
LINE
  5
60FF2
330
1F
100
AcDbEntity
  8
freecads.com
 48
0.02
100
AcDbLine
 10
157450.3550011379
 20
110036.8781134017
 30
-864.0655393297151
 11
157462.3828630296
 21
110028.8662467963
 31
-864.0655393297151
  0
LINE
  5
60FF3
330
1F
100
AcDbEntity
  8
freecads.com
 48
0.02
100
AcDbLine
 10
157444.3414627207
 20
110052.9027616794
 30
-864.0655393297151
 11
157450.3550011379
 21
110036.8781134017
 31
-864.0655393297151
  0
LINE
  5
60FF4
330
1F
100
AcDbEntity
  8
freecads.com
 48
0.02
100
AcDbLine
 10
157466.392150327
 20
110088.9577627708
 30
-864.0655393297151
 11
157464.3871141497
 21
110090.9608438055
 31
-864.0655393297151
  0
LINE
  5
60FF5
330
1F
100
AcDbEntity
  8
freecads.com
 48
0.02
100
AcDbLine
 10
157472.4056887444
 20
110076.9392765625
 30
-864.0655393297151
 11
157466.392150327
 21
110088.9577627708
 31
-864.0655393297151
  0
LINE
  5
60FF6
330
1F
100
AcDbEntity
  8
freecads.com
 48
0.02
100
AcDbLine
 10
157474.4099398643
 20
110062.9177093196
 30
-864.0655393297151
 11
157472.4056887444
 21
110076.9392765625
 31
-864.0655393297151
  0
LINE
  5
60FF7
330
1F
100
AcDbEntity
  8
freecads.com
 48
0.02
100
AcDbLine
 10
157480.4234782816
 20
110048.89659961
 30
-864.0655393297151
 11
157474.4099398643
 21
110062.9177093196
 31
-864.0655393297151
  0
LINE
  5
60FF8
330
1F
100
AcDbEntity
  8
freecads.com
 48
0.02
100
AcDbLine
 10
157490.4470890533
 20
110038.8811944365
 30
-864.0655393297151
 11
157480.4234782816
 21
110048.89659961
 31
-864.0655393297151
  0
LINE
  5
60FF9
330
1F
100
AcDbEntity
  8
freecads.com
 48
0.02
100
AcDbLine
 10
157506.4834531851
 20
110028.8662467963
 30
-864.0655393297151
 11
157490.4470890533
 21
110038.8811944365
 31
-864.0655393297151
  0
LINE
  5
60FFA
330
1F
100
AcDbEntity
  8
freecads.com
 48
0.02
100
AcDbLine
 10
157504.4784170078
 20
110030.8688702976
 30
-864.0655393297151
 11
157506.4834531851
 21
110028.8662467963
 31
-864.0655393297151
  0
LINE
  5
60FFB
330
1F
100
AcDbEntity
  8
freecads.com
 48
0.02
100
AcDbLine
 10
157502.4741658879
 20
110034.8750323671
 30
-864.0655393297151
 11
157504.4784170078
 21
110030.8688702976
 31
-864.0655393297151
  0
LINE
  5
60FFC
330
1F
100
AcDbEntity
  8
freecads.com
 48
0.02
100
AcDbLine
 10
157490.4470890533
 20
110048.89659961
 30
-864.0655393297151
 11
157502.4741658879
 21
110034.8750323671
 31
-864.0655393297151
  0
LINE
  5
60FFD
330
1F
100
AcDbEntity
  8
freecads.com
 48
0.02
100
AcDbLine
 10
157486.4378017561
 20
110058.9120047835
 30
-864.0655393297151
 11
157490.4470890533
 21
110048.89659961
 31
-864.0655393297151
  0
LINE
  5
60FFE
330
1F
100
AcDbEntity
  8
freecads.com
 48
0.02
100
AcDbLine
 10
157484.4327655788
 20
110084.9516007014
 30
-864.0655393297151
 11
157486.4378017561
 21
110058.9120047835
 31
-864.0655393297151
  0
LINE
  5
60FFF
330
1F
100
AcDbEntity
  8
freecads.com
 48
0.02
100
AcDbLine
 10
157484.4327655788
 20
110084.9516007014
 30
-864.0655393297151
 11
157461.9699809069
 21
110134.6594980701
 31
0.0
  0
LINE
  5
61000
330
1F
100
AcDbEntity
  8
freecads.com
 48
0.02
100
AcDbLine
 10
157340.5017367451
 20
109851.3547011615
 30
-864.0655393297151
 11
157348.4264485337
 21
109838.490354473
 31
-864.0655393297151
  0
LINE
  5
61001
330
1F
100
AcDbEntity
  8
freecads.com
 48
0.02
100
AcDbLine
 10
157415.5990904175
 20
109925.0560541575
 30
-864.0655393297151
 11
157440.1355271357
 21
109981.3569458088
 31
-864.0655393297151
  0
LINE
  5
61002
330
1F
100
AcDbEntity
  8
freecads.com
 48
0.02
100
AcDbLine
 10
157348.4264485337
 20
109838.4903544729
 30
-864.0655393297151
 11
157414.3145840524
 21
109922.8979963939
 31
-864.0655393297151
  0
LINE
  5
61003
330
1F
100
AcDbEntity
  8
freecads.com
 48
0.02
100
AcDbLine
 10
157320.0203785509
 20
109890.8233586256
 30
-864.0655393297151
 11
157340.5017367451
 21
109851.3547011615
 31
-864.0655393297151
  0
LINE
  5
61004
330
1F
100
AcDbEntity
  8
freecads.com
 48
0.02
100
AcDbLine
 10
157271.5694938149
 20
109976.3068331938
 30
-864.0655393297151
 11
157320.1963252668
 21
109890.4990759287
 31
-864.0655393297151
  0
LINE
  5
61005
330
1F
100
AcDbEntity
  8
freecads.com
 48
0.02
100
AcDbLine
 10
157406.4318339176
 20
109929.0512272781
 30
-864.0655393297151
 11
157430.9682706358
 21
109985.3521189294
 31
-864.0655393297151
  0
LINE
  5
61006
330
1F
100
AcDbEntity
  8
freecads.com
 48
0.02
100
AcDbLine
 10
157349.3777993908
 20
109855.9607311124
 30
-864.0655393297151
 11
157406.4318339176
 21
109929.0512272781
 31
-864.0655393297151
  0
LINE
  5
61007
330
1F
100
AcDbEntity
  8
freecads.com
 48
0.02
100
AcDbLine
 10
157328.8964411966
 20
109895.4293885766
 30
-864.0655393297151
 11
157349.3777993908
 21
109855.9607311124
 31
-864.0655393297151
  0
LINE
  5
61008
330
1F
100
AcDbEntity
  8
freecads.com
 48
0.02
100
AcDbLine
 10
157280.2696097449
 20
109981.2371458417
 30
-864.0655393297151
 11
157328.8964411966
 21
109895.4293885766
 31
-864.0655393297151
  0
ARC
  5
61009
330
1F
100
AcDbEntity
  8
freecads.com
 48
0.02
100
AcDbCircle
 10
157394.325537342
 20
109513.3570911902
 30
-864.0655393297151
 40
247.3607944784105
100
AcDbArc
 50
246.4646352014096
 51
285.5493113739785
  0
ARC
  5
6100A
330
1F
100
AcDbEntity
  8
freecads.com
 48
0.02
100
AcDbCircle
 10
157394.325537342
 20
109513.3570911902
 30
-864.0655393297151
 40
247.3607944784105
100
AcDbArc
 50
242.2450299276175
 51
243.3448768920448
  0
LINE
  5
6100B
330
1F
100
AcDbEntity
  8
freecads.com
 48
0.02
100
AcDbLine
 10
157265.9340659219
 20
110129.0189259316
 30
-864.0655393297151
 11
157263.929814802
 21
110112.9942776539
 31
-864.0655393297151
  0
ARC
  5
6100C
330
1F
100
AcDbEntity
  8
freecads.com
 48
0.02
100
AcDbCircle
 10
157382.354935725
 20
110106.5041258419
 30
0.0
 40
4.965345283492855
100
AcDbArc
 50
119.9537803232384
 51
232.6930510766019
  0
ARC
  5
6100D
330
1F
100
AcDbEntity
  8
freecads.com
 48
0.02
100
AcDbCircle
 10
157382.354935725
 20
110106.5041258419
 30
0.0
 40
4.965345283492855
100
AcDbArc
 50
297.3198810343802
 51
57.39622422103821
  0
ARC
  5
6100E
330
1F
100
AcDbEntity
  8
freecads.com
 48
0.02
100
AcDbCircle
 10
157320.0837867402
 20
110109.7309931056
 30
0.0
 40
4.965345283492855
100
AcDbArc
 50
288.0186667317267
 51
65.83992031233693
  0
ARC
  5
6100F
330
1F
100
AcDbEntity
  8
freecads.com
 48
0.02
100
AcDbCircle
 10
157320.0837867402
 20
110109.7309931056
 30
0.0
 40
4.965345283492855
100
AcDbArc
 50
121.7491113762285
 51
244.119742175579
  0
ARC
  5
61010
330
1F
100
AcDbEntity
  8
freecads.com
 48
0.02
100
AcDbCircle
 10
157237.3066866974
 20
109498.4598579212
 30
0.0
 40
211.2545294182306
100
AcDbArc
 50
232.7704881560369
 51
281.3930929117114
  0
ARC
  5
61011
330
1F
100
AcDbEntity
  8
freecads.com
 48
0.02
100
AcDbCircle
 10
157405.8195285602
 20
108522.6193169938
 30
0.0
 40
50.06636661277378
100
AcDbArc
 50
149.8822024932755
 51
212.0589956147908
  0
LINE
  5
61012
330
1F
100
AcDbEntity
  8
freecads.com
 48
0.02
100
AcDbLine
 10
157168.5500765119
 20
109633.5898130552
 30
0.0
 11
157234.0172875546
 21
109606.1566765458
 31
0.0
  0
LINE
  5
61013
330
1F
100
AcDbEntity
  8
freecads.com
 48
0.02
100
AcDbLine
 10
157234.0172875546
 20
109606.1566765458
 30
0.0
 11
157325.144376179
 21
109590.6769504956
 31
0.0
  0
LINE
  5
61014
330
1F
100
AcDbEntity
  8
freecads.com
 48
0.02
100
AcDbLine
 10
157325.144376179
 20
109590.6769504956
 30
0.0
 11
157438.4347498151
 21
109548.4545654294
 31
0.0
  0
ARC
  5
61015
330
1F
100
AcDbEntity
  8
freecads.com
 48
0.02
100
AcDbCircle
 10
157224.7564925798
 20
108518.6962615663
 30
0.0
 40
50.06636661277378
100
AcDbArc
 50
149.8822024932755
 51
212.0589956147908
  0
ARC
  5
61016
330
1F
100
AcDbEntity
  8
freecads.com
100
AcDbCircle
 10
156965.9615571048
 20
108457.5818814919
 30
0.0
 40
25.0
100
AcDbArc
 50
90.0
 51
153.434948822922
  0
LINE
  5
61017
330
1F
100
AcDbEntity
  8
freecads.com
 48
0.02
100
AcDbLine
 10
157508.4877043052
 20
110133.0246304676
 30
-864.0655393297151
 11
157510.4927404824
 21
110119.003520758
 31
-864.0655393297151
  0
LINE
  5
61018
330
1F
100
AcDbEntity
  8
freecads.com
 48
0.02
100
AcDbLine
 10
157498.4648785906
 20
110147.0461977106
 30
-864.0655393297151
 11
157508.4877043052
 21
110133.0246304676
 31
-864.0655393297151
  0
LINE
  5
61019
330
1F
100
AcDbEntity
  8
freecads.com
 48
0.02
100
AcDbLine
 10
157478.4192271617
 20
110161.0677649535
 30
-864.0655393297151
 11
157498.4648785906
 21
110147.0461977106
 31
-864.0655393297151
  0
LINE
  5
6101A
330
1F
100
AcDbEntity
  8
freecads.com
 48
0.02
100
AcDbLine
 10
157458.3735757325
 20
110195.1196850102
 30
-864.0655393297151
 11
157478.4192271617
 21
110161.0677649535
 31
-864.0655393297151
  0
LINE
  5
6101B
330
1F
100
AcDbEntity
  8
freecads.com
 48
0.02
100
AcDbLine
 10
157450.3550011379
 20
110205.1346326503
 30
-864.0655393297151
 11
157458.3735757325
 21
110195.1196850102
 31
-864.0655393297151
  0
LINE
  5
6101C
330
1F
100
AcDbEntity
  8
freecads.com
 48
0.02
100
AcDbLine
 10
157434.3186370062
 20
110233.1773096029
 30
-864.0655393297151
 11
157450.3550011379
 21
110205.1346326503
 31
-864.0655393297151
  0
LINE
  5
6101D
330
1F
100
AcDbEntity
  8
freecads.com
 48
0.02
100
AcDbLine
 10
157430.3093497088
 20
110241.1896337417
 30
-864.0655393297151
 11
157434.3186370062
 21
110233.1773096029
 31
-864.0655393297151
  0
LINE
  5
6101E
330
1F
100
AcDbEntity
  8
freecads.com
 48
0.02
100
AcDbLine
 10
157414.2729855771
 20
110259.2173630541
 30
-864.0655393297151
 11
157430.3093497088
 21
110241.1896337417
 31
-864.0655393297151
  0
LINE
  5
6101F
330
1F
100
AcDbEntity
  8
freecads.com
 48
0.02
100
AcDbLine
 10
157392.2222979708
 20
110265.2261486249
 30
-864.0655393297151
 11
157414.2729855771
 21
110259.2173630541
 31
-864.0655393297151
  0
LINE
  5
61020
330
1F
100
AcDbEntity
  8
freecads.com
 48
0.02
100
AcDbLine
 10
157386.2087595536
 20
110269.2323106943
 30
-864.0655393297151
 11
157392.2222979708
 21
110265.2261486249
 31
-864.0655393297151
  0
LINE
  5
61021
330
1F
100
AcDbEntity
  8
freecads.com
 48
0.02
100
AcDbLine
 10
157374.1816827189
 20
110273.2384727637
 30
-864.0655393297151
 11
157386.2087595536
 21
110269.2323106943
 31
-864.0655393297151
  0
LINE
  5
61022
330
1F
100
AcDbEntity
  8
freecads.com
 48
0.02
100
AcDbLine
 10
157346.1174566955
 20
110265.2261486249
 30
-864.0655393297151
 11
157374.1816827189
 21
110273.2384727637
 31
-864.0655393297151
  0
LINE
  5
61023
330
1F
100
AcDbEntity
  8
freecads.com
 48
0.02
100
AcDbLine
 10
157350.1267439926
 20
110249.2019578805
 30
-864.0655393297151
 11
157346.1174566955
 21
110265.2261486249
 31
-864.0655393297151
  0
LINE
  5
61024
330
1F
100
AcDbEntity
  8
freecads.com
 48
0.02
100
AcDbLine
 10
157394.227334148
 20
110243.1927147764
 30
-864.0655393297151
 11
157394.227334148
 21
110239.186552707
 31
-864.0655393297151
  0
LINE
  5
61025
330
1F
100
AcDbEntity
  8
freecads.com
 48
0.02
100
AcDbLine
 10
157386.2087595536
 20
110247.1988768458
 30
-864.0655393297151
 11
157394.227334148
 21
110243.1927147764
 31
-864.0655393297151
  0
LINE
  5
61026
330
1F
100
AcDbEntity
  8
freecads.com
 48
0.02
100
AcDbLine
 10
157382.1994722563
 20
110249.2019578805
 30
-864.0655393297151
 11
157386.2087595536
 21
110247.1988768458
 31
-864.0655393297151
  0
LINE
  5
61027
330
1F
100
AcDbEntity
  8
freecads.com
 48
0.02
100
AcDbLine
 10
157368.1673592446
 20
110249.2019578805
 30
-864.0655393297151
 11
157382.1994722563
 21
110249.2019578805
 31
-864.0655393297151
  0
LINE
  5
61028
330
1F
100
AcDbEntity
  8
freecads.com
 48
0.02
100
AcDbLine
 10
157352.1309951127
 20
110249.2019578805
 30
-864.0655393297151
 11
157368.1673592446
 21
110249.2019578805
 31
-864.0655393297151
  0
LINE
  5
61029
330
1F
100
AcDbEntity
  8
freecads.com
 48
0.02
100
AcDbLine
 10
157348.1217078155
 20
110241.1896337417
 30
-864.0655393297151
 11
157352.1309951127
 21
110249.2019578805
 31
-864.0655393297151
  0
ENDSEC
  0
SECTION
  2
OBJECTS
  0
DICTIONARY
  5
C
330
0
100
AcDbDictionary
281
     1
  3
ACAD_ASSOCPERSSUBENTMANAGER
350
2C1D4
  3
ACAD_CIP_PREVIOUS_PRODUCT_INFO
350
1A5
  3
ACAD_COLOR
350
73
  3
ACAD_DETAILVIEWSTYLE
350
1AB
  3
ACAD_GROUP
350
D
  3
ACAD_LAYOUT
350
1A
  3
ACAD_MATERIAL
350
72
  3
ACAD_MLEADERSTYLE
350
D7
  3
ACAD_MLINESTYLE
350
17
  3
ACAD_PLOTSETTINGS
350
19
  3
ACAD_PLOTSTYLENAME
350
E
  3
ACAD_SCALELIST
350
B6
  3
ACAD_SECTIONVIEWSTYLE
350
1A8
  3
ACAD_TABLESTYLE
350
86
  3
ACAD_VISUALSTYLE
350
99
  3
ACAD_WIPEOUT_VARS
350
59B06
  3
ACDB_RECOMPOSE_DATA
350
67411
  3
ACDBVARIABLEDICTIONARY
350
4A0D5
  3
AEC_PROPERTY_SET_DEFS
350
22D1
  0
DICTIONARY
  5
18E
330
2
100
AcDbDictionary
280
     1
281
     1
  3
ACAD_LAYERSTATES
360
18F
  0
DICTIONARY
  5
E6
330
10
100
AcDbDictionary
280
     1
281
     1
  0
DICTIONARY
  5
15D
330
1F
100
AcDbDictionary
280
     1
281
     1
  3
ACAD_SORTENTS
360
28E
  0
ACDBASSOCPERSSUBENTMANAGER
  5
2C1D4
102
{ACAD_REACTORS
330
C
102
}
330
C
100
AcDbAssocPersSubentManager
 90
        2
 90
        3
 90
        0
 90
        2
 90
     1260
 90
        0
 90
     1260
 90
        1
 90
        2
 90
        3
 90
        4
 90
        5
 90
        6
 90
        7
 90
        8
 90
        9
 90
       10
 90
       11
 90
       12
 90
       13
 90
       14
 90
       15
 90
       16
 90
       17
 90
       18
 90
       19
 90
       20
 90
       21
 90
       22
 90
       23
 90
       24
 90
       25
 90
       26
 90
       27
 90
       28
 90
       29
 90
       30
 90
       31
 90
       32
 90
       33
 90
       34
 90
       35
 90
       36
 90
       37
 90
       38
 90
       39
 90
       40
 90
       41
 90
       42
 90
       43
 90
       44
 90
       45
 90
       46
 90
       47
 90
       48
 90
       49
 90
       50
 90
       51
 90
       52
 90
       53
 90
       54
 90
       55
 90
       56
 90
       57
 90
       58
 90
       59
 90
       60
 90
       61
 90
       62
 90
       63
 90
       64
 90
       65
 90
       66
 90
       67
 90
       68
 90
       69
 90
       70
 90
       71
 90
       72
 90
       73
 90
       74
 90
       75
 90
       76
 90
       77
 90
       78
 90
       79
 90
       80
 90
       81
 90
       82
 90
       83
 90
       84
 90
       85
 90
       86
 90
       87
 90
       88
 90
       89
 90
       90
 90
       91
 90
       92
 90
       93
 90
       94
 90
       95
 90
       96
 90
       97
 90
       98
 90
       99
 90
      100
 90
      101
 90
      102
 90
      103
 90
      104
 90
      105
 90
      106
 90
      107
 90
      108
 90
      109
 90
      110
 90
      111
 90
      112
 90
      113
 90
      114
 90
      115
 90
      116
 90
      117
 90
      118
 90
      119
 90
      120
 90
      121
 90
      122
 90
      123
 90
      124
 90
      125
 90
      126
 90
      127
 90
      128
 90
      129
 90
      130
 90
      131
 90
      132
 90
      133
 90
      134
 90
      135
 90
      136
 90
      137
 90
      138
 90
      139
 90
      140
 90
      141
 90
      142
 90
      143
 90
      144
 90
      145
 90
      146
 90
      147
 90
      148
 90
      149
 90
      150
 90
      151
 90
      152
 90
      153
 90
      154
 90
      155
 90
      156
 90
      157
 90
      158
 90
      159
 90
      160
 90
      161
 90
      162
 90
      163
 90
      164
 90
      165
 90
      166
 90
      167
 90
      168
 90
      169
 90
      170
 90
      171
 90
      172
 90
      173
 90
      174
 90
      175
 90
      176
 90
      177
 90
      178
 90
      179
 90
      180
 90
      181
 90
      182
 90
      183
 90
      184
 90
      185
 90
      186
 90
      187
 90
      188
 90
      189
 90
      190
 90
      191
 90
      192
 90
      193
 90
      194
 90
      195
 90
      196
 90
      197
 90
      198
 90
      199
 90
      200
 90
      201
 90
      202
 90
      203
 90
      204
 90
      205
 90
      206
 90
      207
 90
      208
 90
      209
 90
      210
 90
      211
 90
      212
 90
      213
 90
      214
 90
      215
 90
      216
 90
      217
 90
      218
 90
      219
 90
      220
 90
      221
 90
      222
 90
      223
 90
      224
 90
      225
 90
      226
 90
      227
 90
      228
 90
      229
 90
      230
 90
      231
 90
      232
 90
      233
 90
      234
 90
      235
 90
      236
 90
      237
 90
      238
 90
      239
 90
      240
 90
      241
 90
      242
 90
      243
 90
      244
 90
      245
 90
      246
 90
      247
 90
      248
 90
      249
 90
      250
 90
      251
 90
      252
 90
      253
 90
      254
 90
      255
 90
      256
 90
      257
 90
      258
 90
      259
 90
      260
 90
      261
 90
      262
 90
      263
 90
      264
 90
      265
 90
      266
 90
      267
 90
      268
 90
      269
 90
      270
 90
      271
 90
      272
 90
      273
 90
      274
 90
      275
 90
      276
 90
      277
 90
      278
 90
      279
 90
      280
 90
      281
 90
      282
 90
      283
 90
      284
 90
      285
 90
      286
 90
      287
 90
      288
 90
      289
 90
      290
 90
      291
 90
      292
 90
      293
 90
      294
 90
      295
 90
      296
 90
      297
 90
      298
 90
      299
 90
      300
 90
      301
 90
      302
 90
      303
 90
      304
 90
      305
 90
      306
 90
      307
 90
      308
 90
      309
 90
      310
 90
      311
 90
      312
 90
      313
 90
      314
 90
      315
 90
      316
 90
      317
 90
      318
 90
      319
 90
      320
 90
      321
 90
      322
 90
      323
 90
      324
 90
      325
 90
      326
 90
      327
 90
      328
 90
      329
 90
      330
 90
      331
 90
      332
 90
      333
 90
      334
 90
      335
 90
      336
 90
      337
 90
      338
 90
      339
 90
      340
 90
      341
 90
      342
 90
      343
 90
      344
 90
      345
 90
      346
 90
      347
 90
      348
 90
      349
 90
      350
 90
      351
 90
      352
 90
      353
 90
      354
 90
      355
 90
      356
 90
      357
 90
      358
 90
      359
 90
      360
 90
      361
 90
      362
 90
      363
 90
      364
 90
      365
 90
      366
 90
      367
 90
      368
 90
      369
 90
      370
 90
      371
 90
      372
 90
      373
 90
      374
 90
      375
 90
      376
 90
      377
 90
      378
 90
      379
 90
      380
 90
      381
 90
      382
 90
      383
 90
      384
 90
      385
 90
      386
 90
      387
 90
      388
 90
      389
 90
      390
 90
      391
 90
      392
 90
      393
 90
      394
 90
      395
 90
      396
 90
      397
 90
      398
 90
      399
 90
      400
 90
      401
 90
      402
 90
      403
 90
      404
 90
      405
 90
      406
 90
      407
 90
      408
 90
      409
 90
      410
 90
      411
 90
      412
 90
      413
 90
      414
 90
      415
 90
      416
 90
      417
 90
      418
 90
      419
 90
      420
 90
      421
 90
      422
 90
      423
 90
      424
 90
      425
 90
      426
 90
      427
 90
      428
 90
      429
 90
      430
 90
      431
 90
      432
 90
      433
 90
      434
 90
      435
 90
      436
 90
      437
 90
      438
 90
      439
 90
      440
 90
      441
 90
      442
 90
      443
 90
      444
 90
      445
 90
      446
 90
      447
 90
      448
 90
      449
 90
      450
 90
      451
 90
      452
 90
      453
 90
      454
 90
      455
 90
      456
 90
      457
 90
      458
 90
      459
 90
      460
 90
      461
 90
      462
 90
      463
 90
      464
 90
      465
 90
      466
 90
      467
 90
      468
 90
      469
 90
      470
 90
      471
 90
      472
 90
      473
 90
      474
 90
      475
 90
      476
 90
      477
 90
      478
 90
      479
 90
      480
 90
      481
 90
      482
 90
      483
 90
      484
 90
      485
 90
      486
 90
      487
 90
      488
 90
      489
 90
      490
 90
      491
 90
      492
 90
      493
 90
      494
 90
      495
 90
      496
 90
      497
 90
      498
 90
      499
 90
      500
 90
      501
 90
      502
 90
      503
 90
      504
 90
      505
 90
      506
 90
      507
 90
      508
 90
      509
 90
      510
 90
      511
 90
      512
 90
      513
 90
      514
 90
      515
 90
      516
 90
      517
 90
      518
 90
      519
 90
      520
 90
      521
 90
      522
 90
      523
 90
      524
 90
      525
 90
      526
 90
      527
 90
      528
 90
      529
 90
      530
 90
      531
 90
      532
 90
      533
 90
      534
 90
      535
 90
      536
 90
      537
 90
      538
 90
      539
 90
      540
 90
      541
 90
      542
 90
      543
 90
      544
 90
      545
 90
      546
 90
      547
 90
      548
 90
      549
 90
      550
 90
      551
 90
      552
 90
      553
 90
      554
 90
      555
 90
      556
 90
      557
 90
      558
 90
      559
 90
      560
 90
      561
 90
      562
 90
      563
 90
      564
 90
      565
 90
      566
 90
      567
 90
      568
 90
      569
 90
      570
 90
      571
 90
      572
 90
      573
 90
      574
 90
      575
 90
      576
 90
      577
 90
      578
 90
      579
 90
      580
 90
      581
 90
      582
 90
      583
 90
      584
 90
      585
 90
      586
 90
      587
 90
      588
 90
      589
 90
      590
 90
      591
 90
      592
 90
      593
 90
      594
 90
      595
 90
      596
 90
      597
 90
      598
 90
      599
 90
      600
 90
      601
 90
      602
 90
      603
 90
      604
 90
      605
 90
      606
 90
      607
 90
      608
 90
      609
 90
      610
 90
      611
 90
      612
 90
      613
 90
      614
 90
      615
 90
      616
 90
      617
 90
      618
 90
      619
 90
      620
 90
      621
 90
      622
 90
      623
 90
      624
 90
      625
 90
      626
 90
      627
 90
      628
 90
      629
 90
      630
 90
      631
 90
      632
 90
      633
 90
      634
 90
      635
 90
      636
 90
      637
 90
      638
 90
      639
 90
      640
 90
      641
 90
      642
 90
      643
 90
      644
 90
      645
 90
      646
 90
      647
 90
      648
 90
      649
 90
      650
 90
      651
 90
      652
 90
      653
 90
      654
 90
      655
 90
      656
 90
      657
 90
      658
 90
      659
 90
      660
 90
      661
 90
      662
 90
      663
 90
      664
 90
      665
 90
      666
 90
      667
 90
      668
 90
      669
 90
      670
 90
      671
 90
      672
 90
      673
 90
      674
 90
      675
 90
      676
 90
      677
 90
      678
 90
      679
 90
      680
 90
      681
 90
      682
 90
      683
 90
      684
 90
      685
 90
      686
 90
      687
 90
      688
 90
      689
 90
      690
 90
      691
 90
      692
 90
      693
 90
      694
 90
      695
 90
      696
 90
      697
 90
      698
 90
      699
 90
      700
 90
      701
 90
      702
 90
      703
 90
      704
 90
      705
 90
      706
 90
      707
 90
      708
 90
      709
 90
      710
 90
      711
 90
      712
 90
      713
 90
      714
 90
      715
 90
      716
 90
      717
 90
      718
 90
      719
 90
      720
 90
      721
 90
      722
 90
      723
 90
      724
 90
      725
 90
      726
 90
      727
 90
      728
 90
      729
 90
      730
 90
      731
 90
      732
 90
      733
 90
      734
 90
      735
 90
      736
 90
      737
 90
      738
 90
      739
 90
      740
 90
      741
 90
      742
 90
      743
 90
      744
 90
      745
 90
      746
 90
      747
 90
      748
 90
      749
 90
      750
 90
      751
 90
      752
 90
      753
 90
      754
 90
      755
 90
      756
 90
      757
 90
      758
 90
      759
 90
      760
 90
      761
 90
      762
 90
      763
 90
      764
 90
      765
 90
      766
 90
      767
 90
      768
 90
      769
 90
      770
 90
      771
 90
      772
 90
      773
 90
      774
 90
      775
 90
      776
 90
      777
 90
      778
 90
      779
 90
      780
 90
      781
 90
      782
 90
      783
 90
      784
 90
      785
 90
      786
 90
      787
 90
      788
 90
      789
 90
      790
 90
      791
 90
      792
 90
      793
 90
      794
 90
      795
 90
      796
 90
      797
 90
      798
 90
      799
 90
      800
 90
      801
 90
      802
 90
      803
 90
      804
 90
      805
 90
      806
 90
      807
 90
      808
 90
      809
 90
      810
 90
      811
 90
      812
 90
      813
 90
      814
 90
      815
 90
      816
 90
      817
 90
      818
 90
      819
 90
      820
 90
      821
 90
      822
 90
      823
 90
      824
 90
      825
 90
      826
 90
      827
 90
      828
 90
      829
 90
      830
 90
      831
 90
      832
 90
      833
 90
      834
 90
      835
 90
      836
 90
      837
 90
      838
 90
      839
 90
      840
 90
      841
 90
      842
 90
      843
 90
      844
 90
      845
 90
      846
 90
      847
 90
      848
 90
      849
 90
      850
 90
      851
 90
      852
 90
      853
 90
      854
 90
      855
 90
      856
 90
      857
 90
      858
 90
      859
 90
      860
 90
      861
 90
      862
 90
      863
 90
      864
 90
      865
 90
      866
 90
      867
 90
      868
 90
      869
 90
      870
 90
      871
 90
      872
 90
      873
 90
      874
 90
      875
 90
      876
 90
      877
 90
      878
 90
      879
 90
      880
 90
      881
 90
      882
 90
      883
 90
      884
 90
      885
 90
      886
 90
      887
 90
      888
 90
      889
 90
      890
 90
      891
 90
      892
 90
      893
 90
      894
 90
      895
 90
      896
 90
      897
 90
      898
 90
      899
 90
      900
 90
      901
 90
      902
 90
      903
 90
      904
 90
      905
 90
      906
 90
      907
 90
      908
 90
      909
 90
      910
 90
      911
 90
      912
 90
      913
 90
      914
 90
      915
 90
      916
 90
      917
 90
      918
 90
      919
 90
      920
 90
      921
 90
      922
 90
      923
 90
      924
 90
      925
 90
      926
 90
      927
 90
      928
 90
      929
 90
      930
 90
      931
 90
      932
 90
      933
 90
      934
 90
      935
 90
      936
 90
      937
 90
      938
 90
      939
 90
      940
 90
      941
 90
      942
 90
      943
 90
      944
 90
      945
 90
      946
 90
      947
 90
      948
 90
      949
 90
      950
 90
      951
 90
      952
 90
      953
 90
      954
 90
      955
 90
      956
 90
      957
 90
      958
 90
      959
 90
      960
 90
      961
 90
      962
 90
      963
 90
      964
 90
      965
 90
      966
 90
      967
 90
      968
 90
      969
 90
      970
 90
      971
 90
      972
 90
      973
 90
      974
 90
      975
 90
      976
 90
      977
 90
      978
 90
      979
 90
      980
 90
      981
 90
      982
 90
      983
 90
      984
 90
      985
 90
      986
 90
      987
 90
      988
 90
      989
 90
      990
 90
      991
 90
      992
 90
      993
 90
      994
 90
      995
 90
      996
 90
      997
 90
      998
 90
      999
 90
     1000
 90
     1001
 90
     1002
 90
     1003
 90
     1004
 90
     1005
 90
     1006
 90
     1007
 90
     1008
 90
     1009
 90
     1010
 90
     1011
 90
     1012
 90
     1013
 90
     1014
 90
     1015
 90
     1016
 90
     1017
 90
     1018
 90
     1019
 90
     1020
 90
     1021
 90
     1022
 90
     1023
 90
     1024
 90
     1025
 90
     1026
 90
     1027
 90
     1028
 90
     1029
 90
     1030
 90
     1031
 90
     1032
 90
     1033
 90
     1034
 90
     1035
 90
     1036
 90
     1037
 90
     1038
 90
     1039
 90
     1040
 90
     1041
 90
     1042
 90
     1043
 90
     1044
 90
     1045
 90
     1046
 90
     1047
 90
     1048
 90
     1049
 90
     1050
 90
     1051
 90
     1052
 90
     1053
 90
     1054
 90
     1055
 90
     1056
 90
     1057
 90
     1058
 90
     1059
 90
     1060
 90
     1061
 90
     1062
 90
     1063
 90
     1064
 90
     1065
 90
     1066
 90
     1067
 90
     1068
 90
     1069
 90
     1070
 90
     1071
 90
     1072
 90
     1073
 90
     1074
 90
     1075
 90
     1076
 90
     1077
 90
     1078
 90
     1079
 90
     1080
 90
     1081
 90
     1082
 90
     1083
 90
     1084
 90
     1085
 90
     1086
 90
     1087
 90
     1088
 90
     1089
 90
     1090
 90
     1091
 90
     1092
 90
     1093
 90
     1094
 90
     1095
 90
     1096
 90
     1097
 90
     1098
 90
     1099
 90
     1100
 90
     1101
 90
     1102
 90
     1103
 90
     1104
 90
     1105
 90
     1106
 90
     1107
 90
     1108
 90
     1109
 90
     1110
 90
     1111
 90
     1112
 90
     1113
 90
     1114
 90
     1115
 90
     1116
 90
     1117
 90
     1118
 90
     1119
 90
     1120
 90
     1121
 90
     1122
 90
     1123
 90
     1124
 90
     1125
 90
     1126
 90
     1127
 90
     1128
 90
     1129
 90
     1130
 90
     1131
 90
     1132
 90
     1133
 90
     1134
 90
     1135
 90
     1136
 90
     1137
 90
     1138
 90
     1139
 90
     1140
 90
     1141
 90
     1142
 90
     1143
 90
     1144
 90
     1145
 90
     1146
 90
     1147
 90
     1148
 90
     1149
 90
     1150
 90
     1151
 90
     1152
 90
     1153
 90
     1154
 90
     1155
 90
     1156
 90
     1157
 90
     1158
 90
     1159
 90
     1160
 90
     1161
 90
     1162
 90
     1163
 90
     1164
 90
     1165
 90
     1166
 90
     1167
 90
     1168
 90
     1169
 90
     1170
 90
     1171
 90
     1172
 90
     1173
 90
     1174
 90
     1175
 90
     1176
 90
     1177
 90
     1178
 90
     1179
 90
     1180
 90
     1181
 90
     1182
 90
     1183
 90
     1184
 90
     1185
 90
     1186
 90
     1187
 90
     1188
 90
     1189
 90
     1190
 90
     1191
 90
     1192
 90
     1193
 90
     1194
 90
     1195
 90
     1196
 90
     1197
 90
     1198
 90
     1199
 90
     1200
 90
     1201
 90
     1202
 90
     1203
 90
     1204
 90
     1205
 90
     1206
 90
     1207
 90
     1208
 90
     1209
 90
     1210
 90
     1211
 90
     1212
 90
     1213
 90
     1214
 90
     1215
 90
     1216
 90
     1217
 90
     1218
 90
     1219
 90
     1220
 90
     1221
 90
     1222
 90
     1223
 90
     1224
 90
     1225
 90
     1226
 90
     1227
 90
     1228
 90
     1229
 90
     1230
 90
     1231
 90
     1232
 90
     1233
 90
     1234
 90
     1235
 90
     1236
 90
     1237
 90
     1238
 90
     1239
 90
     1240
 90
     1241
 90
     1242
 90
     1243
 90
     1244
 90
     1245
 90
     1246
 90
     1247
 90
     1248
 90
     1249
 90
     1250
 90
     1251
 90
     1252
 90
     1253
 90
     1254
 90
     1255
 90
     1256
 90
     1257
 90
     1258
 90
     1259
 90
     1260
 90
        0
 90
        0
290
     0
  0
XRECORD
  5
1A5
102
{ACAD_REACTORS
330
C
102
}
330
C
100
AcDbXrecord
280
     1
300
ACD
300
2022
300

  0
DICTIONARY
  5
73
102
{ACAD_REACTORS
330
C
102
}
330
C
100
AcDbDictionary
281
     1
  0
DICTIONARY
  5
1AB
102
{ACAD_REACTORS
330
C
102
}
330
C
100
AcDbDictionary
281
     1
  3
Imperial24
350
1AC
  3
Metric50
350
224
  0
DICTIONARY
  5
D
102
{ACAD_REACTORS
330
C
102
}
330
C
100
AcDbDictionary
281
     1
  0
DICTIONARY
  5
1A
102
{ACAD_REACTORS
330
C
102
}
330
C
100
AcDbDictionary
281
     1
  3
Layout1
350
59
  3
Layout2
350
5E
  3
Model
350
22
  0
DICTIONARY
  5
72
102
{ACAD_REACTORS
330
C
102
}
330
C
100
AcDbDictionary
281
     1
  3
ByBlock
350
97
  3
ByLayer
350
96
  3
Global
350
98
  0
DICTIONARY
  5
D7
102
{ACAD_REACTORS
330
C
102
}
330
C
100
AcDbDictionary
281
     1
  3
Standard
350
D8
  0
DICTIONARY
  5
17
102
{ACAD_REACTORS
330
C
102
}
330
C
100
AcDbDictionary
281
     1
  3
Standard
350
18
  0
DICTIONARY
  5
19
102
{ACAD_REACTORS
330
C
102
}
330
C
100
AcDbDictionary
281
     1
  0
ACDBDICTIONARYWDFLT
  5
E
102
{ACAD_REACTORS
330
C
102
}
330
C
100
AcDbDictionary
281
     1
  3
Normal
350
F
100
AcDbDictionaryWithDefault
340
F
  0
DICTIONARY
  5
B6
102
{ACAD_REACTORS
330
C
102
}
330
C
100
AcDbDictionary
281
     1
  3
*A1
350
2283
  3
A0
350
B7
  3
A1
350
124
  3
A2
350
125
  3
A3
350
126
  3
A4
350
127
  3
A5
350
128
  3
A6
350
129
  3
A7
350
12A
  3
A8
350
12B
  3
A9
350
12C
  3
B0
350
12D
  3
B1
350
12E
  3
B2
350
12F
  3
B3
350
130
  3
B4
350
131
  3
B5
350
132
  3
B6
350
133
  3
B7
350
134
  3
B8
350
135
  3
B9
350
136
  3
C0
350
137
  3
C1
350
138
  3
C2
350
139
  3
C3
350
13A
  3
C4
350
13B
  3
C5
350
13C
  3
C6
350
13D
  3
C7
350
13E
  3
C8
350
13F
  3
C9
350
140
  3
D0
350
141
  3
D1
350
142
  3
D2
350
143
  0
DICTIONARY
  5
1A8
102
{ACAD_REACTORS
330
C
102
}
330
C
100
AcDbDictionary
281
     1
  3
Imperial24
350
1AA
  3
Metric50
350
223
  0
DICTIONARY
  5
86
102
{ACAD_REACTORS
330
C
102
}
330
C
100
AcDbDictionary
281
     1
  3
Standard
350
87
  0
DICTIONARY
  5
99
102
{ACAD_REACTORS
330
C
102
}
330
C
100
AcDbDictionary
281
     1
  3
2dWireframe
350
9F
  3
3dWireframe
350
22946
  3
Basic
350
9E
  3
Brighten
350
A5
  3
ColorChange
350
A9
  3
Conceptual
350
A2
  3
Dim
350
A4
  3
EdgeColorOff
350
175
  3
Facepattern
350
A8
  3
Flat
350
9A
  3
FlatWithEdges
350
9B
  3
Gouraud
350
9C
  3
GouraudWithEdges
350
9D
  3
Hidden
350
A1
  3
JitterOff
350
173
  3
Linepattern
350
A7
  3
OverhangOff
350
174
  3
Realistic
350
A3
  3
Shaded
350
182
  3
Shaded with edges
350
181
  3
Shades of Gray
350
17E
  3
Sketchy
350
17F
  3
Thicken
350
A6
  3
Wireframe
350
A0
  3
X-Ray
350
180
  0
WIPEOUTVARIABLES
  5
59B06
102
{ACAD_REACTORS
330
C
102
}
330
C
100
AcDbWipeoutVariables
 70
     1
  0
XRECORD
  5
67411
102
{ACAD_REACTORS
330
C
102
}
330
C
100
AcDbXrecord
280
     1
 90
        1
330
87
  0
DICTIONARY
  5
4A0D5
102
{ACAD_REACTORS
330
C
102
}
330
C
100
AcDbDictionary
281
     2
  3
#COMPAREDIFFTOTAL
350
4A0D6
  3
#REVCLOUDAPPROXARCLEN
350
4A0D7
  3
ANNOALLVISIBLE
350
4A0D8
  3
CANNOSCALE
350
4A0D9
  3
CMLEADERSTYLE
350
4A0DA
  3
CTABLESTYLE
350
4A0DB
  3
CVIEWDETAILSTYLE
350
4A0DC
  3
CVIEWSECTIONSTYLE
350
4A0DD
  3
DIMADEC
350
4A0DE
  3
DIMASSOC
350
4A0DF
  3
DWFFRAME
350
4A0E0
  3
HIDETEXT
350
4A0E1
  3
HPCOLOR
350
4A0E2
  3
HPLAYER
350
4A0E3
  3
HPTRANSPARENCY
350
4A0E4
  3
INDEXCTL
350
4A0E5
  3
LAYEREVAL
350
4A0E6
  3
LAYERNOTIFY
350
4A0E7
  3
LIGHTINGUNITS
350
4A0E8
  3
MLEADERSCALE
350
4A0E9
  3
MSLTSCALE
350
4A0EA
  3
MSOLESCALE
350
4A0EB
  3
PDFFRAME
350
4A0EC
  3
POINTCLOUDCLIPFRAME
350
4A0ED
  3
PROJECTNAME
350
4A0EE
  3
SOLIDHIST
350
4A0EF
  3
SORTENTS
350
4A0F0
  0
DICTIONARY
  5
22D1
102
{ACAD_REACTORS
330
C
102
}
330
C
100
AcDbDictionary
281
     1
  0
DICTIONARY
  5
18F
102
{ACAD_REACTORS
330
18E
102
}
330
18E
100
AcDbDictionary
281
     1
  0
SORTENTSTABLE
  5
28E
102
{ACAD_REACTORS
330
15D
102
}
330
15D
100
AcDbSortentsTable
330
1F
  0
ACDBDETAILVIEWSTYLE
  5
1AC
102
{ACAD_REACTORS
330
1AB
102
}
330
1AB
100
AcDbModelDocViewStyle
 70
     0
  3
Imperial24
290
     0
300
Imperial24
 90
        0
100
AcDbDetailViewStyle
 70
     0
 71
     0
 90
        3
 71
     1
340
11
 62
   256
 40
0.24
340
0
 62
   256
 40
0.24
300

 40
0.36
280
     3
 71
     2
340
16
 90
       25
 62
   256
 71
     3
340
11
 62
   256
 40
0.24
 90
        1
 40
0.75
 90
        1
300
%<\AcVar ViewType \f "%tc1">% %<\AcVar ViewDetailId>%\PSCALE %<\AcVar ViewScale \f "%sn">%
 71
     4
340
16
 90
       25
 62
   256
340
16
 90
       25
 62
   256
280
     0
  0
ACDBDETAILVIEWSTYLE
  5
224
102
{ACAD_REACTORS
330
1AB
102
}
330
1AB
100
AcDbModelDocViewStyle
 70
     0
  3
Metric50
290
     0
300
Metric50
 90
        0
100
AcDbDetailViewStyle
 70
     0
 71
     0
 90
        3
 71
     1
340
11
 62
   256
 40
5.0
340
0
 62
   256
 40
5.0
300

 40
0.0
280
     1
 71
     2
340
16
 90
       25
 62
   256
 71
     3
340
11
 62
   256
 40
5.0
 90
        0
 40
15.0
 90
        1
300
%<\AcVar ViewDetailId>% (%<\AcVar ViewScale \f "%sn">%)
 71
     4
340
16
 90
       25
 62
   256
340
16
 90
       25
 62
   256
280
     0
  0
LAYOUT
  5
59
102
{ACAD_REACTORS
330
1A
102
}
330
1A
100
AcDbPlotSettings
  1

  2
None
  4

  6

 40
0.0
 41
0.0
 42
0.0
 43
0.0
 44
0.0
 45
0.0
 46
0.0
 47
0.0
 48
0.0
 49
0.0
140
0.0
141
0.0
142
1.0
143
1.0
 70
   688
 72
     0
 73
     0
 74
     5
  7

 75
    16
147
1.0
 76
     0
 77
     2
 78
   300
148
0.0
149
0.0
100
AcDbLayout
  1
Layout1
 70
     1
 71
     1
 10
0.0
 20
0.0
 11
12.0
 21
9.0
 12
0.0
 22
0.0
 32
0.0
 14
0.0
 24
0.0
 34
0.0
 15
0.0
 25
0.0
 35
0.0
146
0.0
 13
0.0
 23
0.0
 33
0.0
 16
1.0
 26
0.0
 36
0.0
 17
0.0
 27
1.0
 37
0.0
 76
     0
330
58
  0
LAYOUT
  5
5E
102
{ACAD_REACTORS
330
1A
102
}
330
1A
100
AcDbPlotSettings
  1

  2
None
  4

  6

 40
0.0
 41
0.0
 42
0.0
 43
0.0
 44
0.0
 45
0.0
 46
0.0
 47
0.0
 48
0.0
 49
0.0
140
0.0
141
0.0
142
1.0
143
1.0
 70
   688
 72
     0
 73
     0
 74
     5
  7

 75
    16
147
1.0
 76
     0
 77
     2
 78
   300
148
0.0
149
0.0
100
AcDbLayout
  1
Layout2
 70
     1
 71
     2
 10
0.0
 20
0.0
 11
12.0
 21
9.0
 12
0.0
 22
0.0
 32
0.0
 14
0.0
 24
0.0
 34
0.0
 15
0.0
 25
0.0
 35
0.0
146
0.0
 13
0.0
 23
0.0
 33
0.0
 16
1.0
 26
0.0
 36
0.0
 17
0.0
 27
1.0
 37
0.0
 76
     0
330
5D
  0
LAYOUT
  5
22
102
{ACAD_XDICTIONARY
360
194
102
}
102
{ACAD_REACTORS
330
1A
102
}
330
1A
100
AcDbPlotSettings
  1

  2
none_device
  4
ANSI_A_(8.50_x_11.00_Inches)
  6

 40
6.349999904632568
 41
19.04999923706055
 42
6.350006103515625
 43
19.04998779296875
 44
215.8999938964844
 45
279.3999938964844
 46
0.0
 47
0.0
 48
0.0
 49
0.0
140
0.0
141
0.0
142
1.0
143
2.584895464708373
 70
 11952
 72
     0
 73
     1
 74
     0
  7

 75
     0
147
0.3868628397755418
 76
     0
 77
     2
 78
   300
148
0.0
149
0.0
100
AcDbLayout
  1
Model
 70
     1
 71
     0
 10
0.0
 20
0.0
 11
12.0
 21
9.0
 12
0.0
 22
0.0
 32
0.0
 14
0.0
 24
0.0
 34
0.0
 15
0.0
 25
0.0
 35
0.0
146
0.0
 13
0.0
 23
0.0
 33
0.0
 16
1.0
 26
0.0
 36
0.0
 17
0.0
 27
1.0
 37
0.0
 76
     0
330
1F
331
94
  0
MATERIAL
  5
97
102
{ACAD_XDICTIONARY
360
188
102
}
102
{ACAD_REACTORS
330
72
102
}
330
72
100
AcDbMaterial
  1
ByBlock
 94
       63
  0
MATERIAL
  5
96
102
{ACAD_XDICTIONARY
360
186
102
}
102
{ACAD_REACTORS
330
72
102
}
330
72
100
AcDbMaterial
  1
ByLayer
 94
       63
  0
MATERIAL
  5
98
102
{ACAD_XDICTIONARY
360
110
102
}
102
{ACAD_REACTORS
330
72
102
}
330
72
100
AcDbMaterial
  1
Global
 43
0.0208000000566244
 43
0.0
 43
0.0
 43
0.0
 43
0.0
 43
0.0208000000566244
 43
0.0
 43
0.0
 43
0.0
 43
0.0
 43
1.0
 43
0.0
 43
0.0
 43
0.0
 43
0.0
 43
1.0
 49
0.0208000000566244
 49
0.0
 49
0.0
 49
0.0
 49
0.0
 49
0.0208000000566244
 49
0.0
 49
0.0
 49
0.0
 49
0.0
 49
1.0
 49
0.0
 49
0.0
 49
0.0
 49
0.0
 49
1.0
142
0.0208000000566244
142
0.0
142
0.0
142
0.0
142
0.0
142
0.0208000000566244
142
0.0
142
0.0
142
0.0
142
0.0
142
1.0
142
0.0
142
0.0
142
0.0
142
0.0
142
1.0
144
0.0208000000566244
144
0.0
144
0.0
144
0.0
144
0.0
144
0.0208000000566244
144
0.0
144
0.0
144
0.0
144
0.0
144
1.0
144
0.0
144
0.0
144
0.0
144
0.0
144
1.0
 94
       63
1001
ACAD
1070
    -1
1070
     3
1070
     0
1000

1071
        0
1070
     0
  0
MLEADERSTYLE
  5
D8
102
{ACAD_REACTORS
330
D7
102
}
330
D7
100
AcDbMLeaderStyle
179
     2
170
     2
171
     1
172
     0
 90
        2
 40
0.0
 41
0.0
173
     1
 91
-1056964608
340
14
 92
       -2
290
     1
 42
0.09
291
     1
 43
0.36
  3
Standard
 44
0.18
300

342
11
174
     1
178
     1
175
     1
176
     0
 93
-1056964608
 45
0.18
292
     0
297
     0
 46
0.18
 94
-1056964608
 47
1.0
 49
1.0
140
1.0
293
     1
141
0.0
294
     1
177
     0
142
1.0
295
     0
296
     0
143
0.125
271
     0
272
     9
273
     9
298
     0
  0
MLINESTYLE
  5
18
102
{ACAD_REACTORS
330
17
102
}
330
17
100
AcDbMlineStyle
  2
STANDARD
 70
     0
  3

 62
   256
 51
90.0
 52
90.0
 71
     2
 49
0.5
 62
   256
  6
BYLAYER
 49
-0.5
 62
   256
  6
BYLAYER
  0
ACDBPLACEHOLDER
  5
F
102
{ACAD_REACTORS
330
E
102
}
330
E
  0
SCALE
  5
2283
102
{ACAD_REACTORS
330
B6
102
}
330
B6
100
AcDbScale
 70
     0
300
1:75
140
1.0
141
75.0
290
     0
  0
SCALE
  5
B7
102
{ACAD_REACTORS
330
B6
102
}
330
B6
100
AcDbScale
 70
     0
300
1:1
140
1.0
141
1.0
290
     1
  0
SCALE
  5
124
102
{ACAD_REACTORS
330
B6
102
}
330
B6
100
AcDbScale
 70
     0
300
1:2
140
1.0
141
2.0
290
     0
  0
SCALE
  5
125
102
{ACAD_REACTORS
330
B6
102
}
330
B6
100
AcDbScale
 70
     0
300
1:4
140
1.0
141
4.0
290
     0
  0
SCALE
  5
126
102
{ACAD_REACTORS
330
B6
102
}
330
B6
100
AcDbScale
 70
     0
300
1:5
140
1.0
141
5.0
290
     0
  0
SCALE
  5
127
102
{ACAD_REACTORS
330
B6
102
}
330
B6
100
AcDbScale
 70
     0
300
1:8
140
1.0
141
8.0
290
     0
  0
SCALE
  5
128
102
{ACAD_REACTORS
330
B6
102
}
330
B6
100
AcDbScale
 70
     0
300
1:10
140
1.0
141
10.0
290
     0
  0
SCALE
  5
129
102
{ACAD_REACTORS
330
B6
102
}
330
B6
100
AcDbScale
 70
     0
300
1:16
140
1.0
141
16.0
290
     0
  0
SCALE
  5
12A
102
{ACAD_REACTORS
330
B6
102
}
330
B6
100
AcDbScale
 70
     0
300
1:20
140
1.0
141
20.0
290
     0
  0
SCALE
  5
12B
102
{ACAD_REACTORS
330
B6
102
}
330
B6
100
AcDbScale
 70
     0
300
1:30
140
1.0
141
30.0
290
     0
  0
SCALE
  5
12C
102
{ACAD_REACTORS
330
B6
102
}
330
B6
100
AcDbScale
 70
     0
300
1:40
140
1.0
141
40.0
290
     0
  0
SCALE
  5
12D
102
{ACAD_REACTORS
330
B6
102
}
330
B6
100
AcDbScale
 70
     0
300
1:50
140
1.0
141
50.0
290
     0
  0
SCALE
  5
12E
102
{ACAD_REACTORS
330
B6
102
}
330
B6
100
AcDbScale
 70
     0
300
1:100
140
1.0
141
100.0
290
     0
  0
SCALE
  5
12F
102
{ACAD_REACTORS
330
B6
102
}
330
B6
100
AcDbScale
 70
     0
300
2:1
140
2.0
141
1.0
290
     0
  0
SCALE
  5
130
102
{ACAD_REACTORS
330
B6
102
}
330
B6
100
AcDbScale
 70
     0
300
4:1
140
4.0
141
1.0
290
     0
  0
SCALE
  5
131
102
{ACAD_REACTORS
330
B6
102
}
330
B6
100
AcDbScale
 70
     0
300
8:1
140
8.0
141
1.0
290
     0
  0
SCALE
  5
132
102
{ACAD_REACTORS
330
B6
102
}
330
B6
100
AcDbScale
 70
     0
300
10:1
140
10.0
141
1.0
290
     0
  0
SCALE
  5
133
102
{ACAD_REACTORS
330
B6
102
}
330
B6
100
AcDbScale
 70
     0
300
100:1
140
100.0
141
1.0
290
     0
  0
SCALE
  5
134
102
{ACAD_REACTORS
330
B6
102
}
330
B6
100
AcDbScale
 70
     0
300
1/128" = 1'-0"
140
0.0078125
141
12.0
290
     0
  0
SCALE
  5
135
102
{ACAD_REACTORS
330
B6
102
}
330
B6
100
AcDbScale
 70
     0
300
1/64" = 1'-0"
140
0.015625
141
12.0
290
     0
  0
SCALE
  5
136
102
{ACAD_REACTORS
330
B6
102
}
330
B6
100
AcDbScale
 70
     0
300
1/32" = 1'-0"
140
0.03125
141
12.0
290
     0
  0
SCALE
  5
137
102
{ACAD_REACTORS
330
B6
102
}
330
B6
100
AcDbScale
 70
     0
300
1/16" = 1'-0"
140
0.0625
141
12.0
290
     0
  0
SCALE
  5
138
102
{ACAD_REACTORS
330
B6
102
}
330
B6
100
AcDbScale
 70
     0
300
3/32" = 1'-0"
140
0.09375
141
12.0
290
     0
  0
SCALE
  5
139
102
{ACAD_REACTORS
330
B6
102
}
330
B6
100
AcDbScale
 70
     0
300
1/8" = 1'-0"
140
0.125
141
12.0
290
     0
  0
SCALE
  5
13A
102
{ACAD_REACTORS
330
B6
102
}
330
B6
100
AcDbScale
 70
     0
300
3/16" = 1'-0"
140
0.1875
141
12.0
290
     0
  0
SCALE
  5
13B
102
{ACAD_REACTORS
330
B6
102
}
330
B6
100
AcDbScale
 70
     0
300
1/4" = 1'-0"
140
0.25
141
12.0
290
     0
  0
SCALE
  5
13C
102
{ACAD_REACTORS
330
B6
102
}
330
B6
100
AcDbScale
 70
     0
300
3/8" = 1'-0"
140
0.375
141
12.0
290
     0
  0
SCALE
  5
13D
102
{ACAD_REACTORS
330
B6
102
}
330
B6
100
AcDbScale
 70
     0
300
1/2" = 1'-0"
140
0.5
141
12.0
290
     0
  0
SCALE
  5
13E
102
{ACAD_REACTORS
330
B6
102
}
330
B6
100
AcDbScale
 70
     0
300
3/4" = 1'-0"
140
0.75
141
12.0
290
     0
  0
SCALE
  5
13F
102
{ACAD_REACTORS
330
B6
102
}
330
B6
100
AcDbScale
 70
     0
300
1" = 1'-0"
140
1.0
141
12.0
290
     0
  0
SCALE
  5
140
102
{ACAD_REACTORS
330
B6
102
}
330
B6
100
AcDbScale
 70
     0
300
1-1/2" = 1'-0"
140
1.5
141
12.0
290
     0
  0
SCALE
  5
141
102
{ACAD_REACTORS
330
B6
102
}
330
B6
100
AcDbScale
 70
     0
300
3" = 1'-0"
140
3.0
141
12.0
290
     0
  0
SCALE
  5
142
102
{ACAD_REACTORS
330
B6
102
}
330
B6
100
AcDbScale
 70
     0
300
6" = 1'-0"
140
6.0
141
12.0
290
     0
  0
SCALE
  5
143
102
{ACAD_REACTORS
330
B6
102
}
330
B6
100
AcDbScale
 70
     0
300
1'-0" = 1'-0"
140
12.0
141
12.0
290
     0
  0
ACDBSECTIONVIEWSTYLE
  5
1AA
102
{ACAD_REACTORS
330
1A8
102
}
330
1A8
100
AcDbModelDocViewStyle
 70
     0
  3
Imperial24
290
     0
300
Imperial24
 90
        0
100
AcDbSectionViewStyle
 70
     0
 71
     0
 90
       78
 71
     1
340
11
 62
   256
 40
0.24
340
0
340
0
 62
   256
 40
0.24
300
I, O, Q, S, X, Z
 40
0.48
 90
        3
 40
0.18
 90
        1
 71
     2
340
16
 90
       25
 62
   256
340
16
 90
       50
 62
   256
 40
0.24
 40
0.0
 40
0.24
 71
     3
340
11
 62
   256
 40
0.24
 90
        1
 40
0.75
 90
        1
300
%<\AcVar ViewType \f "%tc1">% %<\AcVar ViewSectionStartId>%-%<\AcVar ViewSectionEndId>%\PSCALE %<\AcVar ViewScale \f "%sn">%
 71
     4
 62
   256
 62
   257
300
ANSI31
 40
1.0
 90
        0
290
     0
290
     0
 90
        6
 40
0.0
 40
1.570796326794896
 40
0.2617993877991494
 40
1.308996938995747
 40
-0.2617993877991494
 40
1.832595714594046
  0
ACDBSECTIONVIEWSTYLE
  5
223
102
{ACAD_REACTORS
330
1A8
102
}
330
1A8
100
AcDbModelDocViewStyle
 70
     0
  3
Metric50
290
     0
300
Metric50
 90
        0
100
AcDbSectionViewStyle
 70
     0
 71
     0
 90
      102
 71
     1
340
11
 62
   256
 40
5.0
340
0
340
0
 62
   256
 40
5.0
300
I, O, Q, S, X, Z
 40
10.0
 90
        0
 40
2.5
 90
        0
 71
     2
340
16
 90
       25
 62
   256
340
16
 90
       50
 62
   256
 40
5.0
 40
2.5
 40
5.0
 71
     3
340
11
 62
   256
 40
5.0
 90
        0
 40
15.0
 90
        1
300
%<\AcVar ViewSectionStartId>%-%<\AcVar ViewSectionEndId>% (%<\AcVar ViewScale \f "%sn">%)
 71
     4
 62
   256
 62
   257
300
ANSI31
 40
1.0
 90
        0
290
     0
290
     0
 90
        6
 40
0.0
 40
1.570796326794896
 40
0.2617993877991494
 40
1.308996938995747
 40
-0.2617993877991494
 40
1.832595714594046
  0
TABLESTYLE
  5
87
102
{ACAD_XDICTIONARY
360
104
102
}
102
{ACAD_REACTORS
330
86
102
}
330
86
100
AcDbTableStyle
280
     0
  3
Standard
 70
     0
 71
     0
 40
0.06
 41
0.06
280
     0
281
     0
  7
Standard
140
0.18
170
     2
 62
     0
 63
     7
283
     0
 90
      512
 91
        0
  1

274
    -2
284
     1
 64
     0
275
    -2
285
     1
 65
     0
276
    -2
286
     1
 66
     0
277
    -2
287
     1
 67
     0
278
    -2
288
     1
 68
     0
279
    -2
289
     1
 69
     0
  7
Standard
140
0.25
170
     5
 62
     0
 63
     7
283
     0
 90
      512
 91
        0
  1

274
    -2
284
     1
 64
     0
275
    -2
285
     1
 65
     0
276
    -2
286
     1
 66
     0
277
    -2
287
     1
 67
     0
278
    -2
288
     1
 68
     0
279
    -2
289
     1
 69
     0
  7
Standard
140
0.18
170
     5
 62
     0
 63
     7
283
     0
 90
      512
 91
        0
  1

274
    -2
284
     1
 64
     0
275
    -2
285
     1
 65
     0
276
    -2
286
     1
 66
     0
277
    -2
287
     1
 67
     0
278
    -2
288
     1
 68
     0
279
    -2
289
     1
 69
     0
  0
VISUALSTYLE
  5
9F
102
{ACAD_REACTORS
330
99
102
}
330
99
100
AcDbVisualStyle
  2
2dWireframe
 70
     4
177
     3
291
     0
 70
    58
 90
        0
176
     1
 90
        2
176
     1
 90
        1
176
     1
 90
        0
176
     1
 40
0.6
176
     1
 40
30.0
176
     1
 62
     7
420
 16777215
176
     1
 90
        1
176
     1
 90
        4
176
     1
 62
     7
176
     1
 62
   257
176
     1
 90
        1
176
     1
 90
        1
176
     1
 40
1.0
176
     1
 90
        0
176
     1
 62
   257
176
     1
 40
1.0
176
     1
 90
        1
176
     1
 90
        6
176
     1
 90
        2
176
     1
 62
     7
176
     1
 90
        5
176
     1
 90
        0
176
     1
 90
        0
176
     1
290
     0
176
     1
 90
        1
176
     1
 40
0.0
176
     1
 90
        0
176
     1
290
     1
176
     1
290
     1
176
     1
290
     0
176
     1
290
     0
176
     1
290
     0
176
     1
290
     0
176
     1
290
     0
176
     1
290
     0
176
     1
290
     0
176
     1
 90
       50
176
     1
 40
0.0
176
     1
 40
1.0
176
     1
 90
        0
176
     1
 62
    18
420
        0
176
     1
 90
       50
176
     1
 90
        3
176
     1
 62
     5
420
      255
176
     1
290
     0
176
     1
 90
       50
176
     1
 90
       50
176
     1
 90
       50
176
     1
290
     0
176
     1
 90
       50
176
     1
 62
   256
176
     0
 40
1.0
176
     0
 90
        2
176
     1
  1
strokes_ogs.tif
176
     1
290
     0
176
     1
 40
1.0
176
     1
 40
1.0
176
     1
  0
VISUALSTYLE
  5
22946
102
{ACAD_REACTORS
330
99
102
}
330
99
100
AcDbVisualStyle
  2
3dWireframe
 70
     5
177
     3
291
     0
 70
    58
 90
        0
176
     1
 90
        2
176
     1
 90
        0
176
     1
 90
        0
176
     1
 40
0.6
176
     1
 40
30.0
176
     1
 62
     7
176
     1
 90
        1
176
     1
 90
        4
176
     1
 62
     7
176
     1
 62
   257
176
     1
 90
        1
176
     1
 90
        1
176
     1
 40
1.0
176
     1
 90
        0
176
     1
 62
   257
176
     1
 40
1.0
176
     1
 90
        1
176
     1
 90
        6
176
     1
 90
        2
176
     1
 62
     7
176
     1
 90
        5
176
     1
 90
        0
176
     1
 90
        0
176
     1
290
     0
176
     1
 90
        1
176
     1
 40
0.0
176
     1
 90
        0
176
     1
290
     0
176
     1
290
     1
176
     1
290
     1
176
     1
290
     0
176
     1
290
     0
176
     1
290
     0
176
     1
290
     0
176
     1
290
     0
176
     1
290
     0
176
     1
 90
       50
176
     1
 40
0.0
176
     1
 40
1.0
176
     1
 90
        0
176
     1
 62
    18
420
        0
176
     1
 90
       50
176
     1
 90
        3
176
     1
 62
     5
420
      255
176
     1
290
     0
176
     1
 90
       50
176
     1
 90
       50
176
     1
 90
       50
176
     1
290
     0
176
     1
 90
       50
176
     1
 62
   256
176
     0
 40
1.0
176
     0
 90
        2
176
     1
  1
strokes_ogs.tif
176
     1
290
     0
176
     1
 40
1.0
176
     1
 40
1.0
176
     1
  0
VISUALSTYLE
  5
9E
102
{ACAD_REACTORS
330
99
102
}
330
99
100
AcDbVisualStyle
  2
Basic
 70
     7
177
     3
291
     1
 70
    58
 90
        1
176
     1
 90
        0
176
     1
 90
        1
176
     1
 90
        0
176
     1
 40
0.6
176
     1
 40
30.0
176
     1
 62
     7
420
 16777215
176
     1
 90
        0
176
     1
 90
        4
176
     1
 62
     7
176
     1
 62
   257
176
     1
 90
        1
176
     1
 90
        1
176
     1
 40
1.0
176
     1
 90
        8
176
     1
 62
     7
176
     1
 40
1.0
176
     1
 90
        1
176
     1
 90
        6
176
     1
 90
        2
176
     1
 62
     7
176
     1
 90
        5
176
     1
 90
        0
176
     1
 90
        0
176
     1
290
     0
176
     1
 90
        1
176
     1
 40
0.0
176
     1
 90
        0
176
     1
290
     0
176
     1
290
     1
176
     1
290
     1
176
     1
290
     0
176
     1
290
     0
176
     1
290
     0
176
     1
290
     0
176
     1
290
     0
176
     1
290
     0
176
     1
 90
       50
176
     1
 40
0.0
176
     1
 40
1.0
176
     1
 90
        0
176
     1
 62
    18
420
        0
176
     1
 90
       50
176
     1
 90
        3
176
     1
 62
     5
420
      255
176
     1
290
     0
176
     1
 90
       50
176
     1
 90
       50
176
     1
 90
       50
176
     1
290
     0
176
     1
 90
       50
176
     1
 62
   256
176
     0
 40
1.0
176
     0
 90
        2
176
     1
  1
strokes_ogs.tif
176
     1
290
     0
176
     1
 40
1.0
176
     1
 40
1.0
176
     1
  0
VISUALSTYLE
  5
A5
102
{ACAD_REACTORS
330
99
102
}
330
99
100
AcDbVisualStyle
  2
Brighten
 70
    12
177
     3
291
     1
 70
    58
 90
        2
176
     1
 90
        2
176
     1
 90
        1
176
     1
 90
        0
176
     1
 40
0.6
176
     1
 40
30.0
176
     1
 62
     7
420
 16777215
176
     1
 90
        1
176
     1
 90
        4
176
     1
 62
     7
176
     1
 62
   257
176
     1
 90
        1
176
     1
 90
        1
176
     1
 40
1.0
176
     1
 90
        8
176
     1
 62
     7
176
     1
 40
1.0
176
     1
 90
        1
176
     1
 90
        6
176
     1
 90
        2
176
     1
 62
     7
176
     1
 90
        5
176
     1
 90
        0
176
     1
 90
        0
176
     1
290
     0
176
     1
 90
        1
176
     1
 40
50.0
176
     1
 90
        0
176
     1
290
     0
176
     1
290
     1
176
     1
290
     1
176
     1
290
     0
176
     1
290
     0
176
     1
290
     0
176
     1
290
     0
176
     1
290
     0
176
     1
290
     0
176
     1
 90
       50
176
     1
 40
0.0
176
     1
 40
1.0
176
     1
 90
        0
176
     1
 62
    18
420
        0
176
     1
 90
       50
176
     1
 90
        3
176
     1
 62
     5
420
      255
176
     1
290
     0
176
     1
 90
       50
176
     1
 90
       50
176
     1
 90
       50
176
     1
290
     0
176
     1
 90
       50
176
     1
 62
   256
176
     0
 40
1.0
176
     0
 90
        2
176
     1
  1
strokes_ogs.tif
176
     1
290
     0
176
     1
 40
1.0
176
     1
 40
1.0
176
     1
  0
VISUALSTYLE
  5
A9
102
{ACAD_REACTORS
330
99
102
}
330
99
100
AcDbVisualStyle
  2
ColorChange
 70
    16
177
     3
291
     1
 70
    58
 90
        2
176
     1
 90
        2
176
     1
 90
        3
176
     1
 90
        0
176
     1
 40
0.6
176
     1
 40
30.0
176
     1
 62
     8
420
  8421504
176
     1
 90
        1
176
     1
 90
        4
176
     1
 62
     7
176
     1
 62
   257
176
     1
 90
        1
176
     1
 90
        1
176
     1
 40
1.0
176
     1
 90
        8
176
     1
 62
     8
420
  8421504
176
     1
 40
1.0
176
     1
 90
        1
176
     1
 90
        6
176
     1
 90
        2
176
     1
 62
     7
176
     1
 90
        5
176
     1
 90
        0
176
     1
 90
        0
176
     1
290
     0
176
     1
 90
        1
176
     1
 40
0.0
176
     1
 90
        0
176
     1
290
     0
176
     1
290
     1
176
     1
290
     1
176
     1
290
     0
176
     1
290
     0
176
     1
290
     0
176
     1
290
     0
176
     1
290
     0
176
     1
290
     0
176
     1
 90
       50
176
     1
 40
0.0
176
     1
 40
1.0
176
     1
 90
        0
176
     1
 62
    18
420
        0
176
     1
 90
       50
176
     1
 90
        3
176
     1
 62
     5
420
      255
176
     1
290
     0
176
     1
 90
       50
176
     1
 90
       50
176
     1
 90
       50
176
     1
290
     0
176
     1
 90
       50
176
     1
 62
   256
176
     0
 40
1.0
176
     0
 90
        2
176
     1
  1
strokes_ogs.tif
176
     1
290
     0
176
     1
 40
1.0
176
     1
 40
1.0
176
     1
  0
VISUALSTYLE
  5
A2
102
{ACAD_REACTORS
330
99
102
}
330
99
100
AcDbVisualStyle
  2
Conceptual
 70
     9
177
     3
291
     0
 70
    58
 90
        3
176
     1
 90
        2
176
     1
 90
        1
176
     1
 90
        0
176
     1
 40
0.6
176
     1
 40
30.0
176
     1
 62
     7
420
 16777215
176
     1
 90
        2
176
     1
 90
        2
176
     1
 62
     7
176
     1
 62
   257
176
     1
 90
        1
176
     1
 90
        1
176
     1
 40
40.0
176
     1
 90
        8
176
     1
 62
     7
176
     1
 40
1.0
176
     1
 90
        1
176
     1
 90
        6
176
     1
 90
        2
176
     1
 62
     7
176
     1
 90
        3
176
     1
 90
        0
176
     1
 90
        0
176
     1
290
     0
176
     1
 90
        1
176
     1
 40
0.0
176
     1
 90
        0
176
     1
290
     0
176
     1
290
     1
176
     1
290
     1
176
     1
290
     0
176
     1
290
     0
176
     1
290
     0
176
     1
290
     0
176
     1
290
     0
176
     1
290
     0
176
     1
 90
       50
176
     1
 40
0.0
176
     1
 40
1.0
176
     1
 90
        0
176
     1
 62
    18
420
        0
176
     1
 90
       50
176
     1
 90
        3
176
     1
 62
     5
420
      255
176
     1
290
     0
176
     1
 90
       50
176
     1
 90
       50
176
     1
 90
       50
176
     1
290
     0
176
     1
 90
       50
176
     1
 62
   256
176
     0
 40
1.0
176
     0
 90
        2
176
     1
  1
strokes_ogs.tif
176
     1
290
     0
176
     1
 40
1.0
176
     1
 40
1.0
176
     1
  0
VISUALSTYLE
  5
A4
102
{ACAD_REACTORS
330
99
102
}
330
99
100
AcDbVisualStyle
  2
Dim
 70
    11
177
     3
291
     1
 70
    58
 90
        2
176
     1
 90
        2
176
     1
 90
        1
176
     1
 90
        0
176
     1
 40
0.6
176
     1
 40
30.0
176
     1
 62
     7
420
 16777215
176
     1
 90
        1
176
     1
 90
        4
176
     1
 62
     7
176
     1
 62
   257
176
     1
 90
        1
176
     1
 90
        1
176
     1
 40
1.0
176
     1
 90
        8
176
     1
 62
     7
176
     1
 40
1.0
176
     1
 90
        1
176
     1
 90
        6
176
     1
 90
        2
176
     1
 62
     7
176
     1
 90
        5
176
     1
 90
        0
176
     1
 90
        0
176
     1
290
     0
176
     1
 90
        1
176
     1
 40
-50.0
176
     1
 90
        0
176
     1
290
     0
176
     1
290
     1
176
     1
290
     1
176
     1
290
     0
176
     1
290
     0
176
     1
290
     0
176
     1
290
     0
176
     1
290
     0
176
     1
290
     0
176
     1
 90
       50
176
     1
 40
0.0
176
     1
 40
1.0
176
     1
 90
        0
176
     1
 62
    18
420
        0
176
     1
 90
       50
176
     1
 90
        3
176
     1
 62
     5
420
      255
176
     1
290
     0
176
     1
 90
       50
176
     1
 90
       50
176
     1
 90
       50
176
     1
290
     0
176
     1
 90
       50
176
     1
 62
   256
176
     0
 40
1.0
176
     0
 90
        2
176
     1
  1
strokes_ogs.tif
176
     1
290
     0
176
     1
 40
1.0
176
     1
 40
1.0
176
     1
  0
VISUALSTYLE
  5
175
102
{ACAD_REACTORS
330
99
102
}
330
99
100
AcDbVisualStyle
  2
EdgeColorOff
 70
    22
177
     3
291
     1
 70
    58
 90
        2
176
     0
 90
        2
176
     0
 90
        0
176
     0
 90
        0
176
     0
 40
0.6
176
     0
 40
30.0
176
     0
 62
     7
420
 16777215
176
     0
 90
        1
176
     0
 90
        4
176
     0
 62
     7
176
     0
 62
   257
176
     0
 90
        1
176
     0
 90
        1
176
     0
 40
1.0
176
     0
 90
        8
176
     2
 62
     7
176
     0
 40
1.0
176
     0
 90
        1
176
     0
 90
        6
176
     0
 90
        2
176
     0
 62
     7
176
     0
 90
        5
176
     0
 90
        0
176
     0
 90
        0
176
     0
290
     0
176
     0
 90
        1
176
     0
 40
0.0
176
     0
 90
        0
176
     0
290
     0
176
     1
290
     1
176
     1
290
     1
176
     1
290
     0
176
     1
290
     0
176
     1
290
     0
176
     1
290
     0
176
     1
290
     0
176
     1
290
     0
176
     1
 90
       50
176
     1
 40
0.0
176
     1
 40
1.0
176
     1
 90
        0
176
     1
 62
    18
420
        0
176
     1
 90
       50
176
     1
 90
        3
176
     1
 62
     5
420
      255
176
     1
290
     0
176
     1
 90
       50
176
     1
 90
       50
176
     1
 90
       50
176
     1
290
     0
176
     1
 90
       50
176
     1
 62
   256
176
     0
 40
1.0
176
     0
 90
        2
176
     1
  1
strokes_ogs.tif
176
     1
290
     0
176
     1
 40
1.0
176
     1
 40
1.0
176
     1
  0
VISUALSTYLE
  5
A8
102
{ACAD_REACTORS
330
99
102
}
330
99
100
AcDbVisualStyle
  2
Facepattern
 70
    15
177
     3
291
     1
 70
    58
 90
        2
176
     1
 90
        2
176
     1
 90
        1
176
     1
 90
        0
176
     1
 40
0.6
176
     1
 40
30.0
176
     1
 62
     7
420
 16777215
176
     1
 90
        1
176
     1
 90
        4
176
     1
 62
     7
176
     1
 62
   257
176
     1
 90
        1
176
     1
 90
        1
176
     1
 40
1.0
176
     1
 90
        8
176
     1
 62
     7
176
     1
 40
1.0
176
     1
 90
        1
176
     1
 90
        6
176
     1
 90
        2
176
     1
 62
     7
176
     1
 90
        5
176
     1
 90
        0
176
     1
 90
        0
176
     1
290
     0
176
     1
 90
        1
176
     1
 40
0.0
176
     1
 90
        0
176
     1
290
     0
176
     1
290
     1
176
     1
290
     1
176
     1
290
     0
176
     1
290
     0
176
     1
290
     0
176
     1
290
     0
176
     1
290
     0
176
     1
290
     0
176
     1
 90
       50
176
     1
 40
0.0
176
     1
 40
1.0
176
     1
 90
        0
176
     1
 62
    18
420
        0
176
     1
 90
       50
176
     1
 90
        3
176
     1
 62
     5
420
      255
176
     1
290
     0
176
     1
 90
       50
176
     1
 90
       50
176
     1
 90
       50
176
     1
290
     0
176
     1
 90
       50
176
     1
 62
   256
176
     0
 40
1.0
176
     0
 90
        2
176
     1
  1
strokes_ogs.tif
176
     1
290
     0
176
     1
 40
1.0
176
     1
 40
1.0
176
     1
  0
VISUALSTYLE
  5
9A
102
{ACAD_REACTORS
330
99
102
}
330
99
100
AcDbVisualStyle
  2
Flat
 70
     0
177
     3
291
     1
 70
    58
 90
        2
176
     1
 90
        1
176
     1
 90
        1
176
     1
 90
        2
176
     1
 40
0.6
176
     1
 40
30.0
176
     1
 62
     7
420
 16777215
176
     1
 90
        0
176
     1
 90
        0
176
     1
 62
     7
176
     1
 62
   257
176
     1
 90
        1
176
     1
 90
        1
176
     1
 40
1.0
176
     1
 90
        8
176
     1
 62
     7
176
     1
 40
1.0
176
     1
 90
        1
176
     1
 90
        6
176
     1
 90
        2
176
     1
 62
     7
176
     1
 90
        5
176
     1
 90
        0
176
     1
 90
        0
176
     1
290
     0
176
     1
 90
       13
176
     1
 40
0.0
176
     1
 90
        0
176
     1
290
     0
176
     1
290
     1
176
     1
290
     1
176
     1
290
     0
176
     1
290
     0
176
     1
290
     0
176
     1
290
     0
176
     1
290
     0
176
     1
290
     0
176
     1
 90
       50
176
     1
 40
0.0
176
     1
 40
1.0
176
     1
 90
        0
176
     1
 62
    18
420
        0
176
     1
 90
       50
176
     1
 90
        3
176
     1
 62
     5
420
      255
176
     1
290
     0
176
     1
 90
       50
176
     1
 90
       50
176
     1
 90
       50
176
     1
290
     0
176
     1
 90
       50
176
     1
 62
   256
176
     0
 40
1.0
176
     0
 90
        2
176
     1
  1
strokes_ogs.tif
176
     1
290
     0
176
     1
 40
1.0
176
     1
 40
1.0
176
     1
  0
VISUALSTYLE
  5
9B
102
{ACAD_REACTORS
330
99
102
}
330
99
100
AcDbVisualStyle
  2
FlatWithEdges
 70
     1
177
     3
291
     1
 70
    58
 90
        2
176
     1
 90
        1
176
     1
 90
        1
176
     1
 90
        2
176
     1
 40
0.6
176
     1
 40
30.0
176
     1
 62
     7
420
 16777215
176
     1
 90
        1
176
     1
 90
        0
176
     1
 62
     7
176
     1
 62
   257
176
     1
 90
        1
176
     1
 90
        1
176
     1
 40
1.0
176
     1
 90
        0
176
     1
 62
   257
176
     1
 40
1.0
176
     1
 90
        1
176
     1
 90
        6
176
     1
 90
        2
176
     1
 62
     7
176
     1
 90
        5
176
     1
 90
        0
176
     1
 90
        0
176
     1
290
     0
176
     1
 90
       13
176
     1
 40
0.0
176
     1
 90
        0
176
     1
290
     0
176
     1
290
     1
176
     1
290
     1
176
     1
290
     0
176
     1
290
     0
176
     1
290
     0
176
     1
290
     0
176
     1
290
     0
176
     1
290
     0
176
     1
 90
       50
176
     1
 40
0.0
176
     1
 40
1.0
176
     1
 90
        0
176
     1
 62
    18
420
        0
176
     1
 90
       50
176
     1
 90
        3
176
     1
 62
     5
420
      255
176
     1
290
     0
176
     1
 90
       50
176
     1
 90
       50
176
     1
 90
       50
176
     1
290
     0
176
     1
 90
       50
176
     1
 62
   256
176
     0
 40
1.0
176
     0
 90
        2
176
     1
  1
strokes_ogs.tif
176
     1
290
     0
176
     1
 40
1.0
176
     1
 40
1.0
176
     1
  0
VISUALSTYLE
  5
9C
102
{ACAD_REACTORS
330
99
102
}
330
99
100
AcDbVisualStyle
  2
Gouraud
 70
     2
177
     3
291
     1
 70
    58
 90
        2
176
     1
 90
        2
176
     1
 90
        1
176
     1
 90
        2
176
     1
 40
0.6
176
     1
 40
30.0
176
     1
 62
     7
420
 16777215
176
     1
 90
        0
176
     1
 90
        0
176
     1
 62
     7
176
     1
 62
   257
176
     1
 90
        1
176
     1
 90
        1
176
     1
 40
1.0
176
     1
 90
        0
176
     1
 62
     7
176
     1
 40
1.0
176
     1
 90
        1
176
     1
 90
        6
176
     1
 90
        2
176
     1
 62
     7
176
     1
 90
        5
176
     1
 90
        0
176
     1
 90
        0
176
     1
290
     0
176
     1
 90
       13
176
     1
 40
0.0
176
     1
 90
        0
176
     1
290
     0
176
     1
290
     1
176
     1
290
     1
176
     1
290
     0
176
     1
290
     0
176
     1
290
     0
176
     1
290
     0
176
     1
290
     0
176
     1
290
     0
176
     1
 90
       50
176
     1
 40
0.0
176
     1
 40
1.0
176
     1
 90
        0
176
     1
 62
    18
420
        0
176
     1
 90
       50
176
     1
 90
        3
176
     1
 62
     5
420
      255
176
     1
290
     0
176
     1
 90
       50
176
     1
 90
       50
176
     1
 90
       50
176
     1
290
     0
176
     1
 90
       50
176
     1
 62
   256
176
     0
 40
1.0
176
     0
 90
        2
176
     1
  1
strokes_ogs.tif
176
     1
290
     0
176
     1
 40
1.0
176
     1
 40
1.0
176
     1
  0
VISUALSTYLE
  5
9D
102
{ACAD_REACTORS
330
99
102
}
330
99
100
AcDbVisualStyle
  2
GouraudWithEdges
 70
     3
177
     3
291
     1
 70
    58
 90
        2
176
     1
 90
        2
176
     1
 90
        1
176
     1
 90
        2
176
     1
 40
0.6
176
     1
 40
30.0
176
     1
 62
     7
420
 16777215
176
     1
 90
        1
176
     1
 90
        0
176
     1
 62
     7
176
     1
 62
   257
176
     1
 90
        1
176
     1
 90
        1
176
     1
 40
1.0
176
     1
 90
        0
176
     1
 62
   257
176
     1
 40
1.0
176
     1
 90
        1
176
     1
 90
        6
176
     1
 90
        2
176
     1
 62
     7
176
     1
 90
        5
176
     1
 90
        0
176
     1
 90
        0
176
     1
290
     0
176
     1
 90
       13
176
     1
 40
0.0
176
     1
 90
        0
176
     1
290
     0
176
     1
290
     1
176
     1
290
     1
176
     1
290
     0
176
     1
290
     0
176
     1
290
     0
176
     1
290
     0
176
     1
290
     0
176
     1
290
     0
176
     1
 90
       50
176
     1
 40
0.0
176
     1
 40
1.0
176
     1
 90
        0
176
     1
 62
    18
420
        0
176
     1
 90
       50
176
     1
 90
        3
176
     1
 62
     5
420
      255
176
     1
290
     0
176
     1
 90
       50
176
     1
 90
       50
176
     1
 90
       50
176
     1
290
     0
176
     1
 90
       50
176
     1
 62
   256
176
     0
 40
1.0
176
     0
 90
        2
176
     1
  1
strokes_ogs.tif
176
     1
290
     0
176
     1
 40
1.0
176
     1
 40
1.0
176
     1
  0
VISUALSTYLE
  5
A1
102
{ACAD_REACTORS
330
99
102
}
330
99
100
AcDbVisualStyle
  2
Hidden
 70
     6
177
     3
291
     0
 70
    58
 90
        1
176
     1
 90
        2
176
     1
 90
        2
176
     1
 90
        0
176
     1
 40
0.6
176
     1
 40
30.0
176
     1
 62
     7
420
 16777215
176
     1
 90
        2
176
     1
 90
        2
176
     1
 62
     7
176
     1
 62
   257
176
     1
 90
        2
176
     1
 90
        1
176
     1
 40
40.0
176
     1
 90
        0
176
     1
 62
   257
176
     1
 40
1.0
176
     1
 90
        1
176
     1
 90
        6
176
     1
 90
        2
176
     1
 62
     7
176
     1
 90
        3
176
     1
 90
        0
176
     1
 90
        0
176
     1
290
     0
176
     1
 90
        1
176
     1
 40
0.0
176
     1
 90
        0
176
     1
290
     0
176
     1
290
     1
176
     1
290
     1
176
     1
290
     0
176
     1
290
     0
176
     1
290
     0
176
     1
290
     0
176
     1
290
     0
176
     1
290
     0
176
     1
 90
       50
176
     1
 40
0.0
176
     1
 40
1.0
176
     1
 90
        0
176
     1
 62
    18
420
        0
176
     1
 90
       50
176
     1
 90
        3
176
     1
 62
     5
420
      255
176
     1
290
     0
176
     1
 90
       50
176
     1
 90
       50
176
     1
 90
       50
176
     1
290
     0
176
     1
 90
       50
176
     1
 62
   256
176
     0
 40
1.0
176
     0
 90
        2
176
     1
  1
strokes_ogs.tif
176
     1
290
     0
176
     1
 40
1.0
176
     1
 40
1.0
176
     1
  0
VISUALSTYLE
  5
173
102
{ACAD_REACTORS
330
99
102
}
330
99
100
AcDbVisualStyle
  2
JitterOff
 70
    20
177
     3
291
     1
 70
    58
 90
        2
176
     0
 90
        2
176
     0
 90
        0
176
     0
 90
        0
176
     0
 40
0.6
176
     0
 40
30.0
176
     0
 62
     7
420
 16777215
176
     0
 90
        1
176
     0
 90
        4
176
     0
 62
     7
176
     0
 62
   257
176
     0
 90
        1
176
     0
 90
        1
176
     0
 40
1.0
176
     0
 90
       10
176
     2
 62
     7
176
     0
 40
1.0
176
     0
 90
        1
176
     0
 90
        6
176
     0
 90
        2
176
     0
 62
     7
176
     0
 90
        5
176
     0
 90
        0
176
     0
 90
        0
176
     0
290
     0
176
     0
 90
        1
176
     0
 40
0.0
176
     0
 90
        0
176
     0
290
     0
176
     1
290
     1
176
     1
290
     1
176
     1
290
     0
176
     1
290
     0
176
     1
290
     0
176
     1
290
     0
176
     1
290
     0
176
     1
290
     0
176
     1
 90
       50
176
     1
 40
0.0
176
     1
 40
1.0
176
     1
 90
        0
176
     1
 62
    18
420
        0
176
     1
 90
       50
176
     1
 90
        3
176
     1
 62
     5
420
      255
176
     1
290
     0
176
     1
 90
       50
176
     1
 90
       50
176
     1
 90
       50
176
     1
290
     0
176
     1
 90
       50
176
     1
 62
   256
176
     0
 40
1.0
176
     0
 90
        2
176
     1
  1
strokes_ogs.tif
176
     1
290
     0
176
     1
 40
1.0
176
     1
 40
1.0
176
     1
  0
VISUALSTYLE
  5
A7
102
{ACAD_REACTORS
330
99
102
}
330
99
100
AcDbVisualStyle
  2
Linepattern
 70
    14
177
     3
291
     1
 70
    58
 90
        2
176
     1
 90
        2
176
     1
 90
        1
176
     1
 90
        0
176
     1
 40
0.6
176
     1
 40
30.0
176
     1
 62
     7
420
 16777215
176
     1
 90
        1
176
     1
 90
        4
176
     1
 62
     7
176
     1
 62
   257
176
     1
 90
        7
176
     1
 90
        7
176
     1
 40
1.0
176
     1
 90
        8
176
     1
 62
     7
176
     1
 40
1.0
176
     1
 90
        1
176
     1
 90
        6
176
     1
 90
        2
176
     1
 62
     7
176
     1
 90
        5
176
     1
 90
        0
176
     1
 90
        0
176
     1
290
     0
176
     1
 90
        1
176
     1
 40
0.0
176
     1
 90
        0
176
     1
290
     0
176
     1
290
     1
176
     1
290
     1
176
     1
290
     0
176
     1
290
     0
176
     1
290
     0
176
     1
290
     0
176
     1
290
     0
176
     1
290
     0
176
     1
 90
       50
176
     1
 40
0.0
176
     1
 40
1.0
176
     1
 90
        0
176
     1
 62
    18
420
        0
176
     1
 90
       50
176
     1
 90
        3
176
     1
 62
     5
420
      255
176
     1
290
     0
176
     1
 90
       50
176
     1
 90
       50
176
     1
 90
       50
176
     1
290
     0
176
     1
 90
       50
176
     1
 62
   256
176
     0
 40
1.0
176
     0
 90
        2
176
     1
  1
strokes_ogs.tif
176
     1
290
     0
176
     1
 40
1.0
176
     1
 40
1.0
176
     1
  0
VISUALSTYLE
  5
174
102
{ACAD_REACTORS
330
99
102
}
330
99
100
AcDbVisualStyle
  2
OverhangOff
 70
    21
177
     3
291
     1
 70
    58
 90
        2
176
     0
 90
        2
176
     0
 90
        0
176
     0
 90
        0
176
     0
 40
0.6
176
     0
 40
30.0
176
     0
 62
     7
420
 16777215
176
     0
 90
        1
176
     0
 90
        4
176
     0
 62
     7
176
     0
 62
   257
176
     0
 90
        1
176
     0
 90
        1
176
     0
 40
1.0
176
     0
 90
        9
176
     2
 62
     7
176
     0
 40
1.0
176
     0
 90
        1
176
     0
 90
        6
176
     0
 90
        2
176
     0
 62
     7
176
     0
 90
        5
176
     0
 90
        0
176
     0
 90
        0
176
     0
290
     0
176
     0
 90
        1
176
     0
 40
0.0
176
     0
 90
        0
176
     0
290
     0
176
     1
290
     1
176
     1
290
     1
176
     1
290
     0
176
     1
290
     0
176
     1
290
     0
176
     1
290
     0
176
     1
290
     0
176
     1
290
     0
176
     1
 90
       50
176
     1
 40
0.0
176
     1
 40
1.0
176
     1
 90
        0
176
     1
 62
    18
420
        0
176
     1
 90
       50
176
     1
 90
        3
176
     1
 62
     5
420
      255
176
     1
290
     0
176
     1
 90
       50
176
     1
 90
       50
176
     1
 90
       50
176
     1
290
     0
176
     1
 90
       50
176
     1
 62
   256
176
     0
 40
1.0
176
     0
 90
        2
176
     1
  1
strokes_ogs.tif
176
     1
290
     0
176
     1
 40
1.0
176
     1
 40
1.0
176
     1
  0
VISUALSTYLE
  5
A3
102
{ACAD_REACTORS
330
99
102
}
330
99
100
AcDbVisualStyle
  2
Realistic
 70
     8
177
     3
291
     0
 70
    58
 90
        2
176
     1
 90
        2
176
     1
 90
        0
176
     1
 90
        2
176
     1
 40
0.6
176
     1
 40
30.0
176
     1
 62
     7
420
 16777215
176
     1
 90
        0
176
     1
 90
        0
176
     1
 62
     7
176
     1
 62
   257
176
     1
 90
        1
176
     1
 90
        1
176
     1
 40
1.0
176
     1
 90
        8
176
     1
 62
   257
176
     1
 40
1.0
176
     1
 90
        1
176
     1
 90
        6
176
     1
 90
        2
176
     1
 62
     7
176
     1
 90
        3
176
     1
 90
        0
176
     1
 90
        0
176
     1
290
     0
176
     1
 90
       13
176
     1
 40
0.0
176
     1
 90
        0
176
     1
290
     0
176
     1
290
     1
176
     1
290
     1
176
     1
290
     0
176
     1
290
     0
176
     1
290
     0
176
     1
290
     0
176
     1
290
     0
176
     1
290
     0
176
     1
 90
       50
176
     1
 40
0.0
176
     1
 40
1.0
176
     1
 90
        0
176
     1
 62
    18
420
        0
176
     1
 90
       50
176
     1
 90
        3
176
     1
 62
     5
420
      255
176
     1
290
     0
176
     1
 90
       50
176
     1
 90
       50
176
     1
 90
       50
176
     1
290
     0
176
     1
 90
       50
176
     1
 62
   256
176
     0
 40
1.0
176
     0
 90
        2
176
     1
  1
strokes_ogs.tif
176
     1
290
     0
176
     1
 40
1.0
176
     1
 40
1.0
176
     1
  0
VISUALSTYLE
  5
182
102
{ACAD_REACTORS
330
99
102
}
330
99
100
AcDbVisualStyle
  2
Shaded
 70
    27
177
     3
291
     0
 70
    58
 90
        2
176
     1
 90
        2
176
     1
 90
        1
176
     1
 90
        2
176
     1
 40
0.6
176
     1
 40
30.0
176
     1
 62
     7
420
 16777215
176
     1
 90
        0
176
     1
 90
        4
176
     1
 62
     7
176
     1
 62
   257
176
     1
 90
        1
176
     1
 90
        1
176
     1
 40
1.0
176
     1
 90
        8
176
     1
 62
   257
176
     1
 40
1.0
176
     1
 90
        1
176
     1
 90
        6
176
     1
 90
        2
176
     1
 62
     8
420
  7895160
176
     1
 90
        3
176
     1
 90
        0
176
     1
 90
        0
176
     1
290
     0
176
     1
 90
        5
176
     1
 40
0.0
176
     1
 90
        0
176
     1
290
     0
176
     1
290
     1
176
     1
290
     1
176
     1
290
     0
176
     1
290
     0
176
     1
290
     0
176
     1
290
     0
176
     1
290
     0
176
     1
290
     0
176
     1
 90
       50
176
     1
 40
0.0
176
     1
 40
1.0
176
     1
 90
        0
176
     1
 62
    18
420
        0
176
     1
 90
       50
176
     1
 90
        3
176
     1
 62
     5
420
      255
176
     1
290
     0
176
     1
 90
       50
176
     1
 90
       50
176
     1
 90
       50
176
     1
290
     0
176
     1
 90
       50
176
     1
 62
   256
176
     0
 40
1.0
176
     0
 90
        2
176
     1
  1
strokes_ogs.tif
176
     1
290
     0
176
     1
 40
1.0
176
     1
 40
1.0
176
     1
  0
VISUALSTYLE
  5
181
102
{ACAD_REACTORS
330
99
102
}
330
99
100
AcDbVisualStyle
  2
Shaded with edges
 70
    26
177
     3
291
     0
 70
    58
 90
        2
176
     1
 90
        2
176
     1
 90
        1
176
     1
 90
        2
176
     1
 40
0.6
176
     1
 40
30.0
176
     1
 62
     7
420
 16777215
176
     1
 90
        1
176
     1
 90
        2
176
     1
 62
     7
176
     1
 62
   257
176
     1
 90
        2
176
     1
 90
        1
176
     1
 40
1.0
176
     1
 90
        8
176
     1
 62
   257
176
     1
 40
1.0
176
     1
 90
        1
176
     1
 90
        6
176
     1
 90
        2
176
     1
 62
     7
176
     1
 90
        3
176
     1
 90
        0
176
     1
 90
        0
176
     1
290
     0
176
     1
 90
        5
176
     1
 40
0.0
176
     1
 90
        0
176
     1
290
     0
176
     1
290
     1
176
     1
290
     1
176
     1
290
     0
176
     1
290
     0
176
     1
290
     0
176
     1
290
     0
176
     1
290
     0
176
     1
290
     0
176
     1
 90
       50
176
     1
 40
0.0
176
     1
 40
1.0
176
     1
 90
        0
176
     1
 62
    18
420
        0
176
     1
 90
       50
176
     1
 90
        3
176
     1
 62
     5
420
      255
176
     1
290
     0
176
     1
 90
       50
176
     1
 90
       50
176
     1
 90
       50
176
     1
290
     0
176
     1
 90
       50
176
     1
 62
   256
176
     0
 40
1.0
176
     0
 90
        2
176
     1
  1
strokes_ogs.tif
176
     1
290
     0
176
     1
 40
1.0
176
     1
 40
1.0
176
     1
  0
VISUALSTYLE
  5
17E
102
{ACAD_REACTORS
330
99
102
}
330
99
100
AcDbVisualStyle
  2
Shades of Gray
 70
    23
177
     3
291
     0
 70
    58
 90
        2
176
     1
 90
        2
176
     1
 90
        3
176
     1
 90
        0
176
     1
 40
0.6
176
     1
 40
30.0
176
     1
 62
     7
420
 16777215
176
     1
 90
        2
176
     1
 90
        2
176
     1
 62
     7
176
     1
 62
     7
176
     1
 90
        1
176
     1
 90
        1
176
     1
 40
40.0
176
     1
 90
        8
176
     1
 62
     7
176
     1
 40
1.0
176
     1
 90
        1
176
     1
 90
        6
176
     1
 90
        2
176
     1
 62
     7
176
     1
 90
        3
176
     1
 90
        0
176
     1
 90
        0
176
     1
290
     0
176
     1
 90
        1
176
     1
 40
0.0
176
     1
 90
        0
176
     1
290
     0
176
     1
290
     1
176
     1
290
     1
176
     1
290
     0
176
     1
290
     0
176
     1
290
     0
176
     1
290
     0
176
     1
290
     0
176
     1
290
     0
176
     1
 90
       50
176
     1
 40
0.0
176
     1
 40
1.0
176
     1
 90
        0
176
     1
 62
    18
420
        0
176
     1
 90
       50
176
     1
 90
        3
176
     1
 62
     5
420
      255
176
     1
290
     0
176
     1
 90
       50
176
     1
 90
       50
176
     1
 90
       50
176
     1
290
     0
176
     1
 90
       50
176
     1
 62
   256
176
     0
 40
1.0
176
     0
 90
        2
176
     1
  1
strokes_ogs.tif
176
     1
290
     0
176
     1
 40
1.0
176
     1
 40
1.0
176
     1
  0
VISUALSTYLE
  5
17F
102
{ACAD_REACTORS
330
99
102
}
330
99
100
AcDbVisualStyle
  2
Sketchy
 70
    24
177
     3
291
     0
 70
    58
 90
        1
176
     1
 90
        2
176
     1
 90
        2
176
     1
 90
        0
176
     1
 40
0.6
176
     1
 40
30.0
176
     1
 62
     7
420
 16777215
176
     1
 90
        2
176
     1
 90
        2
176
     1
 62
     7
176
     1
 62
     7
176
     1
 90
        1
176
     1
 90
        1
176
     1
 40
40.0
176
     1
 90
       11
176
     1
 62
     7
176
     1
 40
1.0
176
     1
 90
        1
176
     1
 90
        6
176
     1
 90
        2
176
     1
 62
     7
176
     1
 90
        6
176
     1
 90
        0
176
     1
 90
        0
176
     1
290
     0
176
     1
 90
        1
176
     1
 40
0.0
176
     1
 90
        0
176
     1
290
     0
176
     1
290
     1
176
     1
290
     1
176
     1
290
     0
176
     1
290
     0
176
     1
290
     0
176
     1
290
     0
176
     1
290
     0
176
     1
290
     0
176
     1
 90
       50
176
     1
 40
0.0
176
     1
 40
1.0
176
     1
 90
        0
176
     1
 62
    18
420
        0
176
     1
 90
       50
176
     1
 90
        3
176
     1
 62
     5
420
      255
176
     1
290
     0
176
     1
 90
       50
176
     1
 90
       50
176
     1
 90
       50
176
     1
290
     0
176
     1
 90
       50
176
     1
 62
   256
176
     0
 40
1.0
176
     0
 90
        2
176
     1
  1
strokes_ogs.tif
176
     1
290
     0
176
     1
 40
1.0
176
     1
 40
1.0
176
     1
  0
VISUALSTYLE
  5
A6
102
{ACAD_REACTORS
330
99
102
}
330
99
100
AcDbVisualStyle
  2
Thicken
 70
    13
177
     3
291
     1
 70
    58
 90
        2
176
     1
 90
        2
176
     1
 90
        1
176
     1
 90
        0
176
     1
 40
0.6
176
     1
 40
30.0
176
     1
 62
     7
420
 16777215
176
     1
 90
        1
176
     1
 90
        4
176
     1
 62
     7
176
     1
 62
   257
176
     1
 90
        1
176
     1
 90
        1
176
     1
 40
1.0
176
     1
 90
       12
176
     1
 62
     7
176
     1
 40
1.0
176
     1
 90
        1
176
     1
 90
        6
176
     1
 90
        2
176
     1
 62
     7
176
     1
 90
        5
176
     1
 90
        0
176
     1
 90
        0
176
     1
290
     0
176
     1
 90
        1
176
     1
 40
0.0
176
     1
 90
        0
176
     1
290
     0
176
     1
290
     1
176
     1
290
     1
176
     1
290
     0
176
     1
290
     0
176
     1
290
     0
176
     1
290
     0
176
     1
290
     0
176
     1
290
     0
176
     1
 90
       50
176
     1
 40
0.0
176
     1
 40
1.0
176
     1
 90
        0
176
     1
 62
    18
420
        0
176
     1
 90
       50
176
     1
 90
        3
176
     1
 62
     5
420
      255
176
     1
290
     0
176
     1
 90
       50
176
     1
 90
       50
176
     1
 90
       50
176
     1
290
     0
176
     1
 90
       50
176
     1
 62
   256
176
     0
 40
1.0
176
     0
 90
        2
176
     1
  1
strokes_ogs.tif
176
     1
290
     0
176
     1
 40
1.0
176
     1
 40
1.0
176
     1
  0
VISUALSTYLE
  5
A0
102
{ACAD_REACTORS
330
99
102
}
330
99
100
AcDbVisualStyle
  2
Wireframe
 70
     5
177
     3
291
     0
 70
    58
 90
        0
176
     1
 90
        2
176
     1
 90
        0
176
     1
 90
        0
176
     1
 40
0.6
176
     1
 40
30.0
176
     1
 62
     7
420
 16777215
176
     1
 90
        1
176
     1
 90
        4
176
     1
 62
     7
176
     1
 62
   257
176
     1
 90
        1
176
     1
 90
        1
176
     1
 40
1.0
176
     1
 90
        0
176
     1
 62
   257
176
     1
 40
1.0
176
     1
 90
        1
176
     1
 90
        6
176
     1
 90
        2
176
     1
 62
     7
176
     1
 90
        3
176
     1
 90
        0
176
     1
 90
        0
176
     1
290
     0
176
     1
 90
        1
176
     1
 40
0.0
176
     1
 90
        0
176
     1
290
     0
176
     1
290
     1
176
     1
290
     1
176
     1
290
     0
176
     1
290
     0
176
     1
290
     0
176
     1
290
     0
176
     1
290
     0
176
     1
290
     0
176
     1
 90
       50
176
     1
 40
0.0
176
     1
 40
1.0
176
     1
 90
        0
176
     1
 62
    18
420
        0
176
     1
 90
       50
176
     1
 90
        3
176
     1
 62
     5
420
      255
176
     1
290
     0
176
     1
 90
       50
176
     1
 90
       50
176
     1
 90
       50
176
     1
290
     0
176
     1
 90
       50
176
     1
 62
   256
176
     0
 40
1.0
176
     0
 90
        2
176
     1
  1
strokes_ogs.tif
176
     1
290
     0
176
     1
 40
1.0
176
     1
 40
1.0
176
     1
  0
VISUALSTYLE
  5
180
102
{ACAD_REACTORS
330
99
102
}
330
99
100
AcDbVisualStyle
  2
X-Ray
 70
    25
177
     3
291
     0
 70
    58
 90
        2
176
     1
 90
        2
176
     1
 90
        1
176
     1
 90
        1
176
     1
 40
0.5
176
     1
 40
30.0
176
     1
 62
     7
420
 16777215
176
     1
 90
        1
176
     1
 90
        0
176
     1
 62
     7
176
     1
 62
   257
176
     1
 90
        1
176
     1
 90
        1
176
     1
 40
1.0
176
     1
 90
        8
176
     1
 62
     7
176
     1
 40
1.0
176
     1
 90
        1
176
     1
 90
        6
176
     1
 90
        2
176
     1
 62
     7
176
     1
 90
        3
176
     1
 90
        0
176
     1
 90
        0
176
     1
290
     0
176
     1
 90
       13
176
     1
 40
0.0
176
     1
 90
        0
176
     1
290
     0
176
     1
290
     1
176
     1
290
     1
176
     1
290
     0
176
     1
290
     0
176
     1
290
     0
176
     1
290
     0
176
     1
290
     0
176
     1
290
     0
176
     1
 90
       50
176
     1
 40
0.0
176
     1
 40
1.0
176
     1
 90
        0
176
     1
 62
    18
420
        0
176
     1
 90
       50
176
     1
 90
        3
176
     1
 62
     5
420
      255
176
     1
290
     0
176
     1
 90
       50
176
     1
 90
       50
176
     1
 90
       50
176
     1
290
     0
176
     1
 90
       50
176
     1
 62
   256
176
     0
 40
1.0
176
     0
 90
        2
176
     1
  1
strokes_ogs.tif
176
     1
290
     0
176
     1
 40
1.0
176
     1
 40
1.0
176
     1
  0
DICTIONARYVAR
  5
4A0D6
102
{ACAD_REACTORS
330
4A0D5
102
}
330
4A0D5
100
DictionaryVariables
280
     0
  1
2
  0
DICTIONARYVAR
  5
4A0D7
102
{ACAD_REACTORS
330
4A0D5
102
}
330
4A0D5
100
DictionaryVariables
280
     0
  1
400.000000
  0
DICTIONARYVAR
  5
4A0D8
102
{ACAD_REACTORS
330
4A0D5
102
}
330
4A0D5
100
DictionaryVariables
280
     0
  1
1
  0
DICTIONARYVAR
  5
4A0D9
102
{ACAD_REACTORS
330
4A0D5
102
}
330
4A0D5
100
DictionaryVariables
280
     0
  1
1:1
  0
DICTIONARYVAR
  5
4A0DA
102
{ACAD_REACTORS
330
4A0D5
102
}
330
4A0D5
100
DictionaryVariables
280
     0
  1
STANDARD
  0
DICTIONARYVAR
  5
4A0DB
102
{ACAD_REACTORS
330
4A0D5
102
}
330
4A0D5
100
DictionaryVariables
280
     0
  1
STANDARD
  0
DICTIONARYVAR
  5
4A0DC
102
{ACAD_REACTORS
330
4A0D5
102
}
330
4A0D5
100
DictionaryVariables
280
     0
  1
Imperial24
  0
DICTIONARYVAR
  5
4A0DD
102
{ACAD_REACTORS
330
4A0D5
102
}
330
4A0D5
100
DictionaryVariables
280
     0
  1
Imperial24
  0
DICTIONARYVAR
  5
4A0DE
102
{ACAD_REACTORS
330
4A0D5
102
}
330
4A0D5
100
DictionaryVariables
280
     0
  1
-1
  0
DICTIONARYVAR
  5
4A0DF
102
{ACAD_REACTORS
330
4A0D5
102
}
330
4A0D5
100
DictionaryVariables
280
     0
  1
1
  0
DICTIONARYVAR
  5
4A0E0
102
{ACAD_REACTORS
330
4A0D5
102
}
330
4A0D5
100
DictionaryVariables
280
     0
  1
2
  0
DICTIONARYVAR
  5
4A0E1
102
{ACAD_REACTORS
330
4A0D5
102
}
330
4A0D5
100
DictionaryVariables
280
     0
  1
0
  0
DICTIONARYVAR
  5
4A0E2
102
{ACAD_REACTORS
330
4A0D5
102
}
330
4A0D5
100
DictionaryVariables
280
     0
  1
4
  0
DICTIONARYVAR
  5
4A0E3
102
{ACAD_REACTORS
330
4A0D5
102
}
330
4A0D5
100
DictionaryVariables
280
     0
  1
V-Construction
  0
DICTIONARYVAR
  5
4A0E4
102
{ACAD_REACTORS
330
4A0D5
102
}
330
4A0D5
100
DictionaryVariables
280
     0
  1
ByLayer
  0
DICTIONARYVAR
  5
4A0E5
102
{ACAD_REACTORS
330
4A0D5
102
}
330
4A0D5
100
DictionaryVariables
280
     0
  1
0
  0
DICTIONARYVAR
  5
4A0E6
102
{ACAD_REACTORS
330
4A0D5
102
}
330
4A0D5
100
DictionaryVariables
280
     0
  1
0
  0
DICTIONARYVAR
  5
4A0E7
102
{ACAD_REACTORS
330
4A0D5
102
}
330
4A0D5
100
DictionaryVariables
280
     0
  1
0
  0
DICTIONARYVAR
  5
4A0E8
102
{ACAD_REACTORS
330
4A0D5
102
}
330
4A0D5
100
DictionaryVariables
280
     0
  1
2
  0
DICTIONARYVAR
  5
4A0E9
102
{ACAD_REACTORS
330
4A0D5
102
}
330
4A0D5
100
DictionaryVariables
280
     0
  1
1.000000
  0
DICTIONARYVAR
  5
4A0EA
102
{ACAD_REACTORS
330
4A0D5
102
}
330
4A0D5
100
DictionaryVariables
280
     0
  1
1
  0
DICTIONARYVAR
  5
4A0EB
102
{ACAD_REACTORS
330
4A0D5
102
}
330
4A0D5
100
DictionaryVariables
280
     0
  1
1.000000
  0
DICTIONARYVAR
  5
4A0EC
102
{ACAD_REACTORS
330
4A0D5
102
}
330
4A0D5
100
DictionaryVariables
280
     0
  1
1
  0
DICTIONARYVAR
  5
4A0ED
102
{ACAD_REACTORS
330
4A0D5
102
}
330
4A0D5
100
DictionaryVariables
280
     0
  1
0
  0
DICTIONARYVAR
  5
4A0EE
102
{ACAD_REACTORS
330
4A0D5
102
}
330
4A0D5
100
DictionaryVariables
280
     0
  1

  0
DICTIONARYVAR
  5
4A0EF
102
{ACAD_REACTORS
330
4A0D5
102
}
330
4A0D5
100
DictionaryVariables
280
     0
  1
0
  0
DICTIONARYVAR
  5
4A0F0
102
{ACAD_REACTORS
330
4A0D5
102
}
330
4A0D5
100
DictionaryVariables
280
     0
  1
127
  0
DICTIONARY
  5
194
330
22
100
AcDbDictionary
280
     1
281
     1
  0
DICTIONARY
  5
188
330
97
100
AcDbDictionary
280
     1
281
     1
  3
FBXASSET
360
189
  0
DICTIONARY
  5
186
330
96
100
AcDbDictionary
280
     1
281
     1
  3
FBXASSET
360
187
  0
DICTIONARY
  5
110
330
98
100
AcDbDictionary
280
     1
281
     1
  3
BUMPTILE
360
112
  3
DIFFUSETILE
360
111
  3
FBXASSET
360
18A
  3
OPACITYTILE
360
113
  3
REFLECTIONTILE
360
114
  0
DICTIONARY
  5
104
330
87
100
AcDbDictionary
280
     1
281
     1
  3
ACAD_ROUNDTRIP_2008_TABLESTYLE_CELLSTYLEMAP
360
67410
  0
XRECORD
  5
189
102
{ACAD_REACTORS
330
188
102
}
330
188
100
AcDbXrecord
280
     1
 70
     1
 90
429727718
  1
508B35C9-AEE7-456F-BE74-D52651303AC6
310
504B03040A0000080000B670623B3DEE336E79000000790000001B0000006175746F6465736B2D64657369676E2D7061636B6167652E786D6C3C3F786D6C2076657273696F6E3D22312E302220656E636F64696E673D227574662D3822203F3E3C666F726D6174733E3C666F726D61743E687474703A2F2F736368656D612E
310
6175746F6465736B2E636F6D2F64657369676E2D7061636B6167652F323030393C2F666F726D61743E3C2F666F726D6174733E504B0304140006080800B670623BD486FD9CA0000000F4000000130000005B436F6E74656E745F54797065735D2E786D6C7D8EC10E82300C865F65E91D8A1E8C310C0EEA1BF002731658846E
310
D98AC1B77784ABF1D8FE5FBFBF75BBCE937A534CCEB38643598122B6FEE978D0B0485F9C41B54DDD7D022595594E1A469170414C76A4D9A4D207E29CF43ECE46F218070CC6BECC4078ACAA135ACF422C856C0E68EA1BF5669944DDD7BCDE7B1F8E415D77AECB980613C2E4AC91FC167A2B244592486606FC29C8FD7F045B9A
310
EF7053A7E60B504B0304140006080800B670623B28ED286BEB0000007C01000008000000636F72652E786D6C8D90416EC3201045AF82665B6183218D6D61A254764FD00B204C5C94182C03558F5F9C3852BBEB6A467FFE9B197D71FA9E6FE8CBACC17AD7012D0820E3B41FAD9B3A48F1826B40272956EFE32F1B20A766D3C1
310
268314D3EAD3B24BDABB685CCCAAF3A3D94515828980F42D371D04FD696655A814B3235C8B45E9AB9A4C419F5D8653B2237A1CB163DE672FD6AC209BF3C08E0D1B30EB19C3FC9D72FCC6EB231EFA33EDE96BDD341517E5064B11EDFCBCAF57A3A2194156843498524CAA0FCA5B7268F9E185D42D21A2DCEC7FA0B48CFF8492
310
759155FBBB0F2C80A4F991FB408A72CB22977B50B96EB9C91F504B0304140006080800B670623B55019EA25F0000007C00000007000000636E782E786D6C4DCB3B0E80201045D1AD90E915ED2CF8AC45050C11660C8261F98AB1B07AC9C97D42D718D865D3E909258CFD00CCE24AC6E326A164D74DC0B4128928FF32603847
310
2BA13128B1252AC747C6BAB984FC68F0B87FE8960A5C09FE86CFB69FBA01504B0304140006080800B670623B7BC41AC871010000D40300000C0000006662782F636F72652E786D6CC553ED6E8320147D15C2DF4501B56B6D90A64BBB27D80B50A5CE54C120983EFEAE1F4DD7A56BBA5FF3879273EEE59E7310BE393735EA95
310
ED2AA333CC428A91D2B9292A5D66D8BB63B0C26823B835C67D2BC348CB46657880B1E0A535BE9DA1DC68A7B403549B42CDA0EC3AE530CA6B5864B8CB3F552343E91D5474A7B095F949962A6421D0502778E72C0840D390E18DC5F170E664C205F7BE2A66B62A605A75AC94C522DDEEE3651AEF837817C741F2CE92E02D592D
310
83FD6ECB76EC7595A651C2C9D02CB8AB9A8BBADC2AE954814544691A3016D0E883256BBA58278B17BA5A53CAC9507ED3E4DBE2C9265F691747B3DCA9ADC382819091F8E1162272A8933DE82182932144F88C09DF060D8140C84E1EEA8B8F1340BDCA9DB1093085F157AA97B557309586747CD0EF0B4EA64E983A6E0EAEEFCE
310
889E9EF17847386AA94B30211D2C0FDE0D3AF9A4610EAD5536E8DD1969631B593F67E381C33F5157F17725E5A636F6BF1491F980C8FC7B90E13E8A2F504B0304140006080800B670623B70102A487D0000009D0000000B0000006662782F636E782E786D6C4DCCD10A83201886E15B91FFDC95A5C30335ACCDFB886521330D
310
A76397BF1A1DECE883878F57749FD5A3B74D2F17830472A901D9F088930B8B849267CC01754AA418F3DF0D5018572BE160506249B16C274D761E8BCFBB7A179E27F65CB39A0F14D396184C9921B81F34C3ACA1B4B99ABB6E6F062A25AA5F69DF23ACBE504B0304140006080800B670623B3610CA3329010000120200003100
310
00006662782F42384135303843342D343331462D343546312D424341352D3532343432364645413344462F636F72652E786D6C8D515B6EC32010BC0AE22B55850D0E446E848992B43E412FE000495162B07854397EA176A4F62F3F2C9A9D991D58BEBB8F37F0AD7D30CE76905418026DA553C65E3A98E219B510EC04F7CEC5
310
3F3408EC30EA0E16180A7EF12E4D0B249D8DDAC68C5AA7F4020E21E80881BCE54B0783FCD2E3500D296646B856D320AFC34557A4CAEDCC133C449F0380794839A138B47B86DB2345744D7A44594FD0E1B867883594369BFE63BF7EEF793D0B054FC9A8456E548E63CE46FB674D8A58F068C6477CE9F510B582A2C1F80D1182
310
70F349E816B32D65AFB8DD62CCEB42FF274A937A52948C8DEB66893BCB021484D7734370E5D2E9F608A3EF93F3119479ABA0E50B14B8C298119A43CCC4FCFCECB8A18B6388CEE7EF5D5D4F994BD86CBBA182D76543B9FCAE2FD7B24DF103504B0304140006080800B670623B1B8617914E0100003303000030000000666278
310
2F42384135303843342D343331462D343546312D424341352D3532343432364645413344462F636E782E786D6CD593C16EC32010447F0571AD6CE3D489D20813A9877E410FBD62D82434182CC055F3F75D1292E692438FBD206B7698593D61BEFD1E2DF982108D773D6D6B460938E5B571FB9ECE6957AD29D90A1EBC4F7736
310
4A9C1CA1A759A682EF839FA72269D8C9D92654AD71C72206887E0E0A22CAF926B15E498B01E0AA19451807D01A34B919F16B070157417138917400F2F6FA41FCF0092A45DEE414C19BDC21783E4BD39D891265658C3D8DEA00A3ACE59CBC8678ACB54CB26EEB6BD7839D7E9348BE70AD9C8321B9BCA7F9A4A26C542347DEE0
310
50F09802D22BA6749A800A394DD62899107273365E3C82CFC6A55557BC06C10774B7ABE7AEC3B0F34CF06446280E154026D0542C187BA9DAB6628BF7B6DBB0E5A65B3EB1F58631DE64BBE083F7B65CC218087E22CABB042E51D1F2268F1FE12B3EA24D40D63E9CFE00120194D60B9D5BC67FE6D39CDF37E20AF817881F504B
310
0304140006080800B670623BBFEF2E3B690500003C100000340000006662782F42384135303843342D343331462D343546312D424341352D3532343432364645413344462F6F626A656374732E786D6CAD575D739B3814FD2B0CFB0C98D84E931D4227B6938EA793B6534F3BFB90198F0099B001899144EAECAFDF231018B0
310
D37A3FFC609090EEE7B94757C1FB7D915B2F54C88CB31BDB7727B64559CC938CA53776A576CE956DBD0F03C1B9EA2DB32D460A7A63EB693B0C52C1ABD24C257447AA5C8D66EF177F5832A68CDA569C13296F6C193FD182B8A4523CA1F2D94D88226EBADBBBBEDB2C1C8A4D05299F46424B222853B014F30C52ACC6287F389C
310
D85E1878FA7B18E87FB36AFAF62AAFF667A83F635211161F291B8999FAB3D5DDC5FCDA99CF6653677679E13B8BFBC5CAF1DF4D27CBCBE5F2FAF6EE1A8AA51290642C117467871F101B91C581D77CEA2C36869F3229E68CD1B8F61F1ED6361B89092D294B90C78C4A68EB793D190E7D1D9BDEE7A91E1B95FDE9F3BCEAEFE809
310
6A6D6F9F7D4B79F4275C90E7A04248AA51D5C4C738DAE06F72885AC4796EBE65D22A88A22223B995679120E2D50EB1542F098381188D4EA111AE3DB043FF20AF6F2B4AE3D7D83D65E5AECA730D4D3BAC91BD05FEA992B565D95F549CD6069B90AB2A63EACA38A45E4B6A87D781574F86817E4C2FCCC72690D62E2729520E37
310
9BAF234797BAF6D62B3BFC781FED37BA1E4F2B2F052FA9501A3E80569BB8F6A9A364D4FA67654E6F803383981F82F21591FF84F23D9882BC896C3FDBCF8C162508933B2E0AE4C69DD43F6BD2BE38DDDBF10BF86CB4FA784D37F3AF16075E67EC9030DECA1FC0A55373F5DFF3378C591FA9BDF485C10B0A8C8BA909E5262639
310
A8E72163488806A595734C81CB77D1DE0ED7604A303B76913CEC0272F412782FF88EFF4636D8AA56DF7B322474C4B767303F625997056C7B032C473C592B36CEBD15F3F9FF5233B7ABCDC74D257624A60F8658567497B14CE1EC3C80B76FD02011038F9EE9EB0F2E12387A9C844D3F09855125116D1D731DF8B43D2CF4E0A0
310
79A020C6BE946BCE0B7EA1E1219331CD73C228AF5A2DDD31A4B1DA918CE91350854D40A71723140BFA92E94E62B0626016CEFA5864A50E5977E8753CEDBEE1CBB7F52780D20E17AF0BA0F5F9B02A3AD07DCC732EB6D1EBB661421BE0C39E21BABF0FE16D22EA6929407C8DE596724C88B749B6DB5512BC7B228ADFD7CB7EA6
310
3A22397E690BA8D5D8D4E40CEC8CDA23C2C0B7D5898640101CEC9C6D331CE328CB93CAFBBAC70A642DF70DF95155945B52F08AA973C23469FD69ADEF84F7BB18F983A8F8C90E37F5D35980B2139A1C523540813E824EF83448CF7C72B598CE97D7CEEDDDDD3B6736BFBC771677EF66CE6A7E7139F7A793E9EDF2B2B3A8B624
310
0CDA13AA5F8388264EC4A0129909F3B7F5A16CEDF08128E97D680ACA4B9BE7B7B58BB638F0B00700EF36AE8B32A705658A68F83EE897FC2B41573190D1CCAF0B92D233A47CFEB019D9809933F67DD1A5467F8CF69AD9A5AE859342D45355448C64F968A371DC2D596ADC6E43D93D1B466F877A64E2893E54F23C4B40388995
310
525E5005DA3983ED45412510D3EFCA13737B3863F74BD30F2A12E5B4B5E489A025CE25500DB855B11ACE5BBFA185D35DD48D8DC3CE7DC69F2944DB42AA6F6CF09BCA622ADD08C7A36E7C6AE18000BAB08E040135C2D21C9D75B3A91B77BB746C403F38018DFE6EC939DD92F16B40BC05294B9CDA035AAD6D330AE27FE4786B
310
8E45145EA34A75BE1C263A676A35A8ACC6297337400BF16C54EF515F3F77CB77EB3583889C754FFA29081AA98E2222ADEF05DA3E63D2EDEA8B8756C05A7FB6CABC4A91CBF325398202CC952E70A008A830324BA200D5E5EF8F5F04C75DB4B0EE3340E071C98B823333B83577596BF3849B69F2085AA0FAFA212F26BEFF5877
310
FDE622B28D88A42E49E43326DA82D31E8CB006401E1DA726059ECEC168F97A6599036306A135688F9AD2E61A6EA178F4CD51974A9F2CCB9F36FE5EBD14601068D9C3BF01504B0304140006080000B670623B000000000000000000000000350000006662782F42384135303843342D343331462D343546312D424341352D35
310
32343432364645413344462F76657274696365732E62696E504B0304140006080800B670623BF270F1330600000004000000360000006662782F42384135303843342D343331462D343546312D424341352D3532343432364645413344462F747269616E676C65732E62696E636660600000504B0304140006080000B67062
310
3B000000000000000000000000370000006662782F42384135303843342D343331462D343546312D424341352D3532343432364645413344462F617474726962757465732E62696E504B0304140006080800B670623B08DA0BD19000000041010000360000006662782F42384135303843342D343331462D343546312D4243
310
41352D3532343432364645413344462F6469726563746F72792E786D6C858F410AC3201045AF22B36F53E9A60B35CBEEBAE80D244E44489C6234F4F835464A48035D0DF398FF9F8AF63D0E6CC63039F212F8F9020C7D47C6792B21C5FE7403D62A1188E2E60C98D7234A5830286103A55745067B9D86B8A3CF9C7F90C11DE6
310
07FB144396D7B6A82D282E9A152AD114D5EF2CB866EEE831B8EEA07A7BB5A8D7D61A2BAAEB7FD5F70921FF497D00504B0304140006080800B670623B3B4606F3FE000000A00100003B0000006662782F42384135303843342D343331462D343546312D424341352D3532343432364645413344462F7265736F75726365732F
310
636F72652E786D6C8D504B6E833010BD0A9A6D65B08134808CA354A427E8052C332156828DFCA97AFC9A40A576D7CDCCE87D344F8F9FBEE647F689CE6B6B7A6039850C8DB2A336530F315C4903D94970676DF82583CCC8197B5861107C72362E3BA4AC096842428D1D7107A5F71820538F74F4E0D50D6799CB1892C2DFF345
310
AABB9C306779A2934E701F5C0A906D4FD609C2A1B7D129F4BCD858C163D4E3AED163FAA9AF1A1D88F67CA98E6D35906AA82A52BFB39ABCD5CD915C86331BD86BD3B665CD8BD52C78D0F34F46E550061C419494B6843142CB0F5677F4D0D58717DA7494F26295FF31C565FCA7296A13AA728FBBD93C0896823C09C18BB5AFB4
310
9E65A6BD762BBE01504B010214000A0000080000B670623B3DEE336E79000000790000001B00000000000000000000000000000000006175746F6465736B2D64657369676E2D7061636B6167652E786D6C504B01021400140006080800B670623BD486FD9CA0000000F40000001300000000000000000000000000B2000000
310
5B436F6E74656E745F54797065735D2E786D6C504B01021400140006080800B670623B28ED286BEB0000007C010000080000000000000000000000000083010000636F72652E786D6C504B01021400140006080800B670623B55019EA25F0000007C000000070000000000000000000000000094020000636E782E786D6C50
310
4B01021400140006080800B670623B7BC41AC871010000D40300000C00000000000000000000000000180300006662782F636F72652E786D6C504B01021400140006080800B670623B70102A487D0000009D0000000B00000000000000000000000000B30400006662782F636E782E786D6C504B01021400140006080800B6
310
70623B3610CA3329010000120200003100000000000000000000000000590500006662782F42384135303843342D343331462D343546312D424341352D3532343432364645413344462F636F72652E786D6C504B01021400140006080800B670623B1B8617914E010000330300003000000000000000000000000000D10600
310
006662782F42384135303843342D343331462D343546312D424341352D3532343432364645413344462F636E782E786D6C504B01021400140006080800B670623BBFEF2E3B690500003C10000034000000000000000000000000006D0800006662782F42384135303843342D343331462D343546312D424341352D35323434
310
32364645413344462F6F626A656374732E786D6C504B01021400140006080000B670623B0000000000000000000000003500000000000000000000000000280E00006662782F42384135303843342D343331462D343546312D424341352D3532343432364645413344462F76657274696365732E62696E504B010214001400
310
06080800B670623BF270F133060000000400000036000000000000000000000000007B0E00006662782F42384135303843342D343331462D343546312D424341352D3532343432364645413344462F747269616E676C65732E62696E504B01021400140006080000B670623B00000000000000000000000037000000000000
310
00000000000000D50E00006662782F42384135303843342D343331462D343546312D424341352D3532343432364645413344462F617474726962757465732E62696E504B01021400140006080800B670623B08DA0BD1900000004101000036000000000000000000000000002A0F00006662782F42384135303843342D3433
310
31462D343546312D424341352D3532343432364645413344462F6469726563746F72792E786D6C504B01021400140006080800B670623B3B4606F3FE000000A00100003B000000000000000000000000000E1000006662782F42384135303843342D343331462D343546312D424341352D3532343432364645413344462F72
310
65736F75726365732F636F72652E786D6C504B0506000000000E000E0080040000651100000000
  0
XRECORD
  5
187
102
{ACAD_REACTORS
330
186
102
}
330
186
100
AcDbXrecord
280
     1
 70
     1
 90
429727718
  1
887D55A9-D0DD-414E-B741-A7DCD4DA2B4C
310
504B03040A0000080000B670623B3DEE336E79000000790000001B0000006175746F6465736B2D64657369676E2D7061636B6167652E786D6C3C3F786D6C2076657273696F6E3D22312E302220656E636F64696E673D227574662D3822203F3E3C666F726D6174733E3C666F726D61743E687474703A2F2F736368656D612E
310
6175746F6465736B2E636F6D2F64657369676E2D7061636B6167652F323030393C2F666F726D61743E3C2F666F726D6174733E504B0304140006080800B670623BD486FD9CA0000000F4000000130000005B436F6E74656E745F54797065735D2E786D6C7D8EC10E82300C865F65E91D8A1E8C310C0EEA1BF002731658846E
310
D98AC1B77784ABF1D8FE5FBFBF75BBCE937A534CCEB38643598122B6FEE978D0B0485F9C41B54DDD7D022595594E1A469170414C76A4D9A4D207E29CF43ECE46F218070CC6BECC4078ACAA135ACF422C856C0E68EA1BF5669944DDD7BCDE7B1F8E415D77AECB980613C2E4AC91FC167A2B244592486606FC29C8FD7F045B9A
310
EF7053A7E60B504B0304140006080800B670623BBC1638F5EC0000007C01000008000000636F72652E786D6C8D90416EC3201045AF82665B61836BE2D8C24471DB9CA01740401C94182C03558F5F9C3852BBEB6A467FFE9B197D7EF89E6EE8CB2CC17AD7032D0820E394D7D68D3DA478C67B4007C117EFE32F1B202727D3C3
310
2A83E0E3E2D3BC49CABB685CCCAAF3DA6CA20CC14440EA969B1E82BA98491632C5EC08D76296EA2A4753D06797E194AC468F2356E77DF66CCD02825543D50CACC62D39ED70FDC68EB8FD68F6F8787A6784342D1DDA1D2F5758F068A7E77DB518198D065111D2624A31A93E69DD11D6D5EC85EC3B4278B9DAFF4069D6FF8492
310
75F1B5DADE7D600104CD8FDC0782976B16B9DC83CA75CD4DFC00504B0304140006080800B670623B55019EA25F0000007C00000007000000636E782E786D6C4DCB3B0E80201045D1AD90E915ED2CF8AC45050C11660C8261F98AB1B07AC9C97D42D718D865D3E909258CFD00CCE24AC6E326A164D74DC0B4128928FF326038
310
472BA13128B1252AC747C6BAB984FC68F0B87FE8960A5C09FE86CFB69FBA01504B0304140006080800B670623B3586FFB671010000D40300000C0000006662782F636F72652E786D6CC553ED6E8320147D15C2DF4541A76D6D90A6DDD627D80B50A4CE54C120983EFEAE1F4DD7A55BBA5FF3879273EEE59E7310B6393735EA
310
95ED2AA3731C851423A5A5292A5DE6D8BB63B0C268C39935C67D29C3488B46E578803167A535BE9D2169B453DA01AA4DA16650749D7218C91A1639EEE4876A4428BC838AEE14B6429E44A9C228041AEA38EB9C0501681A32BC313F1ECE8C4C3867DE57C5CC56054CAB8E95B298A7F12E5EEED224C8E87E11242FE936C8DE96
310
AB60BB7F4D295D66D12E5B30323473E6AAE6A24E5A259C2A308F29CD82280A68FC1E256B9AAE93F489AED694323294DF34F9B678B0C957DA3DC7B3DCA9ADC33C022123F1CD2D44E450277AD04338234388F01913BE0D1A0281909D38D4171F27807A259DB1093085F157AA17B557309586747CD0CF0B46A64E983A6E0EAEEF
310
CE881F9EF1FB8E70D44297604238581EBC1B74B249C31C5AAB6CD0BB33D2C636A27ECCC62F0EFF445DC5DF95244D6DEC7F2922F30191F9F720C37DE49F504B0304140006080800B670623B4220A0FF7D0000009D0000000B0000006662782F636E782E786D6C4DCCD10A83201886E15B91FFDCE542CB0335D0EC3E6259C84A
310
C3E9D8E5AF46073BFAE0E1E315DD675BD1DBA5978F41C2FD4600B9F088930F8B849267CC01754AA418F3DF0D50183727E164506249B1EC174D6E1ECB9A0F5D7D785E68DB8151CD286E5A5363CA6B8A39E90D36D40E96B086F55A43A544F52B1D7B86D517504B0304140006080800B670623B2FA3FEDE290100001202000031
310
0000006662782F45374635344235342D363743322D343832342D383044432D4334454645303536354442422F636F72652E786D6C8D515B6EC32010BC0AE22B55850D2E386E848994D7097A0117488A1283C5A3CAF10BB523B57FF961D1ECCCECC0F2ED7DBC816FED8371B687A4C210682B9D32F6D2C314CFA883602BB8772E
310
FEA141608751F7B0C050F08B77695A20E96CD43666D43AA5177008414708E42D5F7A18E4971E876A483133C2B59A06791D2EBA22556E679EE021FA1C00CC43CA09C5717D6274C7286AD7FB06D1AEA1A8C3873DDAD3E3E98859CB0EBB1DAF67A1E02919B5C88DCA71CCD968FFAC49110B1ECDF8882FBD1EA256503418BF2342
310
106E3E08DD60B6A1EC15771B8C795DE8FF4469524F8A92B1F1AD59E2CEB20005E1F5DC105CB9F4797B84D1F7C9F908CABC55D0F2050A5C61CC1AD2F27A26E6E767C7962E8E213A9FBF7775FDCC5CC266DB960A5E970DE5F2BBBE5CCB36C50F504B0304140006080800B670623B1B8617914E01000033030000300000006662
310
782F45374635344235342D363743322D343832342D383044432D4334454645303536354442422F636E782E786D6CD593C16EC32010447F0571AD6CE3D489D20813A9877E410FBD62D82434182CC055F3F75D1292E692438FBD206B7698593D61BEFD1E2DF982108D773D6D6B460938E5B571FB9ECE6957AD29D90A1EBC4F77
310
364A9C1CA1A759A682EF839FA72269D8C9D92654AD71C72206887E0E0A22CAF926B15E498B01E0AA19451807D01A34B919F16B070157417138917400F2F6FA41FCF0092A45DEE414C19BDC21783E4BD39D891265658C3D8DEA00A3ACE59CBC8678ACB54CB26EEB6BD7839D7E9348BE70AD9C8321B9BCA7F9A4A26C542347DE
310
E050F09802D22BA6749A800A394DD62899107273365E3C82CFC6A55557BC06C10774B7ABE7AEC3B0F34CF06446280E154026D0542C187BA9DAB6628BF7B6DBB0E5A65B3EB1F58631DE64BBE083F7B65CC218087E22CABB042E51D1F2268F1FE12B3EA24D40D63E9CFE00120194D60B9D5BC67FE6D39CDF37E20AF817881F50
310
4B0304140006080800B670623B29652116630500003C100000340000006662782F45374635344235342D363743322D343832342D383044432D4334454645303536354442422F6F626A656374732E786D6CAD575D739B3814FD2B0CFB0C989834C90EA1639B24E3E9A6EDD4D3CE3E64C623834CD8006224913AFDF57B040203
310
B65BEF871F0C12D2FD3CF7E8CA7FBFCB33E3957291B2E2D674ED8969D02262715A24B76625B7D6B569BC0F7CCE98EC2D338D82E4F4D654D366E0279C55A59E8AE99654991CCDDECFFF3444440B6A1A514684B83545F44C7362934AB2988A173B2692D8C97667BB76B3702836E1A47C1E092D09A78584A5982F20C5688C7287
310
C389E904BEA3BE07BEFAD7ABA6A75739B53F43FD69212429A20365233153D70BEF2E2E6FAC4BCF9B5ADEBB0BD79ADFCF43CBBD9A4E16EF168B9BD9DD0D140BC921495BC2E9D60C1E101B9E46BED37CEA2CD6861F3329624541A3DA7F7858DBAC25C6B4A4458C3CA654405BCFEBC970E8AAD8F43E4FD558ABEC4F9FE7557F47
310
4F506B7BFBEC5BCA367FC105710E2AB8A00A554D7CB4A30DFE26FBA86D18CBF4B75418399194A72433B274C3097F33032C554B027F2046A1932B842B0FCCC0DDCBEBDB8AD2F835768F59B9ADB24C41D30C6A64AF817F2A456D59FA83F2E3DA60137255A585BCD60EC9B7929AC18DEFD49381AF1ED30BFDB109A4B1CD488294
310
C3CDE6EBC8D185AABD6568061FEE37BB95AAC7E3CA4BCE4ACAA5820FA0D526AE7DAA2869B5EE5999531BE0CC20E6FBA07C41E43FA27CF7A6206F3CDD793B4F6B919C1462CB788EDCD893FA674CDA17AB7B3B7C019F8D561FAEE966FED562DFE98C1D12C6A9FC015C2A35D7FF3D7FC398F591DA4B5FE0BFA2C0189FEA50AE22
310
92817A1ED3020951A03432862970F976B33383259812CC8E5D240BBA801CBCF8CE2BBEE3BF910DB6AAD5F79E05123AE2DB33981FB1ACCB02B69D00CB014FD68AB573A7627EF9BFD4CC2C5C7D58557C4B22FAA88925A4DBB44825CECE3D78FB060D1231F0E885BE7D673C86A3874958F593906B5502D1563157814FDAC3420D
310
F69A070A22EC4B98E23CFF171A1E5311D12C23056555ABA53B8614563B92D17D02AAB009E8F46284624E5F53D5490C560CCCC2591FF1B45421EB0EBD8EA7ED13BE7C5D7E0428CD60FEF60779EB13E6664FF711CB185F6FDED60D139A001FF60CD1FD6D086F1D51474901E26B2CB794A343BC8ED3EDB612E0DD2351FCB65CF4
310
33D511C9E14B5B40ADC6A6263DB0336A8F700DDF56271A024E70B0B3629DE21847591E55DED73D56206AB927E46FAABC5C939C55853C274C93D69FD6FA4E78BF8B11DF898C9ECD60553FAD39283BA6F18984AA23E8884F83F45C5F5F859797B31B2B9C84A1E5B9DE9D35BFF25C6B76152E422F9C5DCC3D847F5801ED09D5AF
310
41441327A25FF15487F9EB725FB666F048A4701E9A827292E6F97569A32DF61DEC01C0BB8DCBBCCC684E0B49147C1FD54BF685A0AB18C868E6973949E819523E3DAC463660E68C7D9F55A9D1EFA3BD7A76A16AE1A810F95CE59B82A4D968A376DC2E8B44BBDD86B27B368CDE0ED548C7137DA860591A83706223A12CA712B4
310
7306DBF39C0A20A6DF95C7FAF670C6EED7A61F946493D1D6926782963813403548A78AE470DEF80D2D9CEAA26E4D1C76F60BFE74219A06527D6B82DF641A51616F703CAAC6A7160E08A00BEB4810A0274592A1B36E3675E36E978A0DE80727A0D6DF2D39A75BD27E0D8837276589537B40ABB56D5A41F48F1C6FCD3188C4EB
310
A6929D2FFB89CE995A4D00AE813BDD032DC48B56BD437DFDDC2DD7AED70C2272D63DE9A72068A45A92F0A4BE17A8A06B9366E16707AD80B1FC649459952097E74BB23805982B55E0401150A165964402AA8BDF9F3E7386BB686EDCA780C0D382E5392BF460A6EFB2C6EA1937D3F809B440D5F5435C4C5CF7A9EEFAF54564BD
310
2182DA24162F98680B4E7930C21A0079709CEAEB99A372305ABE0C0D7D6078105A83F6A0296DAEE1068A47DD1C55A9F4C9B2FC69E3EFD44B81028E963DF81B504B0304140006080000B670623B000000000000000000000000350000006662782F45374635344235342D363743322D343832342D383044432D433445464530
310
3536354442422F76657274696365732E62696E504B0304140006080800B670623BF270F1330600000004000000360000006662782F45374635344235342D363743322D343832342D383044432D4334454645303536354442422F747269616E676C65732E62696E636660600000504B0304140006080000B670623B00000000
310
0000000000000000370000006662782F45374635344235342D363743322D343832342D383044432D4334454645303536354442422F617474726962757465732E62696E504B0304140006080800B670623B08DA0BD19000000041010000360000006662782F45374635344235342D363743322D343832342D383044432D4334
310
454645303536354442422F6469726563746F72792E786D6C858F410AC3201045AF22B36F53E9A60B35CBEEBAE80D244E44489C6234F4F835464A48035D0DF398FF9F8AF63D0E6CC63039F212F8F9020C7D47C6792B21C5FE7403D62A1188E2E60C98D7234A5830286103A55745067B9D86B8A3CF9C7F90C11DE607FB144396
310
D7B6A82D282E9A152AD114D5EF2CB866EEE831B8EEA07A7BB5A8D7D61A2BAAEB7FD5F70921FF497D00504B0304140006080800B670623B6378F24DFF000000A00100003B0000006662782F45374635344235342D363743322D343832342D383044432D4334454645303536354442422F7265736F75726365732F636F72652E
310
786D6C8D504B6E833010BD0A9A6D65B0094E42641C85B639412F6099496225D8C89FAAC7AF09546A77DDCC8CDE47F3F4C4F16B7C149FE88371B603565228D06A37187BED20C50BD9437194C23B177FC9A0B06AC40E6618A4B87A97A615D2CE46B431A3D60DB8822A048C50E8473E3A08FA86A32A558A5911EEE5A4F45D5DB1
310
6465A6B34E8A107D0E502C4FE609D26370C96B0CA25A58295232C3AA3143FE692E063D485EF7F5AEE71BD2D2F39634AFFC44DAF7DD9E9CCE6F9CD25DCBFA762BAAD92C4534E34F46ED51451C40D694B6843142EB0FD61C283F34FC85EE0F948A6A96FF31A569F8A729191B37F51A77B105902C0779125254735F793DCBCC7B
310
EE567E03504B010214000A0000080000B670623B3DEE336E79000000790000001B00000000000000000000000000000000006175746F6465736B2D64657369676E2D7061636B6167652E786D6C504B01021400140006080800B670623BD486FD9CA0000000F40000001300000000000000000000000000B20000005B436F6E
310
74656E745F54797065735D2E786D6C504B01021400140006080800B670623BBC1638F5EC0000007C010000080000000000000000000000000083010000636F72652E786D6C504B01021400140006080800B670623B55019EA25F0000007C000000070000000000000000000000000095020000636E782E786D6C504B010214
310
00140006080800B670623B3586FFB671010000D40300000C00000000000000000000000000190300006662782F636F72652E786D6C504B01021400140006080800B670623B4220A0FF7D0000009D0000000B00000000000000000000000000B40400006662782F636E782E786D6C504B01021400140006080800B670623B2F
310
A3FEDE290100001202000031000000000000000000000000005A0500006662782F45374635344235342D363743322D343832342D383044432D4334454645303536354442422F636F72652E786D6C504B01021400140006080800B670623B1B8617914E010000330300003000000000000000000000000000D2060000666278
310
2F45374635344235342D363743322D343832342D383044432D4334454645303536354442422F636E782E786D6C504B01021400140006080800B670623B29652116630500003C10000034000000000000000000000000006E0800006662782F45374635344235342D363743322D343832342D383044432D4334454645303536
310
354442422F6F626A656374732E786D6C504B01021400140006080000B670623B0000000000000000000000003500000000000000000000000000230E00006662782F45374635344235342D363743322D343832342D383044432D4334454645303536354442422F76657274696365732E62696E504B01021400140006080800
310
B670623BF270F13306000000040000003600000000000000000000000000760E00006662782F45374635344235342D363743322D343832342D383044432D4334454645303536354442422F747269616E676C65732E62696E504B01021400140006080000B670623B0000000000000000000000003700000000000000000000
310
000000D00E00006662782F45374635344235342D363743322D343832342D383044432D4334454645303536354442422F617474726962757465732E62696E504B01021400140006080800B670623B08DA0BD190000000410100003600000000000000000000000000250F00006662782F45374635344235342D363743322D34
310
3832342D383044432D4334454645303536354442422F6469726563746F72792E786D6C504B01021400140006080800B670623B6378F24DFF000000A00100003B00000000000000000000000000091000006662782F45374635344235342D363743322D343832342D383044432D4334454645303536354442422F7265736F75
310
726365732F636F72652E786D6C504B0506000000000E000E0080040000611100000000
  0
XRECORD
  5
112
102
{ACAD_REACTORS
330
110
102
}
330
110
100
AcDbXrecord
280
     1
270
     1
271
     1
  0
XRECORD
  5
111
102
{ACAD_REACTORS
330
110
102
}
330
110
100
AcDbXrecord
280
     1
270
     1
271
     1
  0
XRECORD
  5
18A
102
{ACAD_REACTORS
330
110
102
}
330
110
100
AcDbXrecord
280
     1
 70
     0
 90
1778669749
  1
9BF507EE-FAF7-4A99-A33D-4EE51894BC40
310
504B03040A0000080000B670623B3DEE336E79000000790000001B0000006175746F6465736B2D64657369676E2D7061636B6167652E786D6C3C3F786D6C2076657273696F6E3D22312E302220656E636F64696E673D227574662D3822203F3E3C666F726D6174733E3C666F726D61743E687474703A2F2F736368656D612E
310
6175746F6465736B2E636F6D2F64657369676E2D7061636B6167652F323030393C2F666F726D61743E3C2F666F726D6174733E504B0304140006080800B670623BD486FD9CA0000000F4000000130000005B436F6E74656E745F54797065735D2E786D6C7D8EC10E82300C865F65E91D8A1E8C310C0EEA1BF002731658846E
310
D98AC1B77784ABF1D8FE5FBFBF75BBCE937A534CCEB38643598122B6FEE978D0B0485F9C41B54DDD7D022595594E1A469170414C76A4D9A4D207E29CF43ECE46F218070CC6BECC4078ACAA135ACF422C856C0E68EA1BF5669944DDD7BCDE7B1F8E415D77AECB980613C2E4AC91FC167A2B244592486606FC29C8FD7F045B9A
310
EF7053A7E60B504B0304140006080800B670623BCA089DFFEC0000007C01000008000000636F72652E786D6C8D90416E83301045AF62CDB632D8402020E32882F604BD80653BC44AB011B6AB1EBF262152BBEB6A467FFE9B197D76FA9EEFE84BAFDE38DB03CD08206DA553C64E3DC470C1474027CE56E7C22F1B202B66DDC3
310
260367D3EAE2B24BD2D9A06D48AA754AEFA2F05E0740F29E9A1EBCBCEA59642286E4F0B76C11F226269DD15797E0188D42CF2346A57DE662F40ABCAEC77628C6120F654571D50C04B7F5B9C1E3997CD4F550BE3745C3F20DE62C98F9755FAE5A04AD801784B498524C8A4F5A75E4D055873772EC0861F966FF03C545FD138A
310
C686B2D8DF7D621E384D8F3C069CE55B16A93C824A75CB8DFF00504B0304140006080800B670623B55019EA25F0000007C00000007000000636E782E786D6C4DCB3B0E80201045D1AD90E915ED2CF8AC45050C11660C8261F98AB1B07AC9C97D42D718D865D3E909258CFD00CCE24AC6E326A164D74DC0B4128928FF326038
310
472BA13128B1252AC747C6BAB984FC68F0B87FE8960A5C09FE86CFB69FBA01504B0304140006080800B670623B68FC0B7272010000D40300000C0000006662782F636F72652E786D6CC5535B6E833010BC8AE5DF0A6C1E8124328E22D29EA01770C0A128602363A31CBFCB234A53A555FA553EC09AD9F5CE8C31DB5DDA060D
310
D2F4B556190E7C8A9154852E6B5565D8D993B7C668C799D1DA7E29C3488956667884316795D1AE5BA0422B2B950554E9522EA0E87B69312A1A5864B82F3E642B7CE12C54F467BF13C55954D20F7CA0A18EB3DE1A1080E621E31BF3D3F1C2C88C73E65C5D2E6C5DC2B4FA544B8379921C36797888BC3C8A032F4E73EA6D927D
310
EA1DF6F42D49F2E8350D5346C666CE6CDD5ED515460A2B4BCC434A375E1078347C0FE22D5D6DE3D50B5D6F2965642CBF6B725DF96493AB958DC245EEDCD6631E809089F8E61622B2A81703E8219C913144F84C09DF070D8140C8561C9BAB8F3340832CAC363130A576376A108D933095FA747AD0CF0B46E64E983A6D0EAE1F
310
CE089F9EF1FB8E70D44255604258581E9D1D75B259C3125A278D37D80B52DAB4A279CEC62F0EFF44DDC43F9454E8469BFF5244960322CBEF41C6FBC83F01504B0304140006080800B670623B0F71DDB67E0000009D0000000B0000006662782F636E782E786D6C4DCCD10A83201886E15B91FFDCA54DB73F502386BB8F5816
310
32D3703976F9ABD1C18E3E78F87855FB990379BBFCF2296AE02706C4C5471A7C9C349475A408A4352AA7B4FEDD80C47E761A7606A3A69CCA72D0E0C6BE8475D3E0E3F3409428EA6B27A84079A782899AA2EC1A7AE3ECCC2FD858CB2D544655BFD2B67BD87C01504B0304140006080800B670623BE134B4FB28010000120200
310
00310000006662782F38353834323741342D343835462D343034322D383541392D4331303331363839454531452F636F72652E786D6C8D515B6EC32010BC0AE22B55850D0EA424C24451959EA0172086A42831583CAA1CBF503B52FB971F16CDCECC0EACD8DFC71BF836215AEF7A481A0C817183D7D65D7A98D3197108F652
310
04EFD31F1A044E8DA6871586525C82CFD3020DDE25E352419DD76601558C264130DCCAA58771F832A36A544E8511AFCDA486ABBA988634A55D7852C4144A00300FA927949C71DABD1D28A29C7D208A6987383B6CD13BC16BB2E1DBE3911C453B0BA5C8D9EA456E758963CFD684674DAA588A64C747FC2118958C86B2C3788B
310
0841B8FB247487D98EB257CC77188BB6D2FF89F2A49F1465EBD2BA5BE2CEB2082511EDDC9042FB7CBA3DC298FBE4430275DE2A9AE1054ADC60CC08E3A29D89E5F9C5714317C7987C28DFBBBA9E0A97B0D97643A568EB864AF95D5FA9759BF207504B0304140006080800B670623B1B8617914E010000330300003000000066
310
62782F38353834323741342D343835462D343034322D383541392D4331303331363839454531452F636E782E786D6CD593C16EC32010447F0571AD6CE3D489D20813A9877E410FBD62D82434182CC055F3F75D1292E692438FBD206B7698593D61BEFD1E2DF982108D773D6D6B460938E5B571FB9ECE6957AD29D90A1EBC4F
310
77364A9C1CA1A759A682EF839FA72269D8C9D92654AD71C72206887E0E0A22CAF926B15E498B01E0AA19451807D01A34B919F16B070157417138917400F2F6FA41FCF0092A45DEE414C19BDC21783E4BD39D891265658C3D8DEA00A3ACE59CBC8678ACB54CB26EEB6BD7839D7E9348BE70AD9C8321B9BCA7F9A4A26C542347
310
DEE050F09802D22BA6749A800A394DD62899107273365E3C82CFC6A55557BC06C10774B7ABE7AEC3B0F34CF06446280E154026D0542C187BA9DAB6628BF7B6DBB0E5A65B3EB1F58631DE64BBE083F7B65CC218087E22CABB042E51D1F2268F1FE12B3EA24D40D63E9CFE00120194D60B9D5BC67FE6D39CDF37E20AF817881F
310
504B0304140006080800B670623B5933D422630500003B100000340000006662782F38353834323741342D343835462D343034322D383541392D4331303331363839454531452F6F626A656374732E786D6CAD575B6FA33814FE2B887D0642934E9B156594264D158D3A534DD4D13E548A0C38942D60649B4EBABF7E3F8321
310
40924EF6928780CDF1B97EE762EFF32E4B8D37CA45C2F21BD3B547A641F39045491EDF98A5DC5AD7A6F1D9F73863B243661A39C9E88DA9B64DDF8B392B0BBD15D12D295339D85DDEFE618890E6D434C2940871638AF08566C426A5641115AF764424B1E3EDCE76ED9AB0CF36E6A47819302D08A7B984A6D8CFC1C5A89572FB
310
CB91E9F89EA3BEFB9EFAD754E3D3544E654F5F7E920B49F2F040D880CDD89D2CEE2E2EA7D6E56432B6269F2E5CEB7679BBB0DCABF168FE693E9FCEEEA6102C240727AD09A75BD3BF876F78127A4EFDA9D5582B7E4CA590E5390D2BFB6161A5B3E618D182E611E2985001691DAB47FDA5AB7CD3F93C566B2DB2BB7D9E55DD13
310
1D468DEECDB3AB290BFE8409E21C54704115AA6AFF68436BFC8DF65E0B184BF5B74418199194272435D224E084BF9B3E481589EFF5D828747285706581E9BB7B7E5D5D911ABFC6EE312DB7659A2A689A7E85EC0DF04FA5A8344BFEA2FCB834E8845895492EAFB541F2BDA0A63FF59C6AD3F7D4637CA13FD68E34B629891172
310
98597F1D183A57B9B75A98FE9765B05BAB7C3C2EBCE0ACA05C2AF8005A4DE09AA7F29216EB9E15397500C6F47CBE77CA7778FE2BD277AF0AE2C693DD6437D1522427B9D8329E2136F6A8FA19A3E6C56ADF0E5F50CF06D48734EDCEBF22F69C56D97EC138153F804B85E6FABFC7AFEFB32E523BE1F3BD372418E363EDCA7548
310
52949E8724474014288D94610BB57C1BEC4C7F854A89CA8E5324F55B871CBC78CE1BBEE3BFE68D6A5589EF3C730474506FCFA8FCF0659516D0ED04580EEA6425581B77CAE797FF4BCECC16EB2FEB926F49481F746159D06D922712BD730FDEAE42BD40F42C7AA5EF3F198F60E86110D6DD20645A9480B795CF95E3E3A659A8
310
C55E724F408873315335CFFB8584874484344D494E59D94869DB90C26A5B64F49C802CAC1D3ABE18A098D3B7444D123D8A9E5AE8F5214F0AE5B2B6E9B575DA3E61CBD3EA2B4009FA940524DD1305FB6A1FB294F14DF0BEA90BA109ECE1481FDC3FFAE8D60E75141700BE82725371B4873751B2DD960265F788137FACE6DD40
310
B575E4F0A5C99F46629D92131467A41EE11ABD8D4CCC039CA0AFB37C93A08B232B8F0AEFCA1E0A1015DF13FC83322B362463652ECF71D3A8B1A7D1BE65DE1D62C44F22C317D35F574FEB16153BA2D13E543D10A80E74C4A65E78A6B7CBCBD1D5DD9DB59C2DAFACC96C3AB566E3F1C29ADCDD5DBAD7D3C9ED7C822ED74F80A6
310
41755310DE4443F44A9E68373FADF6596BFA0F440AE7BECE2727AE9F4F2B1B53B1E7E00CF0DD1E5C65454A339A4BA2D0FBA05ED2EF0443458F47BDBFCA484CCFE0F2ED7E3DD0013B679C7B5499467F0ECEEADDB9CA85A34CE44B99053949D2C1416DB85DE4B136BB7165FBAC0B7AB3542BED4F8CA182A549847A1319316519
310
95A83A67147B9E5101C47487F2485F1ECE38FD568F839204296D3479219888530154036E6528FBFBC66F98E0D4107563A2D7D9AFF8D389681A08F58D89F22693900A3B407754734FC51C10C010D6D640809EE4718AC1BA3ED4AEDB53CA37283F68805A7E4B72CEB0A4EDEAD5DD8C14059A76AFAA56BA6901E13F32BC51C720
310
12AF41295B5BF61BAD3195181FB506E6B40F4C10AF5AF40EF9F5B159AE5DD1F43C72D635E94310D45C2D49785C5D0B94D3B54AB3C5A38349C0587D338AB48C11CBF339599C02CCA54A70A008A8D03C0B2201D5F9EFCF8F9CE12A9A19CB0410789EB32C63B95ECCF455D658BFE0621A3DA32C5075FB101723D77DAE867E7D0F
310
D90444509B44E2151B4DC2290B065803200FBAA9BE9D392A0603F2D5C2D00D6302A615680F66D2FA166E2079D4C551A54AB758161FCEFD4E450A14704CECFEDF504B0304140006080000B670623B000000000000000000000000350000006662782F38353834323741342D343835462D343034322D383541392D4331303331
310
363839454531452F76657274696365732E62696E504B0304140006080800B670623BF270F1330600000004000000360000006662782F38353834323741342D343835462D343034322D383541392D4331303331363839454531452F747269616E676C65732E62696E636660600000504B0304140006080000B670623B000000
310
000000000000000000370000006662782F38353834323741342D343835462D343034322D383541392D4331303331363839454531452F617474726962757465732E62696E504B0304140006080800B670623B08DA0BD19000000041010000360000006662782F38353834323741342D343835462D343034322D383541392D43
310
31303331363839454531452F6469726563746F72792E786D6C858F410AC3201045AF22B36F53E9A60B35CBEEBAE80D244E44489C6234F4F835464A48035D0DF398FF9F8AF63D0E6CC63039F212F8F9020C7D47C6792B21C5FE7403D62A1188E2E60C98D7234A5830286103A55745067B9D86B8A3CF9C7F90C11DE607FB1443
310
96D7B6A82D282E9A152AD114D5EF2CB866EEE831B8EEA07A7BB5A8D7D61A2BAAEB7FD5F70921FF497D00504B0304140006080800B670623BD9A3B367FE000000A00100003B0000006662782F38353834323741342D343835462D343034322D383541392D4331303331363839454531452F7265736F75726365732F636F7265
310
2E786D6C8D504B6E833010BD0A9A6D65B01D0201194711694FD00B586642AD043BF2A7EAF16B122AB5BB6E6646EFA3797AE2F8B5DC8A4FF4C1383B002B291468B59B8C9D0748F1420E501CA5F0CEC55F3228AC5A708015062966EFD27D83B4B3116DCCA875136EA00A012314FA968F0182FEC045952AC5AC08D7F2AEF455CD
310
58B232D3592745883E07289E4FD609D26370C96B0CA27AB252A464A64D63A6FCD35C0C7A904D73EE467EE664DCD58CD4ED4849D79C5A723ED1B7A61977AF2D6F45B59AA58866F9C9A83DAA8813484E6947182394BFB3BAA7FBBEDEBFD0434FA9A856F91F53BA4FFF342563E38E6F719FB60092E5200F428A6AED2BAF479979
310
AFDDCA6F504B010214000A0000080000B670623B3DEE336E79000000790000001B00000000000000000000000000000000006175746F6465736B2D64657369676E2D7061636B6167652E786D6C504B01021400140006080800B670623BD486FD9CA0000000F40000001300000000000000000000000000B20000005B436F6E
310
74656E745F54797065735D2E786D6C504B01021400140006080800B670623BCA089DFFEC0000007C010000080000000000000000000000000083010000636F72652E786D6C504B01021400140006080800B670623B55019EA25F0000007C000000070000000000000000000000000095020000636E782E786D6C504B010214
310
00140006080800B670623B68FC0B7272010000D40300000C00000000000000000000000000190300006662782F636F72652E786D6C504B01021400140006080800B670623B0F71DDB67E0000009D0000000B00000000000000000000000000B50400006662782F636E782E786D6C504B01021400140006080800B670623BE1
310
34B4FB280100001202000031000000000000000000000000005C0500006662782F38353834323741342D343835462D343034322D383541392D4331303331363839454531452F636F72652E786D6C504B01021400140006080800B670623B1B8617914E010000330300003000000000000000000000000000D3060000666278
310
2F38353834323741342D343835462D343034322D383541392D4331303331363839454531452F636E782E786D6C504B01021400140006080800B670623B5933D422630500003B10000034000000000000000000000000006F0800006662782F38353834323741342D343835462D343034322D383541392D4331303331363839
310
454531452F6F626A656374732E786D6C504B01021400140006080000B670623B0000000000000000000000003500000000000000000000000000240E00006662782F38353834323741342D343835462D343034322D383541392D4331303331363839454531452F76657274696365732E62696E504B01021400140006080800
310
B670623BF270F13306000000040000003600000000000000000000000000770E00006662782F38353834323741342D343835462D343034322D383541392D4331303331363839454531452F747269616E676C65732E62696E504B01021400140006080000B670623B0000000000000000000000003700000000000000000000
310
000000D10E00006662782F38353834323741342D343835462D343034322D383541392D4331303331363839454531452F617474726962757465732E62696E504B01021400140006080800B670623B08DA0BD190000000410100003600000000000000000000000000260F00006662782F38353834323741342D343835462D34
310
3034322D383541392D4331303331363839454531452F6469726563746F72792E786D6C504B01021400140006080800B670623BD9A3B367FE000000A00100003B000000000000000000000000000A1000006662782F38353834323741342D343835462D343034322D383541392D4331303331363839454531452F7265736F75
310
726365732F636F72652E786D6C504B0506000000000E000E0080040000611100000000
  0
XRECORD
  5
113
102
{ACAD_REACTORS
330
110
102
}
330
110
100
AcDbXrecord
280
     1
270
     1
271
     1
  0
XRECORD
  5
114
102
{ACAD_REACTORS
330
110
102
}
330
110
100
AcDbXrecord
280
     1
270
     1
271
     1
  0
CELLSTYLEMAP
  5
67410
102
{ACAD_REACTORS
330
104
102
}
330
104
100
AcDbCellStyleMap
 90
        3
300
CELLSTYLE
  1
TABLEFORMAT_BEGIN
 90
        5
170
     1
 91
        0
 92
    32768
 62
   257
 93
        1
300
CONTENTFORMAT
  1
CONTENTFORMAT_BEGIN
 90
        0
 91
        0
 92
      512
 93
        0
300

 40
0.0
140
1.0
 94
        5
 62
     0
340
11
144
0.25
309
CONTENTFORMAT_END
171
     1
301
MARGIN
  1
CELLMARGIN_BEGIN
 40
0.06
 40
0.06
 40
0.06
 40
0.06
 40
0.18
 40
0.18
309
CELLMARGIN_END
 94
        6
 95
        1
302
GRIDFORMAT
  1
GRIDFORMAT_BEGIN
 90
        0
 91
        1
 62
     0
 92
       -2
340
0
 93
        0
 40
0.045
309
GRIDFORMAT_END
 95
        2
302
GRIDFORMAT
  1
GRIDFORMAT_BEGIN
 90
        0
 91
        1
 62
     0
 92
       -2
340
0
 93
        0
 40
0.045
309
GRIDFORMAT_END
 95
        4
302
GRIDFORMAT
  1
GRIDFORMAT_BEGIN
 90
        0
 91
        1
 62
     0
 92
       -2
340
0
 93
        0
 40
0.045
309
GRIDFORMAT_END
 95
        8
302
GRIDFORMAT
  1
GRIDFORMAT_BEGIN
 90
        0
 91
        1
 62
     0
 92
       -2
340
0
 93
        0
 40
0.045
309
GRIDFORMAT_END
 95
       16
302
GRIDFORMAT
  1
GRIDFORMAT_BEGIN
 90
        0
 91
        1
 62
     0
 92
       -2
340
0
 93
        0
 40
0.045
309
GRIDFORMAT_END
 95
       32
302
GRIDFORMAT
  1
GRIDFORMAT_BEGIN
 90
        0
 91
        1
 62
     0
 92
       -2
340
0
 93
        0
 40
0.045
309
GRIDFORMAT_END
309
TABLEFORMAT_END
  1
CELLSTYLE_BEGIN
 90
        1
 91
        1
300
_TITLE
309
CELLSTYLE_END
300
CELLSTYLE
  1
TABLEFORMAT_BEGIN
 90
        5
170
     1
 91
        0
 92
        0
 62
   257
 93
        1
300
CONTENTFORMAT
  1
CONTENTFORMAT_BEGIN
 90
        0
 91
        0
 92
      512
 93
        0
300

 40
0.0
140
1.0
 94
        5
 62
     0
340
11
144
0.18
309
CONTENTFORMAT_END
171
     1
301
MARGIN
  1
CELLMARGIN_BEGIN
 40
0.06
 40
0.06
 40
0.06
 40
0.06
 40
0.18
 40
0.18
309
CELLMARGIN_END
 94
        6
 95
        1
302
GRIDFORMAT
  1
GRIDFORMAT_BEGIN
 90
        0
 91
        1
 62
     0
 92
       -2
340
0
 93
        0
 40
0.045
309
GRIDFORMAT_END
 95
        2
302
GRIDFORMAT
  1
GRIDFORMAT_BEGIN
 90
        0
 91
        1
 62
     0
 92
       -2
340
0
 93
        0
 40
0.045
309
GRIDFORMAT_END
 95
        4
302
GRIDFORMAT
  1
GRIDFORMAT_BEGIN
 90
        0
 91
        1
 62
     0
 92
       -2
340
0
 93
        0
 40
0.045
309
GRIDFORMAT_END
 95
        8
302
GRIDFORMAT
  1
GRIDFORMAT_BEGIN
 90
        0
 91
        1
 62
     0
 92
       -2
340
0
 93
        0
 40
0.045
309
GRIDFORMAT_END
 95
       16
302
GRIDFORMAT
  1
GRIDFORMAT_BEGIN
 90
        0
 91
        1
 62
     0
 92
       -2
340
0
 93
        0
 40
0.045
309
GRIDFORMAT_END
 95
       32
302
GRIDFORMAT
  1
GRIDFORMAT_BEGIN
 90
        0
 91
        1
 62
     0
 92
       -2
340
0
 93
        0
 40
0.045
309
GRIDFORMAT_END
309
TABLEFORMAT_END
  1
CELLSTYLE_BEGIN
 90
        2
 91
        1
300
_HEADER
309
CELLSTYLE_END
300
CELLSTYLE
  1
TABLEFORMAT_BEGIN
 90
        5
170
     1
 91
        0
 92
        0
 62
   257
 93
        1
300
CONTENTFORMAT
  1
CONTENTFORMAT_BEGIN
 90
        0
 91
        0
 92
      512
 93
        0
300

 40
0.0
140
1.0
 94
        2
 62
     0
340
11
144
0.18
309
CONTENTFORMAT_END
171
     1
301
MARGIN
  1
CELLMARGIN_BEGIN
 40
0.06
 40
0.06
 40
0.06
 40
0.06
 40
0.18
 40
0.18
309
CELLMARGIN_END
 94
        6
 95
        1
302
GRIDFORMAT
  1
GRIDFORMAT_BEGIN
 90
        0
 91
        1
 62
     0
 92
       -2
340
0
 93
        0
 40
0.045
309
GRIDFORMAT_END
 95
        2
302
GRIDFORMAT
  1
GRIDFORMAT_BEGIN
 90
        0
 91
        1
 62
     0
 92
       -2
340
0
 93
        0
 40
0.045
309
GRIDFORMAT_END
 95
        4
302
GRIDFORMAT
  1
GRIDFORMAT_BEGIN
 90
        0
 91
        1
 62
     0
 92
       -2
340
0
 93
        0
 40
0.045
309
GRIDFORMAT_END
 95
        8
302
GRIDFORMAT
  1
GRIDFORMAT_BEGIN
 90
        0
 91
        1
 62
     0
 92
       -2
340
0
 93
        0
 40
0.045
309
GRIDFORMAT_END
 95
       16
302
GRIDFORMAT
  1
GRIDFORMAT_BEGIN
 90
        0
 91
        1
 62
     0
 92
       -2
340
0
 93
        0
 40
0.045
309
GRIDFORMAT_END
 95
       32
302
GRIDFORMAT
  1
GRIDFORMAT_BEGIN
 90
        0
 91
        1
 62
     0
 92
       -2
340
0
 93
        0
 40
0.045
309
GRIDFORMAT_END
309
TABLEFORMAT_END
  1
CELLSTYLE_BEGIN
 90
        3
 91
        2
300
_DATA
309
CELLSTYLE_END
  0
ENDSEC
  0
SECTION
  2
ACDSDATA
 70
     2
 71
     8
  0
ACDSSCHEMA
 90
        0
  1
AcDb_Thumbnail_Schema
  2
AcDbDs::ID
280
    10
 91
        8
  2
Thumbnail_Data
280
    15
 91
        0
101
ACDSRECORD
 95
        0
 90
        1
  2
AcDbDs::TreatedAsObjectData
280
     1
291
     1
101
ACDSRECORD
 95
        0
 90
        2
  2
AcDbDs::Legacy
280
     1
291
     1
101
ACDSRECORD
  1
AcDbDs::ID
 90
        3
  2
AcDs:Indexable
280
     1
291
     1
101
ACDSRECORD
  1
AcDbDs::ID
 90
        4
  2
AcDbDs::HandleAttribute
280
     7
282
     1
  0
ACDSSCHEMA
 90
        1
  1
AcDbDs::TreatedAsObjectDataSchema
  2
AcDbDs::TreatedAsObjectData
280
     1
 91
        0
  0
ACDSSCHEMA
 90
        2
  1
AcDbDs::LegacySchema
  2
AcDbDs::Legacy
280
     1
 91
        0
  0
ACDSSCHEMA
 90
        3
  1
AcDbDs::IndexedPropertySchema
  2
AcDs:Indexable
280
     1
 91
        0
  0
ACDSSCHEMA
 90
        4
  1
AcDbDs::HandleAttributeSchema
  2
AcDbDs::HandleAttribute
280
     7
 91
        1
284
     1
  0
ACDSSCHEMA
 90
        5
  1
AcDb3DSolid_ASM_Data
  2
AcDbDs::ID
280
    10
 91
        8
  2
ASM_Data
280
    15
 91
        0
101
ACDSRECORD
 95
        5
 90
        1
  2
AcDbDs::TreatedAsObjectData
280
     1
291
     1
101
ACDSRECORD
 95
        5
 90
        2
  2
AcDbDs::Legacy
280
     1
291
     1
101
ACDSRECORD
  1
AcDbDs::ID
 90
        3
  2
AcDs:Indexable
280
     1
291
     1
101
ACDSRECORD
  1
AcDbDs::ID
 90
        4
  2
AcDbDs::HandleAttribute
280
     7
282
     1
  0
ACDSRECORD
 90
        0
  2
AcDbDs::ID
280
    10
320
22
  2
Thumbnail_Data
280
    15
 94
     1666
310
89504E470D0A1A0A0000000D49484452000001000000006C0803000000B2ED9CC100000300504C5445212830FFFFFF2128300000000000000000000000000000000000000000000000000000330000660000990000CC0000FF0033000033330033660033990033CC0033FF0066000066330066660066990066CC0066FF0099
310
000099330099660099990099CC0099FF00CC0000CC3300CC6600CC9900CCCC00CCFF00FF0000FF3300FF6600FF9900FFCC00FFFF3300003300333300663300993300CC3300FF3333003333333333663333993333CC3333FF3366003366333366663366993366CC3366FF3399003399333399663399993399CC3399FF33CC00
310
33CC3333CC6633CC9933CCCC33CCFF33FF0033FF3333FF6633FF9933FFCC33FFFF6600006600336600666600996600CC6600FF6633006633336633666633996633CC6633FF6666006666336666666666996666CC6666FF6699006699336699666699996699CC6699FF66CC0066CC3366CC6666CC9966CCCC66CCFF66FF0066
310
FF3366FF6666FF9966FFCC66FFFF9900009900339900669900999900CC9900FF9933009933339933669933999933CC9933FF9966009966339966669966999966CC9966FF9999009999339999669999999999CC9999FF99CC0099CC3399CC6699CC9999CCCC99CCFF99FF0099FF3399FF6699FF9999FFCC99FFFFCC0000CC00
310
33CC0066CC0099CC00CCCC00FFCC3300CC3333CC3366CC3399CC33CCCC33FFCC6600CC6633CC6666CC6699CC66CCCC66FFCC9900CC9933CC9966CC9999CC99CCCC99FFCCCC00CCCC33CCCC66CCCC99CCCCCCCCCCFFCCFF00CCFF33CCFF66CCFF99CCFFCCCCFFFFFF0000FF0033FF0066FF0099FF00CCFF00FFFF3300FF3333
310
FF3366FF3399FF33CCFF33FFFF6600FF6633FF6666FF6699FF66CCFF66FFFF9900FF9933FF9966FF9999FF99CCFF99FFFFCC00FFCC33FFCC66FFCC99FFCCCCFFCCFFFFFF00FFFF33FFFF66FFFF99FFFFCCFFFFFF0000000D0D0D1A1A1A2828283535354343435050505D5D5D6B6B6B787878868686939393A1A1A1AEAEAEBB
310
BBBBC9C9C9D6D6D6E4E4E4F1F1F1FFFFFF0000000000000000000000000000000000000000000000000000000000002E4550F1000001634944415478DAED9BCB72C2301004F7FFFF77EE297044EC5816962E2133DD557040EC615BD25A0FA802000000000000000000804F43F2C842F3110D8FFC67F390D30858E848598D80
310
4712D302DACB640AD4FC14D056396C04AC960D93A7C08280168200042020514021000108400002C205F89C07AC0B28135605140210902D20BD06B4F7D875809C044CF37D969A2DC0A6126E53E094CB28B96788998053215085093876F938B526C0EC31B84B5A3742FC04B48BE2F723DB56C0D6F5BA17622AE0E7D66BB0E537
310
16703481808B9BD30C01BBB28880500117FB80B422D8DB0AA508B80890CAE7507CD4931A9E08D99C896994E8E808A122050C56072102DE8420C04A40A70501084040928073539A80F369F96B2F902AA0967E60FE7F05FC6E8C9B0217AB2104244D01E9CE67CE35205A40F7BF417102E247C07125142540DD6F070B50190AD0
310
FDDDE0EEBAC428FD4136FD7B212B0100000000000000000000F0F77C015593AD5B220BCA400000000049454E44AE4260829E009C02AB882400670008AA1A09C01F803DB482842B007804B0C60D91CF2F9E2F7FB1C23DC1579225015C3F890CE05202B8F9242E001C5FF3827301006B5440D9FC87A325E680CBB4BF3A80E341
310
024800126BCED8DCCAFE0BC89323148B0004169DB1773E315BC236EF7D16429C74C0FC8810FAB822E4686C54F4D26BA9A9E2DD7790D975BD451A1FD53D220800A0797E05CB04E203000DE41FA502A8BD05F61574D1160836078CE58FF12DE253CECF072C2F70EA6F011040B1F60060AF8009C658FE140940F746886607B0F5
310
F2D84660BD1618B88A08D2027100640B8C5D0B2DBC0AC45A06BBF6C2581840B855A0358D18E98F251203406F1A612A80B202BAD38891FF580B500000D49D4988F37FAC813E72214627000A3582A5C338FE00598ED82311F33F3A0000000049454E44AE4260820F467818FD4AC64A010000000049454E44AE42608200187F52
310
539FF6AC0FF2D01229B97F7B56AE64E8787DBF9E93B283504D4929EEDB336DE133B927D0B706F146D8FDD54728002424931276690CDE5FFA471401522320E6FA719CDCC9E90D234F422DA512220CD4066298BF969A4028B717C4D481E25C1BC6C59A99842240E2F24B1F92F8AC20F021F00EFE737AFD0FDF7E00E9E9886BC5
310
1247A50000000049454E44AE426082
  0
ENDSEC
  0
EOF
