  0
SECTION
  2
HEADER
  9
$ACADVER
  1
AC1032
  9
$ACADMAINTVER
 90
      197
  9
$DWGCODEPAGE
  3
ANSI_1252
  9
$LASTSAVEDBY
  1
gregb
  9
$REQUIREDVERSIONS
160
                 0
  9
$INSBASE
 10
0.0
 20
0.0
 30
0.0
  9
$EXTMIN
 10
151742.0143121935
 20
108375.2253516922
 30
-864.1266728261671
  9
$EXTMAX
 10
153518.2541535177
 20
110242.9512799466
 30
0.0280978851196778
  9
$LIMMIN
 10
0.0
 20
0.0
  9
$LIMMAX
 10
12.0
 20
9.0
  9
$ORTHOMODE
 70
     0
  9
$REGENMODE
 70
     1
  9
$FILLMODE
 70
     1
  9
$QTEXTMODE
 70
     0
  9
$MIRRTEXT
 70
     0
  9
$LTSCALE
 40
1.0
  9
$ATTMODE
 70
     1
  9
$TEXTSIZE
 40
0.2
  9
$TRACEWID
 40
0.05
  9
$TEXTSTYLE
  7
Standard
  9
$CLAYER
  8
freecads.com
  9
$CELTYPE
  6
ByLayer
  9
$CECOLOR
 62
   256
  9
$CELTSCALE
 40
1.0
  9
$DISPSILH
 70
     1
  9
$DIMSCALE
 40
1.0
  9
$DIMASZ
 40
0.18
  9
$DIMEXO
 40
0.0625
  9
$DIMDLI
 40
0.38
  9
$DIMRND
 40
0.0
  9
$DIMDLE
 40
0.0
  9
$DIMEXE
 40
0.18
  9
$DIMTP
 40
0.0
  9
$DIMTM
 40
0.0
  9
$DIMTXT
 40
0.18
  9
$DIMCEN
 40
0.09
  9
$DIMTSZ
 40
0.0
  9
$DIMTOL
 70
     0
  9
$DIMLIM
 70
     0
  9
$DIMTIH
 70
     1
  9
$DIMTOH
 70
     1
  9
$DIMSE1
 70
     0
  9
$DIMSE2
 70
     0
  9
$DIMTAD
 70
     0
  9
$DIMZIN
 70
     0
  9
$DIMBLK
  1

  9
$DIMASO
 70
     1
  9
$DIMSHO
 70
     1
  9
$DIMPOST
  1

  9
$DIMAPOST
  1

  9
$DIMALT
 70
     0
  9
$DIMALTD
 70
     2
  9
$DIMALTF
 40
25.4
  9
$DIMLFAC
 40
1.0
  9
$DIMTOFL
 70
     0
  9
$DIMTVP
 40
0.0
  9
$DIMTIX
 70
     0
  9
$DIMSOXD
 70
     0
  9
$DIMSAH
 70
     0
  9
$DIMBLK1
  1

  9
$DIMBLK2
  1

  9
$DIMSTYLE
  2
Standard
  9
$DIMCLRD
 70
     0
  9
$DIMCLRE
 70
     0
  9
$DIMCLRT
 70
     0
  9
$DIMTFAC
 40
1.0
  9
$DIMGAP
 40
0.09
  9
$DIMJUST
 70
     0
  9
$DIMSD1
 70
     0
  9
$DIMSD2
 70
     0
  9
$DIMTOLJ
 70
     1
  9
$DIMTZIN
 70
     0
  9
$DIMALTZ
 70
     0
  9
$DIMALTTZ
 70
     0
  9
$DIMUPT
 70
     0
  9
$DIMDEC
 70
     4
  9
$DIMTDEC
 70
     4
  9
$DIMALTU
 70
     2
  9
$DIMALTTD
 70
     2
  9
$DIMTXSTY
  7
Standard
  9
$DIMAUNIT
 70
     0
  9
$DIMADEC
 70
     0
  9
$DIMALTRND
 40
0.0
  9
$DIMAZIN
 70
     0
  9
$DIMDSEP
 70
    46
  9
$DIMATFIT
 70
     3
  9
$DIMFRAC
 70
     0
  9
$DIMLDRBLK
  1

  9
$DIMLUNIT
 70
     2
  9
$DIMLWD
 70
    -2
  9
$DIMLWE
 70
    -2
  9
$DIMTMOVE
 70
     0
  9
$DIMFXL
 40
1.0
  9
$DIMFXLON
 70
     0
  9
$DIMJOGANG
 40
0.7853981633974483
  9
$DIMTFILL
 70
     0
  9
$DIMTFILLCLR
 70
     0
  9
$DIMARCSYM
 70
     0
  9
$DIMLTYPE
  6

  9
$DIMLTEX1
  6

  9
$DIMLTEX2
  6

  9
$DIMTXTDIRECTION
 70
     0
  9
$LUNITS
 70
     2
  9
$LUPREC
 70
     4
  9
$SKETCHINC
 40
0.1
  9
$FILLETRAD
 40
0.0
  9
$AUNITS
 70
     0
  9
$AUPREC
 70
     0
  9
$MENU
  1
.
  9
$ELEVATION
 40
0.0
  9
$PELEVATION
 40
0.0
  9
$THICKNESS
 40
0.0
  9
$LIMCHECK
 70
     0
  9
$CHAMFERA
 40
0.0
  9
$CHAMFERB
 40
0.0
  9
$CHAMFERC
 40
0.0
  9
$CHAMFERD
 40
0.0
  9
$SKPOLY
 70
     0
  9
$TDCREATE
 40
2458157.454583334
  9
$TDUCREATE
 40
2458157.287916667
  9
$TDUPDATE
 40
2460668.823946759
  9
$TDUUPDATE
 40
2460668.657280093
  9
$TDINDWG
 40
0.2084143519
  9
$TDUSRTIMER
 40
0.2084143519
  9
$USRTIMER
 70
     1
  9
$ANGBASE
 50
0.0
  9
$ANGDIR
 70
     0
  9
$PDMODE
 70
     0
  9
$PDSIZE
 40
0.0
  9
$PLINEWID
 40
0.0
  9
$SPLFRAME
 70
     0
  9
$SPLINETYPE
 70
     6
  9
$SPLINESEGS
 70
     8
  9
$HANDSEED
  5
67412
  9
$SURFTAB1
 70
     6
  9
$SURFTAB2
 70
     6
  9
$SURFTYPE
 70
     6
  9
$SURFU
 70
     6
  9
$SURFV
 70
     6
  9
$UCSBASE
  2

  9
$UCSNAME
  2

  9
$UCSORG
 10
0.0
 20
0.0
 30
0.0
  9
$UCSXDIR
 10
1.0
 20
0.0
 30
0.0
  9
$UCSYDIR
 10
0.0
 20
1.0
 30
0.0
  9
$UCSORTHOREF
  2

  9
$UCSORTHOVIEW
 70
     0
  9
$UCSORGTOP
 10
0.0
 20
0.0
 30
0.0
  9
$UCSORGBOTTOM
 10
0.0
 20
0.0
 30
0.0
  9
$UCSORGLEFT
 10
0.0
 20
0.0
 30
0.0
  9
$UCSORGRIGHT
 10
0.0
 20
0.0
 30
0.0
  9
$UCSORGFRONT
 10
0.0
 20
0.0
 30
0.0
  9
$UCSORGBACK
 10
0.0
 20
0.0
 30
0.0
  9
$PUCSBASE
  2

  9
$PUCSNAME
  2

  9
$PUCSORG
 10
0.0
 20
0.0
 30
0.0
  9
$PUCSXDIR
 10
1.0
 20
0.0
 30
0.0
  9
$PUCSYDIR
 10
0.0
 20
1.0
 30
0.0
  9
$PUCSORTHOREF
  2

  9
$PUCSORTHOVIEW
 70
     0
  9
$PUCSORGTOP
 10
0.0
 20
0.0
 30
0.0
  9
$PUCSORGBOTTOM
 10
0.0
 20
0.0
 30
0.0
  9
$PUCSORGLEFT
 10
0.0
 20
0.0
 30
0.0
  9
$PUCSORGRIGHT
 10
0.0
 20
0.0
 30
0.0
  9
$PUCSORGFRONT
 10
0.0
 20
0.0
 30
0.0
  9
$PUCSORGBACK
 10
0.0
 20
0.0
 30
0.0
  9
$USERI1
 70
     0
  9
$USERI2
 70
     0
  9
$USERI3
 70
     0
  9
$USERI4
 70
     0
  9
$USERI5
 70
     0
  9
$USERR1
 40
0.0
  9
$USERR2
 40
0.0
  9
$USERR3
 40
0.0
  9
$USERR4
 40
0.0
  9
$USERR5
 40
0.0
  9
$WORLDVIEW
 70
     1
  9
$SHADEDGE
 70
     3
  9
$SHADEDIF
 70
    70
  9
$TILEMODE
 70
     1
  9
$MAXACTVP
 70
    64
  9
$PINSBASE
 10
0.0
 20
0.0
 30
0.0
  9
$PLIMCHECK
 70
     0
  9
$PEXTMIN
 10
0.0
 20
0.0
 30
0.0
  9
$PEXTMAX
 10
0.0
 20
0.0
 30
0.0
  9
$PLIMMIN
 10
0.0
 20
0.0
  9
$PLIMMAX
 10
12.0
 20
9.0
  9
$UNITMODE
 70
     0
  9
$VISRETAIN
 70
     1
  9
$PLINEGEN
 70
     0
  9
$PSLTSCALE
 70
     1
  9
$TREEDEPTH
 70
  3020
  9
$CMLSTYLE
  2
Standard
  9
$CMLJUST
 70
     0
  9
$CMLSCALE
 40
1.0
  9
$PROXYGRAPHICS
 70
     1
  9
$MEASUREMENT
 70
     0
  9
$CELWEIGHT
370
    -1
  9
$ENDCAPS
280
     0
  9
$JOINSTYLE
280
     0
  9
$LWDISPLAY
290
     0
  9
$INSUNITS
 70
     1
  9
$HYPERLINKBASE
  1

  9
$STYLESHEET
  1
monochrome.ctb
  9
$XEDIT
290
     1
  9
$CEPSNTYPE
380
     0
  9
$PSTYLEMODE
290
     1
  9
$FINGERPRINTGUID
  2
{358EB121-6EE0-9143-8A3E-6E8E8869FDA6}
  9
$VERSIONGUID
  2
{CBD5682D-8B25-1A41-9B83-429D01564A95}
  9
$EXTNAMES
290
     1
  9
$PSVPSCALE
 40
0.0
  9
$OLESTARTUP
290
     0
  9
$SORTENTS
280
   127
  9
$INDEXCTL
280
     0
  9
$HIDETEXT
280
     1
  9
$XCLIPFRAME
280
     2
  9
$HALOGAP
280
     0
  9
$OBSCOLOR
 70
   257
  9
$OBSLTYPE
280
     0
  9
$INTERSECTIONDISPLAY
280
     0
  9
$INTERSECTIONCOLOR
 70
   257
  9
$DIMASSOC
280
     2
  9
$PROJECTNAME
  1

  9
$CAMERADISPLAY
290
     0
  9
$LENSLENGTH
 40
50.0
  9
$CAMERAHEIGHT
 40
0.0
  9
$STEPSPERSEC
 40
2.0
  9
$STEPSIZE
 40
6.0
  9
$3DDWFPREC
 40
2.0
  9
$PSOLWIDTH
 40
0.25
  9
$PSOLHEIGHT
 40
4.0
  9
$LOFTANG1
 40
1.570796326794896
  9
$LOFTANG2
 40
1.570796326794896
  9
$LOFTMAG1
 40
0.0
  9
$LOFTMAG2
 40
0.0
  9
$LOFTPARAM
 70
     7
  9
$LOFTNORMALS
280
     1
  9
$LATITUDE
 40
37.795
  9
$LONGITUDE
 40
-122.394
  9
$NORTHDIRECTION
 40
0.0
  9
$TIMEZONE
 70
 -8000
  9
$LIGHTGLYPHDISPLAY
280
     1
  9
$TILEMODELIGHTSYNCH
280
     1
  9
$CMATERIAL
347
96
  9
$SOLIDHIST
280
     0
  9
$SHOWHIST
280
     1
  9
$DWFFRAME
280
     2
  9
$DGNFRAME
280
     0
  9
$REALWORLDSCALE
290
     1
  9
$INTERFERECOLOR
 62
     1
  9
$INTERFEREOBJVS
345
A3
  9
$INTERFEREVPVS
346
A0
  9
$CSHADOW
280
     0
  9
$SHADOWPLANELOCATION
 40
0.0
  0
ENDSEC
  0
SECTION
  2
CLASSES
  0
CLASS
  1
ACDBDICTIONARYWDFLT
  2
AcDbDictionaryWithDefault
  3
ObjectDBX Classes
 90
        0
 91
        1
280
     0
281
     0
  0
CLASS
  1
DICTIONARYVAR
  2
AcDbDictionaryVar
  3
ObjectDBX Classes
 90
        0
 91
       27
280
     0
281
     0
  0
CLASS
  1
TABLESTYLE
  2
AcDbTableStyle
  3
ObjectDBX Classes
 90
     4095
 91
        1
280
     0
281
     0
  0
CLASS
  1
MATERIAL
  2
AcDbMaterial
  3
ObjectDBX Classes
 90
     1153
 91
        3
280
     0
281
     0
  0
CLASS
  1
VISUALSTYLE
  2
AcDbVisualStyle
  3
ObjectDBX Classes
 90
     4095
 91
       25
280
     0
281
     0
  0
CLASS
  1
SCALE
  2
AcDbScale
  3
ObjectDBX Classes
 90
     1153
 91
       34
280
     0
281
     0
  0
CLASS
  1
MLEADERSTYLE
  2
AcDbMLeaderStyle
  3
ACDB_MLEADERSTYLE_CLASS
 90
     4095
 91
        1
280
     0
281
     0
  0
CLASS
  1
CELLSTYLEMAP
  2
AcDbCellStyleMap
  3
ObjectDBX Classes
 90
     1152
 91
        1
280
     0
281
     0
  0
CLASS
  1
EXACXREFPANELOBJECT
  2
ExAcXREFPanelObject
  3
EXAC_ESW
 90
     1025
 91
        1
280
     0
281
     0
  0
CLASS
  1
NPOCOLLECTION
  2
AcDbImpNonPersistentObjectsCollection
  3
ObjectDBX Classes
 90
     1153
 91
        1
280
     0
281
     0
  0
CLASS
  1
LAYER_INDEX
  2
AcDbLayerIndex
  3
ObjectDBX Classes
 90
        0
 91
        0
280
     0
281
     0
  0
CLASS
  1
SPATIAL_INDEX
  2
AcDbSpatialIndex
  3
ObjectDBX Classes
 90
        0
 91
        0
280
     0
281
     0
  0
CLASS
  1
IDBUFFER
  2
AcDbIdBuffer
  3
ObjectDBX Classes
 90
        0
 91
        0
280
     0
281
     0
  0
CLASS
  1
ACDBSECTIONVIEWSTYLE
  2
AcDbSectionViewStyle
  3
ObjectDBX Classes
 90
     1025
 91
        2
280
     0
281
     0
  0
CLASS
  1
ACDBDETAILVIEWSTYLE
  2
AcDbDetailViewStyle
  3
ObjectDBX Classes
 90
     1025
 91
        2
280
     0
281
     0
  0
CLASS
  1
SORTENTSTABLE
  2
AcDbSortentsTable
  3
ObjectDBX Classes
 90
        0
 91
        1
280
     0
281
     0
  0
CLASS
  1
ACAD_EVALUATION_GRAPH
  2
AcDbEvalGraph
  3
ObjectDBX Classes
 90
     1153
 91
        0
280
     0
281
     0
  0
CLASS
  1
BLOCKLINEARPARAMETER
  2
AcDbBlockLinearParameter
  3
ObjectDBX Classes
 90
     1153
 91
        0
280
     0
281
     0
  0
CLASS
  1
BLOCKLINEARGRIP
  2
AcDbBlockLinearGrip
  3
ObjectDBX Classes
 90
     1153
 91
        0
280
     0
281
     0
  0
CLASS
  1
BLOCKGRIPLOCATIONCOMPONENT
  2
AcDbBlockGripExpr
  3
ObjectDBX Classes
 90
     1153
 91
        0
280
     0
281
     0
  0
CLASS
  1
BLOCKSTRETCHACTION
  2
AcDbBlockStretchAction
  3
ObjectDBX Classes
 90
     1153
 91
        0
280
     0
281
     0
  0
CLASS
  1
ACDB_DYNAMICBLOCKPURGEPREVENTER_VERSION
  2
AcDbDynamicBlockPurgePreventer
  3
ObjectDBX Classes
 90
     1153
 91
        0
280
     0
281
     0
  0
CLASS
  1
BLOCKVISIBILITYPARAMETER
  2
AcDbBlockVisibilityParameter
  3
ObjectDBX Classes
 90
     1153
 91
        0
280
     0
281
     0
  0
CLASS
  1
BLOCKVISIBILITYGRIP
  2
AcDbBlockVisibilityGrip
  3
ObjectDBX Classes
 90
     1153
 91
        0
280
     0
281
     0
  0
CLASS
  1
ACDB_BLOCKREPRESENTATION_DATA
  2
AcDbBlockRepresentationData
  3
ObjectDBX Classes
 90
     1153
 91
        0
280
     0
281
     0
  0
CLASS
  1
SURFACE
  2
AcDbSurface
  3
ObjectDBX Classes
 90
     4095
 91
        0
280
     0
281
     1
  0
CLASS
  1
ACDBASSOCPERSSUBENTMANAGER
  2
AcDbAssocPersSubentManager
  3
ObjectDBX Classes
 90
     1024
 91
        1
280
     0
281
     0
  0
CLASS
  1
BLOCKARRAYACTION
  2
AcDbBlockArrayAction
  3
ObjectDBX Classes
 90
     1153
 91
        0
280
     0
281
     0
  0
CLASS
  1
BLOCKLOOKUPPARAMETER
  2
AcDbBlockLookupParameter
  3
ObjectDBX Classes
 90
     1153
 91
        0
280
     0
281
     0
  0
CLASS
  1
BLOCKLOOKUPGRIP
  2
AcDbBlockLookupGrip
  3
ObjectDBX Classes
 90
     1153
 91
        0
280
     0
281
     0
  0
CLASS
  1
BLOCKLOOKUPACTION
  2
AcDbBlockLookupAction
  3
ObjectDBX Classes
 90
     1153
 91
        0
280
     0
281
     0
  0
CLASS
  1
WIPEOUT
  2
AcDbWipeout
  3
WipeOut|Product Desc: Object Enabler for WipeOut entity | Company: Autodesk, Inc. | WEB Address: www.autodesk.com
 90
     2175
 91
        0
280
     0
281
     1
  0
CLASS
  1
WIPEOUTVARIABLES
  2
AcDbWipeoutVariables
  3
"WipeOut|Product Desc:     WipeOut Dbx Application|Company:          Autodesk, Inc.|WEB Address:      www.autodesk.com"
 90
        0
 91
        1
280
     0
281
     0
  0
ENDSEC
  0
SECTION
  2
TABLES
  0
TABLE
  2
VPORT
  5
8
330
0
100
AcDbSymbolTable
 70
     1
  0
VPORT
  5
94
330
8
100
AcDbSymbolTableRecord
100
AcDbViewportTableRecord
  2
*Active
 70
     0
 10
0.0
 20
0.0
 11
1.0
 21
1.0
 12
153005.7287298926
 22
109255.5266651574
 13
0.0
 23
0.0
 14
0.5
 24
0.5
 15
0.5
 25
0.5
 16
0.0
 26
0.0
 36
1.0
 17
0.0
 27
0.0
 37
0.0
 40
7595.035487542559
 41
2.293369663941871
 42
50.0
 43
0.0
 44
0.0
 50
0.0
 51
0.0
 71
     0
 72
  1000
 73
     1
 74
     3
 75
     0
 76
     0
 77
     0
 78
     0
281
     0
 65
     1
110
0.0
120
0.0
130
0.0
111
1.0
121
0.0
131
0.0
112
0.0
122
1.0
132
0.0
 79
     0
146
0.0
348
9F
 60
     3
 61
     5
292
     1
282
     1
141
0.0
142
0.0
 63
   250
421
  3355443
1001
ACAD_NAV_VCDISPLAY
1070
     3
  0
ENDTAB
  0
TABLE
  2
LTYPE
  5
5
330
0
100
AcDbSymbolTable
 70
     1
  0
LTYPE
  5
14
330
5
100
AcDbSymbolTableRecord
100
AcDbLinetypeTableRecord
  2
ByBlock
 70
     0
  3

 72
    65
 73
     0
 40
0.0
  0
LTYPE
  5
15
330
5
100
AcDbSymbolTableRecord
100
AcDbLinetypeTableRecord
  2
ByLayer
 70
     0
  3

 72
    65
 73
     0
 40
0.0
  0
LTYPE
  5
16
330
5
100
AcDbSymbolTableRecord
100
AcDbLinetypeTableRecord
  2
Continuous
 70
     0
  3
Solid line
 72
    65
 73
     0
 40
0.0
  0
ENDTAB
  0
TABLE
  2
LAYER
  5
2
102
{ACAD_XDICTIONARY
360
18E
102
}
330
0
100
AcDbSymbolTable
 70
     2
  0
LAYER
  5
10
102
{ACAD_XDICTIONARY
360
E6
102
}
330
2
100
AcDbSymbolTableRecord
100
AcDbLayerTableRecord
  2
0
 70
     0
 62
     7
  6
Continuous
370
    -3
390
F
347
98
348
0
  0
LAYER
  5
204
330
2
100
AcDbSymbolTableRecord
100
AcDbLayerTableRecord
  2
freecads.com
 70
     0
 62
     7
  6
Continuous
370
    -3
390
F
347
98
348
0
1001
AcAecLayerStandard
1000

1000

1001
AcCmTransparency
1071
        0
  0
ENDTAB
  0
TABLE
  2
STYLE
  5
3
330
0
100
AcDbSymbolTable
 70
     2
  0
STYLE
  5
11
330
3
100
AcDbSymbolTableRecord
100
AcDbTextStyleTableRecord
  2
Standard
 70
     0
 40
0.0
 41
1.0
 50
0.0
 71
     0
 42
0.2
  3
arial.ttf
  4

1001
ACAD
1000
Arial
1071
       34
  0
ENDTAB
  0
TABLE
  2
VIEW
  5
6
330
0
100
AcDbSymbolTable
 70
     0
  0
ENDTAB
  0
TABLE
  2
UCS
  5
7
330
0
100
AcDbSymbolTable
 70
     0
  0
ENDTAB
  0
TABLE
  2
APPID
  5
9
330
0
100
AcDbSymbolTable
 70
    31
  0
APPID
  5
12
330
9
100
AcDbSymbolTableRecord
100
AcDbRegAppTableRecord
  2
ACAD
 70
     0
  0
APPID
  5
DD
330
9
100
AcDbSymbolTableRecord
100
AcDbRegAppTableRecord
  2
AcadAnnoPO
 70
     0
  0
APPID
  5
DE
330
9
100
AcDbSymbolTableRecord
100
AcDbRegAppTableRecord
  2
AcadAnnotative
 70
     0
  0
APPID
  5
DF
330
9
100
AcDbSymbolTableRecord
100
AcDbRegAppTableRecord
  2
ACAD_DSTYLE_DIMJAG
 70
     0
  0
APPID
  5
E0
330
9
100
AcDbSymbolTableRecord
100
AcDbRegAppTableRecord
  2
ACAD_DSTYLE_DIMTALN
 70
     0
  0
APPID
  5
107
330
9
100
AcDbSymbolTableRecord
100
AcDbRegAppTableRecord
  2
ACAD_MLEADERVER
 70
     0
  0
APPID
  5
1A6
330
9
100
AcDbSymbolTableRecord
100
AcDbRegAppTableRecord
  2
ACAD_NAV_VCDISPLAY
 70
     0
  0
APPID
  5
205
330
9
100
AcDbSymbolTableRecord
100
AcDbRegAppTableRecord
  2
AcAecLayerStandard
 70
     0
  0
APPID
  5
206
330
9
100
AcDbSymbolTableRecord
100
AcDbRegAppTableRecord
  2
AcCmTransparency
 70
     0
  0
APPID
  5
222
330
9
100
AcDbSymbolTableRecord
100
AcDbRegAppTableRecord
  2
ACAD_PSEXT
 70
     0
  0
APPID
  5
2DA
330
9
100
AcDbSymbolTableRecord
100
AcDbRegAppTableRecord
  2
GradientColor1ACI
 70
     0
  0
APPID
  5
2DB
330
9
100
AcDbSymbolTableRecord
100
AcDbRegAppTableRecord
  2
GradientColor2ACI
 70
     0
  0
APPID
  5
2F3
330
9
100
AcDbSymbolTableRecord
100
AcDbRegAppTableRecord
  2
ACAD_EXEMPT_FROM_CAD_STANDARDS
 70
     0
  0
APPID
  5
A1A
330
9
100
AcDbSymbolTableRecord
100
AcDbRegAppTableRecord
  2
AcDbBlockRepETag
 70
     0
  0
APPID
  5
2282
330
9
100
AcDbSymbolTableRecord
100
AcDbRegAppTableRecord
  2
RAK
 70
     0
  0
APPID
  5
39F4
330
9
100
AcDbSymbolTableRecord
100
AcDbRegAppTableRecord
  2
ACAD_DSTYLE_DIMJOGGED_JOGANGLE_SYMBOL
 70
     0
  0
APPID
  5
39F5
330
9
100
AcDbSymbolTableRecord
100
AcDbRegAppTableRecord
  2
AcDbDynamicBlockGUID
 70
     0
  0
APPID
  5
39F6
330
9
100
AcDbSymbolTableRecord
100
AcDbRegAppTableRecord
  2
ACAD_DSTYLE_DIMBREAK
 70
     0
  0
APPID
  5
3B59
330
9
100
AcDbSymbolTableRecord
100
AcDbRegAppTableRecord
  2
AEC_XDATA_BOUND_SPACE
 70
     0
  0
APPID
  5
75C5
330
9
100
AcDbSymbolTableRecord
100
AcDbRegAppTableRecord
  2
AcDbDynamicBlockTrueName
 70
     0
  0
APPID
  5
75C6
330
9
100
AcDbSymbolTableRecord
100
AcDbRegAppTableRecord
  2
AcDbBlockRepBTag
 70
     0
  0
APPID
  5
75C7
330
9
100
AcDbSymbolTableRecord
100
AcDbRegAppTableRecord
  2
ACAUTHENVIRON
 70
     0
  0
APPID
  5
AA90
330
9
100
AcDbSymbolTableRecord
100
AcDbRegAppTableRecord
  2
Acad_TC
 70
     0
  0
APPID
  5
AA9C
330
9
100
AcDbSymbolTableRecord
100
AcDbRegAppTableRecord
  2
AcDbBlockArrayActionTag
 70
     0
  0
APPID
  5
BEE4
330
9
100
AcDbSymbolTableRecord
100
AcDbRegAppTableRecord
  2
ACAD_DSTYLE_DIMTEXT_FILL
 70
     0
  0
APPID
  5
219E5
330
9
100
AcDbSymbolTableRecord
100
AcDbRegAppTableRecord
  2
AECLAY
 70
     0
  0
APPID
  5
26B46
330
9
100
AcDbSymbolTableRecord
100
AcDbRegAppTableRecord
  2
REVIT
 70
     0
  0
APPID
  5
280A5
330
9
100
AcDbSymbolTableRecord
100
AcDbRegAppTableRecord
  2
HATCHBACKGROUNDCOLOR
 70
     0
  0
APPID
  5
29EE0
330
9
100
AcDbSymbolTableRecord
100
AcDbRegAppTableRecord
  2
ACAD_STEPID
 70
     0
  0
APPID
  5
29EE1
330
9
100
AcDbSymbolTableRecord
100
AcDbRegAppTableRecord
  2
AcLayerTools
 70
     0
  0
APPID
  5
4D86C
330
9
100
AcDbSymbolTableRecord
100
AcDbRegAppTableRecord
  2
PE_URL
 70
     0
  0
ENDTAB
  0
TABLE
  2
DIMSTYLE
  5
A
330
0
100
AcDbSymbolTable
 70
     2
100
AcDbDimStyleTable
 71
     1
340
27
  0
DIMSTYLE
105
27
330
A
100
AcDbSymbolTableRecord
100
AcDbDimStyleTableRecord
  2
Standard
 70
     0
340
11
  0
ENDTAB
  0
TABLE
  2
BLOCK_RECORD
  5
1
330
0
100
AcDbSymbolTable
 70
     2
  0
BLOCK_RECORD
  5
1F
102
{ACAD_XDICTIONARY
360
15D
102
}
330
1
100
AcDbSymbolTableRecord
100
AcDbBlockTableRecord
  2
*Model_Space
340
22
 70
     0
280
     1
281
     0
  0
BLOCK_RECORD
  5
58
330
1
100
AcDbSymbolTableRecord
100
AcDbBlockTableRecord
  2
*Paper_Space
340
59
 70
     0
280
     1
281
     0
  0
BLOCK_RECORD
  5
5D
330
1
100
AcDbSymbolTableRecord
100
AcDbBlockTableRecord
  2
*Paper_Space0
340
5E
 70
     0
280
     1
281
     0
  0
ENDTAB
  0
ENDSEC
  0
SECTION
  2
BLOCKS
  0
BLOCK
  5
20
330
1F
100
AcDbEntity
  8
0
100
AcDbBlockBegin
  2
*Model_Space
 70
     0
 10
0.0
 20
0.0
 30
0.0
  3
*Model_Space
  1

  0
ENDBLK
  5
21
330
1F
100
AcDbEntity
  8
0
100
AcDbBlockEnd
  0
BLOCK
  5
5A
330
58
100
AcDbEntity
 67
     1
  8
0
100
AcDbBlockBegin
  2
*Paper_Space
 70
     0
 10
0.0
 20
0.0
 30
0.0
  3
*Paper_Space
  1

  0
ENDBLK
  5
5B
330
58
100
AcDbEntity
 67
     1
  8
0
100
AcDbBlockEnd
  0
BLOCK
  5
5F
330
5D
100
AcDbEntity
 67
     1
  8
0
100
AcDbBlockBegin
  2
*Paper_Space0
 70
     0
 10
0.0
 20
0.0
 30
0.0
  3
*Paper_Space0
  1

  0
ENDBLK
  5
60
330
5D
100
AcDbEntity
 67
     1
  8
0
100
AcDbBlockEnd
  0
ENDSEC
  0
SECTION
  2
ENTITIES
  0
LINE
  5
60BEA
330
1F
100
AcDbEntity
  8
freecads.com
100
AcDbLine
 10
151849.8176897575
 20
108392.5818814917
 30
0.0
 11
151849.8176897575
 21
108463.2102017366
 31
0.0
  0
LINE
  5
60BEB
330
1F
100
AcDbEntity
  8
freecads.com
100
AcDbLine
 10
151896.4419294028
 20
108460.9245432733
 30
0.0
 11
152276.521220998
 21
109403.4447977833
 31
0.0
  0
LINE
  5
60BEC
330
1F
100
AcDbEntity
  8
freecads.com
100
AcDbLine
 10
151796.5618758044
 20
108465.8209596346
 30
0.0
 11
152176.6411673995
 21
109408.3412141446
 31
0.0
  0
ARC
  5
60BED
330
1F
100
AcDbEntity
  8
freecads.com
100
AcDbCircle
 10
151993.601010273
 20
108681.4317205655
 30
0.0
 40
25.0
100
AcDbArc
 50
69.76605231265018
 51
87.19343786463401
  0
ARC
  5
60BEE
330
1F
100
AcDbEntity
  8
freecads.com
100
AcDbCircle
 10
151825.5761800002
 20
108689.6687959216
 30
0.0
 40
25.0
100
AcDbArc
 50
87.19343786463401
 51
158.7584890415721
  0
ARC
  5
60BEF
330
1F
100
AcDbEntity
  8
freecads.com
100
AcDbCircle
 10
151888.2389257741
 20
108395.5886991737
 30
0.0
 40
329.6430726623658
100
AcDbArc
 50
27.36168590176016
 51
69.76605231265018
  0
LINE
  5
60BF0
330
1F
100
AcDbEntity
  8
freecads.com
100
AcDbLine
 10
151751.5182653665
 20
108568.1492214136
 30
0.0
 11
151802.2746410377
 21
108698.7262945819
 31
0.0
  0
LINE
  5
60BF1
330
1F
100
AcDbEntity
  8
freecads.com
100
AcDbLine
 10
151826.8002840906
 20
108714.6388093211
 30
0.0
 11
151895.5408579906
 21
108711.2689425799
 31
0.0
  0
LINE
  5
60BF2
330
1F
100
AcDbEntity
  8
freecads.com
100
AcDbLine
 10
151936.0335222773
 20
108559.1037364514
 30
0.0
 11
153499.4192033382
 21
108482.4619350901
 31
0.0
  0
LINE
  5
60BF3
330
1F
100
AcDbEntity
  8
freecads.com
100
AcDbLine
 10
151751.5182653665
 20
108568.1492214136
 30
0.0
 11
151836.1534686789
 21
108564.0001528127
 31
0.0
  0
LINE
  5
60BF4
330
1F
100
AcDbEntity
  8
freecads.com
100
AcDbLine
 10
151748.0548681345
 20
108497.5007561607
 30
0.0
 11
151751.5182653665
 21
108568.1492214136
 31
0.0
  0
LINE
  5
60BF5
330
1F
100
AcDbEntity
  8
freecads.com
100
AcDbLine
 10
151755.4130219852
 20
108467.8381984508
 30
0.0
 11
153494.5227869769
 21
108382.5818814917
 31
0.0
  0
LINE
  5
60BF6
330
1F
100
AcDbEntity
  8
freecads.com
100
AcDbLine
 10
151846.1534686789
 20
108402.5818814917
 30
0.0
 11
151786.5618758044
 21
108402.5818814917
 31
0.0
  0
LINE
  5
60BF7
330
1F
100
AcDbEntity
  8
freecads.com
100
AcDbLine
 10
151846.153468679
 20
108402.5818814917
 30
0.0
 11
151846.1534686789
 21
108392.5818814917
 31
0.0
  0
LINE
  5
60BF8
330
1F
100
AcDbEntity
  8
freecads.com
100
AcDbLine
 10
151786.5618758044
 20
108402.5818814917
 30
0.0
 11
151786.5618758044
 21
108392.5818814916
 31
0.0
  0
LINE
  5
60BF9
330
1F
100
AcDbEntity
  8
freecads.com
100
AcDbLine
 10
151836.1534686789
 20
108463.8800623669
 30
0.0
 11
151836.1534686789
 21
108402.5818814917
 31
0.0
  0
LINE
  5
60BFA
330
1F
100
AcDbEntity
  8
freecads.com
100
AcDbLine
 10
151796.5618758044
 20
108465.8209596346
 30
0.0
 11
151796.5618758044
 21
108402.5818814917
 31
0.0
  0
LINE
  5
60BFB
330
1F
100
AcDbEntity
  8
freecads.com
100
AcDbLine
 10
151856.1534686789
 20
108392.5818814916
 30
0.0
 11
151856.1534686789
 21
108382.5818814917
 31
0.0
  0
LINE
  5
60BFC
330
1F
100
AcDbEntity
  8
freecads.com
100
AcDbLine
 10
151776.5618758044
 20
108392.5818814917
 30
0.0
 11
151776.5618758044
 21
108382.5818814917
 31
0.0
  0
LINE
  5
60BFD
330
1F
100
AcDbEntity
  8
freecads.com
100
AcDbLine
 10
151856.1534686789
 20
108392.5818814917
 30
0.0
 11
151776.5618758044
 21
108392.5818814917
 31
0.0
  0
LINE
  5
60BFE
330
1F
100
AcDbEntity
  8
freecads.com
100
AcDbLine
 10
151856.1534686789
 20
108382.5818814917
 30
0.0
 11
151776.5618758044
 21
108382.5818814917
 31
0.0
  0
LINE
  5
60BFF
330
1F
100
AcDbEntity
  8
freecads.com
100
AcDbLine
 10
153510.3494124537
 20
108438.6398084786
 30
0.0
 11
153498.2389559549
 21
108439.2334989625
 31
0.0
  0
LINE
  5
60C00
330
1F
100
AcDbEntity
  8
freecads.com
100
AcDbLine
 10
153509.6868661148
 20
108425.1247887261
 30
0.0
 11
153497.5760974908
 21
108425.7184945113
 31
0.0
  0
LINE
  5
60C01
330
1F
100
AcDbEntity
  8
freecads.com
100
AcDbLine
 10
153509.3555929454
 20
108418.3672788499
 30
0.0
 11
153497.2448243214
 21
108418.960984635
 31
0.0
  0
ARC
  5
60C02
330
1F
100
AcDbEntity
  8
freecads.com
100
AcDbCircle
 10
153521.8227131189
 20
108431.3036033937
 30
0.0
 40
24.88141250001249
100
AcDbArc
 50
161.4152378643992
 51
192.9716878641729
  0
ARC
  5
60C03
330
1F
100
AcDbEntity
  8
freecads.com
100
AcDbCircle
 10
153503.0383898012
 20
108422.0638418124
 30
0.0
 40
6.571915625003297
100
AcDbArc
 50
146.2135378638212
 51
208.1733578644079
  0
ARC
  5
60C04
330
1F
100
AcDbEntity
  8
freecads.com
100
AcDbCircle
 10
153503.893300635
 20
108422.0219315487
 30
0.0
 40
6.571915625003297
100
AcDbArc
 50
326.2135378638212
 51
28.17333786396382
  0
ARC
  5
60C05
330
1F
100
AcDbEntity
  8
freecads.com
100
AcDbCircle
 10
153486.1027968256
 20
108433.0546995962
 30
0.0
 40
24.88141250001249
100
AcDbArc
 50
341.4151378639543
 51
12.97163786460705
  0
LINE
  5
60C06
330
1F
100
AcDbEntity
  8
freecads.com
100
AcDbLine
 10
153498.5699169992
 20
108445.9910241401
 30
0.0
 11
153510.6806856232
 21
108445.3973183549
 31
0.0
  0
ARC
  5
60C07
330
1F
100
AcDbEntity
  8
freecads.com
100
AcDbCircle
 10
153504.0322093096
 20
108442.3363714413
 30
0.0
 40
6.571915625003297
100
AcDbArc
 50
146.2135378638212
 51
208.1733478645795
  0
LINE
  5
60C08
330
1F
100
AcDbEntity
  8
freecads.com
100
AcDbLine
 10
153496.4740854036
 20
108422.3856434765
 30
0.0
 11
153497.467904912
 21
108442.6581731053
 31
0.0
  0
LINE
  5
60C09
330
1F
100
AcDbEntity
  8
freecads.com
100
AcDbLine
 10
153511.4511124158
 20
108441.9726748147
 30
0.0
 11
153510.4572929074
 21
108421.7001451859
 31
0.0
  0
ARC
  5
60C0A
330
1F
100
AcDbEntity
  8
freecads.com
100
AcDbCircle
 10
153504.8871201433
 20
108442.2944611775
 30
0.0
 40
6.571915625003297
100
AcDbArc
 50
326.2135378638212
 51
28.17333786396382
  0
LINE
  5
60C0B
330
1F
100
AcDbEntity
  8
freecads.com
100
AcDbLine
 10
153494.5227869771
 20
108382.5818814917
 30
0.0
 11
153499.4192033384
 21
108482.46193509
 31
0.0
  0
LINE
  5
60C0C
330
1F
100
AcDbEntity
  8
freecads.com
100
AcDbLine
 10
152304.9742859707
 20
109442.0979803562
 30
0.0
 11
152454.794366368
 21
109434.7533558141
 31
0.0
  0
LINE
  5
60C0D
330
1F
100
AcDbEntity
  8
freecads.com
100
AcDbLine
 10
152304.4846443345
 20
109432.1099749964
 30
0.0
 11
152059.7785130183
 21
109444.1061950818
 31
0.0
  0
LINE
  5
60C0E
330
1F
100
AcDbEntity
  8
freecads.com
100
AcDbLine
 10
152303.0157194261
 20
109402.1459589169
 30
0.0
 11
152058.3095881099
 21
109414.1421790022
 31
0.0
  0
LINE
  5
60C0F
330
1F
100
AcDbEntity
  8
freecads.com
100
AcDbLine
 10
152302.5260777899
 20
109392.1579535571
 30
0.0
 11
152304.9742859706
 21
109442.0979803562
 31
0.0
  0
LINE
  5
60C10
330
1F
100
AcDbEntity
  8
freecads.com
100
AcDbLine
 10
152452.3461581875
 20
109384.813329015
 30
0.0
 11
152454.794366368
 21
109434.7533558141
 31
0.0
  0
LINE
  5
60C11
330
1F
100
AcDbEntity
  8
freecads.com
100
AcDbLine
 10
152302.52607779
 20
109392.1579535571
 30
0.0
 11
152452.3461581873
 21
109384.8133290151
 31
0.0
  0
SPLINE
  5
60C12
330
1F
100
AcDbEntity
  8
freecads.com
100
AcDbSpline
210
0.0
220
0.0
230
1.0
 70
     8
 71
     3
 72
    10
 73
     6
 74
     0
 42
0.000000001
 43
0.0000000001
 40
0.0431966734575421
 40
0.0431966734575421
 40
0.0431966734575421
 40
0.0431966734575421
 40
0.0650181843712852
 40
0.1292382006483869
 40
0.1447391876333723
 40
0.1447391876333723
 40
0.1447391876333723
 40
0.1447391876333723
 10
152708.0906442028
 20
108683.4407139984
 30
-864.0655393297151
 10
152709.2823562219
 20
108690.6101187485
 30
-864.0655393297151
 10
152715.5097902135
 20
108718.2591408025
 30
-864.0655393297151
 10
152716.8746169001
 20
108752.4757046539
 30
-864.0655393297151
 10
152721.3736637474
 20
108778.7114671897
 30
-864.0655393297151
 10
152726.4786380595
 20
108807.6487943263
 30
-864.0655393297151
  0
SPLINE
  5
60C13
330
1F
100
AcDbEntity
  8
freecads.com
100
AcDbSpline
210
0.0
220
0.0
230
1.0
 70
     8
 71
     3
 72
    12
 73
     8
 74
     0
 42
0.000000001
 43
0.0000000001
 40
13.50793688741983
 40
13.50793688741983
 40
13.50793688741983
 40
13.50793688741983
 40
14.49086280932742
 40
17.13523516321357
 40
21.72224855236786
 40
27.97516223317517
 40
30.48126440687907
 40
30.48126440687907
 40
30.48126440687907
 40
30.48126440687907
 10
152639.7577112695
 20
108678.8426263121
 30
-864.0655393297151
 10
152640.1418527133
 20
108682.098717548
 30
-864.0655393297151
 10
152641.4407021001
 20
108694.1141196763
 30
-864.0655393297151
 10
152639.4107202571
 20
108721.5444194825
 30
-864.0655393297151
 10
152641.5143106093
 20
108766.5879490177
 30
-864.0655393297151
 10
152632.4729028254
 20
108810.4880986676
 30
-864.0655393297151
 10
152627.0595487739
 20
108839.150991003
 30
-864.0655393297151
 10
152624.9959630622
 20
108873.2802801873
 30
-864.0655393297151
  0
LINE
  5
60C14
330
1F
100
AcDbEntity
  8
freecads.com
100
AcDbLine
 10
152059.6356952959
 20
109441.1929130618
 30
0.0
 11
151888.5241972999
 21
109606.3425980699
 31
0.0
  0
LINE
  5
60C15
330
1F
100
AcDbEntity
  8
freecads.com
100
AcDbLine
 10
152087.8644515305
 20
109441.7435973673
 30
0.0
 11
151902.4134141571
 21
109620.7332080326
 31
0.0
  0
LINE
  5
60C16
330
1F
100
AcDbEntity
  8
freecads.com
100
AcDbLine
 10
151888.5241973
 20
109606.3425980699
 30
0.0
 11
151902.4134141571
 21
109620.7332080325
 31
0.0
  0
LINE
  5
60C17
330
1F
100
AcDbEntity
  8
freecads.com
100
AcDbLine
 10
152058.3095881097
 20
109414.1421790022
 30
0.0
 11
152059.7785130183
 21
109444.1061950818
 31
0.0
  0
ARC
  5
60C18
330
1F
100
AcDbEntity
  8
freecads.com
100
AcDbCircle
 10
152690.4034618385
 20
108780.8395038228
 30
-864.0655393297151
 40
190.6470031980898
100
AcDbArc
 50
320.5256619801569
 51
354.6214911322303
  0
LINE
  5
60C19
330
1F
100
AcDbEntity
  8
freecads.com
100
AcDbLine
 10
152933.921038271
 20
108746.4943214147
 30
-864.0655393297151
 11
152958.2315052557
 21
108732.0188609101
 31
-864.0655393297151
  0
LINE
  5
60C1A
330
1F
100
AcDbEntity
  8
freecads.com
100
AcDbLine
 10
152958.2315052557
 20
108732.0188609101
 30
-864.0655393297151
 11
152961.8151030205
 21
108718.6491742815
 31
-864.0655393297151
  0
LINE
  5
60C1B
330
1F
100
AcDbEntity
  8
freecads.com
100
AcDbLine
 10
152961.8151030205
 20
108718.6491742815
 30
-864.0655393297151
 11
152957.1996217325
 21
108715.3473678896
 31
-864.0655393297151
  0
LINE
  5
60C1C
330
1F
100
AcDbEntity
  8
freecads.com
100
AcDbLine
 10
152957.1996217325
 20
108715.3473678896
 30
-864.0655393297151
 11
152958.1420900196
 21
108714.0299239734
 31
-864.0655393297151
  0
LINE
  5
60C1D
330
1F
100
AcDbEntity
  8
freecads.com
100
AcDbLine
 10
152958.1420900196
 20
108714.0299239734
 30
-864.0655393297151
 11
152956.9183696217
 21
108710.1670185085
 31
-864.0655393297151
  0
LINE
  5
60C1E
330
1F
100
AcDbEntity
  8
freecads.com
100
AcDbLine
 10
152956.9183696217
 20
108710.1670185085
 30
-864.0655393297151
 11
152956.6370957966
 21
108704.9866535934
 31
-864.0655393297151
  0
LINE
  5
60C1F
330
1F
100
AcDbEntity
  8
freecads.com
100
AcDbLine
 10
152956.6370957966
 20
108704.9866535934
 30
-864.0655393297151
 11
152954.094676359
 21
108700.1803610353
 31
-864.0655393297151
  0
LINE
  5
60C20
330
1F
100
AcDbEntity
  8
freecads.com
100
AcDbLine
 10
152954.094676359
 20
108700.1803610353
 30
-864.0655393297151
 11
152949.8554357236
 21
108699.1393718146
 31
-864.0655393297151
  0
LINE
  5
60C21
330
1F
100
AcDbEntity
  8
freecads.com
100
AcDbLine
 10
152949.8554357236
 20
108699.1393718146
 30
-864.0655393297151
 11
152951.0810178279
 21
108696.0327973546
 31
-864.0655393297151
  0
LINE
  5
60C22
330
1F
100
AcDbEntity
  8
freecads.com
100
AcDbLine
 10
152951.0810178279
 20
108696.0327973546
 30
-864.0655393297151
 11
152950.9878593793
 21
108691.9828479441
 31
-864.0655393297151
  0
LINE
  5
60C23
330
1F
100
AcDbEntity
  8
freecads.com
100
AcDbLine
 10
152950.9878593793
 20
108691.9828479441
 30
-864.0655393297151
 11
152948.3504415006
 21
108690.0961014345
 31
-864.0655393297151
  0
LINE
  5
60C24
330
1F
100
AcDbEntity
  8
freecads.com
100
AcDbLine
 10
152948.3504415006
 20
108690.0961014345
 30
-864.0655393297151
 11
152945.6198967868
 21
108684.1594072102
 31
-864.0655393297151
  0
LINE
  5
60C25
330
1F
100
AcDbEntity
  8
freecads.com
100
AcDbLine
 10
152945.6198967868
 20
108684.1594072102
 30
-864.0655393297151
 11
152941.8537352371
 21
108675.4901936533
 31
-864.0655393297151
  0
LINE
  5
60C26
330
1F
100
AcDbEntity
  8
freecads.com
100
AcDbLine
 10
152941.8537352371
 20
108675.4901936533
 30
-864.0655393297151
 11
152935.6364311923
 21
108673.0341445504
 31
-864.0655393297151
  0
LINE
  5
60C27
330
1F
100
AcDbEntity
  8
freecads.com
100
AcDbLine
 10
152935.6364311923
 20
108673.0341445504
 30
-864.0655393297151
 11
152931.9615347707
 21
108675.3843586332
 31
-864.0655393297151
  0
LINE
  5
60C28
330
1F
100
AcDbEntity
  8
freecads.com
100
AcDbLine
 10
152931.9615347707
 20
108675.3843586332
 30
-864.0655393297151
 11
152926.8766859957
 21
108665.7717873555
 31
-864.0655393297151
  0
LINE
  5
60C29
330
1F
100
AcDbEntity
  8
freecads.com
100
AcDbLine
 10
152926.8766859957
 20
108665.7717873555
 30
-864.0655393297151
 11
152925.9397811143
 21
108646.1807759632
 31
-864.0655393297151
  0
LINE
  5
60C2A
330
1F
100
AcDbEntity
  8
freecads.com
100
AcDbLine
 10
152925.9397811143
 20
108646.1807759632
 30
-864.0655393297151
 11
152928.3909453234
 21
108639.9676270431
 31
-864.0655393297151
  0
LINE
  5
60C2B
330
1F
100
AcDbEntity
  8
freecads.com
100
AcDbLine
 10
152928.3909453234
 20
108639.9676270431
 30
-864.0655393297151
 11
152927.7334308462
 21
108632.5264449569
 31
-864.0655393297151
  0
LINE
  5
60C2C
330
1F
100
AcDbEntity
  8
freecads.com
100
AcDbLine
 10
152927.7334308462
 20
108632.5264449569
 30
-864.0655393297151
 11
152923.965429304
 21
108630.8267268589
 31
-864.0655393297151
  0
LINE
  5
60C2D
330
1F
100
AcDbEntity
  8
freecads.com
100
AcDbLine
 10
152923.965429304
 20
108630.8267268589
 30
-864.0655393297151
 11
152923.1179495584
 21
108629.2246385651
 31
-864.0655393297151
  0
LINE
  5
60C2E
330
1F
100
AcDbEntity
  8
freecads.com
100
AcDbLine
 10
152923.1179495584
 20
108629.2246385651
 30
-864.0655393297151
 11
152925.0028861326
 21
108626.5897507326
 31
-864.0655393297151
  0
LINE
  5
60C2F
330
1F
100
AcDbEntity
  8
freecads.com
100
AcDbLine
 10
152925.0028861326
 20
108626.5897507326
 30
-864.0655393297151
 11
152923.2147879919
 21
108619.335597058
 31
-864.0655393297151
  0
LINE
  5
60C30
330
1F
100
AcDbEntity
  8
freecads.com
100
AcDbLine
 10
152923.2147879919
 20
108619.335597058
 30
-864.0655393297151
 11
152920.9536107653
 21
108619.7096677193
 31
-864.0655393297151
  0
SPLINE
  5
60C31
330
1F
100
AcDbEntity
  8
freecads.com
100
AcDbSpline
210
0.0
220
0.0
230
1.0
 70
     8
 71
     3
 72
    11
 73
     7
 74
     0
 42
0.000000001
 43
0.0000000001
 40
20.46541170303364
 40
20.46541170303364
 40
20.46541170303364
 40
20.46541170303364
 40
26.65468551003182
 40
33.20101074039878
 40
37.06808377312571
 40
38.1973034793221
 40
38.1973034793221
 40
38.1973034793221
 40
38.1973034793221
 10
152799.5480723153
 20
109306.0842288092
 30
-864.0655393297151
 10
152804.6946028396
 20
109326.9478422802
 30
-864.0655393297151
 10
152809.4551466988
 20
109373.1606036431
 30
-864.0655393297151
 10
152791.163900789
 20
109420.1005132688
 30
-864.0655393297151
 10
152772.6150882118
 20
109457.8448788272
 30
-864.0655393297151
 10
152761.5979299098
 20
109470.3384968552
 30
-864.0655393297151
 10
152759.0649827082
 20
109473.1299311761
 30
-864.0655393297151
  0
SPLINE
  5
60C32
330
1F
100
AcDbEntity
  8
freecads.com
100
AcDbSpline
210
0.0
220
0.0
230
1.0
 70
     8
 71
     3
 72
    11
 73
     7
 74
     0
 42
0.000000001
 43
0.0000000001
 40
0.0
 40
0.0
 40
0.0
 40
0.0
 40
4.30120768877123
 40
11.76875625128945
 40
18.49704897806118
 40
19.40480274836216
 40
19.40480274836216
 40
19.40480274836216
 40
19.40480274836216
 10
152768.9997122401
 20
109175.6313189201
 30
-864.0655393297151
 10
152773.0588770481
 20
109189.3755773711
 30
-864.0655393297151
 10
152781.5261818076
 20
109242.5809764661
 30
-864.0655393297151
 10
152795.85303786
 20
109287.5414953079
 30
-864.0655393297151
 10
152805.7037194695
 20
109332.333589486
 30
-864.0655393297151
 10
152806.0104653088
 20
109358.0978497472
 30
-864.0655393297151
 10
152805.9798062346
 20
109361.1911368092
 30
-864.0655393297151
  0
SPLINE
  5
60C33
330
1F
100
AcDbEntity
  8
freecads.com
100
AcDbSpline
210
0.0
220
0.0
230
1.0
 70
     8
 71
     3
 72
     8
 73
     4
 74
     0
 42
0.000000001
 43
0.0000000001
 40
64.27884639002726
 40
64.27884639002726
 40
64.27884639002726
 40
64.27884639002726
 40
66.97232208192
 40
66.97232208192
 40
66.97232208192
 40
66.97232208192
 10
152620.8271059827
 20
109017.1770703673
 30
-864.0655393297151
 10
152619.5443386576
 20
109026.0707392268
 30
-864.0655393297151
 10
152618.7033062595
 20
109034.9706876047
 30
-864.0655393297151
 10
152617.9979870431
 20
109043.8923074202
 30
-864.0655393297151
  0
SPLINE
  5
60C34
330
1F
100
AcDbEntity
  8
freecads.com
100
AcDbSpline
210
0.0
220
0.0
230
1.0
 70
     8
 71
     3
 72
    11
 73
     7
 74
     0
 42
0.000000001
 43
0.0000000001
 40
0.0
 40
0.0
 40
0.0
 40
0.0
 40
3.827156797231427
 40
8.375341052981065
 40
15.21839554611442
 40
16.34248656397558
 40
16.34248656397558
 40
16.34248656397558
 40
16.34248656397558
 10
152715.8232417697
 20
109022.2085654665
 30
-864.0655393297151
 10
152717.1670689992
 20
109034.9532872895
 30
-864.0655393297151
 10
152720.1078973891
 20
109062.8438069489
 30
-864.0655393297151
 10
152739.3397539143
 20
109110.22772414
 30
-864.0655393297151
 10
152760.6545779281
 20
109146.685555628
 30
-864.0655393297151
 10
152767.8878140162
 20
109172.0550690797
 30
-864.0655393297151
 10
152768.8106832719
 20
109175.6675821014
 30
-864.0655393297151
  0
LINE
  5
60C35
330
1F
100
AcDbEntity
  8
freecads.com
100
AcDbLine
 10
152920.9536107653
 20
108619.7096677193
 30
-864.0655393297151
 11
152918.599306704
 21
108616.0337906662
 31
-864.0655393297151
  0
LINE
  5
60C36
330
1F
100
AcDbEntity
  8
freecads.com
100
AcDbLine
 10
152918.599306704
 20
108616.0337906662
 30
-864.0655393297151
 11
152918.4111913276
 21
108614.9033751615
 31
-864.0655393297151
  0
SPLINE
  5
60C37
330
1F
100
AcDbEntity
  8
freecads.com
100
AcDbSpline
210
0.0
220
0.0
230
1.0
 70
     8
 71
     3
 72
     9
 73
     5
 74
     0
 42
0.000000001
 43
0.0000000001
 40
19.30115228144445
 40
19.30115228144445
 40
19.30115228144445
 40
19.30115228144445
 40
24.37530930447833
 40
29.1749762837
 40
29.1749762837
 40
29.1749762837
 40
29.1749762837
 10
152733.6207520198
 20
108601.7689387779
 30
-864.0655393297151
 10
152733.6156139577
 20
108609.0776361152
 30
-864.0655393297151
 10
152729.211277066
 20
108623.1440708401
 30
-864.0655393297151
 10
152724.4965026458
 20
108636.5657308481
 30
-864.0655393297151
 10
152722.1889884984
 20
108643.0574720409
 30
-864.0655393297151
  0
SPLINE
  5
60C38
330
1F
100
AcDbEntity
  8
freecads.com
100
AcDbSpline
210
0.0
220
0.0
230
1.0
 70
     8
 71
     3
 72
    15
 73
    11
 74
     0
 42
0.000000001
 43
0.0000000001
 40
0.1033862426706799
 40
0.1033862426706799
 40
0.1033862426706799
 40
0.1033862426706799
 40
0.8846379149879339
 40
1.582882488467127
 40
2.584451426763792
 40
3.689005951601782
 40
4.373868699145188
 40
4.998319242056706
 40
5.743465059704266
 40
6.091626698687198
 40
6.091626698687198
 40
6.091626698687198
 40
6.091626698687198
 10
152706.506264581
 20
108635.3761360603
 30
-864.0655393297151
 10
152706.7648894707
 20
108637.6763395485
 30
-864.0655393297151
 10
152705.8284493212
 20
108639.5354294431
 30
-864.0655393297151
 10
152705.5186950008
 20
108644.0326003729
 30
-864.0655393297151
 10
152711.148466413
 20
108643.3152635611
 30
-864.0655393297151
 10
152713.4415183011
 20
108646.1705787467
 30
-864.0655393297151
 10
152717.8429736979
 20
108648.0508125976
 30
-864.0655393297151
 10
152718.0977920349
 20
108644.332540772
 30
-864.0655393297151
 10
152720.266075119
 20
108642.012133144
 30
-864.0655393297151
 10
152721.7235644862
 20
108642.7766815044
 30
-864.0655393297151
 10
152722.1889884984
 20
108643.0574720409
 30
-864.0655393297151
  0
SPLINE
  5
60C39
330
1F
100
AcDbEntity
  8
freecads.com
100
AcDbSpline
210
0.0
220
0.0
230
1.0
 70
     8
 71
     3
 72
     8
 73
     4
 74
     0
 42
0.000000001
 43
0.0000000001
 40
0.0
 40
0.0
 40
0.0
 40
0.0
 40
0.0017770436571885
 40
0.0017770436571885
 40
0.0017770436571885
 40
0.0017770436571885
 10
152720.3458587373
 20
108646.2910114671
 30
-864.0655393297151
 10
152719.8171422883
 20
108646.5591375798
 30
-864.0655393297151
 10
152719.2884258392
 20
108646.8272636924
 30
-864.0655393297151
 10
152718.7621208643
 20
108647.099660042
 30
-864.0655393297151
  0
LINE
  5
60C3A
330
1F
100
AcDbEntity
  8
freecads.com
100
AcDbLine
 10
152918.4111913276
 20
108614.9033751615
 30
-864.0655393297151
 11
152916.8112085633
 21
108608.7796369914
 31
-864.0655393297151
  0
LINE
  5
60C3B
330
1F
100
AcDbEntity
  8
freecads.com
100
AcDbLine
 10
152916.8112085633
 20
108608.7796369914
 30
-864.0655393297151
 11
152917.0011955459
 21
108602.940558733
 31
-864.0655393297151
  0
LINE
  5
60C3C
330
1F
100
AcDbEntity
  8
freecads.com
100
AcDbLine
 10
152917.0011955459
 20
108602.940558733
 30
-864.0655393297151
 11
152914.268779226
 21
108603.9733582718
 31
-864.0655393297151
  0
SPLINE
  5
60C3D
330
1F
100
AcDbEntity
  8
freecads.com
100
AcDbSpline
210
0.0
220
0.0
230
1.0
 70
     8
 71
     3
 72
    11
 73
     7
 74
     0
 42
0.000000001
 43
0.0000000001
 40
0.0
 40
0.0
 40
0.0
 40
0.0
 40
3.827156797231427
 40
8.375341052981065
 40
15.21839554611442
 40
16.34248656397558
 40
16.34248656397558
 40
16.34248656397558
 40
16.34248656397558
 10
152592.7718778598
 20
108996.4141180086
 30
-864.0655393297151
 10
152597.8437405345
 20
109008.1831457925
 30
-864.0655393297151
 10
152608.9429930407
 20
109033.9384588811
 30
-864.0655393297151
 10
152641.3918041796
 20
109073.4628130117
 30
-864.0655393297151
 10
152672.5812696467
 20
109101.9358255574
 30
-864.0655393297151
 10
152687.0294148005
 20
109124.0080483429
 30
-864.0655393297151
 10
152688.984499714
 20
109127.1828839255
 30
-864.0655393297151
  0
SPLINE
  5
60C3E
330
1F
100
AcDbEntity
  8
freecads.com
100
AcDbSpline
210
0.0
220
0.0
230
1.0
 70
     8
 71
     3
 72
    13
 73
     9
 74
     0
 42
0.000000001
 43
0.0000000001
 40
56.44745001467674
 40
56.44745001467674
 40
56.44745001467674
 40
56.44745001467674
 40
57.73970792381604
 40
60.52102341156868
 40
62.44939735356374
 40
67.50723037154099
 40
73.27922377384031
 40
79.50984639235585
 40
79.50984639235585
 40
79.50984639235585
 40
79.50984639235585
 10
152523.1037628271
 20
108949.3846580488
 30
-864.0655393297151
 10
152519.7406695363
 20
108952.1447853927
 30
-864.0655393297151
 10
152509.7404356252
 20
108961.8581214544
 30
-864.0655393297151
 10
152497.3820706638
 20
108978.910663476
 30
-864.0655393297151
 10
152498.3534072912
 20
109012.3929917413
 30
-864.0655393297151
 10
152507.2268408693
 20
109053.7056220832
 30
-864.0655393297151
 10
152521.101966164
 20
109108.9833903615
 30
-864.0655393297151
 10
152533.9551799083
 20
109146.9480334078
 30
-864.0655393297151
 10
152541.5148966894
 20
109166.3096993026
 30
-864.0655393297151
  0
SPLINE
  5
60C3F
330
1F
100
AcDbEntity
  8
freecads.com
100
AcDbSpline
210
0.0
220
0.0
230
1.0
 70
     8
 71
     3
 72
    12
 73
     8
 74
     0
 42
0.000000001
 43
0.0000000001
 40
0.0
 40
0.0
 40
0.0
 40
0.0
 40
4.30120768877123
 40
11.76875625128945
 40
18.49704897806118
 40
26.65468551003182
 40
32.35617987591453
 40
32.35617987591453
 40
32.35617987591453
 40
32.35617987591453
 10
152689.1542021321
 20
109127.0920651033
 30
-864.0655393297151
 10
152697.1157856384
 20
109139.0082157979
 30
-864.0655393297151
 10
152721.0173454883
 20
109187.2909785553
 30
-864.0655393297151
 10
152748.0624788758
 20
109225.959671563
 30
-864.0655393297151
 10
152781.6901797557
 20
109284.9211756262
 30
-864.0655393297151
 10
152794.0806381364
 20
109362.175207201
 30
-864.0655393297151
 10
152780.1684861191
 20
109402.0951958824
 30
-864.0655393297151
 10
152772.5853900661
 20
109419.4576086885
 30
-864.0655393297151
  0
LINE
  5
60C40
330
1F
100
AcDbEntity
  8
freecads.com
100
AcDbLine
 10
152914.268779226
 20
108603.9733582718
 30
-864.0655393297151
 11
152912.1026004404
 21
108601.4278828848
 31
-864.0655393297151
  0
LINE
  5
60C41
330
1F
100
AcDbEntity
  8
freecads.com
100
AcDbLine
 10
152912.1026004404
 20
108601.4278828848
 30
-864.0655393297151
 11
152914.4587662086
 21
108598.1342800134
 31
-864.0655393297151
  0
SPLINE
  5
60C42
330
1F
100
AcDbEntity
  8
freecads.com
100
AcDbSpline
210
0.0
220
0.0
230
1.0
 70
     8
 71
     3
 72
     9
 73
     5
 74
     0
 42
0.000000001
 43
0.0000000001
 40
0.4318332305298387
 40
0.4318332305298387
 40
0.4318332305298387
 40
0.4318332305298387
 40
0.4354939018439265
 40
0.4794732304131803
 40
0.4794732304131803
 40
0.4794732304131803
 40
0.4794732304131803
 10
152785.3163560579
 20
109556.182526899
 30
-864.0655393297151
 10
152784.2873357036
 20
109555.5328809717
 30
-864.0655393297151
 10
152770.7953640154
 20
109547.2536130193
 30
-864.0655393297151
 10
152755.9556256875
 20
109541.4055272252
 30
-864.0655393297151
 10
152741.9157913144
 20
109536.8279819244
 30
-864.0655393297151
  0
SPLINE
  5
60C43
330
1F
100
AcDbEntity
  8
freecads.com
100
AcDbSpline
210
0.0
220
0.0
230
1.0
 70
     8
 71
     3
 72
    12
 73
     8
 74
     0
 42
0.000000001
 43
0.0000000001
 40
0.3760436177485769
 40
0.3760436177485769
 40
0.3760436177485769
 40
0.3760436177485769
 40
0.423341435910967
 40
0.4504757324212381
 40
0.4729326705907276
 40
0.4979201169213008
 40
0.5000311923770089
 40
0.5000311923770089
 40
0.5000311923770089
 40
0.5000311923770089
 10
152761.9891419224
 20
109469.854700591
 30
-864.0655393297151
 10
152776.258447865
 20
109476.6908423478
 30
-864.0655393297151
 10
152798.2317625064
 20
109488.5107664072
 30
-864.0655393297151
 10
152831.0280452192
 20
109493.0445566489
 30
-864.0655393297151
 10
152851.2632802781
 20
109508.5919061133
 30
-864.0655393297151
 10
152862.340397982
 20
109520.7674704156
 30
-864.0655393297151
 10
152868.4555352737
 20
109527.3925442357
 30
-864.0655393297151
 10
152868.9322907961
 20
109527.9084435858
 30
-864.0655393297151
  0
SPLINE
  5
60C44
330
1F
100
AcDbEntity
  8
freecads.com
100
AcDbSpline
210
0.0
220
0.0
230
1.0
 70
     8
 71
     3
 72
    10
 73
     6
 74
     0
 42
0.000000001
 43
0.0000000001
 40
0.3236217764144585
 40
0.3236217764144585
 40
0.3236217764144585
 40
0.3236217764144585
 40
0.338359933086293
 40
0.3963208872584599
 40
0.4318332305300599
 40
0.4318332305300599
 40
0.4318332305300599
 40
0.4318332305300599
 10
152737.5802121459
 20
109653.0289365738
 30
-864.0655393297151
 10
152740.079565059
 20
109648.8020017851
 30
-864.0655393297151
 10
152752.388606788
 20
109627.942926646
 30
-864.0655393297151
 10
152770.6010311237
 20
109596.8164512913
 30
-864.0655393297151
 10
152782.2985830029
 20
109567.5958146369
 30
-864.0655393297151
 10
152785.3163560579
 20
109556.182526899
 30
-864.0655393297151
  0
SPLINE
  5
60C45
330
1F
100
AcDbEntity
  8
freecads.com
100
AcDbSpline
210
0.0
220
0.0
230
1.0
 70
     8
 71
     3
 72
    13
 73
     9
 74
     0
 42
0.000000001
 43
0.0000000001
 40
0.4491288558947835
 40
0.4491288558947835
 40
0.4491288558947835
 40
0.4491288558947835
 40
0.4504757324214067
 40
0.4729326705909655
 40
0.497920116921471
 40
0.5903333622658711
 40
0.6721374980877517
 40
0.7046518800189393
 40
0.7046518800189393
 40
0.7046518800189393
 40
0.7046518800189393
 10
152868.9322907961
 20
109527.9084435859
 30
-864.0655393297151
 10
152857.032926462
 20
109581.3105705841
 30
-864.0655393297151
 10
152856.2287416708
 20
109589.138267806
 30
-864.0655393297151
 10
152850.496493391
 20
109604.8180457933
 30
-864.0655393297151
 10
152827.0934720773
 20
109644.947937268
 30
-864.0655393297151
 10
152795.3119418608
 20
109703.5485239613
 30
-864.0655393297151
 10
152772.3935005433
 20
109768.9033630736
 30
-864.0655393297151
 10
152753.1202488467
 20
109801.82210322
 30
-864.0655393297151
 10
152747.7394856872
 20
109811.2413304207
 30
-864.0655393297151
  0
LINE
  5
60C46
330
1F
100
AcDbEntity
  8
freecads.com
100
AcDbLine
 10
152914.4587662086
 20
108598.1342800134
 30
-864.0655393297151
 11
152910.3144924001
 21
108594.1737430485
 31
-864.0655393297151
  0
SPLINE
  5
60C47
330
1F
100
AcDbEntity
  8
freecads.com
100
AcDbSpline
210
0.0
220
0.0
230
1.0
 70
     8
 71
     3
 72
    16
 73
    12
 74
     0
 42
0.000000001
 43
0.0000000001
 40
0.0071308767964426
 40
0.0071308767964426
 40
0.0071308767964426
 40
0.0071308767964426
 40
0.0322481590419207
 40
0.071818432080107
 40
0.1089952050513093
 40
0.194396449497402
 40
0.2311752255374583
 40
0.2853077402737914
 40
0.338359933086293
 40
0.3963208872584599
 40
0.4318332305300599
 40
0.4318332305300599
 40
0.4318332305300599
 40
0.4318332305300599
 10
152674.4412971497
 20
109918.7561417319
 30
-864.0655393297151
 10
152666.1406123857
 20
109917.4671561071
 30
-864.0655393297151
 10
152644.9796748313
 20
109913.2463942164
 30
-864.0655393297151
 10
152615.6337423061
 20
109890.0735942715
 30
-864.0655393297151
 10
152607.6505405726
 20
109834.0592873801
 30
-864.0655393297151
 10
152618.3476516334
 20
109781.9391439533
 30
-864.0655393297151
 10
152632.9999917704
 20
109724.9512439396
 30
-864.0655393297151
 10
152637.3882936204
 20
109677.0139066229
 30
-864.0655393297151
 10
152641.9225457262
 20
109622.1911826822
 30
-864.0655393297151
 10
152645.671561054
 20
109573.5034275496
 30
-864.0655393297151
 10
152643.4145632961
 20
109542.1094108017
 30
-864.0655393297151
 10
152641.1379778521
 20
109530.5254887578
 30
-864.0655393297151
  0
SPLINE
  5
60C48
330
1F
100
AcDbEntity
  8
freecads.com
100
AcDbSpline
210
0.0
220
0.0
230
1.0
 70
     8
 71
     3
 72
    15
 73
    11
 74
     0
 42
0.000000001
 43
0.0000000001
 40
0.4491288558947835
 40
0.4491288558947835
 40
0.4491288558947835
 40
0.4491288558947835
 40
0.4504757324214067
 40
0.4729326705909655
 40
0.497920116921471
 40
0.5903333622658711
 40
0.6721374980877517
 40
0.7116802994003513
 40
0.7710104940803833
 40
0.7886945583510704
 40
0.7886945583510704
 40
0.7886945583510704
 40
0.7886945583510704
 10
152703.9735972806
 20
109468.5357052415
 30
-864.0655393297151
 10
152716.622697601
 20
109521.7652299489
 30
-864.0655393297151
 10
152719.3222052287
 20
109529.1565908212
 30
-864.0655393297151
 10
152721.0231335048
 20
109545.7644489333
 30
-864.0655393297151
 10
152717.5231728139
 20
109592.0878757447
 30
-864.0655393297151
 10
152714.5646218914
 20
109658.6862345844
 30
-864.0655393297151
 10
152722.8011388671
 20
109729.8224073773
 30
-864.0655393297151
 10
152717.4424327606
 20
109789.9304488742
 30
-864.0655393297151
 10
152716.9161595685
 20
109828.7976834908
 30
-864.0655393297151
 10
152714.6384189572
 20
109854.3724325046
 30
-864.0655393297151
 10
152714.1154026754
 20
109860.2449230202
 30
-864.0655393297151
  0
LINE
  5
60C49
330
1F
100
AcDbEntity
  8
freecads.com
100
AcDbLine
 10
152910.3144924001
 20
108594.1737430485
 30
-864.0655393297151
 11
152907.3939706035
 21
108594.0761132442
 31
-864.0655393297151
  0
LINE
  5
60C4A
330
1F
100
AcDbEntity
  8
freecads.com
100
AcDbLine
 10
152907.3939706035
 20
108594.0761132442
 30
-864.0655393297151
 11
152905.6990111125
 21
108590.8719366566
 31
-864.0655393297151
  0
SPLINE
  5
60C4B
330
1F
100
AcDbEntity
  8
freecads.com
100
AcDbSpline
210
0.0
220
0.0
230
1.0
 70
     8
 71
     3
 72
    13
 73
     9
 74
     0
 42
0.000000001
 43
0.0000000001
 40
0.330150067607007
 40
0.330150067607007
 40
0.330150067607007
 40
0.330150067607007
 40
0.3637546630043285
 40
0.423341435910967
 40
0.4504757324212381
 40
0.4729326705907276
 40
0.4979201169213008
 40
0.5000311923770089
 40
0.5000311923770089
 40
0.5000311923770089
 40
0.5000311923770089
 10
152536.6917726747
 20
109467.7176851795
 30
-864.0655393297151
 10
152547.7027010029
 20
109465.4210959259
 30
-864.0655393297151
 10
152578.6699449249
 20
109461.290926367
 30
-864.0655393297151
 10
152619.170666381
 20
109465.3202315061
 30
-864.0655393297151
 10
152654.6403933475
 20
109453.7553996015
 30
-864.0655393297151
 10
152679.6368855756
 20
109458.8896171223
 30
-864.0655393297151
 10
152694.9228143284
 20
109464.9959486614
 30
-864.0655393297151
 10
152703.3192521234
 20
109468.2802049812
 30
-864.0655393297151
 10
152703.9735972805
 20
109468.5357052415
 30
-864.0655393297151
  0
SPLINE
  5
60C4C
330
1F
100
AcDbEntity
  8
freecads.com
100
AcDbSpline
210
0.0
220
0.0
230
1.0
 70
     8
 71
     3
 72
    10
 73
     6
 74
     0
 42
0.000000001
 43
0.0000000001
 40
0.4318332305298387
 40
0.4318332305298387
 40
0.4318332305298387
 40
0.4318332305298387
 40
0.4354939018439265
 40
0.5020347344915097
 40
0.5663180923635365
 40
0.5663180923635365
 40
0.5663180923635365
 40
0.5663180923635365
 10
152641.1379778521
 20
109530.5254887577
 30
-864.0655393297151
 10
152639.9284795036
 20
109530.39118885
 30
-864.0655393297151
 10
152616.7136540023
 20
109528.1125337264
 30
-864.0655393297151
 10
152571.621103976
 20
109535.2940783312
 30
-864.0655393297151
 10
152529.0413545045
 20
109543.421697952
 30
-864.0655393297151
 10
152507.9204464761
 20
109546.9871560786
 30
-864.0655393297151
  0
LINE
  5
60C4D
330
1F
100
AcDbEntity
  8
freecads.com
100
AcDbLine
 10
152905.6990111125
 20
108590.8719366566
 30
-864.0655393297151
 11
152907.1127184928
 21
108588.8957638632
 31
-864.0655393297151
  0
LINE
  5
60C4E
330
1F
100
AcDbEntity
  8
freecads.com
100
AcDbLine
 10
152907.1127184928
 20
108588.8957638632
 30
-864.0655393297151
 11
152899.7666707771
 21
108579.6572477128
 31
-864.0655393297151
  0
LINE
  5
60C4F
330
1F
100
AcDbEntity
  8
freecads.com
100
AcDbLine
 10
152899.7666707771
 20
108579.6572477128
 30
-864.0655393297151
 11
152882.5321460082
 21
108556.3739366927
 31
-864.0655393297151
  0
LINE
  5
60C50
330
1F
100
AcDbEntity
  8
freecads.com
100
AcDbLine
 10
152882.5321460082
 20
108556.3739366927
 30
-864.0655393297151
 11
152864.6345334568
 21
108546.5579127334
 31
-864.0655393297151
  0
LINE
  5
60C51
330
1F
100
AcDbEntity
  8
freecads.com
100
AcDbLine
 10
152864.6345334568
 20
108546.5579127334
 30
-864.0655393297151
 11
152848.6144540815
 21
108561.9849517087
 31
-864.0655393297151
  0
LINE
  5
60C52
330
1F
100
AcDbEntity
  8
freecads.com
100
AcDbLine
 10
152848.6144540815
 20
108561.9849517087
 30
-864.0655393297151
 11
152851.25187196
 21
108563.8716982183
 31
-864.0655393297151
  0
LINE
  5
60C53
330
1F
100
AcDbEntity
  8
freecads.com
100
AcDbLine
 10
152851.25187196
 20
108563.8716982183
 30
-864.0655393297151
 11
152846.6326790736
 21
108574.5088810485
 31
-864.0655393297151
  0
LINE
  5
60C54
330
1F
100
AcDbEntity
  8
freecads.com
100
AcDbLine
 10
152846.6326790736
 20
108574.5088810485
 30
-864.0655393297151
 11
152848.9851214282
 21
108585.1542380265
 31
-864.0655393297151
  0
LINE
  5
60C55
330
1F
100
AcDbEntity
  8
freecads.com
100
AcDbLine
 10
152848.9851214282
 20
108585.1542380265
 30
-864.0655393297151
 11
152855.2937123151
 21
108598.6297303032
 31
-864.0655393297151
  0
LINE
  5
60C56
330
1F
100
AcDbEntity
  8
freecads.com
100
AcDbLine
 10
152855.2937123151
 20
108598.6297303032
 30
-864.0655393297151
 11
152853.1200985177
 21
108623.962203988
 31
-864.0655393297151
  0
LINE
  5
60C57
330
1F
100
AcDbEntity
  8
freecads.com
100
AcDbLine
 10
152853.1200985177
 20
108623.962203988
 30
-864.0655393297151
 11
152847.3684503613
 21
108641.7559089927
 31
-864.0655393297151
  0
SPLINE
  5
60C58
330
1F
100
AcDbEntity
  8
freecads.com
100
AcDbSpline
210
0.0
220
0.0
230
1.0
 70
     8
 71
     3
 72
    10
 73
     6
 74
     0
 42
0.000000001
 43
0.0000000001
 40
0.0
 40
0.0
 40
0.0
 40
0.0
 40
0.0311865868366867
 40
0.0859953779069916
 40
0.1095202917001087
 40
0.1095202917001087
 40
0.1095202917001087
 40
0.1095202917001087
 10
152547.1505697292
 20
109644.4474210545
 30
-864.0655393297151
 10
152549.8879911229
 20
109634.3996904004
 30
-864.0655393297151
 10
152557.436287077
 20
109606.6935999831
 30
-864.0655393297151
 10
152559.5159058821
 20
109570.010501735
 30
-864.0655393297151
 10
152560.2473812666
 20
109543.8995596716
 30
-864.0655393297151
 10
152560.4705902166
 20
109536.0634707294
 30
-864.0655393297151
  0
LINE
  5
60C59
330
1F
100
AcDbEntity
  8
freecads.com
100
AcDbLine
 10
152847.3684503613
 20
108641.7559089927
 30
-864.0655393297151
 11
152840.5811952682
 21
108656.8170808271
 31
-864.0655393297151
  0
LINE
  5
60C5A
330
1F
100
AcDbEntity
  8
freecads.com
100
AcDbLine
 10
152840.5811952682
 20
108656.8170808271
 30
-864.0655393297151
 11
152837.5656750307
 21
108659.6389970714
 31
-864.0655393297151
  0
LINE
  5
60C5B
330
1F
100
AcDbEntity
  8
freecads.com
100
AcDbLine
 10
152956.912774602
 20
108731.0754721214
 30
-864.0655393297151
 11
152952.7666608012
 21
108734.0844306154
 31
-864.0655393297151
  0
LINE
  5
60C5C
330
1F
100
AcDbEntity
  8
freecads.com
100
AcDbLine
 10
152952.7666608012
 20
108734.0844306154
 30
-864.0655393297151
 11
152946.5493567565
 21
108731.6283815124
 31
-864.0655393297151
  0
LINE
  5
60C5D
330
1F
100
AcDbEntity
  8
freecads.com
100
AcDbLine
 10
152946.5493567565
 20
108731.6283815124
 30
-864.0655393297151
 11
152934.116598559
 21
108719.7467740094
 31
-864.0655393297151
  0
LINE
  5
60C5E
330
1F
100
AcDbEntity
  8
freecads.com
100
AcDbLine
 10
152934.116598559
 20
108719.7467740094
 30
-864.0655393297151
 11
152927.5248938546
 21
108708.0604122765
 31
-864.0655393297151
  0
LINE
  5
60C5F
330
1F
100
AcDbEntity
  8
freecads.com
100
AcDbLine
 10
152927.5248938546
 20
108708.0604122765
 30
-864.0655393297151
 11
152918.0145073457
 21
108689.3069252806
 31
-864.0655393297151
  0
LINE
  5
60C60
330
1F
100
AcDbEntity
  8
freecads.com
100
AcDbLine
 10
152918.0145073457
 20
108689.3069252806
 30
-864.0655393297151
 11
152915.1926757896
 21
108672.3507878826
 31
-864.0655393297151
  0
LINE
  5
60C61
330
1F
100
AcDbEntity
  8
freecads.com
100
AcDbLine
 10
152915.1926757896
 20
108672.3507878826
 30
-864.0655393297151
 11
152904.8422445474
 21
108624.1172635213
 31
-864.0655393297151
  0
LINE
  5
60C62
330
1F
100
AcDbEntity
  8
freecads.com
100
AcDbLine
 10
152904.8422445474
 20
108624.1172635213
 30
-864.0655393297151
 11
152879.7941662826
 21
108578.3151915401
 31
-864.0655393297151
  0
LINE
  5
60C63
330
1F
100
AcDbEntity
  8
freecads.com
100
AcDbLine
 10
152879.7941662826
 20
108578.3151915401
 30
-864.0655393297151
 11
152853.796163004
 21
108561.7084970132
 31
-864.0655393297151
  0
LINE
  5
60C64
330
1F
100
AcDbEntity
  8
freecads.com
100
AcDbLine
 10
152723.3368119608
 20
108610.8239226369
 30
-864.0655393297151
 11
152698.2034476639
 21
108605.2441019966
 31
-864.0655393297151
  0
LINE
  5
60C65
330
1F
100
AcDbEntity
  8
freecads.com
100
AcDbLine
 10
152698.2034476639
 20
108605.2441019966
 30
-864.0655393297151
 11
152671.2083878756
 21
108592.2245205023
 31
-864.0655393297151
  0
LINE
  5
60C66
330
1F
100
AcDbEntity
  8
freecads.com
100
AcDbLine
 10
152630.20047059
 20
108682.2279775518
 30
-864.0655393297151
 11
152657.2999221592
 21
108668.0117343887
 31
-864.0655393297151
  0
LINE
  5
60C67
330
1F
100
AcDbEntity
  8
freecads.com
100
AcDbLine
 10
152633.587861334
 20
108670.3810765057
 30
-864.0655393297151
 11
152630.20047059
 21
108682.2279775518
 31
-864.0655393297151
  0
SPLINE
  5
60C68
330
1F
100
AcDbEntity
  8
freecads.com
100
AcDbSpline
210
0.0
220
0.0
230
1.0
 70
     8
 71
     3
 72
     9
 73
     5
 74
     0
 42
0.000000001
 43
0.0000000001
 40
19.30115228144445
 40
19.30115228144445
 40
19.30115228144445
 40
19.30115228144445
 40
24.37530930447833
 40
29.1749762837
 40
29.1749762837
 40
29.1749762837
 40
29.1749762837
 10
152918.2809992652
 20
108754.0273989593
 30
-864.0655393297151
 10
152911.8438393422
 20
108757.488620607
 30
-864.0655393297151
 10
152897.3709554856
 20
108760.2811825483
 30
-864.0655393297151
 10
152883.3185363799
 20
108762.4946803412
 30
-864.0655393297151
 10
152876.5088665436
 20
108763.5414477348
 30
-864.0655393297151
  0
LINE
  5
60C69
330
1F
100
AcDbEntity
  8
freecads.com
100
AcDbLine
 10
152628.5069380263
 20
108659.5495261689
 30
-864.0655393297151
 11
152633.587861334
 21
108670.3810765057
 31
-864.0655393297151
  0
LINE
  5
60C6A
330
1F
100
AcDbEntity
  8
freecads.com
100
AcDbLine
 10
152626.1357970672
 20
108650.4104174762
 30
-864.0655393297151
 11
152628.5069380263
 21
108659.5495261689
 31
-864.0655393297151
  0
LINE
  5
60C6B
330
1F
100
AcDbEntity
  8
freecads.com
100
AcDbLine
 10
152621.0545481426
 20
108645.6715427807
 30
-864.0655393297151
 11
152626.1357970672
 21
108650.4104174762
 31
-864.0655393297151
  0
LINE
  5
60C6C
330
1F
100
AcDbEntity
  8
freecads.com
100
AcDbLine
 10
152624.1032974974
 20
108633.4860010365
 30
-864.0655393297151
 11
152621.0545481426
 21
108645.6715427807
 31
-864.0655393297151
  0
LINE
  5
60C6D
330
1F
100
AcDbEntity
  8
freecads.com
100
AcDbLine
 10
152622.469220347
 20
108626.3428353217
 30
-864.0655393297151
 11
152624.1032974974
 21
108633.4860010365
 31
-864.0655393297151
  0
ARC
  5
60C6E
330
1F
100
AcDbEntity
  8
freecads.com
100
AcDbCircle
 10
152649.1683530259
 20
108815.1110427683
 30
-864.0655393297151
 40
190.6470031980898
100
AcDbArc
 50
258.8325898057813
 51
292.9284189560182
  0
ARC
  5
60C6F
330
1F
100
AcDbEntity
  8
freecads.com
100
AcDbCircle
 10
152650.0459137788
 20
108589.3012330453
 30
-864.0655393297151
 40
84.4996880067754
100
AcDbArc
 50
356.6931397598984
 51
8.484819019139427
  0
LINE
  5
60C70
330
1F
100
AcDbEntity
  8
freecads.com
100
AcDbLine
 10
152731.7323978976
 20
108556.8730689238
 30
-864.0655393297151
 11
152732.4154801522
 21
108561.9502226049
 31
-864.0655393297151
  0
LINE
  5
60C71
330
1F
100
AcDbEntity
  8
freecads.com
100
AcDbLine
 10
152732.4154801522
 20
108561.9502226049
 30
-864.0655393297151
 11
152727.3049129219
 21
108566.2594161913
 31
-864.0655393297151
  0
LINE
  5
60C72
330
1F
100
AcDbEntity
  8
freecads.com
100
AcDbLine
 10
152727.3049129219
 20
108566.2594161913
 30
-864.0655393297151
 11
152710.9485601311
 21
108571.5712705416
 31
-864.0655393297151
  0
LINE
  5
60C73
330
1F
100
AcDbEntity
  8
freecads.com
100
AcDbLine
 10
152710.9485601311
 20
108571.5712705416
 30
-864.0655393297151
 11
152697.5339020422
 21
108571.8331289413
 31
-864.0655393297151
  0
LINE
  5
60C74
330
1F
100
AcDbEntity
  8
freecads.com
100
AcDbLine
 10
152697.5339020422
 20
108571.8331289413
 30
-864.0655393297151
 11
152676.513182017
 21
108571.3134601329
 31
-864.0655393297151
  0
LINE
  5
60C75
330
1F
100
AcDbEntity
  8
freecads.com
100
AcDbLine
 10
152676.513182017
 20
108571.3134601329
 30
-864.0655393297151
 11
152660.2465616557
 21
108565.7573472097
 31
-864.0655393297151
  0
LINE
  5
60C76
330
1F
100
AcDbEntity
  8
freecads.com
100
AcDbLine
 10
152660.2465616557
 20
108565.7573472097
 30
-864.0655393297151
 11
152612.8726817082
 21
108551.9979941021
 31
-864.0655393297151
  0
LINE
  5
60C77
330
1F
100
AcDbEntity
  8
freecads.com
100
AcDbLine
 10
152612.8726817082
 20
108551.9979941021
 30
-864.0655393297151
 11
152560.6699552862
 21
108552.3317254831
 31
-864.0655393297151
  0
LINE
  5
60C78
330
1F
100
AcDbEntity
  8
freecads.com
100
AcDbLine
 10
152560.6699552862
 20
108552.3317254831
 30
-864.0655393297151
 11
152533.7209743924
 21
108567.3460821581
 31
-864.0655393297151
  0
LINE
  5
60C79
330
1F
100
AcDbEntity
  8
freecads.com
100
AcDbLine
 10
152734.4049028001
 20
108584.4269900712
 30
-864.0655393297151
 11
152733.1883113203
 21
108556.1593819833
 31
-864.0655393297151
  0
LINE
  5
60C7A
330
1F
100
AcDbEntity
  8
freecads.com
100
AcDbLine
 10
152733.1883113203
 20
108556.1593819833
 30
-864.0655393297151
 11
152723.1166944537
 21
108546.6644766558
 31
-864.0655393297151
  0
LINE
  5
60C7B
330
1F
100
AcDbEntity
  8
freecads.com
100
AcDbLine
 10
152723.1166944537
 20
108546.6644766558
 30
-864.0655393297151
 11
152718.02108138
 21
108549.1623398171
 31
-864.0655393297151
  0
LINE
  5
60C7C
330
1F
100
AcDbEntity
  8
freecads.com
100
AcDbLine
 10
152718.02108138
 20
108549.1623398171
 30
-864.0655393297151
 11
152717.3080908119
 21
108547.7078469864
 31
-864.0655393297151
  0
LINE
  5
60C7D
330
1F
100
AcDbEntity
  8
freecads.com
100
AcDbLine
 10
152717.3080908119
 20
108547.7078469864
 30
-864.0655393297151
 11
152713.3268298052
 21
108546.953465757
 31
-864.0655393297151
  0
LINE
  5
60C7E
330
1F
100
AcDbEntity
  8
freecads.com
100
AcDbLine
 10
152713.3268298052
 20
108546.953465757
 30
-864.0655393297151
 11
152708.6325542573
 21
108544.7446034486
 31
-864.0655393297151
  0
SPLINE
  5
60C7F
330
1F
100
AcDbEntity
  8
freecads.com
100
AcDbSpline
210
0.0
220
0.0
230
1.0
 70
     8
 71
     3
 72
    10
 73
     6
 74
     0
 42
0.000000001
 43
0.0000000001
 40
0.6566073589763841
 40
0.6566073589763841
 40
0.6566073589763841
 40
0.6566073589763841
 40
0.6761852227503035
 40
0.6981353320278697
 40
0.700933172403683
 40
0.700933172403683
 40
0.700933172403683
 40
0.700933172403683
 10
152419.8633188912
 20
109566.075453537
 30
-864.0655393297151
 10
152413.6734891184
 20
109568.0776265319
 30
-864.0655393297151
 10
152400.3243280384
 20
109571.8334441367
 30
-864.0655393297151
 10
152384.3238770479
 20
109571.4256263534
 30
-864.0655393297151
 10
152377.4835269664
 20
109574.9798712362
 30
-864.0655393297151
 10
152376.7335943865
 20
109575.4247593071
 30
-864.0655393297151
  0
LINE
  5
60C80
330
1F
100
AcDbEntity
  8
freecads.com
100
AcDbLine
 10
152708.6325542573
 20
108544.7446034486
 30
-864.0655393297151
 11
152703.1953963117
 21
108544.7038821303
 31
-864.0655393297151
  0
LINE
  5
60C81
330
1F
100
AcDbEntity
  8
freecads.com
100
AcDbLine
 10
152703.1953963117
 20
108544.7038821303
 30
-864.0655393297151
 11
152700.2686632559
 21
108547.9425629332
 31
-864.0655393297151
  0
SPLINE
  5
60C82
330
1F
100
AcDbEntity
  8
freecads.com
100
AcDbSpline
210
-0.0000000000000438
220
-0.0000000000000081
230
1.0
 70
  1064
 71
     3
 72
    11
 73
     7
 74
     5
 42
0.000000001
 43
0.0000000001
 44
0.0000000001
 40
0.0
 40
0.0
 40
0.0
 40
0.0
 40
27.44051503602523
 40
69.98262607287724
 40
98.0508413557453
 40
117.0616523971741
 40
117.0616523971741
 40
117.0616523971741
 40
117.0616523971741
 10
152751.3748198582
 20
109771.5164165419
 30
-864.0655393297151
 10
152751.1403977145
 20
109780.6899699555
 30
-864.065539329715
 10
152750.54254169
 20
109804.0856444704
 30
-864.065539329715
 10
152741.4855399443
 20
109835.7061355885
 30
-864.065539329715
 10
152738.1407954353
 20
109865.5818792493
 30
-864.065539329715
 10
152732.4655576097
 20
109880.2713017528
 30
-864.065539329715
 10
152730.173860386
 20
109886.2029842307
 30
-864.0655393297151
 11
152751.3748198582
 21
109771.5164165419
 31
-864.0655393297151
 11
152749.769606419
 21
109798.9099405075
 31
-864.0655393297151
 11
152741.5595679819
 21
109840.6523228105
 31
-864.0655393297151
 11
152736.4100512193
 21
109868.244118444
 31
-864.0655393297151
 11
152730.173860386
 21
109886.2029842307
 31
-864.0655393297151
  0
SPLINE
  5
60C83
330
1F
100
AcDbEntity
  8
freecads.com
100
AcDbSpline
210
0.0
220
0.0
230
1.0
 70
     8
 71
     3
 72
    13
 73
     9
 74
     0
 42
0.000000001
 43
0.0000000001
 40
0.0
 40
0.0
 40
0.0
 40
0.0
 40
1.689368989229583
 40
3.469460685923518
 40
5.034127261183684
 40
5.507845923771623
 40
5.970699949127217
 40
6.15999908427292
 40
6.15999908427292
 40
6.15999908427292
 40
6.15999908427292
 10
152701.7481285071
 20
109911.3236405866
 30
-864.0655393297151
 10
152707.4297955916
 20
109898.4226924377
 30
-864.0655393297151
 10
152719.0982473661
 20
109871.927987788
 30
-864.0655393297151
 10
152729.3730137257
 20
109831.0320976799
 30
-864.0655393297151
 10
152736.0694430804
 20
109800.1660444239
 30
-864.0655393297151
 10
152733.6308505973
 20
109778.2786788122
 30
-864.0655393297151
 10
152725.8500664718
 20
109772.1294855742
 30
-864.0655393297151
 10
152721.4074459477
 20
109768.9208763536
 30
-864.0655393297151
 10
152720.1210695711
 20
109768.0069454555
 30
-864.0655393297151
  0
SPLINE
  5
60C84
330
1F
100
AcDbEntity
  8
freecads.com
100
AcDbSpline
210
0.0
220
0.0
230
1.0
 70
     8
 71
     3
 72
    16
 73
    12
 74
     0
 42
0.000000001
 43
0.0000000001
 40
0.0
 40
0.0
 40
0.0
 40
0.0
 40
0.0226790126579811
 40
0.0587490422864239
 40
0.0791706463210574
 40
0.102140762069998
 40
0.1208443042946191
 40
0.1336015177176471
 40
0.1372103305127947
 40
0.1490242800600559
 40
0.1774497092892605
 40
0.1774497092892605
 40
0.1774497092892605
 40
0.1774497092892605
 10
152711.5525607042
 20
109907.6970631032
 30
-864.0655393297151
 10
152718.0969313957
 20
109889.1529574986
 30
-864.0655393297151
 10
152723.5159820337
 20
109870.337269794
 30
-864.0655393297151
 10
152732.7117024403
 20
109845.5087592732
 30
-864.0655393297151
 10
152736.7320252798
 20
109819.1540431918
 30
-864.0655393297151
 10
152742.3988043146
 20
109799.5605760878
 30
-864.0655393297151
 10
152741.2265375771
 20
109779.7572204511
 30
-864.0655393297151
 10
152750.3555715607
 20
109771.8156073516
 30
-864.0655393297151
 10
152759.478634733
 20
109766.7738369052
 30
-864.0655393297151
 10
152745.636435744
 20
109750.9683293539
 30
-864.0655393297151
 10
152745.4859691667
 20
109738.0488766085
 30
-864.0655393297151
 10
152745.199312566
 20
109728.9963651899
 30
-864.0655393297151
  0
SPLINE
  5
60C85
330
1F
100
AcDbEntity
  8
freecads.com
100
AcDbSpline
210
0.0
220
0.0
230
1.0
 70
     8
 71
     3
 72
    11
 73
     7
 74
     0
 42
0.000000001
 43
0.0000000001
 40
0.0
 40
0.0
 40
0.0
 40
0.0
 40
0.642633357477585
 40
1.476890404334418
 40
2.113446903444085
 40
2.466109665507595
 40
2.466109665507595
 40
2.466109665507595
 40
2.466109665507595
 10
152615.1942522852
 20
109794.6677395677
 30
-864.0655393297151
 10
152610.4721955725
 20
109797.8795069057
 30
-864.0655393297151
 10
152599.6200352132
 20
109805.2607427337
 30
-864.0655393297151
 10
152598.3569320555
 20
109824.2449993497
 30
-864.0655393297151
 10
152597.5695057505
 20
109840.0683744283
 30
-864.0655393297151
 10
152601.5082096067
 20
109847.2246327193
 30
-864.0655393297151
 10
152615.0068679263
 20
109875.776384304
 30
-864.0655393297151
  0
SPLINE
  5
60C86
330
1F
100
AcDbEntity
  8
freecads.com
100
AcDbSpline
210
-0.000000000000003
220
0.0000000000000011
230
1.0
 70
  1064
 71
     3
 72
    24
 73
    20
 74
    18
 42
0.000000001
 43
0.0000000001
 44
0.0000000001
 40
0.0
 40
0.0
 40
0.0
 40
0.0
 40
60.18185628464295
 40
80.17463196489257
 40
91.36145784186366
 40
99.05255045608651
 40
107.8187959482963
 40
112.7357188858338
 40
124.0438712466708
 40
144.2411411520097
 40
178.5116217366337
 40
204.5810183148642
 40
229.3097899232304
 40
252.7639392753064
 40
274.5332144228123
 40
295.4908032977485
 40
310.9310329061019
 40
326.2331259484491
 40
341.7915912333699
 40
341.7915912333699
 40
341.7915912333699
 40
341.7915912333699
 10
152621.4913089858
 20
109900.3195808705
 30
-864.0655393297151
 10
152611.5013614199
 20
109883.2252765872
 30
-864.0655393297151
 10
152598.1926930124
 20
109860.4521413064
 30
-864.0655393297151
 10
152585.8953418397
 20
109831.0734090378
 30
-864.0655393297153
 10
152579.1478950972
 20
109821.9504909625
 30
-864.0655393297151
 10
152571.9679375174
 20
109811.0447609325
 30
-864.065539329715
 10
152566.3072002399
 20
109823.3308910949
 30
-864.0655393297153
 10
152559.8652671781
 20
109814.6227333522
 30
-864.065539329715
 10
152557.8100302035
 20
109803.6473374152
 30
-864.0655393297155
 10
152554.9528065617
 20
109780.9815271617
 30
-864.065539329715
 10
152538.9285262456
 20
109758.7683833384
 30
-864.0655393297151
 10
152524.8241847364
 20
109734.3404165329
 30
-864.0655393297151
 10
152513.5789206261
 20
109712.0164744153
 30
-864.0655393297153
 10
152511.1561419925
 20
109688.1867488517
 30
-864.065539329715
 10
152517.7774317634
 20
109666.4888427282
 30
-864.065539329715
 10
152531.0166988798
 20
109651.5156179429
 30
-864.0655393297151
 10
152546.469429579
 20
109643.2965426629
 30
-864.0655393297153
 10
152563.1993986204
 20
109643.1524958836
 30
-864.065539329715
 10
152571.0289089753
 20
109650.330205895
 30
-864.065539329715
 10
152574.9761857473
 20
109653.9488750991
 30
-864.0655393297151
 11
152621.4913089858
 21
109900.3195808705
 31
-864.0655393297151
 11
152592.939718785
 21
109847.341637131
 31
-864.0655393297151
 11
152584.2102664207
 21
109829.3553161947
 31
-864.0655393297151
 11
152577.9700386303
 21
109820.0706713267
 31
-864.0655393297151
 11
152572.2288133862
 21
109814.9529337116
 31
-864.0655393297151
 11
152565.3274680976
 21
109820.3583470387
 31
-864.0655393297151
 11
152561.812718503
 21
109816.9199365832
 31
-864.0655393297151
 11
152558.3643449893
 21
109806.1503948136
 31
-864.0655393297151
 11
152554.3993149438
 21
109786.3461465732
 31
-864.0655393297151
 11
152537.9423650659
 21
109756.2856302733
 31
-864.0655393297151
 11
152524.7939326654
 21
109733.7749180819
 31
-864.0655393297151
 11
152514.8683977736
 21
109711.1255052337
 31
-864.0655393297151
 11
152512.7360683685
 21
109687.7684871634
 31
-864.0655393297151
 11
152519.2734528267
 21
109667.0039995729
 31
-864.0655393297151
 11
152533.1327065379
 21
109651.2832611037
 31
-864.0655393297151
 11
152546.9949235932
 21
109644.4832884074
 31
-864.0655393297151
 11
152562.2901505889
 21
109644.9416361225
 31
-864.0655393297151
 11
152574.9761857473
 21
109653.9488750991
 31
-864.0655393297151
  0
LINE
  5
60C87
330
1F
100
AcDbEntity
  8
freecads.com
100
AcDbLine
 10
152700.2686632559
 20
108547.9425629332
 30
-864.0655393297151
 11
152698.1147373947
 21
108545.3904148664
 31
-864.0655393297151
  0
LINE
  5
60C88
330
1F
100
AcDbEntity
  8
freecads.com
100
AcDbLine
 10
152698.1147373947
 20
108545.3904148664
 30
-864.0655393297151
 11
152694.5049056001
 21
108543.5519690177
 31
-864.0655393297151
  0
LINE
  5
60C89
330
1F
100
AcDbEntity
  8
freecads.com
100
AcDbLine
 10
152694.5049056001
 20
108543.5519690177
 30
-864.0655393297151
 11
152691.5931267009
 21
108544.9793193955
 31
-864.0655393297151
  0
LINE
  5
60C8A
330
1F
100
AcDbEntity
  8
freecads.com
100
AcDbLine
 10
152691.5931267009
 20
108544.9793193955
 30
-864.0655393297151
 11
152685.0715324912
 21
108544.5681968954
 31
-864.0655393297151
  0
LINE
  5
60C8B
330
1F
100
AcDbEntity
  8
freecads.com
100
AcDbLine
 10
152685.0715324912
 20
108544.5681968954
 30
-864.0655393297151
 11
152675.6530895658
 21
108543.7731060993
 31
-864.0655393297151
  0
LINE
  5
60C8C
330
1F
100
AcDbEntity
  8
freecads.com
100
AcDbLine
 10
152675.6530895658
 20
108543.7731060993
 30
-864.0655393297151
 11
152670.5425223355
 21
108548.0822996856
 31
-864.0655393297151
  0
LINE
  5
60C8D
330
1F
100
AcDbEntity
  8
freecads.com
100
AcDbLine
 10
152670.5425223355
 20
108548.0822996856
 30
-864.0655393297151
 11
152670.8690815883
 21
108552.4322110641
 31
-864.0655393297151
  0
LINE
  5
60C8E
330
1F
100
AcDbEntity
  8
freecads.com
100
AcDbLine
 10
152670.8690815883
 20
108552.4322110641
 30
-864.0655393297151
 11
152659.9947731865
 21
108552.3507837054
 31
-864.0655393297151
  0
LINE
  5
60C8F
330
1F
100
AcDbEntity
  8
freecads.com
100
AcDbLine
 10
152659.9947731865
 20
108552.3507837054
 30
-864.0655393297151
 11
152642.3021791783
 21
108543.8857003988
 31
-864.0655393297151
  0
LINE
  5
60C90
330
1F
100
AcDbEntity
  8
freecads.com
100
AcDbLine
 10
152642.3021791783
 20
108543.8857003988
 30
-864.0655393297151
 11
152637.9943274562
 21
108538.7814042648
 31
-864.0655393297151
  0
LINE
  5
60C91
330
1F
100
AcDbEntity
  8
freecads.com
100
AcDbLine
 10
152637.9943274562
 20
108538.7814042648
 30
-864.0655393297151
 11
152631.1311718905
 21
108535.8317243144
 31
-864.0655393297151
  0
LINE
  5
60C92
330
1F
100
AcDbEntity
  8
freecads.com
100
AcDbLine
 10
152631.1311718905
 20
108535.8317243144
 30
-864.0655393297151
 11
152627.847939806
 21
108538.3431510632
 31
-864.0655393297151
  0
LINE
  5
60C93
330
1F
100
AcDbEntity
  8
freecads.com
100
AcDbLine
 10
152627.847939806
 20
108538.3431510632
 30
-864.0655393297151
 11
152626.0355588168
 21
108538.3295874757
 31
-864.0655393297151
  0
LINE
  5
60C94
330
1F
100
AcDbEntity
  8
freecads.com
100
AcDbLine
 10
152626.0355588168
 20
108538.3295874757
 30
-864.0655393297151
 11
152624.6095776809
 21
108535.4206018142
 31
-864.0655393297151
  0
LINE
  5
60C95
330
1F
100
AcDbEntity
  8
freecads.com
100
AcDbLine
 10
152624.6095776809
 20
108535.4206018142
 30
-864.0655393297151
 11
152617.3749689298
 21
108533.5549982349
 31
-864.0655393297151
  0
LINE
  5
60C96
330
1F
100
AcDbEntity
  8
freecads.com
100
AcDbLine
 10
152617.3749689298
 20
108533.5549982349
 30
-864.0655393297151
 11
152616.6320700483
 21
108535.7231662546
 31
-864.0655393297151
  0
LINE
  5
60C97
330
1F
100
AcDbEntity
  8
freecads.com
100
AcDbLine
 10
152616.6320700483
 20
108535.7231662546
 30
-864.0655393297151
 11
152612.2793558563
 21
108536.0528613962
 31
-864.0655393297151
  0
LINE
  5
60C98
330
1F
100
AcDbEntity
  8
freecads.com
100
AcDbLine
 10
152612.2793558563
 20
108536.0528613962
 30
-864.0655393297151
 11
152611.1949121029
 21
108535.6824449363
 31
-864.0655393297151
  0
LINE
  5
60C99
330
1F
100
AcDbEntity
  8
freecads.com
100
AcDbLine
 10
152611.1949121029
 20
108535.6824449363
 30
-864.0655393297151
 11
152605.0447471052
 21
108534.1872578168
 31
-864.0655393297151
  0
LINE
  5
60C9A
330
1F
100
AcDbEntity
  8
freecads.com
100
AcDbLine
 10
152605.0447471052
 20
108534.1872578168
 30
-864.0655393297151
 11
152599.9939965018
 21
108531.2511297023
 31
-864.0655393297151
  0
LINE
  5
60C9B
330
1F
100
AcDbEntity
  8
freecads.com
100
AcDbLine
 10
152599.9939965018
 20
108531.2511297023
 30
-864.0655393297151
 11
152599.6075966488
 21
108534.1465517763
 31
-864.0655393297151
  0
LINE
  5
60C9C
330
1F
100
AcDbEntity
  8
freecads.com
100
AcDbLine
 10
152599.6075966488
 20
108534.1465517763
 30
-864.0655393297151
 11
152596.3393187209
 21
108534.8466480999
 31
-864.0655393297151
  0
LINE
  5
60C9D
330
1F
100
AcDbEntity
  8
freecads.com
100
AcDbLine
 10
152596.3393187209
 20
108534.8466480999
 30
-864.0655393297151
 11
152594.5568460454
 21
108531.2104236619
 31
-864.0655393297151
  0
LINE
  5
60C9E
330
1F
100
AcDbEntity
  8
freecads.com
100
AcDbLine
 10
152594.5568460454
 20
108531.2104236619
 30
-864.0655393297151
 11
152589.104717459
 21
108532.9810597984
 31
-864.0655393297151
  0
LINE
  5
60C9F
330
1F
100
AcDbEntity
  8
freecads.com
100
AcDbLine
 10
152589.104717459
 20
108532.9810597984
 30
-864.0655393297151
 11
152587.6338663635
 21
108535.5060501346
 31
-864.0655393297151
  0
LINE
  5
60CA0
330
1F
100
AcDbEntity
  8
freecads.com
100
AcDbLine
 10
152587.6338663635
 20
108535.5060501346
 30
-864.0655393297151
 11
152584.0091043855
 21
108535.4789229594
 31
-864.0655393297151
  0
LINE
  5
60CA1
330
1F
100
AcDbEntity
  8
freecads.com
100
AcDbLine
 10
152584.0091043855
 20
108535.4789229594
 30
-864.0655393297151
 11
152582.9396147888
 21
108533.2971760745
 31
-864.0655393297151
  0
LINE
  5
60CA2
330
1F
100
AcDbEntity
  8
freecads.com
100
AcDbLine
 10
152582.9396147888
 20
108533.2971760745
 30
-864.0655393297151
 11
152571.3223835321
 21
108535.3839284871
 31
-864.0655393297151
  0
LINE
  5
60CA3
330
1F
100
AcDbEntity
  8
freecads.com
100
AcDbLine
 10
152571.3223835321
 20
108535.3839284871
 30
-864.0655393297151
 11
152542.6507705627
 21
108539.5167272718
 31
-864.0655393297151
  0
LINE
  5
60CA4
330
1F
100
AcDbEntity
  8
freecads.com
100
AcDbLine
 10
152542.6507705627
 20
108539.5167272718
 30
-864.0655393297151
 11
152525.5215940932
 21
108550.6194375214
 31
-864.0655393297151
  0
LINE
  5
60CA5
330
1F
100
AcDbEntity
  8
freecads.com
100
AcDbLine
 10
152525.5215940932
 20
108550.6194375214
 30
-864.0655393297151
 11
152531.5072319046
 21
108572.0392557917
 31
-864.0655393297151
  0
LINE
  5
60CA6
330
1F
100
AcDbEntity
  8
freecads.com
100
AcDbLine
 10
152531.5072319046
 20
108572.0392557917
 30
-864.0655393297151
 11
152534.4190108037
 21
108570.6119054139
 31
-864.0655393297151
  0
LINE
  5
60CA7
330
1F
100
AcDbEntity
  8
freecads.com
100
AcDbLine
 10
152534.4190108037
 20
108570.6119054139
 30
-864.0655393297151
 11
152541.593802928
 21
108579.722830694
 31
-864.0655393297151
  0
LINE
  5
60CA8
330
1F
100
AcDbEntity
  8
freecads.com
100
AcDbLine
 10
152541.593802928
 20
108579.722830694
 30
-864.0655393297151
 11
152552.0817039877
 21
108582.6996648488
 31
-864.0655393297151
  0
LINE
  5
60CA9
330
1F
100
AcDbEntity
  8
freecads.com
100
AcDbLine
 10
152552.0817039877
 20
108582.6996648488
 30
-864.0655393297151
 11
152566.9372973695
 21
108583.5354616854
 31
-864.0655393297151
  0
LINE
  5
60CAA
330
1F
100
AcDbEntity
  8
freecads.com
100
AcDbLine
 10
152566.9372973695
 20
108583.5354616854
 30
-864.0655393297151
 11
152588.2097983749
 21
108597.4616787203
 31
-864.0655393297151
  0
LINE
  5
60CAB
330
1F
100
AcDbEntity
  8
freecads.com
100
AcDbLine
 10
152588.2097983749
 20
108597.4616787203
 30
-864.0655393297151
 11
152601.1483316705
 21
108610.9632249454
 31
-864.0655393297151
  0
LINE
  5
60CAC
330
1F
100
AcDbEntity
  8
freecads.com
100
AcDbLine
 10
152601.1483316705
 20
108610.9632249454
 30
-864.0655393297151
 11
152611.1900087614
 21
108624.0807875971
 31
-864.0655393297151
  0
LINE
  5
60CAD
330
1F
100
AcDbEntity
  8
freecads.com
100
AcDbLine
 10
152611.1900087614
 20
108624.0807875971
 30
-864.0655393297151
 11
152612.2445367124
 21
108628.0738496294
 31
-864.0655393297151
  0
LINE
  5
60CAE
330
1F
100
AcDbEntity
  8
freecads.com
100
AcDbLine
 10
152655.2934719272
 20
108646.7487935053
 30
-864.0655393297151
 11
152697.835622086
 21
108651.2711133787
 31
-864.0655393297151
  0
LINE
  5
60CAF
330
1F
100
AcDbEntity
  8
freecads.com
100
AcDbLine
 10
152644.4315493624
 20
108653.0801175126
 30
-864.0655393297151
 11
152705.9819012012
 21
108665.7425750655
 31
-864.0655393297151
  0
LINE
  5
60CB0
330
1F
100
AcDbEntity
  8
freecads.com
100
AcDbLine
 10
152633.5699524143
 20
108658.3640351411
 30
-864.0655393297151
 11
152657.1039008935
 21
108652.1756154457
 31
-864.0655393297151
  0
LINE
  5
60CB1
330
1F
100
AcDbEntity
  8
freecads.com
100
AcDbLine
 10
152720.4643560818
 20
108643.1307852374
 30
-864.0655393297151
 11
152727.705420714
 21
108631.3728297515
 31
-864.0655393297151
  0
LINE
  5
60CB2
330
1F
100
AcDbEntity
  8
freecads.com
100
AcDbLine
 10
152715.0333947994
 20
108655.793433252
 30
-864.0655393297151
 11
152720.4643560818
 21
108643.1307852374
 31
-864.0655393297151
  0
LINE
  5
60CB3
330
1F
100
AcDbEntity
  8
freecads.com
100
AcDbLine
 10
152711.4128624836
 20
108663.9337613932
 30
-864.0655393297151
 11
152715.0333947994
 21
108655.793433252
 31
-864.0655393297151
  0
LINE
  5
60CB4
330
1F
100
AcDbEntity
  8
freecads.com
100
AcDbLine
 10
152712.3180769667
 20
108674.7874052738
 30
-864.0655393297151
 11
152711.4128624836
 21
108663.9337613932
 31
-864.0655393297151
  0
LINE
  5
60CB5
330
1F
100
AcDbEntity
  8
freecads.com
100
AcDbLine
 10
152716.843823766
 20
108684.7365470873
 30
-864.0655393297151
 11
152712.3180769667
 21
108674.7874052738
 31
-864.0655393297151
  0
LINE
  5
60CB6
330
1F
100
AcDbEntity
  8
freecads.com
100
AcDbLine
 10
152692.4046608036
 20
108681.1185388194
 30
-864.0655393297151
 11
152716.843823766
 21
108684.7365470873
 31
-864.0655393297151
  0
LINE
  5
60CB7
330
1F
100
AcDbEntity
  8
freecads.com
100
AcDbLine
 10
152648.9572961616
 20
108672.9784011398
 30
-864.0655393297151
 11
152692.4046608036
 21
108681.1185388194
 31
-864.0655393297151
  0
LINE
  5
60CB8
330
1F
100
AcDbEntity
  8
freecads.com
100
AcDbLine
 10
152667.0602833582
 20
108671.1693970058
 30
-864.0655393297151
 11
152694.2150897701
 21
108672.0738990728
 31
-864.0655393297151
  0
LINE
  5
60CB9
330
1F
100
AcDbEntity
  8
freecads.com
100
AcDbLine
 10
152638.0956992136
 20
108679.309725147
 30
-864.0655393297151
 11
152667.0602833582
 21
108671.1693970058
 31
-864.0655393297151
  0
LINE
  5
60CBA
330
1F
100
AcDbEntity
  8
freecads.com
100
AcDbLine
 10
152637.5690496836
 20
108678.3624560709
 30
-864.0655393297151
 11
152638.0956992136
 21
108679.309725147
 31
-864.0655393297151
  0
LINE
  5
60CBB
330
1F
100
AcDbEntity
  8
freecads.com
100
AcDbLine
 10
152633.5699524143
 20
108657.6024373859
 30
-864.0655393297151
 11
152633.5699524143
 21
108671.1693970058
 31
-864.0655393297151
  0
LINE
  5
60CBC
330
1F
100
AcDbEntity
  8
freecads.com
100
AcDbLine
 10
152634.4748412808
 20
108648.5576071777
 30
-864.0655393297151
 11
152633.5699524143
 21
108657.6024373859
 31
-864.0655393297151
  0
LINE
  5
60CBD
330
1F
100
AcDbEntity
  8
freecads.com
100
AcDbLine
 10
152837.1211048596
 20
108731.8114133494
 30
-864.0655393297151
 11
152853.4136630898
 21
108771.6081710654
 31
-864.0655393297151
  0
LINE
  5
60CBE
330
1F
100
AcDbEntity
  8
freecads.com
100
AcDbLine
 10
152825.3539678116
 20
108742.6650572299
 30
-864.0655393297151
 11
152844.3621694916
 21
108752.6141990436
 31
-864.0655393297151
  0
LINE
  5
60CBF
330
1F
100
AcDbEntity
  8
freecads.com
100
AcDbLine
 10
152815.3341683261
 20
108723.8185256167
 30
-864.0655393297151
 11
152825.3539678116
 21
108742.6650572299
 31
-864.0655393297151
  0
LINE
  5
60CC0
330
1F
100
AcDbEntity
  8
freecads.com
100
AcDbLine
 10
152836.2158903764
 20
108695.6326639013
 30
-864.0655393297151
 11
152841.6468516588
 21
108688.3968378271
 31
-864.0655393297151
  0
LINE
  5
60CC1
330
1F
100
AcDbEntity
  8
freecads.com
100
AcDbLine
 10
152823.543864462
 20
108713.7219433946
 30
-864.0655393297151
 11
152836.2158903764
 21
108695.6326639013
 31
-864.0655393297151
  0
LINE
  5
60CC2
330
1F
100
AcDbEntity
  8
freecads.com
100
AcDbLine
 10
152811.7767274142
 20
108728.1935955431
 30
-864.0655393297151
 11
152823.543864462
 21
108713.7219433946
 31
-864.0655393297151
  0
LINE
  5
60CC3
330
1F
100
AcDbEntity
  8
freecads.com
100
AcDbLine
 10
152819.0177920461
 20
108747.1873771032
 30
-864.0655393297151
 11
152811.7767274142
 21
108728.1935955431
 31
-864.0655393297151
  0
LINE
  5
60CC4
330
1F
100
AcDbEntity
  8
freecads.com
100
AcDbLine
 10
152845.2673839746
 20
108769.7991669314
 30
-864.0655393297151
 11
152819.0177920461
 21
108747.1873771032
 31
-864.0655393297151
  0
LINE
  5
60CC5
330
1F
100
AcDbEntity
  8
freecads.com
100
AcDbLine
 10
152848.8879162907
 20
108790.6019526256
 30
-864.0655393297151
 11
152838.9312082091
 21
108760.7545271847
 31
-864.0655393297151
  0
LINE
  5
60CC6
330
1F
100
AcDbEntity
  8
freecads.com
100
AcDbLine
 10
152857.0341954059
 20
108788.7929484916
 30
-864.0655393297151
 11
152848.8879162907
 21
108790.6019526256
 31
-864.0655393297151
  0
LINE
  5
60CC7
330
1F
100
AcDbEntity
  8
freecads.com
100
AcDbLine
 10
152860.6550533386
 20
108779.7483087449
 30
-864.0655393297151
 11
152857.0341954059
 21
108788.7929484916
 31
-864.0655393297151
  0
LINE
  5
60CC8
330
1F
100
AcDbEntity
  8
freecads.com
100
AcDbLine
 10
152866.9909034874
 20
108782.4618149459
 30
-864.0655393297151
 11
152860.6550533386
 21
108779.7483087449
 31
-864.0655393297151
  0
ARC
  5
60CC9
330
1F
100
AcDbEntity
  8
freecads.com
100
AcDbCircle
 10
152712.158980181
 20
109574.7534912199
 30
-864.0655393297151
 40
108.0835000333396
100
AcDbArc
 50
286.0438725367695
 51
294.0690191792341
  0
ARC
  5
60CCA
330
1F
100
AcDbEntity
  8
freecads.com
100
AcDbCircle
 10
152819.3866578251
 20
109533.9828826185
 30
-864.0655393297151
 40
85.68422368298874
100
AcDbArc
 50
184.559373901232
 51
225.2512051992947
  0
LINE
  5
60CCB
330
1F
100
AcDbEntity
  8
freecads.com
100
AcDbLine
 10
152730.1558997026
 20
109059.0341253606
 30
-864.0655393297151
 11
152728.8140237825
 21
109083.3303121617
 31
-864.0655393297151
  0
ARC
  5
60CCC
330
1F
100
AcDbEntity
  8
freecads.com
100
AcDbCircle
 10
152511.4605362739
 20
108958.5771844229
 30
-864.0655393297151
 40
240.6642037524544
100
AcDbArc
 50
346.1162460924679
 51
24.67151706118281
  0
LINE
  5
60CCD
330
1F
100
AcDbEntity
  8
freecads.com
100
AcDbLine
 10
152566.5589833298
 20
109330.4115657837
 30
-864.0655393297151
 11
152541.5148966894
 21
109166.3096993026
 31
-864.0655393297151
  0
ARC
  5
60CCE
330
1F
100
AcDbEntity
  8
freecads.com
100
AcDbCircle
 10
151622.3175954845
 20
109405.3730620577
 30
-864.0655393297151
 40
947.2122383308633
100
AcDbArc
 50
355.4609187823694
 51
3.519041828699374
  0
ARC
  5
60CCF
330
1F
100
AcDbEntity
  8
freecads.com
100
AcDbCircle
 10
152682.7607694727
 20
109054.1804554547
 30
-864.0655393297151
 40
86.23534688753592
100
AcDbArc
 50
235.3619809501262
 51
253.8388794828704
  0
LINE
  5
60CD0
330
1F
100
AcDbEntity
  8
freecads.com
100
AcDbLine
 10
152742.9590694965
 20
109528.5968362367
 30
-864.0655393297151
 11
152717.5602877776
 21
109524.568372569
 31
-864.0655393297151
  0
ARC
  5
60CD1
330
1F
100
AcDbEntity
  8
freecads.com
100
AcDbCircle
 10
153439.2037312659
 20
109621.0258841758
 30
-864.0655393297151
 40
702.3530151892698
100
AcDbArc
 50
171.1570377423497
 51
187.562009880451
  0
ARC
  5
60CD2
330
1F
100
AcDbEntity
  8
freecads.com
100
AcDbCircle
 10
153387.8063598325
 20
109592.0292504745
 30
-864.0655393297151
 40
657.0417092619699
100
AcDbArc
 50
188.6953167848971
 51
190.6253505052222
  0
LINE
  5
60CD3
330
1F
100
AcDbEntity
  8
freecads.com
100
AcDbLine
 10
152364.875038568
 20
109535.563638491
 30
-864.0655393297151
 11
152330.3588190345
 21
109548.7635855855
 31
-864.0655393297151
  0
LINE
  5
60CD4
330
1F
100
AcDbEntity
  8
freecads.com
100
AcDbLine
 10
152330.3588190345
 20
109548.7635855855
 30
-864.0655393297151
 11
152320.4615861108
 21
109549.4843264562
 31
-864.0655393297151
  0
LINE
  5
60CD5
330
1F
100
AcDbEntity
  8
freecads.com
100
AcDbLine
 10
152289.6758052821
 20
109545.4501970905
 30
-864.0655393297151
 11
152259.6508005148
 21
109570.785940823
 31
-864.0655393297151
  0
LINE
  5
60CD6
330
1F
100
AcDbEntity
  8
freecads.com
100
AcDbLine
 10
152302.9711714238
 20
109564.7538136679
 30
-864.0655393297151
 11
152318.4143183097
 21
109540.9351117564
 31
-864.0655393297151
  0
ARC
  5
60CD7
330
1F
100
AcDbEntity
  8
freecads.com
100
AcDbCircle
 10
152301.1284555395
 20
109544.9606969094
 30
-864.0655393297151
 40
2.80367922913522
100
AcDbArc
 50
321.029800823182
 51
89.03997370231234
  0
LINE
  5
60CD8
330
1F
100
AcDbEntity
  8
freecads.com
100
AcDbLine
 10
152301.1754307246
 20
109547.7639825802
 30
-864.0655393297151
 11
152294.9333660008
 21
109549.6729449474
 31
-864.0655393297151
  0
LINE
  5
60CD9
330
1F
100
AcDbEntity
  8
freecads.com
100
AcDbLine
 10
152294.9333660008
 20
109549.6729449474
 30
-864.0655393297151
 11
152283.2249918716
 21
109560.5557790592
 31
-864.0655393297151
  0
ARC
  5
60CDA
330
1F
100
AcDbEntity
  8
freecads.com
100
AcDbCircle
 10
152269.2825610562
 20
109566.627578
 30
-864.0655393297151
 40
3.03346045682955
100
AcDbArc
 50
130.3691234008492
 51
229.8416083604712
  0
ARC
  5
60CDB
330
1F
100
AcDbEntity
  8
freecads.com
100
AcDbCircle
 10
152285.2902108654
 20
109562.7776595355
 30
-864.0655393297151
 40
3.03346045682955
100
AcDbArc
 50
128.8484167284054
 51
227.0928018132445
  0
LINE
  5
60CDC
330
1F
100
AcDbEntity
  8
freecads.com
100
AcDbLine
 10
152324.6205907775
 20
109539.9600491367
 30
-864.0655393297151
 11
152289.6758052821
 21
109545.4501970905
 31
-864.0655393297151
  0
LINE
  5
60CDD
330
1F
100
AcDbEntity
  8
freecads.com
100
AcDbLine
 10
152331.3522696248
 20
109547.0184638012
 30
-864.0655393297151
 11
152329.4483019058
 21
109543.7880215787
 31
-864.0655393297151
  0
ARC
  5
60CDE
330
1F
100
AcDbEntity
  8
freecads.com
100
AcDbCircle
 10
152325.2383602789
 20
109544.4255297277
 30
-864.0655393297151
 40
3.03346045682955
100
AcDbArc
 50
261.0712907928724
 51
329.4856255565099
  0
LINE
  5
60CDF
330
1F
100
AcDbEntity
  8
freecads.com
100
AcDbLine
 10
152376.7335943865
 20
109575.4247593071
 30
-864.0655393297151
 11
152507.9204464761
 21
109546.9871560786
 31
-864.0655393297151
  0
LINE
  5
60CE0
330
1F
100
AcDbEntity
  8
freecads.com
100
AcDbLine
 10
152772.4275597517
 20
108770.6003890423
 30
-864.0655393297151
 11
152713.1126916658
 21
108818.4256957368
 31
-864.0655393297151
  0
LINE
  5
60CE1
330
1F
100
AcDbEntity
  8
freecads.com
100
AcDbLine
 10
152713.1126916658
 20
108818.4256957368
 30
-864.0655393297151
 11
152627.1570742687
 21
108871.8674906084
 31
-864.0655393297151
  0
LINE
  5
60CE2
330
1F
100
AcDbEntity
  8
freecads.com
100
AcDbLine
 10
152523.1037628271
 20
108949.3846580488
 30
-864.0655393297151
 11
152583.656048242
 21
108901.6711422583
 31
-864.0655393297151
  0
ARC
  5
60CE3
330
1F
100
AcDbEntity
  8
freecads.com
100
AcDbCircle
 10
153259.0532848626
 20
109840.8236541377
 30
-864.0655393297151
 40
1156.792491246559
100
AcDbArc
 50
234.2779703264222
 51
236.8899740879779
  0
ARC
  5
60CE4
330
1F
100
AcDbEntity
  8
freecads.com
100
AcDbCircle
 10
152671.9207027863
 20
109022.4513171878
 30
-864.0655393297151
 40
54.73296775532801
100
AcDbArc
 50
174.9029974004793
 51
225.7747167197977
  0
LINE
  5
60CE5
330
1F
100
AcDbEntity
  8
freecads.com
100
AcDbLine
 10
152622.1223704476
 20
108999.3321224961
 30
-864.0655393297151
 11
152623.9955776484
 21
108998.225039603
 31
-864.0655393297151
  0
ARC
  5
60CE6
330
1F
100
AcDbEntity
  8
freecads.com
100
AcDbCircle
 10
152612.7620399952
 20
108836.5262076242
 30
-864.0655393297151
 40
142.4565523900782
100
AcDbArc
 50
35.80309280107989
 51
73.18092356731821
  0
LINE
  5
60CE7
330
1F
100
AcDbEntity
  8
freecads.com
100
AcDbLine
 10
152617.4041648113
 20
109027.313913873
 30
-864.0655393297151
 11
152623.3458022596
 21
109050.9105718674
 31
-864.0655393297151
  0
ARC
  5
60CE8
330
1F
100
AcDbEntity
  8
freecads.com
100
AcDbCircle
 10
152113.6499688903
 20
108360.6091395016
 30
-864.0655393297151
 40
830.9986416780207
100
AcDbArc
 50
34.215626167129
 51
42.2983103241325
  0
ARC
  5
60CE9
330
1F
100
AcDbEntity
  8
freecads.com
100
AcDbCircle
 10
152949.330297774
 20
108928.8701428223
 30
-864.0655393297151
 40
179.5864264771402
100
AcDbArc
 50
214.215626167129
 51
234.8784432173786
  0
LINE
  5
60CEA
330
1F
100
AcDbEntity
  8
freecads.com
100
AcDbLine
 10
152844.7119094665
 20
108668.878873157
 30
-864.0655393297151
 11
152843.2197948032
 21
108680.5249140007
 31
-864.0655393297151
  0
LINE
  5
60CEB
330
1F
100
AcDbEntity
  8
freecads.com
100
AcDbLine
 10
152843.2197948032
 20
108680.5249140007
 30
-864.0655393297151
 11
152835.2122211545
 21
108705.4872452348
 31
-864.0655393297151
  0
LINE
  5
60CEC
330
1F
100
AcDbEntity
  8
freecads.com
100
AcDbLine
 10
152814.0117134902
 20
108734.0561087892
 30
-864.0655393297151
 11
152808.4725754978
 21
108741.5204054004
 31
-864.0655393297151
  0
LINE
  5
60CED
330
1F
100
AcDbEntity
  8
freecads.com
100
AcDbLine
 10
152808.4725754978
 20
108741.5204054004
 30
-864.0655393297151
 11
152772.4275597517
 21
108770.6003890423
 31
-864.0655393297151
  0
LINE
  5
60CEE
330
1F
100
AcDbEntity
  8
freecads.com
100
AcDbLine
 10
152742.0303772684
 20
109470.8798053531
 30
-864.0655393297151
 11
152569.4916834319
 21
109413.8743304773
 31
-864.0655393297151
  0
ARC
  5
60CEF
330
1F
100
AcDbEntity
  8
freecads.com
100
AcDbCircle
 10
152889.6270744458
 20
108674.5343183441
 30
-864.0655393297151
 40
84.4996880067754
100
AcDbArc
 50
58.38621193536362
 51
70.17789119497358
  0
LINE
  5
60CF0
330
1F
100
AcDbEntity
  8
freecads.com
100
AcDbLine
 10
152905.4322206312
 20
108749.2670372672
 30
-864.0655393297151
 11
152898.4266991358
 21
108724.493198892
 31
-864.0655393297151
  0
LINE
  5
60CF1
330
1F
100
AcDbEntity
  8
freecads.com
100
AcDbLine
 10
152898.4266991358
 20
108724.493198892
 30
-864.0655393297151
 11
152897.0884859926
 21
108694.5523916075
 31
-864.0655393297151
  0
LINE
  5
60CF2
330
1F
100
AcDbEntity
  8
freecads.com
100
AcDbLine
 10
152867.8961179705
 20
108775.2259888716
 30
-864.0655393297151
 11
152866.9909034874
 21
108782.4618149459
 31
-864.0655393297151
  0
LINE
  5
60CF3
330
1F
100
AcDbEntity
  8
freecads.com
100
AcDbLine
 10
152881.1058783034
 20
108762.7475580761
 30
-864.0655393297151
 11
152867.8961179705
 21
108775.2259888716
 31
-864.0655393297151
  0
LINE
  5
60CF4
330
1F
100
AcDbEntity
  8
freecads.com
100
AcDbLine
 10
152881.1058783034
 20
108762.7475580761
 30
-864.0655393297151
 11
152881.1058783034
 21
108762.7475580761
 31
-864.0655393297151
  0
LINE
  5
60CF5
330
1F
100
AcDbEntity
  8
freecads.com
100
AcDbLine
 10
152364.875038568
 20
109535.563638491
 30
-864.0655393297151
 11
152536.6917726748
 21
109467.7176851795
 31
-864.0655393297151
  0
ARC
  5
60CF6
330
1F
100
AcDbEntity
  8
freecads.com
100
AcDbCircle
 10
152604.2222010159
 20
110161.5556766613
 30
-864.0655393297151
 40
73.71887144704695
100
AcDbArc
 50
221.2821811278141
 51
224.4448329076997
  0
ARC
  5
60CF7
330
1F
100
AcDbEntity
  8
freecads.com
100
AcDbCircle
 10
152793.8281325033
 20
110024.8836251871
 30
-864.0655393297151
 40
82.79890292678752
100
AcDbArc
 50
165.5312484393508
 51
246.8085548171107
  0
ARC
  5
60CF8
330
1F
100
AcDbEntity
  8
freecads.com
100
AcDbCircle
 10
152551.0938839625
 20
109792.3850209927
 30
-864.0655393297151
 40
202.1668820108947
100
AcDbArc
 50
27.64953178286698
 51
47.36094303867409
  0
ARC
  5
60CF9
330
1F
100
AcDbEntity
  8
freecads.com
100
AcDbCircle
 10
152677.3813497575
 20
109883.2254657405
 30
-864.0655393297151
 40
42.03011700022148
100
AcDbArc
 50
35.60821691068753
 51
104.4560155355167
  0
ARC
  5
60CFA
330
1F
100
AcDbEntity
  8
freecads.com
100
AcDbCircle
 10
152671.094521921
 20
109860.3797876383
 30
-864.0655393297151
 40
63.68410961086334
100
AcDbArc
 50
93.7863289092454
 51
141.1594826754475
  0
ARC
  5
60CFB
330
1F
100
AcDbEntity
  8
freecads.com
100
AcDbCircle
 10
152678.2774863759
 20
109894.0522219582
 30
-864.0655393297151
 40
25.0
100
AcDbArc
 50
67.26559234155762
 51
98.82677144012978
  0
LINE
  5
60CFC
330
1F
100
AcDbEntity
  8
freecads.com
100
AcDbLine
 10
152701.7481285071
 20
109911.3236405866
 30
-864.0655393297151
 11
152687.9389859169
 21
109917.1098763616
 31
-864.0655393297151
  0
LINE
  5
60CFD
330
1F
100
AcDbEntity
  8
freecads.com
100
AcDbLine
 10
152310.2132393308
 20
109603.0464657574
 30
-864.0655393297151
 11
152313.4179823884
 21
109572.9539915833
 31
-864.0655393297151
  0
ARC
  5
60CFE
330
1F
100
AcDbEntity
  8
freecads.com
100
AcDbCircle
 10
152309.3179604033
 20
109601.9317827815
 30
-864.0655393297151
 40
10.53284880843594
100
AcDbArc
 50
60.17528731853948
 51
128.8725199504771
  0
LINE
  5
60CFF
330
1F
100
AcDbEntity
  8
freecads.com
100
AcDbLine
 10
152283.3874359295
 20
109565.1401433738
 30
-864.0655393297151
 11
152301.9655261534
 21
109580.1031767116
 31
-864.0655393297151
  0
LINE
  5
60D00
330
1F
100
AcDbEntity
  8
freecads.com
100
AcDbLine
 10
152297.6913410728
 20
109594.7604659381
 30
-864.0655393297151
 11
152267.3177601575
 21
109568.9387335057
 31
-864.0655393297151
  0
LINE
  5
60D01
330
1F
100
AcDbEntity
  8
freecads.com
100
AcDbLine
 10
152314.5564537711
 20
109611.0695664983
 30
-864.0655393297151
 11
152376.7335943865
 21
109575.4247593071
 31
-864.0655393297151
  0
LINE
  5
60D02
330
1F
100
AcDbEntity
  8
freecads.com
100
AcDbLine
 10
152259.7033191803
 20
109575.4659903145
 30
-864.0655393297151
 11
152302.7076527001
 21
109610.1320715624
 31
-864.0655393297151
  0
LINE
  5
60D03
330
1F
100
AcDbEntity
  8
freecads.com
100
AcDbLine
 10
152313.7973012728
 20
109569.3921947306
 30
-864.0655393297151
 11
152302.9711714238
 21
109564.7538136679
 31
-864.0655393297151
  0
LINE
  5
60D04
330
1F
100
AcDbEntity
  8
freecads.com
100
AcDbLine
 10
152297.6913410728
 20
109594.7604659381
 30
-864.0655393297151
 11
152267.3177601575
 21
109568.9387335057
 31
-864.0655393297151
  0
LINE
  5
60D05
330
1F
100
AcDbEntity
  8
freecads.com
100
AcDbLine
 10
152283.3874359295
 20
109565.1401433738
 30
-864.0655393297151
 11
152301.9655261534
 21
109580.1031767116
 31
-864.0655393297151
  0
ARC
  5
60D06
330
1F
100
AcDbEntity
  8
freecads.com
100
AcDbCircle
 10
152261.6070877987
 20
109573.1043071456
 30
-864.0655393297151
 40
3.03346045682955
100
AcDbArc
 50
128.8725199504771
 51
229.8416083604712
  0
LINE
  5
60D07
330
1F
100
AcDbEntity
  8
freecads.com
100
AcDbLine
 10
152566.4254872741
 20
109820.0701229071
 30
-864.0655393297151
 11
152610.0558696651
 21
109892.0150044853
 31
-864.0655393297151
  0
LINE
  5
60D08
330
1F
100
AcDbEntity
  8
freecads.com
100
AcDbLine
 10
152610.0558696651
 20
109892.0150044853
 30
-864.0655393297151
 11
152615.262651146
 21
109914.3728050528
 31
-864.0655393297151
  0
ARC
  5
60D09
330
1F
100
AcDbEntity
  8
freecads.com
100
AcDbCircle
 10
152663.4030303226
 20
110164.1046412324
 30
-864.0655393297151
 40
42.77808902240329
100
AcDbArc
 50
14.80127893404949
 51
105.3437506246104
  0
ARC
  5
60D0A
330
1F
100
AcDbEntity
  8
freecads.com
100
AcDbCircle
 10
152676.421541956
 20
110128.003368191
 30
-864.0655393297151
 40
53.22836130911813
100
AcDbArc
 50
345.5218357466762
 51
70.85816646021903
  0
ARC
  5
60D0B
330
1F
100
AcDbEntity
  8
freecads.com
100
AcDbCircle
 10
152711.1230694471
 20
109965.9751286355
 30
-864.0655393297151
 40
33.93262597220309
100
AcDbArc
 50
193.1285975249421
 51
227.1294426110416
  0
ARC
  5
60D0C
330
1F
100
AcDbEntity
  8
freecads.com
100
AcDbCircle
 10
152541.6812261138
 20
109923.0940210231
 30
-864.0655393297151
 40
74.09646224861671
100
AcDbArc
 50
353.2405698806564
 51
25.75679993510041
  0
ARC
  5
60D0D
330
1F
100
AcDbEntity
  8
freecads.com
100
AcDbCircle
 10
152538.2881377861
 20
109973.8210934061
 30
-864.0655393297151
 40
3.12180810923712
100
AcDbArc
 50
242.0498026591351
 51
264.9168654101484
  0
LINE
  5
60D0E
330
1F
100
AcDbEntity
  8
freecads.com
100
AcDbLine
 10
152538.0115421492
 20
109970.7115627784
 30
-864.0655393297151
 11
152546.6315599003
 21
109969.9448041947
 31
-864.0655393297151
  0
ARC
  5
60D0F
330
1F
100
AcDbEntity
  8
freecads.com
100
AcDbCircle
 10
152527.2805646024
 20
110008.7697250331
 30
-864.0655393297151
 40
5.632698356204365
100
AcDbArc
 50
218.486850850099
 51
298.1536618011664
  0
LINE
  5
60D10
330
1F
100
AcDbEntity
  8
freecads.com
100
AcDbLine
 10
152529.9382848992
 20
110003.8034574612
 30
-864.0655393297151
 11
152531.0128037047
 21
110004.4180189069
 31
-864.0655393297151
  0
ARC
  5
60D11
330
1F
100
AcDbEntity
  8
freecads.com
100
AcDbCircle
 10
152523.7132988795
 20
110092.7757546424
 30
-864.0655393297151
 40
3.12180810923712
100
AcDbArc
 50
339.3015727409885
 51
25.7861349116294
  0
LINE
  5
60D12
330
1F
100
AcDbEntity
  8
freecads.com
100
AcDbLine
 10
152535.901748517
 20
110040.3389452905
 30
-864.0655393297151
 11
152538.6198588129
 21
110042.0389499109
 31
-864.0655393297151
  0
LINE
  5
60D13
330
1F
100
AcDbEntity
  8
freecads.com
100
AcDbLine
 10
152533.1836382213
 20
110039.9989443664
 30
-864.0655393297151
 11
152535.901748517
 21
110040.3389452905
 31
-864.0655393297151
  0
LINE
  5
60D14
330
1F
100
AcDbEntity
  8
freecads.com
100
AcDbLine
 10
152530.4655279255
 20
110041.0189471386
 30
-864.0655393297151
 11
152533.1836382213
 21
110039.9989443664
 31
-864.0655393297151
  0
LINE
  5
60D15
330
1F
100
AcDbEntity
  8
freecads.com
100
AcDbLine
 10
152529.4462365646
 20
110042.718951759
 30
-864.0655393297151
 11
152530.4655279255
 21
110041.0189471386
 31
-864.0655393297151
  0
LINE
  5
60D16
330
1F
100
AcDbEntity
  8
freecads.com
100
AcDbLine
 10
152526.7281262688
 20
110044.0789554553
 30
-864.0655393297151
 11
152529.4462365646
 21
110042.718951759
 31
-864.0655393297151
  0
LINE
  5
60D17
330
1F
100
AcDbEntity
  8
freecads.com
100
AcDbLine
 10
152524.34977976
 20
110044.4189563793
 30
-864.0655393297151
 11
152526.7281262688
 21
110044.0789554553
 31
-864.0655393297151
  0
LINE
  5
60D18
330
1F
100
AcDbEntity
  8
freecads.com
100
AcDbLine
 10
152522.3111970381
 20
110043.058952683
 30
-864.0655393297151
 11
152524.34977976
 21
110044.4189563793
 31
-864.0655393297151
  0
LINE
  5
60D19
330
1F
100
AcDbEntity
  8
freecads.com
100
AcDbLine
 10
152514.0842363787
 20
110042.885532978
 30
-864.0655393297151
 11
152524.6169137749
 21
110039.1455228132
 31
-864.0655393297151
  0
LINE
  5
60D1A
330
1F
100
AcDbEntity
  8
freecads.com
100
AcDbLine
 10
152512.0456536568
 20
110044.2455366742
 30
-864.0655393297151
 11
152514.0842363787
 21
110042.885532978
 31
-864.0655393297151
  0
LINE
  5
60D1B
330
1F
100
AcDbEntity
  8
freecads.com
100
AcDbLine
 10
152510.3468347221
 20
110045.2655394464
 30
-864.0655393297151
 11
152512.0456536568
 21
110044.2455366742
 31
-864.0655393297151
  0
LINE
  5
60D1C
330
1F
100
AcDbEntity
  8
freecads.com
100
AcDbLine
 10
152509.6673071482
 20
110046.9655440668
 30
-864.0655393297151
 11
152510.3468347221
 21
110045.2655394464
 31
-864.0655393297151
  0
LINE
  5
60D1D
330
1F
100
AcDbEntity
  8
freecads.com
100
AcDbLine
 10
152511.026362296
 20
110050.3655533075
 30
-864.0655393297151
 11
152509.6673071482
 21
110046.9655440668
 31
-864.0655393297151
  0
LINE
  5
60D1E
330
1F
100
AcDbEntity
  8
freecads.com
100
AcDbLine
 10
152526.6336059296
 20
110091.6723541692
 30
-864.0655393297151
 11
152511.026362296
 21
110050.3655533075
 31
-864.0655393297151
  0
LINE
  5
60D1F
330
1F
100
AcDbEntity
  8
freecads.com
100
AcDbLine
 10
152526.5242500343
 20
110094.1337824314
 30
-864.0655393297151
 11
152520.8821184512
 21
110105.8123036054
 31
-864.0655393297151
  0
ARC
  5
60D20
330
1F
100
AcDbEntity
  8
freecads.com
100
AcDbCircle
 10
152700.4699900002
 20
110056.8177529
 30
-864.0655393297151
 40
21.89590490996669
100
AcDbArc
 50
275.1904260606705
 51
16.20388661409801
  0
ARC
  5
60D21
330
1F
100
AcDbEntity
  8
freecads.com
100
AcDbCircle
 10
152662.5421158324
 20
110081.4113731292
 30
-864.0655393297151
 40
60.69416084626128
100
AcDbArc
 50
334.1424334226296
 51
36.76001869981077
  0
ARC
  5
60D22
330
1F
100
AcDbEntity
  8
freecads.com
100
AcDbCircle
 10
152597.3579585556
 20
110148.3004424222
 30
-864.0655393297151
 40
53.68841669668504
100
AcDbArc
 50
76.1035032319997
 51
124.5039492711563
  0
ARC
  5
60D23
330
1F
100
AcDbEntity
  8
freecads.com
100
AcDbCircle
 10
152562.9442319756
 20
110150.897188658
 30
-864.0655393297151
 40
41.83895359473775
100
AcDbArc
 50
73.4430662574226
 51
147.7998539566134
  0
ARC
  5
60D24
330
1F
100
AcDbEntity
  8
freecads.com
100
AcDbCircle
 10
152538.9984359441
 20
110141.856057665
 30
-864.0655393297151
 40
32.08998802830433
100
AcDbArc
 50
98.16656777995998
 51
134.8781059139834
  0
ARC
  5
60D25
330
1F
100
AcDbEntity
  8
freecads.com
100
AcDbCircle
 10
152524.057462265
 20
110142.6782934377
 30
-864.0655393297151
 40
14.58591377212164
100
AcDbArc
 50
159.244985181458
 51
216.0259564633083
  0
ARC
  5
60D26
330
1F
100
AcDbEntity
  8
freecads.com
100
AcDbCircle
 10
152552.3676563518
 20
110121.2399561843
 30
-864.0655393297151
 40
37.51833268163084
100
AcDbArc
 50
135.743620239066
 51
190.2490824172125
  0
ARC
  5
60D27
330
1F
100
AcDbEntity
  8
freecads.com
100
AcDbCircle
 10
152573.9215409371
 20
110134.7066720574
 30
-864.0655393297151
 40
47.78816232525604
100
AcDbArc
 50
166.3697161092266
 51
212.8834267924375
  0
ARC
  5
60D28
330
1F
100
AcDbEntity
  8
freecads.com
100
AcDbCircle
 10
152582.5642465677
 20
110145.9928831824
 30
-864.0655393297151
 40
34.44724114936428
100
AcDbArc
 50
179.6102694988722
 51
245.6338216441256
  0
ARC
  5
60D29
330
1F
100
AcDbEntity
  8
freecads.com
100
AcDbCircle
 10
152608.531466234
 20
110124.4943409452
 30
-864.0655393297151
 40
33.29521356655126
100
AcDbArc
 50
218.5245451548743
 51
256.8479174741484
  0
ARC
  5
60D2A
330
1F
100
AcDbEntity
  8
freecads.com
100
AcDbCircle
 10
152630.0635664199
 20
110131.1412818904
 30
-864.0655393297151
 40
58.14856925499388
100
AcDbArc
 50
213.7916863317123
 51
261.9228952236179
  0
ARC
  5
60D2B
330
1F
100
AcDbEntity
  8
freecads.com
100
AcDbCircle
 10
152604.2222010159
 20
110161.5556766613
 30
-864.0655393297151
 40
73.71887144704695
100
AcDbArc
 50
190.8743270015066
 51
196.2421830655259
  0
ARC
  5
60D2C
330
1F
100
AcDbEntity
  8
freecads.com
100
AcDbCircle
 10
152545.2280106729
 20
110115.7648675664
 30
-864.0655393297151
 40
29.10008796859573
100
AcDbArc
 50
148.2080942926541
 51
192.5473910172756
  0
ARC
  5
60D2D
330
1F
100
AcDbEntity
  8
freecads.com
100
AcDbCircle
 10
152551.72805806
 20
110112.2706233685
 30
-864.0655393297151
 40
44.06643700579894
100
AcDbArc
 50
127.5292929489098
 51
176.7506420421927
  0
ARC
  5
60D2E
330
1F
100
AcDbEntity
  8
freecads.com
100
AcDbCircle
 10
152523.0524694715
 20
110018.693078721
 30
-864.0655393297151
 40
5.011855128319485
100
AcDbArc
 50
47.6658931966033
 51
162.0315412149193
  0
ARC
  5
60D2F
330
1F
100
AcDbEntity
  8
freecads.com
100
AcDbCircle
 10
152552.6573963881
 20
110067.4399388213
 30
-864.0655393297151
 40
52.12267147538854
100
AcDbArc
 50
239.7860895083463
 51
261.0028293484031
  0
ARC
  5
60D32
330
1F
100
AcDbEntity
  8
freecads.com
100
AcDbCircle
 10
152545.3005399346
 20
110019.0472403649
 30
-864.0655393297151
 40
3.189178546916366
100
AcDbArc
 50
255.5764959053607
 51
325.8769488736249
  0
ARC
  5
60D33
330
1F
100
AcDbEntity
  8
freecads.com
100
AcDbCircle
 10
152541.5395617382
 20
110022.6893227531
 30
-864.0655393297151
 40
8.394704098599859
100
AcDbArc
 50
273.512815143543
 51
319.6864519718494
  0
ARC
  5
60D35
330
1F
100
AcDbEntity
  8
freecads.com
100
AcDbCircle
 10
152558.043441654
 20
109895.7924362913
 30
-864.0655393297151
 40
119.5916822147539
100
AcDbArc
 50
97.68350877132903
 51
107.2362672639468
  0
ARC
  5
60D36
330
1F
100
AcDbEntity
  8
freecads.com
100
AcDbCircle
 10
152523.572172414
 20
110007.6852543288
 30
-864.0655393297151
 40
2.520292325066057
100
AcDbArc
 50
112.5193624909299
 51
253.8599105794861
  0
ARC
  5
60D37
330
1F
100
AcDbEntity
  8
freecads.com
100
AcDbCircle
 10
152523.5290623817
 20
110029.2435808776
 30
-864.0655393297151
 40
10.42009511027503
100
AcDbArc
 50
239.784179015185
 51
280.0580304906876
  0
ARC
  5
60D38
330
1F
100
AcDbEntity
  8
freecads.com
100
AcDbCircle
 10
152530.2326577524
 20
110004.2903569
 30
-864.0655393297151
 40
15.48365130982718
100
AcDbArc
 50
81.04448408224527
 51
108.3858551937804
  0
ARC
  5
60D3C
330
1F
100
AcDbEntity
  8
freecads.com
100
AcDbCircle
 10
152516.8324846596
 20
110014.2342087313
 30
-864.0655393297151
 40
10.94949889292533
100
AcDbArc
 50
345.4908629373912
 51
23.3062591535327
  0
ARC
  5
60D3E
330
1F
100
AcDbEntity
  8
freecads.com
100
AcDbCircle
 10
152600.1635450989
 20
110106.1560731152
 30
-864.0655393297151
 40
32.91627032587511
100
AcDbArc
 50
181.4803120420484
 51
260.7514531086827
  0
LINE
  5
60D42
330
1F
100
AcDbEntity
  8
freecads.com
100
AcDbLine
 10
152528.4232015486
 20
110106.365874344
 30
-864.0655393297151
 11
152525.8806005408
 21
110109.2519729965
 31
-864.0655393297151
  0
ARC
  5
60D47
330
1F
100
AcDbEntity
  8
freecads.com
100
AcDbCircle
 10
152526.2353164662
 20
110064.0092960605
 30
-864.0655393297151
 40
45.24406745332955
100
AcDbArc
 50
41.38437135107413
 51
90.44920659856476
  0
ARC
  5
60D48
330
1F
100
AcDbEntity
  8
freecads.com
100
AcDbCircle
 10
152532.4223025462
 20
110069.923269204
 30
-864.0655393297151
 40
36.66137310817436
100
AcDbArc
 50
44.10968294234537
 51
96.26240762080932
  0
ARC
  5
60D49
330
1F
100
AcDbEntity
  8
freecads.com
100
AcDbCircle
 10
152555.0877962413
 20
110025.8663446531
 30
-864.0655393297151
 40
63.13902330851154
100
AcDbArc
 50
97.89173208154007
 51
112.7557862824839
  0
ARC
  5
60D4B
330
1F
100
AcDbEntity
  8
freecads.com
100
AcDbCircle
 10
152557.2160369382
 20
110106.3781172153
 30
-864.0655393297151
 40
20.84303182951793
100
AcDbArc
 50
220.0350715910404
 51
244.6169153943111
  0
ARC
  5
60D4E
330
1F
100
AcDbEntity
  8
freecads.com
100
AcDbCircle
 10
152539.4410726235
 20
110089.6188973016
 30
-864.0655393297151
 40
5.682178439307419
100
AcDbArc
 50
115.883999649738
 51
213.4773994801129
  0
ARC
  5
60D4F
330
1F
100
AcDbEntity
  8
freecads.com
100
AcDbCircle
 10
152541.380436707
 20
110105.219828795
 30
-864.0655393297151
 40
11.22478030125937
100
AcDbArc
 50
205.6487196467538
 51
260.2739030215563
  0
ARC
  5
60D51
330
1F
100
AcDbEntity
  8
freecads.com
100
AcDbCircle
 10
152562.7415272696
 20
110133.5945866352
 30
-864.0655393297151
 40
45.77598668588573
100
AcDbArc
 50
226.5522180643986
 51
253.7158883356656
  0
LINE
  5
60D53
330
1F
100
AcDbEntity
  8
freecads.com
100
AcDbLine
 10
152510.4181130832
 20
110147.8471457732
 30
-864.0655393297151
 11
152516.3557132567
 21
110164.5953285626
 31
-864.0655393297151
  0
LINE
  5
60D54
330
1F
100
AcDbEntity
  8
freecads.com
100
AcDbLine
 10
152536.4080273673
 20
110149.2088722167
 30
-864.0655393297151
 11
152525.4514316199
 21
110149.6224894288
 31
-864.0655393297151
  0
ARC
  5
60D55
330
1F
100
AcDbEntity
  8
freecads.com
100
AcDbCircle
 10
152658.5489600889
 20
110066.7318294782
 30
-864.0655393297151
 40
30.74539515813866
100
AcDbArc
 50
188.9891971774534
 51
254.8115864663675
  0
ARC
  5
60D56
330
1F
100
AcDbEntity
  8
freecads.com
100
AcDbCircle
 10
152652.4220473183
 20
110150.6596008735
 30
-864.0655393297151
 40
69.78356696149235
100
AcDbArc
 50
192.3190822454598
 51
262.542260351828
  0
ARC
  5
60D57
330
1F
100
AcDbEntity
  8
freecads.com
100
AcDbCircle
 10
152580.7384916724
 20
109941.5347723029
 30
-864.0655393297151
 40
30.90833915951901
100
AcDbArc
 50
26.43123559811635
 51
101.1522393033242
  0
ARC
  5
60D58
330
1F
100
AcDbEntity
  8
freecads.com
100
AcDbCircle
 10
152708.6299002194
 20
109975.7180278881
 30
-864.0655393297151
 40
35.18480038623223
100
AcDbArc
 50
130.8319861922116
 51
209.7331008911885
  0
ARC
  5
60D59
330
1F
100
AcDbEntity
  8
freecads.com
100
AcDbCircle
 10
152692.1678642031
 20
110101.0200021393
 30
-864.0655393297151
 40
38.57258267578471
100
AcDbArc
 50
323.4187591709913
 51
71.85372961596542
  0
ARC
  5
60D5A
330
1F
100
AcDbEntity
  8
freecads.com
100
AcDbCircle
 10
152636.7533785767
 20
110155.59496959
 30
-864.0655393297151
 40
52.07078271406558
100
AcDbArc
 50
72.87783387148933
 51
124.0681508481829
  0
LINE
  5
60D5B
330
1F
100
AcDbEntity
  8
freecads.com
100
AcDbLine
 10
152689.309348311
 20
110005.1054281742
 30
-864.0655393297151
 11
152719.4331593197
 21
110044.3960216035
 31
-864.0655393297151
  0
LINE
  5
60D5C
330
1F
100
AcDbEntity
  8
freecads.com
100
AcDbLine
 10
152696.0007587132
 20
110024.2202922741
 30
-864.0655393297151
 11
152678.0297927028
 21
109998.3492796272
 31
-864.0655393297151
  0
ARC
  5
60D5D
330
1F
100
AcDbEntity
  8
freecads.com
100
AcDbCircle
 10
152805.7144696285
 20
109944.0978423056
 30
-864.0655393297151
 40
143.8157544016122
100
AcDbArc
 50
142.1093072235136
 51
160.1271172827087
  0
ARC
  5
60D5E
330
1F
100
AcDbEntity
  8
freecads.com
100
AcDbCircle
 10
152748.6143049665
 20
109982.2765480737
 30
-864.0655393297151
 40
83.4909421796015
100
AcDbArc
 50
131.9077249710334
 51
173.066893971119
  0
ARC
  5
60D5F
330
1F
100
AcDbEntity
  8
freecads.com
100
AcDbCircle
 10
152521.5982740485
 20
109993.5133108469
 30
-864.0655393297151
 40
10.54414561835037
100
AcDbArc
 50
333.1808192177887
 51
65.96846253572993
  0
ARC
  5
60D60
330
1F
100
AcDbEntity
  8
freecads.com
100
AcDbCircle
 10
152543.0012846013
 20
109982.7038513529
 30
-864.0655393297151
 40
13.17751005584877
100
AcDbArc
 50
154.4549765754857
 51
242.0498026591351
  0
LINE
  5
60D61
330
1F
100
AcDbEntity
  8
freecads.com
100
AcDbLine
 10
152546.6315599003
 20
109969.9448041947
 30
-864.0655393297151
 11
152566.5150426678
 21
109970.9154071403
 31
-864.0655393297151
  0
LINE
  5
60D62
330
1F
100
AcDbEntity
  8
freecads.com
100
AcDbLine
 10
152566.5150426678
 20
109970.9154071403
 30
-864.0655393297151
 11
152588.8233404072
 21
109972.3713115586
 31
-864.0655393297151
  0
LINE
  5
60D63
330
1F
100
AcDbEntity
  8
freecads.com
100
AcDbLine
 10
152588.8233404072
 20
109972.3713115586
 30
-864.0655393297151
 11
152612.1015641351
 21
109981.1067380685
 31
-864.0655393297151
  0
ARC
  5
60D64
330
1F
100
AcDbEntity
  8
freecads.com
100
AcDbCircle
 10
152516.6474328714
 20
110032.6068890065
 30
-864.0655393297151
 40
10.07591989601495
100
AcDbArc
 50
317.375476413687
 51
28.06651777636444
  0
LINE
  5
60D65
330
1F
100
AcDbEntity
  8
freecads.com
100
AcDbLine
 10
152612.1015641351
 20
109981.1067380685
 30
-864.0655393297151
 11
152627.9127275934
 21
109994.5571902968
 31
-864.0655393297151
  0
ARC
  5
60D66
330
1F
100
AcDbEntity
  8
freecads.com
100
AcDbCircle
 10
152429.7778757463
 20
110055.3091882549
 30
-864.0655393297151
 40
104.1659622858435
100
AcDbArc
 50
29.00154377864578
 51
34.67034343272325
  0
ARC
  5
60D67
330
1F
100
AcDbEntity
  8
freecads.com
100
AcDbCircle
 10
152793.8281325033
 20
110024.8836251871
 30
-864.0655393297151
 40
72.79890292678754
100
AcDbArc
 50
152.3923331420455
 51
231.7926066654344
  0
ARC
  5
60D68
330
1F
100
AcDbEntity
  8
freecads.com
100
AcDbCircle
 10
152641.7209642065
 20
110033.7912479636
 30
-864.0655393297151
 40
105.5811498446948
100
AcDbArc
 50
340.0477518482343
 51
29.42085167033587
  0
ARC
  5
60D69
330
1F
100
AcDbEntity
  8
freecads.com
100
AcDbCircle
 10
152774.879410419
 20
110007.3034068133
 30
-864.0655393297151
 40
17.94360839685853
100
AcDbArc
 50
338.9645215306011
 51
72.06155192737998
  0
ARC
  5
60D6A
330
1F
100
AcDbEntity
  8
freecads.com
100
AcDbCircle
 10
152777.3127835241
 20
110019.8618495867
 30
-864.0655393297151
 40
37.10824651418141
100
AcDbArc
 50
223.4309009526622
 51
271.9797086107552
  0
ARC
  5
60D6B
330
1F
100
AcDbEntity
  8
freecads.com
100
AcDbCircle
 10
152793.8281325033
 20
110024.8836251871
 30
-864.0655393297151
 40
82.79890292678752
100
AcDbArc
 50
152.3923331420455
 51
158.5898661593322
  0
ARC
  5
60D6C
330
1F
100
AcDbEntity
  8
freecads.com
100
AcDbCircle
 10
152704.7955695859
 20
110181.4790436497
 30
-864.0655393297151
 40
52.34192224235067
100
AcDbArc
 50
335.7926916352846
 51
44.08029980991467
  0
ARC
  5
60D6D
330
1F
100
AcDbEntity
  8
freecads.com
100
AcDbCircle
 10
152735.5946266928
 20
110202.1390106399
 30
-864.0655393297151
 40
29.40862511664724
100
AcDbArc
 50
354.0351533375189
 51
123.8106045755234
  0
ARC
  5
60D6E
330
1F
100
AcDbEntity
  8
freecads.com
100
AcDbCircle
 10
152786.4103450257
 20
109978.8566420514
 30
-864.0655393297151
 40
39.23467403184807
100
AcDbArc
 50
156.7398102324226
 51
230.0586045415384
  0
ARC
  5
60D6F
330
1F
100
AcDbEntity
  8
freecads.com
100
AcDbCircle
 10
152641.7209642065
 20
110033.7912479636
 30
-864.0655393297151
 40
115.5811498446948
100
AcDbArc
 50
340.0477518482343
 51
29.42085167033587
  0
LINE
  5
60D70
330
1F
100
AcDbEntity
  8
freecads.com
100
AcDbLine
 10
152751.81151049
 20
110136.1451552135
 30
-864.0655393297151
 11
152759.7746537863
 21
110062.3541904744
 31
-864.0655393297151
  0
LINE
  5
60D71
330
1F
100
AcDbEntity
  8
freecads.com
100
AcDbLine
 10
152770.9959266677
 20
110095.9937120766
 30
-864.0655393297151
 11
152772.8071721254
 21
110064.5248309857
 31
-864.0655393297151
  0
LINE
  5
60D72
330
1F
100
AcDbEntity
  8
freecads.com
100
AcDbLine
 10
152764.1153061664
 20
110150.6124877392
 30
-864.0655393297151
 11
152764.1153061664
 21
110123.8457600358
 31
-864.0655393297151
  0
LINE
  5
60D73
330
1F
100
AcDbEntity
  8
freecads.com
100
AcDbLine
 10
152764.1153061664
 20
110123.8457600358
 30
-864.0655393297151
 11
152765.5674708928
 21
110107.9295317264
 31
-864.0655393297151
  0
LINE
  5
60D74
330
1F
100
AcDbEntity
  8
freecads.com
100
AcDbLine
 10
152765.5674708928
 20
110107.9295317264
 30
-864.0655393297151
 11
152776.4243824427
 21
110084.0578924268
 31
-864.0655393297151
  0
LINE
  5
60D75
330
1F
100
AcDbEntity
  8
freecads.com
100
AcDbLine
 10
152776.4243824427
 20
110084.0578924268
 30
-864.0655393297151
 11
152782.2171995491
 21
110067.4172162254
 31
-864.0655393297151
  0
LINE
  5
60D76
330
1F
100
AcDbEntity
  8
freecads.com
100
AcDbLine
 10
152782.2171995491
 20
110067.4172162254
 30
-864.0655393297151
 11
152784.3875257391
 21
110047.162410057
 31
-864.0655393297151
  0
LINE
  5
60D77
330
1F
100
AcDbEntity
  8
freecads.com
100
AcDbLine
 10
152784.3875257391
 20
110047.162410057
 30
-864.0655393297151
 11
152776.4243824427
 21
110001.5870688049
 31
-864.0655393297151
  0
LINE
  5
60D78
330
1F
100
AcDbEntity
  8
freecads.com
100
AcDbLine
 10
152776.4243824427
 20
110001.5870688049
 30
-864.0655393297151
 11
152778.5947086328
 21
109982.7757520921
 31
-864.0655393297151
  0
ARC
  5
60D79
330
1F
100
AcDbEntity
  8
freecads.com
100
AcDbCircle
 10
152710.8229079587
 20
110037.7077046723
 30
-864.0655393297151
 40
88.80821002828028
100
AcDbArc
 50
335.4880037270827
 51
25.61381619777911
  0
ARC
  5
60D7A
330
1F
100
AcDbEntity
  8
freecads.com
100
AcDbCircle
 10
152995.4865245376
 20
110154.5177334166
 30
-864.0655393297151
 40
219.0969489587013
100
AcDbArc
 50
181.0213101828317
 51
200.9721679044631
  0
LINE
  5
60D7B
330
1F
100
AcDbEntity
  8
freecads.com
100
AcDbLine
 10
152695.9586148347
 20
110213.420498059
 30
-864.0655393297151
 11
152707.6498610272
 21
110231.6371187413
 31
-864.0655393297151
  0
LINE
  5
60D7C
330
1F
100
AcDbEntity
  8
freecads.com
100
AcDbLine
 10
152707.6498610272
 20
110231.6371187413
 30
-864.0655393297151
 11
152720.6770987683
 21
110241.7658734071
 31
-864.0655393297151
  0
LINE
  5
60D7D
330
1F
100
AcDbEntity
  8
freecads.com
100
AcDbLine
 10
152720.6770987683
 20
110241.7658734071
 30
-864.0655393297151
 11
152746.7421354463
 21
110241.0414255156
 31
-864.0655393297151
  0
LINE
  5
60D7E
330
1F
100
AcDbEntity
  8
freecads.com
100
AcDbLine
 10
152746.7421354463
 20
110241.0414255156
 30
-864.0655393297151
 11
152768.4612391463
 21
110228.0202856096
 31
-864.0655393297151
  0
LINE
  5
60D7F
330
1F
100
AcDbEntity
  8
freecads.com
100
AcDbLine
 10
152768.4612391463
 20
110228.0202856096
 30
-864.0655393297151
 11
152780.046873359
 21
110191.8492511319
 31
-864.0655393297151
  0
LINE
  5
60D80
330
1F
100
AcDbEntity
  8
freecads.com
100
AcDbLine
 10
152780.046873359
 20
110191.8492511319
 30
-864.0655393297151
 11
152776.4243824427
 21
110150.6124877392
 31
-864.0655393297151
  0
LINE
  5
60D81
330
1F
100
AcDbEntity
  8
freecads.com
100
AcDbLine
 10
152690.3518925883
 20
110207.299545935
 30
-864.0655393297151
 11
152728.8318582809
 21
110160.4967204847
 31
-864.0655393297151
  0
LINE
  5
60D82
330
1F
100
AcDbEntity
  8
freecads.com
100
AcDbLine
 10
152734.3274471911
 20
110167.8451568069
 30
-864.0655393297151
 11
152723.3362693711
 21
110153.1482841624
 31
-864.0655393297151
  0
LINE
  5
60D83
330
1F
100
AcDbEntity
  8
freecads.com
100
AcDbLine
 10
152695.9586148347
 20
110213.420498059
 30
-864.0655393297151
 11
152734.3274471911
 21
110167.8451568069
 31
-864.0655393297151
  0
LINE
  5
60D84
330
1F
100
AcDbEntity
  8
freecads.com
100
AcDbLine
 10
152684.7451703418
 20
110201.1785938111
 30
-864.0655393297151
 11
152695.9586148347
 21
110213.420498059
 31
-864.0655393297151
  0
ENDSEC
  0
SECTION
  2
OBJECTS
  0
DICTIONARY
  5
C
330
0
100
AcDbDictionary
281
     1
  3
ACAD_ASSOCPERSSUBENTMANAGER
350
2C1D4
  3
ACAD_CIP_PREVIOUS_PRODUCT_INFO
350
1A5
  3
ACAD_COLOR
350
73
  3
ACAD_DETAILVIEWSTYLE
350
1AB
  3
ACAD_GROUP
350
D
  3
ACAD_LAYOUT
350
1A
  3
ACAD_MATERIAL
350
72
  3
ACAD_MLEADERSTYLE
350
D7
  3
ACAD_MLINESTYLE
350
17
  3
ACAD_PLOTSETTINGS
350
19
  3
ACAD_PLOTSTYLENAME
350
E
  3
ACAD_SCALELIST
350
B6
  3
ACAD_SECTIONVIEWSTYLE
350
1A8
  3
ACAD_TABLESTYLE
350
86
  3
ACAD_VISUALSTYLE
350
99
  3
ACAD_WIPEOUT_VARS
350
59B06
  3
ACDB_RECOMPOSE_DATA
350
67411
  3
ACDBVARIABLEDICTIONARY
350
4A0D5
  3
AEC_PROPERTY_SET_DEFS
350
22D1
  0
DICTIONARY
  5
18E
330
2
100
AcDbDictionary
280
     1
281
     1
  3
ACAD_LAYERSTATES
360
18F
  0
DICTIONARY
  5
E6
330
10
100
AcDbDictionary
280
     1
281
     1
  0
DICTIONARY
  5
15D
330
1F
100
AcDbDictionary
280
     1
281
     1
  3
ACAD_SORTENTS
360
28E
  0
ACDBASSOCPERSSUBENTMANAGER
  5
2C1D4
102
{ACAD_REACTORS
330
C
102
}
330
C
100
AcDbAssocPersSubentManager
 90
        2
 90
        3
 90
        0
 90
        2
 90
     1260
 90
        0
 90
     1260
 90
        1
 90
        2
 90
        3
 90
        4
 90
        5
 90
        6
 90
        7
 90
        8
 90
        9
 90
       10
 90
       11
 90
       12
 90
       13
 90
       14
 90
       15
 90
       16
 90
       17
 90
       18
 90
       19
 90
       20
 90
       21
 90
       22
 90
       23
 90
       24
 90
       25
 90
       26
 90
       27
 90
       28
 90
       29
 90
       30
 90
       31
 90
       32
 90
       33
 90
       34
 90
       35
 90
       36
 90
       37
 90
       38
 90
       39
 90
       40
 90
       41
 90
       42
 90
       43
 90
       44
 90
       45
 90
       46
 90
       47
 90
       48
 90
       49
 90
       50
 90
       51
 90
       52
 90
       53
 90
       54
 90
       55
 90
       56
 90
       57
 90
       58
 90
       59
 90
       60
 90
       61
 90
       62
 90
       63
 90
       64
 90
       65
 90
       66
 90
       67
 90
       68
 90
       69
 90
       70
 90
       71
 90
       72
 90
       73
 90
       74
 90
       75
 90
       76
 90
       77
 90
       78
 90
       79
 90
       80
 90
       81
 90
       82
 90
       83
 90
       84
 90
       85
 90
       86
 90
       87
 90
       88
 90
       89
 90
       90
 90
       91
 90
       92
 90
       93
 90
       94
 90
       95
 90
       96
 90
       97
 90
       98
 90
       99
 90
      100
 90
      101
 90
      102
 90
      103
 90
      104
 90
      105
 90
      106
 90
      107
 90
      108
 90
      109
 90
      110
 90
      111
 90
      112
 90
      113
 90
      114
 90
      115
 90
      116
 90
      117
 90
      118
 90
      119
 90
      120
 90
      121
 90
      122
 90
      123
 90
      124
 90
      125
 90
      126
 90
      127
 90
      128
 90
      129
 90
      130
 90
      131
 90
      132
 90
      133
 90
      134
 90
      135
 90
      136
 90
      137
 90
      138
 90
      139
 90
      140
 90
      141
 90
      142
 90
      143
 90
      144
 90
      145
 90
      146
 90
      147
 90
      148
 90
      149
 90
      150
 90
      151
 90
      152
 90
      153
 90
      154
 90
      155
 90
      156
 90
      157
 90
      158
 90
      159
 90
      160
 90
      161
 90
      162
 90
      163
 90
      164
 90
      165
 90
      166
 90
      167
 90
      168
 90
      169
 90
      170
 90
      171
 90
      172
 90
      173
 90
      174
 90
      175
 90
      176
 90
      177
 90
      178
 90
      179
 90
      180
 90
      181
 90
      182
 90
      183
 90
      184
 90
      185
 90
      186
 90
      187
 90
      188
 90
      189
 90
      190
 90
      191
 90
      192
 90
      193
 90
      194
 90
      195
 90
      196
 90
      197
 90
      198
 90
      199
 90
      200
 90
      201
 90
      202
 90
      203
 90
      204
 90
      205
 90
      206
 90
      207
 90
      208
 90
      209
 90
      210
 90
      211
 90
      212
 90
      213
 90
      214
 90
      215
 90
      216
 90
      217
 90
      218
 90
      219
 90
      220
 90
      221
 90
      222
 90
      223
 90
      224
 90
      225
 90
      226
 90
      227
 90
      228
 90
      229
 90
      230
 90
      231
 90
      232
 90
      233
 90
      234
 90
      235
 90
      236
 90
      237
 90
      238
 90
      239
 90
      240
 90
      241
 90
      242
 90
      243
 90
      244
 90
      245
 90
      246
 90
      247
 90
      248
 90
      249
 90
      250
 90
      251
 90
      252
 90
      253
 90
      254
 90
      255
 90
      256
 90
      257
 90
      258
 90
      259
 90
      260
 90
      261
 90
      262
 90
      263
 90
      264
 90
      265
 90
      266
 90
      267
 90
      268
 90
      269
 90
      270
 90
      271
 90
      272
 90
      273
 90
      274
 90
      275
 90
      276
 90
      277
 90
      278
 90
      279
 90
      280
 90
      281
 90
      282
 90
      283
 90
      284
 90
      285
 90
      286
 90
      287
 90
      288
 90
      289
 90
      290
 90
      291
 90
      292
 90
      293
 90
      294
 90
      295
 90
      296
 90
      297
 90
      298
 90
      299
 90
      300
 90
      301
 90
      302
 90
      303
 90
      304
 90
      305
 90
      306
 90
      307
 90
      308
 90
      309
 90
      310
 90
      311
 90
      312
 90
      313
 90
      314
 90
      315
 90
      316
 90
      317
 90
      318
 90
      319
 90
      320
 90
      321
 90
      322
 90
      323
 90
      324
 90
      325
 90
      326
 90
      327
 90
      328
 90
      329
 90
      330
 90
      331
 90
      332
 90
      333
 90
      334
 90
      335
 90
      336
 90
      337
 90
      338
 90
      339
 90
      340
 90
      341
 90
      342
 90
      343
 90
      344
 90
      345
 90
      346
 90
      347
 90
      348
 90
      349
 90
      350
 90
      351
 90
      352
 90
      353
 90
      354
 90
      355
 90
      356
 90
      357
 90
      358
 90
      359
 90
      360
 90
      361
 90
      362
 90
      363
 90
      364
 90
      365
 90
      366
 90
      367
 90
      368
 90
      369
 90
      370
 90
      371
 90
      372
 90
      373
 90
      374
 90
      375
 90
      376
 90
      377
 90
      378
 90
      379
 90
      380
 90
      381
 90
      382
 90
      383
 90
      384
 90
      385
 90
      386
 90
      387
 90
      388
 90
      389
 90
      390
 90
      391
 90
      392
 90
      393
 90
      394
 90
      395
 90
      396
 90
      397
 90
      398
 90
      399
 90
      400
 90
      401
 90
      402
 90
      403
 90
      404
 90
      405
 90
      406
 90
      407
 90
      408
 90
      409
 90
      410
 90
      411
 90
      412
 90
      413
 90
      414
 90
      415
 90
      416
 90
      417
 90
      418
 90
      419
 90
      420
 90
      421
 90
      422
 90
      423
 90
      424
 90
      425
 90
      426
 90
      427
 90
      428
 90
      429
 90
      430
 90
      431
 90
      432
 90
      433
 90
      434
 90
      435
 90
      436
 90
      437
 90
      438
 90
      439
 90
      440
 90
      441
 90
      442
 90
      443
 90
      444
 90
      445
 90
      446
 90
      447
 90
      448
 90
      449
 90
      450
 90
      451
 90
      452
 90
      453
 90
      454
 90
      455
 90
      456
 90
      457
 90
      458
 90
      459
 90
      460
 90
      461
 90
      462
 90
      463
 90
      464
 90
      465
 90
      466
 90
      467
 90
      468
 90
      469
 90
      470
 90
      471
 90
      472
 90
      473
 90
      474
 90
      475
 90
      476
 90
      477
 90
      478
 90
      479
 90
      480
 90
      481
 90
      482
 90
      483
 90
      484
 90
      485
 90
      486
 90
      487
 90
      488
 90
      489
 90
      490
 90
      491
 90
      492
 90
      493
 90
      494
 90
      495
 90
      496
 90
      497
 90
      498
 90
      499
 90
      500
 90
      501
 90
      502
 90
      503
 90
      504
 90
      505
 90
      506
 90
      507
 90
      508
 90
      509
 90
      510
 90
      511
 90
      512
 90
      513
 90
      514
 90
      515
 90
      516
 90
      517
 90
      518
 90
      519
 90
      520
 90
      521
 90
      522
 90
      523
 90
      524
 90
      525
 90
      526
 90
      527
 90
      528
 90
      529
 90
      530
 90
      531
 90
      532
 90
      533
 90
      534
 90
      535
 90
      536
 90
      537
 90
      538
 90
      539
 90
      540
 90
      541
 90
      542
 90
      543
 90
      544
 90
      545
 90
      546
 90
      547
 90
      548
 90
      549
 90
      550
 90
      551
 90
      552
 90
      553
 90
      554
 90
      555
 90
      556
 90
      557
 90
      558
 90
      559
 90
      560
 90
      561
 90
      562
 90
      563
 90
      564
 90
      565
 90
      566
 90
      567
 90
      568
 90
      569
 90
      570
 90
      571
 90
      572
 90
      573
 90
      574
 90
      575
 90
      576
 90
      577
 90
      578
 90
      579
 90
      580
 90
      581
 90
      582
 90
      583
 90
      584
 90
      585
 90
      586
 90
      587
 90
      588
 90
      589
 90
      590
 90
      591
 90
      592
 90
      593
 90
      594
 90
      595
 90
      596
 90
      597
 90
      598
 90
      599
 90
      600
 90
      601
 90
      602
 90
      603
 90
      604
 90
      605
 90
      606
 90
      607
 90
      608
 90
      609
 90
      610
 90
      611
 90
      612
 90
      613
 90
      614
 90
      615
 90
      616
 90
      617
 90
      618
 90
      619
 90
      620
 90
      621
 90
      622
 90
      623
 90
      624
 90
      625
 90
      626
 90
      627
 90
      628
 90
      629
 90
      630
 90
      631
 90
      632
 90
      633
 90
      634
 90
      635
 90
      636
 90
      637
 90
      638
 90
      639
 90
      640
 90
      641
 90
      642
 90
      643
 90
      644
 90
      645
 90
      646
 90
      647
 90
      648
 90
      649
 90
      650
 90
      651
 90
      652
 90
      653
 90
      654
 90
      655
 90
      656
 90
      657
 90
      658
 90
      659
 90
      660
 90
      661
 90
      662
 90
      663
 90
      664
 90
      665
 90
      666
 90
      667
 90
      668
 90
      669
 90
      670
 90
      671
 90
      672
 90
      673
 90
      674
 90
      675
 90
      676
 90
      677
 90
      678
 90
      679
 90
      680
 90
      681
 90
      682
 90
      683
 90
      684
 90
      685
 90
      686
 90
      687
 90
      688
 90
      689
 90
      690
 90
      691
 90
      692
 90
      693
 90
      694
 90
      695
 90
      696
 90
      697
 90
      698
 90
      699
 90
      700
 90
      701
 90
      702
 90
      703
 90
      704
 90
      705
 90
      706
 90
      707
 90
      708
 90
      709
 90
      710
 90
      711
 90
      712
 90
      713
 90
      714
 90
      715
 90
      716
 90
      717
 90
      718
 90
      719
 90
      720
 90
      721
 90
      722
 90
      723
 90
      724
 90
      725
 90
      726
 90
      727
 90
      728
 90
      729
 90
      730
 90
      731
 90
      732
 90
      733
 90
      734
 90
      735
 90
      736
 90
      737
 90
      738
 90
      739
 90
      740
 90
      741
 90
      742
 90
      743
 90
      744
 90
      745
 90
      746
 90
      747
 90
      748
 90
      749
 90
      750
 90
      751
 90
      752
 90
      753
 90
      754
 90
      755
 90
      756
 90
      757
 90
      758
 90
      759
 90
      760
 90
      761
 90
      762
 90
      763
 90
      764
 90
      765
 90
      766
 90
      767
 90
      768
 90
      769
 90
      770
 90
      771
 90
      772
 90
      773
 90
      774
 90
      775
 90
      776
 90
      777
 90
      778
 90
      779
 90
      780
 90
      781
 90
      782
 90
      783
 90
      784
 90
      785
 90
      786
 90
      787
 90
      788
 90
      789
 90
      790
 90
      791
 90
      792
 90
      793
 90
      794
 90
      795
 90
      796
 90
      797
 90
      798
 90
      799
 90
      800
 90
      801
 90
      802
 90
      803
 90
      804
 90
      805
 90
      806
 90
      807
 90
      808
 90
      809
 90
      810
 90
      811
 90
      812
 90
      813
 90
      814
 90
      815
 90
      816
 90
      817
 90
      818
 90
      819
 90
      820
 90
      821
 90
      822
 90
      823
 90
      824
 90
      825
 90
      826
 90
      827
 90
      828
 90
      829
 90
      830
 90
      831
 90
      832
 90
      833
 90
      834
 90
      835
 90
      836
 90
      837
 90
      838
 90
      839
 90
      840
 90
      841
 90
      842
 90
      843
 90
      844
 90
      845
 90
      846
 90
      847
 90
      848
 90
      849
 90
      850
 90
      851
 90
      852
 90
      853
 90
      854
 90
      855
 90
      856
 90
      857
 90
      858
 90
      859
 90
      860
 90
      861
 90
      862
 90
      863
 90
      864
 90
      865
 90
      866
 90
      867
 90
      868
 90
      869
 90
      870
 90
      871
 90
      872
 90
      873
 90
      874
 90
      875
 90
      876
 90
      877
 90
      878
 90
      879
 90
      880
 90
      881
 90
      882
 90
      883
 90
      884
 90
      885
 90
      886
 90
      887
 90
      888
 90
      889
 90
      890
 90
      891
 90
      892
 90
      893
 90
      894
 90
      895
 90
      896
 90
      897
 90
      898
 90
      899
 90
      900
 90
      901
 90
      902
 90
      903
 90
      904
 90
      905
 90
      906
 90
      907
 90
      908
 90
      909
 90
      910
 90
      911
 90
      912
 90
      913
 90
      914
 90
      915
 90
      916
 90
      917
 90
      918
 90
      919
 90
      920
 90
      921
 90
      922
 90
      923
 90
      924
 90
      925
 90
      926
 90
      927
 90
      928
 90
      929
 90
      930
 90
      931
 90
      932
 90
      933
 90
      934
 90
      935
 90
      936
 90
      937
 90
      938
 90
      939
 90
      940
 90
      941
 90
      942
 90
      943
 90
      944
 90
      945
 90
      946
 90
      947
 90
      948
 90
      949
 90
      950
 90
      951
 90
      952
 90
      953
 90
      954
 90
      955
 90
      956
 90
      957
 90
      958
 90
      959
 90
      960
 90
      961
 90
      962
 90
      963
 90
      964
 90
      965
 90
      966
 90
      967
 90
      968
 90
      969
 90
      970
 90
      971
 90
      972
 90
      973
 90
      974
 90
      975
 90
      976
 90
      977
 90
      978
 90
      979
 90
      980
 90
      981
 90
      982
 90
      983
 90
      984
 90
      985
 90
      986
 90
      987
 90
      988
 90
      989
 90
      990
 90
      991
 90
      992
 90
      993
 90
      994
 90
      995
 90
      996
 90
      997
 90
      998
 90
      999
 90
     1000
 90
     1001
 90
     1002
 90
     1003
 90
     1004
 90
     1005
 90
     1006
 90
     1007
 90
     1008
 90
     1009
 90
     1010
 90
     1011
 90
     1012
 90
     1013
 90
     1014
 90
     1015
 90
     1016
 90
     1017
 90
     1018
 90
     1019
 90
     1020
 90
     1021
 90
     1022
 90
     1023
 90
     1024
 90
     1025
 90
     1026
 90
     1027
 90
     1028
 90
     1029
 90
     1030
 90
     1031
 90
     1032
 90
     1033
 90
     1034
 90
     1035
 90
     1036
 90
     1037
 90
     1038
 90
     1039
 90
     1040
 90
     1041
 90
     1042
 90
     1043
 90
     1044
 90
     1045
 90
     1046
 90
     1047
 90
     1048
 90
     1049
 90
     1050
 90
     1051
 90
     1052
 90
     1053
 90
     1054
 90
     1055
 90
     1056
 90
     1057
 90
     1058
 90
     1059
 90
     1060
 90
     1061
 90
     1062
 90
     1063
 90
     1064
 90
     1065
 90
     1066
 90
     1067
 90
     1068
 90
     1069
 90
     1070
 90
     1071
 90
     1072
 90
     1073
 90
     1074
 90
     1075
 90
     1076
 90
     1077
 90
     1078
 90
     1079
 90
     1080
 90
     1081
 90
     1082
 90
     1083
 90
     1084
 90
     1085
 90
     1086
 90
     1087
 90
     1088
 90
     1089
 90
     1090
 90
     1091
 90
     1092
 90
     1093
 90
     1094
 90
     1095
 90
     1096
 90
     1097
 90
     1098
 90
     1099
 90
     1100
 90
     1101
 90
     1102
 90
     1103
 90
     1104
 90
     1105
 90
     1106
 90
     1107
 90
     1108
 90
     1109
 90
     1110
 90
     1111
 90
     1112
 90
     1113
 90
     1114
 90
     1115
 90
     1116
 90
     1117
 90
     1118
 90
     1119
 90
     1120
 90
     1121
 90
     1122
 90
     1123
 90
     1124
 90
     1125
 90
     1126
 90
     1127
 90
     1128
 90
     1129
 90
     1130
 90
     1131
 90
     1132
 90
     1133
 90
     1134
 90
     1135
 90
     1136
 90
     1137
 90
     1138
 90
     1139
 90
     1140
 90
     1141
 90
     1142
 90
     1143
 90
     1144
 90
     1145
 90
     1146
 90
     1147
 90
     1148
 90
     1149
 90
     1150
 90
     1151
 90
     1152
 90
     1153
 90
     1154
 90
     1155
 90
     1156
 90
     1157
 90
     1158
 90
     1159
 90
     1160
 90
     1161
 90
     1162
 90
     1163
 90
     1164
 90
     1165
 90
     1166
 90
     1167
 90
     1168
 90
     1169
 90
     1170
 90
     1171
 90
     1172
 90
     1173
 90
     1174
 90
     1175
 90
     1176
 90
     1177
 90
     1178
 90
     1179
 90
     1180
 90
     1181
 90
     1182
 90
     1183
 90
     1184
 90
     1185
 90
     1186
 90
     1187
 90
     1188
 90
     1189
 90
     1190
 90
     1191
 90
     1192
 90
     1193
 90
     1194
 90
     1195
 90
     1196
 90
     1197
 90
     1198
 90
     1199
 90
     1200
 90
     1201
 90
     1202
 90
     1203
 90
     1204
 90
     1205
 90
     1206
 90
     1207
 90
     1208
 90
     1209
 90
     1210
 90
     1211
 90
     1212
 90
     1213
 90
     1214
 90
     1215
 90
     1216
 90
     1217
 90
     1218
 90
     1219
 90
     1220
 90
     1221
 90
     1222
 90
     1223
 90
     1224
 90
     1225
 90
     1226
 90
     1227
 90
     1228
 90
     1229
 90
     1230
 90
     1231
 90
     1232
 90
     1233
 90
     1234
 90
     1235
 90
     1236
 90
     1237
 90
     1238
 90
     1239
 90
     1240
 90
     1241
 90
     1242
 90
     1243
 90
     1244
 90
     1245
 90
     1246
 90
     1247
 90
     1248
 90
     1249
 90
     1250
 90
     1251
 90
     1252
 90
     1253
 90
     1254
 90
     1255
 90
     1256
 90
     1257
 90
     1258
 90
     1259
 90
     1260
 90
        0
 90
        0
290
     0
  0
XRECORD
  5
1A5
102
{ACAD_REACTORS
330
C
102
}
330
C
100
AcDbXrecord
280
     1
300
ACD
300
2022
300

  0
DICTIONARY
  5
73
102
{ACAD_REACTORS
330
C
102
}
330
C
100
AcDbDictionary
281
     1
  0
DICTIONARY
  5
1AB
102
{ACAD_REACTORS
330
C
102
}
330
C
100
AcDbDictionary
281
     1
  3
Imperial24
350
1AC
  3
Metric50
350
224
  0
DICTIONARY
  5
D
102
{ACAD_REACTORS
330
C
102
}
330
C
100
AcDbDictionary
281
     1
  0
DICTIONARY
  5
1A
102
{ACAD_REACTORS
330
C
102
}
330
C
100
AcDbDictionary
281
     1
  3
Layout1
350
59
  3
Layout2
350
5E
  3
Model
350
22
  0
DICTIONARY
  5
72
102
{ACAD_REACTORS
330
C
102
}
330
C
100
AcDbDictionary
281
     1
  3
ByBlock
350
97
  3
ByLayer
350
96
  3
Global
350
98
  0
DICTIONARY
  5
D7
102
{ACAD_REACTORS
330
C
102
}
330
C
100
AcDbDictionary
281
     1
  3
Standard
350
D8
  0
DICTIONARY
  5
17
102
{ACAD_REACTORS
330
C
102
}
330
C
100
AcDbDictionary
281
     1
  3
Standard
350
18
  0
DICTIONARY
  5
19
102
{ACAD_REACTORS
330
C
102
}
330
C
100
AcDbDictionary
281
     1
  0
ACDBDICTIONARYWDFLT
  5
E
102
{ACAD_REACTORS
330
C
102
}
330
C
100
AcDbDictionary
281
     1
  3
Normal
350
F
100
AcDbDictionaryWithDefault
340
F
  0
DICTIONARY
  5
B6
102
{ACAD_REACTORS
330
C
102
}
330
C
100
AcDbDictionary
281
     1
  3
*A1
350
2283
  3
A0
350
B7
  3
A1
350
124
  3
A2
350
125
  3
A3
350
126
  3
A4
350
127
  3
A5
350
128
  3
A6
350
129
  3
A7
350
12A
  3
A8
350
12B
  3
A9
350
12C
  3
B0
350
12D
  3
B1
350
12E
  3
B2
350
12F
  3
B3
350
130
  3
B4
350
131
  3
B5
350
132
  3
B6
350
133
  3
B7
350
134
  3
B8
350
135
  3
B9
350
136
  3
C0
350
137
  3
C1
350
138
  3
C2
350
139
  3
C3
350
13A
  3
C4
350
13B
  3
C5
350
13C
  3
C6
350
13D
  3
C7
350
13E
  3
C8
350
13F
  3
C9
350
140
  3
D0
350
141
  3
D1
350
142
  3
D2
350
143
  0
DICTIONARY
  5
1A8
102
{ACAD_REACTORS
330
C
102
}
330
C
100
AcDbDictionary
281
     1
  3
Imperial24
350
1AA
  3
Metric50
350
223
  0
DICTIONARY
  5
86
102
{ACAD_REACTORS
330
C
102
}
330
C
100
AcDbDictionary
281
     1
  3
Standard
350
87
  0
DICTIONARY
  5
99
102
{ACAD_REACTORS
330
C
102
}
330
C
100
AcDbDictionary
281
     1
  3
2dWireframe
350
9F
  3
3dWireframe
350
22946
  3
Basic
350
9E
  3
Brighten
350
A5
  3
ColorChange
350
A9
  3
Conceptual
350
A2
  3
Dim
350
A4
  3
EdgeColorOff
350
175
  3
Facepattern
350
A8
  3
Flat
350
9A
  3
FlatWithEdges
350
9B
  3
Gouraud
350
9C
  3
GouraudWithEdges
350
9D
  3
Hidden
350
A1
  3
JitterOff
350
173
  3
Linepattern
350
A7
  3
OverhangOff
350
174
  3
Realistic
350
A3
  3
Shaded
350
182
  3
Shaded with edges
350
181
  3
Shades of Gray
350
17E
  3
Sketchy
350
17F
  3
Thicken
350
A6
  3
Wireframe
350
A0
  3
X-Ray
350
180
  0
WIPEOUTVARIABLES
  5
59B06
102
{ACAD_REACTORS
330
C
102
}
330
C
100
AcDbWipeoutVariables
 70
     1
  0
XRECORD
  5
67411
102
{ACAD_REACTORS
330
C
102
}
330
C
100
AcDbXrecord
280
     1
 90
        1
330
87
  0
DICTIONARY
  5
4A0D5
102
{ACAD_REACTORS
330
C
102
}
330
C
100
AcDbDictionary
281
     2
  3
#COMPAREDIFFTOTAL
350
4A0D6
  3
#REVCLOUDAPPROXARCLEN
350
4A0D7
  3
ANNOALLVISIBLE
350
4A0D8
  3
CANNOSCALE
350
4A0D9
  3
CMLEADERSTYLE
350
4A0DA
  3
CTABLESTYLE
350
4A0DB
  3
CVIEWDETAILSTYLE
350
4A0DC
  3
CVIEWSECTIONSTYLE
350
4A0DD
  3
DIMADEC
350
4A0DE
  3
DIMASSOC
350
4A0DF
  3
DWFFRAME
350
4A0E0
  3
HIDETEXT
350
4A0E1
  3
HPCOLOR
350
4A0E2
  3
HPLAYER
350
4A0E3
  3
HPTRANSPARENCY
350
4A0E4
  3
INDEXCTL
350
4A0E5
  3
LAYEREVAL
350
4A0E6
  3
LAYERNOTIFY
350
4A0E7
  3
LIGHTINGUNITS
350
4A0E8
  3
MLEADERSCALE
350
4A0E9
  3
MSLTSCALE
350
4A0EA
  3
MSOLESCALE
350
4A0EB
  3
PDFFRAME
350
4A0EC
  3
POINTCLOUDCLIPFRAME
350
4A0ED
  3
PROJECTNAME
350
4A0EE
  3
SOLIDHIST
350
4A0EF
  3
SORTENTS
350
4A0F0
  0
DICTIONARY
  5
22D1
102
{ACAD_REACTORS
330
C
102
}
330
C
100
AcDbDictionary
281
     1
  0
DICTIONARY
  5
18F
102
{ACAD_REACTORS
330
18E
102
}
330
18E
100
AcDbDictionary
281
     1
  0
SORTENTSTABLE
  5
28E
102
{ACAD_REACTORS
330
15D
102
}
330
15D
100
AcDbSortentsTable
330
1F
  0
ACDBDETAILVIEWSTYLE
  5
1AC
102
{ACAD_REACTORS
330
1AB
102
}
330
1AB
100
AcDbModelDocViewStyle
 70
     0
  3
Imperial24
290
     0
300
Imperial24
 90
        0
100
AcDbDetailViewStyle
 70
     0
 71
     0
 90
        3
 71
     1
340
11
 62
   256
 40
0.24
340
0
 62
   256
 40
0.24
300

 40
0.36
280
     3
 71
     2
340
16
 90
       25
 62
   256
 71
     3
340
11
 62
   256
 40
0.24
 90
        1
 40
0.75
 90
        1
300
%<\AcVar ViewType \f "%tc1">% %<\AcVar ViewDetailId>%\PSCALE %<\AcVar ViewScale \f "%sn">%
 71
     4
340
16
 90
       25
 62
   256
340
16
 90
       25
 62
   256
280
     0
  0
ACDBDETAILVIEWSTYLE
  5
224
102
{ACAD_REACTORS
330
1AB
102
}
330
1AB
100
AcDbModelDocViewStyle
 70
     0
  3
Metric50
290
     0
300
Metric50
 90
        0
100
AcDbDetailViewStyle
 70
     0
 71
     0
 90
        3
 71
     1
340
11
 62
   256
 40
5.0
340
0
 62
   256
 40
5.0
300

 40
0.0
280
     1
 71
     2
340
16
 90
       25
 62
   256
 71
     3
340
11
 62
   256
 40
5.0
 90
        0
 40
15.0
 90
        1
300
%<\AcVar ViewDetailId>% (%<\AcVar ViewScale \f "%sn">%)
 71
     4
340
16
 90
       25
 62
   256
340
16
 90
       25
 62
   256
280
     0
  0
LAYOUT
  5
59
102
{ACAD_REACTORS
330
1A
102
}
330
1A
100
AcDbPlotSettings
  1

  2
None
  4

  6

 40
0.0
 41
0.0
 42
0.0
 43
0.0
 44
0.0
 45
0.0
 46
0.0
 47
0.0
 48
0.0
 49
0.0
140
0.0
141
0.0
142
1.0
143
1.0
 70
   688
 72
     0
 73
     0
 74
     5
  7

 75
    16
147
1.0
 76
     0
 77
     2
 78
   300
148
0.0
149
0.0
100
AcDbLayout
  1
Layout1
 70
     1
 71
     1
 10
0.0
 20
0.0
 11
12.0
 21
9.0
 12
0.0
 22
0.0
 32
0.0
 14
0.0
 24
0.0
 34
0.0
 15
0.0
 25
0.0
 35
0.0
146
0.0
 13
0.0
 23
0.0
 33
0.0
 16
1.0
 26
0.0
 36
0.0
 17
0.0
 27
1.0
 37
0.0
 76
     0
330
58
  0
LAYOUT
  5
5E
102
{ACAD_REACTORS
330
1A
102
}
330
1A
100
AcDbPlotSettings
  1

  2
None
  4

  6

 40
0.0
 41
0.0
 42
0.0
 43
0.0
 44
0.0
 45
0.0
 46
0.0
 47
0.0
 48
0.0
 49
0.0
140
0.0
141
0.0
142
1.0
143
1.0
 70
   688
 72
     0
 73
     0
 74
     5
  7

 75
    16
147
1.0
 76
     0
 77
     2
 78
   300
148
0.0
149
0.0
100
AcDbLayout
  1
Layout2
 70
     1
 71
     2
 10
0.0
 20
0.0
 11
12.0
 21
9.0
 12
0.0
 22
0.0
 32
0.0
 14
0.0
 24
0.0
 34
0.0
 15
0.0
 25
0.0
 35
0.0
146
0.0
 13
0.0
 23
0.0
 33
0.0
 16
1.0
 26
0.0
 36
0.0
 17
0.0
 27
1.0
 37
0.0
 76
     0
330
5D
  0
LAYOUT
  5
22
102
{ACAD_XDICTIONARY
360
194
102
}
102
{ACAD_REACTORS
330
1A
102
}
330
1A
100
AcDbPlotSettings
  1

  2
none_device
  4
ANSI_A_(8.50_x_11.00_Inches)
  6

 40
6.349999904632568
 41
19.04999923706055
 42
6.350006103515625
 43
19.04998779296875
 44
215.8999938964844
 45
279.3999938964844
 46
0.0
 47
0.0
 48
0.0
 49
0.0
140
0.0
141
0.0
142
1.0
143
2.584895464708373
 70
 11952
 72
     0
 73
     1
 74
     0
  7

 75
     0
147
0.3868628397755418
 76
     0
 77
     2
 78
   300
148
0.0
149
0.0
100
AcDbLayout
  1
Model
 70
     1
 71
     0
 10
0.0
 20
0.0
 11
12.0
 21
9.0
 12
0.0
 22
0.0
 32
0.0
 14
0.0
 24
0.0
 34
0.0
 15
0.0
 25
0.0
 35
0.0
146
0.0
 13
0.0
 23
0.0
 33
0.0
 16
1.0
 26
0.0
 36
0.0
 17
0.0
 27
1.0
 37
0.0
 76
     0
330
1F
331
94
  0
MATERIAL
  5
97
102
{ACAD_XDICTIONARY
360
188
102
}
102
{ACAD_REACTORS
330
72
102
}
330
72
100
AcDbMaterial
  1
ByBlock
 94
       63
  0
MATERIAL
  5
96
102
{ACAD_XDICTIONARY
360
186
102
}
102
{ACAD_REACTORS
330
72
102
}
330
72
100
AcDbMaterial
  1
ByLayer
 94
       63
  0
MATERIAL
  5
98
102
{ACAD_XDICTIONARY
360
110
102
}
102
{ACAD_REACTORS
330
72
102
}
330
72
100
AcDbMaterial
  1
Global
 43
0.0208000000566244
 43
0.0
 43
0.0
 43
0.0
 43
0.0
 43
0.0208000000566244
 43
0.0
 43
0.0
 43
0.0
 43
0.0
 43
1.0
 43
0.0
 43
0.0
 43
0.0
 43
0.0
 43
1.0
 49
0.0208000000566244
 49
0.0
 49
0.0
 49
0.0
 49
0.0
 49
0.0208000000566244
 49
0.0
 49
0.0
 49
0.0
 49
0.0
 49
1.0
 49
0.0
 49
0.0
 49
0.0
 49
0.0
 49
1.0
142
0.0208000000566244
142
0.0
142
0.0
142
0.0
142
0.0
142
0.0208000000566244
142
0.0
142
0.0
142
0.0
142
0.0
142
1.0
142
0.0
142
0.0
142
0.0
142
0.0
142
1.0
144
0.0208000000566244
144
0.0
144
0.0
144
0.0
144
0.0
144
0.0208000000566244
144
0.0
144
0.0
144
0.0
144
0.0
144
1.0
144
0.0
144
0.0
144
0.0
144
0.0
144
1.0
 94
       63
1001
ACAD
1070
    -1
1070
     3
1070
     0
1000

1071
        0
1070
     0
  0
MLEADERSTYLE
  5
D8
102
{ACAD_REACTORS
330
D7
102
}
330
D7
100
AcDbMLeaderStyle
179
     2
170
     2
171
     1
172
     0
 90
        2
 40
0.0
 41
0.0
173
     1
 91
-1056964608
340
14
 92
       -2
290
     1
 42
0.09
291
     1
 43
0.36
  3
Standard
 44
0.18
300

342
11
174
     1
178
     1
175
     1
176
     0
 93
-1056964608
 45
0.18
292
     0
297
     0
 46
0.18
 94
-1056964608
 47
1.0
 49
1.0
140
1.0
293
     1
141
0.0
294
     1
177
     0
142
1.0
295
     0
296
     0
143
0.125
271
     0
272
     9
273
     9
298
     0
  0
MLINESTYLE
  5
18
102
{ACAD_REACTORS
330
17
102
}
330
17
100
AcDbMlineStyle
  2
STANDARD
 70
     0
  3

 62
   256
 51
90.0
 52
90.0
 71
     2
 49
0.5
 62
   256
  6
BYLAYER
 49
-0.5
 62
   256
  6
BYLAYER
  0
ACDBPLACEHOLDER
  5
F
102
{ACAD_REACTORS
330
E
102
}
330
E
  0
SCALE
  5
2283
102
{ACAD_REACTORS
330
B6
102
}
330
B6
100
AcDbScale
 70
     0
300
1:75
140
1.0
141
75.0
290
     0
  0
SCALE
  5
B7
102
{ACAD_REACTORS
330
B6
102
}
330
B6
100
AcDbScale
 70
     0
300
1:1
140
1.0
141
1.0
290
     1
  0
SCALE
  5
124
102
{ACAD_REACTORS
330
B6
102
}
330
B6
100
AcDbScale
 70
     0
300
1:2
140
1.0
141
2.0
290
     0
  0
SCALE
  5
125
102
{ACAD_REACTORS
330
B6
102
}
330
B6
100
AcDbScale
 70
     0
300
1:4
140
1.0
141
4.0
290
     0
  0
SCALE
  5
126
102
{ACAD_REACTORS
330
B6
102
}
330
B6
100
AcDbScale
 70
     0
300
1:5
140
1.0
141
5.0
290
     0
  0
SCALE
  5
127
102
{ACAD_REACTORS
330
B6
102
}
330
B6
100
AcDbScale
 70
     0
300
1:8
140
1.0
141
8.0
290
     0
  0
SCALE
  5
128
102
{ACAD_REACTORS
330
B6
102
}
330
B6
100
AcDbScale
 70
     0
300
1:10
140
1.0
141
10.0
290
     0
  0
SCALE
  5
129
102
{ACAD_REACTORS
330
B6
102
}
330
B6
100
AcDbScale
 70
     0
300
1:16
140
1.0
141
16.0
290
     0
  0
SCALE
  5
12A
102
{ACAD_REACTORS
330
B6
102
}
330
B6
100
AcDbScale
 70
     0
300
1:20
140
1.0
141
20.0
290
     0
  0
SCALE
  5
12B
102
{ACAD_REACTORS
330
B6
102
}
330
B6
100
AcDbScale
 70
     0
300
1:30
140
1.0
141
30.0
290
     0
  0
SCALE
  5
12C
102
{ACAD_REACTORS
330
B6
102
}
330
B6
100
AcDbScale
 70
     0
300
1:40
140
1.0
141
40.0
290
     0
  0
SCALE
  5
12D
102
{ACAD_REACTORS
330
B6
102
}
330
B6
100
AcDbScale
 70
     0
300
1:50
140
1.0
141
50.0
290
     0
  0
SCALE
  5
12E
102
{ACAD_REACTORS
330
B6
102
}
330
B6
100
AcDbScale
 70
     0
300
1:100
140
1.0
141
100.0
290
     0
  0
SCALE
  5
12F
102
{ACAD_REACTORS
330
B6
102
}
330
B6
100
AcDbScale
 70
     0
300
2:1
140
2.0
141
1.0
290
     0
  0
SCALE
  5
130
102
{ACAD_REACTORS
330
B6
102
}
330
B6
100
AcDbScale
 70
     0
300
4:1
140
4.0
141
1.0
290
     0
  0
SCALE
  5
131
102
{ACAD_REACTORS
330
B6
102
}
330
B6
100
AcDbScale
 70
     0
300
8:1
140
8.0
141
1.0
290
     0
  0
SCALE
  5
132
102
{ACAD_REACTORS
330
B6
102
}
330
B6
100
AcDbScale
 70
     0
300
10:1
140
10.0
141
1.0
290
     0
  0
SCALE
  5
133
102
{ACAD_REACTORS
330
B6
102
}
330
B6
100
AcDbScale
 70
     0
300
100:1
140
100.0
141
1.0
290
     0
  0
SCALE
  5
134
102
{ACAD_REACTORS
330
B6
102
}
330
B6
100
AcDbScale
 70
     0
300
1/128" = 1'-0"
140
0.0078125
141
12.0
290
     0
  0
SCALE
  5
135
102
{ACAD_REACTORS
330
B6
102
}
330
B6
100
AcDbScale
 70
     0
300
1/64" = 1'-0"
140
0.015625
141
12.0
290
     0
  0
SCALE
  5
136
102
{ACAD_REACTORS
330
B6
102
}
330
B6
100
AcDbScale
 70
     0
300
1/32" = 1'-0"
140
0.03125
141
12.0
290
     0
  0
SCALE
  5
137
102
{ACAD_REACTORS
330
B6
102
}
330
B6
100
AcDbScale
 70
     0
300
1/16" = 1'-0"
140
0.0625
141
12.0
290
     0
  0
SCALE
  5
138
102
{ACAD_REACTORS
330
B6
102
}
330
B6
100
AcDbScale
 70
     0
300
3/32" = 1'-0"
140
0.09375
141
12.0
290
     0
  0
SCALE
  5
139
102
{ACAD_REACTORS
330
B6
102
}
330
B6
100
AcDbScale
 70
     0
300
1/8" = 1'-0"
140
0.125
141
12.0
290
     0
  0
SCALE
  5
13A
102
{ACAD_REACTORS
330
B6
102
}
330
B6
100
AcDbScale
 70
     0
300
3/16" = 1'-0"
140
0.1875
141
12.0
290
     0
  0
SCALE
  5
13B
102
{ACAD_REACTORS
330
B6
102
}
330
B6
100
AcDbScale
 70
     0
300
1/4" = 1'-0"
140
0.25
141
12.0
290
     0
  0
SCALE
  5
13C
102
{ACAD_REACTORS
330
B6
102
}
330
B6
100
AcDbScale
 70
     0
300
3/8" = 1'-0"
140
0.375
141
12.0
290
     0
  0
SCALE
  5
13D
102
{ACAD_REACTORS
330
B6
102
}
330
B6
100
AcDbScale
 70
     0
300
1/2" = 1'-0"
140
0.5
141
12.0
290
     0
  0
SCALE
  5
13E
102
{ACAD_REACTORS
330
B6
102
}
330
B6
100
AcDbScale
 70
     0
300
3/4" = 1'-0"
140
0.75
141
12.0
290
     0
  0
SCALE
  5
13F
102
{ACAD_REACTORS
330
B6
102
}
330
B6
100
AcDbScale
 70
     0
300
1" = 1'-0"
140
1.0
141
12.0
290
     0
  0
SCALE
  5
140
102
{ACAD_REACTORS
330
B6
102
}
330
B6
100
AcDbScale
 70
     0
300
1-1/2" = 1'-0"
140
1.5
141
12.0
290
     0
  0
SCALE
  5
141
102
{ACAD_REACTORS
330
B6
102
}
330
B6
100
AcDbScale
 70
     0
300
3" = 1'-0"
140
3.0
141
12.0
290
     0
  0
SCALE
  5
142
102
{ACAD_REACTORS
330
B6
102
}
330
B6
100
AcDbScale
 70
     0
300
6" = 1'-0"
140
6.0
141
12.0
290
     0
  0
SCALE
  5
143
102
{ACAD_REACTORS
330
B6
102
}
330
B6
100
AcDbScale
 70
     0
300
1'-0" = 1'-0"
140
12.0
141
12.0
290
     0
  0
ACDBSECTIONVIEWSTYLE
  5
1AA
102
{ACAD_REACTORS
330
1A8
102
}
330
1A8
100
AcDbModelDocViewStyle
 70
     0
  3
Imperial24
290
     0
300
Imperial24
 90
        0
100
AcDbSectionViewStyle
 70
     0
 71
     0
 90
       78
 71
     1
340
11
 62
   256
 40
0.24
340
0
340
0
 62
   256
 40
0.24
300
I, O, Q, S, X, Z
 40
0.48
 90
        3
 40
0.18
 90
        1
 71
     2
340
16
 90
       25
 62
   256
340
16
 90
       50
 62
   256
 40
0.24
 40
0.0
 40
0.24
 71
     3
340
11
 62
   256
 40
0.24
 90
        1
 40
0.75
 90
        1
300
%<\AcVar ViewType \f "%tc1">% %<\AcVar ViewSectionStartId>%-%<\AcVar ViewSectionEndId>%\PSCALE %<\AcVar ViewScale \f "%sn">%
 71
     4
 62
   256
 62
   257
300
ANSI31
 40
1.0
 90
        0
290
     0
290
     0
 90
        6
 40
0.0
 40
1.570796326794896
 40
0.2617993877991494
 40
1.308996938995747
 40
-0.2617993877991494
 40
1.832595714594046
  0
ACDBSECTIONVIEWSTYLE
  5
223
102
{ACAD_REACTORS
330
1A8
102
}
330
1A8
100
AcDbModelDocViewStyle
 70
     0
  3
Metric50
290
     0
300
Metric50
 90
        0
100
AcDbSectionViewStyle
 70
     0
 71
     0
 90
      102
 71
     1
340
11
 62
   256
 40
5.0
340
0
340
0
 62
   256
 40
5.0
300
I, O, Q, S, X, Z
 40
10.0
 90
        0
 40
2.5
 90
        0
 71
     2
340
16
 90
       25
 62
   256
340
16
 90
       50
 62
   256
 40
5.0
 40
2.5
 40
5.0
 71
     3
340
11
 62
   256
 40
5.0
 90
        0
 40
15.0
 90
        1
300
%<\AcVar ViewSectionStartId>%-%<\AcVar ViewSectionEndId>% (%<\AcVar ViewScale \f "%sn">%)
 71
     4
 62
   256
 62
   257
300
ANSI31
 40
1.0
 90
        0
290
     0
290
     0
 90
        6
 40
0.0
 40
1.570796326794896
 40
0.2617993877991494
 40
1.308996938995747
 40
-0.2617993877991494
 40
1.832595714594046
  0
TABLESTYLE
  5
87
102
{ACAD_XDICTIONARY
360
104
102
}
102
{ACAD_REACTORS
330
86
102
}
330
86
100
AcDbTableStyle
280
     0
  3
Standard
 70
     0
 71
     0
 40
0.06
 41
0.06
280
     0
281
     0
  7
Standard
140
0.18
170
     2
 62
     0
 63
     7
283
     0
 90
      512
 91
        0
  1

274
    -2
284
     1
 64
     0
275
    -2
285
     1
 65
     0
276
    -2
286
     1
 66
     0
277
    -2
287
     1
 67
     0
278
    -2
288
     1
 68
     0
279
    -2
289
     1
 69
     0
  7
Standard
140
0.25
170
     5
 62
     0
 63
     7
283
     0
 90
      512
 91
        0
  1

274
    -2
284
     1
 64
     0
275
    -2
285
     1
 65
     0
276
    -2
286
     1
 66
     0
277
    -2
287
     1
 67
     0
278
    -2
288
     1
 68
     0
279
    -2
289
     1
 69
     0
  7
Standard
140
0.18
170
     5
 62
     0
 63
     7
283
     0
 90
      512
 91
        0
  1

274
    -2
284
     1
 64
     0
275
    -2
285
     1
 65
     0
276
    -2
286
     1
 66
     0
277
    -2
287
     1
 67
     0
278
    -2
288
     1
 68
     0
279
    -2
289
     1
 69
     0
  0
VISUALSTYLE
  5
9F
102
{ACAD_REACTORS
330
99
102
}
330
99
100
AcDbVisualStyle
  2
2dWireframe
 70
     4
177
     3
291
     0
 70
    58
 90
        0
176
     1
 90
        2
176
     1
 90
        1
176
     1
 90
        0
176
     1
 40
0.6
176
     1
 40
30.0
176
     1
 62
     7
420
 16777215
176
     1
 90
        1
176
     1
 90
        4
176
     1
 62
     7
176
     1
 62
   257
176
     1
 90
        1
176
     1
 90
        1
176
     1
 40
1.0
176
     1
 90
        0
176
     1
 62
   257
176
     1
 40
1.0
176
     1
 90
        1
176
     1
 90
        6
176
     1
 90
        2
176
     1
 62
     7
176
     1
 90
        5
176
     1
 90
        0
176
     1
 90
        0
176
     1
290
     0
176
     1
 90
        1
176
     1
 40
0.0
176
     1
 90
        0
176
     1
290
     1
176
     1
290
     1
176
     1
290
     0
176
     1
290
     0
176
     1
290
     0
176
     1
290
     0
176
     1
290
     0
176
     1
290
     0
176
     1
290
     0
176
     1
 90
       50
176
     1
 40
0.0
176
     1
 40
1.0
176
     1
 90
        0
176
     1
 62
    18
420
        0
176
     1
 90
       50
176
     1
 90
        3
176
     1
 62
     5
420
      255
176
     1
290
     0
176
     1
 90
       50
176
     1
 90
       50
176
     1
 90
       50
176
     1
290
     0
176
     1
 90
       50
176
     1
 62
   256
176
     0
 40
1.0
176
     0
 90
        2
176
     1
  1
strokes_ogs.tif
176
     1
290
     0
176
     1
 40
1.0
176
     1
 40
1.0
176
     1
  0
VISUALSTYLE
  5
22946
102
{ACAD_REACTORS
330
99
102
}
330
99
100
AcDbVisualStyle
  2
3dWireframe
 70
     5
177
     3
291
     0
 70
    58
 90
        0
176
     1
 90
        2
176
     1
 90
        0
176
     1
 90
        0
176
     1
 40
0.6
176
     1
 40
30.0
176
     1
 62
     7
176
     1
 90
        1
176
     1
 90
        4
176
     1
 62
     7
176
     1
 62
   257
176
     1
 90
        1
176
     1
 90
        1
176
     1
 40
1.0
176
     1
 90
        0
176
     1
 62
   257
176
     1
 40
1.0
176
     1
 90
        1
176
     1
 90
        6
176
     1
 90
        2
176
     1
 62
     7
176
     1
 90
        5
176
     1
 90
        0
176
     1
 90
        0
176
     1
290
     0
176
     1
 90
        1
176
     1
 40
0.0
176
     1
 90
        0
176
     1
290
     0
176
     1
290
     1
176
     1
290
     1
176
     1
290
     0
176
     1
290
     0
176
     1
290
     0
176
     1
290
     0
176
     1
290
     0
176
     1
290
     0
176
     1
 90
       50
176
     1
 40
0.0
176
     1
 40
1.0
176
     1
 90
        0
176
     1
 62
    18
420
        0
176
     1
 90
       50
176
     1
 90
        3
176
     1
 62
     5
420
      255
176
     1
290
     0
176
     1
 90
       50
176
     1
 90
       50
176
     1
 90
       50
176
     1
290
     0
176
     1
 90
       50
176
     1
 62
   256
176
     0
 40
1.0
176
     0
 90
        2
176
     1
  1
strokes_ogs.tif
176
     1
290
     0
176
     1
 40
1.0
176
     1
 40
1.0
176
     1
  0
VISUALSTYLE
  5
9E
102
{ACAD_REACTORS
330
99
102
}
330
99
100
AcDbVisualStyle
  2
Basic
 70
     7
177
     3
291
     1
 70
    58
 90
        1
176
     1
 90
        0
176
     1
 90
        1
176
     1
 90
        0
176
     1
 40
0.6
176
     1
 40
30.0
176
     1
 62
     7
420
 16777215
176
     1
 90
        0
176
     1
 90
        4
176
     1
 62
     7
176
     1
 62
   257
176
     1
 90
        1
176
     1
 90
        1
176
     1
 40
1.0
176
     1
 90
        8
176
     1
 62
     7
176
     1
 40
1.0
176
     1
 90
        1
176
     1
 90
        6
176
     1
 90
        2
176
     1
 62
     7
176
     1
 90
        5
176
     1
 90
        0
176
     1
 90
        0
176
     1
290
     0
176
     1
 90
        1
176
     1
 40
0.0
176
     1
 90
        0
176
     1
290
     0
176
     1
290
     1
176
     1
290
     1
176
     1
290
     0
176
     1
290
     0
176
     1
290
     0
176
     1
290
     0
176
     1
290
     0
176
     1
290
     0
176
     1
 90
       50
176
     1
 40
0.0
176
     1
 40
1.0
176
     1
 90
        0
176
     1
 62
    18
420
        0
176
     1
 90
       50
176
     1
 90
        3
176
     1
 62
     5
420
      255
176
     1
290
     0
176
     1
 90
       50
176
     1
 90
       50
176
     1
 90
       50
176
     1
290
     0
176
     1
 90
       50
176
     1
 62
   256
176
     0
 40
1.0
176
     0
 90
        2
176
     1
  1
strokes_ogs.tif
176
     1
290
     0
176
     1
 40
1.0
176
     1
 40
1.0
176
     1
  0
VISUALSTYLE
  5
A5
102
{ACAD_REACTORS
330
99
102
}
330
99
100
AcDbVisualStyle
  2
Brighten
 70
    12
177
     3
291
     1
 70
    58
 90
        2
176
     1
 90
        2
176
     1
 90
        1
176
     1
 90
        0
176
     1
 40
0.6
176
     1
 40
30.0
176
     1
 62
     7
420
 16777215
176
     1
 90
        1
176
     1
 90
        4
176
     1
 62
     7
176
     1
 62
   257
176
     1
 90
        1
176
     1
 90
        1
176
     1
 40
1.0
176
     1
 90
        8
176
     1
 62
     7
176
     1
 40
1.0
176
     1
 90
        1
176
     1
 90
        6
176
     1
 90
        2
176
     1
 62
     7
176
     1
 90
        5
176
     1
 90
        0
176
     1
 90
        0
176
     1
290
     0
176
     1
 90
        1
176
     1
 40
50.0
176
     1
 90
        0
176
     1
290
     0
176
     1
290
     1
176
     1
290
     1
176
     1
290
     0
176
     1
290
     0
176
     1
290
     0
176
     1
290
     0
176
     1
290
     0
176
     1
290
     0
176
     1
 90
       50
176
     1
 40
0.0
176
     1
 40
1.0
176
     1
 90
        0
176
     1
 62
    18
420
        0
176
     1
 90
       50
176
     1
 90
        3
176
     1
 62
     5
420
      255
176
     1
290
     0
176
     1
 90
       50
176
     1
 90
       50
176
     1
 90
       50
176
     1
290
     0
176
     1
 90
       50
176
     1
 62
   256
176
     0
 40
1.0
176
     0
 90
        2
176
     1
  1
strokes_ogs.tif
176
     1
290
     0
176
     1
 40
1.0
176
     1
 40
1.0
176
     1
  0
VISUALSTYLE
  5
A9
102
{ACAD_REACTORS
330
99
102
}
330
99
100
AcDbVisualStyle
  2
ColorChange
 70
    16
177
     3
291
     1
 70
    58
 90
        2
176
     1
 90
        2
176
     1
 90
        3
176
     1
 90
        0
176
     1
 40
0.6
176
     1
 40
30.0
176
     1
 62
     8
420
  8421504
176
     1
 90
        1
176
     1
 90
        4
176
     1
 62
     7
176
     1
 62
   257
176
     1
 90
        1
176
     1
 90
        1
176
     1
 40
1.0
176
     1
 90
        8
176
     1
 62
     8
420
  8421504
176
     1
 40
1.0
176
     1
 90
        1
176
     1
 90
        6
176
     1
 90
        2
176
     1
 62
     7
176
     1
 90
        5
176
     1
 90
        0
176
     1
 90
        0
176
     1
290
     0
176
     1
 90
        1
176
     1
 40
0.0
176
     1
 90
        0
176
     1
290
     0
176
     1
290
     1
176
     1
290
     1
176
     1
290
     0
176
     1
290
     0
176
     1
290
     0
176
     1
290
     0
176
     1
290
     0
176
     1
290
     0
176
     1
 90
       50
176
     1
 40
0.0
176
     1
 40
1.0
176
     1
 90
        0
176
     1
 62
    18
420
        0
176
     1
 90
       50
176
     1
 90
        3
176
     1
 62
     5
420
      255
176
     1
290
     0
176
     1
 90
       50
176
     1
 90
       50
176
     1
 90
       50
176
     1
290
     0
176
     1
 90
       50
176
     1
 62
   256
176
     0
 40
1.0
176
     0
 90
        2
176
     1
  1
strokes_ogs.tif
176
     1
290
     0
176
     1
 40
1.0
176
     1
 40
1.0
176
     1
  0
VISUALSTYLE
  5
A2
102
{ACAD_REACTORS
330
99
102
}
330
99
100
AcDbVisualStyle
  2
Conceptual
 70
     9
177
     3
291
     0
 70
    58
 90
        3
176
     1
 90
        2
176
     1
 90
        1
176
     1
 90
        0
176
     1
 40
0.6
176
     1
 40
30.0
176
     1
 62
     7
420
 16777215
176
     1
 90
        2
176
     1
 90
        2
176
     1
 62
     7
176
     1
 62
   257
176
     1
 90
        1
176
     1
 90
        1
176
     1
 40
40.0
176
     1
 90
        8
176
     1
 62
     7
176
     1
 40
1.0
176
     1
 90
        1
176
     1
 90
        6
176
     1
 90
        2
176
     1
 62
     7
176
     1
 90
        3
176
     1
 90
        0
176
     1
 90
        0
176
     1
290
     0
176
     1
 90
        1
176
     1
 40
0.0
176
     1
 90
        0
176
     1
290
     0
176
     1
290
     1
176
     1
290
     1
176
     1
290
     0
176
     1
290
     0
176
     1
290
     0
176
     1
290
     0
176
     1
290
     0
176
     1
290
     0
176
     1
 90
       50
176
     1
 40
0.0
176
     1
 40
1.0
176
     1
 90
        0
176
     1
 62
    18
420
        0
176
     1
 90
       50
176
     1
 90
        3
176
     1
 62
     5
420
      255
176
     1
290
     0
176
     1
 90
       50
176
     1
 90
       50
176
     1
 90
       50
176
     1
290
     0
176
     1
 90
       50
176
     1
 62
   256
176
     0
 40
1.0
176
     0
 90
        2
176
     1
  1
strokes_ogs.tif
176
     1
290
     0
176
     1
 40
1.0
176
     1
 40
1.0
176
     1
  0
VISUALSTYLE
  5
A4
102
{ACAD_REACTORS
330
99
102
}
330
99
100
AcDbVisualStyle
  2
Dim
 70
    11
177
     3
291
     1
 70
    58
 90
        2
176
     1
 90
        2
176
     1
 90
        1
176
     1
 90
        0
176
     1
 40
0.6
176
     1
 40
30.0
176
     1
 62
     7
420
 16777215
176
     1
 90
        1
176
     1
 90
        4
176
     1
 62
     7
176
     1
 62
   257
176
     1
 90
        1
176
     1
 90
        1
176
     1
 40
1.0
176
     1
 90
        8
176
     1
 62
     7
176
     1
 40
1.0
176
     1
 90
        1
176
     1
 90
        6
176
     1
 90
        2
176
     1
 62
     7
176
     1
 90
        5
176
     1
 90
        0
176
     1
 90
        0
176
     1
290
     0
176
     1
 90
        1
176
     1
 40
-50.0
176
     1
 90
        0
176
     1
290
     0
176
     1
290
     1
176
     1
290
     1
176
     1
290
     0
176
     1
290
     0
176
     1
290
     0
176
     1
290
     0
176
     1
290
     0
176
     1
290
     0
176
     1
 90
       50
176
     1
 40
0.0
176
     1
 40
1.0
176
     1
 90
        0
176
     1
 62
    18
420
        0
176
     1
 90
       50
176
     1
 90
        3
176
     1
 62
     5
420
      255
176
     1
290
     0
176
     1
 90
       50
176
     1
 90
       50
176
     1
 90
       50
176
     1
290
     0
176
     1
 90
       50
176
     1
 62
   256
176
     0
 40
1.0
176
     0
 90
        2
176
     1
  1
strokes_ogs.tif
176
     1
290
     0
176
     1
 40
1.0
176
     1
 40
1.0
176
     1
  0
VISUALSTYLE
  5
175
102
{ACAD_REACTORS
330
99
102
}
330
99
100
AcDbVisualStyle
  2
EdgeColorOff
 70
    22
177
     3
291
     1
 70
    58
 90
        2
176
     0
 90
        2
176
     0
 90
        0
176
     0
 90
        0
176
     0
 40
0.6
176
     0
 40
30.0
176
     0
 62
     7
420
 16777215
176
     0
 90
        1
176
     0
 90
        4
176
     0
 62
     7
176
     0
 62
   257
176
     0
 90
        1
176
     0
 90
        1
176
     0
 40
1.0
176
     0
 90
        8
176
     2
 62
     7
176
     0
 40
1.0
176
     0
 90
        1
176
     0
 90
        6
176
     0
 90
        2
176
     0
 62
     7
176
     0
 90
        5
176
     0
 90
        0
176
     0
 90
        0
176
     0
290
     0
176
     0
 90
        1
176
     0
 40
0.0
176
     0
 90
        0
176
     0
290
     0
176
     1
290
     1
176
     1
290
     1
176
     1
290
     0
176
     1
290
     0
176
     1
290
     0
176
     1
290
     0
176
     1
290
     0
176
     1
290
     0
176
     1
 90
       50
176
     1
 40
0.0
176
     1
 40
1.0
176
     1
 90
        0
176
     1
 62
    18
420
        0
176
     1
 90
       50
176
     1
 90
        3
176
     1
 62
     5
420
      255
176
     1
290
     0
176
     1
 90
       50
176
     1
 90
       50
176
     1
 90
       50
176
     1
290
     0
176
     1
 90
       50
176
     1
 62
   256
176
     0
 40
1.0
176
     0
 90
        2
176
     1
  1
strokes_ogs.tif
176
     1
290
     0
176
     1
 40
1.0
176
     1
 40
1.0
176
     1
  0
VISUALSTYLE
  5
A8
102
{ACAD_REACTORS
330
99
102
}
330
99
100
AcDbVisualStyle
  2
Facepattern
 70
    15
177
     3
291
     1
 70
    58
 90
        2
176
     1
 90
        2
176
     1
 90
        1
176
     1
 90
        0
176
     1
 40
0.6
176
     1
 40
30.0
176
     1
 62
     7
420
 16777215
176
     1
 90
        1
176
     1
 90
        4
176
     1
 62
     7
176
     1
 62
   257
176
     1
 90
        1
176
     1
 90
        1
176
     1
 40
1.0
176
     1
 90
        8
176
     1
 62
     7
176
     1
 40
1.0
176
     1
 90
        1
176
     1
 90
        6
176
     1
 90
        2
176
     1
 62
     7
176
     1
 90
        5
176
     1
 90
        0
176
     1
 90
        0
176
     1
290
     0
176
     1
 90
        1
176
     1
 40
0.0
176
     1
 90
        0
176
     1
290
     0
176
     1
290
     1
176
     1
290
     1
176
     1
290
     0
176
     1
290
     0
176
     1
290
     0
176
     1
290
     0
176
     1
290
     0
176
     1
290
     0
176
     1
 90
       50
176
     1
 40
0.0
176
     1
 40
1.0
176
     1
 90
        0
176
     1
 62
    18
420
        0
176
     1
 90
       50
176
     1
 90
        3
176
     1
 62
     5
420
      255
176
     1
290
     0
176
     1
 90
       50
176
     1
 90
       50
176
     1
 90
       50
176
     1
290
     0
176
     1
 90
       50
176
     1
 62
   256
176
     0
 40
1.0
176
     0
 90
        2
176
     1
  1
strokes_ogs.tif
176
     1
290
     0
176
     1
 40
1.0
176
     1
 40
1.0
176
     1
  0
VISUALSTYLE
  5
9A
102
{ACAD_REACTORS
330
99
102
}
330
99
100
AcDbVisualStyle
  2
Flat
 70
     0
177
     3
291
     1
 70
    58
 90
        2
176
     1
 90
        1
176
     1
 90
        1
176
     1
 90
        2
176
     1
 40
0.6
176
     1
 40
30.0
176
     1
 62
     7
420
 16777215
176
     1
 90
        0
176
     1
 90
        0
176
     1
 62
     7
176
     1
 62
   257
176
     1
 90
        1
176
     1
 90
        1
176
     1
 40
1.0
176
     1
 90
        8
176
     1
 62
     7
176
     1
 40
1.0
176
     1
 90
        1
176
     1
 90
        6
176
     1
 90
        2
176
     1
 62
     7
176
     1
 90
        5
176
     1
 90
        0
176
     1
 90
        0
176
     1
290
     0
176
     1
 90
       13
176
     1
 40
0.0
176
     1
 90
        0
176
     1
290
     0
176
     1
290
     1
176
     1
290
     1
176
     1
290
     0
176
     1
290
     0
176
     1
290
     0
176
     1
290
     0
176
     1
290
     0
176
     1
290
     0
176
     1
 90
       50
176
     1
 40
0.0
176
     1
 40
1.0
176
     1
 90
        0
176
     1
 62
    18
420
        0
176
     1
 90
       50
176
     1
 90
        3
176
     1
 62
     5
420
      255
176
     1
290
     0
176
     1
 90
       50
176
     1
 90
       50
176
     1
 90
       50
176
     1
290
     0
176
     1
 90
       50
176
     1
 62
   256
176
     0
 40
1.0
176
     0
 90
        2
176
     1
  1
strokes_ogs.tif
176
     1
290
     0
176
     1
 40
1.0
176
     1
 40
1.0
176
     1
  0
VISUALSTYLE
  5
9B
102
{ACAD_REACTORS
330
99
102
}
330
99
100
AcDbVisualStyle
  2
FlatWithEdges
 70
     1
177
     3
291
     1
 70
    58
 90
        2
176
     1
 90
        1
176
     1
 90
        1
176
     1
 90
        2
176
     1
 40
0.6
176
     1
 40
30.0
176
     1
 62
     7
420
 16777215
176
     1
 90
        1
176
     1
 90
        0
176
     1
 62
     7
176
     1
 62
   257
176
     1
 90
        1
176
     1
 90
        1
176
     1
 40
1.0
176
     1
 90
        0
176
     1
 62
   257
176
     1
 40
1.0
176
     1
 90
        1
176
     1
 90
        6
176
     1
 90
        2
176
     1
 62
     7
176
     1
 90
        5
176
     1
 90
        0
176
     1
 90
        0
176
     1
290
     0
176
     1
 90
       13
176
     1
 40
0.0
176
     1
 90
        0
176
     1
290
     0
176
     1
290
     1
176
     1
290
     1
176
     1
290
     0
176
     1
290
     0
176
     1
290
     0
176
     1
290
     0
176
     1
290
     0
176
     1
290
     0
176
     1
 90
       50
176
     1
 40
0.0
176
     1
 40
1.0
176
     1
 90
        0
176
     1
 62
    18
420
        0
176
     1
 90
       50
176
     1
 90
        3
176
     1
 62
     5
420
      255
176
     1
290
     0
176
     1
 90
       50
176
     1
 90
       50
176
     1
 90
       50
176
     1
290
     0
176
     1
 90
       50
176
     1
 62
   256
176
     0
 40
1.0
176
     0
 90
        2
176
     1
  1
strokes_ogs.tif
176
     1
290
     0
176
     1
 40
1.0
176
     1
 40
1.0
176
     1
  0
VISUALSTYLE
  5
9C
102
{ACAD_REACTORS
330
99
102
}
330
99
100
AcDbVisualStyle
  2
Gouraud
 70
     2
177
     3
291
     1
 70
    58
 90
        2
176
     1
 90
        2
176
     1
 90
        1
176
     1
 90
        2
176
     1
 40
0.6
176
     1
 40
30.0
176
     1
 62
     7
420
 16777215
176
     1
 90
        0
176
     1
 90
        0
176
     1
 62
     7
176
     1
 62
   257
176
     1
 90
        1
176
     1
 90
        1
176
     1
 40
1.0
176
     1
 90
        0
176
     1
 62
     7
176
     1
 40
1.0
176
     1
 90
        1
176
     1
 90
        6
176
     1
 90
        2
176
     1
 62
     7
176
     1
 90
        5
176
     1
 90
        0
176
     1
 90
        0
176
     1
290
     0
176
     1
 90
       13
176
     1
 40
0.0
176
     1
 90
        0
176
     1
290
     0
176
     1
290
     1
176
     1
290
     1
176
     1
290
     0
176
     1
290
     0
176
     1
290
     0
176
     1
290
     0
176
     1
290
     0
176
     1
290
     0
176
     1
 90
       50
176
     1
 40
0.0
176
     1
 40
1.0
176
     1
 90
        0
176
     1
 62
    18
420
        0
176
     1
 90
       50
176
     1
 90
        3
176
     1
 62
     5
420
      255
176
     1
290
     0
176
     1
 90
       50
176
     1
 90
       50
176
     1
 90
       50
176
     1
290
     0
176
     1
 90
       50
176
     1
 62
   256
176
     0
 40
1.0
176
     0
 90
        2
176
     1
  1
strokes_ogs.tif
176
     1
290
     0
176
     1
 40
1.0
176
     1
 40
1.0
176
     1
  0
VISUALSTYLE
  5
9D
102
{ACAD_REACTORS
330
99
102
}
330
99
100
AcDbVisualStyle
  2
GouraudWithEdges
 70
     3
177
     3
291
     1
 70
    58
 90
        2
176
     1
 90
        2
176
     1
 90
        1
176
     1
 90
        2
176
     1
 40
0.6
176
     1
 40
30.0
176
     1
 62
     7
420
 16777215
176
     1
 90
        1
176
     1
 90
        0
176
     1
 62
     7
176
     1
 62
   257
176
     1
 90
        1
176
     1
 90
        1
176
     1
 40
1.0
176
     1
 90
        0
176
     1
 62
   257
176
     1
 40
1.0
176
     1
 90
        1
176
     1
 90
        6
176
     1
 90
        2
176
     1
 62
     7
176
     1
 90
        5
176
     1
 90
        0
176
     1
 90
        0
176
     1
290
     0
176
     1
 90
       13
176
     1
 40
0.0
176
     1
 90
        0
176
     1
290
     0
176
     1
290
     1
176
     1
290
     1
176
     1
290
     0
176
     1
290
     0
176
     1
290
     0
176
     1
290
     0
176
     1
290
     0
176
     1
290
     0
176
     1
 90
       50
176
     1
 40
0.0
176
     1
 40
1.0
176
     1
 90
        0
176
     1
 62
    18
420
        0
176
     1
 90
       50
176
     1
 90
        3
176
     1
 62
     5
420
      255
176
     1
290
     0
176
     1
 90
       50
176
     1
 90
       50
176
     1
 90
       50
176
     1
290
     0
176
     1
 90
       50
176
     1
 62
   256
176
     0
 40
1.0
176
     0
 90
        2
176
     1
  1
strokes_ogs.tif
176
     1
290
     0
176
     1
 40
1.0
176
     1
 40
1.0
176
     1
  0
VISUALSTYLE
  5
A1
102
{ACAD_REACTORS
330
99
102
}
330
99
100
AcDbVisualStyle
  2
Hidden
 70
     6
177
     3
291
     0
 70
    58
 90
        1
176
     1
 90
        2
176
     1
 90
        2
176
     1
 90
        0
176
     1
 40
0.6
176
     1
 40
30.0
176
     1
 62
     7
420
 16777215
176
     1
 90
        2
176
     1
 90
        2
176
     1
 62
     7
176
     1
 62
   257
176
     1
 90
        2
176
     1
 90
        1
176
     1
 40
40.0
176
     1
 90
        0
176
     1
 62
   257
176
     1
 40
1.0
176
     1
 90
        1
176
     1
 90
        6
176
     1
 90
        2
176
     1
 62
     7
176
     1
 90
        3
176
     1
 90
        0
176
     1
 90
        0
176
     1
290
     0
176
     1
 90
        1
176
     1
 40
0.0
176
     1
 90
        0
176
     1
290
     0
176
     1
290
     1
176
     1
290
     1
176
     1
290
     0
176
     1
290
     0
176
     1
290
     0
176
     1
290
     0
176
     1
290
     0
176
     1
290
     0
176
     1
 90
       50
176
     1
 40
0.0
176
     1
 40
1.0
176
     1
 90
        0
176
     1
 62
    18
420
        0
176
     1
 90
       50
176
     1
 90
        3
176
     1
 62
     5
420
      255
176
     1
290
     0
176
     1
 90
       50
176
     1
 90
       50
176
     1
 90
       50
176
     1
290
     0
176
     1
 90
       50
176
     1
 62
   256
176
     0
 40
1.0
176
     0
 90
        2
176
     1
  1
strokes_ogs.tif
176
     1
290
     0
176
     1
 40
1.0
176
     1
 40
1.0
176
     1
  0
VISUALSTYLE
  5
173
102
{ACAD_REACTORS
330
99
102
}
330
99
100
AcDbVisualStyle
  2
JitterOff
 70
    20
177
     3
291
     1
 70
    58
 90
        2
176
     0
 90
        2
176
     0
 90
        0
176
     0
 90
        0
176
     0
 40
0.6
176
     0
 40
30.0
176
     0
 62
     7
420
 16777215
176
     0
 90
        1
176
     0
 90
        4
176
     0
 62
     7
176
     0
 62
   257
176
     0
 90
        1
176
     0
 90
        1
176
     0
 40
1.0
176
     0
 90
       10
176
     2
 62
     7
176
     0
 40
1.0
176
     0
 90
        1
176
     0
 90
        6
176
     0
 90
        2
176
     0
 62
     7
176
     0
 90
        5
176
     0
 90
        0
176
     0
 90
        0
176
     0
290
     0
176
     0
 90
        1
176
     0
 40
0.0
176
     0
 90
        0
176
     0
290
     0
176
     1
290
     1
176
     1
290
     1
176
     1
290
     0
176
     1
290
     0
176
     1
290
     0
176
     1
290
     0
176
     1
290
     0
176
     1
290
     0
176
     1
 90
       50
176
     1
 40
0.0
176
     1
 40
1.0
176
     1
 90
        0
176
     1
 62
    18
420
        0
176
     1
 90
       50
176
     1
 90
        3
176
     1
 62
     5
420
      255
176
     1
290
     0
176
     1
 90
       50
176
     1
 90
       50
176
     1
 90
       50
176
     1
290
     0
176
     1
 90
       50
176
     1
 62
   256
176
     0
 40
1.0
176
     0
 90
        2
176
     1
  1
strokes_ogs.tif
176
     1
290
     0
176
     1
 40
1.0
176
     1
 40
1.0
176
     1
  0
VISUALSTYLE
  5
A7
102
{ACAD_REACTORS
330
99
102
}
330
99
100
AcDbVisualStyle
  2
Linepattern
 70
    14
177
     3
291
     1
 70
    58
 90
        2
176
     1
 90
        2
176
     1
 90
        1
176
     1
 90
        0
176
     1
 40
0.6
176
     1
 40
30.0
176
     1
 62
     7
420
 16777215
176
     1
 90
        1
176
     1
 90
        4
176
     1
 62
     7
176
     1
 62
   257
176
     1
 90
        7
176
     1
 90
        7
176
     1
 40
1.0
176
     1
 90
        8
176
     1
 62
     7
176
     1
 40
1.0
176
     1
 90
        1
176
     1
 90
        6
176
     1
 90
        2
176
     1
 62
     7
176
     1
 90
        5
176
     1
 90
        0
176
     1
 90
        0
176
     1
290
     0
176
     1
 90
        1
176
     1
 40
0.0
176
     1
 90
        0
176
     1
290
     0
176
     1
290
     1
176
     1
290
     1
176
     1
290
     0
176
     1
290
     0
176
     1
290
     0
176
     1
290
     0
176
     1
290
     0
176
     1
290
     0
176
     1
 90
       50
176
     1
 40
0.0
176
     1
 40
1.0
176
     1
 90
        0
176
     1
 62
    18
420
        0
176
     1
 90
       50
176
     1
 90
        3
176
     1
 62
     5
420
      255
176
     1
290
     0
176
     1
 90
       50
176
     1
 90
       50
176
     1
 90
       50
176
     1
290
     0
176
     1
 90
       50
176
     1
 62
   256
176
     0
 40
1.0
176
     0
 90
        2
176
     1
  1
strokes_ogs.tif
176
     1
290
     0
176
     1
 40
1.0
176
     1
 40
1.0
176
     1
  0
VISUALSTYLE
  5
174
102
{ACAD_REACTORS
330
99
102
}
330
99
100
AcDbVisualStyle
  2
OverhangOff
 70
    21
177
     3
291
     1
 70
    58
 90
        2
176
     0
 90
        2
176
     0
 90
        0
176
     0
 90
        0
176
     0
 40
0.6
176
     0
 40
30.0
176
     0
 62
     7
420
 16777215
176
     0
 90
        1
176
     0
 90
        4
176
     0
 62
     7
176
     0
 62
   257
176
     0
 90
        1
176
     0
 90
        1
176
     0
 40
1.0
176
     0
 90
        9
176
     2
 62
     7
176
     0
 40
1.0
176
     0
 90
        1
176
     0
 90
        6
176
     0
 90
        2
176
     0
 62
     7
176
     0
 90
        5
176
     0
 90
        0
176
     0
 90
        0
176
     0
290
     0
176
     0
 90
        1
176
     0
 40
0.0
176
     0
 90
        0
176
     0
290
     0
176
     1
290
     1
176
     1
290
     1
176
     1
290
     0
176
     1
290
     0
176
     1
290
     0
176
     1
290
     0
176
     1
290
     0
176
     1
290
     0
176
     1
 90
       50
176
     1
 40
0.0
176
     1
 40
1.0
176
     1
 90
        0
176
     1
 62
    18
420
        0
176
     1
 90
       50
176
     1
 90
        3
176
     1
 62
     5
420
      255
176
     1
290
     0
176
     1
 90
       50
176
     1
 90
       50
176
     1
 90
       50
176
     1
290
     0
176
     1
 90
       50
176
     1
 62
   256
176
     0
 40
1.0
176
     0
 90
        2
176
     1
  1
strokes_ogs.tif
176
     1
290
     0
176
     1
 40
1.0
176
     1
 40
1.0
176
     1
  0
VISUALSTYLE
  5
A3
102
{ACAD_REACTORS
330
99
102
}
330
99
100
AcDbVisualStyle
  2
Realistic
 70
     8
177
     3
291
     0
 70
    58
 90
        2
176
     1
 90
        2
176
     1
 90
        0
176
     1
 90
        2
176
     1
 40
0.6
176
     1
 40
30.0
176
     1
 62
     7
420
 16777215
176
     1
 90
        0
176
     1
 90
        0
176
     1
 62
     7
176
     1
 62
   257
176
     1
 90
        1
176
     1
 90
        1
176
     1
 40
1.0
176
     1
 90
        8
176
     1
 62
   257
176
     1
 40
1.0
176
     1
 90
        1
176
     1
 90
        6
176
     1
 90
        2
176
     1
 62
     7
176
     1
 90
        3
176
     1
 90
        0
176
     1
 90
        0
176
     1
290
     0
176
     1
 90
       13
176
     1
 40
0.0
176
     1
 90
        0
176
     1
290
     0
176
     1
290
     1
176
     1
290
     1
176
     1
290
     0
176
     1
290
     0
176
     1
290
     0
176
     1
290
     0
176
     1
290
     0
176
     1
290
     0
176
     1
 90
       50
176
     1
 40
0.0
176
     1
 40
1.0
176
     1
 90
        0
176
     1
 62
    18
420
        0
176
     1
 90
       50
176
     1
 90
        3
176
     1
 62
     5
420
      255
176
     1
290
     0
176
     1
 90
       50
176
     1
 90
       50
176
     1
 90
       50
176
     1
290
     0
176
     1
 90
       50
176
     1
 62
   256
176
     0
 40
1.0
176
     0
 90
        2
176
     1
  1
strokes_ogs.tif
176
     1
290
     0
176
     1
 40
1.0
176
     1
 40
1.0
176
     1
  0
VISUALSTYLE
  5
182
102
{ACAD_REACTORS
330
99
102
}
330
99
100
AcDbVisualStyle
  2
Shaded
 70
    27
177
     3
291
     0
 70
    58
 90
        2
176
     1
 90
        2
176
     1
 90
        1
176
     1
 90
        2
176
     1
 40
0.6
176
     1
 40
30.0
176
     1
 62
     7
420
 16777215
176
     1
 90
        0
176
     1
 90
        4
176
     1
 62
     7
176
     1
 62
   257
176
     1
 90
        1
176
     1
 90
        1
176
     1
 40
1.0
176
     1
 90
        8
176
     1
 62
   257
176
     1
 40
1.0
176
     1
 90
        1
176
     1
 90
        6
176
     1
 90
        2
176
     1
 62
     8
420
  7895160
176
     1
 90
        3
176
     1
 90
        0
176
     1
 90
        0
176
     1
290
     0
176
     1
 90
        5
176
     1
 40
0.0
176
     1
 90
        0
176
     1
290
     0
176
     1
290
     1
176
     1
290
     1
176
     1
290
     0
176
     1
290
     0
176
     1
290
     0
176
     1
290
     0
176
     1
290
     0
176
     1
290
     0
176
     1
 90
       50
176
     1
 40
0.0
176
     1
 40
1.0
176
     1
 90
        0
176
     1
 62
    18
420
        0
176
     1
 90
       50
176
     1
 90
        3
176
     1
 62
     5
420
      255
176
     1
290
     0
176
     1
 90
       50
176
     1
 90
       50
176
     1
 90
       50
176
     1
290
     0
176
     1
 90
       50
176
     1
 62
   256
176
     0
 40
1.0
176
     0
 90
        2
176
     1
  1
strokes_ogs.tif
176
     1
290
     0
176
     1
 40
1.0
176
     1
 40
1.0
176
     1
  0
VISUALSTYLE
  5
181
102
{ACAD_REACTORS
330
99
102
}
330
99
100
AcDbVisualStyle
  2
Shaded with edges
 70
    26
177
     3
291
     0
 70
    58
 90
        2
176
     1
 90
        2
176
     1
 90
        1
176
     1
 90
        2
176
     1
 40
0.6
176
     1
 40
30.0
176
     1
 62
     7
420
 16777215
176
     1
 90
        1
176
     1
 90
        2
176
     1
 62
     7
176
     1
 62
   257
176
     1
 90
        2
176
     1
 90
        1
176
     1
 40
1.0
176
     1
 90
        8
176
     1
 62
   257
176
     1
 40
1.0
176
     1
 90
        1
176
     1
 90
        6
176
     1
 90
        2
176
     1
 62
     7
176
     1
 90
        3
176
     1
 90
        0
176
     1
 90
        0
176
     1
290
     0
176
     1
 90
        5
176
     1
 40
0.0
176
     1
 90
        0
176
     1
290
     0
176
     1
290
     1
176
     1
290
     1
176
     1
290
     0
176
     1
290
     0
176
     1
290
     0
176
     1
290
     0
176
     1
290
     0
176
     1
290
     0
176
     1
 90
       50
176
     1
 40
0.0
176
     1
 40
1.0
176
     1
 90
        0
176
     1
 62
    18
420
        0
176
     1
 90
       50
176
     1
 90
        3
176
     1
 62
     5
420
      255
176
     1
290
     0
176
     1
 90
       50
176
     1
 90
       50
176
     1
 90
       50
176
     1
290
     0
176
     1
 90
       50
176
     1
 62
   256
176
     0
 40
1.0
176
     0
 90
        2
176
     1
  1
strokes_ogs.tif
176
     1
290
     0
176
     1
 40
1.0
176
     1
 40
1.0
176
     1
  0
VISUALSTYLE
  5
17E
102
{ACAD_REACTORS
330
99
102
}
330
99
100
AcDbVisualStyle
  2
Shades of Gray
 70
    23
177
     3
291
     0
 70
    58
 90
        2
176
     1
 90
        2
176
     1
 90
        3
176
     1
 90
        0
176
     1
 40
0.6
176
     1
 40
30.0
176
     1
 62
     7
420
 16777215
176
     1
 90
        2
176
     1
 90
        2
176
     1
 62
     7
176
     1
 62
     7
176
     1
 90
        1
176
     1
 90
        1
176
     1
 40
40.0
176
     1
 90
        8
176
     1
 62
     7
176
     1
 40
1.0
176
     1
 90
        1
176
     1
 90
        6
176
     1
 90
        2
176
     1
 62
     7
176
     1
 90
        3
176
     1
 90
        0
176
     1
 90
        0
176
     1
290
     0
176
     1
 90
        1
176
     1
 40
0.0
176
     1
 90
        0
176
     1
290
     0
176
     1
290
     1
176
     1
290
     1
176
     1
290
     0
176
     1
290
     0
176
     1
290
     0
176
     1
290
     0
176
     1
290
     0
176
     1
290
     0
176
     1
 90
       50
176
     1
 40
0.0
176
     1
 40
1.0
176
     1
 90
        0
176
     1
 62
    18
420
        0
176
     1
 90
       50
176
     1
 90
        3
176
     1
 62
     5
420
      255
176
     1
290
     0
176
     1
 90
       50
176
     1
 90
       50
176
     1
 90
       50
176
     1
290
     0
176
     1
 90
       50
176
     1
 62
   256
176
     0
 40
1.0
176
     0
 90
        2
176
     1
  1
strokes_ogs.tif
176
     1
290
     0
176
     1
 40
1.0
176
     1
 40
1.0
176
     1
  0
VISUALSTYLE
  5
17F
102
{ACAD_REACTORS
330
99
102
}
330
99
100
AcDbVisualStyle
  2
Sketchy
 70
    24
177
     3
291
     0
 70
    58
 90
        1
176
     1
 90
        2
176
     1
 90
        2
176
     1
 90
        0
176
     1
 40
0.6
176
     1
 40
30.0
176
     1
 62
     7
420
 16777215
176
     1
 90
        2
176
     1
 90
        2
176
     1
 62
     7
176
     1
 62
     7
176
     1
 90
        1
176
     1
 90
        1
176
     1
 40
40.0
176
     1
 90
       11
176
     1
 62
     7
176
     1
 40
1.0
176
     1
 90
        1
176
     1
 90
        6
176
     1
 90
        2
176
     1
 62
     7
176
     1
 90
        6
176
     1
 90
        0
176
     1
 90
        0
176
     1
290
     0
176
     1
 90
        1
176
     1
 40
0.0
176
     1
 90
        0
176
     1
290
     0
176
     1
290
     1
176
     1
290
     1
176
     1
290
     0
176
     1
290
     0
176
     1
290
     0
176
     1
290
     0
176
     1
290
     0
176
     1
290
     0
176
     1
 90
       50
176
     1
 40
0.0
176
     1
 40
1.0
176
     1
 90
        0
176
     1
 62
    18
420
        0
176
     1
 90
       50
176
     1
 90
        3
176
     1
 62
     5
420
      255
176
     1
290
     0
176
     1
 90
       50
176
     1
 90
       50
176
     1
 90
       50
176
     1
290
     0
176
     1
 90
       50
176
     1
 62
   256
176
     0
 40
1.0
176
     0
 90
        2
176
     1
  1
strokes_ogs.tif
176
     1
290
     0
176
     1
 40
1.0
176
     1
 40
1.0
176
     1
  0
VISUALSTYLE
  5
A6
102
{ACAD_REACTORS
330
99
102
}
330
99
100
AcDbVisualStyle
  2
Thicken
 70
    13
177
     3
291
     1
 70
    58
 90
        2
176
     1
 90
        2
176
     1
 90
        1
176
     1
 90
        0
176
     1
 40
0.6
176
     1
 40
30.0
176
     1
 62
     7
420
 16777215
176
     1
 90
        1
176
     1
 90
        4
176
     1
 62
     7
176
     1
 62
   257
176
     1
 90
        1
176
     1
 90
        1
176
     1
 40
1.0
176
     1
 90
       12
176
     1
 62
     7
176
     1
 40
1.0
176
     1
 90
        1
176
     1
 90
        6
176
     1
 90
        2
176
     1
 62
     7
176
     1
 90
        5
176
     1
 90
        0
176
     1
 90
        0
176
     1
290
     0
176
     1
 90
        1
176
     1
 40
0.0
176
     1
 90
        0
176
     1
290
     0
176
     1
290
     1
176
     1
290
     1
176
     1
290
     0
176
     1
290
     0
176
     1
290
     0
176
     1
290
     0
176
     1
290
     0
176
     1
290
     0
176
     1
 90
       50
176
     1
 40
0.0
176
     1
 40
1.0
176
     1
 90
        0
176
     1
 62
    18
420
        0
176
     1
 90
       50
176
     1
 90
        3
176
     1
 62
     5
420
      255
176
     1
290
     0
176
     1
 90
       50
176
     1
 90
       50
176
     1
 90
       50
176
     1
290
     0
176
     1
 90
       50
176
     1
 62
   256
176
     0
 40
1.0
176
     0
 90
        2
176
     1
  1
strokes_ogs.tif
176
     1
290
     0
176
     1
 40
1.0
176
     1
 40
1.0
176
     1
  0
VISUALSTYLE
  5
A0
102
{ACAD_REACTORS
330
99
102
}
330
99
100
AcDbVisualStyle
  2
Wireframe
 70
     5
177
     3
291
     0
 70
    58
 90
        0
176
     1
 90
        2
176
     1
 90
        0
176
     1
 90
        0
176
     1
 40
0.6
176
     1
 40
30.0
176
     1
 62
     7
420
 16777215
176
     1
 90
        1
176
     1
 90
        4
176
     1
 62
     7
176
     1
 62
   257
176
     1
 90
        1
176
     1
 90
        1
176
     1
 40
1.0
176
     1
 90
        0
176
     1
 62
   257
176
     1
 40
1.0
176
     1
 90
        1
176
     1
 90
        6
176
     1
 90
        2
176
     1
 62
     7
176
     1
 90
        3
176
     1
 90
        0
176
     1
 90
        0
176
     1
290
     0
176
     1
 90
        1
176
     1
 40
0.0
176
     1
 90
        0
176
     1
290
     0
176
     1
290
     1
176
     1
290
     1
176
     1
290
     0
176
     1
290
     0
176
     1
290
     0
176
     1
290
     0
176
     1
290
     0
176
     1
290
     0
176
     1
 90
       50
176
     1
 40
0.0
176
     1
 40
1.0
176
     1
 90
        0
176
     1
 62
    18
420
        0
176
     1
 90
       50
176
     1
 90
        3
176
     1
 62
     5
420
      255
176
     1
290
     0
176
     1
 90
       50
176
     1
 90
       50
176
     1
 90
       50
176
     1
290
     0
176
     1
 90
       50
176
     1
 62
   256
176
     0
 40
1.0
176
     0
 90
        2
176
     1
  1
strokes_ogs.tif
176
     1
290
     0
176
     1
 40
1.0
176
     1
 40
1.0
176
     1
  0
VISUALSTYLE
  5
180
102
{ACAD_REACTORS
330
99
102
}
330
99
100
AcDbVisualStyle
  2
X-Ray
 70
    25
177
     3
291
     0
 70
    58
 90
        2
176
     1
 90
        2
176
     1
 90
        1
176
     1
 90
        1
176
     1
 40
0.5
176
     1
 40
30.0
176
     1
 62
     7
420
 16777215
176
     1
 90
        1
176
     1
 90
        0
176
     1
 62
     7
176
     1
 62
   257
176
     1
 90
        1
176
     1
 90
        1
176
     1
 40
1.0
176
     1
 90
        8
176
     1
 62
     7
176
     1
 40
1.0
176
     1
 90
        1
176
     1
 90
        6
176
     1
 90
        2
176
     1
 62
     7
176
     1
 90
        3
176
     1
 90
        0
176
     1
 90
        0
176
     1
290
     0
176
     1
 90
       13
176
     1
 40
0.0
176
     1
 90
        0
176
     1
290
     0
176
     1
290
     1
176
     1
290
     1
176
     1
290
     0
176
     1
290
     0
176
     1
290
     0
176
     1
290
     0
176
     1
290
     0
176
     1
290
     0
176
     1
 90
       50
176
     1
 40
0.0
176
     1
 40
1.0
176
     1
 90
        0
176
     1
 62
    18
420
        0
176
     1
 90
       50
176
     1
 90
        3
176
     1
 62
     5
420
      255
176
     1
290
     0
176
     1
 90
       50
176
     1
 90
       50
176
     1
 90
       50
176
     1
290
     0
176
     1
 90
       50
176
     1
 62
   256
176
     0
 40
1.0
176
     0
 90
        2
176
     1
  1
strokes_ogs.tif
176
     1
290
     0
176
     1
 40
1.0
176
     1
 40
1.0
176
     1
  0
DICTIONARYVAR
  5
4A0D6
102
{ACAD_REACTORS
330
4A0D5
102
}
330
4A0D5
100
DictionaryVariables
280
     0
  1
2
  0
DICTIONARYVAR
  5
4A0D7
102
{ACAD_REACTORS
330
4A0D5
102
}
330
4A0D5
100
DictionaryVariables
280
     0
  1
400.000000
  0
DICTIONARYVAR
  5
4A0D8
102
{ACAD_REACTORS
330
4A0D5
102
}
330
4A0D5
100
DictionaryVariables
280
     0
  1
1
  0
DICTIONARYVAR
  5
4A0D9
102
{ACAD_REACTORS
330
4A0D5
102
}
330
4A0D5
100
DictionaryVariables
280
     0
  1
1:1
  0
DICTIONARYVAR
  5
4A0DA
102
{ACAD_REACTORS
330
4A0D5
102
}
330
4A0D5
100
DictionaryVariables
280
     0
  1
STANDARD
  0
DICTIONARYVAR
  5
4A0DB
102
{ACAD_REACTORS
330
4A0D5
102
}
330
4A0D5
100
DictionaryVariables
280
     0
  1
STANDARD
  0
DICTIONARYVAR
  5
4A0DC
102
{ACAD_REACTORS
330
4A0D5
102
}
330
4A0D5
100
DictionaryVariables
280
     0
  1
Imperial24
  0
DICTIONARYVAR
  5
4A0DD
102
{ACAD_REACTORS
330
4A0D5
102
}
330
4A0D5
100
DictionaryVariables
280
     0
  1
Imperial24
  0
DICTIONARYVAR
  5
4A0DE
102
{ACAD_REACTORS
330
4A0D5
102
}
330
4A0D5
100
DictionaryVariables
280
     0
  1
-1
  0
DICTIONARYVAR
  5
4A0DF
102
{ACAD_REACTORS
330
4A0D5
102
}
330
4A0D5
100
DictionaryVariables
280
     0
  1
1
  0
DICTIONARYVAR
  5
4A0E0
102
{ACAD_REACTORS
330
4A0D5
102
}
330
4A0D5
100
DictionaryVariables
280
     0
  1
2
  0
DICTIONARYVAR
  5
4A0E1
102
{ACAD_REACTORS
330
4A0D5
102
}
330
4A0D5
100
DictionaryVariables
280
     0
  1
0
  0
DICTIONARYVAR
  5
4A0E2
102
{ACAD_REACTORS
330
4A0D5
102
}
330
4A0D5
100
DictionaryVariables
280
     0
  1
4
  0
DICTIONARYVAR
  5
4A0E3
102
{ACAD_REACTORS
330
4A0D5
102
}
330
4A0D5
100
DictionaryVariables
280
     0
  1
V-Construction
  0
DICTIONARYVAR
  5
4A0E4
102
{ACAD_REACTORS
330
4A0D5
102
}
330
4A0D5
100
DictionaryVariables
280
     0
  1
ByLayer
  0
DICTIONARYVAR
  5
4A0E5
102
{ACAD_REACTORS
330
4A0D5
102
}
330
4A0D5
100
DictionaryVariables
280
     0
  1
0
  0
DICTIONARYVAR
  5
4A0E6
102
{ACAD_REACTORS
330
4A0D5
102
}
330
4A0D5
100
DictionaryVariables
280
     0
  1
0
  0
DICTIONARYVAR
  5
4A0E7
102
{ACAD_REACTORS
330
4A0D5
102
}
330
4A0D5
100
DictionaryVariables
280
     0
  1
0
  0
DICTIONARYVAR
  5
4A0E8
102
{ACAD_REACTORS
330
4A0D5
102
}
330
4A0D5
100
DictionaryVariables
280
     0
  1
2
  0
DICTIONARYVAR
  5
4A0E9
102
{ACAD_REACTORS
330
4A0D5
102
}
330
4A0D5
100
DictionaryVariables
280
     0
  1
1.000000
  0
DICTIONARYVAR
  5
4A0EA
102
{ACAD_REACTORS
330
4A0D5
102
}
330
4A0D5
100
DictionaryVariables
280
     0
  1
1
  0
DICTIONARYVAR
  5
4A0EB
102
{ACAD_REACTORS
330
4A0D5
102
}
330
4A0D5
100
DictionaryVariables
280
     0
  1
1.000000
  0
DICTIONARYVAR
  5
4A0EC
102
{ACAD_REACTORS
330
4A0D5
102
}
330
4A0D5
100
DictionaryVariables
280
     0
  1
1
  0
DICTIONARYVAR
  5
4A0ED
102
{ACAD_REACTORS
330
4A0D5
102
}
330
4A0D5
100
DictionaryVariables
280
     0
  1
0
  0
DICTIONARYVAR
  5
4A0EE
102
{ACAD_REACTORS
330
4A0D5
102
}
330
4A0D5
100
DictionaryVariables
280
     0
  1

  0
DICTIONARYVAR
  5
4A0EF
102
{ACAD_REACTORS
330
4A0D5
102
}
330
4A0D5
100
DictionaryVariables
280
     0
  1
0
  0
DICTIONARYVAR
  5
4A0F0
102
{ACAD_REACTORS
330
4A0D5
102
}
330
4A0D5
100
DictionaryVariables
280
     0
  1
127
  0
DICTIONARY
  5
194
330
22
100
AcDbDictionary
280
     1
281
     1
  0
DICTIONARY
  5
188
330
97
100
AcDbDictionary
280
     1
281
     1
  3
FBXASSET
360
189
  0
DICTIONARY
  5
186
330
96
100
AcDbDictionary
280
     1
281
     1
  3
FBXASSET
360
187
  0
DICTIONARY
  5
110
330
98
100
AcDbDictionary
280
     1
281
     1
  3
BUMPTILE
360
112
  3
DIFFUSETILE
360
111
  3
FBXASSET
360
18A
  3
OPACITYTILE
360
113
  3
REFLECTIONTILE
360
114
  0
DICTIONARY
  5
104
330
87
100
AcDbDictionary
280
     1
281
     1
  3
ACAD_ROUNDTRIP_2008_TABLESTYLE_CELLSTYLEMAP
360
67410
  0
XRECORD
  5
189
102
{ACAD_REACTORS
330
188
102
}
330
188
100
AcDbXrecord
280
     1
 70
     1
 90
429727718
  1
508B35C9-AEE7-456F-BE74-D52651303AC6
310
504B03040A0000080000B670623B3DEE336E79000000790000001B0000006175746F6465736B2D64657369676E2D7061636B6167652E786D6C3C3F786D6C2076657273696F6E3D22312E302220656E636F64696E673D227574662D3822203F3E3C666F726D6174733E3C666F726D61743E687474703A2F2F736368656D612E
310
6175746F6465736B2E636F6D2F64657369676E2D7061636B6167652F323030393C2F666F726D61743E3C2F666F726D6174733E504B0304140006080800B670623BD486FD9CA0000000F4000000130000005B436F6E74656E745F54797065735D2E786D6C7D8EC10E82300C865F65E91D8A1E8C310C0EEA1BF002731658846E
310
D98AC1B77784ABF1D8FE5FBFBF75BBCE937A534CCEB38643598122B6FEE978D0B0485F9C41B54DDD7D022595594E1A469170414C76A4D9A4D207E29CF43ECE46F218070CC6BECC4078ACAA135ACF422C856C0E68EA1BF5669944DDD7BCDE7B1F8E415D77AECB980613C2E4AC91FC167A2B244592486606FC29C8FD7F045B9A
310
EF7053A7E60B504B0304140006080800B670623B28ED286BEB0000007C01000008000000636F72652E786D6C8D90416EC3201045AF82665B6183218D6D61A254764FD00B204C5C94182C03558F5F9C3852BBEB6A467FFE9B197D71FA9E6FE8CBACC17AD7012D0820E3B41FAD9B3A48F1826B40272956EFE32F1B20A766D3C1
310
268314D3EAD3B24BDABB685CCCAAF3A3D94515828980F42D371D04FD696655A814B3235C8B45E9AB9A4C419F5D8653B2237A1CB163DE672FD6AC209BF3C08E0D1B30EB19C3FC9D72FCC6EB231EFA33EDE96BDD341517E5064B11EDFCBCAF57A3A2194156843498524CAA0FCA5B7268F9E185D42D21A2DCEC7FA0B48CFF8492
310
759155FBBB0F2C80A4F991FB408A72CB22977B50B96EB9C91F504B0304140006080800B670623B55019EA25F0000007C00000007000000636E782E786D6C4DCB3B0E80201045D1AD90E915ED2CF8AC45050C11660C8261F98AB1B07AC9C97D42D718D865D3E909258CFD00CCE24AC6E326A164D74DC0B4128928FF32603847
310
2BA13128B1252AC747C6BAB984FC68F0B87FE8960A5C09FE86CFB69FBA01504B0304140006080800B670623B7BC41AC871010000D40300000C0000006662782F636F72652E786D6CC553ED6E8320147D15C2DF4501B56B6D90A64BBB27D80B50A5CE54C120983EFEAE1F4DD7A56BBA5FF3879273EEE59E7310BE393735EA95
310
ED2AA333CC428A91D2B9292A5D66D8BB63B0C26823B835C67D2BC348CB46657880B1E0A535BE9DA1DC68A7B403549B42CDA0EC3AE530CA6B5864B8CB3F552343E91D5474A7B095F949962A6421D0502778E72C0840D390E18DC5F170E664C205F7BE2A66B62A605A75AC94C522DDEEE3651AEF837817C741F2CE92E02D592D
310
83FD6ECB76EC7595A651C2C9D02CB8AB9A8BBADC2AE954814544691A3016D0E883256BBA58278B17BA5A53CAC9507ED3E4DBE2C9265F691747B3DCA9ADC382819091F8E1162272A8933DE82182932144F88C09DF060D8140C84E1EEA8B8F1340BDCA9DB1093085F157AA97B557309586747CD0EF0B4EA64E983A6E0EAEEFCE
310
889E9EF17847386AA94B30211D2C0FDE0D3AF9A4610EAD5536E8DD1969631B593F67E381C33F5157F17725E5A636F6BF1491F980C8FC7B90E13E8A2F504B0304140006080800B670623B70102A487D0000009D0000000B0000006662782F636E782E786D6C4DCCD10A83201886E15B91FFDC95A5C30335ACCDFB886521330D
310
A76397BF1A1DECE883878F57749FD5A3B74D2F17830472A901D9F088930B8B849267CC01754AA418F3DF0D5018572BE160506249B16C274D761E8BCFBB7A179E27F65CB39A0F14D396184C9921B81F34C3ACA1B4B99ABB6E6F062A25AA5F69DF23ACBE504B0304140006080800B670623B3610CA3329010000120200003100
310
00006662782F42384135303843342D343331462D343546312D424341352D3532343432364645413344462F636F72652E786D6C8D515B6EC32010BC0AE22B55850D0E446E848992B43E412FE000495162B07854397EA176A4F62F3F2C9A9D991D58BEBB8F37F0AD7D30CE76905418026DA553C65E3A98E219B510EC04F7CEC5
310
3F3408EC30EA0E16180A7EF12E4D0B249D8DDAC68C5AA7F4020E21E80881BCE54B0783FCD2E3500D296646B856D320AFC34557A4CAEDCC133C449F0380794839A138B47B86DB2345744D7A44594FD0E1B867883594369BFE63BF7EEF793D0B054FC9A8456E548E63CE46FB674D8A58F068C6477CE9F510B582A2C1F80D1182
310
70F349E816B32D65AFB8DD62CCEB42FF274A937A52948C8DEB66893BCB021484D7734370E5D2E9F608A3EF93F3119479ABA0E50B14B8C298119A43CCC4FCFCECB8A18B6388CEE7EF5D5D4F994BD86CBBA182D76543B9FCAE2FD7B24DF103504B0304140006080800B670623B1B8617914E0100003303000030000000666278
310
2F42384135303843342D343331462D343546312D424341352D3532343432364645413344462F636E782E786D6CD593C16EC32010447F0571AD6CE3D489D20813A9877E410FBD62D82434182CC055F3F75D1292E692438FBD206B7698593D61BEFD1E2DF982108D773D6D6B460938E5B571FB9ECE6957AD29D90A1EBC4F7736
310
4A9C1CA1A759A682EF839FA72269D8C9D92654AD71C72206887E0E0A22CAF926B15E498B01E0AA19451807D01A34B919F16B070157417138917400F2F6FA41FCF0092A45DEE414C19BDC21783E4BD39D891265658C3D8DEA00A3ACE59CBC8678ACB54CB26EEB6BD7839D7E9348BE70AD9C8321B9BCA7F9A4A26C542347DEE0
310
50F09802D22BA6749A800A394DD62899107273365E3C82CFC6A55557BC06C10774B7ABE7AEC3B0F34CF06446280E154026D0542C187BA9DAB6628BF7B6DBB0E5A65B3EB1F58631DE64BBE083F7B65CC218087E22CABB042E51D1F2268F1FE12B3EA24D40D63E9CFE00120194D60B9D5BC67FE6D39CDF37E20AF817881F504B
310
0304140006080800B670623BBFEF2E3B690500003C100000340000006662782F42384135303843342D343331462D343546312D424341352D3532343432364645413344462F6F626A656374732E786D6CAD575D739B3814FD2B0CFB0C98D84E931D4227B6938EA793B6534F3BFB90198F0099B001899144EAECAFDF231018B0
310
D37A3FFC609090EEE7B94757C1FB7D915B2F54C88CB31BDB7727B64559CC938CA53776A576CE956DBD0F03C1B9EA2DB32D460A7A63EB693B0C52C1ABD24C257447AA5C8D66EF177F5832A68CDA569C13296F6C193FD182B8A4523CA1F2D94D88226EBADBBBBEDB2C1C8A4D05299F46424B222853B014F30C52ACC6287F389C
310
D85E1878FA7B18E87FB36AFAF62AAFF667A83F635211161F291B8999FAB3D5DDC5FCDA99CF6653677679E13B8BFBC5CAF1DF4D27CBCBE5F2FAF6EE1A8AA51290642C117467871F101B91C581D77CEA2C36869F3229E68CD1B8F61F1ED6361B89092D294B90C78C4A68EB793D190E7D1D9BDEE7A91E1B95FDE9F3BCEAEFE809
310
6A6D6F9F7D4B79F4275C90E7A04248AA51D5C4C738DAE06F72885AC4796EBE65D22A88A22223B995679120E2D50EB1542F098381188D4EA111AE3DB043FF20AF6F2B4AE3D7D83D65E5AECA730D4D3BAC91BD05FEA992B565D95F549CD6069B90AB2A63EACA38A45E4B6A87D781574F86817E4C2FCCC72690D62E2729520E37
310
9BAF234797BAF6D62B3BFC781FED37BA1E4F2B2F052FA9501A3E80569BB8F6A9A364D4FA67654E6F803383981F82F21591FF84F23D9882BC896C3FDBCF8C162508933B2E0AE4C69DD43F6BD2BE38DDDBF10BF86CB4FA784D37F3AF16075E67EC9030DECA1FC0A55373F5DFF3378C591FA9BDF485C10B0A8C8BA909E5262639
310
A8E72163488806A595734C81CB77D1DE0ED7604A303B76913CEC0272F412782FF88EFF4636D8AA56DF7B322474C4B767303F625997056C7B032C473C592B36CEBD15F3F9FF5233B7ABCDC74D257624A60F8658567497B14CE1EC3C80B76FD02011038F9EE9EB0F2E12387A9C844D3F09855125116D1D731DF8B43D2CF4E0A0
310
79A020C6BE946BCE0B7EA1E1219331CD73C228AF5A2DDD31A4B1DA918CE91350854D40A71723140BFA92E94E62B0626016CEFA5864A50E5977E8753CEDBEE1CBB7F52780D20E17AF0BA0F5F9B02A3AD07DCC732EB6D1EBB661421BE0C39E21BABF0FE16D22EA6929407C8DE596724C88B749B6DB5512BC7B228ADFD7CB7EA6
310
3A22397E690BA8D5D8D4E40CEC8CDA23C2C0B7D5898640101CEC9C6D331CE328CB93CAFBBAC70A642DF70DF95155945B52F08AA973C23469FD69ADEF84F7BB18F983A8F8C90E37F5D35980B2139A1C523540813E824EF83448CF7C72B598CE97D7CEEDDDDD3B6736BFBC771677EF66CE6A7E7139F7A793E9EDF2B2B3A8B624
310
0CDA13AA5F8388264EC4A0129909F3B7F5A16CEDF08128E97D680ACA4B9BE7B7B58BB638F0B00700EF36AE8B32A705658A68F83EE897FC2B41573190D1CCAF0B92D233A47CFEB019D9809933F67DD1A5467F8CF69AD9A5AE859342D45355448C64F968A371DC2D596ADC6E43D93D1B466F877A64E2893E54F23C4B40388995
310
525E5005DA3983ED45412510D3EFCA13737B3863F74BD30F2A12E5B4B5E489A025CE25500DB855B11ACE5BBFA185D35DD48D8DC3CE7DC69F2944DB42AA6F6CF09BCA622ADD08C7A36E7C6AE18000BAB08E040135C2D21C9D75B3A91B77BB746C403F38018DFE6EC939DD92F16B40BC05294B9CDA035AAD6D330AE27FE4786B
310
8E45145EA34A75BE1C263A676A35A8ACC6297337400BF16C54EF515F3F77CB77EB3583889C754FFA29081AA98E2222ADEF05DA3E63D2EDEA8B8756C05A7FB6CABC4A91CBF325398202CC952E70A008A830324BA200D5E5EF8F5F04C75DB4B0EE3340E071C98B823333B83577596BF3849B69F2085AA0FAFA212F26BEFF5877
310
FDE622B28D88A42E49E43326DA82D31E8CB006401E1DA726059ECEC168F97A6599036306A135688F9AD2E61A6EA178F4CD51974A9F2CCB9F36FE5EBD14601068D9C3BF01504B0304140006080000B670623B000000000000000000000000350000006662782F42384135303843342D343331462D343546312D424341352D35
310
32343432364645413344462F76657274696365732E62696E504B0304140006080800B670623BF270F1330600000004000000360000006662782F42384135303843342D343331462D343546312D424341352D3532343432364645413344462F747269616E676C65732E62696E636660600000504B0304140006080000B67062
310
3B000000000000000000000000370000006662782F42384135303843342D343331462D343546312D424341352D3532343432364645413344462F617474726962757465732E62696E504B0304140006080800B670623B08DA0BD19000000041010000360000006662782F42384135303843342D343331462D343546312D4243
310
41352D3532343432364645413344462F6469726563746F72792E786D6C858F410AC3201045AF22B36F53E9A60B35CBEEBAE80D244E44489C6234F4F835464A48035D0DF398FF9F8AF63D0E6CC63039F212F8F9020C7D47C6792B21C5FE7403D62A1188E2E60C98D7234A5830286103A55745067B9D86B8A3CF9C7F90C11DE6
310
07FB144396D7B6A82D282E9A152AD114D5EF2CB866EEE831B8EEA07A7BB5A8D7D61A2BAAEB7FD5F70921FF497D00504B0304140006080800B670623B3B4606F3FE000000A00100003B0000006662782F42384135303843342D343331462D343546312D424341352D3532343432364645413344462F7265736F75726365732F
310
636F72652E786D6C8D504B6E833010BD0A9A6D65B08134808CA354A427E8052C332156828DFCA97AFC9A40A576D7CDCCE87D344F8F9FBEE647F689CE6B6B7A6039850C8DB2A336530F315C4903D94970676DF82583CCC8197B5861107C72362E3BA4AC096842428D1D7107A5F71820538F74F4E0D50D6799CB1892C2DFF345
310
AABB9C306779A2934E701F5C0A906D4FD609C2A1B7D129F4BCD858C163D4E3AED163FAA9AF1A1D88F67CA98E6D35906AA82A52BFB39ABCD5CD915C86331BD86BD3B665CD8BD52C78D0F34F46E550061C419494B6843142CB0F5677F4D0D58717DA7494F26295FF31C565FCA7296A13AA728FBBD93C0896823C09C18BB5AFB4
310
9E65A6BD762BBE01504B010214000A0000080000B670623B3DEE336E79000000790000001B00000000000000000000000000000000006175746F6465736B2D64657369676E2D7061636B6167652E786D6C504B01021400140006080800B670623BD486FD9CA0000000F40000001300000000000000000000000000B2000000
310
5B436F6E74656E745F54797065735D2E786D6C504B01021400140006080800B670623B28ED286BEB0000007C010000080000000000000000000000000083010000636F72652E786D6C504B01021400140006080800B670623B55019EA25F0000007C000000070000000000000000000000000094020000636E782E786D6C50
310
4B01021400140006080800B670623B7BC41AC871010000D40300000C00000000000000000000000000180300006662782F636F72652E786D6C504B01021400140006080800B670623B70102A487D0000009D0000000B00000000000000000000000000B30400006662782F636E782E786D6C504B01021400140006080800B6
310
70623B3610CA3329010000120200003100000000000000000000000000590500006662782F42384135303843342D343331462D343546312D424341352D3532343432364645413344462F636F72652E786D6C504B01021400140006080800B670623B1B8617914E010000330300003000000000000000000000000000D10600
310
006662782F42384135303843342D343331462D343546312D424341352D3532343432364645413344462F636E782E786D6C504B01021400140006080800B670623BBFEF2E3B690500003C10000034000000000000000000000000006D0800006662782F42384135303843342D343331462D343546312D424341352D35323434
310
32364645413344462F6F626A656374732E786D6C504B01021400140006080000B670623B0000000000000000000000003500000000000000000000000000280E00006662782F42384135303843342D343331462D343546312D424341352D3532343432364645413344462F76657274696365732E62696E504B010214001400
310
06080800B670623BF270F133060000000400000036000000000000000000000000007B0E00006662782F42384135303843342D343331462D343546312D424341352D3532343432364645413344462F747269616E676C65732E62696E504B01021400140006080000B670623B00000000000000000000000037000000000000
310
00000000000000D50E00006662782F42384135303843342D343331462D343546312D424341352D3532343432364645413344462F617474726962757465732E62696E504B01021400140006080800B670623B08DA0BD1900000004101000036000000000000000000000000002A0F00006662782F42384135303843342D3433
310
31462D343546312D424341352D3532343432364645413344462F6469726563746F72792E786D6C504B01021400140006080800B670623B3B4606F3FE000000A00100003B000000000000000000000000000E1000006662782F42384135303843342D343331462D343546312D424341352D3532343432364645413344462F72
310
65736F75726365732F636F72652E786D6C504B0506000000000E000E0080040000651100000000
  0
XRECORD
  5
187
102
{ACAD_REACTORS
330
186
102
}
330
186
100
AcDbXrecord
280
     1
 70
     1
 90
429727718
  1
887D55A9-D0DD-414E-B741-A7DCD4DA2B4C
310
504B03040A0000080000B670623B3DEE336E79000000790000001B0000006175746F6465736B2D64657369676E2D7061636B6167652E786D6C3C3F786D6C2076657273696F6E3D22312E302220656E636F64696E673D227574662D3822203F3E3C666F726D6174733E3C666F726D61743E687474703A2F2F736368656D612E
310
6175746F6465736B2E636F6D2F64657369676E2D7061636B6167652F323030393C2F666F726D61743E3C2F666F726D6174733E504B0304140006080800B670623BD486FD9CA0000000F4000000130000005B436F6E74656E745F54797065735D2E786D6C7D8EC10E82300C865F65E91D8A1E8C310C0EEA1BF002731658846E
310
D98AC1B77784ABF1D8FE5FBFBF75BBCE937A534CCEB38643598122B6FEE978D0B0485F9C41B54DDD7D022595594E1A469170414C76A4D9A4D207E29CF43ECE46F218070CC6BECC4078ACAA135ACF422C856C0E68EA1BF5669944DDD7BCDE7B1F8E415D77AECB980613C2E4AC91FC167A2B244592486606FC29C8FD7F045B9A
310
EF7053A7E60B504B0304140006080800B670623BBC1638F5EC0000007C01000008000000636F72652E786D6C8D90416EC3201045AF82665B61836BE2D8C24471DB9CA01740401C94182C03558F5F9C3852BBEB6A467FFE9B197D7EF89E6EE8CB2CC17AD7032D0820E394D7D68D3DA478C67B4007C117EFE32F1B202727D3C3
310
2A83E0E3E2D3BC49CABB685CCCAAF3DA6CA20CC14440EA969B1E82BA98491632C5EC08D76296EA2A4753D06797E194AC468F2356E77DF66CCD02825543D50CACC62D39ED70FDC68EB8FD68F6F8787A6784342D1DDA1D2F5758F068A7E77DB518198D065111D2624A31A93E69DD11D6D5EC85EC3B4278B9DAFF4069D6FF8492
310
75F1B5DADE7D600104CD8FDC0782976B16B9DC83CA75CD4DFC00504B0304140006080800B670623B55019EA25F0000007C00000007000000636E782E786D6C4DCB3B0E80201045D1AD90E915ED2CF8AC45050C11660C8261F98AB1B07AC9C97D42D718D865D3E909258CFD00CCE24AC6E326A164D74DC0B4128928FF326038
310
472BA13128B1252AC747C6BAB984FC68F0B87FE8960A5C09FE86CFB69FBA01504B0304140006080800B670623B3586FFB671010000D40300000C0000006662782F636F72652E786D6CC553ED6E8320147D15C2DF4541A76D6D90A6DDD627D80B50A4CE54C120983EFEAE1F4DD7A55BBA5FF3879273EEE59E7310B6393735EA
310
95ED2AA3731C851423A5A5292A5DE6D8BB63B0C268C39935C67D29C3488B46E578803167A535BE9D2169B453DA01AA4DA16650749D7218C91A1639EEE4876A4428BC838AEE14B6429E44A9C228041AEA38EB9C0501681A32BC313F1ECE8C4C3867DE57C5CC56054CAB8E95B298A7F12E5EEED224C8E87E11242FE936C8DE96
310
AB60BB7F4D295D66D12E5B30323473E6AAE6A24E5A259C2A308F29CD82280A68FC1E256B9AAE93F489AED694323294DF34F9B678B0C957DA3DC7B3DCA9ADC33C022123F1CD2D44E450277AD04338234388F01913BE0D1A0281909D38D4171F27807A259DB1093085F157AA17B557309586747CD0CF0B46A64E983A6E0EAEEF
310
CE881F9EF1FB8E70D44297604238581EBC1B74B249C31C5AAB6CD0BB33D2C636A27ECCC62F0EFF445DC5DF95244D6DEC7F2922F30191F9F720C37DE49F504B0304140006080800B670623B4220A0FF7D0000009D0000000B0000006662782F636E782E786D6C4DCCD10A83201886E15B91FFDCE542CB0335D0EC3E6259C84A
310
C3E9D8E5AF46073BFAE0E1E315DD675BD1DBA5978F41C2FD4600B9F088930F8B849267CC01754AA418F3DF0D50183727E164506249B1EC174D6E1ECB9A0F5D7D785E68DB8151CD286E5A5363CA6B8A39E90D36D40E96B086F55A43A544F52B1D7B86D517504B0304140006080800B670623B2FA3FEDE290100001202000031
310
0000006662782F45374635344235342D363743322D343832342D383044432D4334454645303536354442422F636F72652E786D6C8D515B6EC32010BC0AE22B55850D2E386E848994D7097A0117488A1283C5A3CAF10BB523B57FF961D1ECCCECC0F2ED7DBC816FED8371B687A4C210682B9D32F6D2C314CFA883602BB8772E
310
FEA141608751F7B0C050F08B77695A20E96CD43666D43AA5177008414708E42D5F7A18E4971E876A483133C2B59A06791D2EBA22556E679EE021FA1C00CC43CA09C5717D6274C7286AD7FB06D1AEA1A8C3873DDAD3E3E98859CB0EBB1DAF67A1E02919B5C88DCA71CCD968FFAC49110B1ECDF8882FBD1EA256503418BF2342
310
106E3E08DD60B6A1EC15771B8C795DE8FF4469524F8A92B1F1AD59E2CEB20005E1F5DC105CB9F4797B84D1F7C9F908CABC55D0F2050A5C61CC1AD2F27A26E6E767C7962E8E213A9FBF7775FDCC5CC266DB960A5E970DE5F2BBBE5CCB36C50F504B0304140006080800B670623B1B8617914E01000033030000300000006662
310
782F45374635344235342D363743322D343832342D383044432D4334454645303536354442422F636E782E786D6CD593C16EC32010447F0571AD6CE3D489D20813A9877E410FBD62D82434182CC055F3F75D1292E692438FBD206B7698593D61BEFD1E2DF982108D773D6D6B460938E5B571FB9ECE6957AD29D90A1EBC4F77
310
364A9C1CA1A759A682EF839FA72269D8C9D92654AD71C72206887E0E0A22CAF926B15E498B01E0AA19451807D01A34B919F16B070157417138917400F2F6FA41FCF0092A45DEE414C19BDC21783E4BD39D891265658C3D8DEA00A3ACE59CBC8678ACB54CB26EEB6BD7839D7E9348BE70AD9C8321B9BCA7F9A4A26C542347DE
310
E050F09802D22BA6749A800A394DD62899107273365E3C82CFC6A55557BC06C10774B7ABE7AEC3B0F34CF06446280E154026D0542C187BA9DAB6628BF7B6DBB0E5A65B3EB1F58631DE64BBE083F7B65CC218087E22CABB042E51D1F2268F1FE12B3EA24D40D63E9CFE00120194D60B9D5BC67FE6D39CDF37E20AF817881F50
310
4B0304140006080800B670623B29652116630500003C100000340000006662782F45374635344235342D363743322D343832342D383044432D4334454645303536354442422F6F626A656374732E786D6CAD575D739B3814FD2B0CFB0C989834C90EA1639B24E3E9A6EDD4D3CE3E64C623834CD8006224913AFDF57B040203
310
B65BEF871F0C12D2FD3CF7E8CA7FBFCB33E3957291B2E2D674ED8969D02262715A24B76625B7D6B569BC0F7CCE98EC2D338D82E4F4D654D366E0279C55A59E8AE99654991CCDDECFFF3444440B6A1A514684B83545F44C7362934AB2988A173B2692D8C97667BB76B3702836E1A47C1E092D09A78584A5982F20C5688C7287
310
C389E904BEA3BE07BEFAD7ABA6A75739B53F43FD69212429A20365233153D70BEF2E2E6FAC4BCF9B5ADEBB0BD79ADFCF43CBBD9A4E16EF168B9BD9DD0D140BC921495BC2E9D60C1E101B9E46BED37CEA2CD6861F3329624541A3DA7F7858DBAC25C6B4A4458C3CA654405BCFEBC970E8AAD8F43E4FD558ABEC4F9FE7557F47
310
4F506B7BFBEC5BCA367FC105710E2AB8A00A554D7CB4A30DFE26FBA86D18CBF4B75418399194A72433B274C3097F33032C554B027F2046A1932B842B0FCCC0DDCBEBDB8AD2F835768F59B9ADB24C41D30C6A64AF817F2A456D59FA83F2E3DA60137255A585BCD60EC9B7929AC18DEFD49381AF1ED30BFDB109A4B1CD488294
310
C3CDE6EBC8D185AABD6568061FEE37BB95AAC7E3CA4BCE4ACAA5820FA0D526AE7DAA2869B5EE5999531BE0CC20E6FBA07C41E43FA27CF7A6206F3CDD793B4F6B919C1462CB788EDCD893FA674CDA17AB7B3B7C019F8D561FAEE966FED562DFE98C1D12C6A9FC015C2A35D7FF3D7FC398F591DA4B5FE0BFA2C0189FEA50AE22
310
92817A1ED3020951A03432862970F976B33383259812CC8E5D240BBA801CBCF8CE2BBEE3BF910DB6AAD5F79E05123AE2DB33981FB1ACCB02B69D00CB014FD68AB573A7627EF9BFD4CC2C5C7D58557C4B22FAA88925A4DBB44825CECE3D78FB060D1231F0E885BE7D673C86A3874958F593906B5502D1563157814FDAC3420D
310
F69A070A22EC4B98E23CFF171A1E5311D12C23056555ABA53B8614563B92D17D02AAB009E8F46284624E5F53D5490C560CCCC2591FF1B45421EB0EBD8EA7ED13BE7C5D7E0428CD60FEF60779EB13E6664FF711CB185F6FDED60D139A001FF60CD1FD6D086F1D51474901E26B2CB794A343BC8ED3EDB612E0DD2351FCB65CF4
310
33D511C9E14B5B40ADC6A6263DB0336A8F700DDF56271A024E70B0B3629DE21847591E55DED73D56206AB927E46FAABC5C939C55853C274C93D69FD6FA4E78BF8B11DF898C9ECD60553FAD39283BA6F18984AA23E8884F83F45C5F5F859797B31B2B9C84A1E5B9DE9D35BFF25C6B76152E422F9C5DCC3D847F5801ED09D5AF
310
41441327A25FF15487F9EB725FB666F048A4701E9A827292E6F97569A32DF61DEC01C0BB8DCBBCCC684E0B49147C1FD54BF685A0AB18C868E6973949E819523E3DAC463660E68C7D9F55A9D1EFA3BD7A76A16AE1A810F95CE59B82A4D968A376DC2E8B44BBDD86B27B368CDE0ED548C7137DA860591A83706223A12CA712B4
310
7306DBF39C0A20A6DF95C7FAF670C6EED7A61F946493D1D6926782963813403548A78AE470DEF80D2D9CEAA26E4D1C76F60BFE74219A06527D6B82DF641A51616F703CAAC6A7160E08A00BEB4810A0274592A1B36E3675E36E978A0DE80727A0D6DF2D39A75BD27E0D8837276589537B40ABB56D5A41F48F1C6FCD3188C4EB
310
A6929D2FFB89CE995A4D00AE813BDD032DC48B56BD437DFDDC2DD7AED70C2272D63DE9A72068A45A92F0A4BE17A8A06B9366E16707AD80B1FC649459952097E74BB23805982B55E0401150A165964402AA8BDF9F3E7386BB686EDCA780C0D382E5392BF460A6EFB2C6EA1937D3F809B440D5F5435C4C5CF7A9EEFAF54564BD
310
2182DA24162F98680B4E7930C21A0079709CEAEB99A372305ABE0C0D7D6078105A83F6A0296DAEE1068A47DD1C55A9F4C9B2FC69E3EFD44B81028E963DF81B504B0304140006080000B670623B000000000000000000000000350000006662782F45374635344235342D363743322D343832342D383044432D433445464530
310
3536354442422F76657274696365732E62696E504B0304140006080800B670623BF270F1330600000004000000360000006662782F45374635344235342D363743322D343832342D383044432D4334454645303536354442422F747269616E676C65732E62696E636660600000504B0304140006080000B670623B00000000
310
0000000000000000370000006662782F45374635344235342D363743322D343832342D383044432D4334454645303536354442422F617474726962757465732E62696E504B0304140006080800B670623B08DA0BD19000000041010000360000006662782F45374635344235342D363743322D343832342D383044432D4334
310
454645303536354442422F6469726563746F72792E786D6C858F410AC3201045AF22B36F53E9A60B35CBEEBAE80D244E44489C6234F4F835464A48035D0DF398FF9F8AF63D0E6CC63039F212F8F9020C7D47C6792B21C5FE7403D62A1188E2E60C98D7234A5830286103A55745067B9D86B8A3CF9C7F90C11DE607FB144396
310
D7B6A82D282E9A152AD114D5EF2CB866EEE831B8EEA07A7BB5A8D7D61A2BAAEB7FD5F70921FF497D00504B0304140006080800B670623B6378F24DFF000000A00100003B0000006662782F45374635344235342D363743322D343832342D383044432D4334454645303536354442422F7265736F75726365732F636F72652E
310
786D6C8D504B6E833010BD0A9A6D65B0094E42641C85B639412F6099496225D8C89FAAC7AF09546A77DDCC8CDE47F3F4C4F16B7C149FE88371B603565228D06A37187BED20C50BD9437194C23B177FC9A0B06AC40E6618A4B87A97A615D2CE46B431A3D60DB8822A048C50E8473E3A08FA86A32A558A5911EEE5A4F45D5DB1
310
6465A6B34E8A107D0E502C4FE609D26370C96B0CA25A58295232C3AA3143FE692E063D485EF7F5AEE71BD2D2F39634AFFC44DAF7DD9E9CCE6F9CD25DCBFA762BAAD92C4534E34F46ED51451C40D694B6843142EB0FD61C283F34FC85EE0F948A6A96FF31A569F8A729191B37F51A77B105902C0779125254735F793DCBCC7B
310
EE567E03504B010214000A0000080000B670623B3DEE336E79000000790000001B00000000000000000000000000000000006175746F6465736B2D64657369676E2D7061636B6167652E786D6C504B01021400140006080800B670623BD486FD9CA0000000F40000001300000000000000000000000000B20000005B436F6E
310
74656E745F54797065735D2E786D6C504B01021400140006080800B670623BBC1638F5EC0000007C010000080000000000000000000000000083010000636F72652E786D6C504B01021400140006080800B670623B55019EA25F0000007C000000070000000000000000000000000095020000636E782E786D6C504B010214
310
00140006080800B670623B3586FFB671010000D40300000C00000000000000000000000000190300006662782F636F72652E786D6C504B01021400140006080800B670623B4220A0FF7D0000009D0000000B00000000000000000000000000B40400006662782F636E782E786D6C504B01021400140006080800B670623B2F
310
A3FEDE290100001202000031000000000000000000000000005A0500006662782F45374635344235342D363743322D343832342D383044432D4334454645303536354442422F636F72652E786D6C504B01021400140006080800B670623B1B8617914E010000330300003000000000000000000000000000D2060000666278
310
2F45374635344235342D363743322D343832342D383044432D4334454645303536354442422F636E782E786D6C504B01021400140006080800B670623B29652116630500003C10000034000000000000000000000000006E0800006662782F45374635344235342D363743322D343832342D383044432D4334454645303536
310
354442422F6F626A656374732E786D6C504B01021400140006080000B670623B0000000000000000000000003500000000000000000000000000230E00006662782F45374635344235342D363743322D343832342D383044432D4334454645303536354442422F76657274696365732E62696E504B01021400140006080800
310
B670623BF270F13306000000040000003600000000000000000000000000760E00006662782F45374635344235342D363743322D343832342D383044432D4334454645303536354442422F747269616E676C65732E62696E504B01021400140006080000B670623B0000000000000000000000003700000000000000000000
310
000000D00E00006662782F45374635344235342D363743322D343832342D383044432D4334454645303536354442422F617474726962757465732E62696E504B01021400140006080800B670623B08DA0BD190000000410100003600000000000000000000000000250F00006662782F45374635344235342D363743322D34
310
3832342D383044432D4334454645303536354442422F6469726563746F72792E786D6C504B01021400140006080800B670623B6378F24DFF000000A00100003B00000000000000000000000000091000006662782F45374635344235342D363743322D343832342D383044432D4334454645303536354442422F7265736F75
310
726365732F636F72652E786D6C504B0506000000000E000E0080040000611100000000
  0
XRECORD
  5
112
102
{ACAD_REACTORS
330
110
102
}
330
110
100
AcDbXrecord
280
     1
270
     1
271
     1
  0
XRECORD
  5
111
102
{ACAD_REACTORS
330
110
102
}
330
110
100
AcDbXrecord
280
     1
270
     1
271
     1
  0
XRECORD
  5
18A
102
{ACAD_REACTORS
330
110
102
}
330
110
100
AcDbXrecord
280
     1
 70
     0
 90
1778669749
  1
9BF507EE-FAF7-4A99-A33D-4EE51894BC40
310
504B03040A0000080000B670623B3DEE336E79000000790000001B0000006175746F6465736B2D64657369676E2D7061636B6167652E786D6C3C3F786D6C2076657273696F6E3D22312E302220656E636F64696E673D227574662D3822203F3E3C666F726D6174733E3C666F726D61743E687474703A2F2F736368656D612E
310
6175746F6465736B2E636F6D2F64657369676E2D7061636B6167652F323030393C2F666F726D61743E3C2F666F726D6174733E504B0304140006080800B670623BD486FD9CA0000000F4000000130000005B436F6E74656E745F54797065735D2E786D6C7D8EC10E82300C865F65E91D8A1E8C310C0EEA1BF002731658846E
310
D98AC1B77784ABF1D8FE5FBFBF75BBCE937A534CCEB38643598122B6FEE978D0B0485F9C41B54DDD7D022595594E1A469170414C76A4D9A4D207E29CF43ECE46F218070CC6BECC4078ACAA135ACF422C856C0E68EA1BF5669944DDD7BCDE7B1F8E415D77AECB980613C2E4AC91FC167A2B244592486606FC29C8FD7F045B9A
310
EF7053A7E60B504B0304140006080800B670623BCA089DFFEC0000007C01000008000000636F72652E786D6C8D90416E83301045AF62CDB632D8402020E32882F604BD80653BC44AB011B6AB1EBF262152BBEB6A467FFE9B197D76FA9EEFE84BAFDE38DB03CD08206DA553C64E3DC470C1474027CE56E7C22F1B202B66DDC3
310
260367D3EAE2B24BD2D9A06D48AA754AEFA2F05E0740F29E9A1EBCBCEA59642286E4F0B76C11F226269DD15797E0188D42CF2346A57DE662F40ABCAEC77628C6120F654571D50C04B7F5B9C1E3997CD4F550BE3745C3F20DE62C98F9755FAE5A04AD801784B498524C8A4F5A75E4D055873772EC0861F966FF03C545FD138A
310
C686B2D8DF7D621E384D8F3C069CE55B16A93C824A75CB8DFF00504B0304140006080800B670623B55019EA25F0000007C00000007000000636E782E786D6C4DCB3B0E80201045D1AD90E915ED2CF8AC45050C11660C8261F98AB1B07AC9C97D42D718D865D3E909258CFD00CCE24AC6E326A164D74DC0B4128928FF326038
310
472BA13128B1252AC747C6BAB984FC68F0B87FE8960A5C09FE86CFB69FBA01504B0304140006080800B670623B68FC0B7272010000D40300000C0000006662782F636F72652E786D6CC5535B6E833010BC8AE5DF0A6C1E8124328E22D29EA01770C0A128602363A31CBFCB234A53A555FA553EC09AD9F5CE8C31DB5DDA060D
310
D2F4B556190E7C8A9154852E6B5565D8D993B7C668C799D1DA7E29C3488956667884316795D1AE5BA0422B2B950554E9522EA0E87B69312A1A5864B82F3E642B7CE12C54F467BF13C55954D20F7CA0A18EB3DE1A1080E621E31BF3D3F1C2C88C73E65C5D2E6C5DC2B4FA544B8379921C36797888BC3C8A032F4E73EA6D927D
310
EA1DF6F42D49F2E8350D5346C666CE6CDD5ED515460A2B4BCC434A375E1078347C0FE22D5D6DE3D50B5D6F2965642CBF6B725DF96493AB958DC245EEDCD6631E809089F8E61622B2A81703E8219C913144F84C09DF070D8140C8561C9BAB8F3340832CAC363130A576376A108D933095FA747AD0CF0B46E64E983A6D0EAE1F
310
CE089F9EF1FB8E70D44255604258581E9D1D75B259C3125A278D37D80B52DAB4A279CEC62F0EFF44DDC43F9454E8469BFF5244960322CBEF41C6FBC83F01504B0304140006080800B670623B0F71DDB67E0000009D0000000B0000006662782F636E782E786D6C4DCCD10A83201886E15B91FFDCA54DB73F502386BB8F5816
310
32D3703976F9ABD1C18E3E78F87855FB990379BBFCF2296AE02706C4C5471A7C9C349475A408A4352AA7B4FEDD80C47E761A7606A3A69CCA72D0E0C6BE8475D3E0E3F3409428EA6B27A84079A782899AA2EC1A7AE3ECCC2FD858CB2D544655BFD2B67BD87C01504B0304140006080800B670623BE134B4FB28010000120200
310
00310000006662782F38353834323741342D343835462D343034322D383541392D4331303331363839454531452F636F72652E786D6C8D515B6EC32010BC0AE22B55850D0EA424C24451959EA0172086A42831583CAA1CBF503B52FB971F16CDCECC0EACD8DFC71BF836215AEF7A481A0C817183D7D65D7A98D3197108F652
310
04EFD31F1A044E8DA6871586525C82CFD3020DDE25E352419DD76601558C264130DCCAA58771F832A36A544E8511AFCDA486ABBA988634A55D7852C4144A00300FA927949C71DABD1D28A29C7D208A6987383B6CD13BC16BB2E1DBE3911C453B0BA5C8D9EA456E758963CFD684674DAA588A64C747FC2118958C86B2C3788B
310
0841B8FB247487D98EB257CC77188BB6D2FF89F2A49F1465EBD2BA5BE2CEB2082511EDDC9042FB7CBA3DC298FBE4430275DE2A9AE1054ADC60CC08E3A29D89E5F9C5714317C7987C28DFBBBA9E0A97B0D97643A568EB864AF95D5FA9759BF207504B0304140006080800B670623B1B8617914E010000330300003000000066
310
62782F38353834323741342D343835462D343034322D383541392D4331303331363839454531452F636E782E786D6CD593C16EC32010447F0571AD6CE3D489D20813A9877E410FBD62D82434182CC055F3F75D1292E692438FBD206B7698593D61BEFD1E2DF982108D773D6D6B460938E5B571FB9ECE6957AD29D90A1EBC4F
310
77364A9C1CA1A759A682EF839FA72269D8C9D92654AD71C72206887E0E0A22CAF926B15E498B01E0AA19451807D01A34B919F16B070157417138917400F2F6FA41FCF0092A45DEE414C19BDC21783E4BD39D891265658C3D8DEA00A3ACE59CBC8678ACB54CB26EEB6BD7839D7E9348BE70AD9C8321B9BCA7F9A4A26C542347
310
DEE050F09802D22BA6749A800A394DD62899107273365E3C82CFC6A55557BC06C10774B7ABE7AEC3B0F34CF06446280E154026D0542C187BA9DAB6628BF7B6DBB0E5A65B3EB1F58631DE64BBE083F7B65CC218087E22CABB042E51D1F2268F1FE12B3EA24D40D63E9CFE00120194D60B9D5BC67FE6D39CDF37E20AF817881F
310
504B0304140006080800B670623B5933D422630500003B100000340000006662782F38353834323741342D343835462D343034322D383541392D4331303331363839454531452F6F626A656374732E786D6CAD575B6FA33814FE2B887D0642934E9B156594264D158D3A534DD4D13E548A0C38942D60649B4EBABF7E3F8321
310
40924EF6928780CDF1B97EE762EFF32E4B8D37CA45C2F21BD3B547A641F39045491EDF98A5DC5AD7A6F1D9F73863B243661A39C9E88DA9B64DDF8B392B0BBD15D12D295339D85DDEFE618890E6D434C2940871638AF08566C426A5641115AF764424B1E3EDCE76ED9AB0CF36E6A47819302D08A7B984A6D8CFC1C5A89572FB
310
CB91E9F89EA3BEFB9EFAD754E3D3544E654F5F7E920B49F2F040D880CDD89D2CEE2E2EA7D6E56432B6269F2E5CEB7679BBB0DCABF168FE693E9FCEEEA6102C240727AD09A75BD3BF876F78127A4EFDA9D5582B7E4CA590E5390D2BFB6161A5B3E618D182E611E2985001691DAB47FDA5AB7CD3F93C566B2DB2BB7D9E55DD13
310
1D468DEECDB3AB290BFE8409E21C54704115AA6AFF68436BFC8DF65E0B184BF5B74418199194272435D224E084BF9B3E481589EFF5D828747285706581E9BB7B7E5D5D911ABFC6EE312DB7659A2A689A7E85EC0DF04FA5A8344BFEA2FCB834E8845895492EAFB541F2BDA0A63FF59C6AD3F7D4637CA13FD68E34B629891172
310
98597F1D183A57B9B75A98FE9765B05BAB7C3C2EBCE0ACA05C2AF8005A4DE09AA7F29216EB9E15397500C6F47CBE77CA7778FE2BD277AF0AE2C693DD6437D1522427B9D8329E2136F6A8FA19A3E6C56ADF0E5F50CF06D48734EDCEBF22F69C56D97EC138153F804B85E6FABFC7AFEFB32E523BE1F3BD372418E363EDCA7548
310
52949E8724474014288D94610BB57C1BEC4C7F854A89CA8E5324F55B871CBC78CE1BBEE3BFE68D6A5589EF3C730474506FCFA8FCF0659516D0ED04580EEA6425581B77CAE797FF4BCECC16EB2FEB926F49481F746159D06D922712BD730FDEAE42BD40F42C7AA5EF3F198F60E86110D6DD20645A9480B795CF95E3E3A659A8
310
C55E724F408873315335CFFB8584874484344D494E59D94869DB90C26A5B64F49C802CAC1D3ABE18A098D3B7444D123D8A9E5AE8F5214F0AE5B2B6E9B575DA3E61CBD3EA2B4009FA940524DD1305FB6A1FB294F14DF0BEA90BA109ECE1481FDC3FFAE8D60E75141700BE82725371B4873751B2DD960265F788137FACE6DD40
310
B575E4F0A5C99F46629D92131467A41EE11ABD8D4CCC039CA0AFB37C93A08B232B8F0AEFCA1E0A1015DF13FC83322B362463652ECF71D3A8B1A7D1BE65DE1D62C44F22C317D35F574FEB16153BA2D13E543D10A80E74C4A65E78A6B7CBCBD1D5DD9DB59C2DAFACC96C3AB566E3F1C29ADCDD5DBAD7D3C9ED7C822ED74F80A6
310
41755310DE4443F44A9E68373FADF6596BFA0F440AE7BECE2727AE9F4F2B1B53B1E7E00CF0DD1E5C65454A339A4BA2D0FBA05ED2EF0443458F47BDBFCA484CCFE0F2ED7E3DD0013B679C7B5499467F0ECEEADDB9CA85A34CE44B99053949D2C1416DB85DE4B136BB7165FBAC0B7AB3542BED4F8CA182A549847A1319316519
310
95A83A67147B9E5101C47487F2485F1ECE38FD568F839204296D3479219888530154036E6528FBFBC66F98E0D4107563A2D7D9AFF8D389681A08F58D89F22693900A3B407754734FC51C10C010D6D640809EE4718AC1BA3ED4AEDB53CA37283F68805A7E4B72CEB0A4EDEAD5DD8C14059A76AFAA56BA6901E13F32BC51C720
310
12AF41295B5BF61BAD3195181FB506E6B40F4C10AF5AF40EF9F5B159AE5DD1F43C72D635E94310D45C2D49785C5D0B94D3B54AB3C5A38349C0587D338AB48C11CBF339599C02CCA54A70A008A8D03C0B2201D5F9EFCF8F9CE12A9A19CB0410789EB32C63B95ECCF455D658BFE0621A3DA32C5075FB101723D77DAE867E7D0F
310
D90444509B44E2151B4DC2290B065803200FBAA9BE9D392A0603F2D5C2D00D6302A615680F66D2FA166E2079D4C551A54AB758161FCEFD4E450A14704CECFEDF504B0304140006080000B670623B000000000000000000000000350000006662782F38353834323741342D343835462D343034322D383541392D4331303331
310
363839454531452F76657274696365732E62696E504B0304140006080800B670623BF270F1330600000004000000360000006662782F38353834323741342D343835462D343034322D383541392D4331303331363839454531452F747269616E676C65732E62696E636660600000504B0304140006080000B670623B000000
310
000000000000000000370000006662782F38353834323741342D343835462D343034322D383541392D4331303331363839454531452F617474726962757465732E62696E504B0304140006080800B670623B08DA0BD19000000041010000360000006662782F38353834323741342D343835462D343034322D383541392D43
310
31303331363839454531452F6469726563746F72792E786D6C858F410AC3201045AF22B36F53E9A60B35CBEEBAE80D244E44489C6234F4F835464A48035D0DF398FF9F8AF63D0E6CC63039F212F8F9020C7D47C6792B21C5FE7403D62A1188E2E60C98D7234A5830286103A55745067B9D86B8A3CF9C7F90C11DE607FB1443
310
96D7B6A82D282E9A152AD114D5EF2CB866EEE831B8EEA07A7BB5A8D7D61A2BAAEB7FD5F70921FF497D00504B0304140006080800B670623BD9A3B367FE000000A00100003B0000006662782F38353834323741342D343835462D343034322D383541392D4331303331363839454531452F7265736F75726365732F636F7265
310
2E786D6C8D504B6E833010BD0A9A6D65B01D0201194711694FD00B586642AD043BF2A7EAF16B122AB5BB6E6646EFA3797AE2F8B5DC8A4FF4C1383B002B291468B59B8C9D0748F1420E501CA5F0CEC55F3228AC5A708015062966EFD27D83B4B3116DCCA875136EA00A012314FA968F0182FEC045952AC5AC08D7F2AEF455CD
310
58B232D3592745883E07289E4FD609D26370C96B0CA27AB252A464A64D63A6FCD35C0C7A904D73EE467EE664DCD58CD4ED4849D79C5A723ED1B7A61977AF2D6F45B59AA58866F9C9A83DAA8813484E6947182394BFB3BAA7FBBEDEBFD0434FA9A856F91F53BA4FFF342563E38E6F719FB60092E5200F428A6AED2BAF479979
310
AFDDCA6F504B010214000A0000080000B670623B3DEE336E79000000790000001B00000000000000000000000000000000006175746F6465736B2D64657369676E2D7061636B6167652E786D6C504B01021400140006080800B670623BD486FD9CA0000000F40000001300000000000000000000000000B20000005B436F6E
310
74656E745F54797065735D2E786D6C504B01021400140006080800B670623BCA089DFFEC0000007C010000080000000000000000000000000083010000636F72652E786D6C504B01021400140006080800B670623B55019EA25F0000007C000000070000000000000000000000000095020000636E782E786D6C504B010214
310
00140006080800B670623B68FC0B7272010000D40300000C00000000000000000000000000190300006662782F636F72652E786D6C504B01021400140006080800B670623B0F71DDB67E0000009D0000000B00000000000000000000000000B50400006662782F636E782E786D6C504B01021400140006080800B670623BE1
310
34B4FB280100001202000031000000000000000000000000005C0500006662782F38353834323741342D343835462D343034322D383541392D4331303331363839454531452F636F72652E786D6C504B01021400140006080800B670623B1B8617914E010000330300003000000000000000000000000000D3060000666278
310
2F38353834323741342D343835462D343034322D383541392D4331303331363839454531452F636E782E786D6C504B01021400140006080800B670623B5933D422630500003B10000034000000000000000000000000006F0800006662782F38353834323741342D343835462D343034322D383541392D4331303331363839
310
454531452F6F626A656374732E786D6C504B01021400140006080000B670623B0000000000000000000000003500000000000000000000000000240E00006662782F38353834323741342D343835462D343034322D383541392D4331303331363839454531452F76657274696365732E62696E504B01021400140006080800
310
B670623BF270F13306000000040000003600000000000000000000000000770E00006662782F38353834323741342D343835462D343034322D383541392D4331303331363839454531452F747269616E676C65732E62696E504B01021400140006080000B670623B0000000000000000000000003700000000000000000000
310
000000D10E00006662782F38353834323741342D343835462D343034322D383541392D4331303331363839454531452F617474726962757465732E62696E504B01021400140006080800B670623B08DA0BD190000000410100003600000000000000000000000000260F00006662782F38353834323741342D343835462D34
310
3034322D383541392D4331303331363839454531452F6469726563746F72792E786D6C504B01021400140006080800B670623BD9A3B367FE000000A00100003B000000000000000000000000000A1000006662782F38353834323741342D343835462D343034322D383541392D4331303331363839454531452F7265736F75
310
726365732F636F72652E786D6C504B0506000000000E000E0080040000611100000000
  0
XRECORD
  5
113
102
{ACAD_REACTORS
330
110
102
}
330
110
100
AcDbXrecord
280
     1
270
     1
271
     1
  0
XRECORD
  5
114
102
{ACAD_REACTORS
330
110
102
}
330
110
100
AcDbXrecord
280
     1
270
     1
271
     1
  0
CELLSTYLEMAP
  5
67410
102
{ACAD_REACTORS
330
104
102
}
330
104
100
AcDbCellStyleMap
 90
        3
300
CELLSTYLE
  1
TABLEFORMAT_BEGIN
 90
        5
170
     1
 91
        0
 92
    32768
 62
   257
 93
        1
300
CONTENTFORMAT
  1
CONTENTFORMAT_BEGIN
 90
        0
 91
        0
 92
      512
 93
        0
300

 40
0.0
140
1.0
 94
        5
 62
     0
340
11
144
0.25
309
CONTENTFORMAT_END
171
     1
301
MARGIN
  1
CELLMARGIN_BEGIN
 40
0.06
 40
0.06
 40
0.06
 40
0.06
 40
0.18
 40
0.18
309
CELLMARGIN_END
 94
        6
 95
        1
302
GRIDFORMAT
  1
GRIDFORMAT_BEGIN
 90
        0
 91
        1
 62
     0
 92
       -2
340
0
 93
        0
 40
0.045
309
GRIDFORMAT_END
 95
        2
302
GRIDFORMAT
  1
GRIDFORMAT_BEGIN
 90
        0
 91
        1
 62
     0
 92
       -2
340
0
 93
        0
 40
0.045
309
GRIDFORMAT_END
 95
        4
302
GRIDFORMAT
  1
GRIDFORMAT_BEGIN
 90
        0
 91
        1
 62
     0
 92
       -2
340
0
 93
        0
 40
0.045
309
GRIDFORMAT_END
 95
        8
302
GRIDFORMAT
  1
GRIDFORMAT_BEGIN
 90
        0
 91
        1
 62
     0
 92
       -2
340
0
 93
        0
 40
0.045
309
GRIDFORMAT_END
 95
       16
302
GRIDFORMAT
  1
GRIDFORMAT_BEGIN
 90
        0
 91
        1
 62
     0
 92
       -2
340
0
 93
        0
 40
0.045
309
GRIDFORMAT_END
 95
       32
302
GRIDFORMAT
  1
GRIDFORMAT_BEGIN
 90
        0
 91
        1
 62
     0
 92
       -2
340
0
 93
        0
 40
0.045
309
GRIDFORMAT_END
309
TABLEFORMAT_END
  1
CELLSTYLE_BEGIN
 90
        1
 91
        1
300
_TITLE
309
CELLSTYLE_END
300
CELLSTYLE
  1
TABLEFORMAT_BEGIN
 90
        5
170
     1
 91
        0
 92
        0
 62
   257
 93
        1
300
CONTENTFORMAT
  1
CONTENTFORMAT_BEGIN
 90
        0
 91
        0
 92
      512
 93
        0
300

 40
0.0
140
1.0
 94
        5
 62
     0
340
11
144
0.18
309
CONTENTFORMAT_END
171
     1
301
MARGIN
  1
CELLMARGIN_BEGIN
 40
0.06
 40
0.06
 40
0.06
 40
0.06
 40
0.18
 40
0.18
309
CELLMARGIN_END
 94
        6
 95
        1
302
GRIDFORMAT
  1
GRIDFORMAT_BEGIN
 90
        0
 91
        1
 62
     0
 92
       -2
340
0
 93
        0
 40
0.045
309
GRIDFORMAT_END
 95
        2
302
GRIDFORMAT
  1
GRIDFORMAT_BEGIN
 90
        0
 91
        1
 62
     0
 92
       -2
340
0
 93
        0
 40
0.045
309
GRIDFORMAT_END
 95
        4
302
GRIDFORMAT
  1
GRIDFORMAT_BEGIN
 90
        0
 91
        1
 62
     0
 92
       -2
340
0
 93
        0
 40
0.045
309
GRIDFORMAT_END
 95
        8
302
GRIDFORMAT
  1
GRIDFORMAT_BEGIN
 90
        0
 91
        1
 62
     0
 92
       -2
340
0
 93
        0
 40
0.045
309
GRIDFORMAT_END
 95
       16
302
GRIDFORMAT
  1
GRIDFORMAT_BEGIN
 90
        0
 91
        1
 62
     0
 92
       -2
340
0
 93
        0
 40
0.045
309
GRIDFORMAT_END
 95
       32
302
GRIDFORMAT
  1
GRIDFORMAT_BEGIN
 90
        0
 91
        1
 62
     0
 92
       -2
340
0
 93
        0
 40
0.045
309
GRIDFORMAT_END
309
TABLEFORMAT_END
  1
CELLSTYLE_BEGIN
 90
        2
 91
        1
300
_HEADER
309
CELLSTYLE_END
300
CELLSTYLE
  1
TABLEFORMAT_BEGIN
 90
        5
170
     1
 91
        0
 92
        0
 62
   257
 93
        1
300
CONTENTFORMAT
  1
CONTENTFORMAT_BEGIN
 90
        0
 91
        0
 92
      512
 93
        0
300

 40
0.0
140
1.0
 94
        2
 62
     0
340
11
144
0.18
309
CONTENTFORMAT_END
171
     1
301
MARGIN
  1
CELLMARGIN_BEGIN
 40
0.06
 40
0.06
 40
0.06
 40
0.06
 40
0.18
 40
0.18
309
CELLMARGIN_END
 94
        6
 95
        1
302
GRIDFORMAT
  1
GRIDFORMAT_BEGIN
 90
        0
 91
        1
 62
     0
 92
       -2
340
0
 93
        0
 40
0.045
309
GRIDFORMAT_END
 95
        2
302
GRIDFORMAT
  1
GRIDFORMAT_BEGIN
 90
        0
 91
        1
 62
     0
 92
       -2
340
0
 93
        0
 40
0.045
309
GRIDFORMAT_END
 95
        4
302
GRIDFORMAT
  1
GRIDFORMAT_BEGIN
 90
        0
 91
        1
 62
     0
 92
       -2
340
0
 93
        0
 40
0.045
309
GRIDFORMAT_END
 95
        8
302
GRIDFORMAT
  1
GRIDFORMAT_BEGIN
 90
        0
 91
        1
 62
     0
 92
       -2
340
0
 93
        0
 40
0.045
309
GRIDFORMAT_END
 95
       16
302
GRIDFORMAT
  1
GRIDFORMAT_BEGIN
 90
        0
 91
        1
 62
     0
 92
       -2
340
0
 93
        0
 40
0.045
309
GRIDFORMAT_END
 95
       32
302
GRIDFORMAT
  1
GRIDFORMAT_BEGIN
 90
        0
 91
        1
 62
     0
 92
       -2
340
0
 93
        0
 40
0.045
309
GRIDFORMAT_END
309
TABLEFORMAT_END
  1
CELLSTYLE_BEGIN
 90
        3
 91
        2
300
_DATA
309
CELLSTYLE_END
  0
ENDSEC
  0
SECTION
  2
ACDSDATA
 70
     2
 71
     8
  0
ACDSSCHEMA
 90
        0
  1
AcDb_Thumbnail_Schema
  2
AcDbDs::ID
280
    10
 91
        8
  2
Thumbnail_Data
280
    15
 91
        0
101
ACDSRECORD
 95
        0
 90
        1
  2
AcDbDs::TreatedAsObjectData
280
     1
291
     1
101
ACDSRECORD
 95
        0
 90
        2
  2
AcDbDs::Legacy
280
     1
291
     1
101
ACDSRECORD
  1
AcDbDs::ID
 90
        3
  2
AcDs:Indexable
280
     1
291
     1
101
ACDSRECORD
  1
AcDbDs::ID
 90
        4
  2
AcDbDs::HandleAttribute
280
     7
282
     1
  0
ACDSSCHEMA
 90
        1
  1
AcDbDs::TreatedAsObjectDataSchema
  2
AcDbDs::TreatedAsObjectData
280
     1
 91
        0
  0
ACDSSCHEMA
 90
        2
  1
AcDbDs::LegacySchema
  2
AcDbDs::Legacy
280
     1
 91
        0
  0
ACDSSCHEMA
 90
        3
  1
AcDbDs::IndexedPropertySchema
  2
AcDs:Indexable
280
     1
 91
        0
  0
ACDSSCHEMA
 90
        4
  1
AcDbDs::HandleAttributeSchema
  2
AcDbDs::HandleAttribute
280
     7
 91
        1
284
     1
  0
ACDSSCHEMA
 90
        5
  1
AcDb3DSolid_ASM_Data
  2
AcDbDs::ID
280
    10
 91
        8
  2
ASM_Data
280
    15
 91
        0
101
ACDSRECORD
 95
        5
 90
        1
  2
AcDbDs::TreatedAsObjectData
280
     1
291
     1
101
ACDSRECORD
 95
        5
 90
        2
  2
AcDbDs::Legacy
280
     1
291
     1
101
ACDSRECORD
  1
AcDbDs::ID
 90
        3
  2
AcDs:Indexable
280
     1
291
     1
101
ACDSRECORD
  1
AcDbDs::ID
 90
        4
  2
AcDbDs::HandleAttribute
280
     7
282
     1
  0
ACDSRECORD
 90
        0
  2
AcDbDs::ID
280
    10
320
22
  2
Thumbnail_Data
280
    15
 94
     1666
310
89504E470D0A1A0A0000000D49484452000001000000006C0803000000B2ED9CC100000300504C5445212830FFFFFF2128300000000000000000000000000000000000000000000000000000330000660000990000CC0000FF0033000033330033660033990033CC0033FF0066000066330066660066990066CC0066FF0099
310
000099330099660099990099CC0099FF00CC0000CC3300CC6600CC9900CCCC00CCFF00FF0000FF3300FF6600FF9900FFCC00FFFF3300003300333300663300993300CC3300FF3333003333333333663333993333CC3333FF3366003366333366663366993366CC3366FF3399003399333399663399993399CC3399FF33CC00
310
33CC3333CC6633CC9933CCCC33CCFF33FF0033FF3333FF6633FF9933FFCC33FFFF6600006600336600666600996600CC6600FF6633006633336633666633996633CC6633FF6666006666336666666666996666CC6666FF6699006699336699666699996699CC6699FF66CC0066CC3366CC6666CC9966CCCC66CCFF66FF0066
310
FF3366FF6666FF9966FFCC66FFFF9900009900339900669900999900CC9900FF9933009933339933669933999933CC9933FF9966009966339966669966999966CC9966FF9999009999339999669999999999CC9999FF99CC0099CC3399CC6699CC9999CCCC99CCFF99FF0099FF3399FF6699FF9999FFCC99FFFFCC0000CC00
310
33CC0066CC0099CC00CCCC00FFCC3300CC3333CC3366CC3399CC33CCCC33FFCC6600CC6633CC6666CC6699CC66CCCC66FFCC9900CC9933CC9966CC9999CC99CCCC99FFCCCC00CCCC33CCCC66CCCC99CCCCCCCCCCFFCCFF00CCFF33CCFF66CCFF99CCFFCCCCFFFFFF0000FF0033FF0066FF0099FF00CCFF00FFFF3300FF3333
310
FF3366FF3399FF33CCFF33FFFF6600FF6633FF6666FF6699FF66CCFF66FFFF9900FF9933FF9966FF9999FF99CCFF99FFFFCC00FFCC33FFCC66FFCC99FFCCCCFFCCFFFFFF00FFFF33FFFF66FFFF99FFFFCCFFFFFF0000000D0D0D1A1A1A2828283535354343435050505D5D5D6B6B6B787878868686939393A1A1A1AEAEAEBB
310
BBBBC9C9C9D6D6D6E4E4E4F1F1F1FFFFFF0000000000000000000000000000000000000000000000000000000000002E4550F1000001634944415478DAED9BCB72C2301004F7FFFF77EE297044EC5816962E2133DD557040EC615BD25A0FA802000000000000000000804F43F2C842F3110D8FFC67F390D30858E848598D80
310
4712D302DACB640AD4FC14D056396C04AC960D93A7C08280168200042020514021000108400002C205F89C07AC0B28135605140210902D20BD06B4F7D875809C044CF37D969A2DC0A6126E53E094CB28B96788998053215085093876F938B526C0EC31B84B5A3742FC04B48BE2F723DB56C0D6F5BA17622AE0E7D66BB0E537
310
16703481808B9BD30C01BBB28880500117FB80B422D8DB0AA508B80890CAE7507CD4931A9E08D99C896994E8E808A122050C56072102DE8420C04A40A70501084040928073539A80F369F96B2F902AA0967E60FE7F05FC6E8C9B0217AB2104244D01E9CE67CE35205A40F7BF417102E247C07125142540DD6F070B50190AD0
310
FDDDE0EEBAC428FD4136FD7B212B0100000000000000000000F0F77C015593AD5B220BCA400000000049454E44AE4260829E009C02AB882400670008AA1A09C01F803DB482842B007804B0C60D91CF2F9E2F7FB1C23DC1579225015C3F890CE05202B8F9242E001C5FF3827301006B5440D9FC87A325E680CBB4BF3A80E341
310
024800126BCED8DCCAFE0BC89323148B0004169DB1773E315BC236EF7D16429C74C0FC8810FAB822E4686C54F4D26BA9A9E2DD7790D975BD451A1FD53D220800A0797E05CB04E203000DE41FA502A8BD05F61574D1160836078CE58FF12DE253CECF072C2F70EA6F011040B1F60060AF8009C658FE140940F746886607B0F5
310
F2D84660BD1618B88A08D2027100640B8C5D0B2DBC0AC45A06BBF6C2581840B855A0358D18E98F251203406F1A612A80B202BAD38891FF580B500000D49D4988F37FAC813E72214627000A3582A5C338FE00598ED82311F33F3A0000000049454E44AE4260820F467818FD4AC64A010000000049454E44AE42608200187F52
310
539FF6AC0FF2D01229B97F7B56AE64E8787DBF9E93B283504D4929EEDB336DE133B927D0B706F146D8FDD54728002424931276690CDE5FFA471401522320E6FA719CDCC9E90D234F422DA512220CD4066298BF969A4028B717C4D481E25C1BC6C59A99842240E2F24B1F92F8AC20F021F00EFE737AFD0FDF7E00E9E9886BC5
310
1247A50000000049454E44AE426082
  0
ENDSEC
  0
EOF
