  0
SECTION
  2
HEADER
  9
$ACADVER
  1
AC1032
  9
$ACADMAINTVER
 90
      197
  9
$DWGCODEPAGE
  3
ANSI_1252
  9
$LASTSAVEDBY
  1
gregb
  9
$REQUIREDVERSIONS
160
                 0
  9
$INSBASE
 10
0.0
 20
0.0
 30
0.0
  9
$EXTMIN
 10
184649.0004632441
 20
135974.3348805007
 30
-0.000453273058459
  9
$EXTMAX
 10
186464.6703892245
 20
136796.3226141384
 30
-0.0004532691134509
  9
$LIMMIN
 10
0.0
 20
0.0
  9
$LIMMAX
 10
12.0
 20
9.0
  9
$ORTHOMODE
 70
     1
  9
$REGENMODE
 70
     1
  9
$FILLMODE
 70
     1
  9
$QTEXTMODE
 70
     0
  9
$MIRRTEXT
 70
     0
  9
$LTSCALE
 40
1.0
  9
$ATTMODE
 70
     1
  9
$TEXTSIZE
 40
0.2
  9
$TRACEWID
 40
0.05
  9
$TEXTSTYLE
  7
Standard
  9
$CLAYER
  8
freecads.com
  9
$CELTYPE
  6
ByLayer
  9
$CECOLOR
 62
   256
  9
$CELTSCALE
 40
1.0
  9
$DISPSILH
 70
     1
  9
$DIMSCALE
 40
1.0
  9
$DIMASZ
 40
0.18
  9
$DIMEXO
 40
0.0625
  9
$DIMDLI
 40
0.38
  9
$DIMRND
 40
0.0
  9
$DIMDLE
 40
0.0
  9
$DIMEXE
 40
0.18
  9
$DIMTP
 40
0.0
  9
$DIMTM
 40
0.0
  9
$DIMTXT
 40
0.18
  9
$DIMCEN
 40
0.09
  9
$DIMTSZ
 40
0.0
  9
$DIMTOL
 70
     0
  9
$DIMLIM
 70
     0
  9
$DIMTIH
 70
     1
  9
$DIMTOH
 70
     1
  9
$DIMSE1
 70
     0
  9
$DIMSE2
 70
     0
  9
$DIMTAD
 70
     0
  9
$DIMZIN
 70
     0
  9
$DIMBLK
  1

  9
$DIMASO
 70
     1
  9
$DIMSHO
 70
     1
  9
$DIMPOST
  1

  9
$DIMAPOST
  1

  9
$DIMALT
 70
     0
  9
$DIMALTD
 70
     2
  9
$DIMALTF
 40
25.4
  9
$DIMLFAC
 40
1.0
  9
$DIMTOFL
 70
     0
  9
$DIMTVP
 40
0.0
  9
$DIMTIX
 70
     0
  9
$DIMSOXD
 70
     0
  9
$DIMSAH
 70
     0
  9
$DIMBLK1
  1

  9
$DIMBLK2
  1

  9
$DIMSTYLE
  2
Standard
  9
$DIMCLRD
 70
     0
  9
$DIMCLRE
 70
     0
  9
$DIMCLRT
 70
     0
  9
$DIMTFAC
 40
1.0
  9
$DIMGAP
 40
0.09
  9
$DIMJUST
 70
     0
  9
$DIMSD1
 70
     0
  9
$DIMSD2
 70
     0
  9
$DIMTOLJ
 70
     1
  9
$DIMTZIN
 70
     0
  9
$DIMALTZ
 70
     0
  9
$DIMALTTZ
 70
     0
  9
$DIMUPT
 70
     0
  9
$DIMDEC
 70
     4
  9
$DIMTDEC
 70
     4
  9
$DIMALTU
 70
     2
  9
$DIMALTTD
 70
     2
  9
$DIMTXSTY
  7
Standard
  9
$DIMAUNIT
 70
     0
  9
$DIMADEC
 70
     0
  9
$DIMALTRND
 40
0.0
  9
$DIMAZIN
 70
     0
  9
$DIMDSEP
 70
    46
  9
$DIMATFIT
 70
     3
  9
$DIMFRAC
 70
     0
  9
$DIMLDRBLK
  1

  9
$DIMLUNIT
 70
     2
  9
$DIMLWD
 70
    -2
  9
$DIMLWE
 70
    -2
  9
$DIMTMOVE
 70
     0
  9
$DIMFXL
 40
1.0
  9
$DIMFXLON
 70
     0
  9
$DIMJOGANG
 40
0.7853981633974483
  9
$DIMTFILL
 70
     0
  9
$DIMTFILLCLR
 70
     0
  9
$DIMARCSYM
 70
     0
  9
$DIMLTYPE
  6

  9
$DIMLTEX1
  6

  9
$DIMLTEX2
  6

  9
$DIMTXTDIRECTION
 70
     0
  9
$LUNITS
 70
     2
  9
$LUPREC
 70
     4
  9
$SKETCHINC
 40
0.1
  9
$FILLETRAD
 40
0.0
  9
$AUNITS
 70
     0
  9
$AUPREC
 70
     0
  9
$MENU
  1
.
  9
$ELEVATION
 40
0.0
  9
$PELEVATION
 40
0.0
  9
$THICKNESS
 40
0.0
  9
$LIMCHECK
 70
     0
  9
$CHAMFERA
 40
0.0
  9
$CHAMFERB
 40
0.0
  9
$CHAMFERC
 40
0.0
  9
$CHAMFERD
 40
0.0
  9
$SKPOLY
 70
     0
  9
$TDCREATE
 40
2458157.454583334
  9
$TDUCREATE
 40
2458157.287916667
  9
$TDUPDATE
 40
2460668.821180556
  9
$TDUUPDATE
 40
2460668.654513889
  9
$TDINDWG
 40
0.1997453704
  9
$TDUSRTIMER
 40
0.1997453704
  9
$USRTIMER
 70
     1
  9
$ANGBASE
 50
0.0
  9
$ANGDIR
 70
     0
  9
$PDMODE
 70
     0
  9
$PDSIZE
 40
0.0
  9
$PLINEWID
 40
0.0
  9
$SPLFRAME
 70
     0
  9
$SPLINETYPE
 70
     6
  9
$SPLINESEGS
 70
     8
  9
$HANDSEED
  5
6FAB9
  9
$SURFTAB1
 70
     6
  9
$SURFTAB2
 70
     6
  9
$SURFTYPE
 70
     6
  9
$SURFU
 70
     6
  9
$SURFV
 70
     6
  9
$UCSBASE
  2

  9
$UCSNAME
  2

  9
$UCSORG
 10
0.0
 20
0.0
 30
0.0
  9
$UCSXDIR
 10
1.0
 20
0.0
 30
0.0
  9
$UCSYDIR
 10
0.0
 20
1.0
 30
0.0
  9
$UCSORTHOREF
  2

  9
$UCSORTHOVIEW
 70
     0
  9
$UCSORGTOP
 10
0.0
 20
0.0
 30
0.0
  9
$UCSORGBOTTOM
 10
0.0
 20
0.0
 30
0.0
  9
$UCSORGLEFT
 10
0.0
 20
0.0
 30
0.0
  9
$UCSORGRIGHT
 10
0.0
 20
0.0
 30
0.0
  9
$UCSORGFRONT
 10
0.0
 20
0.0
 30
0.0
  9
$UCSORGBACK
 10
0.0
 20
0.0
 30
0.0
  9
$PUCSBASE
  2

  9
$PUCSNAME
  2

  9
$PUCSORG
 10
0.0
 20
0.0
 30
0.0
  9
$PUCSXDIR
 10
1.0
 20
0.0
 30
0.0
  9
$PUCSYDIR
 10
0.0
 20
1.0
 30
0.0
  9
$PUCSORTHOREF
  2

  9
$PUCSORTHOVIEW
 70
     0
  9
$PUCSORGTOP
 10
0.0
 20
0.0
 30
0.0
  9
$PUCSORGBOTTOM
 10
0.0
 20
0.0
 30
0.0
  9
$PUCSORGLEFT
 10
0.0
 20
0.0
 30
0.0
  9
$PUCSORGRIGHT
 10
0.0
 20
0.0
 30
0.0
  9
$PUCSORGFRONT
 10
0.0
 20
0.0
 30
0.0
  9
$PUCSORGBACK
 10
0.0
 20
0.0
 30
0.0
  9
$USERI1
 70
     0
  9
$USERI2
 70
     0
  9
$USERI3
 70
     0
  9
$USERI4
 70
     0
  9
$USERI5
 70
     0
  9
$USERR1
 40
0.0
  9
$USERR2
 40
0.0
  9
$USERR3
 40
0.0
  9
$USERR4
 40
0.0
  9
$USERR5
 40
0.0
  9
$WORLDVIEW
 70
     1
  9
$SHADEDGE
 70
     3
  9
$SHADEDIF
 70
    70
  9
$TILEMODE
 70
     1
  9
$MAXACTVP
 70
    64
  9
$PINSBASE
 10
0.0
 20
0.0
 30
0.0
  9
$PLIMCHECK
 70
     0
  9
$PEXTMIN
 10
0.0
 20
0.0
 30
0.0
  9
$PEXTMAX
 10
0.0
 20
0.0
 30
0.0
  9
$PLIMMIN
 10
0.0
 20
0.0
  9
$PLIMMAX
 10
12.0
 20
9.0
  9
$UNITMODE
 70
     0
  9
$VISRETAIN
 70
     1
  9
$PLINEGEN
 70
     0
  9
$PSLTSCALE
 70
     1
  9
$TREEDEPTH
 70
  3020
  9
$CMLSTYLE
  2
Standard
  9
$CMLJUST
 70
     0
  9
$CMLSCALE
 40
1.0
  9
$PROXYGRAPHICS
 70
     1
  9
$MEASUREMENT
 70
     0
  9
$CELWEIGHT
370
    -1
  9
$ENDCAPS
280
     0
  9
$JOINSTYLE
280
     0
  9
$LWDISPLAY
290
     0
  9
$INSUNITS
 70
     1
  9
$HYPERLINKBASE
  1

  9
$STYLESHEET
  1
monochrome.ctb
  9
$XEDIT
290
     1
  9
$CEPSNTYPE
380
     0
  9
$PSTYLEMODE
290
     1
  9
$FINGERPRINTGUID
  2
{358EB121-6EE0-9143-8A3E-6E8E8869FDA6}
  9
$VERSIONGUID
  2
{83B33B20-9A09-8A43-8BF7-B299303F5D89}
  9
$EXTNAMES
290
     1
  9
$PSVPSCALE
 40
0.0
  9
$OLESTARTUP
290
     0
  9
$SORTENTS
280
   127
  9
$INDEXCTL
280
     0
  9
$HIDETEXT
280
     1
  9
$XCLIPFRAME
280
     2
  9
$HALOGAP
280
     0
  9
$OBSCOLOR
 70
   257
  9
$OBSLTYPE
280
     0
  9
$INTERSECTIONDISPLAY
280
     0
  9
$INTERSECTIONCOLOR
 70
   257
  9
$DIMASSOC
280
     2
  9
$PROJECTNAME
  1

  9
$CAMERADISPLAY
290
     0
  9
$LENSLENGTH
 40
50.0
  9
$CAMERAHEIGHT
 40
0.0
  9
$STEPSPERSEC
 40
2.0
  9
$STEPSIZE
 40
6.0
  9
$3DDWFPREC
 40
2.0
  9
$PSOLWIDTH
 40
0.25
  9
$PSOLHEIGHT
 40
4.0
  9
$LOFTANG1
 40
1.570796326794896
  9
$LOFTANG2
 40
1.570796326794896
  9
$LOFTMAG1
 40
0.0
  9
$LOFTMAG2
 40
0.0
  9
$LOFTPARAM
 70
     7
  9
$LOFTNORMALS
280
     1
  9
$LATITUDE
 40
37.795
  9
$LONGITUDE
 40
-122.394
  9
$NORTHDIRECTION
 40
0.0
  9
$TIMEZONE
 70
 -8000
  9
$LIGHTGLYPHDISPLAY
280
     1
  9
$TILEMODELIGHTSYNCH
280
     1
  9
$CMATERIAL
347
96
  9
$SOLIDHIST
280
     0
  9
$SHOWHIST
280
     1
  9
$DWFFRAME
280
     2
  9
$DGNFRAME
280
     0
  9
$REALWORLDSCALE
290
     1
  9
$INTERFERECOLOR
 62
     1
  9
$INTERFEREOBJVS
345
A3
  9
$INTERFEREVPVS
346
A0
  9
$CSHADOW
280
     0
  9
$SHADOWPLANELOCATION
 40
0.0
  0
ENDSEC
  0
SECTION
  2
CLASSES
  0
CLASS
  1
ACDBDICTIONARYWDFLT
  2
AcDbDictionaryWithDefault
  3
ObjectDBX Classes
 90
        0
 91
        1
280
     0
281
     0
  0
CLASS
  1
DICTIONARYVAR
  2
AcDbDictionaryVar
  3
ObjectDBX Classes
 90
        0
 91
       27
280
     0
281
     0
  0
CLASS
  1
TABLESTYLE
  2
AcDbTableStyle
  3
ObjectDBX Classes
 90
     4095
 91
        1
280
     0
281
     0
  0
CLASS
  1
MATERIAL
  2
AcDbMaterial
  3
ObjectDBX Classes
 90
     1153
 91
        3
280
     0
281
     0
  0
CLASS
  1
VISUALSTYLE
  2
AcDbVisualStyle
  3
ObjectDBX Classes
 90
     4095
 91
       25
280
     0
281
     0
  0
CLASS
  1
SCALE
  2
AcDbScale
  3
ObjectDBX Classes
 90
     1153
 91
       34
280
     0
281
     0
  0
CLASS
  1
MLEADERSTYLE
  2
AcDbMLeaderStyle
  3
ACDB_MLEADERSTYLE_CLASS
 90
     4095
 91
        1
280
     0
281
     0
  0
CLASS
  1
CELLSTYLEMAP
  2
AcDbCellStyleMap
  3
ObjectDBX Classes
 90
     1152
 91
        1
280
     0
281
     0
  0
CLASS
  1
EXACXREFPANELOBJECT
  2
ExAcXREFPanelObject
  3
EXAC_ESW
 90
     1025
 91
        1
280
     0
281
     0
  0
CLASS
  1
NPOCOLLECTION
  2
AcDbImpNonPersistentObjectsCollection
  3
ObjectDBX Classes
 90
     1153
 91
        1
280
     0
281
     0
  0
CLASS
  1
LAYER_INDEX
  2
AcDbLayerIndex
  3
ObjectDBX Classes
 90
        0
 91
        0
280
     0
281
     0
  0
CLASS
  1
SPATIAL_INDEX
  2
AcDbSpatialIndex
  3
ObjectDBX Classes
 90
        0
 91
        0
280
     0
281
     0
  0
CLASS
  1
IDBUFFER
  2
AcDbIdBuffer
  3
ObjectDBX Classes
 90
        0
 91
        0
280
     0
281
     0
  0
CLASS
  1
ACDBSECTIONVIEWSTYLE
  2
AcDbSectionViewStyle
  3
ObjectDBX Classes
 90
     1025
 91
        2
280
     0
281
     0
  0
CLASS
  1
ACDBDETAILVIEWSTYLE
  2
AcDbDetailViewStyle
  3
ObjectDBX Classes
 90
     1025
 91
        2
280
     0
281
     0
  0
CLASS
  1
SORTENTSTABLE
  2
AcDbSortentsTable
  3
ObjectDBX Classes
 90
        0
 91
        1
280
     0
281
     0
  0
CLASS
  1
ACAD_EVALUATION_GRAPH
  2
AcDbEvalGraph
  3
ObjectDBX Classes
 90
     1153
 91
        0
280
     0
281
     0
  0
CLASS
  1
BLOCKLINEARPARAMETER
  2
AcDbBlockLinearParameter
  3
ObjectDBX Classes
 90
     1153
 91
        0
280
     0
281
     0
  0
CLASS
  1
BLOCKLINEARGRIP
  2
AcDbBlockLinearGrip
  3
ObjectDBX Classes
 90
     1153
 91
        0
280
     0
281
     0
  0
CLASS
  1
BLOCKGRIPLOCATIONCOMPONENT
  2
AcDbBlockGripExpr
  3
ObjectDBX Classes
 90
     1153
 91
        0
280
     0
281
     0
  0
CLASS
  1
BLOCKSTRETCHACTION
  2
AcDbBlockStretchAction
  3
ObjectDBX Classes
 90
     1153
 91
        0
280
     0
281
     0
  0
CLASS
  1
ACDB_DYNAMICBLOCKPURGEPREVENTER_VERSION
  2
AcDbDynamicBlockPurgePreventer
  3
ObjectDBX Classes
 90
     1153
 91
        0
280
     0
281
     0
  0
CLASS
  1
BLOCKVISIBILITYPARAMETER
  2
AcDbBlockVisibilityParameter
  3
ObjectDBX Classes
 90
     1153
 91
        0
280
     0
281
     0
  0
CLASS
  1
BLOCKVISIBILITYGRIP
  2
AcDbBlockVisibilityGrip
  3
ObjectDBX Classes
 90
     1153
 91
        0
280
     0
281
     0
  0
CLASS
  1
ACDB_BLOCKREPRESENTATION_DATA
  2
AcDbBlockRepresentationData
  3
ObjectDBX Classes
 90
     1153
 91
        0
280
     0
281
     0
  0
CLASS
  1
SURFACE
  2
AcDbSurface
  3
ObjectDBX Classes
 90
     4095
 91
        0
280
     0
281
     1
  0
CLASS
  1
ACDBASSOCPERSSUBENTMANAGER
  2
AcDbAssocPersSubentManager
  3
ObjectDBX Classes
 90
     1024
 91
        1
280
     0
281
     0
  0
CLASS
  1
BLOCKARRAYACTION
  2
AcDbBlockArrayAction
  3
ObjectDBX Classes
 90
     1153
 91
        0
280
     0
281
     0
  0
CLASS
  1
BLOCKLOOKUPPARAMETER
  2
AcDbBlockLookupParameter
  3
ObjectDBX Classes
 90
     1153
 91
        0
280
     0
281
     0
  0
CLASS
  1
BLOCKLOOKUPGRIP
  2
AcDbBlockLookupGrip
  3
ObjectDBX Classes
 90
     1153
 91
        0
280
     0
281
     0
  0
CLASS
  1
BLOCKLOOKUPACTION
  2
AcDbBlockLookupAction
  3
ObjectDBX Classes
 90
     1153
 91
        0
280
     0
281
     0
  0
ENDSEC
  0
SECTION
  2
TABLES
  0
TABLE
  2
VPORT
  5
8
330
0
100
AcDbSymbolTable
 70
     1
  0
VPORT
  5
94
330
8
100
AcDbSymbolTableRecord
100
AcDbViewportTableRecord
  2
*Active
 70
     0
 10
0.0
 20
0.0
 11
1.0
 21
1.0
 12
186155.1314665031
 22
136550.9735521395
 13
0.0
 23
0.0
 14
0.5
 24
0.5
 15
0.5
 25
0.5
 16
0.0
 26
0.0
 36
1.0
 17
0.0
 27
0.0
 37
0.0
 40
5150.427347116141
 41
2.293369663941871
 42
50.0
 43
0.0
 44
0.0
 50
0.0
 51
0.0
 71
     0
 72
  1000
 73
     1
 74
     3
 75
     0
 76
     0
 77
     0
 78
     0
281
     0
 65
     1
110
0.0
120
0.0
130
0.0
111
1.0
121
0.0
131
0.0
112
0.0
122
1.0
132
0.0
 79
     0
146
0.0
348
9F
 60
     3
 61
     5
292
     1
282
     1
141
0.0
142
0.0
 63
   250
421
  3355443
1001
ACAD_NAV_VCDISPLAY
1070
     3
  0
ENDTAB
  0
TABLE
  2
LTYPE
  5
5
330
0
100
AcDbSymbolTable
 70
     1
  0
LTYPE
  5
14
330
5
100
AcDbSymbolTableRecord
100
AcDbLinetypeTableRecord
  2
ByBlock
 70
     0
  3

 72
    65
 73
     0
 40
0.0
  0
LTYPE
  5
15
330
5
100
AcDbSymbolTableRecord
100
AcDbLinetypeTableRecord
  2
ByLayer
 70
     0
  3

 72
    65
 73
     0
 40
0.0
  0
LTYPE
  5
16
330
5
100
AcDbSymbolTableRecord
100
AcDbLinetypeTableRecord
  2
Continuous
 70
     0
  3
Solid line
 72
    65
 73
     0
 40
0.0
  0
ENDTAB
  0
TABLE
  2
LAYER
  5
2
102
{ACAD_XDICTIONARY
360
18E
102
}
330
0
100
AcDbSymbolTable
 70
     2
  0
LAYER
  5
10
102
{ACAD_XDICTIONARY
360
E6
102
}
330
2
100
AcDbSymbolTableRecord
100
AcDbLayerTableRecord
  2
0
 70
     0
 62
     7
  6
Continuous
370
    -3
390
F
347
98
348
0
  0
LAYER
  5
204
330
2
100
AcDbSymbolTableRecord
100
AcDbLayerTableRecord
  2
freecads.com
 70
     0
 62
     7
  6
Continuous
370
    -3
390
F
347
98
348
0
1001
AcAecLayerStandard
1000

1000

1001
AcCmTransparency
1071
        0
  0
ENDTAB
  0
TABLE
  2
STYLE
  5
3
330
0
100
AcDbSymbolTable
 70
     2
  0
STYLE
  5
11
330
3
100
AcDbSymbolTableRecord
100
AcDbTextStyleTableRecord
  2
Standard
 70
     0
 40
0.0
 41
1.0
 50
0.0
 71
     0
 42
0.2
  3
arial.ttf
  4

1001
ACAD
1000
Arial
1071
       34
  0
ENDTAB
  0
TABLE
  2
VIEW
  5
6
330
0
100
AcDbSymbolTable
 70
     0
  0
ENDTAB
  0
TABLE
  2
UCS
  5
7
330
0
100
AcDbSymbolTable
 70
     0
  0
ENDTAB
  0
TABLE
  2
APPID
  5
9
330
0
100
AcDbSymbolTable
 70
    31
  0
APPID
  5
12
330
9
100
AcDbSymbolTableRecord
100
AcDbRegAppTableRecord
  2
ACAD
 70
     0
  0
APPID
  5
DD
330
9
100
AcDbSymbolTableRecord
100
AcDbRegAppTableRecord
  2
AcadAnnoPO
 70
     0
  0
APPID
  5
DE
330
9
100
AcDbSymbolTableRecord
100
AcDbRegAppTableRecord
  2
AcadAnnotative
 70
     0
  0
APPID
  5
DF
330
9
100
AcDbSymbolTableRecord
100
AcDbRegAppTableRecord
  2
ACAD_DSTYLE_DIMJAG
 70
     0
  0
APPID
  5
E0
330
9
100
AcDbSymbolTableRecord
100
AcDbRegAppTableRecord
  2
ACAD_DSTYLE_DIMTALN
 70
     0
  0
APPID
  5
107
330
9
100
AcDbSymbolTableRecord
100
AcDbRegAppTableRecord
  2
ACAD_MLEADERVER
 70
     0
  0
APPID
  5
1A6
330
9
100
AcDbSymbolTableRecord
100
AcDbRegAppTableRecord
  2
ACAD_NAV_VCDISPLAY
 70
     0
  0
APPID
  5
205
330
9
100
AcDbSymbolTableRecord
100
AcDbRegAppTableRecord
  2
AcAecLayerStandard
 70
     0
  0
APPID
  5
206
330
9
100
AcDbSymbolTableRecord
100
AcDbRegAppTableRecord
  2
AcCmTransparency
 70
     0
  0
APPID
  5
222
330
9
100
AcDbSymbolTableRecord
100
AcDbRegAppTableRecord
  2
ACAD_PSEXT
 70
     0
  0
APPID
  5
2DA
330
9
100
AcDbSymbolTableRecord
100
AcDbRegAppTableRecord
  2
GradientColor1ACI
 70
     0
  0
APPID
  5
2DB
330
9
100
AcDbSymbolTableRecord
100
AcDbRegAppTableRecord
  2
GradientColor2ACI
 70
     0
  0
APPID
  5
2F3
330
9
100
AcDbSymbolTableRecord
100
AcDbRegAppTableRecord
  2
ACAD_EXEMPT_FROM_CAD_STANDARDS
 70
     0
  0
APPID
  5
A1A
330
9
100
AcDbSymbolTableRecord
100
AcDbRegAppTableRecord
  2
AcDbBlockRepETag
 70
     0
  0
APPID
  5
2282
330
9
100
AcDbSymbolTableRecord
100
AcDbRegAppTableRecord
  2
RAK
 70
     0
  0
APPID
  5
39F4
330
9
100
AcDbSymbolTableRecord
100
AcDbRegAppTableRecord
  2
ACAD_DSTYLE_DIMJOGGED_JOGANGLE_SYMBOL
 70
     0
  0
APPID
  5
39F5
330
9
100
AcDbSymbolTableRecord
100
AcDbRegAppTableRecord
  2
AcDbDynamicBlockGUID
 70
     0
  0
APPID
  5
39F6
330
9
100
AcDbSymbolTableRecord
100
AcDbRegAppTableRecord
  2
ACAD_DSTYLE_DIMBREAK
 70
     0
  0
APPID
  5
3B59
330
9
100
AcDbSymbolTableRecord
100
AcDbRegAppTableRecord
  2
AEC_XDATA_BOUND_SPACE
 70
     0
  0
APPID
  5
75C5
330
9
100
AcDbSymbolTableRecord
100
AcDbRegAppTableRecord
  2
AcDbDynamicBlockTrueName
 70
     0
  0
APPID
  5
75C6
330
9
100
AcDbSymbolTableRecord
100
AcDbRegAppTableRecord
  2
AcDbBlockRepBTag
 70
     0
  0
APPID
  5
75C7
330
9
100
AcDbSymbolTableRecord
100
AcDbRegAppTableRecord
  2
ACAUTHENVIRON
 70
     0
  0
APPID
  5
AA90
330
9
100
AcDbSymbolTableRecord
100
AcDbRegAppTableRecord
  2
Acad_TC
 70
     0
  0
APPID
  5
AA9C
330
9
100
AcDbSymbolTableRecord
100
AcDbRegAppTableRecord
  2
AcDbBlockArrayActionTag
 70
     0
  0
APPID
  5
BEE4
330
9
100
AcDbSymbolTableRecord
100
AcDbRegAppTableRecord
  2
ACAD_DSTYLE_DIMTEXT_FILL
 70
     0
  0
APPID
  5
219E5
330
9
100
AcDbSymbolTableRecord
100
AcDbRegAppTableRecord
  2
AECLAY
 70
     0
  0
APPID
  5
26B46
330
9
100
AcDbSymbolTableRecord
100
AcDbRegAppTableRecord
  2
REVIT
 70
     0
  0
APPID
  5
280A5
330
9
100
AcDbSymbolTableRecord
100
AcDbRegAppTableRecord
  2
HATCHBACKGROUNDCOLOR
 70
     0
  0
APPID
  5
29EE0
330
9
100
AcDbSymbolTableRecord
100
AcDbRegAppTableRecord
  2
ACAD_STEPID
 70
     0
  0
APPID
  5
29EE1
330
9
100
AcDbSymbolTableRecord
100
AcDbRegAppTableRecord
  2
AcLayerTools
 70
     0
  0
APPID
  5
4D86C
330
9
100
AcDbSymbolTableRecord
100
AcDbRegAppTableRecord
  2
PE_URL
 70
     0
  0
ENDTAB
  0
TABLE
  2
DIMSTYLE
  5
A
330
0
100
AcDbSymbolTable
 70
     2
100
AcDbDimStyleTable
 71
     1
340
27
  0
DIMSTYLE
105
27
330
A
100
AcDbSymbolTableRecord
100
AcDbDimStyleTableRecord
  2
Standard
 70
     0
340
11
  0
ENDTAB
  0
TABLE
  2
BLOCK_RECORD
  5
1
330
0
100
AcDbSymbolTable
 70
     2
  0
BLOCK_RECORD
  5
1F
102
{ACAD_XDICTIONARY
360
15D
102
}
330
1
100
AcDbSymbolTableRecord
100
AcDbBlockTableRecord
  2
*Model_Space
340
22
 70
     0
280
     1
281
     0
  0
BLOCK_RECORD
  5
58
330
1
100
AcDbSymbolTableRecord
100
AcDbBlockTableRecord
  2
*Paper_Space
340
59
 70
     0
280
     1
281
     0
  0
BLOCK_RECORD
  5
5D
330
1
100
AcDbSymbolTableRecord
100
AcDbBlockTableRecord
  2
*Paper_Space0
340
5E
 70
     0
280
     1
281
     0
  0
ENDTAB
  0
ENDSEC
  0
SECTION
  2
BLOCKS
  0
BLOCK
  5
20
330
1F
100
AcDbEntity
  8
0
100
AcDbBlockBegin
  2
*Model_Space
 70
     0
 10
0.0
 20
0.0
 30
0.0
  3
*Model_Space
  1

  0
ENDBLK
  5
21
330
1F
100
AcDbEntity
  8
0
100
AcDbBlockEnd
  0
BLOCK
  5
5A
330
58
100
AcDbEntity
 67
     1
  8
0
100
AcDbBlockBegin
  2
*Paper_Space
 70
     0
 10
0.0
 20
0.0
 30
0.0
  3
*Paper_Space
  1

  0
ENDBLK
  5
5B
330
58
100
AcDbEntity
 67
     1
  8
0
100
AcDbBlockEnd
  0
BLOCK
  5
5F
330
5D
100
AcDbEntity
 67
     1
  8
0
100
AcDbBlockBegin
  2
*Paper_Space0
 70
     0
 10
0.0
 20
0.0
 30
0.0
  3
*Paper_Space0
  1

  0
ENDBLK
  5
60
330
5D
100
AcDbEntity
 67
     1
  8
0
100
AcDbBlockEnd
  0
ENDSEC
  0
SECTION
  2
ENTITIES
  0
ELLIPSE
  5
67604
330
1F
100
AcDbEntity
  8
freecads.com
100
AcDbEllipse
 10
185300.8542150305
 20
136172.9456158926
 30
-0.0004532706921626
 11
0.0000000000000043
 21
-19.33789219522255
 31
0.0
210
0.0
220
0.0
230
1.0
 40
0.7335990729444447
 41
2.812581868003949
 42
6.612195866592543
1001
AcDbBlockRepETag
1070
     1
1071
       41
1005
67604
  0
ELLIPSE
  5
6760D
330
1F
100
AcDbEntity
  8
freecads.com
100
AcDbEllipse
 10
186272.3204878219
 20
136207.8041780029
 30
-0.0004532706921626
 11
-0.0000018629748059
 21
-4.357298548097782
 31
0.0
210
0.0
220
0.0
230
-0.9999999999999998
 40
0.6759374202000498
 41
3.141592021056812
 42
6.283184674646588
1001
AcDbBlockRepETag
1070
     1
1071
       50
1005
6760D
  0
ELLIPSE
  5
6760F
330
1F
100
AcDbEntity
  8
freecads.com
100
AcDbEllipse
 10
185362.762946024
 20
136142.6749460955
 30
-0.0004532706921626
 11
0.0000000000000007
 21
-3.042059867206321
 31
0.0
210
0.0
220
0.0
230
1.0
 40
0.9346230760337448
 41
4.712388980384688
 42
6.283185307179585
1001
AcDbBlockRepETag
1070
     1
1071
       52
1005
6760F
  0
ELLIPSE
  5
67611
330
1F
100
AcDbEntity
  8
freecads.com
100
AcDbEllipse
 10
186257.0123838045
 20
136295.5165576796
 30
-0.0004532706921626
 11
0.0000000000000008
 21
-3.485838660699756
 31
0.0
210
0.0
220
0.0
230
-1.0
 40
0.9696213292013331
 41
0.0
 42
0.4558149365996809
1001
AcDbBlockRepETag
1070
     1
1071
       54
1005
67611
  0
ELLIPSE
  5
67612
330
1F
100
AcDbEntity
  8
freecads.com
100
AcDbEllipse
 10
186257.0124783683
 20
136295.5165576796
 30
-0.0004532706921626
 11
0.0000000000000008
 21
-3.485838660699756
 31
0.0
210
0.0
220
0.0
230
1.0
 40
0.9696213292013331
 41
0.0
 42
1.570796326794896
1001
AcDbBlockRepETag
1070
     1
1071
       55
1005
67612
  0
ELLIPSE
  5
67613
330
1F
100
AcDbEntity
  8
freecads.com
100
AcDbEllipse
 10
186272.999752947
 20
136295.5165582799
 30
-0.0004532706921626
 11
0.0000000000000008
 21
-3.485838660699756
 31
0.0
210
0.0
220
0.0
230
1.0
 40
0.9696213292013331
 41
0.0
 42
1.570796326794896
1001
AcDbBlockRepETag
1070
     1
1071
       56
1005
67613
  0
ELLIPSE
  5
6761D
330
1F
100
AcDbEntity
  8
freecads.com
100
AcDbEllipse
 10
186224.6386511656
 20
136313.4250829301
 30
-0.0004532706921626
 11
-0.0000000000000015
 21
6.971678326197368
 31
0.0
210
0.0
220
0.0
230
1.0
 40
0.9335813090591383
 41
4.712388980384688
 42
6.283185307179585
1001
AcDbBlockRepETag
1070
     1
1071
       66
1005
6761D
  0
ELLIPSE
  5
6761E
330
1F
100
AcDbEntity
  8
freecads.com
100
AcDbEllipse
 10
186230.1911479168
 20
136298.4363560026
 30
-0.0004532706921626
 11
-0.0001629991593243
 21
-2.61476417720617
 31
0.0
210
0.0
220
0.0
230
-1.0
 40
0.3656698017963704
 41
4.712366185261981
 42
6.283012898245362
1001
AcDbBlockRepETag
1070
     1
1071
       67
1005
6761E
  0
ELLIPSE
  5
6761F
330
1F
100
AcDbEntity
  8
freecads.com
100
AcDbEllipse
 10
186215.269488593
 20
136313.250778168
 30
-0.0004532706921626
 11
-0.000000000000001
 21
4.356114424327505
 31
0.0
210
0.0
220
0.0
230
1.0
 40
0.9294362474495715
 41
4.712388980384688
 42
6.283185307179585
1001
AcDbBlockRepETag
1070
     1
1071
       68
1005
6761F
  0
ELLIPSE
  5
67620
330
1F
100
AcDbEntity
  8
freecads.com
100
AcDbEllipse
 10
186220.2743600949
 20
136298.4359631045
 30
-0.0004532706921626
 11
0.0000000981160719
 21
-2.614378259149652
 31
0.0
210
0.0
220
0.0
230
1.0
 40
0.3657237809961724
 41
4.712388966659291
 42
6.283185204562771
1001
AcDbBlockRepETag
1070
     1
1071
       69
1005
67620
  0
ELLIPSE
  5
67622
330
1F
100
AcDbEntity
  8
freecads.com
100
AcDbEllipse
 10
186217.1786787035
 20
136207.8041780029
 30
-0.0004532706921626
 11
0.0000018629748078
 21
-4.357298548097782
 31
0.0
210
0.0
220
0.0
230
0.9999999999999998
 40
0.6759374202000498
 41
3.141592021056812
 42
6.283184674646588
1001
AcDbBlockRepETag
1070
     1
1071
       71
1005
67622
  0
ELLIPSE
  5
67625
330
1F
100
AcDbEntity
  8
freecads.com
100
AcDbEllipse
 10
186272.6844543852
 20
136172.945784015
 30
-0.0004532706921626
 11
0.0000413566030383
 21
20.91501843879924
 31
0.0
210
0.0
220
0.0
230
1.0
 40
0.500000277610207
 41
3.141596825863066
 42
4.712390228234898
1001
AcDbBlockRepETag
1070
     1
1071
       74
1005
67625
  0
ELLIPSE
  5
67626
330
1F
100
AcDbEntity
  8
freecads.com
100
AcDbEllipse
 10
186114.3413307256
 20
136172.9457745509
 30
-0.0004532706921626
 11
0.0000413566030383
 21
20.91501843879924
 31
0.0
210
0.0
220
0.0
230
1.0
 40
0.500000277610207
 41
3.141596825863066
 42
6.283189479452857
1001
AcDbBlockRepETag
1070
     1
1071
       75
1005
67626
  0
ELLIPSE
  5
67631
330
1F
100
AcDbEntity
  8
freecads.com
100
AcDbEllipse
 10
185275.3312024053
 20
136172.9456210769
 30
-0.0004532706921626
 11
0.0000000000000048
 21
-21.75664726200329
 31
0.0
210
0.0
220
0.0
230
1.0
 40
0.6407828498991265
 41
3.141592653589792
 42
6.283185307179585
1001
AcDbBlockRepETag
1070
     1
1071
       86
1005
67631
  0
ELLIPSE
  5
67632
330
1F
100
AcDbEntity
  8
freecads.com
100
AcDbEllipse
 10
185327.3414144088
 20
136151.8227259868
 30
-0.0004532706921626
 11
-7.09292517107729
 21
0.0017052513258851
 31
0.0
210
0.0
220
0.0
230
1.0
 40
0.3764741369438949
 41
1.502600222235466
 42
3.142231251969366
1001
AcDbBlockRepETag
1070
     1
1071
       87
1005
67632
  0
ELLIPSE
  5
67635
330
1F
100
AcDbEntity
  8
freecads.com
100
AcDbEllipse
 10
185239.9838515966
 20
136328.501311821
 30
-0.0004532706921626
 11
0.0000000000000031
 21
-13.94335535391848
 31
0.0
210
0.0
220
0.0
230
1.0
 40
0.1887598929370572
 41
3.864326901402948
 42
6.283185307179585
1001
AcDbBlockRepETag
1070
     1
1071
       90
1005
67635
  0
ELLIPSE
  5
67636
330
1F
100
AcDbEntity
  8
freecads.com
100
AcDbEllipse
 10
185218.5890716409
 20
136328.501311821
 30
-0.0004532706921626
 11
0.0000000000001276
 21
13.94335535392485
 31
0.0
210
0.0
220
0.0
230
-1.0
 40
0.1887598929374399
 41
4.712388980384688
 42
5.560451059365894
1001
AcDbBlockRepETag
1070
     1
1071
       91
1005
67636
  0
ELLIPSE
  5
67637
330
1F
100
AcDbEntity
  8
freecads.com
100
AcDbEllipse
 10
185218.5890716409
 20
136328.501311821
 30
-0.0004532706921626
 11
0.0000000000001338
 21
-13.94335535392485
 31
0.0
210
0.0
220
0.0
230
1.0
 40
0.1887598929374399
 41
4.712388980384688
 42
6.283185307179585
1001
AcDbBlockRepETag
1070
     1
1071
       92
1005
67637
  0
ELLIPSE
  5
6763A
330
1F
100
AcDbEntity
  8
freecads.com
100
AcDbEllipse
 10
185470.6928761707
 20
136782.0960906783
 30
-0.0004532706921626
 11
0.0000000000000019
 21
-8.71459709619469
 31
0.0
210
0.0
220
0.0
230
1.0
 40
0.1868924477842934
 41
3.141592653589792
 42
6.283185307179585
1001
AcDbBlockRepETag
1070
     1
1071
       95
1005
6763A
  0
ELLIPSE
  5
67643
330
1F
100
AcDbEntity
  8
freecads.com
100
AcDbEllipse
 10
185517.5909240217
 20
136783.4922046612
 30
-0.0004532706921626
 11
-57.50587980919572
 21
4.160936344138741
 31
0.0
210
0.0
220
0.0
230
-1.0
 40
0.8140736326994225
 41
2.999306437918201
 42
3.166207452588214
1001
AcDbBlockRepETag
1070
     1
1071
      104
1005
67643
  0
ELLIPSE
  5
67646
330
1F
100
AcDbEntity
  8
freecads.com
100
AcDbEllipse
 10
185570.9650607497
 20
136782.0960906777
 30
-0.0004532706921626
 11
0.0000000000010628
 21
-8.150905261811777
 31
0.0
210
0.0
220
0.0
230
1.0
 40
0.0466658770971974
 41
3.141592653589792
 42
6.283185307179585
1001
AcDbBlockRepETag
1070
     1
1071
      107
1005
67646
  0
ELLIPSE
  5
67647
330
1F
100
AcDbEntity
  8
freecads.com
100
AcDbEllipse
 10
185492.0846404
 20
136782.0960906783
 30
-0.0004532706921626
 11
-3.515883788010439
 21
-0.0000000000063407
 31
0.0
210
0.0
220
0.0
230
1.0
 40
0.9914545100630217
 41
0.0
 42
6.283185307179585
1001
AcDbBlockRepETag
1070
     1
1071
      108
1005
67647
  0
LINE
  5
6E25E
330
1F
100
AcDbEntity
  8
freecads.com
100
AcDbLine
 10
185343.6525003986
 20
136147.6733014291
 30
-0.0004532706921626
 11
185343.6525012379
 21
136154.644955256
 31
-0.0004532706921626
1001
AcDbBlockRepETag
1070
     1
1071
        1
1005
6E25E
  0
LINE
  5
6E25F
330
1F
100
AcDbEntity
  8
freecads.com
100
AcDbLine
 10
185284.9957900487
 20
136147.6733794526
 30
-0.0004532706921626
 11
185284.9957911742
 21
136151.1889707208
 31
-0.0004532706921626
1001
AcDbBlockRepETag
1070
     1
1071
        2
1005
6E25F
  0
ARC
  5
6E260
330
1F
100
AcDbEntity
  8
freecads.com
100
AcDbCircle
 10
185392.2467152377
 20
136203.5575550173
 30
-0.0004532706921626
 40
3.454672273710626
100
AcDbArc
 50
128.3028301393854
 51
182.3656190259215
1001
AcDbBlockRepETag
1070
     1
1071
        3
1005
6E260
  0
LINE
  5
6E261
330
1F
100
AcDbEntity
  8
freecads.com
100
AcDbLine
 10
185399.6139962413
 20
136206.2685944205
 30
-0.0004532706921626
 11
185362.9372179665
 21
136206.2685944205
 31
-0.0004532706921626
1001
AcDbBlockRepETag
1070
     1
1071
        4
1005
6E261
  0
ARC
  5
6E262
330
1F
100
AcDbEntity
  8
freecads.com
100
AcDbCircle
 10
185399.3066214026
 20
136204.0899896322
 30
-0.0004532706921626
 40
2.178649274050258
100
AcDbArc
 50
89.9917034412234
 51
180.0000021511094
1001
AcDbBlockRepETag
1070
     1
1071
        5
1005
6E262
  0
ARC
  5
6E263
330
1F
100
AcDbEntity
  8
freecads.com
100
AcDbCircle
 10
185464.0896612714
 20
136252.3203600277
 30
-0.0004532706921626
 40
0.3336545077323802
100
AcDbArc
 50
109.1263186168155
 51
172.4197038270047
1001
AcDbBlockRepETag
1070
     1
1071
        6
1005
6E263
  0
LINE
  5
6E264
330
1F
100
AcDbEntity
  8
freecads.com
100
AcDbLine
 10
185464.2998043729
 20
136252.7324935027
 30
-0.0004532706921626
 11
185463.9803387302
 21
136252.6355963082
 31
-0.0004532706921626
1001
AcDbBlockRepETag
1070
     1
1071
        7
1005
6E264
  0
LINE
  5
6E265
330
1F
100
AcDbEntity
  8
freecads.com
100
AcDbLine
 10
185463.6828742942
 20
136246.817778652
 30
-0.0004532706921626
 11
185463.7589231799
 21
136252.3644178072
 31
-0.0004532706921626
1001
AcDbBlockRepETag
1070
     1
1071
        8
1005
6E265
  0
ARC
  5
6E266
330
1F
100
AcDbEntity
  8
freecads.com
100
AcDbCircle
 10
185464.1834076342
 20
136248.4681027078
 30
-0.0004532706921626
 40
0.0755119569743201
100
AcDbArc
 50
278.0317782794221
 51
345.7320611101981
1001
AcDbBlockRepETag
1070
     1
1071
        9
1005
6E266
  0
ARC
  5
6E267
330
1F
100
AcDbEntity
  8
freecads.com
100
AcDbCircle
 10
185459.0515989124
 20
136249.2015281767
 30
-0.0004532706921626
 40
5.259039236347087
100
AcDbArc
 50
351.7785931533915
 51
356.3246797227392
1001
AcDbBlockRepETag
1070
     1
1071
       10
1005
6E267
  0
ARC
  5
6E268
330
1F
100
AcDbEntity
  8
freecads.com
100
AcDbCircle
 10
185463.7442280977
 20
136252.9639746486
 30
-0.0004532706921626
 40
4.592715577123369
100
AcDbArc
 50
269.5003312710828
 51
275.6195519347985
1001
AcDbBlockRepETag
1070
     1
1071
       11
1005
6E268
  0
LINE
  5
6E269
330
1F
100
AcDbEntity
  8
freecads.com
100
AcDbLine
 10
185464.2998220011
 20
136248.8644108365
 30
-0.0004532706921626
 11
185464.299803935
 21
136252.8285907892
 31
-0.0004532706921626
1001
AcDbBlockRepETag
1070
     1
1071
       12
1005
6E269
  0
ARC
  5
6E26A
330
1F
100
AcDbEntity
  8
freecads.com
100
AcDbCircle
 10
185466.0466692438
 20
136252.7316192093
 30
-0.0004532706921626
 40
1.749554770323378
100
AcDbArc
 50
96.05390144579002
 51
176.8226710685009
1001
AcDbBlockRepETag
1070
     1
1071
       13
1005
6E26A
  0
ARC
  5
6E26B
330
1F
100
AcDbEntity
  8
freecads.com
100
AcDbCircle
 10
185479.9307177655
 20
136252.7316192093
 30
-0.0004532706921626
 40
1.749554770323378
100
AcDbArc
 50
3.177328931499059
 51
83.94609855421
1001
AcDbBlockRepETag
1070
     1
1071
       14
1005
6E26B
  0
ARC
  5
6E26C
330
1F
100
AcDbEntity
  8
freecads.com
100
AcDbCircle
 10
185481.8761423096
 20
136252.3110688572
 30
-0.0004532706921626
 40
0.3445787958706231
100
AcDbArc
 50
8.906569212806124
 51
70.35762752375491
1001
AcDbBlockRepETag
1070
     1
1071
       15
1005
6E26C
  0
LINE
  5
6E26D
330
1F
100
AcDbEntity
  8
freecads.com
100
AcDbLine
 10
185481.6775826293
 20
136252.7309537689
 30
-0.0004532706921626
 11
185481.99197184
 21
136252.6355963082
 31
-0.0004532706921626
1001
AcDbBlockRepETag
1070
     1
1071
       16
1005
6E26D
  0
ARC
  5
6E26E
330
1F
100
AcDbEntity
  8
freecads.com
100
AcDbCircle
 10
185481.7939793751
 20
136248.4681027078
 30
-0.0004532706921626
 40
0.0755119569743201
100
AcDbArc
 50
194.2679388898019
 51
261.9682217205778
1001
AcDbBlockRepETag
1070
     1
1071
       17
1005
6E26E
  0
ARC
  5
6E26F
330
1F
100
AcDbEntity
  8
freecads.com
100
AcDbCircle
 10
185486.9257880968
 20
136249.2015281767
 30
-0.0004532706921626
 40
5.259039236347087
100
AcDbArc
 50
183.6753202772607
 51
188.2214068466085
1001
AcDbBlockRepETag
1070
     1
1071
       18
1005
6E26F
  0
ARC
  5
6E270
330
1F
100
AcDbEntity
  8
freecads.com
100
AcDbCircle
 10
185482.2331589115
 20
136252.9639746486
 30
-0.0004532706921626
 40
4.592715577123369
100
AcDbArc
 50
264.3804480652016
 51
270.9023275159291
1001
AcDbBlockRepETag
1070
     1
1071
       19
1005
6E270
  0
LINE
  5
6E271
330
1F
100
AcDbEntity
  8
freecads.com
100
AcDbLine
 10
185482.3400766416
 20
136246.818592244
 30
-0.0004532706921626
 11
185482.216566216
 21
136252.3644178072
 31
-0.0004532706921626
1001
AcDbBlockRepETag
1070
     1
1071
       20
1005
6E271
  0
LINE
  5
6E272
330
1F
100
AcDbEntity
  8
freecads.com
100
AcDbLine
 10
185465.0443930685
 20
136227.4118835975
 30
-0.0004532706921626
 11
185463.3800932122
 21
136229.1548018245
 31
-0.0004532706921626
1001
AcDbBlockRepETag
1070
     1
1071
       21
1005
6E272
  0
LINE
  5
6E273
330
1F
100
AcDbEntity
  8
freecads.com
100
AcDbLine
 10
185482.6539101814
 20
136229.1550890387
 30
-0.0004532706921626
 11
185480.932993944
 21
136227.4118841753
 31
-0.0004532706921626
1001
AcDbBlockRepETag
1070
     1
1071
       22
1005
6E273
  0
LINE
  5
6E274
330
1F
100
AcDbEntity
  8
freecads.com
100
AcDbLine
 10
185480.7294179941
 20
136191.2463017098
 30
-0.0004532706921626
 11
185480.932993944
 21
136227.4118841753
 31
-0.0004532706921626
1001
AcDbBlockRepETag
1070
     1
1071
       23
1005
6E274
  0
LINE
  5
6E275
330
1F
100
AcDbEntity
  8
freecads.com
100
AcDbLine
 10
185465.2479690151
 20
136191.2463017098
 30
-0.0004532706921626
 11
185465.0443930685
 21
136227.4118835975
 31
-0.0004532706921626
1001
AcDbBlockRepETag
1070
     1
1071
       24
1005
6E275
  0
ARC
  5
6E276
330
1F
100
AcDbEntity
  8
freecads.com
100
AcDbCircle
 10
185473.0004032559
 20
136183.8913424413
 30
-0.0004532706921626
 40
70.9400818833857
100
AcDbArc
 50
84.24418518723705
 51
95.77472991200709
1001
AcDbBlockRepETag
1070
     1
1071
       25
1005
6E276
  0
ARC
  5
6E277
330
1F
100
AcDbEntity
  8
freecads.com
100
AcDbCircle
 10
185395.660755558
 20
136221.0804463936
 30
-0.0004532706921626
 40
80.89580843314053
100
AcDbArc
 50
26.3936595176057
 51
31.69056291077364
1001
AcDbBlockRepETag
1070
     1
1071
       26
1005
6E277
  0
ARC
  5
6E278
330
1F
100
AcDbEntity
  8
freecads.com
100
AcDbCircle
 10
185362.9748422427
 20
136203.2137511854
 30
-0.0004532706921626
 40
3.05507492173793
100
AcDbArc
 50
90.70563465239306
 51
179.9507339244897
1001
AcDbBlockRepETag
1070
     1
1071
       28
1005
6E278
  0
ARC
  5
6E279
330
1F
100
AcDbEntity
  8
freecads.com
100
AcDbCircle
 10
185581.7099251747
 20
136203.2179856419
 30
-0.0004532706921626
 40
3.046444701636446
100
AcDbArc
 50
359.9708390630337
 51
86.26893466024421
1001
AcDbBlockRepETag
1070
     1
1071
       29
1005
6E279
  0
ARC
  5
6E27A
330
1F
100
AcDbEntity
  8
freecads.com
100
AcDbCircle
 10
185393.2640660143
 20
136182.5655093201
 30
-0.0004532706921626
 40
12.94058366820672
100
AcDbArc
 50
42.13023721120124
 51
119.2092483937812
1001
AcDbBlockRepETag
1070
     1
1071
       30
1005
6E27A
  0
ARC
  5
6E27B
330
1F
100
AcDbEntity
  8
freecads.com
100
AcDbCircle
 10
185400.915944613
 20
136142.4365969656
 30
-0.0004532706921626
 40
3.788178853405507
100
AcDbArc
 50
179.398594193565
 51
222.1131950216818
1001
AcDbBlockRepETag
1070
     1
1071
       31
1005
6E27B
  0
LINE
  5
6E27C
330
1F
100
AcDbEntity
  8
freecads.com
100
AcDbLine
 10
185425.4673409385
 20
136139.6285060722
 30
-0.0004532706921626
 11
185398.1057923803
 21
136139.8962537891
 31
-0.0004532706921626
1001
AcDbBlockRepETag
1070
     1
1071
       32
1005
6E27C
  0
ARC
  5
6E27D
330
1F
100
AcDbEntity
  8
freecads.com
100
AcDbCircle
 10
185393.2640660143
 20
136163.3257258133
 30
-0.0004532706921626
 40
12.94058366820672
100
AcDbArc
 50
240.7907516062187
 51
317.8697627887988
1001
AcDbBlockRepETag
1070
     1
1071
       33
1005
6E27D
  0
ARC
  5
6E27E
330
1F
100
AcDbEntity
  8
freecads.com
100
AcDbCircle
 10
185395.6425032655
 20
136142.2119146971
 30
-0.0004532706921626
 40
3.380839940555835
100
AcDbArc
 50
175.9517918884421
 51
316.7693811660528
1001
AcDbBlockRepETag
1070
     1
1071
       34
1005
6E27E
  0
LINE
  5
6E27F
330
1F
100
AcDbEntity
  8
freecads.com
100
AcDbLine
 10
185579.5276136337
 20
136139.0522601915
 30
-0.0004532706921626
 11
185504.9105365198
 21
136139.0522601915
 31
-0.0004532706921626
1001
AcDbBlockRepETag
1070
     1
1071
       35
1005
6E27F
  0
ARC
  5
6E280
330
1F
100
AcDbEntity
  8
freecads.com
100
AcDbCircle
 10
185327.3064914567
 20
136183.8371611206
 30
-0.0004532706921626
 40
12.90406777086243
100
AcDbArc
 50
78.34207086843932
 51
92.1073556617353
1001
AcDbBlockRepETag
1070
     1
1071
       36
1005
6E280
  0
ARC
  5
6E281
330
1F
100
AcDbEntity
  8
freecads.com
100
AcDbCircle
 10
185328.3619369272
 20
136186.6672162343
 30
-0.0004532706921626
 40
9.928027471035656
100
AcDbArc
 50
55.17581887680837
 51
80.6530682896993
1001
AcDbBlockRepETag
1070
     1
1071
       37
1005
6E281
  0
ARC
  5
6E282
330
1F
100
AcDbEntity
  8
freecads.com
100
AcDbCircle
 10
185333.3487983996
 20
136193.9671080342
 30
-0.0004532706921626
 40
1.090265678446011
100
AcDbArc
 50
5.337364677640039
 51
51.23543854412855
1001
AcDbBlockRepETag
1070
     1
1071
       38
1005
6E282
  0
ARC
  5
6E283
330
1F
100
AcDbEntity
  8
freecads.com
100
AcDbCircle
 10
185297.4093398388
 20
136153.837903356
 30
-0.0004532706921626
 40
2.721369229971042
100
AcDbArc
 50
283.2488566777794
 51
355.6909056928424
1001
AcDbBlockRepETag
1070
     1
1071
       39
1005
6E283
  0
ARC
  5
6E284
330
1F
100
AcDbEntity
  8
freecads.com
100
AcDbCircle
 10
185297.4122217175
 20
136192.0557919873
 30
-0.0004532706921626
 40
2.718308673751971
100
AcDbArc
 50
4.261879228335101
 51
76.79825625014743
1001
AcDbBlockRepETag
1070
     1
1071
       40
1005
6E284
  0
ARC
  5
6E285
330
1F
100
AcDbEntity
  8
freecads.com
100
AcDbCircle
 10
185579.9615783947
 20
136139.0527848872
 30
-0.0004532706921626
 40
0.4339650782692201
100
AcDbArc
 50
97.66779676698142
 51
180.0692748236699
1001
AcDbBlockRepETag
1070
     1
1071
       42
1005
6E285
  0
ARC
  5
6E286
330
1F
100
AcDbEntity
  8
freecads.com
100
AcDbCircle
 10
185581.7048949983
 20
136142.6762144695
 30
-0.0004532706921626
 40
3.051477017199512
100
AcDbArc
 50
274.2484855983262
 51
359.9763430304901
1001
AcDbBlockRepETag
1070
     1
1071
       43
1005
6E286
  0
ARC
  5
6E287
330
1F
100
AcDbEntity
  8
freecads.com
100
AcDbCircle
 10
185502.8615241149
 20
136788.3035315865
 30
-0.0004532706921626
 40
1.742919419240206
100
AcDbArc
 50
154.207043146722
 51
175.0676688393594
1001
AcDbBlockRepETag
1070
     1
1071
       44
1005
6E287
  0
ARC
  5
6E288
330
1F
100
AcDbEntity
  8
freecads.com
100
AcDbCircle
 10
185502.8615241149
 20
136775.8886497666
 30
-0.0004532706921626
 40
1.742919419240206
100
AcDbArc
 50
184.9323311606405
 51
205.792956853278
1001
AcDbBlockRepETag
1070
     1
1071
       45
1005
6E288
  0
ARC
  5
6E289
330
1F
100
AcDbEntity
  8
freecads.com
100
AcDbCircle
 10
185502.9438367811
 20
136788.2637525712
 30
-0.0004532706921626
 40
1.834340123034582
100
AcDbArc
 50
96.30714155943737
 51
154.207043146722
1001
AcDbBlockRepETag
1070
     1
1071
       46
1005
6E289
  0
ARC
  5
6E28A
330
1F
100
AcDbEntity
  8
freecads.com
100
AcDbCircle
 10
185499.7476531809
 20
136789.2574061144
 30
-0.0004532706921626
 40
1.557002658585863
100
AcDbArc
 50
352.7959662477199
 51
86.038045942418
1001
AcDbBlockRepETag
1070
     1
1071
       47
1005
6E28A
  0
ARC
  5
6E28B
330
1F
100
AcDbEntity
  8
freecads.com
100
AcDbCircle
 10
185502.9438367811
 20
136775.9284287819
 30
-0.0004532706921626
 40
1.834340123034582
100
AcDbArc
 50
205.792956853278
 51
263.6928584405627
1001
AcDbBlockRepETag
1070
     1
1071
       48
1005
6E28B
  0
ARC
  5
6E28C
330
1F
100
AcDbEntity
  8
freecads.com
100
AcDbCircle
 10
185499.7476531809
 20
136774.9347752386
 30
-0.0004532706921626
 40
1.557002658585863
100
AcDbArc
 50
273.961954057582
 51
7.204033752280071
1001
AcDbBlockRepETag
1070
     1
1071
       49
1005
6E28C
  0
LINE
  5
6E28D
330
1F
100
AcDbEntity
  8
freecads.com
100
AcDbLine
 10
185362.762946024
 20
136139.6328862283
 30
-0.0004532706921626
 11
185393.4394035993
 21
136139.6328862283
 31
-0.0004532706921626
1001
AcDbBlockRepETag
1070
     1
1071
       51
1005
6E28D
  0
ARC
  5
6E28E
330
1F
100
AcDbEntity
  8
freecads.com
100
AcDbCircle
 10
186247.6708378192
 20
136276.795784
 30
-0.0004532706921626
 40
17.45724629045825
100
AcDbArc
 50
63.26110333279741
 51
89.84647508131894
1001
AcDbBlockRepETag
1070
     1
1071
       53
1005
6E28E
  0
LINE
  5
6E28F
330
1F
100
AcDbEntity
  8
freecads.com
100
AcDbLine
 10
186247.7176147221
 20
136294.2529676208
 30
-0.0004532706921626
 11
186232.575977753
 21
136294.2529517107
 31
-0.0004532706921626
1001
AcDbBlockRepETag
1070
     1
1071
       57
1005
6E28F
  0
LINE
  5
6E290
330
1F
100
AcDbEntity
  8
freecads.com
100
AcDbLine
 10
186377.1242086263
 20
136235.6909083787
 30
-0.0004532706921626
 11
186369.0701069213
 21
136235.6909075701
 31
-0.0004532706921626
1001
AcDbBlockRepETag
1070
     1
1071
       58
1005
6E290
  0
ARC
  5
6E291
330
1F
100
AcDbEntity
  8
freecads.com
100
AcDbCircle
 10
186214.9464500555
 20
136291.7141520851
 30
-0.0004532706921626
 40
37.277302273222
100
AcDbArc
 50
201.2642981990723
 51
229.3860313119924
1001
AcDbBlockRepETag
1070
     1
1071
       59
1005
6E291
  0
ARC
  5
6E292
330
1F
100
AcDbEntity
  8
freecads.com
100
AcDbCircle
 10
186385.9698775634
 20
136348.3342071708
 30
-0.0004532706921626
 40
217.3887485034117
100
AcDbArc
 50
181.8511831740289
 51
198.8229712515453
1001
AcDbBlockRepETag
1070
     1
1071
       60
1005
6E292
  0
ARC
  5
6E293
330
1F
100
AcDbEntity
  8
freecads.com
100
AcDbCircle
 10
186206.509016042
 20
136282.2527480828
 30
-0.0004532706921626
 40
24.60383440227896
100
AcDbArc
 50
229.9588480901531
 51
269.1478216405037
1001
AcDbBlockRepETag
1070
     1
1071
       61
1005
6E293
  0
ARC
  5
6E294
330
1F
100
AcDbEntity
  8
freecads.com
100
AcDbCircle
 10
186230.0304978067
 20
136276.0310660369
 30
-0.0004532706921626
 40
18.39882022483707
100
AcDbArc
 50
272.63063545689
 51
82.04764364972723
1001
AcDbBlockRepETag
1070
     1
1071
       62
1005
6E294
  0
ARC
  5
6E295
330
1F
100
AcDbEntity
  8
freecads.com
100
AcDbCircle
 10
186205.5308125967
 20
136276.0310660369
 30
-0.0004532706921626
 40
18.39882022483707
100
AcDbArc
 50
272.63063545689
 51
62.74317414294472
1001
AcDbBlockRepETag
1070
     1
1071
       63
1005
6E295
  0
ARC
  5
6E296
330
1F
100
AcDbEntity
  8
freecads.com
100
AcDbCircle
 10
186386.2995260778
 20
136348.1527276123
 30
-0.0004532706921626
 40
181.140099862334
100
AcDbArc
 50
181.985831434111
 51
197.9304492102308
1001
AcDbBlockRepETag
1070
     1
1071
       64
1005
6E296
  0
ARC
  5
6E297
330
1F
100
AcDbEntity
  8
freecads.com
100
AcDbCircle
 10
186267.5200106533
 20
136276.2652371513
 30
-0.0004532706921626
 40
18.11257942900857
100
AcDbArc
 50
23.96149285708054
 51
65.45380739968734
1001
AcDbBlockRepETag
1070
     1
1071
       65
1005
6E297
  0
LINE
  5
6E298
330
1F
100
AcDbEntity
  8
freecads.com
100
AcDbLine
 10
186230.8749506808
 20
136257.6516350062
 30
-0.0004532706921626
 11
186206.1430888759
 21
136257.6516350062
 31
-0.0004532706921626
1001
AcDbBlockRepETag
1070
     1
1071
       70
1005
6E298
  0
ARC
  5
6E299
330
1F
100
AcDbEntity
  8
freecads.com
100
AcDbCircle
 10
186093.9326717217
 20
136345.1689238727
 30
-0.0004532706921626
 40
211.2993996348174
100
AcDbArc
 50
343.0652653281824
 51
358.9540387203728
1001
AcDbBlockRepETag
1070
     1
1071
       72
1005
6E299
  0
ARC
  5
6E29A
330
1F
100
AcDbEntity
  8
freecads.com
100
AcDbCircle
 10
186012.9109860514
 20
136352.1486702443
 30
-0.0004532706921626
 40
255.8461833720576
100
AcDbArc
 50
352.870903390156
 51
357.5723905294391
1001
AcDbBlockRepETag
1070
     1
1071
       73
1005
6E29A
  0
ARC
  5
6E29B
330
1F
100
AcDbEntity
  8
freecads.com
100
AcDbCircle
 10
186005.3276328953
 20
136241.208255655
 30
-0.0004532706921626
 40
62.95153240091067
100
AcDbArc
 50
228.774860521015
 51
241.4698405565673
1001
AcDbBlockRepETag
1070
     1
1071
       76
1005
6E29B
  0
ARC
  5
6E29C
330
1F
100
AcDbEntity
  8
freecads.com
100
AcDbCircle
 10
185981.2705249849
 20
136198.1570100274
 30
-0.0004532706921626
 40
13.65004805720135
100
AcDbArc
 50
243.8780613239816
 51
270.0000534142138
1001
AcDbBlockRepETag
1070
     1
1071
       77
1005
6E29C
  0
ARC
  5
6E29D
330
1F
100
AcDbEntity
  8
freecads.com
100
AcDbCircle
 10
185957.2134425251
 20
136241.208255655
 30
-0.0004532706921626
 40
62.95153240091067
100
AcDbArc
 50
298.5301594434327
 51
311.225139478985
1001
AcDbBlockRepETag
1070
     1
1071
       78
1005
6E29D
  0
ARC
  5
6E29E
330
1F
100
AcDbEntity
  8
freecads.com
100
AcDbCircle
 10
185981.2705504354
 20
136198.1570100274
 30
-0.0004532706921626
 40
13.65004805720135
100
AcDbArc
 50
269.9999465857862
 51
296.1219386760184
1001
AcDbBlockRepETag
1070
     1
1071
       79
1005
6E29E
  0
LINE
  5
6E29F
330
1F
100
AcDbEntity
  8
freecads.com
100
AcDbLine
 10
185384.8124932691
 20
136434.3836665399
 30
-0.0004532706921626
 11
185425.9893102733
 21
136446.3878147153
 31
-0.0004532706921626
1001
AcDbBlockRepETag
1070
     1
1071
       80
1005
6E29F
  0
ARC
  5
6E2A0
330
1F
100
AcDbEntity
  8
freecads.com
100
AcDbCircle
 10
185468.7896097115
 20
135717.8682537148
 30
-0.0004532706921626
 40
729.7757302022683
100
AcDbArc
 50
84.6383700993249
 51
93.36224463053092
1001
AcDbBlockRepETag
1070
     1
1071
       81
1005
6E2A0
  0
ARC
  5
6E2A1
330
1F
100
AcDbEntity
  8
freecads.com
100
AcDbCircle
 10
185755.7580758251
 20
137902.6628706545
 30
-0.0004532706921626
 40
1474.532176690518
100
AcDbArc
 50
261.4674938434669
 51
264.7215384916973
1001
AcDbBlockRepETag
1070
     1
1071
       82
1005
6E2A1
  0
LINE
  5
6E2A2
330
1F
100
AcDbEntity
  8
freecads.com
100
AcDbLine
 10
185384.8124932691
 20
136643.5339968487
 30
-0.0004532706921626
 11
185425.9893102733
 21
136631.5298486733
 31
-0.0004532706921626
1001
AcDbBlockRepETag
1070
     1
1071
       83
1005
6E2A2
  0
ARC
  5
6E2A3
330
1F
100
AcDbEntity
  8
freecads.com
100
AcDbCircle
 10
185468.7896097115
 20
137360.0494096737
 30
-0.0004532706921626
 40
729.7757302022683
100
AcDbArc
 50
266.6377553694691
 51
275.3616299006751
1001
AcDbBlockRepETag
1070
     1
1071
       84
1005
6E2A3
  0
ARC
  5
6E2A4
330
1F
100
AcDbEntity
  8
freecads.com
100
AcDbCircle
 10
185755.7580758251
 20
135175.2547927341
 30
-0.0004532706921626
 40
1474.532176690518
100
AcDbArc
 50
95.27846150830274
 51
98.53250615653307
1001
AcDbBlockRepETag
1070
     1
1071
       85
1005
6E2A4
  0
ARC
  5
6E2A5
330
1F
100
AcDbEntity
  8
freecads.com
100
AcDbCircle
 10
185433.8565818415
 20
136146.7853170167
 30
-0.0004532706921626
 40
0.8714601156089313
100
AcDbArc
 50
49.97941851166912
 51
135.0307250409417
1001
AcDbBlockRepETag
1070
     1
1071
       88
1005
6E2A5
  0
ARC
  5
6E2A6
330
1F
100
AcDbEntity
  8
freecads.com
100
AcDbCircle
 10
185425.8041261513
 20
136138.7328607235
 30
-0.0004532706921626
 40
0.8714601156089313
100
AcDbArc
 50
134.9692792486953
 51
220.0205857800229
1001
AcDbBlockRepETag
1070
     1
1071
       89
1005
6E2A6
  0
ARC
  5
6E2A7
330
1F
100
AcDbEntity
  8
freecads.com
100
AcDbCircle
 10
185337.7225471096
 20
136743.5634723489
 30
-0.0004532706921626
 40
107.2920274168621
100
AcDbArc
 50
359.285537417287
 51
16.13578106504639
1001
AcDbBlockRepETag
1070
     1
1071
       93
1005
6E2A7
  0
ARC
  5
6E2A8
330
1F
100
AcDbEntity
  8
freecads.com
100
AcDbCircle
 10
185337.7225471096
 20
136743.5634723489
 30
-0.0004532706921626
 40
124.6674380977742
100
AcDbArc
 50
359.285537417287
 51
13.83817836838223
1001
AcDbBlockRepETag
1070
     1
1071
       94
1005
6E2A8
  0
LINE
  5
6E2A9
330
1F
100
AcDbEntity
  8
freecads.com
100
AcDbLine
 10
186205.2682141244
 20
136341.8757959947
 30
-0.0004532706921626
 11
186205.2682003053
 21
136709.9169819197
 31
-0.0004532706921626
1001
AcDbBlockRepETag
1070
     1
1071
       96
1005
6E2A9
  0
ARC
  5
6E2AA
330
1F
100
AcDbEntity
  8
freecads.com
100
AcDbCircle
 10
184723.3113058272
 20
136701.5308606201
 30
-0.0004532706921626
 40
37.4782091947963
100
AcDbArc
 50
92.96687271355066
 51
182.0673269019255
1001
AcDbBlockRepETag
1070
     1
1071
       97
1005
6E2AA
  0
ARC
  5
6E2AB
330
1F
100
AcDbEntity
  8
freecads.com
100
AcDbCircle
 10
184723.3113058272
 20
136376.3868027684
 30
-0.0004532706921626
 40
37.4782091947963
100
AcDbArc
 50
177.9326730980745
 51
267.0331272864493
1001
AcDbBlockRepETag
1070
     1
1071
       98
1005
6E2AB
  0
ARC
  5
6E2AC
330
1F
100
AcDbEntity
  8
freecads.com
100
AcDbCircle
 10
184694.4676947667
 20
136701.6376569729
 30
-0.0004532706921626
 40
37.36568470266512
100
AcDbArc
 50
92.79676901023838
 51
182.2374306063507
1001
AcDbBlockRepETag
1070
     1
1071
       99
1005
6E2AC
  0
ARC
  5
6E2AD
330
1F
100
AcDbEntity
  8
freecads.com
100
AcDbCircle
 10
184694.4676947667
 20
136376.2800064156
 30
-0.0004532706921626
 40
37.36568470266512
100
AcDbArc
 50
177.7625693936492
 51
267.2032309897616
1001
AcDbBlockRepETag
1070
     1
1071
      100
1005
6E2AD
  0
ARC
  5
6E2AE
330
1F
100
AcDbEntity
  8
freecads.com
100
AcDbCircle
 10
185574.7912377261
 20
136782.0960906765
 30
-0.0004532706921626
 40
73.93998322959804
100
AcDbArc
 50
175.0676688393594
 51
184.9323311606405
1001
AcDbBlockRepETag
1070
     1
1071
      101
1005
6E2AE
  0
ARC
  5
6E2AF
330
1F
100
AcDbEntity
  8
freecads.com
100
AcDbCircle
 10
185570.5439803002
 20
136785.8103413582
 30
-0.0004532706921626
 40
4.456592040908005
100
AcDbArc
 50
2.591611916837434
 51
84.57832923158983
1001
AcDbBlockRepETag
1070
     1
1071
      102
1005
6E2AF
  0
ARC
  5
6E2B0
330
1F
100
AcDbEntity
  8
freecads.com
100
AcDbCircle
 10
185570.5439803002
 20
136778.3818399972
 30
-0.0004532706921626
 40
4.456592040908005
100
AcDbArc
 50
275.4216707684101
 51
357.4083880831626
1001
AcDbBlockRepETag
1070
     1
1071
      103
1005
6E2B0
  0
ARC
  5
6E2B1
330
1F
100
AcDbEntity
  8
freecads.com
100
AcDbCircle
 10
185537.7531213011
 20
136406.671008927
 30
-0.0004532706921626
 40
385.0111306634688
100
AcDbArc
 50
85.05138495810683
 51
95.2173715298603
1001
AcDbBlockRepETag
1070
     1
1071
      105
1005
6E2B1
  0
ARC
  5
6E2B2
330
1F
100
AcDbEntity
  8
freecads.com
100
AcDbCircle
 10
185537.7531213011
 20
137157.5211724296
 30
-0.0004532706921626
 40
385.0111306634688
100
AcDbArc
 50
264.7826284701397
 51
274.9486150418932
1001
AcDbBlockRepETag
1070
     1
1071
      106
1005
6E2B2
  0
LINE
  5
6E2B3
330
1F
100
AcDbEntity
  8
freecads.com
100
AcDbLine
 10
185487.8161928329
 20
136171.0433633997
 30
-0.0004532706921626
 11
185296.7895296441
 21
135980.0166846927
 31
-0.0004532706921626
1001
AcDbBlockRepETag
1070
     1
1071
      109
1005
6E2B3
  0
LINE
  5
6E2B4
330
1F
100
AcDbEntity
  8
freecads.com
100
AcDbLine
 10
185485.1664672459
 20
136173.6930883418
 30
-0.0004532706921626
 11
185294.1398047716
 21
135982.6664093952
 31
-0.0004532706921626
1001
AcDbBlockRepETag
1070
     1
1071
      110
1005
6E2B4
  0
LINE
  5
6E2B5
330
1F
100
AcDbEntity
  8
freecads.com
100
AcDbLine
 10
184657.1304967313
 20
136700.178877974
 30
-0.0004532706921626
 11
184657.1304967313
 21
136377.7387854145
 31
-0.0004532706921626
1001
AcDbBlockRepETag
1070
     1
1071
      111
1005
6E2B5
  0
LINE
  5
6E2B6
330
1F
100
AcDbEntity
  8
freecads.com
100
AcDbLine
 10
184685.8574901688
 20
136377.7387854145
 30
-0.0004532706921626
 11
184685.8574901688
 21
136700.178877974
 31
-0.0004532706921626
1001
AcDbBlockRepETag
1070
     1
1071
      112
1005
6E2B6
  0
ARC
  5
6E2B7
330
1F
100
AcDbEntity
  8
freecads.com
100
AcDbCircle
 10
184734.3903991195
 20
136713.2507736183
 30
-0.0004532706921626
 40
3.485838838480412
100
AcDbArc
 50
90.0
 51
270.0
1001
AcDbBlockRepETag
1070
     1
1071
      113
1005
6E2B7
  0
LINE
  5
6E2B8
330
1F
100
AcDbEntity
  8
freecads.com
100
AcDbLine
 10
184790.4490619744
 20
136716.7366124568
 30
-0.0004532706921626
 11
184790.4490619744
 21
136739.8302947617
 31
-0.0004532706921626
1001
AcDbBlockRepETag
1070
     1
1071
      114
1005
6E2B8
  0
ARC
  5
6E2B9
330
1F
100
AcDbEntity
  8
freecads.com
100
AcDbCircle
 10
184913.0476970436
 20
136713.2507736183
 30
-0.0004532706921626
 40
3.485838838480412
100
AcDbArc
 50
270.0
 51
90.0
1001
AcDbBlockRepETag
1070
     1
1071
      115
1005
6E2B9
  0
LINE
  5
6E2BA
330
1F
100
AcDbEntity
  8
freecads.com
100
AcDbLine
 10
184838.2060000172
 20
136739.8302947617
 30
-0.0004532706921626
 11
184838.2060000172
 21
136716.7366124568
 31
-0.0004532706921626
1001
AcDbBlockRepETag
1070
     1
1071
      116
1005
6E2BA
  0
LINE
  5
6E2BB
330
1F
100
AcDbEntity
  8
freecads.com
100
AcDbLine
 10
184790.4490619744
 20
136739.8302947617
 30
-0.0004532706921626
 11
184838.2060000172
 21
136739.8302947617
 31
-0.0004532706921626
1001
AcDbBlockRepETag
1070
     1
1071
      117
1005
6E2BB
  0
LINE
  5
6E2BC
330
1F
100
AcDbEntity
  8
freecads.com
100
AcDbLine
 10
184913.0047202629
 20
136716.7366124568
 30
-0.0004532706921626
 11
184734.3959102438
 21
136716.7366124568
 31
-0.0004532706921626
1001
AcDbBlockRepETag
1070
     1
1071
      118
1005
6E2BC
  0
LINE
  5
6E2BD
330
1F
100
AcDbEntity
  8
freecads.com
100
AcDbLine
 10
184734.3903991195
 20
136709.7649347798
 30
-0.0004532706921626
 11
184913.0476970436
 21
136709.7649347798
 31
-0.0004532706921626
1001
AcDbBlockRepETag
1070
     1
1071
      119
1005
6E2BD
  0
LINE
  5
6E2BE
330
1F
100
AcDbEntity
  8
freecads.com
100
AcDbLine
 10
185462.3802928119
 20
136742.0089440358
 30
-0.0004532706921626
 11
185462.3802928119
 21
136738.9588350521
 31
-0.0004532706921626
1001
AcDbBlockRepETag
1070
     1
1071
      120
1005
6E2BE
  0
LINE
  5
6E2BF
330
1F
100
AcDbEntity
  8
freecads.com
100
AcDbLine
 10
185445.0062329998
 20
136742.2256050041
 30
-0.0004532706921626
 11
185445.0062329998
 21
136738.9588350521
 31
-0.0004532706921626
1001
AcDbBlockRepETag
1070
     1
1071
      121
1005
6E2BF
  0
LINE
  5
6E2C0
330
1F
100
AcDbEntity
  8
freecads.com
100
AcDbLine
 10
185499.8552327989
 20
136790.8106877745
 30
-0.0004532706921626
 11
185432.5376843737
 21
136790.8106877745
 31
-0.0004532706921626
1001
AcDbBlockRepETag
1070
     1
1071
      122
1005
6E2C0
  0
LINE
  5
6E2C1
330
1F
100
AcDbEntity
  8
freecads.com
100
AcDbLine
 10
185499.8552327989
 20
136773.3814935821
 30
-0.0004532706921626
 11
185432.5376843737
 21
136773.3814935821
 31
-0.0004532706921626
1001
AcDbBlockRepETag
1070
     1
1071
      123
1005
6E2C1
  0
ARC
  5
6E2C2
330
1F
100
AcDbEntity
  8
freecads.com
100
AcDbCircle
 10
185432.4687287612
 20
136782.0960906783
 30
-0.0004532706921626
 40
8.714597096201032
100
AcDbArc
 50
90.0
 51
270.0
1001
AcDbBlockRepETag
1070
     1
1071
      124
1005
6E2C2
  0
LINE
  5
6E2C3
330
1F
100
AcDbEntity
  8
freecads.com
100
AcDbLine
 10
184734.3903991195
 20
136368.1527286087
 30
-0.0004532706921626
 11
184913.0476970436
 21
136368.1527286087
 31
-0.0004532706921626
1001
AcDbBlockRepETag
1070
     1
1071
      125
1005
6E2C3
  0
LINE
  5
6E2C4
330
1F
100
AcDbEntity
  8
freecads.com
100
AcDbLine
 10
184791.1856515502
 20
136361.1810509318
 30
-0.0004532706921626
 11
184791.1856515502
 21
136337.2159089172
 31
-0.0004532706921626
1001
AcDbBlockRepETag
1070
     1
1071
      126
1005
6E2C4
  0
LINE
  5
6E2C5
330
1F
100
AcDbEntity
  8
freecads.com
100
AcDbLine
 10
184838.5742948051
 20
136361.1810509318
 30
-0.0004532706921626
 11
184838.5742948051
 21
136337.2159089172
 31
-0.0004532706921626
1001
AcDbBlockRepETag
1070
     1
1071
      127
1005
6E2C5
  0
LINE
  5
6E2C6
330
1F
100
AcDbEntity
  8
freecads.com
100
AcDbLine
 10
184913.0047202629
 20
136361.1810509318
 30
-0.0004532706921626
 11
184734.3959102438
 21
136361.1810509318
 31
-0.0004532706921626
1001
AcDbBlockRepETag
1070
     1
1071
      128
1005
6E2C6
  0
LINE
  5
6E2C7
330
1F
100
AcDbEntity
  8
freecads.com
100
AcDbLine
 10
184838.5742948051
 20
136337.2159089172
 30
-0.0004532706921626
 11
184791.1856515502
 21
136337.2159089172
 31
-0.0004532706921626
1001
AcDbBlockRepETag
1070
     1
1071
      129
1005
6E2C7
  0
ARC
  5
6E2C8
330
1F
100
AcDbEntity
  8
freecads.com
100
AcDbCircle
 10
184913.0476970436
 20
136364.6668897702
 30
-0.0004532706921626
 40
3.485838838480412
100
AcDbArc
 50
270.0
 51
90.0
1001
AcDbBlockRepETag
1070
     1
1071
      130
1005
6E2C8
  0
ARC
  5
6E2C9
330
1F
100
AcDbEntity
  8
freecads.com
100
AcDbCircle
 10
184734.3903991195
 20
136364.6668897702
 30
-0.0004532706921626
 40
3.485838838480412
100
AcDbArc
 50
90.0
 51
270.0
1001
AcDbBlockRepETag
1070
     1
1071
      131
1005
6E2C9
  0
LINE
  5
6E2CA
330
1F
100
AcDbEntity
  8
freecads.com
100
AcDbLine
 10
185239.9838515966
 20
136314.5579564671
 30
-0.0004532706921626
 11
185240.3033856892
 21
136314.6621919738
 31
-0.0004532706921626
1001
AcDbBlockRepETag
1070
     1
1071
      132
1005
0
  0
LINE
  5
6E2CB
330
1F
100
AcDbEntity
  8
freecads.com
100
AcDbLine
 10
185240.3033856892
 20
136314.6621919738
 30
-0.0004532706921626
 11
185240.6137676734
 21
136314.9631250325
 31
-0.0004532706921626
1001
AcDbBlockRepETag
1070
     1
1071
      132
1005
0
  0
LINE
  5
6E2CC
330
1F
100
AcDbEntity
  8
freecads.com
100
AcDbLine
 10
185240.6137676734
 20
136314.9631250325
 30
-0.0004532706921626
 11
185240.917152604
 21
136315.4650851621
 31
-0.0004532706921626
1001
AcDbBlockRepETag
1070
     1
1071
      132
1005
0
  0
LINE
  5
6E2CD
330
1F
100
AcDbEntity
  8
freecads.com
100
AcDbLine
 10
185240.917152604
 20
136315.4650851621
 30
-0.0004532706921626
 11
185241.1584834046
 21
136316.0394379735
 31
-0.0004532706921626
1001
AcDbBlockRepETag
1070
     1
1071
      132
1005
0
  0
LINE
  5
6E2CE
330
1F
100
AcDbEntity
  8
freecads.com
100
AcDbLine
 10
185239.9838515966
 20
136314.5579564671
 30
-0.0004532706921626
 11
185218.5890716409
 21
136314.5579564671
 31
-0.0004532706921626
1001
AcDbBlockRepETag
1070
     1
1071
      133
1005
6E2CE
  0
ARC
  5
6E2CF
330
1F
100
AcDbEntity
  8
freecads.com
100
AcDbCircle
 10
185314.7264277457
 20
136036.7579460894
 30
-0.0004532706921626
 40
164.9328270463286
100
AcDbArc
 50
83.88584826090113
 51
100.1277850899372
1001
AcDbBlockRepETag
1070
     1
1071
      134
1005
6E2CF
  0
ARC
  5
6E2D0
330
1F
100
AcDbEntity
  8
freecads.com
100
AcDbCircle
 10
185286.2771896627
 20
136196.5656196356
 30
-0.0004532706921626
 40
2.614379128860309
100
AcDbArc
 50
102.2167843668195
 51
172.4108848582698
1001
AcDbBlockRepETag
1070
     1
1071
      135
1005
6E2D0
  0
LINE
  5
6E2D1
330
1F
100
AcDbEntity
  8
freecads.com
100
AcDbLine
 10
185283.685710801
 20
136196.9108956675
 30
-0.0004532706921626
 11
185283.685710801
 21
136194.7022656642
 31
-0.0004532706921626
1001
AcDbBlockRepETag
1070
     1
1071
      136
1005
6E2D1
  0
LINE
  5
6E2D2
330
1F
100
AcDbEntity
  8
freecads.com
100
AcDbLine
 10
185275.331198435
 20
136151.1889738149
 30
-0.0004532706921626
 11
185298.0330258715
 21
136151.1889665469
 31
-0.0004532706921626
1001
AcDbBlockRepETag
1070
     1
1071
      137
1005
6E2D2
  0
LINE
  5
6E2D3
330
1F
100
AcDbEntity
  8
freecads.com
100
AcDbLine
 10
185275.3312024053
 20
136194.7022683389
 30
-0.0004532706921626
 11
185298.0330304118
 21
136194.7022610709
 31
-0.0004532706921626
1001
AcDbBlockRepETag
1070
     1
1071
      138
1005
6E2D3
  0
LINE
  5
6E2D4
330
1F
100
AcDbEntity
  8
freecads.com
100
AcDbLine
 10
185283.6886019705
 20
136146.3661898385
 30
-0.0004532706921626
 11
185283.6886029518
 21
136120.2223985499
 31
-0.0004532706921626
1001
AcDbBlockRepETag
1070
     1
1071
      139
1005
6E2D4
  0
LINE
  5
6E2D5
330
1F
100
AcDbEntity
  8
freecads.com
100
AcDbLine
 10
185301.4497208735
 20
136146.3661097052
 30
-0.0004532706921626
 11
185301.4497218556
 21
136120.2223184166
 31
-0.0004532706921626
1001
AcDbBlockRepETag
1070
     1
1071
      140
1005
6E2D5
  0
LINE
  5
6E2D6
330
1F
100
AcDbEntity
  8
freecads.com
100
AcDbLine
 10
185290.0782489344
 20
136125.8868813892
 30
-0.0004532706921626
 11
185301.4497216429
 21
136125.8868300838
 31
-0.0004532706921626
1001
AcDbBlockRepETag
1070
     1
1071
      141
1005
6E2D6
  0
LINE
  5
6E2D7
330
1F
100
AcDbEntity
  8
freecads.com
100
AcDbLine
 10
185302.7569101058
 20
136118.9151465097
 30
-0.0004532706921626
 11
185290.0782491967
 21
136118.9152037123
 31
-0.0004532706921626
1001
AcDbBlockRepETag
1070
     1
1071
      142
1005
6E2D7
  0
ARC
  5
6E2D8
330
1F
100
AcDbEntity
  8
freecads.com
100
AcDbCircle
 10
185302.75691142
 20
136120.2223184662
 30
-0.0004532706921626
 40
1.307189564430154
100
AcDbArc
 50
180.0000021511094
 51
269.9999423936242
1001
AcDbBlockRepETag
1070
     1
1071
      143
1005
6E2D8
  0
LINE
  5
6E2D9
330
1F
100
AcDbEntity
  8
freecads.com
100
AcDbLine
 10
185302.8199278115
 20
136118.9151283301
 30
-0.0004532706921626
 11
185302.7563451508
 21
136118.9151289018
 31
-0.0004532706921626
1001
AcDbBlockRepETag
1070
     1
1071
      144
1005
6E2D9
  0
ARC
  5
6E2DA
330
1F
100
AcDbEntity
  8
freecads.com
100
AcDbCircle
 10
185284.9957925162
 20
136120.2223985996
 30
-0.0004532706921626
 40
1.307189564430154
100
AcDbArc
 50
180.0000021511094
 51
269.9999423936242
1001
AcDbBlockRepETag
1070
     1
1071
      145
1005
6E2DA
  0
LINE
  5
6E2DB
330
1F
100
AcDbEntity
  8
freecads.com
100
AcDbLine
 10
185289.1242123833
 20
136119.7866637495
 30
-0.0004532706921626
 11
185289.1242121864
 21
136125.0154220073
 31
-0.0004532706921626
1001
AcDbBlockRepETag
1070
     1
1071
      146
1005
6E2DB
  0
LINE
  5
6E2DC
330
1F
100
AcDbEntity
  8
freecads.com
100
AcDbLine
 10
185290.0782445946
 20
136118.9152044033
 30
-0.0004532706921626
 11
185284.9952262469
 21
136118.9152090343
 31
-0.0004532706921626
1001
AcDbBlockRepETag
1070
     1
1071
      147
1005
6E2DC
  0
LINE
  5
6E2DD
330
1F
100
AcDbEntity
  8
freecads.com
100
AcDbLine
 10
185290.0782445946
 20
136118.915203809
 30
-0.0004532706921626
 11
185289.9629829917
 21
136118.9225349717
 31
-0.0004532706921626
1001
AcDbBlockRepETag
1070
     1
1071
      148
1005
0
  0
LINE
  5
6E2DE
330
1F
100
AcDbEntity
  8
freecads.com
100
AcDbLine
 10
185289.9629829917
 20
136118.9225349717
 30
-0.0004532706921626
 11
185289.8556409882
 21
136118.9394745179
 31
-0.0004532706921626
1001
AcDbBlockRepETag
1070
     1
1071
      148
1005
0
  0
LINE
  5
6E2DF
330
1F
100
AcDbEntity
  8
freecads.com
100
AcDbLine
 10
185289.8556409882
 20
136118.9394745179
 30
-0.0004532706921626
 11
185289.7560738571
 21
136118.9666943633
 31
-0.0004532706921626
1001
AcDbBlockRepETag
1070
     1
1071
      148
1005
0
  0
LINE
  5
6E2E0
330
1F
100
AcDbEntity
  8
freecads.com
100
AcDbLine
 10
185289.7560738571
 20
136118.9666943633
 30
-0.0004532706921626
 11
185289.6641484072
 21
136119.0021784693
 31
-0.0004532706921626
1001
AcDbBlockRepETag
1070
     1
1071
      148
1005
0
  0
LINE
  5
6E2E1
330
1F
100
AcDbEntity
  8
freecads.com
100
AcDbLine
 10
185289.6641484072
 20
136119.0021784693
 30
-0.0004532706921626
 11
185289.579874757
 21
136119.0442236186
 31
-0.0004532706921626
1001
AcDbBlockRepETag
1070
     1
1071
      148
1005
0
  0
LINE
  5
6E2E2
330
1F
100
AcDbEntity
  8
freecads.com
100
AcDbLine
 10
185289.579874757
 20
136119.0442236186
 30
-0.0004532706921626
 11
185289.5027237056
 21
136119.0925633641
 31
-0.0004532706921626
1001
AcDbBlockRepETag
1070
     1
1071
      148
1005
0
  0
LINE
  5
6E2E3
330
1F
100
AcDbEntity
  8
freecads.com
100
AcDbLine
 10
185289.5027237056
 20
136119.0925633641
 30
-0.0004532706921626
 11
185289.4321645401
 21
136119.1464122748
 31
-0.0004532706921626
1001
AcDbBlockRepETag
1070
     1
1071
      148
1005
0
  0
LINE
  5
6E2E4
330
1F
100
AcDbEntity
  8
freecads.com
100
AcDbLine
 10
185289.4321645401
 20
136119.1464122748
 30
-0.0004532706921626
 11
185289.368299312
 21
136119.2056240832
 31
-0.0004532706921626
1001
AcDbBlockRepETag
1070
     1
1071
      148
1005
0
  0
LINE
  5
6E2E5
330
1F
100
AcDbEntity
  8
freecads.com
100
AcDbLine
 10
185289.368299312
 20
136119.2056240832
 30
-0.0004532706921626
 11
185289.3108034121
 21
136119.2701759814
 31
-0.0004532706921626
1001
AcDbBlockRepETag
1070
     1
1071
      148
1005
0
  0
LINE
  5
6E2E6
330
1F
100
AcDbEntity
  8
freecads.com
100
AcDbLine
 10
185289.3108034121
 20
136119.2701759814
 30
-0.0004532706921626
 11
185289.2604699751
 21
136119.3389121604
 31
-0.0004532706921626
1001
AcDbBlockRepETag
1070
     1
1071
      148
1005
0
  0
LINE
  5
6E2E7
330
1F
100
AcDbEntity
  8
freecads.com
100
AcDbLine
 10
185289.2604699751
 20
136119.3389121604
 30
-0.0004532706921626
 11
185289.2179816128
 21
136119.4110255951
 31
-0.0004532706921626
1001
AcDbBlockRepETag
1070
     1
1071
      148
1005
0
  0
LINE
  5
6E2E8
330
1F
100
AcDbEntity
  8
freecads.com
100
AcDbLine
 10
185289.2179816128
 20
136119.4110255951
 30
-0.0004532706921626
 11
185289.1833495521
 21
136119.4854471188
 31
-0.0004532706921626
1001
AcDbBlockRepETag
1070
     1
1071
      148
1005
0
  0
LINE
  5
6E2E9
330
1F
100
AcDbEntity
  8
freecads.com
100
AcDbLine
 10
185289.1833495521
 20
136119.4854471188
 30
-0.0004532706921626
 11
185289.1569662122
 21
136119.5611404595
 31
-0.0004532706921626
1001
AcDbBlockRepETag
1070
     1
1071
      148
1005
0
  0
LINE
  5
6E2EA
330
1F
100
AcDbEntity
  8
freecads.com
100
AcDbLine
 10
185289.1569662122
 20
136119.5611404595
 30
-0.0004532706921626
 11
185289.1384338128
 21
136119.6371999109
 31
-0.0004532706921626
1001
AcDbBlockRepETag
1070
     1
1071
      148
1005
0
  0
LINE
  5
6E2EB
330
1F
100
AcDbEntity
  8
freecads.com
100
AcDbLine
 10
185289.1384338128
 20
136119.6371999109
 30
-0.0004532706921626
 11
185289.1274979006
 21
136119.7122179488
 31
-0.0004532706921626
1001
AcDbBlockRepETag
1070
     1
1071
      148
1005
0
  0
LINE
  5
6E2EC
330
1F
100
AcDbEntity
  8
freecads.com
100
AcDbLine
 10
185289.1274979006
 20
136119.7122179488
 30
-0.0004532706921626
 11
185289.1242123833
 21
136119.7866637495
 31
-0.0004532706921626
1001
AcDbBlockRepETag
1070
     1
1071
      148
1005
0
  0
LINE
  5
6E2ED
330
1F
100
AcDbEntity
  8
freecads.com
100
AcDbLine
 10
185289.1242121864
 20
136125.0154220073
 30
-0.0004532706921626
 11
185289.1276898579
 21
136125.091167829
 31
-0.0004532706921626
1001
AcDbBlockRepETag
1070
     1
1071
      149
1005
0
  0
LINE
  5
6E2EE
330
1F
100
AcDbEntity
  8
freecads.com
100
AcDbLine
 10
185289.1276898579
 20
136125.091167829
 30
-0.0004532706921626
 11
185289.1388394389
 21
136125.1669875044
 31
-0.0004532706921626
1001
AcDbBlockRepETag
1070
     1
1071
      149
1005
0
  0
LINE
  5
6E2EF
330
1F
100
AcDbEntity
  8
freecads.com
100
AcDbLine
 10
185289.1388394389
 20
136125.1669875044
 30
-0.0004532706921626
 11
185289.1576067839
 21
136125.2432289079
 31
-0.0004532706921626
1001
AcDbBlockRepETag
1070
     1
1071
      149
1005
0
  0
LINE
  5
6E2F0
330
1F
100
AcDbEntity
  8
freecads.com
100
AcDbLine
 10
185289.1576067839
 20
136125.2432289079
 30
-0.0004532706921626
 11
185289.1842488985
 21
136125.318848415
 31
-0.0004532706921626
1001
AcDbBlockRepETag
1070
     1
1071
      149
1005
0
  0
LINE
  5
6E2F1
330
1F
100
AcDbEntity
  8
freecads.com
100
AcDbLine
 10
185289.1842488985
 20
136125.318848415
 30
-0.0004532706921626
 11
185289.2192186577
 21
136125.3933599727
 31
-0.0004532706921626
1001
AcDbBlockRepETag
1070
     1
1071
      149
1005
0
  0
LINE
  5
6E2F2
330
1F
100
AcDbEntity
  8
freecads.com
100
AcDbLine
 10
185289.2192186577
 20
136125.3933599727
 30
-0.0004532706921626
 11
185289.2619663726
 21
136125.4654387495
 31
-0.0004532706921626
1001
AcDbBlockRepETag
1070
     1
1071
      149
1005
0
  0
LINE
  5
6E2F3
330
1F
100
AcDbEntity
  8
freecads.com
100
AcDbLine
 10
185289.2619663726
 20
136125.4654387495
 30
-0.0004532706921626
 11
185289.312315156
 21
136125.5337952456
 31
-0.0004532706921626
1001
AcDbBlockRepETag
1070
     1
1071
      149
1005
0
  0
LINE
  5
6E2F4
330
1F
100
AcDbEntity
  8
freecads.com
100
AcDbLine
 10
185289.312315156
 20
136125.5337952456
 30
-0.0004532706921626
 11
185289.369653319
 21
136125.597837414
 31
-0.0004532706921626
1001
AcDbBlockRepETag
1070
     1
1071
      149
1005
0
  0
LINE
  5
6E2F5
330
1F
100
AcDbEntity
  8
freecads.com
100
AcDbLine
 10
185289.369653319
 20
136125.597837414
 30
-0.0004532706921626
 11
185289.4331532678
 21
136125.656526574
 31
-0.0004532706921626
1001
AcDbBlockRepETag
1070
     1
1071
      149
1005
0
  0
LINE
  5
6E2F6
330
1F
100
AcDbEntity
  8
freecads.com
100
AcDbLine
 10
185289.4331532678
 20
136125.656526574
 30
-0.0004532706921626
 11
185289.5032883766
 21
136125.7099131318
 31
-0.0004532706921626
1001
AcDbBlockRepETag
1070
     1
1071
      149
1005
0
  0
LINE
  5
6E2F7
330
1F
100
AcDbEntity
  8
freecads.com
100
AcDbLine
 10
185289.5032883766
 20
136125.7099131318
 30
-0.0004532706921626
 11
185289.5800986001
 21
136125.7579892023
 31
-0.0004532706921626
1001
AcDbBlockRepETag
1070
     1
1071
      149
1005
0
  0
LINE
  5
6E2F8
330
1F
100
AcDbEntity
  8
freecads.com
100
AcDbLine
 10
185289.5800986001
 20
136125.7579892023
 30
-0.0004532706921626
 11
185289.6641121501
 21
136125.7998909808
 31
-0.0004532706921626
1001
AcDbBlockRepETag
1070
     1
1071
      149
1005
0
  0
LINE
  5
6E2F9
330
1F
100
AcDbEntity
  8
freecads.com
100
AcDbLine
 10
185289.6641121501
 20
136125.7998909808
 30
-0.0004532706921626
 11
185289.7559202623
 21
136125.8353359688
 31
-0.0004532706921626
1001
AcDbBlockRepETag
1070
     1
1071
      149
1005
0
  0
LINE
  5
6E2FA
330
1F
100
AcDbEntity
  8
freecads.com
100
AcDbLine
 10
185289.7559202623
 20
136125.8353359688
 30
-0.0004532706921626
 11
185289.8554670884
 21
136125.8625723553
 31
-0.0004532706921626
1001
AcDbBlockRepETag
1070
     1
1071
      149
1005
0
  0
LINE
  5
6E2FB
330
1F
100
AcDbEntity
  8
freecads.com
100
AcDbLine
 10
185289.8554670884
 20
136125.8625723553
 30
-0.0004532706921626
 11
185289.9628561534
 21
136125.8795234144
 31
-0.0004532706921626
1001
AcDbBlockRepETag
1070
     1
1071
      149
1005
0
  0
LINE
  5
6E2FC
330
1F
100
AcDbEntity
  8
freecads.com
100
AcDbLine
 10
185289.9628561534
 20
136125.8795234144
 30
-0.0004532706921626
 11
185290.0782489344
 21
136125.8868813892
 31
-0.0004532706921626
1001
AcDbBlockRepETag
1070
     1
1071
      149
1005
0
  0
LINE
  5
6E2FD
330
1F
100
AcDbEntity
  8
freecads.com
100
AcDbLine
 10
185310.6210236471
 20
136147.6732996226
 30
-0.0004532706921626
 11
185310.6718625019
 21
136147.6732992199
 31
-0.0004532706921626
1001
AcDbBlockRepETag
1070
     1
1071
      150
1005
6E2FD
  0
ARC
  5
6E2FE
330
1F
100
AcDbEntity
  8
freecads.com
100
AcDbCircle
 10
185302.7569104379
 20
136146.3661097549
 30
-0.0004532706921626
 40
1.307189564430154
100
AcDbArc
 50
90.00006514526374
 51
180.0000021511094
1001
AcDbBlockRepETag
1070
     1
1071
      151
1005
6E2FE
  0
LINE
  5
6E2FF
330
1F
100
AcDbEntity
  8
freecads.com
100
AcDbLine
 10
185302.757048207
 20
136147.6732992923
 30
-0.0004532706921626
 11
185302.7992725441
 21
136147.6732997916
 31
-0.0004532706921626
1001
AcDbBlockRepETag
1070
     1
1071
      152
1005
6E2FF
  0
LINE
  5
6E300
330
1F
100
AcDbEntity
  8
freecads.com
100
AcDbLine
 10
185302.8199267318
 20
136147.6732987476
 30
-0.0004532706921626
 11
185302.7563452196
 21
136147.6732993193
 31
-0.0004532706921626
1001
AcDbBlockRepETag
1070
     1
1071
      153
1005
6E300
  0
ARC
  5
6E301
330
1F
100
AcDbEntity
  8
freecads.com
100
AcDbCircle
 10
185284.9957915349
 20
136146.3661898882
 30
-0.0004532706921626
 40
1.307189564430154
100
AcDbArc
 50
90.00006514526374
 51
180.0000021511094
1001
AcDbBlockRepETag
1070
     1
1071
      154
1005
6E301
  0
ARC
  5
6E302
330
1F
100
AcDbEntity
  8
freecads.com
100
AcDbCircle
 10
185368.751633877
 20
136245.8752818525
 30
-0.0004532706921626
 40
6.971677676960825
100
AcDbArc
 50
94.156382823996
 51
172.2233915411236
1001
AcDbBlockRepETag
1070
     1
1071
      155
1005
6E302
  0
ARC
  5
6E303
330
1F
100
AcDbEntity
  8
freecads.com
100
AcDbCircle
 10
185364.1832099624
 20
136223.9260795686
 30
-0.0004532706921626
 40
3.485838838480412
100
AcDbArc
 50
90.00000400206396
 51
177.0000022521217
1001
AcDbBlockRepETag
1070
     1
1071
      156
1005
6E303
  0
LINE
  5
6E304
330
1F
100
AcDbEntity
  8
freecads.com
100
AcDbLine
 10
185366.9066512178
 20
136229.1548250559
 30
-0.0004532706921626
 11
185366.8914411678
 21
136227.411918509
 31
-0.0004532706921626
1001
AcDbBlockRepETag
1070
     1
1071
      157
1005
6E304
  0
LINE
  5
6E305
330
1F
100
AcDbEntity
  8
freecads.com
100
AcDbLine
 10
185364.2601768918
 20
136227.4119198694
 30
-0.0004532706921626
 11
185364.1842131468
 21
136227.4119185735
 31
-0.0004532706921626
1001
AcDbBlockRepETag
1070
     1
1071
      158
1005
6E305
  0
LINE
  5
6E306
330
1F
100
AcDbEntity
  8
freecads.com
100
AcDbLine
 10
185364.774012402
 20
136227.411922468
 30
-0.0004532706921626
 11
185364.2601768918
 21
136227.4119198694
 31
-0.0004532706921626
1001
AcDbBlockRepETag
1070
     1
1071
      159
1005
6E306
  0
LINE
  5
6E307
330
1F
100
AcDbEntity
  8
freecads.com
100
AcDbLine
 10
185364.2612210322
 20
136227.4119169412
 30
-0.0004532706921626
 11
185364.1833065001
 21
136227.4119184079
 31
-0.0004532706921626
1001
AcDbBlockRepETag
1070
     1
1071
      160
1005
6E307
  0
LINE
  5
6E308
330
1F
100
AcDbEntity
  8
freecads.com
100
AcDbLine
 10
185360.9183542588
 20
136229.1548377034
 30
-0.0004532706921626
 11
185361.8440735685
 21
136246.8186270815
 31
-0.0004532706921626
1001
AcDbBlockRepETag
1070
     1
1071
      161
1005
6E308
  0
LINE
  5
6E309
330
1F
100
AcDbEntity
  8
freecads.com
100
AcDbLine
 10
185463.3800932122
 20
136229.1548018245
 30
-0.0004532706921626
 11
185463.6828882281
 21
136246.8185915024
 31
-0.0004532706921626
1001
AcDbBlockRepETag
1070
     1
1071
      162
1005
6E309
  0
LINE
  5
6E30A
330
1F
100
AcDbEntity
  8
freecads.com
100
AcDbLine
 10
185429.7770144927
 20
136255.9750300584
 30
-0.0004532706921626
 11
185429.7770144528
 21
136257.0415496191
 31
-0.0004532706921626
1001
AcDbBlockRepETag
1070
     1
1071
      163
1005
6E30A
  0
LINE
  5
6E30B
330
1F
100
AcDbEntity
  8
freecads.com
100
AcDbLine
 10
185482.3400766416
 20
136246.818592244
 30
-0.0004532706921626
 11
185482.6539152709
 21
136229.1548025906
 31
-0.0004532706921626
1001
AcDbBlockRepETag
1070
     1
1071
      164
1005
6E30B
  0
LINE
  5
6E30C
330
1F
100
AcDbEntity
  8
freecads.com
100
AcDbLine
 10
185481.6775650081
 20
136248.8644108365
 30
-0.0004532706921626
 11
185481.6775830742
 21
136252.8285907892
 31
-0.0004532706921626
1001
AcDbBlockRepETag
1070
     1
1071
      165
1005
6E30C
  0
LINE
  5
6E30D
330
1F
100
AcDbEntity
  8
freecads.com
100
AcDbLine
 10
185480.1149220221
 20
136254.4737682888
 30
-0.0004532706921626
 11
185480.1152328465
 21
136254.4714169215
 31
-0.0004532706921626
1001
AcDbBlockRepETag
1070
     1
1071
      166
1005
6E30D
  0
LINE
  5
6E30E
330
1F
100
AcDbEntity
  8
freecads.com
100
AcDbLine
 10
185514.9889834207
 20
136257.0415503232
 30
-0.0004532706921626
 11
185514.988983461
 21
136255.9723660159
 31
-0.0004532706921626
1001
AcDbBlockRepETag
1070
     1
1071
      167
1005
6E30E
  0
LINE
  5
6E30F
330
1F
100
AcDbEntity
  8
freecads.com
100
AcDbLine
 10
185429.7770768885
 20
136257.0415496191
 30
-0.0004532706921626
 11
185514.9889834207
 21
136257.0415503232
 31
-0.0004532706921626
1001
AcDbBlockRepETag
1070
     1
1071
      168
1005
6E30F
  0
LINE
  5
6E310
330
1F
100
AcDbEntity
  8
freecads.com
100
AcDbLine
 10
185464.4948086392
 20
136338.9588283365
 30
-0.0004532706921626
 11
185464.4948086392
 21
136263.5775634543
 31
-0.0004532706921626
1001
AcDbBlockRepETag
1070
     1
1071
      169
1005
6E310
  0
LINE
  5
6E311
330
1F
100
AcDbEntity
  8
freecads.com
100
AcDbLine
 10
185516.7823912164
 20
136338.9588283365
 30
-0.0004532706921626
 11
185516.7823912164
 21
136255.9121862921
 31
-0.0004532706921626
1001
AcDbBlockRepETag
1070
     1
1071
      170
1005
6E311
  0
LINE
  5
6E312
330
1F
100
AcDbEntity
  8
freecads.com
100
AcDbLine
 10
185464.3005147291
 20
136252.8285900965
 30
-0.0004532706921626
 11
185368.2463339496
 21
136252.8286236111
 31
-0.0004532706921626
1001
AcDbBlockRepETag
1070
     1
1071
      171
1005
6E312
  0
LINE
  5
6E313
330
1F
100
AcDbEntity
  8
freecads.com
100
AcDbLine
 10
185463.6828882281
 20
136246.8185915024
 30
-0.0004532706921626
 11
185361.8440735685
 21
136246.8186270815
 31
-0.0004532706921626
1001
AcDbBlockRepETag
1070
     1
1071
      172
1005
6E313
  0
LINE
  5
6E314
330
1F
100
AcDbEntity
  8
freecads.com
100
AcDbLine
 10
185463.3800932122
 20
136229.1548018245
 30
-0.0004532706921626
 11
185360.918396705
 21
136229.1548377043
 31
-0.0004532706921626
1001
AcDbBlockRepETag
1070
     1
1071
      173
1005
6E314
  0
LINE
  5
6E315
330
1F
100
AcDbEntity
  8
freecads.com
100
AcDbLine
 10
185364.2206942777
 20
136227.4119173901
 30
-0.0004532706921626
 11
185465.0443930685
 21
136227.4118835975
 31
-0.0004532706921626
1001
AcDbBlockRepETag
1070
     1
1071
      174
1005
6E315
  0
ARC
  5
6E316
330
1F
100
AcDbEntity
  8
freecads.com
100
AcDbCircle
 10
185472.3381188711
 20
134820.4402212873
 30
-0.0004532706921626
 40
1436.16560145393
100
AcDbArc
 50
91.69822889972847
 51
94.156382823996
1001
AcDbBlockRepETag
1070
     1
1071
      175
1005
6E316
  0
LINE
  5
6E317
330
1F
100
AcDbEntity
  8
freecads.com
100
AcDbLine
 10
185365.1485224362
 20
136209.111252437
 30
-0.0004532706921626
 11
185365.148522543
 21
136206.2685944205
 31
-0.0004532706921626
1001
AcDbBlockRepETag
1070
     1
1071
      176
1005
6E317
  0
ARC
  5
6E318
330
1F
100
AcDbEntity
  8
freecads.com
100
AcDbCircle
 10
185342.4312256077
 20
136196.5654983702
 30
-0.0004532706921626
 40
2.614379128860309
100
AcDbArc
 50
7.589117293473932
 51
77.78321778627509
1001
AcDbBlockRepETag
1070
     1
1071
      177
1005
6E318
  0
LINE
  5
6E319
330
1F
100
AcDbEntity
  8
freecads.com
100
AcDbLine
 10
185359.9197643998
 20
136203.2164266963
 30
-0.0004532706921626
 11
185359.919764751
 21
136193.8606792015
 31
-0.0004532706921626
1001
AcDbBlockRepETag
1070
     1
1071
      178
1005
6E319
  0
LINE
  5
6E31A
330
1F
100
AcDbEntity
  8
freecads.com
100
AcDbLine
 10
185345.0227044566
 20
136196.9107739645
 30
-0.0004532706921626
 11
185345.0227046691
 21
136191.2462580622
 31
-0.0004532706921626
1001
AcDbBlockRepETag
1070
     1
1071
      179
1005
6E31A
  0
LINE
  5
6E31B
330
1F
100
AcDbEntity
  8
freecads.com
100
AcDbLine
 10
185334.4343369567
 20
136194.0685244564
 30
-0.0004532706921626
 11
185334.434337063
 21
136191.2462598948
 31
-0.0004532706921626
1001
AcDbBlockRepETag
1070
     1
1071
      180
1005
6E31B
  0
LINE
  5
6E31C
330
1F
100
AcDbEntity
  8
freecads.com
100
AcDbLine
 10
185334.4275069252
 20
136194.1668312815
 30
-0.0004532706921626
 11
185334.4343369567
 21
136194.0685244564
 31
-0.0004532706921626
1001
AcDbBlockRepETag
1070
     1
1071
      181
1005
6E31C
  0
LINE
  5
6E31D
330
1F
100
AcDbEntity
  8
freecads.com
100
AcDbLine
 10
185334.4343384373
 20
136154.6449520908
 30
-0.0004532706921626
 11
185334.4343385436
 21
136151.8227259868
 31
-0.0004532706921626
1001
AcDbBlockRepETag
1070
     1
1071
      182
1005
6E31D
  0
LINE
  5
6E31E
330
1F
100
AcDbEntity
  8
freecads.com
100
AcDbLine
 10
185388.794987438
 20
136194.7098924807
 30
-0.0004532706921626
 11
185388.7949871112
 21
136203.4149595797
 31
-0.0004532706921626
1001
AcDbBlockRepETag
1070
     1
1071
      183
1005
6E31E
  0
LINE
  5
6E31F
330
1F
100
AcDbEntity
  8
freecads.com
100
AcDbLine
 10
185397.1279721285
 20
136204.0899895504
 30
-0.0004532706921626
 11
185397.127972473
 21
136194.9157697446
 31
-0.0004532706921626
1001
AcDbBlockRepETag
1070
     1
1071
      184
1005
6E31F
  0
LINE
  5
6E320
330
1F
100
AcDbEntity
  8
freecads.com
100
AcDbLine
 10
185399.5790869634
 20
136152.0306288201
 30
-0.0004532706921626
 11
185343.6525009232
 21
136152.0306074154
 31
-0.0004532706921626
1001
AcDbBlockRepETag
1070
     1
1071
      185
1005
6E320
  0
LINE
  5
6E321
330
1F
100
AcDbEntity
  8
freecads.com
100
AcDbLine
 10
185399.5789285465
 20
136193.8606948818
 30
-0.0004532706921626
 11
185345.0227045715
 21
136193.8606733122
 31
-0.0004532706921626
1001
AcDbBlockRepETag
1070
     1
1071
      186
1005
6E321
  0
LINE
  5
6E322
330
1F
100
AcDbEntity
  8
freecads.com
100
AcDbLine
 10
185365.1489195283
 20
136139.6328862283
 30
-0.0004532706921626
 11
185365.1485251525
 21
136136.7800965246
 31
-0.0004532706921626
1001
AcDbBlockRepETag
1070
     1
1071
      187
1005
6E322
  0
LINE
  5
6E323
330
1F
100
AcDbEntity
  8
freecads.com
100
AcDbLine
 10
185345.0227063545
 20
136146.3661113418
 30
-0.0004532706921626
 11
185345.0227073366
 21
136120.2223200532
 31
-0.0004532706921626
1001
AcDbBlockRepETag
1070
     1
1071
      188
1005
6E323
  0
LINE
  5
6E324
330
1F
100
AcDbEntity
  8
freecads.com
100
AcDbLine
 10
185359.9197668948
 20
136136.7801084462
 30
-0.0004532706921626
 11
185360.7084426291
 21
136121.7312897744
 31
-0.0004532706921626
1001
AcDbBlockRepETag
1070
     1
1071
      189
1005
6E324
  0
ARC
  5
6E325
330
1F
100
AcDbEntity
  8
freecads.com
100
AcDbCircle
 10
185343.7155177722
 20
136120.2223200044
 30
-0.0004532706921626
 40
1.307189564430154
100
AcDbArc
 50
270.0000619085945
 51
0.0000021511093822
1001
AcDbBlockRepETag
1070
     1
1071
      190
1005
6E325
  0
LINE
  5
6E326
330
1F
100
AcDbEntity
  8
freecads.com
100
AcDbLine
 10
185343.7160841391
 20
136118.9151304399
 30
-0.0004532706921626
 11
185343.673155666
 21
136118.9151299728
 31
-0.0004532706921626
1001
AcDbBlockRepETag
1070
     1
1071
      191
1005
6E326
  0
ARC
  5
6E327
330
1F
100
AcDbEntity
  8
freecads.com
100
AcDbCircle
 10
185343.71551679
 20
136146.366111293
 30
-0.0004532706921626
 40
1.307189564430154
100
AcDbArc
 50
0.0000021511093822
 51
89.99993915862253
1001
AcDbBlockRepETag
1070
     1
1071
      192
1005
6E327
  0
LINE
  5
6E328
330
1F
100
AcDbEntity
  8
freecads.com
100
AcDbLine
 10
185343.7160819107
 20
136147.6733008574
 30
-0.0004532706921626
 11
185343.6731545863
 21
136147.6733003903
 31
-0.0004532706921626
1001
AcDbBlockRepETag
1070
     1
1071
      193
1005
6E328
  0
LINE
  5
6E329
330
1F
100
AcDbEntity
  8
freecads.com
100
AcDbLine
 10
185343.6525003986
 20
136147.6733014291
 30
-0.0004532706921626
 11
185343.7153789234
 21
136147.6733008844
 31
-0.0004532706921626
1001
AcDbBlockRepETag
1070
     1
1071
      194
1005
6E329
  0
ARC
  5
6E32A
330
1F
100
AcDbEntity
  8
freecads.com
100
AcDbCircle
 10
185369.411096655
 20
136122.1873768731
 30
-0.0004532706921626
 40
8.714597096201032
100
AcDbArc
 50
183.0000021528284
 51
251.4814614383671
1001
AcDbBlockRepETag
1070
     1
1071
      195
1005
6E32A
  0
LINE
  5
6E32B
330
1F
100
AcDbEntity
  8
freecads.com
100
AcDbLine
 10
185395.9724630482
 20
136138.8472148226
 30
-0.0004532706921626
 11
185395.9724631001
 21
136136.7800802946
 31
-0.0004532706921626
1001
AcDbBlockRepETag
1070
     1
1071
      196
1005
6E32B
  0
LINE
  5
6E32C
330
1F
100
AcDbEntity
  8
freecads.com
100
AcDbLine
 10
185405.0653620257
 20
136093.5828771789
 30
-0.0004532706921626
 11
185398.1310324636
 21
136101.2842298808
 31
-0.0004532706921626
1001
AcDbBlockRepETag
1070
     1
1071
      197
1005
6E32C
  0
ARC
  5
6E32D
330
1F
100
AcDbEntity
  8
freecads.com
100
AcDbCircle
 10
185400.0738947498
 20
136103.0335910134
 30
-0.0004532706921626
 40
2.614379128860309
100
AcDbArc
 50
135.0000018818745
 51
222.0000018542749
1001
AcDbBlockRepETag
1070
     1
1071
      198
1005
6E32D
  0
LINE
  5
6E32E
330
1F
100
AcDbEntity
  8
freecads.com
100
AcDbLine
 10
185359.9197673706
 20
136136.7801084462
 30
-0.0004532706921626
 11
185426.3050983161
 21
136136.7800742571
 31
-0.0004532706921626
1001
AcDbBlockRepETag
1070
     1
1071
      199
1005
6E32E
  0
LINE
  5
6E32F
330
1F
100
AcDbEntity
  8
freecads.com
100
AcDbLine
 10
185415.0679914956
 20
136121.7312575434
 30
-0.0004532706921626
 11
185360.7084426291
 21
136121.7312897744
 31
-0.0004532706921626
1001
AcDbBlockRepETag
1070
     1
1071
      200
1005
6E32F
  0
ARC
  5
6E330
330
1F
100
AcDbEntity
  8
freecads.com
100
AcDbCircle
 10
185472.3380584432
 20
136429.4731866666
 30
-0.0004532706921626
 40
332.7802206406644
100
AcDbArc
 50
251.4814614383671
 51
257.1560834687166
1001
AcDbBlockRepETag
1070
     1
1071
      201
1005
6E330
  0
LINE
  5
6E331
330
1F
100
AcDbEntity
  8
freecads.com
100
AcDbLine
 10
185397.1279741233
 20
136150.9754659052
 30
-0.0004532706921626
 11
185397.1279744423
 21
136142.4763588983
 31
-0.0004532706921626
1001
AcDbBlockRepETag
1070
     1
1071
      202
1005
6E331
  0
LINE
  5
6E332
330
1F
100
AcDbEntity
  8
freecads.com
100
AcDbLine
 10
185392.2700985046
 20
136142.4505877623
 30
-0.0004532706921626
 11
185392.2700982044
 21
136150.42337201
 31
-0.0004532706921626
1001
AcDbBlockRepETag
1070
     1
1071
      203
1005
6E332
  0
LINE
  5
6E333
330
1F
100
AcDbEntity
  8
freecads.com
100
AcDbLine
 10
185359.9197663222
 20
136152.0306131397
 30
-0.0004532706921626
 11
185359.9197666734
 21
136142.6749460955
 31
-0.0004532706921626
1001
AcDbBlockRepETag
1070
     1
1071
      204
1005
6E333
  0
LINE
  5
6E334
330
1F
100
AcDbEntity
  8
freecads.com
100
AcDbLine
 10
185399.306936876
 20
136206.2686388834
 30
-0.0004532706921626
 11
185465.1634620055
 21
136206.2591027095
 31
-0.0004532706921626
1001
AcDbBlockRepETag
1070
     1
1071
      205
1005
6E334
  0
LINE
  5
6E335
330
1F
100
AcDbEntity
  8
freecads.com
100
AcDbLine
 10
185467.6936236079
 20
136174.3506154944
 30
-0.0004532706921626
 11
185398.2252494785
 21
136104.8822361633
 31
-0.0004532706921626
1001
AcDbBlockRepETag
1070
     1
1071
      206
1005
6E335
  0
ARC
  5
6E336
330
1F
100
AcDbEntity
  8
freecads.com
100
AcDbCircle
 10
185469.549137931
 20
136172.4917736896
 30
-0.0004532706921626
 40
2.626447459703725
100
AcDbArc
 50
48.03898968646278
 51
134.9486719621364
1001
AcDbBlockRepETag
1070
     1
1071
      207
1005
6E336
  0
LINE
  5
6E337
330
1F
100
AcDbEntity
  8
freecads.com
100
AcDbLine
 10
185487.8161928329
 20
136171.0433633997
 30
-0.0004532706921626
 11
185485.1664672459
 21
136173.6930883418
 31
-0.0004532706921626
1001
AcDbBlockRepETag
1070
     1
1071
      208
1005
6E337
  0
LINE
  5
6E338
330
1F
100
AcDbEntity
  8
freecads.com
100
AcDbLine
 10
185478.9970961489
 20
136167.5190271923
 30
-0.0004532706921626
 11
185471.3052456877
 21
136174.4448000093
 31
-0.0004532706921626
1001
AcDbBlockRepETag
1070
     1
1071
      209
1005
6E338
  0
LINE
  5
6E339
330
1F
100
AcDbEntity
  8
freecads.com
100
AcDbLine
 10
185434.4169469612
 20
136147.4527296145
 30
-0.0004532706921626
 11
185437.8967448967
 21
136144.5328326426
 31
-0.0004532706921626
1001
AcDbBlockRepETag
1070
     1
1071
      210
1005
6E339
  0
LINE
  5
6E33A
330
1F
100
AcDbEntity
  8
freecads.com
100
AcDbLine
 10
185481.6540417159
 20
136164.8812127062
 30
-0.0004532706921626
 11
185524.7386479826
 21
136117.0309128754
 31
-0.0004532706921626
1001
AcDbBlockRepETag
1070
     1
1071
      211
1005
6E33A
  0
LINE
  5
6E33B
330
1F
100
AcDbEntity
  8
freecads.com
100
AcDbLine
 10
185433.2400360796
 20
136147.4012018838
 30
-0.0004532706921626
 11
185425.1882412838
 21
136139.3494063935
 31
-0.0004532706921626
1001
AcDbBlockRepETag
1070
     1
1071
      212
1005
6E33B
  0
LINE
  5
6E33C
330
1F
100
AcDbEntity
  8
freecads.com
100
AcDbLine
 10
185428.0566131795
 20
136134.6927002604
 30
-0.0004532706921626
 11
185425.1367502764
 21
136138.1724571415
 31
-0.0004532706921626
1001
AcDbBlockRepETag
1070
     1
1071
      213
1005
6E33C
  0
LINE
  5
6E33D
330
1F
100
AcDbEntity
  8
freecads.com
100
AcDbLine
 10
185359.9162441096
 20
136209.1112643447
 30
-0.0004532706921626
 11
185465.1474074002
 21
136209.1112281821
 31
-0.0004532706921626
1001
AcDbBlockRepETag
1070
     1
1071
      214
1005
6E33D
  0
LINE
  5
6E33E
330
1F
100
AcDbEntity
  8
freecads.com
100
AcDbLine
 10
185359.9161763457
 20
136209.1112643447
 30
-0.0004532706921626
 11
185360.702148338
 21
136224.1085141407
 31
-0.0004532706921626
1001
AcDbBlockRepETag
1070
     1
1071
      215
1005
6E33E
  0
LINE
  5
6E33F
330
1F
100
AcDbEntity
  8
freecads.com
100
AcDbLine
 10
185447.9813491184
 20
136154.6449426956
 30
-0.0004532706921626
 11
185296.3934049376
 21
136154.6449609457
 31
-0.0004532706921626
1001
AcDbBlockRepETag
1070
     1
1071
      216
1005
6E33F
  0
LINE
  5
6E340
330
1F
100
AcDbEntity
  8
freecads.com
100
AcDbLine
 10
185343.673155666
 20
136118.9151299676
 30
-0.0004532706921626
 11
185302.8199278115
 21
136118.9151283301
 31
-0.0004532706921626
1001
AcDbBlockRepETag
1070
     1
1071
      217
1005
6E340
  0
LINE
  5
6E341
330
1F
100
AcDbEntity
  8
freecads.com
100
AcDbLine
 10
185326.8574388965
 20
136149.1587463002
 30
-0.0004532706921626
 11
185298.0330258715
 21
136151.1889665469
 31
-0.0004532706921626
1001
AcDbBlockRepETag
1070
     1
1071
      218
1005
6E341
  0
LINE
  5
6E342
330
1F
100
AcDbEntity
  8
freecads.com
100
AcDbLine
 10
185284.9957900487
 20
136147.6733794526
 30
-0.0004532706921626
 11
185343.6731545863
 21
136147.6733003851
 31
-0.0004532706921626
1001
AcDbBlockRepETag
1070
     1
1071
      219
1005
6E342
  0
LINE
  5
6E343
330
1F
100
AcDbEntity
  8
freecads.com
100
AcDbLine
 10
185464.4948086392
 20
136316.0394379735
 30
-0.0004532706921626
 11
185238.8032515111
 21
136316.0394379734
 31
-0.0004532706921626
1001
AcDbBlockRepETag
1070
     1
1071
      220
1005
6E343
  0
LINE
  5
6E344
330
1F
100
AcDbEntity
  8
freecads.com
100
AcDbLine
 10
185298.0037135712
 20
136194.7022610788
 30
-0.0004532706921626
 11
185326.8319830416
 21
136196.7325016279
 31
-0.0004532706921626
1001
AcDbBlockRepETag
1070
     1
1071
      221
1005
6E344
  0
ARC
  5
6E345
330
1F
100
AcDbEntity
  8
freecads.com
100
AcDbCircle
 10
185324.054007394
 20
136110.9380919317
 30
-0.0004532706921626
 40
90.19162590579199
100
AcDbArc
 50
77.88400985719388
 51
84.7584969741203
1001
AcDbBlockRepETag
1070
     1
1071
      222
1005
6E345
  0
LINE
  5
6E346
330
1F
100
AcDbEntity
  8
freecads.com
100
AcDbLine
 10
184734.3903991195
 20
136368.1527286087
 30
-0.0004532706921626
 11
184734.3903991195
 21
136709.7649347798
 31
-0.0004532706921626
1001
AcDbBlockRepETag
1070
     1
1071
      223
1005
6E346
  0
LINE
  5
6E347
330
1F
100
AcDbEntity
  8
freecads.com
100
AcDbLine
 10
184913.0476970436
 20
136368.1527286087
 30
-0.0004532706921626
 11
184913.0476970436
 21
136709.7649347798
 31
-0.0004532706921626
1001
AcDbBlockRepETag
1070
     1
1071
      224
1005
6E347
  0
LINE
  5
6E348
330
1F
100
AcDbEntity
  8
freecads.com
100
AcDbLine
 10
184791.1856515502
 20
136338.9588283365
 30
-0.0004532706921626
 11
184692.6444942618
 21
136338.9588283364
 31
-0.0004532706921626
1001
AcDbBlockRepETag
1070
     1
1071
      225
1005
6E348
  0
LINE
  5
6E349
330
1F
100
AcDbEntity
  8
freecads.com
100
AcDbLine
 10
184790.4490619744
 20
136738.9588350521
 30
-0.0004532706921626
 11
184692.6444942618
 21
136738.9588350521
 31
-0.0004532706921626
1001
AcDbBlockRepETag
1070
     1
1071
      226
1005
6E349
  0
LINE
  5
6E34A
330
1F
100
AcDbEntity
  8
freecads.com
100
AcDbLine
 10
185296.7895296441
 20
135980.0166846927
 30
-0.0004532706921626
 11
185294.1398047716
 21
135982.6664093952
 31
-0.0004532706921626
1001
AcDbBlockRepETag
1070
     1
1071
      227
1005
6E34A
  0
ARC
  5
6E34B
330
1F
100
AcDbEntity
  8
freecads.com
100
AcDbCircle
 10
185464.3054287118
 20
136057.5651100871
 30
-0.0004532706921626
 40
13.07189564430155
100
AcDbArc
 50
228.0000022086841
 51
315.000001837068
1001
AcDbBlockRepETag
1070
     1
1071
      228
1005
6E34B
  0
LINE
  5
6E34C
330
1F
100
AcDbEntity
  8
freecads.com
100
AcDbLine
 10
185473.6638833718
 20
136048.4366888035
 30
-0.0004532706921626
 11
185473.5485707214
 21
136048.3218845837
 31
-0.0004532706921626
1001
AcDbBlockRepETag
1070
     1
1071
      229
1005
6E34C
  0
LINE
  5
6E34D
330
1F
100
AcDbEntity
  8
freecads.com
100
AcDbLine
 10
185407.7065907524
 20
136090.9246563308
 30
-0.0004532706921626
 11
185455.5449230528
 21
136047.8508312573
 31
-0.0004532706921626
1001
AcDbBlockRepETag
1070
     1
1071
      230
1005
6E34D
  0
LINE
  5
6E34E
330
1F
100
AcDbEntity
  8
freecads.com
100
AcDbLine
 10
185524.7407491198
 20
136117.0285792084
 30
-0.0004532706921626
 11
185455.5623935345
 21
136047.8474050276
 31
-0.0004532706921626
1001
AcDbBlockRepETag
1070
     1
1071
      231
1005
6E34E
  0
LINE
  5
6E34F
330
1F
100
AcDbEntity
  8
freecads.com
100
AcDbLine
 10
185524.2675636062
 20
136099.0408811787
 30
-0.0004532706921626
 11
185473.6638833718
 21
136048.4366888035
 31
-0.0004532706921626
1001
AcDbBlockRepETag
1070
     1
1071
      232
1005
6E34F
  0
LINE
  5
6E350
330
1F
100
AcDbEntity
  8
freecads.com
100
AcDbLine
 10
185657.4569316923
 20
136726.3226692626
 30
-0.0004532706921626
 11
185675.1189217928
 21
136726.3226692626
 31
-0.0004532706921626
1001
AcDbBlockRepETag
1070
     1
1071
      233
1005
6E350
  0
ARC
  5
6E351
330
1F
100
AcDbEntity
  8
freecads.com
100
AcDbCircle
 10
185628.8212119627
 20
136700.178877974
 30
-0.0004532706921626
 40
38.7799570780946
100
AcDbArc
 50
0.0
 51
90.0
1001
AcDbBlockRepETag
1070
     1
1071
      234
1005
6E351
  0
ARC
  5
6E352
330
1F
100
AcDbEntity
  8
freecads.com
100
AcDbCircle
 10
185982.4182280483
 20
136682.7664747213
 30
-0.0004532706921626
 40
39.21568693290465
100
AcDbArc
 50
91.67709264213089
 51
91.69924156014129
1001
AcDbBlockRepETag
1070
     1
1071
      235
1005
6E352
  0
ARC
  5
6E353
330
1F
100
AcDbEntity
  8
freecads.com
100
AcDbCircle
 10
185980.1076331006
 20
136682.7664746612
 30
-0.0004532706921626
 40
39.21568693290465
100
AcDbArc
 50
88.30076273896791
 51
88.3229116602628
1001
AcDbBlockRepETag
1070
     1
1071
      236
1005
6E353
  0
ARC
  5
6E354
330
1F
100
AcDbEntity
  8
freecads.com
100
AcDbCircle
 10
185966.8762553647
 20
136715.4294149281
 30
-0.0004532706921626
 40
3.050108983670361
100
AcDbArc
 50
115.4247452770434
 51
180.0000021511094
1001
AcDbBlockRepETag
1070
     1
1071
      237
1005
6E354
  0
LINE
  5
6E355
330
1F
100
AcDbEntity
  8
freecads.com
100
AcDbLine
 10
185965.5819437988
 20
136718.1841205342
 30
-0.0004532706921626
 11
185965.5667666186
 21
136718.1841207268
 31
-0.0004532706921626
1001
AcDbBlockRepETag
1070
     1
1071
      238
1005
6E355
  0
LINE
  5
6E356
330
1F
100
AcDbEntity
  8
freecads.com
100
AcDbLine
 10
185965.6656746298
 20
136718.1841201011
 30
-0.0004532706921626
 11
185965.5819437988
 21
136718.1841205342
 31
-0.0004532706921626
1001
AcDbBlockRepETag
1070
     1
1071
      239
1005
6E356
  0
LINE
  5
6E357
330
1F
100
AcDbEntity
  8
freecads.com
100
AcDbLine
 10
185963.8413239299
 20
136715.4294146213
 30
-0.0004532706921626
 11
185963.8261463811
 21
136715.4294148139
 31
-0.0004532706921626
1001
AcDbBlockRepETag
1070
     1
1071
      240
1005
6E357
  0
LINE
  5
6E358
330
1F
100
AcDbEntity
  8
freecads.com
100
AcDbLine
 10
185963.9360280666
 20
136715.4294141185
 30
-0.0004532706921626
 11
185963.8413239299
 21
136715.4294146213
 31
-0.0004532706921626
1001
AcDbBlockRepETag
1070
     1
1071
      241
1005
6E358
  0
ARC
  5
6E359
330
1F
100
AcDbEntity
  8
freecads.com
100
AcDbCircle
 10
185995.649603331
 20
136715.4294159816
 30
-0.0004532706921626
 40
3.050108983670361
100
AcDbArc
 50
0.0000021511093822
 51
64.57525902673431
1001
AcDbBlockRepETag
1070
     1
1071
      242
1005
6E359
  0
LINE
  5
6E35A
330
1F
100
AcDbEntity
  8
freecads.com
100
AcDbLine
 10
185996.8604454115
 20
136718.1841212463
 30
-0.0004532706921626
 11
185996.943914741
 21
136718.1841216846
 31
-0.0004532706921626
1001
AcDbBlockRepETag
1070
     1
1071
      243
1005
6E35A
  0
LINE
  5
6E35B
330
1F
100
AcDbEntity
  8
freecads.com
100
AcDbLine
 10
185996.943914741
 20
136718.1841216846
 30
-0.0004532706921626
 11
185996.9590918707
 21
136718.184121878
 31
-0.0004532706921626
1001
AcDbBlockRepETag
1070
     1
1071
      244
1005
6E35B
  0
LINE
  5
6E35C
330
1F
100
AcDbEntity
  8
freecads.com
100
AcDbLine
 10
185998.5901212001
 20
136715.4294153943
 30
-0.0004532706921626
 11
185998.6997123147
 21
136715.4294160958
 31
-0.0004532706921626
1001
AcDbBlockRepETag
1070
     1
1071
      245
1005
6E35C
  0
LINE
  5
6E35D
330
1F
100
AcDbEntity
  8
freecads.com
100
AcDbLine
 10
185998.5901212001
 20
136715.4294153943
 30
-0.0004532706921626
 11
185963.9509150446
 21
136715.4294140932
 31
-0.0004532706921626
1001
AcDbBlockRepETag
1070
     1
1071
      246
1005
6E35D
  0
ARC
  5
6E35E
330
1F
100
AcDbEntity
  8
freecads.com
100
AcDbCircle
 10
185980.1228106494
 20
136682.766474635
 30
-0.0004532706921626
 40
39.21568693290465
100
AcDbArc
 50
64.57525902673431
 51
88.3229116602628
1001
AcDbBlockRepETag
1070
     1
1071
      247
1005
6E35E
  0
ARC
  5
6E35F
330
1F
100
AcDbEntity
  8
freecads.com
100
AcDbCircle
 10
185982.4030504995
 20
136682.7664747474
 30
-0.0004532706921626
 40
39.21568693290465
100
AcDbArc
 50
91.67709264213089
 51
115.4247452770434
1001
AcDbBlockRepETag
1070
     1
1071
      248
1005
6E35F
  0
ARC
  5
6E360
330
1F
100
AcDbEntity
  8
freecads.com
100
AcDbCircle
 10
186046.6960533
 20
136702.0961005805
 30
-0.0004532706921626
 40
38.34422722328453
100
AcDbArc
 50
90.00000215444444
 51
180.0000021544444
1001
AcDbBlockRepETag
1070
     1
1071
      249
1005
6E360
  0
ARC
  5
6E361
330
1F
100
AcDbEntity
  8
freecads.com
100
AcDbCircle
 10
186171.2796809385
 20
136709.9169806421
 30
-0.0004532706921626
 40
2.614379128860309
100
AcDbArc
 50
110.733904546869
 51
180.0000021511094
1001
AcDbBlockRepETag
1070
     1
1071
      250
1005
6E361
  0
ARC
  5
6E362
330
1F
100
AcDbEntity
  8
freecads.com
100
AcDbCircle
 10
186188.1533169482
 20
136671.6110709314
 30
-0.0004532706921626
 40
43.57298548100516
100
AcDbArc
 50
69.26609945421734
 51
90.0000021511094
1001
AcDbBlockRepETag
1070
     1
1071
      251
1005
6E362
  0
ARC
  5
6E363
330
1F
100
AcDbEntity
  8
freecads.com
100
AcDbCircle
 10
186202.6538211733
 20
136709.9169818534
 30
-0.0004532706921626
 40
2.614379128860309
100
AcDbArc
 50
0.0000021511093822
 51
69.26609975556022
1001
AcDbBlockRepETag
1070
     1
1071
      252
1005
6E363
  0
LINE
  5
6E364
330
1F
100
AcDbEntity
  8
freecads.com
100
AcDbLine
 10
186188.1517153516
 20
136715.1840564342
 30
-0.0004532706921626
 11
186188.1527749569
 21
136715.1840564255
 31
-0.0004532706921626
1001
AcDbBlockRepETag
1070
     1
1071
      253
1005
6E364
  0
LINE
  5
6E365
330
1F
100
AcDbEntity
  8
freecads.com
100
AcDbLine
 10
186188.1510811974
 20
136715.1840563889
 30
-0.0004532706921626
 11
186185.7807230504
 21
136715.1840562773
 31
-0.0004532706921626
1001
AcDbBlockRepETag
1070
     1
1071
      254
1005
6E365
  0
LINE
  5
6E366
330
1F
100
AcDbEntity
  8
freecads.com
100
AcDbLine
 10
186185.7807230504
 20
136715.1840562773
 30
-0.0004532706921626
 11
186185.7824254635
 21
136715.1840563148
 31
-0.0004532706921626
1001
AcDbBlockRepETag
1070
     1
1071
      255
1005
6E366
  0
LINE
  5
6E367
330
1F
100
AcDbEntity
  8
freecads.com
100
AcDbLine
 10
186188.1527749569
 20
136715.1840564255
 30
-0.0004532706921626
 11
186188.1510811974
 21
136715.1840563889
 31
-0.0004532706921626
1001
AcDbBlockRepETag
1070
     1
1071
      256
1005
6E367
  0
LINE
  5
6E368
330
1F
100
AcDbEntity
  8
freecads.com
100
AcDbLine
 10
186203.5793852586
 20
136712.3620400025
 30
-0.0004532706921626
 11
186203.5777945414
 21
136712.3620399798
 31
-0.0004532706921626
1001
AcDbBlockRepETag
1070
     1
1071
      257
1005
6E368
  0
ARC
  5
6E369
330
1F
100
AcDbEntity
  8
freecads.com
100
AcDbCircle
 10
186185.7801880404
 20
136671.6110708094
 30
-0.0004532706921626
 40
43.57298548100516
100
AcDbArc
 50
90.0000021511094
 51
110.7339048482119
1001
AcDbBlockRepETag
1070
     1
1071
      258
1005
6E369
  0
LINE
  5
6E36A
330
1F
100
AcDbEntity
  8
freecads.com
100
AcDbLine
 10
186205.2666096128
 20
136709.9169819196
 30
-0.0004532706921626
 11
186168.6653018097
 21
136709.9169805453
 31
-0.0004532706921626
1001
AcDbBlockRepETag
1070
     1
1071
      259
1005
6E36A
  0
LINE
  5
6E36B
330
1F
100
AcDbEntity
  8
freecads.com
100
AcDbLine
 10
185577.7694807152
 20
136229.1548329601
 30
-0.0004532706921626
 11
185577.7846908958
 21
136227.4119264288
 31
-0.0004532706921626
1001
AcDbBlockRepETag
1070
     1
1071
      260
1005
6E36B
  0
LINE
  5
6E36C
330
1F
100
AcDbEntity
  8
freecads.com
100
AcDbLine
 10
185583.7577776742
 20
136229.1548460729
 30
-0.0004532706921626
 11
185582.8320570372
 21
136246.8186353803
 31
-0.0004532706921626
1001
AcDbBlockRepETag
1070
     1
1071
      261
1005
6E36C
  0
ARC
  5
6E36D
330
1F
100
AcDbEntity
  8
freecads.com
100
AcDbCircle
 10
185580.4929223627
 20
136223.9260876923
 30
-0.0004532706921626
 40
3.485838838480412
100
AcDbArc
 50
3.000002050986922
 51
90.00000030015479
1001
AcDbBlockRepETag
1070
     1
1071
      262
1005
6E36D
  0
ARC
  5
6E36E
330
1F
100
AcDbEntity
  8
freecads.com
100
AcDbCircle
 10
185575.9244968002
 20
136245.8752896329
 30
-0.0004532706921626
 40
6.971677676960825
100
AcDbArc
 50
7.776612762274553
 51
85.84362147952978
1001
AcDbBlockRepETag
1070
     1
1071
      263
1005
6E36E
  0
LINE
  5
6E36F
330
1F
100
AcDbEntity
  8
freecads.com
100
AcDbLine
 10
185657.4569316923
 20
136351.5949941259
 30
-0.0004532706921626
 11
185675.1189217928
 21
136351.5949941259
 31
-0.0004532706921626
1001
AcDbBlockRepETag
1070
     1
1071
      264
1005
6E36F
  0
LINE
  5
6E370
330
1F
100
AcDbEntity
  8
freecads.com
100
AcDbLine
 10
185581.9081675708
 20
136206.2579733512
 30
-0.0004532706921626
 11
185480.8138582868
 21
136206.2472503493
 31
-0.0004532706921626
1001
AcDbBlockRepETag
1070
     1
1071
      265
1005
6E370
  0
LINE
  5
6E371
330
1F
100
AcDbEntity
  8
freecads.com
100
AcDbLine
 10
185584.7563694818
 20
136203.2164351407
 30
-0.0004532706921626
 11
185584.7563699314
 21
136191.2462643105
 31
-0.0004532706921626
1001
AcDbBlockRepETag
1070
     1
1071
      266
1005
6E371
  0
LINE
  5
6E372
330
1F
100
AcDbEntity
  8
freecads.com
100
AcDbLine
 10
185579.5276110027
 20
136209.1112604867
 30
-0.0004532706921626
 11
185579.527672766
 21
136206.2577208538
 31
-0.0004532706921626
1001
AcDbBlockRepETag
1070
     1
1071
      267
1005
6E372
  0
LINE
  5
6E373
330
1F
100
AcDbEntity
  8
freecads.com
100
AcDbLine
 10
185579.527808052
 20
136206.8287308109
 30
-0.0004532706921626
 11
185579.5276106393
 21
136206.8390957427
 31
-0.0004532706921626
1001
AcDbBlockRepETag
1070
     1
1071
      268
1005
6E373
  0
LINE
  5
6E374
330
1F
100
AcDbEntity
  8
freecads.com
100
AcDbLine
 10
185579.525883285
 20
136206.838148208
 30
-0.0004532706921626
 11
185579.5276110873
 21
136206.8391036024
 31
-0.0004532706921626
1001
AcDbBlockRepETag
1070
     1
1071
      269
1005
6E374
  0
LINE
  5
6E375
330
1F
100
AcDbEntity
  8
freecads.com
100
AcDbLine
 10
185583.9676973727
 20
136121.7312981587
 30
-0.0004532706921626
 11
185584.7563719768
 21
136136.7801168906
 31
-0.0004532706921626
1001
AcDbBlockRepETag
1070
     1
1071
      270
1005
6E375
  0
LINE
  5
6E376
330
1F
100
AcDbEntity
  8
freecads.com
100
AcDbLine
 10
185579.9036747903
 20
136139.4828696018
 30
-0.0004532706921626
 11
185581.9309549202
 21
136139.6331224732
 31
-0.0004532706921626
1001
AcDbBlockRepETag
1070
     1
1071
      271
1005
6E376
  0
LINE
  5
6E377
330
1F
100
AcDbEntity
  8
freecads.com
100
AcDbLine
 10
185579.5276136337
 20
136139.0522601915
 30
-0.0004532706921626
 11
185579.527613719
 21
136136.7801045804
 31
-0.0004532706921626
1001
AcDbBlockRepETag
1070
     1
1071
      272
1005
6E377
  0
ARC
  5
6E378
330
1F
100
AcDbEntity
  8
freecads.com
100
AcDbCircle
 10
185575.265043312
 20
136122.1873846038
 30
-0.0004532706921626
 40
8.714597096201032
100
AcDbArc
 50
288.5185428648175
 51
357.0000021519455
1001
AcDbBlockRepETag
1070
     1
1071
      273
1005
6E378
  0
LINE
  5
6E379
330
1F
100
AcDbEntity
  8
freecads.com
100
AcDbLine
 10
185584.7563713058
 20
136154.6449565065
 30
-0.0004532706921626
 11
185584.7563717554
 21
136142.6749545391
 31
-0.0004532706921626
1001
AcDbBlockRepETag
1070
     1
1071
      274
1005
6E379
  0
LINE
  5
6E37A
330
1F
100
AcDbEntity
  8
freecads.com
100
AcDbLine
 10
185584.7599570931
 20
136209.1112727891
 30
-0.0004532706921626
 11
185583.9739839741
 21
136224.1085225259
 31
-0.0004532706921626
1001
AcDbBlockRepETag
1070
     1
1071
      275
1005
6E37A
  0
ARC
  5
6E37B
330
1F
100
AcDbEntity
  8
freecads.com
100
AcDbCircle
 10
185733.7759809632
 20
136172.9457004364
 30
-0.0004532706921626
 40
18.30065390202216
100
AcDbArc
 50
270.0000021511093
 51
90.0000021511094
1001
AcDbBlockRepETag
1070
     1
1071
      276
1005
6E37B
  0
ARC
  5
6E37C
330
1F
100
AcDbEntity
  8
freecads.com
100
AcDbCircle
 10
185628.8212119627
 20
136377.7387854145
 30
-0.0004532706921626
 40
38.7799570780946
100
AcDbArc
 50
270.0
 51
0.0
1001
AcDbBlockRepETag
1070
     1
1071
      277
1005
6E37C
  0
LINE
  5
6E37D
330
1F
100
AcDbEntity
  8
freecads.com
100
AcDbLine
 10
186008.3518318694
 20
136558.1309628048
 30
-0.0004532706921626
 11
185998.6997182224
 21
136558.1309605678
 31
-0.0004532706921626
1001
AcDbBlockRepETag
1070
     1
1071
      278
1005
6E37D
  0
LINE
  5
6E37E
330
1F
100
AcDbEntity
  8
freecads.com
100
AcDbLine
 10
186008.3518331792
 20
136523.27257442
 30
-0.0004532706921626
 11
185998.6997195313
 21
136523.272572183
 31
-0.0004532706921626
1001
AcDbBlockRepETag
1070
     1
1071
      279
1005
6E37E
  0
LINE
  5
6E37F
330
1F
100
AcDbEntity
  8
freecads.com
100
AcDbLine
 10
185965.5819578136
 20
136363.2193652814
 30
-0.0004532706921626
 11
185965.5667799493
 21
136363.2193654741
 31
-0.0004532706921626
1001
AcDbBlockRepETag
1070
     1
1071
      280
1005
6E37F
  0
LINE
  5
6E380
330
1F
100
AcDbEntity
  8
freecads.com
100
AcDbLine
 10
185965.6656879606
 20
136363.2193648484
 30
-0.0004532706921626
 11
185965.5819578136
 21
136363.2193652814
 31
-0.0004532706921626
1001
AcDbBlockRepETag
1070
     1
1071
      281
1005
6E380
  0
LINE
  5
6E381
330
1F
100
AcDbEntity
  8
freecads.com
100
AcDbLine
 10
185996.8604587422
 20
136363.2193659934
 30
-0.0004532706921626
 11
185996.9591052014
 21
136363.2193666252
 31
-0.0004532706921626
1001
AcDbBlockRepETag
1070
     1
1071
      282
1005
6E381
  0
LINE
  5
6E382
330
1F
100
AcDbEntity
  8
freecads.com
100
AcDbLine
 10
185998.6997255422
 20
136363.2193660256
 30
-0.0004532706921626
 11
185963.8413371572
 21
136363.2193654166
 31
-0.0004532706921626
1001
AcDbBlockRepETag
1070
     1
1071
      283
1005
6E382
  0
LINE
  5
6E383
330
1F
100
AcDbEntity
  8
freecads.com
100
AcDbLine
 10
186168.6945838433
 20
136341.3117635275
 30
-0.0004532706921626
 11
186046.717987622
 21
136341.3117589468
 31
-0.0004532706921626
1001
AcDbBlockRepETag
1070
     1
1071
      284
1005
6E383
  0
LINE
  5
6E384
330
1F
100
AcDbEntity
  8
freecads.com
100
AcDbLine
 10
186028.7421462989
 20
136152.0307174491
 30
-0.0004532706921626
 11
186028.7421447276
 21
136193.8607835109
 31
-0.0004532706921626
1001
AcDbBlockRepETag
1070
     1
1071
      285
1005
6E384
  0
LINE
  5
6E385
330
1F
100
AcDbEntity
  8
freecads.com
100
AcDbLine
 10
186048.9818517994
 20
136152.030718209
 30
-0.0004532706921626
 11
186048.9818502291
 21
136193.8607842708
 31
-0.0004532706921626
1001
AcDbBlockRepETag
1070
     1
1071
      286
1005
6E385
  0
LINE
  5
6E386
330
1F
100
AcDbEntity
  8
freecads.com
100
AcDbLine
 10
186037.0184011846
 20
136342.5664800101
 30
-0.0004532706921626
 11
186037.0184067695
 21
136193.8607880637
 31
-0.0004532706921626
1001
AcDbBlockRepETag
1070
     1
1071
      287
1005
6E386
  0
LINE
  5
6E387
330
1F
100
AcDbEntity
  8
freecads.com
100
AcDbLine
 10
186224.6386511656
 20
136320.3967612563
 30
-0.0004532706921626
 11
186207.3256850103
 21
136320.3967529672
 31
-0.0004532706921626
1001
AcDbBlockRepETag
1070
     1
1071
      288
1005
6E387
  0
LINE
  5
6E388
330
1F
100
AcDbEntity
  8
freecads.com
100
AcDbLine
 10
186207.7534877938
 20
136317.6068933427
 30
-0.0004532706921626
 11
186215.2694885936
 21
136317.6068925923
 31
-0.0004532706921626
1001
AcDbBlockRepETag
1070
     1
1071
      289
1005
6E388
  0
LINE
  5
6E389
330
1F
100
AcDbEntity
  8
freecads.com
100
AcDbLine
 10
186220.2743600949
 20
136295.8215848453
 30
-0.0004532706921626
 11
186230.1911497647
 21
136295.821591854
 31
-0.0004532706921626
1001
AcDbBlockRepETag
1070
     1
1071
      290
1005
6E389
  0
LINE
  5
6E38A
330
1F
100
AcDbEntity
  8
freecads.com
100
AcDbLine
 10
186213.3644334269
 20
136294.2529177059
 30
-0.0004532706921626
 11
186232.5759673513
 21
136294.2529531637
 31
-0.0004532706921626
1001
AcDbBlockRepETag
1070
     1
1071
      291
1005
6E38A
  0
LINE
  5
6E38B
330
1F
100
AcDbEntity
  8
freecads.com
100
AcDbLine
 10
186219.318219237
 20
136313.250778168
 30
-0.0004532706921626
 11
186219.318219793
 21
136298.4359631045
 31
-0.0004532706921626
1001
AcDbBlockRepETag
1070
     1
1071
      292
1005
6E38B
  0
LINE
  5
6E38C
330
1F
100
AcDbEntity
  8
freecads.com
100
AcDbLine
 10
186231.1472803681
 20
136298.4359719053
 30
-0.0004532706921626
 11
186231.1472797436
 21
136313.4250829301
 31
-0.0004532706921626
1001
AcDbBlockRepETag
1070
     1
1071
      293
1005
6E38C
  0
LINE
  5
6E38D
330
1F
100
AcDbEntity
  8
freecads.com
100
AcDbLine
 10
186205.2666229654
 20
136354.3835998468
 30
-0.0004532706921626
 11
186168.6653151613
 21
136354.3835984717
 31
-0.0004532706921626
1001
AcDbBlockRepETag
1070
     1
1071
      294
1005
6E38D
  0
LINE
  5
6E38E
330
1F
100
AcDbEntity
  8
freecads.com
100
AcDbLine
 10
186260.3924218839
 20
136295.5165576796
 30
-0.0004532706921626
 11
186260.3924209497
 21
136320.3967582418
 31
-0.0004532706921626
1001
AcDbBlockRepETag
1070
     1
1071
      295
1005
6E38E
  0
LINE
  5
6E38F
330
1F
100
AcDbEntity
  8
freecads.com
100
AcDbLine
 10
186276.3796955283
 20
136320.3967815115
 30
-0.0004532706921626
 11
186276.3796964625
 21
136295.5165582799
 31
-0.0004532706921626
1001
AcDbBlockRepETag
1070
     1
1071
      296
1005
6E38F
  0
LINE
  5
6E390
330
1F
100
AcDbEntity
  8
freecads.com
100
AcDbLine
 10
186272.999752947
 20
136292.0307196192
 30
-0.0004532706921626
 11
186257.0124783683
 21
136292.0306963495
 31
-0.0004532706921626
1001
AcDbBlockRepETag
1070
     1
1071
      297
1005
6E390
  0
LINE
  5
6E391
330
1F
100
AcDbEntity
  8
freecads.com
100
AcDbLine
 10
186356.978041502
 20
136283.6211928052
 30
-0.0004532706921626
 11
186284.0716227997
 21
136283.6211646201
 31
-0.0004532706921626
1001
AcDbBlockRepETag
1070
     1
1071
      298
1005
6E391
  0
LINE
  5
6E392
330
1F
100
AcDbEntity
  8
freecads.com
100
AcDbLine
 10
186327.2070123296
 20
136306.2791511454
 30
-0.0004532706921626
 11
186327.2070132566
 21
136283.621188535
 31
-0.0004532706921626
1001
AcDbBlockRepETag
1070
     1
1071
      299
1005
6E392
  0
LINE
  5
6E393
330
1F
100
AcDbEntity
  8
freecads.com
100
AcDbLine
 10
186224.6386511656
 20
136320.3967612563
 30
-0.0004532706921626
 11
186276.3796955283
 21
136320.3967815115
 31
-0.0004532706921626
1001
AcDbBlockRepETag
1070
     1
1071
      300
1005
6E393
  0
LINE
  5
6E394
330
1F
100
AcDbEntity
  8
freecads.com
100
AcDbLine
 10
186182.5777314176
 20
136172.9457562569
 30
-0.0004532706921626
 11
186182.5777297818
 21
136216.5187370486
 31
-0.0004532706921626
1001
AcDbBlockRepETag
1070
     1
1071
      301
1005
6E394
  0
LINE
  5
6E395
330
1F
100
AcDbEntity
  8
freecads.com
100
AcDbLine
 10
186191.2923285137
 20
136172.9457565845
 30
-0.0004532706921626
 11
186191.292326878
 21
136216.5187374032
 31
-0.0004532706921626
1001
AcDbBlockRepETag
1070
     1
1071
      302
1005
6E395
  0
LINE
  5
6E396
330
1F
100
AcDbEntity
  8
freecads.com
100
AcDbLine
 10
186182.5777314176
 20
136172.9457562569
 30
-0.0004532706921626
 11
186191.2923285137
 21
136172.9457565845
 31
-0.0004532706921626
1001
AcDbBlockRepETag
1070
     1
1071
      303
1005
6E396
  0
LINE
  5
6E397
330
1F
100
AcDbEntity
  8
freecads.com
100
AcDbLine
 10
186243.5799096182
 20
136212.1614773641
 30
-0.0004532706921626
 11
186243.5799094552
 21
136216.5187985814
 31
-0.0004532706921626
1001
AcDbBlockRepETag
1070
     1
1071
      304
1005
6E397
  0
LINE
  5
6E398
330
1F
100
AcDbEntity
  8
freecads.com
100
AcDbLine
 10
186243.5799103058
 20
136193.860826242
 30
-0.0004532706921626
 11
186243.5799099459
 21
136203.4468802679
 31
-0.0004532706921626
1001
AcDbBlockRepETag
1070
     1
1071
      305
1005
6E398
  0
LINE
  5
6E399
330
1F
100
AcDbEntity
  8
freecads.com
100
AcDbLine
 10
186249.9067002551
 20
136203.4468812178
 30
-0.0004532706921626
 11
186249.9067004181
 21
136199.0895865389
 31
-0.0004532706921626
1001
AcDbBlockRepETag
1070
     1
1071
      306
1005
6E399
  0
LINE
  5
6E39A
330
1F
100
AcDbEntity
  8
freecads.com
100
AcDbLine
 10
186249.9066997636
 20
136216.5187397884
 30
-0.0004532706921626
 11
186249.9066999275
 21
136212.161478314
 31
-0.0004532706921626
1001
AcDbBlockRepETag
1070
     1
1071
      307
1005
6E39A
  0
LINE
  5
6E39B
330
1F
100
AcDbEntity
  8
freecads.com
100
AcDbLine
 10
186312.504661293
 20
136216.5187423366
 30
-0.0004532706921626
 11
186312.5046619475
 21
136199.0895695089
 31
-0.0004532706921626
1001
AcDbBlockRepETag
1070
     1
1071
      308
1005
6E39B
  0
LINE
  5
6E39C
330
1F
100
AcDbEntity
  8
freecads.com
100
AcDbLine
 10
186249.9067004181
 20
136199.0895865389
 30
-0.0004532706921626
 11
186312.5046619475
 21
136199.0895695089
 31
-0.0004532706921626
1001
AcDbBlockRepETag
1070
     1
1071
      309
1005
6E39C
  0
LINE
  5
6E39D
330
1F
100
AcDbEntity
  8
freecads.com
100
AcDbLine
 10
186317.6540158971
 20
136142.4447260463
 30
-0.0004532706921626
 11
186317.7700534102
 21
136142.444725099
 31
-0.0004532706921626
1001
AcDbBlockRepETag
1070
     1
1071
      310
1005
6E39D
  0
LINE
  5
6E39E
330
1F
100
AcDbEntity
  8
freecads.com
100
AcDbLine
 10
186317.6539875546
 20
136142.4447260454
 30
-0.0004532706921626
 11
186317.6539871947
 21
136152.0307770508
 31
-0.0004532706921626
1001
AcDbBlockRepETag
1070
     1
1071
      311
1005
6E39E
  0
LINE
  5
6E39F
330
1F
100
AcDbEntity
  8
freecads.com
100
AcDbLine
 10
186217.1786787035
 20
136212.161476551
 30
-0.0004532706921626
 11
186272.3204878219
 21
136212.1614816796
 31
-0.0004532706921626
1001
AcDbBlockRepETag
1070
     1
1071
      312
1005
6E39F
  0
LINE
  5
6E3A0
330
1F
100
AcDbEntity
  8
freecads.com
100
AcDbLine
 10
186217.1786761719
 20
136203.4468794548
 30
-0.0004532706921626
 11
186272.3204900232
 21
136203.4468845833
 31
-0.0004532706921626
1001
AcDbBlockRepETag
1070
     1
1071
      313
1005
6E3A0
  0
LINE
  5
6E3A1
330
1F
100
AcDbEntity
  8
freecads.com
100
AcDbLine
 10
186270.2863843968
 20
136193.8608310525
 30
-0.0004532706921626
 11
186191.2923277286
 21
136193.8608117723
 31
-0.0004532706921626
1001
AcDbBlockRepETag
1070
     1
1071
      314
1005
6E3A1
  0
LINE
  5
6E3A2
330
1F
100
AcDbEntity
  8
freecads.com
100
AcDbLine
 10
186173.93330709
 20
136216.5187366908
 30
-0.0004532706921626
 11
186173.9333057803
 21
136251.3771250812
 31
-0.0004532706921626
1001
AcDbBlockRepETag
1070
     1
1071
      315
1005
6E3A2
  0
LINE
  5
6E3A3
330
1F
100
AcDbEntity
  8
freecads.com
100
AcDbLine
 10
186182.5777306323
 20
136193.8608096451
 30
-0.0004532706921626
 11
185998.6997319025
 21
136193.8607823823
 31
-0.0004532706921626
1001
AcDbBlockRepETag
1070
     1
1071
      316
1005
6E3A3
  0
ARC
  5
6E3A4
330
1F
100
AcDbEntity
  8
freecads.com
100
AcDbCircle
 10
186046.6960654099
 20
136379.656008021
 30
-0.0004532706921626
 40
38.34422722328453
100
AcDbArc
 50
180.0000021511094
 51
270.0000021511093
1001
AcDbBlockRepETag
1070
     1
1071
      317
1005
6E3A4
  0
LINE
  5
6E3A5
330
1F
100
AcDbEntity
  8
freecads.com
100
AcDbLine
 10
185963.8413370646
 20
136365.6851208287
 30
-0.0004532706921626
 11
185963.8413435177
 21
136193.8607810734
 31
-0.0004532706921626
1001
AcDbBlockRepETag
1070
     1
1071
      318
1005
6E3A5
  0
LINE
  5
6E3A6
330
1F
100
AcDbEntity
  8
freecads.com
100
AcDbLine
 10
185963.8413435177
 20
136193.8607810734
 30
-0.0004532706921626
 11
185584.756369833
 21
136193.8607645688
 31
-0.0004532706921626
1001
AcDbBlockRepETag
1070
     1
1071
      319
1005
6E3A6
  0
LINE
  5
6E3A7
330
1F
100
AcDbEntity
  8
freecads.com
100
AcDbLine
 10
186329.6969710518
 20
136152.0307795371
 30
-0.0004532706921626
 11
185584.7563714042
 21
136152.030698507
 31
-0.0004532706921626
1001
AcDbBlockRepETag
1070
     1
1071
      320
1005
6E3A7
  0
LINE
  5
6E3A8
330
1F
100
AcDbEntity
  8
freecads.com
100
AcDbLine
 10
185963.8261595053
 20
136365.9740712563
 30
-0.0004532706921626
 11
185963.8261463811
 21
136715.4294148139
 31
-0.0004532706921626
1001
AcDbBlockRepETag
1070
     1
1071
      321
1005
6E3A8
  0
LINE
  5
6E3A9
330
1F
100
AcDbEntity
  8
freecads.com
100
AcDbLine
 10
185998.6997319025
 20
136193.8607823823
 30
-0.0004532706921626
 11
185998.6997123147
 21
136715.4294160958
 31
-0.0004532706921626
1001
AcDbBlockRepETag
1070
     1
1071
      322
1005
6E3A9
  0
LINE
  5
6E3AA
330
1F
100
AcDbEntity
  8
freecads.com
100
AcDbLine
 10
186008.3609157858
 20
136379.6559847583
 30
-0.0004532706921626
 11
186008.360903677
 21
136702.0960773177
 31
-0.0004532706921626
1001
AcDbBlockRepETag
1070
     1
1071
      323
1005
6E3AA
  0
LINE
  5
6E3AB
330
1F
100
AcDbEntity
  8
freecads.com
100
AcDbLine
 10
186168.6653018097
 20
136709.9169805453
 30
-0.0004532706921626
 11
186168.6653156522
 21
136341.3117635264
 31
-0.0004532706921626
1001
AcDbBlockRepETag
1070
     1
1071
      324
1005
6E3AB
  0
LINE
  5
6E3AC
330
1F
100
AcDbEntity
  8
freecads.com
100
AcDbLine
 10
185667.6011690409
 20
136700.178877974
 30
-0.0004532706921626
 11
185667.6011690409
 21
136377.7387854145
 31
-0.0004532706921626
1001
AcDbBlockRepETag
1070
     1
1071
      325
1005
6E3AC
  0
LINE
  5
6E3AD
330
1F
100
AcDbEntity
  8
freecads.com
100
AcDbLine
 10
185675.1189217928
 20
136726.3226692626
 30
-0.0004532706921626
 11
185675.1189217928
 21
136351.5949941259
 31
-0.0004532706921626
1001
AcDbBlockRepETag
1070
     1
1071
      326
1005
6E3AD
  0
ARC
  5
6E3AE
330
1F
100
AcDbEntity
  8
freecads.com
100
AcDbCircle
 10
186412.731052113
 20
136702.0960924759
 30
-0.0004532706921626
 40
38.34422722328453
100
AcDbArc
 50
0.0000021511093822
 51
90.0000021511094
1001
AcDbBlockRepETag
1070
     1
1071
      327
1005
6E3AE
  0
LINE
  5
6E3AF
330
1F
100
AcDbEntity
  8
freecads.com
100
AcDbLine
 10
186369.0701042688
 20
136306.2791533852
 30
-0.0004532706921626
 11
186369.0701076417
 21
136216.5187686648
 31
-0.0004532706921626
1001
AcDbBlockRepETag
1070
     1
1071
      328
1005
6E3AF
  0
LINE
  5
6E3B0
330
1F
100
AcDbEntity
  8
freecads.com
100
AcDbLine
 10
186414.6413852457
 20
136172.9457906508
 30
-0.0004532706921626
 11
186414.6413836091
 21
136216.5187761318
 31
-0.0004532706921626
1001
AcDbBlockRepETag
1070
     1
1071
      329
1005
6E3B0
  0
LINE
  5
6E3B1
330
1F
100
AcDbEntity
  8
freecads.com
100
AcDbLine
 10
186378.656167228
 20
136142.4447283365
 30
-0.0004532706921626
 11
186378.6561660821
 21
136172.945782399
 31
-0.0004532706921626
1001
AcDbBlockRepETag
1070
     1
1071
      330
1005
6E3B1
  0
LINE
  5
6E3B2
330
1F
100
AcDbEntity
  8
freecads.com
100
AcDbLine
 10
186356.978041502
 20
136251.3771325314
 30
-0.0004532706921626
 11
186356.9780428109
 21
136216.5187441466
 31
-0.0004532706921626
1001
AcDbBlockRepETag
1070
     1
1071
      331
1005
6E3B2
  0
LINE
  5
6E3B3
330
1F
100
AcDbEntity
  8
freecads.com
100
AcDbLine
 10
186377.1242086263
 20
136235.6909083787
 30
-0.0004532706921626
 11
186377.1242093461
 21
136216.518767656
 31
-0.0004532706921626
1001
AcDbBlockRepETag
1070
     1
1071
      332
1005
6E3B3
  0
ARC
  5
6E3B4
330
1F
100
AcDbEntity
  8
freecads.com
100
AcDbCircle
 10
186412.7310642228
 20
136379.6559999165
 30
-0.0004532706921626
 40
38.34422722328453
100
AcDbArc
 50
270.0000021511093
 51
359.9627472701901
1001
AcDbBlockRepETag
1070
     1
1071
      333
1005
6E3B4
  0
LINE
  5
6E3B5
330
1F
100
AcDbEntity
  8
freecads.com
100
AcDbLine
 10
186451.0752793363
 20
136702.0960939155
 30
-0.0004532706921626
 11
186451.0752833413
 21
136379.6310691613
 31
-0.0004532706921626
1001
AcDbBlockRepETag
1070
     1
1071
      334
1005
6E3B5
  0
LINE
  5
6E3B6
330
1F
100
AcDbEntity
  8
freecads.com
100
AcDbLine
 10
186046.7179726329
 20
136740.4403059528
 30
-0.0004532706921626
 11
186412.7310506733
 21
136740.4403196992
 31
-0.0004532706921626
1001
AcDbBlockRepETag
1070
     1
1071
      335
1005
6E3B6
  0
LINE
  5
6E3B7
330
1F
100
AcDbEntity
  8
freecads.com
100
AcDbLine
 10
186412.7310656624
 20
136341.3117726932
 30
-0.0004532706921626
 11
186205.2886506937
 21
136341.311764902
 31
-0.0004532706921626
1001
AcDbBlockRepETag
1070
     1
1071
      336
1005
6E3B7
  0
LINE
  5
6E3B8
330
1F
100
AcDbEntity
  8
freecads.com
100
AcDbLine
 10
186369.0701042688
 20
136306.2791533449
 30
-0.0004532706921626
 11
186327.2070123296
 21
136306.2791511454
 31
-0.0004532706921626
1001
AcDbBlockRepETag
1070
     1
1071
      337
1005
6E3B8
  0
LINE
  5
6E3B9
330
1F
100
AcDbEntity
  8
freecads.com
100
AcDbLine
 10
186173.9333057803
 20
136251.3771250812
 30
-0.0004532706921626
 11
186356.978041502
 21
136251.3771325314
 31
-0.0004532706921626
1001
AcDbBlockRepETag
1070
     1
1071
      338
1005
6E3B9
  0
LINE
  5
6E3BA
330
1F
100
AcDbEntity
  8
freecads.com
100
AcDbLine
 10
186173.93330709
 20
136216.5187366908
 30
-0.0004532706921626
 11
186414.6413836091
 21
136216.5187761318
 31
-0.0004532706921626
1001
AcDbBlockRepETag
1070
     1
1071
      339
1005
6E3BA
  0
LINE
  5
6E3BB
330
1F
100
AcDbEntity
  8
freecads.com
100
AcDbLine
 10
186191.2923285137
 20
136172.9457885867
 30
-0.0004532706921626
 11
186414.6413852457
 21
136172.9457906508
 31
-0.0004532706921626
1001
AcDbBlockRepETag
1070
     1
1071
      340
1005
6E3BB
  0
LINE
  5
6E3BC
330
1F
100
AcDbEntity
  8
freecads.com
100
AcDbLine
 10
186317.7700534102
 20
136142.444725099
 30
-0.0004532706921626
 11
186378.6561388856
 21
136142.4447283365
 31
-0.0004532706921626
1001
AcDbBlockRepETag
1070
     1
1071
      341
1005
6E3BC
  0
LINE
  5
6E3BD
330
1F
100
AcDbEntity
  8
freecads.com
100
AcDbLine
 10
185628.8212119627
 20
136338.9588283365
 30
-0.0004532706921626
 11
184838.5742948051
 21
136338.9588283365
 31
-0.0004532706921626
1001
AcDbBlockRepETag
1070
     1
1071
      342
1005
6E3BD
  0
LINE
  5
6E3BE
330
1F
100
AcDbEntity
  8
freecads.com
100
AcDbLine
 10
185733.775305853
 20
136154.6450463217
 30
-0.0004532706921626
 11
185490.8708199308
 21
136154.6449441344
 31
-0.0004532706921626
1001
AcDbBlockRepETag
1070
     1
1071
      343
1005
6E3BE
  0
ARC
  5
6E3BF
330
1F
100
AcDbEntity
  8
freecads.com
100
AcDbCircle
 10
185515.0243372322
 20
136108.2841069107
 30
-0.0004532706921626
 40
13.07189564430155
100
AcDbArc
 50
315.0000019903536
 51
42.00000185191986
1001
AcDbBlockRepETag
1070
     1
1071
      344
1005
6E3BF
  0
LINE
  5
6E3C0
330
1F
100
AcDbEntity
  8
freecads.com
100
AcDbLine
 10
185584.7563685624
 20
136136.7801168906
 30
-0.0004532706921626
 11
185506.9564207481
 21
136136.7800757107
 31
-0.0004532706921626
1001
AcDbBlockRepETag
1070
     1
1071
      345
1005
6E3C0
  0
LINE
  5
6E3C1
330
1F
100
AcDbEntity
  8
freecads.com
100
AcDbLine
 10
185520.4928500185
 20
136121.7312597578
 30
-0.0004532706921626
 11
185583.9676973727
 21
136121.7312981587
 31
-0.0004532706921626
1001
AcDbBlockRepETag
1070
     1
1071
      346
1005
6E3C1
  0
ARC
  5
6E3C2
330
1F
100
AcDbEntity
  8
freecads.com
100
AcDbCircle
 10
185472.3380584432
 20
136429.4731866666
 30
-0.0004532706921626
 40
332.7802206406644
100
AcDbArc
 50
279.2624772782023
 51
288.5185428648175
1001
AcDbBlockRepETag
1070
     1
1071
      347
1005
6E3C2
  0
LINE
  5
6E3C3
330
1F
100
AcDbEntity
  8
freecads.com
100
AcDbLine
 10
185526.8122437969
 20
136113.9239870542
 30
-0.0004532706921626
 11
185578.0328999998
 21
136113.9240213723
 31
-0.0004532706921626
1001
AcDbBlockRepETag
1070
     1
1071
      348
1005
6E3C3
  0
LINE
  5
6E3C4
330
1F
100
AcDbEntity
  8
freecads.com
100
AcDbLine
 10
185733.7753044516
 20
136191.2463541258
 30
-0.0004532706921626
 11
185296.3934230622
 21
136191.2462687497
 31
-0.0004532706921626
1001
AcDbBlockRepETag
1070
     1
1071
      349
1005
6E3C4
  0
ARC
  5
6E3C5
330
1F
100
AcDbEntity
  8
freecads.com
100
AcDbCircle
 10
185472.3381188711
 20
134820.4402212873
 30
-0.0004532706921626
 40
1436.16560145393
100
AcDbArc
 50
85.84362147952978
 51
88.29814786268901
1001
AcDbBlockRepETag
1070
     1
1071
      350
1005
6E3C5
  0
LINE
  5
6E3C6
330
1F
100
AcDbEntity
  8
freecads.com
100
AcDbLine
 10
185583.7577101456
 20
136229.1548460729
 30
-0.0004532706921626
 11
185482.6536283306
 21
136229.1548035375
 31
-0.0004532706921626
1001
AcDbBlockRepETag
1070
     1
1071
      351
1005
6E3C6
  0
LINE
  5
6E3C7
330
1F
100
AcDbEntity
  8
freecads.com
100
AcDbLine
 10
185481.6775830742
 20
136252.8285907892
 30
-0.0004532706921626
 11
185576.4297962047
 21
136252.828631429
 31
-0.0004532706921626
1001
AcDbBlockRepETag
1070
     1
1071
      352
1005
6E3C7
  0
LINE
  5
6E3C8
330
1F
100
AcDbEntity
  8
freecads.com
100
AcDbLine
 10
185582.8320570372
 20
136246.8186353803
 30
-0.0004532706921626
 11
185482.3400766416
 21
136246.818592244
 31
-0.0004532706921626
1001
AcDbBlockRepETag
1070
     1
1071
      353
1005
6E3C8
  0
LINE
  5
6E3C9
330
1F
100
AcDbEntity
  8
freecads.com
100
AcDbLine
 10
185580.4928255636
 20
136227.4119265299
 30
-0.0004532706921626
 11
185480.932993944
 21
136227.4118841753
 31
-0.0004532706921626
1001
AcDbBlockRepETag
1070
     1
1071
      354
1005
6E3C9
  0
LINE
  5
6E3CA
330
1F
100
AcDbEntity
  8
freecads.com
100
AcDbLine
 10
185480.8299796122
 20
136209.1112287358
 30
-0.0004532706921626
 11
185584.7598949599
 21
136209.1112727891
 31
-0.0004532706921626
1001
AcDbBlockRepETag
1070
     1
1071
      355
1005
6E3CA
  0
LINE
  5
6E3CB
330
1F
100
AcDbEntity
  8
freecads.com
100
AcDbLine
 10
185628.8212119627
 20
136738.9588350521
 30
-0.0004532706921626
 11
184838.2060000172
 21
136738.9588350521
 31
-0.0004532706921626
1001
AcDbBlockRepETag
1070
     1
1071
      356
1005
6E3CB
  0
LINE
  5
6E3CC
330
1F
100
AcDbEntity
  8
freecads.com
100
AcDbLine
 10
184875.041731119
 20
136312.1822267836
 30
-0.0004532706921626
 11
184919.0104823814
 21
136312.1822267836
 31
-0.0004532706921626
1001
AcDbBlockRepETag
1070
     1
1071
      357
1005
6E3CC
  0
LINE
  5
6E3CD
330
1F
100
AcDbEntity
  8
freecads.com
100
AcDbLine
 10
184927.7250794776
 20
136338.9588283365
 30
-0.0004532706921626
 11
184927.7250794776
 21
136320.8968238798
 31
-0.0004532706921626
1001
AcDbBlockRepETag
1070
     1
1071
      358
1005
6E3CD
  0
LINE
  5
6E3CE
330
1F
100
AcDbEntity
  8
freecads.com
100
AcDbLine
 10
184866.3271340227
 20
136320.8968238798
 30
-0.0004532706921626
 11
184866.3271340227
 21
136338.9588283365
 31
-0.0004532706921626
1001
AcDbBlockRepETag
1070
     1
1071
      359
1005
6E3CE
  0
ARC
  5
6E3CF
330
1F
100
AcDbEntity
  8
freecads.com
100
AcDbCircle
 10
184875.041731119
 20
136320.8968238798
 30
-0.0004532706921626
 40
8.714597096201032
100
AcDbArc
 50
180.0
 51
270.0
1001
AcDbBlockRepETag
1070
     1
1071
      360
1005
6E3CF
  0
ARC
  5
6E3D0
330
1F
100
AcDbEntity
  8
freecads.com
100
AcDbCircle
 10
184919.0104823814
 20
136320.8968238798
 30
-0.0004532706921626
 40
8.714597096201032
100
AcDbArc
 50
270.0
 51
0.0
1001
AcDbBlockRepETag
1070
     1
1071
      361
1005
6E3D0
  0
LINE
  5
6E3D1
330
1F
100
AcDbEntity
  8
freecads.com
100
AcDbLine
 10
184875.041731119
 20
136765.7354366049
 30
-0.0004532706921626
 11
184919.0104823814
 21
136765.7354366049
 31
-0.0004532706921626
1001
AcDbBlockRepETag
1070
     1
1071
      362
1005
6E3D1
  0
LINE
  5
6E3D2
330
1F
100
AcDbEntity
  8
freecads.com
100
AcDbLine
 10
184927.7250794776
 20
136738.9588350521
 30
-0.0004532706921626
 11
184927.7250794776
 21
136757.0208395088
 31
-0.0004532706921626
1001
AcDbBlockRepETag
1070
     1
1071
      363
1005
6E3D2
  0
LINE
  5
6E3D3
330
1F
100
AcDbEntity
  8
freecads.com
100
AcDbLine
 10
184866.3271340227
 20
136757.0208395088
 30
-0.0004532706921626
 11
184866.3271340227
 21
136738.9588350521
 31
-0.0004532706921626
1001
AcDbBlockRepETag
1070
     1
1071
      364
1005
6E3D3
  0
ARC
  5
6E3D4
330
1F
100
AcDbEntity
  8
freecads.com
100
AcDbCircle
 10
184875.041731119
 20
136757.0208395088
 30
-0.0004532706921626
 40
8.714597096201032
100
AcDbArc
 50
90.0
 51
180.0
1001
AcDbBlockRepETag
1070
     1
1071
      365
1005
6E3D4
  0
ARC
  5
6E3D5
330
1F
100
AcDbEntity
  8
freecads.com
100
AcDbCircle
 10
184919.0104823814
 20
136757.0208395088
 30
-0.0004532706921626
 40
8.714597096201032
100
AcDbArc
 50
0.0
 51
90.0
1001
AcDbBlockRepETag
1070
     1
1071
      366
1005
6E3D5
  0
LINE
  5
6E3D6
330
1F
100
AcDbEntity
  8
freecads.com
100
AcDbLine
 10
185665.8947929973
 20
136311.7660196667
 30
-0.0004532706921626
 11
185692.4605545157
 21
136311.7660196667
 31
-0.0004532706921626
1001
AcDbBlockRepETag
1070
     1
1071
      367
1005
6E3D6
  0
LINE
  5
6E3D7
330
1F
100
AcDbEntity
  8
freecads.com
100
AcDbLine
 10
185675.1189217928
 20
136394.2069187063
 30
-0.0004532706921626
 11
185692.4605545157
 21
136394.2069187063
 31
-0.0004532706921626
1001
AcDbBlockRepETag
1070
     1
1071
      368
1005
6E3D7
  0
LINE
  5
6E3D8
330
1F
100
AcDbEntity
  8
freecads.com
100
AcDbLine
 10
185711.6326681273
 20
136375.0348050946
 30
-0.0004532706921626
 11
185711.6326681273
 21
136330.9381332784
 31
-0.0004532706921626
1001
AcDbBlockRepETag
1070
     1
1071
      369
1005
6E3D8
  0
ARC
  5
6E3D9
330
1F
100
AcDbEntity
  8
freecads.com
100
AcDbCircle
 10
185692.4605545157
 20
136330.9381332784
 30
-0.0004532706921626
 40
19.17211361164227
100
AcDbArc
 50
270.0
 51
0.0
1001
AcDbBlockRepETag
1070
     1
1071
      370
1005
6E3D9
  0
ARC
  5
6E3DA
330
1F
100
AcDbEntity
  8
freecads.com
100
AcDbCircle
 10
185692.4605545157
 20
136375.0348050946
 30
-0.0004532706921626
 40
19.17211361164227
100
AcDbArc
 50
0.0
 51
90.0
1001
AcDbBlockRepETag
1070
     1
1071
      371
1005
6E3DA
  0
ARC
  5
6E3DB
330
1F
100
AcDbEntity
  8
freecads.com
100
AcDbCircle
 10
185665.8947929973
 20
136330.9381332784
 30
-0.0004532706921626
 40
19.17211361164227
100
AcDbArc
 50
180.0
 51
270.0
1001
AcDbBlockRepETag
1070
     1
1071
      372
1005
6E3DB
  0
LINE
  5
6E3DC
330
1F
100
AcDbEntity
  8
freecads.com
100
AcDbLine
 10
185646.7226793857
 20
136330.9381332784
 30
-0.0004532706921626
 11
185646.7226793857
 21
136343.3378764864
 31
-0.0004532706921626
1001
AcDbBlockRepETag
1070
     1
1071
      373
1005
6E3DC
  0
LINE
  5
6E3DD
330
1F
100
AcDbEntity
  8
freecads.com
100
AcDbLine
 10
185665.8947929973
 20
136766.1516437218
 30
-0.0004532706921626
 11
185692.4605545157
 21
136766.1516437218
 31
-0.0004532706921626
1001
AcDbBlockRepETag
1070
     1
1071
      374
1005
6E3DD
  0
LINE
  5
6E3DE
330
1F
100
AcDbEntity
  8
freecads.com
100
AcDbLine
 10
185711.6326681273
 20
136702.8828582939
 30
-0.0004532706921626
 11
185711.6326681273
 21
136746.9795301102
 31
-0.0004532706921626
1001
AcDbBlockRepETag
1070
     1
1071
      375
1005
6E3DE
  0
ARC
  5
6E3DF
330
1F
100
AcDbEntity
  8
freecads.com
100
AcDbCircle
 10
185692.4605545157
 20
136746.9795301102
 30
-0.0004532706921626
 40
19.17211361164227
100
AcDbArc
 50
0.0
 51
90.0
1001
AcDbBlockRepETag
1070
     1
1071
      376
1005
6E3DF
  0
ARC
  5
6E3E0
330
1F
100
AcDbEntity
  8
freecads.com
100
AcDbCircle
 10
185692.4605545157
 20
136702.8828582939
 30
-0.0004532706921626
 40
19.17211361164227
100
AcDbArc
 50
270.0
 51
0.0
1001
AcDbBlockRepETag
1070
     1
1071
      377
1005
6E3E0
  0
ARC
  5
6E3E1
330
1F
100
AcDbEntity
  8
freecads.com
100
AcDbCircle
 10
185665.8947929973
 20
136746.9795301102
 30
-0.0004532706921626
 40
19.17211361164227
100
AcDbArc
 50
90.0
 51
180.0
1001
AcDbBlockRepETag
1070
     1
1071
      378
1005
6E3E1
  0
LINE
  5
6E3E2
330
1F
100
AcDbEntity
  8
freecads.com
100
AcDbLine
 10
185646.7226793857
 20
136746.9795301102
 30
-0.0004532706921626
 11
185646.7226793857
 21
136734.5797869021
 31
-0.0004532706921626
1001
AcDbBlockRepETag
1070
     1
1071
      379
1005
6E3E2
  0
LINE
  5
6E3E3
330
1F
100
AcDbEntity
  8
freecads.com
100
AcDbLine
 10
185692.4605545157
 20
136683.7107446823
 30
-0.0004532706921626
 11
185675.1189217928
 21
136683.7107446823
 31
-0.0004532706921626
1001
AcDbBlockRepETag
1070
     1
1071
      380
1005
6E3E3
  0
ENDSEC
  0
SECTION
  2
OBJECTS
  0
DICTIONARY
  5
C
330
0
100
AcDbDictionary
281
     1
  3
ACAD_ASSOCPERSSUBENTMANAGER
350
2C1D4
  3
ACAD_CIP_PREVIOUS_PRODUCT_INFO
350
1A5
  3
ACAD_COLOR
350
73
  3
ACAD_DETAILVIEWSTYLE
350
1AB
  3
ACAD_GROUP
350
D
  3
ACAD_LAYOUT
350
1A
  3
ACAD_MATERIAL
350
72
  3
ACAD_MLEADERSTYLE
350
D7
  3
ACAD_MLINESTYLE
350
17
  3
ACAD_PLOTSETTINGS
350
19
  3
ACAD_PLOTSTYLENAME
350
E
  3
ACAD_SCALELIST
350
B6
  3
ACAD_SECTIONVIEWSTYLE
350
1A8
  3
ACAD_TABLESTYLE
350
86
  3
ACAD_VISUALSTYLE
350
99
  3
ACDB_RECOMPOSE_DATA
350
6FAB8
  3
ACDBVARIABLEDICTIONARY
350
4A0D5
  3
AEC_PROPERTY_SET_DEFS
350
22D1
  0
DICTIONARY
  5
18E
330
2
100
AcDbDictionary
280
     1
281
     1
  3
ACAD_LAYERSTATES
360
18F
  0
DICTIONARY
  5
E6
330
10
100
AcDbDictionary
280
     1
281
     1
  0
DICTIONARY
  5
15D
330
1F
100
AcDbDictionary
280
     1
281
     1
  3
ACAD_SORTENTS
360
28E
  0
ACDBASSOCPERSSUBENTMANAGER
  5
2C1D4
102
{ACAD_REACTORS
330
C
102
}
330
C
100
AcDbAssocPersSubentManager
 90
        2
 90
        3
 90
        0
 90
        2
 90
     1260
 90
        0
 90
     1260
 90
        1
 90
        2
 90
        3
 90
        4
 90
        5
 90
        6
 90
        7
 90
        8
 90
        9
 90
       10
 90
       11
 90
       12
 90
       13
 90
       14
 90
       15
 90
       16
 90
       17
 90
       18
 90
       19
 90
       20
 90
       21
 90
       22
 90
       23
 90
       24
 90
       25
 90
       26
 90
       27
 90
       28
 90
       29
 90
       30
 90
       31
 90
       32
 90
       33
 90
       34
 90
       35
 90
       36
 90
       37
 90
       38
 90
       39
 90
       40
 90
       41
 90
       42
 90
       43
 90
       44
 90
       45
 90
       46
 90
       47
 90
       48
 90
       49
 90
       50
 90
       51
 90
       52
 90
       53
 90
       54
 90
       55
 90
       56
 90
       57
 90
       58
 90
       59
 90
       60
 90
       61
 90
       62
 90
       63
 90
       64
 90
       65
 90
       66
 90
       67
 90
       68
 90
       69
 90
       70
 90
       71
 90
       72
 90
       73
 90
       74
 90
       75
 90
       76
 90
       77
 90
       78
 90
       79
 90
       80
 90
       81
 90
       82
 90
       83
 90
       84
 90
       85
 90
       86
 90
       87
 90
       88
 90
       89
 90
       90
 90
       91
 90
       92
 90
       93
 90
       94
 90
       95
 90
       96
 90
       97
 90
       98
 90
       99
 90
      100
 90
      101
 90
      102
 90
      103
 90
      104
 90
      105
 90
      106
 90
      107
 90
      108
 90
      109
 90
      110
 90
      111
 90
      112
 90
      113
 90
      114
 90
      115
 90
      116
 90
      117
 90
      118
 90
      119
 90
      120
 90
      121
 90
      122
 90
      123
 90
      124
 90
      125
 90
      126
 90
      127
 90
      128
 90
      129
 90
      130
 90
      131
 90
      132
 90
      133
 90
      134
 90
      135
 90
      136
 90
      137
 90
      138
 90
      139
 90
      140
 90
      141
 90
      142
 90
      143
 90
      144
 90
      145
 90
      146
 90
      147
 90
      148
 90
      149
 90
      150
 90
      151
 90
      152
 90
      153
 90
      154
 90
      155
 90
      156
 90
      157
 90
      158
 90
      159
 90
      160
 90
      161
 90
      162
 90
      163
 90
      164
 90
      165
 90
      166
 90
      167
 90
      168
 90
      169
 90
      170
 90
      171
 90
      172
 90
      173
 90
      174
 90
      175
 90
      176
 90
      177
 90
      178
 90
      179
 90
      180
 90
      181
 90
      182
 90
      183
 90
      184
 90
      185
 90
      186
 90
      187
 90
      188
 90
      189
 90
      190
 90
      191
 90
      192
 90
      193
 90
      194
 90
      195
 90
      196
 90
      197
 90
      198
 90
      199
 90
      200
 90
      201
 90
      202
 90
      203
 90
      204
 90
      205
 90
      206
 90
      207
 90
      208
 90
      209
 90
      210
 90
      211
 90
      212
 90
      213
 90
      214
 90
      215
 90
      216
 90
      217
 90
      218
 90
      219
 90
      220
 90
      221
 90
      222
 90
      223
 90
      224
 90
      225
 90
      226
 90
      227
 90
      228
 90
      229
 90
      230
 90
      231
 90
      232
 90
      233
 90
      234
 90
      235
 90
      236
 90
      237
 90
      238
 90
      239
 90
      240
 90
      241
 90
      242
 90
      243
 90
      244
 90
      245
 90
      246
 90
      247
 90
      248
 90
      249
 90
      250
 90
      251
 90
      252
 90
      253
 90
      254
 90
      255
 90
      256
 90
      257
 90
      258
 90
      259
 90
      260
 90
      261
 90
      262
 90
      263
 90
      264
 90
      265
 90
      266
 90
      267
 90
      268
 90
      269
 90
      270
 90
      271
 90
      272
 90
      273
 90
      274
 90
      275
 90
      276
 90
      277
 90
      278
 90
      279
 90
      280
 90
      281
 90
      282
 90
      283
 90
      284
 90
      285
 90
      286
 90
      287
 90
      288
 90
      289
 90
      290
 90
      291
 90
      292
 90
      293
 90
      294
 90
      295
 90
      296
 90
      297
 90
      298
 90
      299
 90
      300
 90
      301
 90
      302
 90
      303
 90
      304
 90
      305
 90
      306
 90
      307
 90
      308
 90
      309
 90
      310
 90
      311
 90
      312
 90
      313
 90
      314
 90
      315
 90
      316
 90
      317
 90
      318
 90
      319
 90
      320
 90
      321
 90
      322
 90
      323
 90
      324
 90
      325
 90
      326
 90
      327
 90
      328
 90
      329
 90
      330
 90
      331
 90
      332
 90
      333
 90
      334
 90
      335
 90
      336
 90
      337
 90
      338
 90
      339
 90
      340
 90
      341
 90
      342
 90
      343
 90
      344
 90
      345
 90
      346
 90
      347
 90
      348
 90
      349
 90
      350
 90
      351
 90
      352
 90
      353
 90
      354
 90
      355
 90
      356
 90
      357
 90
      358
 90
      359
 90
      360
 90
      361
 90
      362
 90
      363
 90
      364
 90
      365
 90
      366
 90
      367
 90
      368
 90
      369
 90
      370
 90
      371
 90
      372
 90
      373
 90
      374
 90
      375
 90
      376
 90
      377
 90
      378
 90
      379
 90
      380
 90
      381
 90
      382
 90
      383
 90
      384
 90
      385
 90
      386
 90
      387
 90
      388
 90
      389
 90
      390
 90
      391
 90
      392
 90
      393
 90
      394
 90
      395
 90
      396
 90
      397
 90
      398
 90
      399
 90
      400
 90
      401
 90
      402
 90
      403
 90
      404
 90
      405
 90
      406
 90
      407
 90
      408
 90
      409
 90
      410
 90
      411
 90
      412
 90
      413
 90
      414
 90
      415
 90
      416
 90
      417
 90
      418
 90
      419
 90
      420
 90
      421
 90
      422
 90
      423
 90
      424
 90
      425
 90
      426
 90
      427
 90
      428
 90
      429
 90
      430
 90
      431
 90
      432
 90
      433
 90
      434
 90
      435
 90
      436
 90
      437
 90
      438
 90
      439
 90
      440
 90
      441
 90
      442
 90
      443
 90
      444
 90
      445
 90
      446
 90
      447
 90
      448
 90
      449
 90
      450
 90
      451
 90
      452
 90
      453
 90
      454
 90
      455
 90
      456
 90
      457
 90
      458
 90
      459
 90
      460
 90
      461
 90
      462
 90
      463
 90
      464
 90
      465
 90
      466
 90
      467
 90
      468
 90
      469
 90
      470
 90
      471
 90
      472
 90
      473
 90
      474
 90
      475
 90
      476
 90
      477
 90
      478
 90
      479
 90
      480
 90
      481
 90
      482
 90
      483
 90
      484
 90
      485
 90
      486
 90
      487
 90
      488
 90
      489
 90
      490
 90
      491
 90
      492
 90
      493
 90
      494
 90
      495
 90
      496
 90
      497
 90
      498
 90
      499
 90
      500
 90
      501
 90
      502
 90
      503
 90
      504
 90
      505
 90
      506
 90
      507
 90
      508
 90
      509
 90
      510
 90
      511
 90
      512
 90
      513
 90
      514
 90
      515
 90
      516
 90
      517
 90
      518
 90
      519
 90
      520
 90
      521
 90
      522
 90
      523
 90
      524
 90
      525
 90
      526
 90
      527
 90
      528
 90
      529
 90
      530
 90
      531
 90
      532
 90
      533
 90
      534
 90
      535
 90
      536
 90
      537
 90
      538
 90
      539
 90
      540
 90
      541
 90
      542
 90
      543
 90
      544
 90
      545
 90
      546
 90
      547
 90
      548
 90
      549
 90
      550
 90
      551
 90
      552
 90
      553
 90
      554
 90
      555
 90
      556
 90
      557
 90
      558
 90
      559
 90
      560
 90
      561
 90
      562
 90
      563
 90
      564
 90
      565
 90
      566
 90
      567
 90
      568
 90
      569
 90
      570
 90
      571
 90
      572
 90
      573
 90
      574
 90
      575
 90
      576
 90
      577
 90
      578
 90
      579
 90
      580
 90
      581
 90
      582
 90
      583
 90
      584
 90
      585
 90
      586
 90
      587
 90
      588
 90
      589
 90
      590
 90
      591
 90
      592
 90
      593
 90
      594
 90
      595
 90
      596
 90
      597
 90
      598
 90
      599
 90
      600
 90
      601
 90
      602
 90
      603
 90
      604
 90
      605
 90
      606
 90
      607
 90
      608
 90
      609
 90
      610
 90
      611
 90
      612
 90
      613
 90
      614
 90
      615
 90
      616
 90
      617
 90
      618
 90
      619
 90
      620
 90
      621
 90
      622
 90
      623
 90
      624
 90
      625
 90
      626
 90
      627
 90
      628
 90
      629
 90
      630
 90
      631
 90
      632
 90
      633
 90
      634
 90
      635
 90
      636
 90
      637
 90
      638
 90
      639
 90
      640
 90
      641
 90
      642
 90
      643
 90
      644
 90
      645
 90
      646
 90
      647
 90
      648
 90
      649
 90
      650
 90
      651
 90
      652
 90
      653
 90
      654
 90
      655
 90
      656
 90
      657
 90
      658
 90
      659
 90
      660
 90
      661
 90
      662
 90
      663
 90
      664
 90
      665
 90
      666
 90
      667
 90
      668
 90
      669
 90
      670
 90
      671
 90
      672
 90
      673
 90
      674
 90
      675
 90
      676
 90
      677
 90
      678
 90
      679
 90
      680
 90
      681
 90
      682
 90
      683
 90
      684
 90
      685
 90
      686
 90
      687
 90
      688
 90
      689
 90
      690
 90
      691
 90
      692
 90
      693
 90
      694
 90
      695
 90
      696
 90
      697
 90
      698
 90
      699
 90
      700
 90
      701
 90
      702
 90
      703
 90
      704
 90
      705
 90
      706
 90
      707
 90
      708
 90
      709
 90
      710
 90
      711
 90
      712
 90
      713
 90
      714
 90
      715
 90
      716
 90
      717
 90
      718
 90
      719
 90
      720
 90
      721
 90
      722
 90
      723
 90
      724
 90
      725
 90
      726
 90
      727
 90
      728
 90
      729
 90
      730
 90
      731
 90
      732
 90
      733
 90
      734
 90
      735
 90
      736
 90
      737
 90
      738
 90
      739
 90
      740
 90
      741
 90
      742
 90
      743
 90
      744
 90
      745
 90
      746
 90
      747
 90
      748
 90
      749
 90
      750
 90
      751
 90
      752
 90
      753
 90
      754
 90
      755
 90
      756
 90
      757
 90
      758
 90
      759
 90
      760
 90
      761
 90
      762
 90
      763
 90
      764
 90
      765
 90
      766
 90
      767
 90
      768
 90
      769
 90
      770
 90
      771
 90
      772
 90
      773
 90
      774
 90
      775
 90
      776
 90
      777
 90
      778
 90
      779
 90
      780
 90
      781
 90
      782
 90
      783
 90
      784
 90
      785
 90
      786
 90
      787
 90
      788
 90
      789
 90
      790
 90
      791
 90
      792
 90
      793
 90
      794
 90
      795
 90
      796
 90
      797
 90
      798
 90
      799
 90
      800
 90
      801
 90
      802
 90
      803
 90
      804
 90
      805
 90
      806
 90
      807
 90
      808
 90
      809
 90
      810
 90
      811
 90
      812
 90
      813
 90
      814
 90
      815
 90
      816
 90
      817
 90
      818
 90
      819
 90
      820
 90
      821
 90
      822
 90
      823
 90
      824
 90
      825
 90
      826
 90
      827
 90
      828
 90
      829
 90
      830
 90
      831
 90
      832
 90
      833
 90
      834
 90
      835
 90
      836
 90
      837
 90
      838
 90
      839
 90
      840
 90
      841
 90
      842
 90
      843
 90
      844
 90
      845
 90
      846
 90
      847
 90
      848
 90
      849
 90
      850
 90
      851
 90
      852
 90
      853
 90
      854
 90
      855
 90
      856
 90
      857
 90
      858
 90
      859
 90
      860
 90
      861
 90
      862
 90
      863
 90
      864
 90
      865
 90
      866
 90
      867
 90
      868
 90
      869
 90
      870
 90
      871
 90
      872
 90
      873
 90
      874
 90
      875
 90
      876
 90
      877
 90
      878
 90
      879
 90
      880
 90
      881
 90
      882
 90
      883
 90
      884
 90
      885
 90
      886
 90
      887
 90
      888
 90
      889
 90
      890
 90
      891
 90
      892
 90
      893
 90
      894
 90
      895
 90
      896
 90
      897
 90
      898
 90
      899
 90
      900
 90
      901
 90
      902
 90
      903
 90
      904
 90
      905
 90
      906
 90
      907
 90
      908
 90
      909
 90
      910
 90
      911
 90
      912
 90
      913
 90
      914
 90
      915
 90
      916
 90
      917
 90
      918
 90
      919
 90
      920
 90
      921
 90
      922
 90
      923
 90
      924
 90
      925
 90
      926
 90
      927
 90
      928
 90
      929
 90
      930
 90
      931
 90
      932
 90
      933
 90
      934
 90
      935
 90
      936
 90
      937
 90
      938
 90
      939
 90
      940
 90
      941
 90
      942
 90
      943
 90
      944
 90
      945
 90
      946
 90
      947
 90
      948
 90
      949
 90
      950
 90
      951
 90
      952
 90
      953
 90
      954
 90
      955
 90
      956
 90
      957
 90
      958
 90
      959
 90
      960
 90
      961
 90
      962
 90
      963
 90
      964
 90
      965
 90
      966
 90
      967
 90
      968
 90
      969
 90
      970
 90
      971
 90
      972
 90
      973
 90
      974
 90
      975
 90
      976
 90
      977
 90
      978
 90
      979
 90
      980
 90
      981
 90
      982
 90
      983
 90
      984
 90
      985
 90
      986
 90
      987
 90
      988
 90
      989
 90
      990
 90
      991
 90
      992
 90
      993
 90
      994
 90
      995
 90
      996
 90
      997
 90
      998
 90
      999
 90
     1000
 90
     1001
 90
     1002
 90
     1003
 90
     1004
 90
     1005
 90
     1006
 90
     1007
 90
     1008
 90
     1009
 90
     1010
 90
     1011
 90
     1012
 90
     1013
 90
     1014
 90
     1015
 90
     1016
 90
     1017
 90
     1018
 90
     1019
 90
     1020
 90
     1021
 90
     1022
 90
     1023
 90
     1024
 90
     1025
 90
     1026
 90
     1027
 90
     1028
 90
     1029
 90
     1030
 90
     1031
 90
     1032
 90
     1033
 90
     1034
 90
     1035
 90
     1036
 90
     1037
 90
     1038
 90
     1039
 90
     1040
 90
     1041
 90
     1042
 90
     1043
 90
     1044
 90
     1045
 90
     1046
 90
     1047
 90
     1048
 90
     1049
 90
     1050
 90
     1051
 90
     1052
 90
     1053
 90
     1054
 90
     1055
 90
     1056
 90
     1057
 90
     1058
 90
     1059
 90
     1060
 90
     1061
 90
     1062
 90
     1063
 90
     1064
 90
     1065
 90
     1066
 90
     1067
 90
     1068
 90
     1069
 90
     1070
 90
     1071
 90
     1072
 90
     1073
 90
     1074
 90
     1075
 90
     1076
 90
     1077
 90
     1078
 90
     1079
 90
     1080
 90
     1081
 90
     1082
 90
     1083
 90
     1084
 90
     1085
 90
     1086
 90
     1087
 90
     1088
 90
     1089
 90
     1090
 90
     1091
 90
     1092
 90
     1093
 90
     1094
 90
     1095
 90
     1096
 90
     1097
 90
     1098
 90
     1099
 90
     1100
 90
     1101
 90
     1102
 90
     1103
 90
     1104
 90
     1105
 90
     1106
 90
     1107
 90
     1108
 90
     1109
 90
     1110
 90
     1111
 90
     1112
 90
     1113
 90
     1114
 90
     1115
 90
     1116
 90
     1117
 90
     1118
 90
     1119
 90
     1120
 90
     1121
 90
     1122
 90
     1123
 90
     1124
 90
     1125
 90
     1126
 90
     1127
 90
     1128
 90
     1129
 90
     1130
 90
     1131
 90
     1132
 90
     1133
 90
     1134
 90
     1135
 90
     1136
 90
     1137
 90
     1138
 90
     1139
 90
     1140
 90
     1141
 90
     1142
 90
     1143
 90
     1144
 90
     1145
 90
     1146
 90
     1147
 90
     1148
 90
     1149
 90
     1150
 90
     1151
 90
     1152
 90
     1153
 90
     1154
 90
     1155
 90
     1156
 90
     1157
 90
     1158
 90
     1159
 90
     1160
 90
     1161
 90
     1162
 90
     1163
 90
     1164
 90
     1165
 90
     1166
 90
     1167
 90
     1168
 90
     1169
 90
     1170
 90
     1171
 90
     1172
 90
     1173
 90
     1174
 90
     1175
 90
     1176
 90
     1177
 90
     1178
 90
     1179
 90
     1180
 90
     1181
 90
     1182
 90
     1183
 90
     1184
 90
     1185
 90
     1186
 90
     1187
 90
     1188
 90
     1189
 90
     1190
 90
     1191
 90
     1192
 90
     1193
 90
     1194
 90
     1195
 90
     1196
 90
     1197
 90
     1198
 90
     1199
 90
     1200
 90
     1201
 90
     1202
 90
     1203
 90
     1204
 90
     1205
 90
     1206
 90
     1207
 90
     1208
 90
     1209
 90
     1210
 90
     1211
 90
     1212
 90
     1213
 90
     1214
 90
     1215
 90
     1216
 90
     1217
 90
     1218
 90
     1219
 90
     1220
 90
     1221
 90
     1222
 90
     1223
 90
     1224
 90
     1225
 90
     1226
 90
     1227
 90
     1228
 90
     1229
 90
     1230
 90
     1231
 90
     1232
 90
     1233
 90
     1234
 90
     1235
 90
     1236
 90
     1237
 90
     1238
 90
     1239
 90
     1240
 90
     1241
 90
     1242
 90
     1243
 90
     1244
 90
     1245
 90
     1246
 90
     1247
 90
     1248
 90
     1249
 90
     1250
 90
     1251
 90
     1252
 90
     1253
 90
     1254
 90
     1255
 90
     1256
 90
     1257
 90
     1258
 90
     1259
 90
     1260
 90
        0
 90
        0
290
     0
  0
XRECORD
  5
1A5
102
{ACAD_REACTORS
330
C
102
}
330
C
100
AcDbXrecord
280
     1
300
ACD
300
2022
300

  0
DICTIONARY
  5
73
102
{ACAD_REACTORS
330
C
102
}
330
C
100
AcDbDictionary
281
     1
  0
DICTIONARY
  5
1AB
102
{ACAD_REACTORS
330
C
102
}
330
C
100
AcDbDictionary
281
     1
  3
Imperial24
350
1AC
  3
Metric50
350
224
  0
DICTIONARY
  5
D
102
{ACAD_REACTORS
330
C
102
}
330
C
100
AcDbDictionary
281
     1
  0
DICTIONARY
  5
1A
102
{ACAD_REACTORS
330
C
102
}
330
C
100
AcDbDictionary
281
     1
  3
Layout1
350
59
  3
Layout2
350
5E
  3
Model
350
22
  0
DICTIONARY
  5
72
102
{ACAD_REACTORS
330
C
102
}
330
C
100
AcDbDictionary
281
     1
  3
ByBlock
350
97
  3
ByLayer
350
96
  3
Global
350
98
  0
DICTIONARY
  5
D7
102
{ACAD_REACTORS
330
C
102
}
330
C
100
AcDbDictionary
281
     1
  3
Standard
350
D8
  0
DICTIONARY
  5
17
102
{ACAD_REACTORS
330
C
102
}
330
C
100
AcDbDictionary
281
     1
  3
Standard
350
18
  0
DICTIONARY
  5
19
102
{ACAD_REACTORS
330
C
102
}
330
C
100
AcDbDictionary
281
     1
  0
ACDBDICTIONARYWDFLT
  5
E
102
{ACAD_REACTORS
330
C
102
}
330
C
100
AcDbDictionary
281
     1
  3
Normal
350
F
100
AcDbDictionaryWithDefault
340
F
  0
DICTIONARY
  5
B6
102
{ACAD_REACTORS
330
C
102
}
330
C
100
AcDbDictionary
281
     1
  3
*A1
350
2283
  3
A0
350
B7
  3
A1
350
124
  3
A2
350
125
  3
A3
350
126
  3
A4
350
127
  3
A5
350
128
  3
A6
350
129
  3
A7
350
12A
  3
A8
350
12B
  3
A9
350
12C
  3
B0
350
12D
  3
B1
350
12E
  3
B2
350
12F
  3
B3
350
130
  3
B4
350
131
  3
B5
350
132
  3
B6
350
133
  3
B7
350
134
  3
B8
350
135
  3
B9
350
136
  3
C0
350
137
  3
C1
350
138
  3
C2
350
139
  3
C3
350
13A
  3
C4
350
13B
  3
C5
350
13C
  3
C6
350
13D
  3
C7
350
13E
  3
C8
350
13F
  3
C9
350
140
  3
D0
350
141
  3
D1
350
142
  3
D2
350
143
  0
DICTIONARY
  5
1A8
102
{ACAD_REACTORS
330
C
102
}
330
C
100
AcDbDictionary
281
     1
  3
Imperial24
350
1AA
  3
Metric50
350
223
  0
DICTIONARY
  5
86
102
{ACAD_REACTORS
330
C
102
}
330
C
100
AcDbDictionary
281
     1
  3
Standard
350
87
  0
DICTIONARY
  5
99
102
{ACAD_REACTORS
330
C
102
}
330
C
100
AcDbDictionary
281
     1
  3
2dWireframe
350
9F
  3
3dWireframe
350
22946
  3
Basic
350
9E
  3
Brighten
350
A5
  3
ColorChange
350
A9
  3
Conceptual
350
A2
  3
Dim
350
A4
  3
EdgeColorOff
350
175
  3
Facepattern
350
A8
  3
Flat
350
9A
  3
FlatWithEdges
350
9B
  3
Gouraud
350
9C
  3
GouraudWithEdges
350
9D
  3
Hidden
350
A1
  3
JitterOff
350
173
  3
Linepattern
350
A7
  3
OverhangOff
350
174
  3
Realistic
350
A3
  3
Shaded
350
182
  3
Shaded with edges
350
181
  3
Shades of Gray
350
17E
  3
Sketchy
350
17F
  3
Thicken
350
A6
  3
Wireframe
350
A0
  3
X-Ray
350
180
  0
XRECORD
  5
6FAB8
102
{ACAD_REACTORS
330
C
102
}
330
C
100
AcDbXrecord
280
     1
 90
        1
330
87
  0
DICTIONARY
  5
4A0D5
102
{ACAD_REACTORS
330
C
102
}
330
C
100
AcDbDictionary
281
     2
  3
#COMPAREDIFFTOTAL
350
4A0D6
  3
#REVCLOUDAPPROXARCLEN
350
4A0D7
  3
ANNOALLVISIBLE
350
4A0D8
  3
CANNOSCALE
350
4A0D9
  3
CMLEADERSTYLE
350
4A0DA
  3
CTABLESTYLE
350
4A0DB
  3
CVIEWDETAILSTYLE
350
4A0DC
  3
CVIEWSECTIONSTYLE
350
4A0DD
  3
DIMADEC
350
4A0DE
  3
DIMASSOC
350
4A0DF
  3
DWFFRAME
350
4A0E0
  3
HIDETEXT
350
4A0E1
  3
HPCOLOR
350
4A0E2
  3
HPLAYER
350
4A0E3
  3
HPTRANSPARENCY
350
4A0E4
  3
INDEXCTL
350
4A0E5
  3
LAYEREVAL
350
4A0E6
  3
LAYERNOTIFY
350
4A0E7
  3
LIGHTINGUNITS
350
4A0E8
  3
MLEADERSCALE
350
4A0E9
  3
MSLTSCALE
350
4A0EA
  3
MSOLESCALE
350
4A0EB
  3
PDFFRAME
350
4A0EC
  3
POINTCLOUDCLIPFRAME
350
4A0ED
  3
PROJECTNAME
350
4A0EE
  3
SOLIDHIST
350
4A0EF
  3
SORTENTS
350
4A0F0
  0
DICTIONARY
  5
22D1
102
{ACAD_REACTORS
330
C
102
}
330
C
100
AcDbDictionary
281
     1
  0
DICTIONARY
  5
18F
102
{ACAD_REACTORS
330
18E
102
}
330
18E
100
AcDbDictionary
281
     1
  0
SORTENTSTABLE
  5
28E
102
{ACAD_REACTORS
330
15D
102
}
330
15D
100
AcDbSortentsTable
330
1F
  0
ACDBDETAILVIEWSTYLE
  5
1AC
102
{ACAD_REACTORS
330
1AB
102
}
330
1AB
100
AcDbModelDocViewStyle
 70
     0
  3
Imperial24
290
     0
300
Imperial24
 90
        0
100
AcDbDetailViewStyle
 70
     0
 71
     0
 90
        3
 71
     1
340
11
 62
   256
 40
0.24
340
0
 62
   256
 40
0.24
300

 40
0.36
280
     3
 71
     2
340
16
 90
       25
 62
   256
 71
     3
340
11
 62
   256
 40
0.24
 90
        1
 40
0.75
 90
        1
300
%<\AcVar ViewType \f "%tc1">% %<\AcVar ViewDetailId>%\PSCALE %<\AcVar ViewScale \f "%sn">%
 71
     4
340
16
 90
       25
 62
   256
340
16
 90
       25
 62
   256
280
     0
  0
ACDBDETAILVIEWSTYLE
  5
224
102
{ACAD_REACTORS
330
1AB
102
}
330
1AB
100
AcDbModelDocViewStyle
 70
     0
  3
Metric50
290
     0
300
Metric50
 90
        0
100
AcDbDetailViewStyle
 70
     0
 71
     0
 90
        3
 71
     1
340
11
 62
   256
 40
5.0
340
0
 62
   256
 40
5.0
300

 40
0.0
280
     1
 71
     2
340
16
 90
       25
 62
   256
 71
     3
340
11
 62
   256
 40
5.0
 90
        0
 40
15.0
 90
        1
300
%<\AcVar ViewDetailId>% (%<\AcVar ViewScale \f "%sn">%)
 71
     4
340
16
 90
       25
 62
   256
340
16
 90
       25
 62
   256
280
     0
  0
LAYOUT
  5
59
102
{ACAD_REACTORS
330
1A
102
}
330
1A
100
AcDbPlotSettings
  1

  2
None
  4

  6

 40
0.0
 41
0.0
 42
0.0
 43
0.0
 44
0.0
 45
0.0
 46
0.0
 47
0.0
 48
0.0
 49
0.0
140
0.0
141
0.0
142
1.0
143
1.0
 70
   688
 72
     0
 73
     0
 74
     5
  7

 75
    16
147
1.0
 76
     0
 77
     2
 78
   300
148
0.0
149
0.0
100
AcDbLayout
  1
Layout1
 70
     1
 71
     1
 10
0.0
 20
0.0
 11
12.0
 21
9.0
 12
0.0
 22
0.0
 32
0.0
 14
0.0
 24
0.0
 34
0.0
 15
0.0
 25
0.0
 35
0.0
146
0.0
 13
0.0
 23
0.0
 33
0.0
 16
1.0
 26
0.0
 36
0.0
 17
0.0
 27
1.0
 37
0.0
 76
     0
330
58
  0
LAYOUT
  5
5E
102
{ACAD_REACTORS
330
1A
102
}
330
1A
100
AcDbPlotSettings
  1

  2
None
  4

  6

 40
0.0
 41
0.0
 42
0.0
 43
0.0
 44
0.0
 45
0.0
 46
0.0
 47
0.0
 48
0.0
 49
0.0
140
0.0
141
0.0
142
1.0
143
1.0
 70
   688
 72
     0
 73
     0
 74
     5
  7

 75
    16
147
1.0
 76
     0
 77
     2
 78
   300
148
0.0
149
0.0
100
AcDbLayout
  1
Layout2
 70
     1
 71
     2
 10
0.0
 20
0.0
 11
12.0
 21
9.0
 12
0.0
 22
0.0
 32
0.0
 14
0.0
 24
0.0
 34
0.0
 15
0.0
 25
0.0
 35
0.0
146
0.0
 13
0.0
 23
0.0
 33
0.0
 16
1.0
 26
0.0
 36
0.0
 17
0.0
 27
1.0
 37
0.0
 76
     0
330
5D
  0
LAYOUT
  5
22
102
{ACAD_XDICTIONARY
360
194
102
}
102
{ACAD_REACTORS
330
1A
102
}
330
1A
100
AcDbPlotSettings
  1

  2
none_device
  4
ANSI_A_(8.50_x_11.00_Inches)
  6

 40
6.349999904632568
 41
19.04999923706055
 42
6.350006103515625
 43
19.04998779296875
 44
215.8999938964844
 45
279.3999938964844
 46
0.0
 47
0.0
 48
0.0
 49
0.0
140
0.0
141
0.0
142
1.0
143
2.584895464708373
 70
 11952
 72
     0
 73
     1
 74
     0
  7

 75
     0
147
0.3868628397755418
 76
     0
 77
     2
 78
   300
148
0.0
149
0.0
100
AcDbLayout
  1
Model
 70
     1
 71
     0
 10
0.0
 20
0.0
 11
12.0
 21
9.0
 12
0.0
 22
0.0
 32
0.0
 14
0.0
 24
0.0
 34
0.0
 15
0.0
 25
0.0
 35
0.0
146
0.0
 13
0.0
 23
0.0
 33
0.0
 16
1.0
 26
0.0
 36
0.0
 17
0.0
 27
1.0
 37
0.0
 76
     0
330
1F
331
94
  0
MATERIAL
  5
97
102
{ACAD_XDICTIONARY
360
188
102
}
102
{ACAD_REACTORS
330
72
102
}
330
72
100
AcDbMaterial
  1
ByBlock
 94
       63
  0
MATERIAL
  5
96
102
{ACAD_XDICTIONARY
360
186
102
}
102
{ACAD_REACTORS
330
72
102
}
330
72
100
AcDbMaterial
  1
ByLayer
 94
       63
  0
MATERIAL
  5
98
102
{ACAD_XDICTIONARY
360
110
102
}
102
{ACAD_REACTORS
330
72
102
}
330
72
100
AcDbMaterial
  1
Global
 43
0.0208000000566244
 43
0.0
 43
0.0
 43
0.0
 43
0.0
 43
0.0208000000566244
 43
0.0
 43
0.0
 43
0.0
 43
0.0
 43
1.0
 43
0.0
 43
0.0
 43
0.0
 43
0.0
 43
1.0
 49
0.0208000000566244
 49
0.0
 49
0.0
 49
0.0
 49
0.0
 49
0.0208000000566244
 49
0.0
 49
0.0
 49
0.0
 49
0.0
 49
1.0
 49
0.0
 49
0.0
 49
0.0
 49
0.0
 49
1.0
142
0.0208000000566244
142
0.0
142
0.0
142
0.0
142
0.0
142
0.0208000000566244
142
0.0
142
0.0
142
0.0
142
0.0
142
1.0
142
0.0
142
0.0
142
0.0
142
0.0
142
1.0
144
0.0208000000566244
144
0.0
144
0.0
144
0.0
144
0.0
144
0.0208000000566244
144
0.0
144
0.0
144
0.0
144
0.0
144
1.0
144
0.0
144
0.0
144
0.0
144
0.0
144
1.0
 94
       63
1001
ACAD
1070
    -1
1070
     3
1070
     0
1000

1071
        0
1070
     0
  0
MLEADERSTYLE
  5
D8
102
{ACAD_REACTORS
330
D7
102
}
330
D7
100
AcDbMLeaderStyle
179
     2
170
     2
171
     1
172
     0
 90
        2
 40
0.0
 41
0.0
173
     1
 91
-1056964608
340
14
 92
       -2
290
     1
 42
0.09
291
     1
 43
0.36
  3
Standard
 44
0.18
300

342
11
174
     1
178
     1
175
     1
176
     0
 93
-1056964608
 45
0.18
292
     0
297
     0
 46
0.18
 94
-1056964608
 47
1.0
 49
1.0
140
1.0
293
     1
141
0.0
294
     1
177
     0
142
1.0
295
     0
296
     0
143
0.125
271
     0
272
     9
273
     9
298
     0
  0
MLINESTYLE
  5
18
102
{ACAD_REACTORS
330
17
102
}
330
17
100
AcDbMlineStyle
  2
STANDARD
 70
     0
  3

 62
   256
 51
90.0
 52
90.0
 71
     2
 49
0.5
 62
   256
  6
BYLAYER
 49
-0.5
 62
   256
  6
BYLAYER
  0
ACDBPLACEHOLDER
  5
F
102
{ACAD_REACTORS
330
E
102
}
330
E
  0
SCALE
  5
2283
102
{ACAD_REACTORS
330
B6
102
}
330
B6
100
AcDbScale
 70
     0
300
1:75
140
1.0
141
75.0
290
     0
  0
SCALE
  5
B7
102
{ACAD_REACTORS
330
B6
102
}
330
B6
100
AcDbScale
 70
     0
300
1:1
140
1.0
141
1.0
290
     1
  0
SCALE
  5
124
102
{ACAD_REACTORS
330
B6
102
}
330
B6
100
AcDbScale
 70
     0
300
1:2
140
1.0
141
2.0
290
     0
  0
SCALE
  5
125
102
{ACAD_REACTORS
330
B6
102
}
330
B6
100
AcDbScale
 70
     0
300
1:4
140
1.0
141
4.0
290
     0
  0
SCALE
  5
126
102
{ACAD_REACTORS
330
B6
102
}
330
B6
100
AcDbScale
 70
     0
300
1:5
140
1.0
141
5.0
290
     0
  0
SCALE
  5
127
102
{ACAD_REACTORS
330
B6
102
}
330
B6
100
AcDbScale
 70
     0
300
1:8
140
1.0
141
8.0
290
     0
  0
SCALE
  5
128
102
{ACAD_REACTORS
330
B6
102
}
330
B6
100
AcDbScale
 70
     0
300
1:10
140
1.0
141
10.0
290
     0
  0
SCALE
  5
129
102
{ACAD_REACTORS
330
B6
102
}
330
B6
100
AcDbScale
 70
     0
300
1:16
140
1.0
141
16.0
290
     0
  0
SCALE
  5
12A
102
{ACAD_REACTORS
330
B6
102
}
330
B6
100
AcDbScale
 70
     0
300
1:20
140
1.0
141
20.0
290
     0
  0
SCALE
  5
12B
102
{ACAD_REACTORS
330
B6
102
}
330
B6
100
AcDbScale
 70
     0
300
1:30
140
1.0
141
30.0
290
     0
  0
SCALE
  5
12C
102
{ACAD_REACTORS
330
B6
102
}
330
B6
100
AcDbScale
 70
     0
300
1:40
140
1.0
141
40.0
290
     0
  0
SCALE
  5
12D
102
{ACAD_REACTORS
330
B6
102
}
330
B6
100
AcDbScale
 70
     0
300
1:50
140
1.0
141
50.0
290
     0
  0
SCALE
  5
12E
102
{ACAD_REACTORS
330
B6
102
}
330
B6
100
AcDbScale
 70
     0
300
1:100
140
1.0
141
100.0
290
     0
  0
SCALE
  5
12F
102
{ACAD_REACTORS
330
B6
102
}
330
B6
100
AcDbScale
 70
     0
300
2:1
140
2.0
141
1.0
290
     0
  0
SCALE
  5
130
102
{ACAD_REACTORS
330
B6
102
}
330
B6
100
AcDbScale
 70
     0
300
4:1
140
4.0
141
1.0
290
     0
  0
SCALE
  5
131
102
{ACAD_REACTORS
330
B6
102
}
330
B6
100
AcDbScale
 70
     0
300
8:1
140
8.0
141
1.0
290
     0
  0
SCALE
  5
132
102
{ACAD_REACTORS
330
B6
102
}
330
B6
100
AcDbScale
 70
     0
300
10:1
140
10.0
141
1.0
290
     0
  0
SCALE
  5
133
102
{ACAD_REACTORS
330
B6
102
}
330
B6
100
AcDbScale
 70
     0
300
100:1
140
100.0
141
1.0
290
     0
  0
SCALE
  5
134
102
{ACAD_REACTORS
330
B6
102
}
330
B6
100
AcDbScale
 70
     0
300
1/128" = 1'-0"
140
0.0078125
141
12.0
290
     0
  0
SCALE
  5
135
102
{ACAD_REACTORS
330
B6
102
}
330
B6
100
AcDbScale
 70
     0
300
1/64" = 1'-0"
140
0.015625
141
12.0
290
     0
  0
SCALE
  5
136
102
{ACAD_REACTORS
330
B6
102
}
330
B6
100
AcDbScale
 70
     0
300
1/32" = 1'-0"
140
0.03125
141
12.0
290
     0
  0
SCALE
  5
137
102
{ACAD_REACTORS
330
B6
102
}
330
B6
100
AcDbScale
 70
     0
300
1/16" = 1'-0"
140
0.0625
141
12.0
290
     0
  0
SCALE
  5
138
102
{ACAD_REACTORS
330
B6
102
}
330
B6
100
AcDbScale
 70
     0
300
3/32" = 1'-0"
140
0.09375
141
12.0
290
     0
  0
SCALE
  5
139
102
{ACAD_REACTORS
330
B6
102
}
330
B6
100
AcDbScale
 70
     0
300
1/8" = 1'-0"
140
0.125
141
12.0
290
     0
  0
SCALE
  5
13A
102
{ACAD_REACTORS
330
B6
102
}
330
B6
100
AcDbScale
 70
     0
300
3/16" = 1'-0"
140
0.1875
141
12.0
290
     0
  0
SCALE
  5
13B
102
{ACAD_REACTORS
330
B6
102
}
330
B6
100
AcDbScale
 70
     0
300
1/4" = 1'-0"
140
0.25
141
12.0
290
     0
  0
SCALE
  5
13C
102
{ACAD_REACTORS
330
B6
102
}
330
B6
100
AcDbScale
 70
     0
300
3/8" = 1'-0"
140
0.375
141
12.0
290
     0
  0
SCALE
  5
13D
102
{ACAD_REACTORS
330
B6
102
}
330
B6
100
AcDbScale
 70
     0
300
1/2" = 1'-0"
140
0.5
141
12.0
290
     0
  0
SCALE
  5
13E
102
{ACAD_REACTORS
330
B6
102
}
330
B6
100
AcDbScale
 70
     0
300
3/4" = 1'-0"
140
0.75
141
12.0
290
     0
  0
SCALE
  5
13F
102
{ACAD_REACTORS
330
B6
102
}
330
B6
100
AcDbScale
 70
     0
300
1" = 1'-0"
140
1.0
141
12.0
290
     0
  0
SCALE
  5
140
102
{ACAD_REACTORS
330
B6
102
}
330
B6
100
AcDbScale
 70
     0
300
1-1/2" = 1'-0"
140
1.5
141
12.0
290
     0
  0
SCALE
  5
141
102
{ACAD_REACTORS
330
B6
102
}
330
B6
100
AcDbScale
 70
     0
300
3" = 1'-0"
140
3.0
141
12.0
290
     0
  0
SCALE
  5
142
102
{ACAD_REACTORS
330
B6
102
}
330
B6
100
AcDbScale
 70
     0
300
6" = 1'-0"
140
6.0
141
12.0
290
     0
  0
SCALE
  5
143
102
{ACAD_REACTORS
330
B6
102
}
330
B6
100
AcDbScale
 70
     0
300
1'-0" = 1'-0"
140
12.0
141
12.0
290
     0
  0
ACDBSECTIONVIEWSTYLE
  5
1AA
102
{ACAD_REACTORS
330
1A8
102
}
330
1A8
100
AcDbModelDocViewStyle
 70
     0
  3
Imperial24
290
     0
300
Imperial24
 90
        0
100
AcDbSectionViewStyle
 70
     0
 71
     0
 90
       78
 71
     1
340
11
 62
   256
 40
0.24
340
0
340
0
 62
   256
 40
0.24
300
I, O, Q, S, X, Z
 40
0.48
 90
        3
 40
0.18
 90
        1
 71
     2
340
16
 90
       25
 62
   256
340
16
 90
       50
 62
   256
 40
0.24
 40
0.0
 40
0.24
 71
     3
340
11
 62
   256
 40
0.24
 90
        1
 40
0.75
 90
        1
300
%<\AcVar ViewType \f "%tc1">% %<\AcVar ViewSectionStartId>%-%<\AcVar ViewSectionEndId>%\PSCALE %<\AcVar ViewScale \f "%sn">%
 71
     4
 62
   256
 62
   257
300
ANSI31
 40
1.0
 90
        0
290
     0
290
     0
 90
        6
 40
0.0
 40
1.570796326794896
 40
0.2617993877991494
 40
1.308996938995747
 40
-0.2617993877991494
 40
1.832595714594046
  0
ACDBSECTIONVIEWSTYLE
  5
223
102
{ACAD_REACTORS
330
1A8
102
}
330
1A8
100
AcDbModelDocViewStyle
 70
     0
  3
Metric50
290
     0
300
Metric50
 90
        0
100
AcDbSectionViewStyle
 70
     0
 71
     0
 90
      102
 71
     1
340
11
 62
   256
 40
5.0
340
0
340
0
 62
   256
 40
5.0
300
I, O, Q, S, X, Z
 40
10.0
 90
        0
 40
2.5
 90
        0
 71
     2
340
16
 90
       25
 62
   256
340
16
 90
       50
 62
   256
 40
5.0
 40
2.5
 40
5.0
 71
     3
340
11
 62
   256
 40
5.0
 90
        0
 40
15.0
 90
        1
300
%<\AcVar ViewSectionStartId>%-%<\AcVar ViewSectionEndId>% (%<\AcVar ViewScale \f "%sn">%)
 71
     4
 62
   256
 62
   257
300
ANSI31
 40
1.0
 90
        0
290
     0
290
     0
 90
        6
 40
0.0
 40
1.570796326794896
 40
0.2617993877991494
 40
1.308996938995747
 40
-0.2617993877991494
 40
1.832595714594046
  0
TABLESTYLE
  5
87
102
{ACAD_XDICTIONARY
360
104
102
}
102
{ACAD_REACTORS
330
86
102
}
330
86
100
AcDbTableStyle
280
     0
  3
Standard
 70
     0
 71
     0
 40
0.06
 41
0.06
280
     0
281
     0
  7
Standard
140
0.18
170
     2
 62
     0
 63
     7
283
     0
 90
      512
 91
        0
  1

274
    -2
284
     1
 64
     0
275
    -2
285
     1
 65
     0
276
    -2
286
     1
 66
     0
277
    -2
287
     1
 67
     0
278
    -2
288
     1
 68
     0
279
    -2
289
     1
 69
     0
  7
Standard
140
0.25
170
     5
 62
     0
 63
     7
283
     0
 90
      512
 91
        0
  1

274
    -2
284
     1
 64
     0
275
    -2
285
     1
 65
     0
276
    -2
286
     1
 66
     0
277
    -2
287
     1
 67
     0
278
    -2
288
     1
 68
     0
279
    -2
289
     1
 69
     0
  7
Standard
140
0.18
170
     5
 62
     0
 63
     7
283
     0
 90
      512
 91
        0
  1

274
    -2
284
     1
 64
     0
275
    -2
285
     1
 65
     0
276
    -2
286
     1
 66
     0
277
    -2
287
     1
 67
     0
278
    -2
288
     1
 68
     0
279
    -2
289
     1
 69
     0
  0
VISUALSTYLE
  5
9F
102
{ACAD_REACTORS
330
99
102
}
330
99
100
AcDbVisualStyle
  2
2dWireframe
 70
     4
177
     3
291
     0
 70
    58
 90
        0
176
     1
 90
        2
176
     1
 90
        1
176
     1
 90
        0
176
     1
 40
0.6
176
     1
 40
30.0
176
     1
 62
     7
420
 16777215
176
     1
 90
        1
176
     1
 90
        4
176
     1
 62
     7
176
     1
 62
   257
176
     1
 90
        1
176
     1
 90
        1
176
     1
 40
1.0
176
     1
 90
        0
176
     1
 62
   257
176
     1
 40
1.0
176
     1
 90
        1
176
     1
 90
        6
176
     1
 90
        2
176
     1
 62
     7
176
     1
 90
        5
176
     1
 90
        0
176
     1
 90
        0
176
     1
290
     0
176
     1
 90
        1
176
     1
 40
0.0
176
     1
 90
        0
176
     1
290
     1
176
     1
290
     1
176
     1
290
     0
176
     1
290
     0
176
     1
290
     0
176
     1
290
     0
176
     1
290
     0
176
     1
290
     0
176
     1
290
     0
176
     1
 90
       50
176
     1
 40
0.0
176
     1
 40
1.0
176
     1
 90
        0
176
     1
 62
    18
420
        0
176
     1
 90
       50
176
     1
 90
        3
176
     1
 62
     5
420
      255
176
     1
290
     0
176
     1
 90
       50
176
     1
 90
       50
176
     1
 90
       50
176
     1
290
     0
176
     1
 90
       50
176
     1
 62
   256
176
     0
 40
1.0
176
     0
 90
        2
176
     1
  1
strokes_ogs.tif
176
     1
290
     0
176
     1
 40
1.0
176
     1
 40
1.0
176
     1
  0
VISUALSTYLE
  5
22946
102
{ACAD_REACTORS
330
99
102
}
330
99
100
AcDbVisualStyle
  2
3dWireframe
 70
     5
177
     3
291
     0
 70
    58
 90
        0
176
     1
 90
        2
176
     1
 90
        0
176
     1
 90
        0
176
     1
 40
0.6
176
     1
 40
30.0
176
     1
 62
     7
176
     1
 90
        1
176
     1
 90
        4
176
     1
 62
     7
176
     1
 62
   257
176
     1
 90
        1
176
     1
 90
        1
176
     1
 40
1.0
176
     1
 90
        0
176
     1
 62
   257
176
     1
 40
1.0
176
     1
 90
        1
176
     1
 90
        6
176
     1
 90
        2
176
     1
 62
     7
176
     1
 90
        5
176
     1
 90
        0
176
     1
 90
        0
176
     1
290
     0
176
     1
 90
        1
176
     1
 40
0.0
176
     1
 90
        0
176
     1
290
     0
176
     1
290
     1
176
     1
290
     1
176
     1
290
     0
176
     1
290
     0
176
     1
290
     0
176
     1
290
     0
176
     1
290
     0
176
     1
290
     0
176
     1
 90
       50
176
     1
 40
0.0
176
     1
 40
1.0
176
     1
 90
        0
176
     1
 62
    18
420
        0
176
     1
 90
       50
176
     1
 90
        3
176
     1
 62
     5
420
      255
176
     1
290
     0
176
     1
 90
       50
176
     1
 90
       50
176
     1
 90
       50
176
     1
290
     0
176
     1
 90
       50
176
     1
 62
   256
176
     0
 40
1.0
176
     0
 90
        2
176
     1
  1
strokes_ogs.tif
176
     1
290
     0
176
     1
 40
1.0
176
     1
 40
1.0
176
     1
  0
VISUALSTYLE
  5
9E
102
{ACAD_REACTORS
330
99
102
}
330
99
100
AcDbVisualStyle
  2
Basic
 70
     7
177
     3
291
     1
 70
    58
 90
        1
176
     1
 90
        0
176
     1
 90
        1
176
     1
 90
        0
176
     1
 40
0.6
176
     1
 40
30.0
176
     1
 62
     7
420
 16777215
176
     1
 90
        0
176
     1
 90
        4
176
     1
 62
     7
176
     1
 62
   257
176
     1
 90
        1
176
     1
 90
        1
176
     1
 40
1.0
176
     1
 90
        8
176
     1
 62
     7
176
     1
 40
1.0
176
     1
 90
        1
176
     1
 90
        6
176
     1
 90
        2
176
     1
 62
     7
176
     1
 90
        5
176
     1
 90
        0
176
     1
 90
        0
176
     1
290
     0
176
     1
 90
        1
176
     1
 40
0.0
176
     1
 90
        0
176
     1
290
     0
176
     1
290
     1
176
     1
290
     1
176
     1
290
     0
176
     1
290
     0
176
     1
290
     0
176
     1
290
     0
176
     1
290
     0
176
     1
290
     0
176
     1
 90
       50
176
     1
 40
0.0
176
     1
 40
1.0
176
     1
 90
        0
176
     1
 62
    18
420
        0
176
     1
 90
       50
176
     1
 90
        3
176
     1
 62
     5
420
      255
176
     1
290
     0
176
     1
 90
       50
176
     1
 90
       50
176
     1
 90
       50
176
     1
290
     0
176
     1
 90
       50
176
     1
 62
   256
176
     0
 40
1.0
176
     0
 90
        2
176
     1
  1
strokes_ogs.tif
176
     1
290
     0
176
     1
 40
1.0
176
     1
 40
1.0
176
     1
  0
VISUALSTYLE
  5
A5
102
{ACAD_REACTORS
330
99
102
}
330
99
100
AcDbVisualStyle
  2
Brighten
 70
    12
177
     3
291
     1
 70
    58
 90
        2
176
     1
 90
        2
176
     1
 90
        1
176
     1
 90
        0
176
     1
 40
0.6
176
     1
 40
30.0
176
     1
 62
     7
420
 16777215
176
     1
 90
        1
176
     1
 90
        4
176
     1
 62
     7
176
     1
 62
   257
176
     1
 90
        1
176
     1
 90
        1
176
     1
 40
1.0
176
     1
 90
        8
176
     1
 62
     7
176
     1
 40
1.0
176
     1
 90
        1
176
     1
 90
        6
176
     1
 90
        2
176
     1
 62
     7
176
     1
 90
        5
176
     1
 90
        0
176
     1
 90
        0
176
     1
290
     0
176
     1
 90
        1
176
     1
 40
50.0
176
     1
 90
        0
176
     1
290
     0
176
     1
290
     1
176
     1
290
     1
176
     1
290
     0
176
     1
290
     0
176
     1
290
     0
176
     1
290
     0
176
     1
290
     0
176
     1
290
     0
176
     1
 90
       50
176
     1
 40
0.0
176
     1
 40
1.0
176
     1
 90
        0
176
     1
 62
    18
420
        0
176
     1
 90
       50
176
     1
 90
        3
176
     1
 62
     5
420
      255
176
     1
290
     0
176
     1
 90
       50
176
     1
 90
       50
176
     1
 90
       50
176
     1
290
     0
176
     1
 90
       50
176
     1
 62
   256
176
     0
 40
1.0
176
     0
 90
        2
176
     1
  1
strokes_ogs.tif
176
     1
290
     0
176
     1
 40
1.0
176
     1
 40
1.0
176
     1
  0
VISUALSTYLE
  5
A9
102
{ACAD_REACTORS
330
99
102
}
330
99
100
AcDbVisualStyle
  2
ColorChange
 70
    16
177
     3
291
     1
 70
    58
 90
        2
176
     1
 90
        2
176
     1
 90
        3
176
     1
 90
        0
176
     1
 40
0.6
176
     1
 40
30.0
176
     1
 62
     8
420
  8421504
176
     1
 90
        1
176
     1
 90
        4
176
     1
 62
     7
176
     1
 62
   257
176
     1
 90
        1
176
     1
 90
        1
176
     1
 40
1.0
176
     1
 90
        8
176
     1
 62
     8
420
  8421504
176
     1
 40
1.0
176
     1
 90
        1
176
     1
 90
        6
176
     1
 90
        2
176
     1
 62
     7
176
     1
 90
        5
176
     1
 90
        0
176
     1
 90
        0
176
     1
290
     0
176
     1
 90
        1
176
     1
 40
0.0
176
     1
 90
        0
176
     1
290
     0
176
     1
290
     1
176
     1
290
     1
176
     1
290
     0
176
     1
290
     0
176
     1
290
     0
176
     1
290
     0
176
     1
290
     0
176
     1
290
     0
176
     1
 90
       50
176
     1
 40
0.0
176
     1
 40
1.0
176
     1
 90
        0
176
     1
 62
    18
420
        0
176
     1
 90
       50
176
     1
 90
        3
176
     1
 62
     5
420
      255
176
     1
290
     0
176
     1
 90
       50
176
     1
 90
       50
176
     1
 90
       50
176
     1
290
     0
176
     1
 90
       50
176
     1
 62
   256
176
     0
 40
1.0
176
     0
 90
        2
176
     1
  1
strokes_ogs.tif
176
     1
290
     0
176
     1
 40
1.0
176
     1
 40
1.0
176
     1
  0
VISUALSTYLE
  5
A2
102
{ACAD_REACTORS
330
99
102
}
330
99
100
AcDbVisualStyle
  2
Conceptual
 70
     9
177
     3
291
     0
 70
    58
 90
        3
176
     1
 90
        2
176
     1
 90
        1
176
     1
 90
        0
176
     1
 40
0.6
176
     1
 40
30.0
176
     1
 62
     7
420
 16777215
176
     1
 90
        2
176
     1
 90
        2
176
     1
 62
     7
176
     1
 62
   257
176
     1
 90
        1
176
     1
 90
        1
176
     1
 40
40.0
176
     1
 90
        8
176
     1
 62
     7
176
     1
 40
1.0
176
     1
 90
        1
176
     1
 90
        6
176
     1
 90
        2
176
     1
 62
     7
176
     1
 90
        3
176
     1
 90
        0
176
     1
 90
        0
176
     1
290
     0
176
     1
 90
        1
176
     1
 40
0.0
176
     1
 90
        0
176
     1
290
     0
176
     1
290
     1
176
     1
290
     1
176
     1
290
     0
176
     1
290
     0
176
     1
290
     0
176
     1
290
     0
176
     1
290
     0
176
     1
290
     0
176
     1
 90
       50
176
     1
 40
0.0
176
     1
 40
1.0
176
     1
 90
        0
176
     1
 62
    18
420
        0
176
     1
 90
       50
176
     1
 90
        3
176
     1
 62
     5
420
      255
176
     1
290
     0
176
     1
 90
       50
176
     1
 90
       50
176
     1
 90
       50
176
     1
290
     0
176
     1
 90
       50
176
     1
 62
   256
176
     0
 40
1.0
176
     0
 90
        2
176
     1
  1
strokes_ogs.tif
176
     1
290
     0
176
     1
 40
1.0
176
     1
 40
1.0
176
     1
  0
VISUALSTYLE
  5
A4
102
{ACAD_REACTORS
330
99
102
}
330
99
100
AcDbVisualStyle
  2
Dim
 70
    11
177
     3
291
     1
 70
    58
 90
        2
176
     1
 90
        2
176
     1
 90
        1
176
     1
 90
        0
176
     1
 40
0.6
176
     1
 40
30.0
176
     1
 62
     7
420
 16777215
176
     1
 90
        1
176
     1
 90
        4
176
     1
 62
     7
176
     1
 62
   257
176
     1
 90
        1
176
     1
 90
        1
176
     1
 40
1.0
176
     1
 90
        8
176
     1
 62
     7
176
     1
 40
1.0
176
     1
 90
        1
176
     1
 90
        6
176
     1
 90
        2
176
     1
 62
     7
176
     1
 90
        5
176
     1
 90
        0
176
     1
 90
        0
176
     1
290
     0
176
     1
 90
        1
176
     1
 40
-50.0
176
     1
 90
        0
176
     1
290
     0
176
     1
290
     1
176
     1
290
     1
176
     1
290
     0
176
     1
290
     0
176
     1
290
     0
176
     1
290
     0
176
     1
290
     0
176
     1
290
     0
176
     1
 90
       50
176
     1
 40
0.0
176
     1
 40
1.0
176
     1
 90
        0
176
     1
 62
    18
420
        0
176
     1
 90
       50
176
     1
 90
        3
176
     1
 62
     5
420
      255
176
     1
290
     0
176
     1
 90
       50
176
     1
 90
       50
176
     1
 90
       50
176
     1
290
     0
176
     1
 90
       50
176
     1
 62
   256
176
     0
 40
1.0
176
     0
 90
        2
176
     1
  1
strokes_ogs.tif
176
     1
290
     0
176
     1
 40
1.0
176
     1
 40
1.0
176
     1
  0
VISUALSTYLE
  5
175
102
{ACAD_REACTORS
330
99
102
}
330
99
100
AcDbVisualStyle
  2
EdgeColorOff
 70
    22
177
     3
291
     1
 70
    58
 90
        2
176
     0
 90
        2
176
     0
 90
        0
176
     0
 90
        0
176
     0
 40
0.6
176
     0
 40
30.0
176
     0
 62
     7
420
 16777215
176
     0
 90
        1
176
     0
 90
        4
176
     0
 62
     7
176
     0
 62
   257
176
     0
 90
        1
176
     0
 90
        1
176
     0
 40
1.0
176
     0
 90
        8
176
     2
 62
     7
176
     0
 40
1.0
176
     0
 90
        1
176
     0
 90
        6
176
     0
 90
        2
176
     0
 62
     7
176
     0
 90
        5
176
     0
 90
        0
176
     0
 90
        0
176
     0
290
     0
176
     0
 90
        1
176
     0
 40
0.0
176
     0
 90
        0
176
     0
290
     0
176
     1
290
     1
176
     1
290
     1
176
     1
290
     0
176
     1
290
     0
176
     1
290
     0
176
     1
290
     0
176
     1
290
     0
176
     1
290
     0
176
     1
 90
       50
176
     1
 40
0.0
176
     1
 40
1.0
176
     1
 90
        0
176
     1
 62
    18
420
        0
176
     1
 90
       50
176
     1
 90
        3
176
     1
 62
     5
420
      255
176
     1
290
     0
176
     1
 90
       50
176
     1
 90
       50
176
     1
 90
       50
176
     1
290
     0
176
     1
 90
       50
176
     1
 62
   256
176
     0
 40
1.0
176
     0
 90
        2
176
     1
  1
strokes_ogs.tif
176
     1
290
     0
176
     1
 40
1.0
176
     1
 40
1.0
176
     1
  0
VISUALSTYLE
  5
A8
102
{ACAD_REACTORS
330
99
102
}
330
99
100
AcDbVisualStyle
  2
Facepattern
 70
    15
177
     3
291
     1
 70
    58
 90
        2
176
     1
 90
        2
176
     1
 90
        1
176
     1
 90
        0
176
     1
 40
0.6
176
     1
 40
30.0
176
     1
 62
     7
420
 16777215
176
     1
 90
        1
176
     1
 90
        4
176
     1
 62
     7
176
     1
 62
   257
176
     1
 90
        1
176
     1
 90
        1
176
     1
 40
1.0
176
     1
 90
        8
176
     1
 62
     7
176
     1
 40
1.0
176
     1
 90
        1
176
     1
 90
        6
176
     1
 90
        2
176
     1
 62
     7
176
     1
 90
        5
176
     1
 90
        0
176
     1
 90
        0
176
     1
290
     0
176
     1
 90
        1
176
     1
 40
0.0
176
     1
 90
        0
176
     1
290
     0
176
     1
290
     1
176
     1
290
     1
176
     1
290
     0
176
     1
290
     0
176
     1
290
     0
176
     1
290
     0
176
     1
290
     0
176
     1
290
     0
176
     1
 90
       50
176
     1
 40
0.0
176
     1
 40
1.0
176
     1
 90
        0
176
     1
 62
    18
420
        0
176
     1
 90
       50
176
     1
 90
        3
176
     1
 62
     5
420
      255
176
     1
290
     0
176
     1
 90
       50
176
     1
 90
       50
176
     1
 90
       50
176
     1
290
     0
176
     1
 90
       50
176
     1
 62
   256
176
     0
 40
1.0
176
     0
 90
        2
176
     1
  1
strokes_ogs.tif
176
     1
290
     0
176
     1
 40
1.0
176
     1
 40
1.0
176
     1
  0
VISUALSTYLE
  5
9A
102
{ACAD_REACTORS
330
99
102
}
330
99
100
AcDbVisualStyle
  2
Flat
 70
     0
177
     3
291
     1
 70
    58
 90
        2
176
     1
 90
        1
176
     1
 90
        1
176
     1
 90
        2
176
     1
 40
0.6
176
     1
 40
30.0
176
     1
 62
     7
420
 16777215
176
     1
 90
        0
176
     1
 90
        0
176
     1
 62
     7
176
     1
 62
   257
176
     1
 90
        1
176
     1
 90
        1
176
     1
 40
1.0
176
     1
 90
        8
176
     1
 62
     7
176
     1
 40
1.0
176
     1
 90
        1
176
     1
 90
        6
176
     1
 90
        2
176
     1
 62
     7
176
     1
 90
        5
176
     1
 90
        0
176
     1
 90
        0
176
     1
290
     0
176
     1
 90
       13
176
     1
 40
0.0
176
     1
 90
        0
176
     1
290
     0
176
     1
290
     1
176
     1
290
     1
176
     1
290
     0
176
     1
290
     0
176
     1
290
     0
176
     1
290
     0
176
     1
290
     0
176
     1
290
     0
176
     1
 90
       50
176
     1
 40
0.0
176
     1
 40
1.0
176
     1
 90
        0
176
     1
 62
    18
420
        0
176
     1
 90
       50
176
     1
 90
        3
176
     1
 62
     5
420
      255
176
     1
290
     0
176
     1
 90
       50
176
     1
 90
       50
176
     1
 90
       50
176
     1
290
     0
176
     1
 90
       50
176
     1
 62
   256
176
     0
 40
1.0
176
     0
 90
        2
176
     1
  1
strokes_ogs.tif
176
     1
290
     0
176
     1
 40
1.0
176
     1
 40
1.0
176
     1
  0
VISUALSTYLE
  5
9B
102
{ACAD_REACTORS
330
99
102
}
330
99
100
AcDbVisualStyle
  2
FlatWithEdges
 70
     1
177
     3
291
     1
 70
    58
 90
        2
176
     1
 90
        1
176
     1
 90
        1
176
     1
 90
        2
176
     1
 40
0.6
176
     1
 40
30.0
176
     1
 62
     7
420
 16777215
176
     1
 90
        1
176
     1
 90
        0
176
     1
 62
     7
176
     1
 62
   257
176
     1
 90
        1
176
     1
 90
        1
176
     1
 40
1.0
176
     1
 90
        0
176
     1
 62
   257
176
     1
 40
1.0
176
     1
 90
        1
176
     1
 90
        6
176
     1
 90
        2
176
     1
 62
     7
176
     1
 90
        5
176
     1
 90
        0
176
     1
 90
        0
176
     1
290
     0
176
     1
 90
       13
176
     1
 40
0.0
176
     1
 90
        0
176
     1
290
     0
176
     1
290
     1
176
     1
290
     1
176
     1
290
     0
176
     1
290
     0
176
     1
290
     0
176
     1
290
     0
176
     1
290
     0
176
     1
290
     0
176
     1
 90
       50
176
     1
 40
0.0
176
     1
 40
1.0
176
     1
 90
        0
176
     1
 62
    18
420
        0
176
     1
 90
       50
176
     1
 90
        3
176
     1
 62
     5
420
      255
176
     1
290
     0
176
     1
 90
       50
176
     1
 90
       50
176
     1
 90
       50
176
     1
290
     0
176
     1
 90
       50
176
     1
 62
   256
176
     0
 40
1.0
176
     0
 90
        2
176
     1
  1
strokes_ogs.tif
176
     1
290
     0
176
     1
 40
1.0
176
     1
 40
1.0
176
     1
  0
VISUALSTYLE
  5
9C
102
{ACAD_REACTORS
330
99
102
}
330
99
100
AcDbVisualStyle
  2
Gouraud
 70
     2
177
     3
291
     1
 70
    58
 90
        2
176
     1
 90
        2
176
     1
 90
        1
176
     1
 90
        2
176
     1
 40
0.6
176
     1
 40
30.0
176
     1
 62
     7
420
 16777215
176
     1
 90
        0
176
     1
 90
        0
176
     1
 62
     7
176
     1
 62
   257
176
     1
 90
        1
176
     1
 90
        1
176
     1
 40
1.0
176
     1
 90
        0
176
     1
 62
     7
176
     1
 40
1.0
176
     1
 90
        1
176
     1
 90
        6
176
     1
 90
        2
176
     1
 62
     7
176
     1
 90
        5
176
     1
 90
        0
176
     1
 90
        0
176
     1
290
     0
176
     1
 90
       13
176
     1
 40
0.0
176
     1
 90
        0
176
     1
290
     0
176
     1
290
     1
176
     1
290
     1
176
     1
290
     0
176
     1
290
     0
176
     1
290
     0
176
     1
290
     0
176
     1
290
     0
176
     1
290
     0
176
     1
 90
       50
176
     1
 40
0.0
176
     1
 40
1.0
176
     1
 90
        0
176
     1
 62
    18
420
        0
176
     1
 90
       50
176
     1
 90
        3
176
     1
 62
     5
420
      255
176
     1
290
     0
176
     1
 90
       50
176
     1
 90
       50
176
     1
 90
       50
176
     1
290
     0
176
     1
 90
       50
176
     1
 62
   256
176
     0
 40
1.0
176
     0
 90
        2
176
     1
  1
strokes_ogs.tif
176
     1
290
     0
176
     1
 40
1.0
176
     1
 40
1.0
176
     1
  0
VISUALSTYLE
  5
9D
102
{ACAD_REACTORS
330
99
102
}
330
99
100
AcDbVisualStyle
  2
GouraudWithEdges
 70
     3
177
     3
291
     1
 70
    58
 90
        2
176
     1
 90
        2
176
     1
 90
        1
176
     1
 90
        2
176
     1
 40
0.6
176
     1
 40
30.0
176
     1
 62
     7
420
 16777215
176
     1
 90
        1
176
     1
 90
        0
176
     1
 62
     7
176
     1
 62
   257
176
     1
 90
        1
176
     1
 90
        1
176
     1
 40
1.0
176
     1
 90
        0
176
     1
 62
   257
176
     1
 40
1.0
176
     1
 90
        1
176
     1
 90
        6
176
     1
 90
        2
176
     1
 62
     7
176
     1
 90
        5
176
     1
 90
        0
176
     1
 90
        0
176
     1
290
     0
176
     1
 90
       13
176
     1
 40
0.0
176
     1
 90
        0
176
     1
290
     0
176
     1
290
     1
176
     1
290
     1
176
     1
290
     0
176
     1
290
     0
176
     1
290
     0
176
     1
290
     0
176
     1
290
     0
176
     1
290
     0
176
     1
 90
       50
176
     1
 40
0.0
176
     1
 40
1.0
176
     1
 90
        0
176
     1
 62
    18
420
        0
176
     1
 90
       50
176
     1
 90
        3
176
     1
 62
     5
420
      255
176
     1
290
     0
176
     1
 90
       50
176
     1
 90
       50
176
     1
 90
       50
176
     1
290
     0
176
     1
 90
       50
176
     1
 62
   256
176
     0
 40
1.0
176
     0
 90
        2
176
     1
  1
strokes_ogs.tif
176
     1
290
     0
176
     1
 40
1.0
176
     1
 40
1.0
176
     1
  0
VISUALSTYLE
  5
A1
102
{ACAD_REACTORS
330
99
102
}
330
99
100
AcDbVisualStyle
  2
Hidden
 70
     6
177
     3
291
     0
 70
    58
 90
        1
176
     1
 90
        2
176
     1
 90
        2
176
     1
 90
        0
176
     1
 40
0.6
176
     1
 40
30.0
176
     1
 62
     7
420
 16777215
176
     1
 90
        2
176
     1
 90
        2
176
     1
 62
     7
176
     1
 62
   257
176
     1
 90
        2
176
     1
 90
        1
176
     1
 40
40.0
176
     1
 90
        0
176
     1
 62
   257
176
     1
 40
1.0
176
     1
 90
        1
176
     1
 90
        6
176
     1
 90
        2
176
     1
 62
     7
176
     1
 90
        3
176
     1
 90
        0
176
     1
 90
        0
176
     1
290
     0
176
     1
 90
        1
176
     1
 40
0.0
176
     1
 90
        0
176
     1
290
     0
176
     1
290
     1
176
     1
290
     1
176
     1
290
     0
176
     1
290
     0
176
     1
290
     0
176
     1
290
     0
176
     1
290
     0
176
     1
290
     0
176
     1
 90
       50
176
     1
 40
0.0
176
     1
 40
1.0
176
     1
 90
        0
176
     1
 62
    18
420
        0
176
     1
 90
       50
176
     1
 90
        3
176
     1
 62
     5
420
      255
176
     1
290
     0
176
     1
 90
       50
176
     1
 90
       50
176
     1
 90
       50
176
     1
290
     0
176
     1
 90
       50
176
     1
 62
   256
176
     0
 40
1.0
176
     0
 90
        2
176
     1
  1
strokes_ogs.tif
176
     1
290
     0
176
     1
 40
1.0
176
     1
 40
1.0
176
     1
  0
VISUALSTYLE
  5
173
102
{ACAD_REACTORS
330
99
102
}
330
99
100
AcDbVisualStyle
  2
JitterOff
 70
    20
177
     3
291
     1
 70
    58
 90
        2
176
     0
 90
        2
176
     0
 90
        0
176
     0
 90
        0
176
     0
 40
0.6
176
     0
 40
30.0
176
     0
 62
     7
420
 16777215
176
     0
 90
        1
176
     0
 90
        4
176
     0
 62
     7
176
     0
 62
   257
176
     0
 90
        1
176
     0
 90
        1
176
     0
 40
1.0
176
     0
 90
       10
176
     2
 62
     7
176
     0
 40
1.0
176
     0
 90
        1
176
     0
 90
        6
176
     0
 90
        2
176
     0
 62
     7
176
     0
 90
        5
176
     0
 90
        0
176
     0
 90
        0
176
     0
290
     0
176
     0
 90
        1
176
     0
 40
0.0
176
     0
 90
        0
176
     0
290
     0
176
     1
290
     1
176
     1
290
     1
176
     1
290
     0
176
     1
290
     0
176
     1
290
     0
176
     1
290
     0
176
     1
290
     0
176
     1
290
     0
176
     1
 90
       50
176
     1
 40
0.0
176
     1
 40
1.0
176
     1
 90
        0
176
     1
 62
    18
420
        0
176
     1
 90
       50
176
     1
 90
        3
176
     1
 62
     5
420
      255
176
     1
290
     0
176
     1
 90
       50
176
     1
 90
       50
176
     1
 90
       50
176
     1
290
     0
176
     1
 90
       50
176
     1
 62
   256
176
     0
 40
1.0
176
     0
 90
        2
176
     1
  1
strokes_ogs.tif
176
     1
290
     0
176
     1
 40
1.0
176
     1
 40
1.0
176
     1
  0
VISUALSTYLE
  5
A7
102
{ACAD_REACTORS
330
99
102
}
330
99
100
AcDbVisualStyle
  2
Linepattern
 70
    14
177
     3
291
     1
 70
    58
 90
        2
176
     1
 90
        2
176
     1
 90
        1
176
     1
 90
        0
176
     1
 40
0.6
176
     1
 40
30.0
176
     1
 62
     7
420
 16777215
176
     1
 90
        1
176
     1
 90
        4
176
     1
 62
     7
176
     1
 62
   257
176
     1
 90
        7
176
     1
 90
        7
176
     1
 40
1.0
176
     1
 90
        8
176
     1
 62
     7
176
     1
 40
1.0
176
     1
 90
        1
176
     1
 90
        6
176
     1
 90
        2
176
     1
 62
     7
176
     1
 90
        5
176
     1
 90
        0
176
     1
 90
        0
176
     1
290
     0
176
     1
 90
        1
176
     1
 40
0.0
176
     1
 90
        0
176
     1
290
     0
176
     1
290
     1
176
     1
290
     1
176
     1
290
     0
176
     1
290
     0
176
     1
290
     0
176
     1
290
     0
176
     1
290
     0
176
     1
290
     0
176
     1
 90
       50
176
     1
 40
0.0
176
     1
 40
1.0
176
     1
 90
        0
176
     1
 62
    18
420
        0
176
     1
 90
       50
176
     1
 90
        3
176
     1
 62
     5
420
      255
176
     1
290
     0
176
     1
 90
       50
176
     1
 90
       50
176
     1
 90
       50
176
     1
290
     0
176
     1
 90
       50
176
     1
 62
   256
176
     0
 40
1.0
176
     0
 90
        2
176
     1
  1
strokes_ogs.tif
176
     1
290
     0
176
     1
 40
1.0
176
     1
 40
1.0
176
     1
  0
VISUALSTYLE
  5
174
102
{ACAD_REACTORS
330
99
102
}
330
99
100
AcDbVisualStyle
  2
OverhangOff
 70
    21
177
     3
291
     1
 70
    58
 90
        2
176
     0
 90
        2
176
     0
 90
        0
176
     0
 90
        0
176
     0
 40
0.6
176
     0
 40
30.0
176
     0
 62
     7
420
 16777215
176
     0
 90
        1
176
     0
 90
        4
176
     0
 62
     7
176
     0
 62
   257
176
     0
 90
        1
176
     0
 90
        1
176
     0
 40
1.0
176
     0
 90
        9
176
     2
 62
     7
176
     0
 40
1.0
176
     0
 90
        1
176
     0
 90
        6
176
     0
 90
        2
176
     0
 62
     7
176
     0
 90
        5
176
     0
 90
        0
176
     0
 90
        0
176
     0
290
     0
176
     0
 90
        1
176
     0
 40
0.0
176
     0
 90
        0
176
     0
290
     0
176
     1
290
     1
176
     1
290
     1
176
     1
290
     0
176
     1
290
     0
176
     1
290
     0
176
     1
290
     0
176
     1
290
     0
176
     1
290
     0
176
     1
 90
       50
176
     1
 40
0.0
176
     1
 40
1.0
176
     1
 90
        0
176
     1
 62
    18
420
        0
176
     1
 90
       50
176
     1
 90
        3
176
     1
 62
     5
420
      255
176
     1
290
     0
176
     1
 90
       50
176
     1
 90
       50
176
     1
 90
       50
176
     1
290
     0
176
     1
 90
       50
176
     1
 62
   256
176
     0
 40
1.0
176
     0
 90
        2
176
     1
  1
strokes_ogs.tif
176
     1
290
     0
176
     1
 40
1.0
176
     1
 40
1.0
176
     1
  0
VISUALSTYLE
  5
A3
102
{ACAD_REACTORS
330
99
102
}
330
99
100
AcDbVisualStyle
  2
Realistic
 70
     8
177
     3
291
     0
 70
    58
 90
        2
176
     1
 90
        2
176
     1
 90
        0
176
     1
 90
        2
176
     1
 40
0.6
176
     1
 40
30.0
176
     1
 62
     7
420
 16777215
176
     1
 90
        0
176
     1
 90
        0
176
     1
 62
     7
176
     1
 62
   257
176
     1
 90
        1
176
     1
 90
        1
176
     1
 40
1.0
176
     1
 90
        8
176
     1
 62
   257
176
     1
 40
1.0
176
     1
 90
        1
176
     1
 90
        6
176
     1
 90
        2
176
     1
 62
     7
176
     1
 90
        3
176
     1
 90
        0
176
     1
 90
        0
176
     1
290
     0
176
     1
 90
       13
176
     1
 40
0.0
176
     1
 90
        0
176
     1
290
     0
176
     1
290
     1
176
     1
290
     1
176
     1
290
     0
176
     1
290
     0
176
     1
290
     0
176
     1
290
     0
176
     1
290
     0
176
     1
290
     0
176
     1
 90
       50
176
     1
 40
0.0
176
     1
 40
1.0
176
     1
 90
        0
176
     1
 62
    18
420
        0
176
     1
 90
       50
176
     1
 90
        3
176
     1
 62
     5
420
      255
176
     1
290
     0
176
     1
 90
       50
176
     1
 90
       50
176
     1
 90
       50
176
     1
290
     0
176
     1
 90
       50
176
     1
 62
   256
176
     0
 40
1.0
176
     0
 90
        2
176
     1
  1
strokes_ogs.tif
176
     1
290
     0
176
     1
 40
1.0
176
     1
 40
1.0
176
     1
  0
VISUALSTYLE
  5
182
102
{ACAD_REACTORS
330
99
102
}
330
99
100
AcDbVisualStyle
  2
Shaded
 70
    27
177
     3
291
     0
 70
    58
 90
        2
176
     1
 90
        2
176
     1
 90
        1
176
     1
 90
        2
176
     1
 40
0.6
176
     1
 40
30.0
176
     1
 62
     7
420
 16777215
176
     1
 90
        0
176
     1
 90
        4
176
     1
 62
     7
176
     1
 62
   257
176
     1
 90
        1
176
     1
 90
        1
176
     1
 40
1.0
176
     1
 90
        8
176
     1
 62
   257
176
     1
 40
1.0
176
     1
 90
        1
176
     1
 90
        6
176
     1
 90
        2
176
     1
 62
     8
420
  7895160
176
     1
 90
        3
176
     1
 90
        0
176
     1
 90
        0
176
     1
290
     0
176
     1
 90
        5
176
     1
 40
0.0
176
     1
 90
        0
176
     1
290
     0
176
     1
290
     1
176
     1
290
     1
176
     1
290
     0
176
     1
290
     0
176
     1
290
     0
176
     1
290
     0
176
     1
290
     0
176
     1
290
     0
176
     1
 90
       50
176
     1
 40
0.0
176
     1
 40
1.0
176
     1
 90
        0
176
     1
 62
    18
420
        0
176
     1
 90
       50
176
     1
 90
        3
176
     1
 62
     5
420
      255
176
     1
290
     0
176
     1
 90
       50
176
     1
 90
       50
176
     1
 90
       50
176
     1
290
     0
176
     1
 90
       50
176
     1
 62
   256
176
     0
 40
1.0
176
     0
 90
        2
176
     1
  1
strokes_ogs.tif
176
     1
290
     0
176
     1
 40
1.0
176
     1
 40
1.0
176
     1
  0
VISUALSTYLE
  5
181
102
{ACAD_REACTORS
330
99
102
}
330
99
100
AcDbVisualStyle
  2
Shaded with edges
 70
    26
177
     3
291
     0
 70
    58
 90
        2
176
     1
 90
        2
176
     1
 90
        1
176
     1
 90
        2
176
     1
 40
0.6
176
     1
 40
30.0
176
     1
 62
     7
420
 16777215
176
     1
 90
        1
176
     1
 90
        2
176
     1
 62
     7
176
     1
 62
   257
176
     1
 90
        2
176
     1
 90
        1
176
     1
 40
1.0
176
     1
 90
        8
176
     1
 62
   257
176
     1
 40
1.0
176
     1
 90
        1
176
     1
 90
        6
176
     1
 90
        2
176
     1
 62
     7
176
     1
 90
        3
176
     1
 90
        0
176
     1
 90
        0
176
     1
290
     0
176
     1
 90
        5
176
     1
 40
0.0
176
     1
 90
        0
176
     1
290
     0
176
     1
290
     1
176
     1
290
     1
176
     1
290
     0
176
     1
290
     0
176
     1
290
     0
176
     1
290
     0
176
     1
290
     0
176
     1
290
     0
176
     1
 90
       50
176
     1
 40
0.0
176
     1
 40
1.0
176
     1
 90
        0
176
     1
 62
    18
420
        0
176
     1
 90
       50
176
     1
 90
        3
176
     1
 62
     5
420
      255
176
     1
290
     0
176
     1
 90
       50
176
     1
 90
       50
176
     1
 90
       50
176
     1
290
     0
176
     1
 90
       50
176
     1
 62
   256
176
     0
 40
1.0
176
     0
 90
        2
176
     1
  1
strokes_ogs.tif
176
     1
290
     0
176
     1
 40
1.0
176
     1
 40
1.0
176
     1
  0
VISUALSTYLE
  5
17E
102
{ACAD_REACTORS
330
99
102
}
330
99
100
AcDbVisualStyle
  2
Shades of Gray
 70
    23
177
     3
291
     0
 70
    58
 90
        2
176
     1
 90
        2
176
     1
 90
        3
176
     1
 90
        0
176
     1
 40
0.6
176
     1
 40
30.0
176
     1
 62
     7
420
 16777215
176
     1
 90
        2
176
     1
 90
        2
176
     1
 62
     7
176
     1
 62
     7
176
     1
 90
        1
176
     1
 90
        1
176
     1
 40
40.0
176
     1
 90
        8
176
     1
 62
     7
176
     1
 40
1.0
176
     1
 90
        1
176
     1
 90
        6
176
     1
 90
        2
176
     1
 62
     7
176
     1
 90
        3
176
     1
 90
        0
176
     1
 90
        0
176
     1
290
     0
176
     1
 90
        1
176
     1
 40
0.0
176
     1
 90
        0
176
     1
290
     0
176
     1
290
     1
176
     1
290
     1
176
     1
290
     0
176
     1
290
     0
176
     1
290
     0
176
     1
290
     0
176
     1
290
     0
176
     1
290
     0
176
     1
 90
       50
176
     1
 40
0.0
176
     1
 40
1.0
176
     1
 90
        0
176
     1
 62
    18
420
        0
176
     1
 90
       50
176
     1
 90
        3
176
     1
 62
     5
420
      255
176
     1
290
     0
176
     1
 90
       50
176
     1
 90
       50
176
     1
 90
       50
176
     1
290
     0
176
     1
 90
       50
176
     1
 62
   256
176
     0
 40
1.0
176
     0
 90
        2
176
     1
  1
strokes_ogs.tif
176
     1
290
     0
176
     1
 40
1.0
176
     1
 40
1.0
176
     1
  0
VISUALSTYLE
  5
17F
102
{ACAD_REACTORS
330
99
102
}
330
99
100
AcDbVisualStyle
  2
Sketchy
 70
    24
177
     3
291
     0
 70
    58
 90
        1
176
     1
 90
        2
176
     1
 90
        2
176
     1
 90
        0
176
     1
 40
0.6
176
     1
 40
30.0
176
     1
 62
     7
420
 16777215
176
     1
 90
        2
176
     1
 90
        2
176
     1
 62
     7
176
     1
 62
     7
176
     1
 90
        1
176
     1
 90
        1
176
     1
 40
40.0
176
     1
 90
       11
176
     1
 62
     7
176
     1
 40
1.0
176
     1
 90
        1
176
     1
 90
        6
176
     1
 90
        2
176
     1
 62
     7
176
     1
 90
        6
176
     1
 90
        0
176
     1
 90
        0
176
     1
290
     0
176
     1
 90
        1
176
     1
 40
0.0
176
     1
 90
        0
176
     1
290
     0
176
     1
290
     1
176
     1
290
     1
176
     1
290
     0
176
     1
290
     0
176
     1
290
     0
176
     1
290
     0
176
     1
290
     0
176
     1
290
     0
176
     1
 90
       50
176
     1
 40
0.0
176
     1
 40
1.0
176
     1
 90
        0
176
     1
 62
    18
420
        0
176
     1
 90
       50
176
     1
 90
        3
176
     1
 62
     5
420
      255
176
     1
290
     0
176
     1
 90
       50
176
     1
 90
       50
176
     1
 90
       50
176
     1
290
     0
176
     1
 90
       50
176
     1
 62
   256
176
     0
 40
1.0
176
     0
 90
        2
176
     1
  1
strokes_ogs.tif
176
     1
290
     0
176
     1
 40
1.0
176
     1
 40
1.0
176
     1
  0
VISUALSTYLE
  5
A6
102
{ACAD_REACTORS
330
99
102
}
330
99
100
AcDbVisualStyle
  2
Thicken
 70
    13
177
     3
291
     1
 70
    58
 90
        2
176
     1
 90
        2
176
     1
 90
        1
176
     1
 90
        0
176
     1
 40
0.6
176
     1
 40
30.0
176
     1
 62
     7
420
 16777215
176
     1
 90
        1
176
     1
 90
        4
176
     1
 62
     7
176
     1
 62
   257
176
     1
 90
        1
176
     1
 90
        1
176
     1
 40
1.0
176
     1
 90
       12
176
     1
 62
     7
176
     1
 40
1.0
176
     1
 90
        1
176
     1
 90
        6
176
     1
 90
        2
176
     1
 62
     7
176
     1
 90
        5
176
     1
 90
        0
176
     1
 90
        0
176
     1
290
     0
176
     1
 90
        1
176
     1
 40
0.0
176
     1
 90
        0
176
     1
290
     0
176
     1
290
     1
176
     1
290
     1
176
     1
290
     0
176
     1
290
     0
176
     1
290
     0
176
     1
290
     0
176
     1
290
     0
176
     1
290
     0
176
     1
 90
       50
176
     1
 40
0.0
176
     1
 40
1.0
176
     1
 90
        0
176
     1
 62
    18
420
        0
176
     1
 90
       50
176
     1
 90
        3
176
     1
 62
     5
420
      255
176
     1
290
     0
176
     1
 90
       50
176
     1
 90
       50
176
     1
 90
       50
176
     1
290
     0
176
     1
 90
       50
176
     1
 62
   256
176
     0
 40
1.0
176
     0
 90
        2
176
     1
  1
strokes_ogs.tif
176
     1
290
     0
176
     1
 40
1.0
176
     1
 40
1.0
176
     1
  0
VISUALSTYLE
  5
A0
102
{ACAD_REACTORS
330
99
102
}
330
99
100
AcDbVisualStyle
  2
Wireframe
 70
     5
177
     3
291
     0
 70
    58
 90
        0
176
     1
 90
        2
176
     1
 90
        0
176
     1
 90
        0
176
     1
 40
0.6
176
     1
 40
30.0
176
     1
 62
     7
420
 16777215
176
     1
 90
        1
176
     1
 90
        4
176
     1
 62
     7
176
     1
 62
   257
176
     1
 90
        1
176
     1
 90
        1
176
     1
 40
1.0
176
     1
 90
        0
176
     1
 62
   257
176
     1
 40
1.0
176
     1
 90
        1
176
     1
 90
        6
176
     1
 90
        2
176
     1
 62
     7
176
     1
 90
        3
176
     1
 90
        0
176
     1
 90
        0
176
     1
290
     0
176
     1
 90
        1
176
     1
 40
0.0
176
     1
 90
        0
176
     1
290
     0
176
     1
290
     1
176
     1
290
     1
176
     1
290
     0
176
     1
290
     0
176
     1
290
     0
176
     1
290
     0
176
     1
290
     0
176
     1
290
     0
176
     1
 90
       50
176
     1
 40
0.0
176
     1
 40
1.0
176
     1
 90
        0
176
     1
 62
    18
420
        0
176
     1
 90
       50
176
     1
 90
        3
176
     1
 62
     5
420
      255
176
     1
290
     0
176
     1
 90
       50
176
     1
 90
       50
176
     1
 90
       50
176
     1
290
     0
176
     1
 90
       50
176
     1
 62
   256
176
     0
 40
1.0
176
     0
 90
        2
176
     1
  1
strokes_ogs.tif
176
     1
290
     0
176
     1
 40
1.0
176
     1
 40
1.0
176
     1
  0
VISUALSTYLE
  5
180
102
{ACAD_REACTORS
330
99
102
}
330
99
100
AcDbVisualStyle
  2
X-Ray
 70
    25
177
     3
291
     0
 70
    58
 90
        2
176
     1
 90
        2
176
     1
 90
        1
176
     1
 90
        1
176
     1
 40
0.5
176
     1
 40
30.0
176
     1
 62
     7
420
 16777215
176
     1
 90
        1
176
     1
 90
        0
176
     1
 62
     7
176
     1
 62
   257
176
     1
 90
        1
176
     1
 90
        1
176
     1
 40
1.0
176
     1
 90
        8
176
     1
 62
     7
176
     1
 40
1.0
176
     1
 90
        1
176
     1
 90
        6
176
     1
 90
        2
176
     1
 62
     7
176
     1
 90
        3
176
     1
 90
        0
176
     1
 90
        0
176
     1
290
     0
176
     1
 90
       13
176
     1
 40
0.0
176
     1
 90
        0
176
     1
290
     0
176
     1
290
     1
176
     1
290
     1
176
     1
290
     0
176
     1
290
     0
176
     1
290
     0
176
     1
290
     0
176
     1
290
     0
176
     1
290
     0
176
     1
 90
       50
176
     1
 40
0.0
176
     1
 40
1.0
176
     1
 90
        0
176
     1
 62
    18
420
        0
176
     1
 90
       50
176
     1
 90
        3
176
     1
 62
     5
420
      255
176
     1
290
     0
176
     1
 90
       50
176
     1
 90
       50
176
     1
 90
       50
176
     1
290
     0
176
     1
 90
       50
176
     1
 62
   256
176
     0
 40
1.0
176
     0
 90
        2
176
     1
  1
strokes_ogs.tif
176
     1
290
     0
176
     1
 40
1.0
176
     1
 40
1.0
176
     1
  0
DICTIONARYVAR
  5
4A0D6
102
{ACAD_REACTORS
330
4A0D5
102
}
330
4A0D5
100
DictionaryVariables
280
     0
  1
2
  0
DICTIONARYVAR
  5
4A0D7
102
{ACAD_REACTORS
330
4A0D5
102
}
330
4A0D5
100
DictionaryVariables
280
     0
  1
400.000000
  0
DICTIONARYVAR
  5
4A0D8
102
{ACAD_REACTORS
330
4A0D5
102
}
330
4A0D5
100
DictionaryVariables
280
     0
  1
1
  0
DICTIONARYVAR
  5
4A0D9
102
{ACAD_REACTORS
330
4A0D5
102
}
330
4A0D5
100
DictionaryVariables
280
     0
  1
1:1
  0
DICTIONARYVAR
  5
4A0DA
102
{ACAD_REACTORS
330
4A0D5
102
}
330
4A0D5
100
DictionaryVariables
280
     0
  1
STANDARD
  0
DICTIONARYVAR
  5
4A0DB
102
{ACAD_REACTORS
330
4A0D5
102
}
330
4A0D5
100
DictionaryVariables
280
     0
  1
STANDARD
  0
DICTIONARYVAR
  5
4A0DC
102
{ACAD_REACTORS
330
4A0D5
102
}
330
4A0D5
100
DictionaryVariables
280
     0
  1
Imperial24
  0
DICTIONARYVAR
  5
4A0DD
102
{ACAD_REACTORS
330
4A0D5
102
}
330
4A0D5
100
DictionaryVariables
280
     0
  1
Imperial24
  0
DICTIONARYVAR
  5
4A0DE
102
{ACAD_REACTORS
330
4A0D5
102
}
330
4A0D5
100
DictionaryVariables
280
     0
  1
-1
  0
DICTIONARYVAR
  5
4A0DF
102
{ACAD_REACTORS
330
4A0D5
102
}
330
4A0D5
100
DictionaryVariables
280
     0
  1
1
  0
DICTIONARYVAR
  5
4A0E0
102
{ACAD_REACTORS
330
4A0D5
102
}
330
4A0D5
100
DictionaryVariables
280
     0
  1
2
  0
DICTIONARYVAR
  5
4A0E1
102
{ACAD_REACTORS
330
4A0D5
102
}
330
4A0D5
100
DictionaryVariables
280
     0
  1
0
  0
DICTIONARYVAR
  5
4A0E2
102
{ACAD_REACTORS
330
4A0D5
102
}
330
4A0D5
100
DictionaryVariables
280
     0
  1
4
  0
DICTIONARYVAR
  5
4A0E3
102
{ACAD_REACTORS
330
4A0D5
102
}
330
4A0D5
100
DictionaryVariables
280
     0
  1
V-Construction
  0
DICTIONARYVAR
  5
4A0E4
102
{ACAD_REACTORS
330
4A0D5
102
}
330
4A0D5
100
DictionaryVariables
280
     0
  1
ByLayer
  0
DICTIONARYVAR
  5
4A0E5
102
{ACAD_REACTORS
330
4A0D5
102
}
330
4A0D5
100
DictionaryVariables
280
     0
  1
0
  0
DICTIONARYVAR
  5
4A0E6
102
{ACAD_REACTORS
330
4A0D5
102
}
330
4A0D5
100
DictionaryVariables
280
     0
  1
0
  0
DICTIONARYVAR
  5
4A0E7
102
{ACAD_REACTORS
330
4A0D5
102
}
330
4A0D5
100
DictionaryVariables
280
     0
  1
0
  0
DICTIONARYVAR
  5
4A0E8
102
{ACAD_REACTORS
330
4A0D5
102
}
330
4A0D5
100
DictionaryVariables
280
     0
  1
2
  0
DICTIONARYVAR
  5
4A0E9
102
{ACAD_REACTORS
330
4A0D5
102
}
330
4A0D5
100
DictionaryVariables
280
     0
  1
1.000000
  0
DICTIONARYVAR
  5
4A0EA
102
{ACAD_REACTORS
330
4A0D5
102
}
330
4A0D5
100
DictionaryVariables
280
     0
  1
1
  0
DICTIONARYVAR
  5
4A0EB
102
{ACAD_REACTORS
330
4A0D5
102
}
330
4A0D5
100
DictionaryVariables
280
     0
  1
1.000000
  0
DICTIONARYVAR
  5
4A0EC
102
{ACAD_REACTORS
330
4A0D5
102
}
330
4A0D5
100
DictionaryVariables
280
     0
  1
1
  0
DICTIONARYVAR
  5
4A0ED
102
{ACAD_REACTORS
330
4A0D5
102
}
330
4A0D5
100
DictionaryVariables
280
     0
  1
0
  0
DICTIONARYVAR
  5
4A0EE
102
{ACAD_REACTORS
330
4A0D5
102
}
330
4A0D5
100
DictionaryVariables
280
     0
  1

  0
DICTIONARYVAR
  5
4A0EF
102
{ACAD_REACTORS
330
4A0D5
102
}
330
4A0D5
100
DictionaryVariables
280
     0
  1
0
  0
DICTIONARYVAR
  5
4A0F0
102
{ACAD_REACTORS
330
4A0D5
102
}
330
4A0D5
100
DictionaryVariables
280
     0
  1
127
  0
DICTIONARY
  5
194
330
22
100
AcDbDictionary
280
     1
281
     1
  0
DICTIONARY
  5
188
330
97
100
AcDbDictionary
280
     1
281
     1
  3
FBXASSET
360
189
  0
DICTIONARY
  5
186
330
96
100
AcDbDictionary
280
     1
281
     1
  3
FBXASSET
360
187
  0
DICTIONARY
  5
110
330
98
100
AcDbDictionary
280
     1
281
     1
  3
BUMPTILE
360
112
  3
DIFFUSETILE
360
111
  3
FBXASSET
360
18A
  3
OPACITYTILE
360
113
  3
REFLECTIONTILE
360
114
  0
DICTIONARY
  5
104
330
87
100
AcDbDictionary
280
     1
281
     1
  3
ACAD_ROUNDTRIP_2008_TABLESTYLE_CELLSTYLEMAP
360
6FAB7
  0
XRECORD
  5
189
102
{ACAD_REACTORS
330
188
102
}
330
188
100
AcDbXrecord
280
     1
 70
     1
 90
429727718
  1
508B35C9-AEE7-456F-BE74-D52651303AC6
310
504B03040A0000080000B670623B3DEE336E79000000790000001B0000006175746F6465736B2D64657369676E2D7061636B6167652E786D6C3C3F786D6C2076657273696F6E3D22312E302220656E636F64696E673D227574662D3822203F3E3C666F726D6174733E3C666F726D61743E687474703A2F2F736368656D612E
310
6175746F6465736B2E636F6D2F64657369676E2D7061636B6167652F323030393C2F666F726D61743E3C2F666F726D6174733E504B0304140006080800B670623BD486FD9CA0000000F4000000130000005B436F6E74656E745F54797065735D2E786D6C7D8EC10E82300C865F65E91D8A1E8C310C0EEA1BF002731658846E
310
D98AC1B77784ABF1D8FE5FBFBF75BBCE937A534CCEB38643598122B6FEE978D0B0485F9C41B54DDD7D022595594E1A469170414C76A4D9A4D207E29CF43ECE46F218070CC6BECC4078ACAA135ACF422C856C0E68EA1BF5669944DDD7BCDE7B1F8E415D77AECB980613C2E4AC91FC167A2B244592486606FC29C8FD7F045B9A
310
EF7053A7E60B504B0304140006080800B670623B28ED286BEB0000007C01000008000000636F72652E786D6C8D90416EC3201045AF82665B6183218D6D61A254764FD00B204C5C94182C03558F5F9C3852BBEB6A467FFE9B197D71FA9E6FE8CBACC17AD7012D0820E3B41FAD9B3A48F1826B40272956EFE32F1B20A766D3C1
310
268314D3EAD3B24BDABB685CCCAAF3A3D94515828980F42D371D04FD696655A814B3235C8B45E9AB9A4C419F5D8653B2237A1CB163DE672FD6AC209BF3C08E0D1B30EB19C3FC9D72FCC6EB231EFA33EDE96BDD341517E5064B11EDFCBCAF57A3A2194156843498524CAA0FCA5B7268F9E185D42D21A2DCEC7FA0B48CFF8492
310
759155FBBB0F2C80A4F991FB408A72CB22977B50B96EB9C91F504B0304140006080800B670623B55019EA25F0000007C00000007000000636E782E786D6C4DCB3B0E80201045D1AD90E915ED2CF8AC45050C11660C8261F98AB1B07AC9C97D42D718D865D3E909258CFD00CCE24AC6E326A164D74DC0B4128928FF32603847
310
2BA13128B1252AC747C6BAB984FC68F0B87FE8960A5C09FE86CFB69FBA01504B0304140006080800B670623B7BC41AC871010000D40300000C0000006662782F636F72652E786D6CC553ED6E8320147D15C2DF4501B56B6D90A64BBB27D80B50A5CE54C120983EFEAE1F4DD7A56BBA5FF3879273EEE59E7310BE393735EA95
310
ED2AA333CC428A91D2B9292A5D66D8BB63B0C26823B835C67D2BC348CB46657880B1E0A535BE9DA1DC68A7B403549B42CDA0EC3AE530CA6B5864B8CB3F552343E91D5474A7B095F949962A6421D0502778E72C0840D390E18DC5F170E664C205F7BE2A66B62A605A75AC94C522DDEEE3651AEF837817C741F2CE92E02D592D
310
83FD6ECB76EC7595A651C2C9D02CB8AB9A8BBADC2AE954814544691A3016D0E883256BBA58278B17BA5A53CAC9507ED3E4DBE2C9265F691747B3DCA9ADC382819091F8E1162272A8933DE82182932144F88C09DF060D8140C84E1EEA8B8F1340BDCA9DB1093085F157AA97B557309586747CD0EF0B4EA64E983A6E0EAEEFCE
310
889E9EF17847386AA94B30211D2C0FDE0D3AF9A4610EAD5536E8DD1969631B593F67E381C33F5157F17725E5A636F6BF1491F980C8FC7B90E13E8A2F504B0304140006080800B670623B70102A487D0000009D0000000B0000006662782F636E782E786D6C4DCCD10A83201886E15B91FFDC95A5C30335ACCDFB886521330D
310
A76397BF1A1DECE883878F57749FD5A3B74D2F17830472A901D9F088930B8B849267CC01754AA418F3DF0D5018572BE160506249B16C274D761E8BCFBB7A179E27F65CB39A0F14D396184C9921B81F34C3ACA1B4B99ABB6E6F062A25AA5F69DF23ACBE504B0304140006080800B670623B3610CA3329010000120200003100
310
00006662782F42384135303843342D343331462D343546312D424341352D3532343432364645413344462F636F72652E786D6C8D515B6EC32010BC0AE22B55850D0E446E848992B43E412FE000495162B07854397EA176A4F62F3F2C9A9D991D58BEBB8F37F0AD7D30CE76905418026DA553C65E3A98E219B510EC04F7CEC5
310
3F3408EC30EA0E16180A7EF12E4D0B249D8DDAC68C5AA7F4020E21E80881BCE54B0783FCD2E3500D296646B856D320AFC34557A4CAEDCC133C449F0380794839A138B47B86DB2345744D7A44594FD0E1B867883594369BFE63BF7EEF793D0B054FC9A8456E548E63CE46FB674D8A58F068C6477CE9F510B582A2C1F80D1182
310
70F349E816B32D65AFB8DD62CCEB42FF274A937A52948C8DEB66893BCB021484D7734370E5D2E9F608A3EF93F3119479ABA0E50B14B8C298119A43CCC4FCFCECB8A18B6388CEE7EF5D5D4F994BD86CBBA182D76543B9FCAE2FD7B24DF103504B0304140006080800B670623B1B8617914E0100003303000030000000666278
310
2F42384135303843342D343331462D343546312D424341352D3532343432364645413344462F636E782E786D6CD593C16EC32010447F0571AD6CE3D489D20813A9877E410FBD62D82434182CC055F3F75D1292E692438FBD206B7698593D61BEFD1E2DF982108D773D6D6B460938E5B571FB9ECE6957AD29D90A1EBC4F7736
310
4A9C1CA1A759A682EF839FA72269D8C9D92654AD71C72206887E0E0A22CAF926B15E498B01E0AA19451807D01A34B919F16B070157417138917400F2F6FA41FCF0092A45DEE414C19BDC21783E4BD39D891265658C3D8DEA00A3ACE59CBC8678ACB54CB26EEB6BD7839D7E9348BE70AD9C8321B9BCA7F9A4A26C542347DEE0
310
50F09802D22BA6749A800A394DD62899107273365E3C82CFC6A55557BC06C10774B7ABE7AEC3B0F34CF06446280E154026D0542C187BA9DAB6628BF7B6DBB0E5A65B3EB1F58631DE64BBE083F7B65CC218087E22CABB042E51D1F2268F1FE12B3EA24D40D63E9CFE00120194D60B9D5BC67FE6D39CDF37E20AF817881F504B
310
0304140006080800B670623BBFEF2E3B690500003C100000340000006662782F42384135303843342D343331462D343546312D424341352D3532343432364645413344462F6F626A656374732E786D6CAD575D739B3814FD2B0CFB0C98D84E931D4227B6938EA793B6534F3BFB90198F0099B001899144EAECAFDF231018B0
310
D37A3FFC609090EEE7B94757C1FB7D915B2F54C88CB31BDB7727B64559CC938CA53776A576CE956DBD0F03C1B9EA2DB32D460A7A63EB693B0C52C1ABD24C257447AA5C8D66EF177F5832A68CDA569C13296F6C193FD182B8A4523CA1F2D94D88226EBADBBBBEDB2C1C8A4D05299F46424B222853B014F30C52ACC6287F389C
310
D85E1878FA7B18E87FB36AFAF62AAFF667A83F635211161F291B8999FAB3D5DDC5FCDA99CF6653677679E13B8BFBC5CAF1DF4D27CBCBE5F2FAF6EE1A8AA51290642C117467871F101B91C581D77CEA2C36869F3229E68CD1B8F61F1ED6361B89092D294B90C78C4A68EB793D190E7D1D9BDEE7A91E1B95FDE9F3BCEAEFE809
310
6A6D6F9F7D4B79F4275C90E7A04248AA51D5C4C738DAE06F72885AC4796EBE65D22A88A22223B995679120E2D50EB1542F098381188D4EA111AE3DB043FF20AF6F2B4AE3D7D83D65E5AECA730D4D3BAC91BD05FEA992B565D95F549CD6069B90AB2A63EACA38A45E4B6A87D781574F86817E4C2FCCC72690D62E2729520E37
310
9BAF234797BAF6D62B3BFC781FED37BA1E4F2B2F052FA9501A3E80569BB8F6A9A364D4FA67654E6F803383981F82F21591FF84F23D9882BC896C3FDBCF8C162508933B2E0AE4C69DD43F6BD2BE38DDDBF10BF86CB4FA784D37F3AF16075E67EC9030DECA1FC0A55373F5DFF3378C591FA9BDF485C10B0A8C8BA909E5262639
310
A8E72163488806A595734C81CB77D1DE0ED7604A303B76913CEC0272F412782FF88EFF4636D8AA56DF7B322474C4B767303F625997056C7B032C473C592B36CEBD15F3F9FF5233B7ABCDC74D257624A60F8658567497B14CE1EC3C80B76FD02011038F9EE9EB0F2E12387A9C844D3F09855125116D1D731DF8B43D2CF4E0A0
310
79A020C6BE946BCE0B7EA1E1219331CD73C228AF5A2DDD31A4B1DA918CE91350854D40A71723140BFA92E94E62B0626016CEFA5864A50E5977E8753CEDBEE1CBB7F52780D20E17AF0BA0F5F9B02A3AD07DCC732EB6D1EBB661421BE0C39E21BABF0FE16D22EA6929407C8DE596724C88B749B6DB5512BC7B228ADFD7CB7EA6
310
3A22397E690BA8D5D8D4E40CEC8CDA23C2C0B7D5898640101CEC9C6D331CE328CB93CAFBBAC70A642DF70DF95155945B52F08AA973C23469FD69ADEF84F7BB18F983A8F8C90E37F5D35980B2139A1C523540813E824EF83448CF7C72B598CE97D7CEEDDDDD3B6736BFBC771677EF66CE6A7E7139F7A793E9EDF2B2B3A8B624
310
0CDA13AA5F8388264EC4A0129909F3B7F5A16CEDF08128E97D680ACA4B9BE7B7B58BB638F0B00700EF36AE8B32A705658A68F83EE897FC2B41573190D1CCAF0B92D233A47CFEB019D9809933F67DD1A5467F8CF69AD9A5AE859342D45355448C64F968A371DC2D596ADC6E43D93D1B466F877A64E2893E54F23C4B40388995
310
525E5005DA3983ED45412510D3EFCA13737B3863F74BD30F2A12E5B4B5E489A025CE25500DB855B11ACE5BBFA185D35DD48D8DC3CE7DC69F2944DB42AA6F6CF09BCA622ADD08C7A36E7C6AE18000BAB08E040135C2D21C9D75B3A91B77BB746C403F38018DFE6EC939DD92F16B40BC05294B9CDA035AAD6D330AE27FE4786B
310
8E45145EA34A75BE1C263A676A35A8ACC6297337400BF16C54EF515F3F77CB77EB3583889C754FFA29081AA98E2222ADEF05DA3E63D2EDEA8B8756C05A7FB6CABC4A91CBF325398202CC952E70A008A830324BA200D5E5EF8F5F04C75DB4B0EE3340E071C98B823333B83577596BF3849B69F2085AA0FAFA212F26BEFF5877
310
FDE622B28D88A42E49E43326DA82D31E8CB006401E1DA726059ECEC168F97A6599036306A135688F9AD2E61A6EA178F4CD51974A9F2CCB9F36FE5EBD14601068D9C3BF01504B0304140006080000B670623B000000000000000000000000350000006662782F42384135303843342D343331462D343546312D424341352D35
310
32343432364645413344462F76657274696365732E62696E504B0304140006080800B670623BF270F1330600000004000000360000006662782F42384135303843342D343331462D343546312D424341352D3532343432364645413344462F747269616E676C65732E62696E636660600000504B0304140006080000B67062
310
3B000000000000000000000000370000006662782F42384135303843342D343331462D343546312D424341352D3532343432364645413344462F617474726962757465732E62696E504B0304140006080800B670623B08DA0BD19000000041010000360000006662782F42384135303843342D343331462D343546312D4243
310
41352D3532343432364645413344462F6469726563746F72792E786D6C858F410AC3201045AF22B36F53E9A60B35CBEEBAE80D244E44489C6234F4F835464A48035D0DF398FF9F8AF63D0E6CC63039F212F8F9020C7D47C6792B21C5FE7403D62A1188E2E60C98D7234A5830286103A55745067B9D86B8A3CF9C7F90C11DE6
310
07FB144396D7B6A82D282E9A152AD114D5EF2CB866EEE831B8EEA07A7BB5A8D7D61A2BAAEB7FD5F70921FF497D00504B0304140006080800B670623B3B4606F3FE000000A00100003B0000006662782F42384135303843342D343331462D343546312D424341352D3532343432364645413344462F7265736F75726365732F
310
636F72652E786D6C8D504B6E833010BD0A9A6D65B08134808CA354A427E8052C332156828DFCA97AFC9A40A576D7CDCCE87D344F8F9FBEE647F689CE6B6B7A6039850C8DB2A336530F315C4903D94970676DF82583CCC8197B5861107C72362E3BA4AC096842428D1D7107A5F71820538F74F4E0D50D6799CB1892C2DFF345
310
AABB9C306779A2934E701F5C0A906D4FD609C2A1B7D129F4BCD858C163D4E3AED163FAA9AF1A1D88F67CA98E6D35906AA82A52BFB39ABCD5CD915C86331BD86BD3B665CD8BD52C78D0F34F46E550061C419494B6843142CB0F5677F4D0D58717DA7494F26295FF31C565FCA7296A13AA728FBBD93C0896823C09C18BB5AFB4
310
9E65A6BD762BBE01504B010214000A0000080000B670623B3DEE336E79000000790000001B00000000000000000000000000000000006175746F6465736B2D64657369676E2D7061636B6167652E786D6C504B01021400140006080800B670623BD486FD9CA0000000F40000001300000000000000000000000000B2000000
310
5B436F6E74656E745F54797065735D2E786D6C504B01021400140006080800B670623B28ED286BEB0000007C010000080000000000000000000000000083010000636F72652E786D6C504B01021400140006080800B670623B55019EA25F0000007C000000070000000000000000000000000094020000636E782E786D6C50
310
4B01021400140006080800B670623B7BC41AC871010000D40300000C00000000000000000000000000180300006662782F636F72652E786D6C504B01021400140006080800B670623B70102A487D0000009D0000000B00000000000000000000000000B30400006662782F636E782E786D6C504B01021400140006080800B6
310
70623B3610CA3329010000120200003100000000000000000000000000590500006662782F42384135303843342D343331462D343546312D424341352D3532343432364645413344462F636F72652E786D6C504B01021400140006080800B670623B1B8617914E010000330300003000000000000000000000000000D10600
310
006662782F42384135303843342D343331462D343546312D424341352D3532343432364645413344462F636E782E786D6C504B01021400140006080800B670623BBFEF2E3B690500003C10000034000000000000000000000000006D0800006662782F42384135303843342D343331462D343546312D424341352D35323434
310
32364645413344462F6F626A656374732E786D6C504B01021400140006080000B670623B0000000000000000000000003500000000000000000000000000280E00006662782F42384135303843342D343331462D343546312D424341352D3532343432364645413344462F76657274696365732E62696E504B010214001400
310
06080800B670623BF270F133060000000400000036000000000000000000000000007B0E00006662782F42384135303843342D343331462D343546312D424341352D3532343432364645413344462F747269616E676C65732E62696E504B01021400140006080000B670623B00000000000000000000000037000000000000
310
00000000000000D50E00006662782F42384135303843342D343331462D343546312D424341352D3532343432364645413344462F617474726962757465732E62696E504B01021400140006080800B670623B08DA0BD1900000004101000036000000000000000000000000002A0F00006662782F42384135303843342D3433
310
31462D343546312D424341352D3532343432364645413344462F6469726563746F72792E786D6C504B01021400140006080800B670623B3B4606F3FE000000A00100003B000000000000000000000000000E1000006662782F42384135303843342D343331462D343546312D424341352D3532343432364645413344462F72
310
65736F75726365732F636F72652E786D6C504B0506000000000E000E0080040000651100000000
  0
XRECORD
  5
187
102
{ACAD_REACTORS
330
186
102
}
330
186
100
AcDbXrecord
280
     1
 70
     1
 90
429727718
  1
887D55A9-D0DD-414E-B741-A7DCD4DA2B4C
310
504B03040A0000080000B670623B3DEE336E79000000790000001B0000006175746F6465736B2D64657369676E2D7061636B6167652E786D6C3C3F786D6C2076657273696F6E3D22312E302220656E636F64696E673D227574662D3822203F3E3C666F726D6174733E3C666F726D61743E687474703A2F2F736368656D612E
310
6175746F6465736B2E636F6D2F64657369676E2D7061636B6167652F323030393C2F666F726D61743E3C2F666F726D6174733E504B0304140006080800B670623BD486FD9CA0000000F4000000130000005B436F6E74656E745F54797065735D2E786D6C7D8EC10E82300C865F65E91D8A1E8C310C0EEA1BF002731658846E
310
D98AC1B77784ABF1D8FE5FBFBF75BBCE937A534CCEB38643598122B6FEE978D0B0485F9C41B54DDD7D022595594E1A469170414C76A4D9A4D207E29CF43ECE46F218070CC6BECC4078ACAA135ACF422C856C0E68EA1BF5669944DDD7BCDE7B1F8E415D77AECB980613C2E4AC91FC167A2B244592486606FC29C8FD7F045B9A
310
EF7053A7E60B504B0304140006080800B670623BBC1638F5EC0000007C01000008000000636F72652E786D6C8D90416EC3201045AF82665B61836BE2D8C24471DB9CA01740401C94182C03558F5F9C3852BBEB6A467FFE9B197D7EF89E6EE8CB2CC17AD7032D0820E394D7D68D3DA478C67B4007C117EFE32F1B202727D3C3
310
2A83E0E3E2D3BC49CABB685CCCAAF3DA6CA20CC14440EA969B1E82BA98491632C5EC08D76296EA2A4753D06797E194AC468F2356E77DF66CCD02825543D50CACC62D39ED70FDC68EB8FD68F6F8787A6784342D1DDA1D2F5758F068A7E77DB518198D065111D2624A31A93E69DD11D6D5EC85EC3B4278B9DAFF4069D6FF8492
310
75F1B5DADE7D600104CD8FDC0782976B16B9DC83CA75CD4DFC00504B0304140006080800B670623B55019EA25F0000007C00000007000000636E782E786D6C4DCB3B0E80201045D1AD90E915ED2CF8AC45050C11660C8261F98AB1B07AC9C97D42D718D865D3E909258CFD00CCE24AC6E326A164D74DC0B4128928FF326038
310
472BA13128B1252AC747C6BAB984FC68F0B87FE8960A5C09FE86CFB69FBA01504B0304140006080800B670623B3586FFB671010000D40300000C0000006662782F636F72652E786D6CC553ED6E8320147D15C2DF4541A76D6D90A6DDD627D80B50A4CE54C120983EFEAE1F4DD7A55BBA5FF3879273EEE59E7310B6393735EA
310
95ED2AA3731C851423A5A5292A5DE6D8BB63B0C268C39935C67D29C3488B46E578803167A535BE9D2169B453DA01AA4DA16650749D7218C91A1639EEE4876A4428BC838AEE14B6429E44A9C228041AEA38EB9C0501681A32BC313F1ECE8C4C3867DE57C5CC56054CAB8E95B298A7F12E5EEED224C8E87E11242FE936C8DE96
310
AB60BB7F4D295D66D12E5B30323473E6AAE6A24E5A259C2A308F29CD82280A68FC1E256B9AAE93F489AED694323294DF34F9B678B0C957DA3DC7B3DCA9ADC33C022123F1CD2D44E450277AD04338234388F01913BE0D1A0281909D38D4171F27807A259DB1093085F157AA17B557309586747CD0CF0B46A64E983A6E0EAEEF
310
CE881F9EF1FB8E70D44297604238581EBC1B74B249C31C5AAB6CD0BB33D2C636A27ECCC62F0EFF445DC5DF95244D6DEC7F2922F30191F9F720C37DE49F504B0304140006080800B670623B4220A0FF7D0000009D0000000B0000006662782F636E782E786D6C4DCCD10A83201886E15B91FFDCE542CB0335D0EC3E6259C84A
310
C3E9D8E5AF46073BFAE0E1E315DD675BD1DBA5978F41C2FD4600B9F088930F8B849267CC01754AA418F3DF0D50183727E164506249B1EC174D6E1ECB9A0F5D7D785E68DB8151CD286E5A5363CA6B8A39E90D36D40E96B086F55A43A544F52B1D7B86D517504B0304140006080800B670623B2FA3FEDE290100001202000031
310
0000006662782F45374635344235342D363743322D343832342D383044432D4334454645303536354442422F636F72652E786D6C8D515B6EC32010BC0AE22B55850D2E386E848994D7097A0117488A1283C5A3CAF10BB523B57FF961D1ECCCECC0F2ED7DBC816FED8371B687A4C210682B9D32F6D2C314CFA883602BB8772E
310
FEA141608751F7B0C050F08B77695A20E96CD43666D43AA5177008414708E42D5F7A18E4971E876A483133C2B59A06791D2EBA22556E679EE021FA1C00CC43CA09C5717D6274C7286AD7FB06D1AEA1A8C3873DDAD3E3E98859CB0EBB1DAF67A1E02919B5C88DCA71CCD968FFAC49110B1ECDF8882FBD1EA256503418BF2342
310
106E3E08DD60B6A1EC15771B8C795DE8FF4469524F8A92B1F1AD59E2CEB20005E1F5DC105CB9F4797B84D1F7C9F908CABC55D0F2050A5C61CC1AD2F27A26E6E767C7962E8E213A9FBF7775FDCC5CC266DB960A5E970DE5F2BBBE5CCB36C50F504B0304140006080800B670623B1B8617914E01000033030000300000006662
310
782F45374635344235342D363743322D343832342D383044432D4334454645303536354442422F636E782E786D6CD593C16EC32010447F0571AD6CE3D489D20813A9877E410FBD62D82434182CC055F3F75D1292E692438FBD206B7698593D61BEFD1E2DF982108D773D6D6B460938E5B571FB9ECE6957AD29D90A1EBC4F77
310
364A9C1CA1A759A682EF839FA72269D8C9D92654AD71C72206887E0E0A22CAF926B15E498B01E0AA19451807D01A34B919F16B070157417138917400F2F6FA41FCF0092A45DEE414C19BDC21783E4BD39D891265658C3D8DEA00A3ACE59CBC8678ACB54CB26EEB6BD7839D7E9348BE70AD9C8321B9BCA7F9A4A26C542347DE
310
E050F09802D22BA6749A800A394DD62899107273365E3C82CFC6A55557BC06C10774B7ABE7AEC3B0F34CF06446280E154026D0542C187BA9DAB6628BF7B6DBB0E5A65B3EB1F58631DE64BBE083F7B65CC218087E22CABB042E51D1F2268F1FE12B3EA24D40D63E9CFE00120194D60B9D5BC67FE6D39CDF37E20AF817881F50
310
4B0304140006080800B670623B29652116630500003C100000340000006662782F45374635344235342D363743322D343832342D383044432D4334454645303536354442422F6F626A656374732E786D6CAD575D739B3814FD2B0CFB0C989834C90EA1639B24E3E9A6EDD4D3CE3E64C623834CD8006224913AFDF57B040203
310
B65BEF871F0C12D2FD3CF7E8CA7FBFCB33E3957291B2E2D674ED8969D02262715A24B76625B7D6B569BC0F7CCE98EC2D338D82E4F4D654D366E0279C55A59E8AE99654991CCDDECFFF3444440B6A1A514684B83545F44C7362934AB2988A173B2692D8C97667BB76B3702836E1A47C1E092D09A78584A5982F20C5688C7287
310
C389E904BEA3BE07BEFAD7ABA6A75739B53F43FD69212429A20365233153D70BEF2E2E6FAC4BCF9B5ADEBB0BD79ADFCF43CBBD9A4E16EF168B9BD9DD0D140BC921495BC2E9D60C1E101B9E46BED37CEA2CD6861F3329624541A3DA7F7858DBAC25C6B4A4458C3CA654405BCFEBC970E8AAD8F43E4FD558ABEC4F9FE7557F47
310
4F506B7BFBEC5BCA367FC105710E2AB8A00A554D7CB4A30DFE26FBA86D18CBF4B75418399194A72433B274C3097F33032C554B027F2046A1932B842B0FCCC0DDCBEBDB8AD2F835768F59B9ADB24C41D30C6A64AF817F2A456D59FA83F2E3DA60137255A585BCD60EC9B7929AC18DEFD49381AF1ED30BFDB109A4B1CD488294
310
C3CDE6EBC8D185AABD6568061FEE37BB95AAC7E3CA4BCE4ACAA5820FA0D526AE7DAA2869B5EE5999531BE0CC20E6FBA07C41E43FA27CF7A6206F3CDD793B4F6B919C1462CB788EDCD893FA674CDA17AB7B3B7C019F8D561FAEE966FED562DFE98C1D12C6A9FC015C2A35D7FF3D7FC398F591DA4B5FE0BFA2C0189FEA50AE22
310
92817A1ED3020951A03432862970F976B33383259812CC8E5D240BBA801CBCF8CE2BBEE3BF910DB6AAD5F79E05123AE2DB33981FB1ACCB02B69D00CB014FD68AB573A7627EF9BFD4CC2C5C7D58557C4B22FAA88925A4DBB44825CECE3D78FB060D1231F0E885BE7D673C86A3874958F593906B5502D1563157814FDAC3420D
310
F69A070A22EC4B98E23CFF171A1E5311D12C23056555ABA53B8614563B92D17D02AAB009E8F46284624E5F53D5490C560CCCC2591FF1B45421EB0EBD8EA7ED13BE7C5D7E0428CD60FEF60779EB13E6664FF711CB185F6FDED60D139A001FF60CD1FD6D086F1D51474901E26B2CB794A343BC8ED3EDB612E0DD2351FCB65CF4
310
33D511C9E14B5B40ADC6A6263DB0336A8F700DDF56271A024E70B0B3629DE21847591E55DED73D56206AB927E46FAABC5C939C55853C274C93D69FD6FA4E78BF8B11DF898C9ECD60553FAD39283BA6F18984AA23E8884F83F45C5F5F859797B31B2B9C84A1E5B9DE9D35BFF25C6B76152E422F9C5DCC3D847F5801ED09D5AF
310
41441327A25FF15487F9EB725FB666F048A4701E9A827292E6F97569A32DF61DEC01C0BB8DCBBCCC684E0B49147C1FD54BF685A0AB18C868E6973949E819523E3DAC463660E68C7D9F55A9D1EFA3BD7A76A16AE1A810F95CE59B82A4D968A376DC2E8B44BBDD86B27B368CDE0ED548C7137DA860591A83706223A12CA712B4
310
7306DBF39C0A20A6DF95C7FAF670C6EED7A61F946493D1D6926782963813403548A78AE470DEF80D2D9CEAA26E4D1C76F60BFE74219A06527D6B82DF641A51616F703CAAC6A7160E08A00BEB4810A0274592A1B36E3675E36E978A0DE80727A0D6DF2D39A75BD27E0D8837276589537B40ABB56D5A41F48F1C6FCD3188C4EB
310
A6929D2FFB89CE995A4D00AE813BDD032DC48B56BD437DFDDC2DD7AED70C2272D63DE9A72068A45A92F0A4BE17A8A06B9366E16707AD80B1FC649459952097E74BB23805982B55E0401150A165964402AA8BDF9F3E7386BB686EDCA780C0D382E5392BF460A6EFB2C6EA1937D3F809B440D5F5435C4C5CF7A9EEFAF54564BD
310
2182DA24162F98680B4E7930C21A0079709CEAEB99A372305ABE0C0D7D6078105A83F6A0296DAEE1068A47DD1C55A9F4C9B2FC69E3EFD44B81028E963DF81B504B0304140006080000B670623B000000000000000000000000350000006662782F45374635344235342D363743322D343832342D383044432D433445464530
310
3536354442422F76657274696365732E62696E504B0304140006080800B670623BF270F1330600000004000000360000006662782F45374635344235342D363743322D343832342D383044432D4334454645303536354442422F747269616E676C65732E62696E636660600000504B0304140006080000B670623B00000000
310
0000000000000000370000006662782F45374635344235342D363743322D343832342D383044432D4334454645303536354442422F617474726962757465732E62696E504B0304140006080800B670623B08DA0BD19000000041010000360000006662782F45374635344235342D363743322D343832342D383044432D4334
310
454645303536354442422F6469726563746F72792E786D6C858F410AC3201045AF22B36F53E9A60B35CBEEBAE80D244E44489C6234F4F835464A48035D0DF398FF9F8AF63D0E6CC63039F212F8F9020C7D47C6792B21C5FE7403D62A1188E2E60C98D7234A5830286103A55745067B9D86B8A3CF9C7F90C11DE607FB144396
310
D7B6A82D282E9A152AD114D5EF2CB866EEE831B8EEA07A7BB5A8D7D61A2BAAEB7FD5F70921FF497D00504B0304140006080800B670623B6378F24DFF000000A00100003B0000006662782F45374635344235342D363743322D343832342D383044432D4334454645303536354442422F7265736F75726365732F636F72652E
310
786D6C8D504B6E833010BD0A9A6D65B0094E42641C85B639412F6099496225D8C89FAAC7AF09546A77DDCC8CDE47F3F4C4F16B7C149FE88371B603565228D06A37187BED20C50BD9437194C23B177FC9A0B06AC40E6618A4B87A97A615D2CE46B431A3D60DB8822A048C50E8473E3A08FA86A32A558A5911EEE5A4F45D5DB1
310
6465A6B34E8A107D0E502C4FE609D26370C96B0CA25A58295232C3AA3143FE692E063D485EF7F5AEE71BD2D2F39634AFFC44DAF7DD9E9CCE6F9CD25DCBFA762BAAD92C4534E34F46ED51451C40D694B6843142EB0FD61C283F34FC85EE0F948A6A96FF31A569F8A729191B37F51A77B105902C0779125254735F793DCBCC7B
310
EE567E03504B010214000A0000080000B670623B3DEE336E79000000790000001B00000000000000000000000000000000006175746F6465736B2D64657369676E2D7061636B6167652E786D6C504B01021400140006080800B670623BD486FD9CA0000000F40000001300000000000000000000000000B20000005B436F6E
310
74656E745F54797065735D2E786D6C504B01021400140006080800B670623BBC1638F5EC0000007C010000080000000000000000000000000083010000636F72652E786D6C504B01021400140006080800B670623B55019EA25F0000007C000000070000000000000000000000000095020000636E782E786D6C504B010214
310
00140006080800B670623B3586FFB671010000D40300000C00000000000000000000000000190300006662782F636F72652E786D6C504B01021400140006080800B670623B4220A0FF7D0000009D0000000B00000000000000000000000000B40400006662782F636E782E786D6C504B01021400140006080800B670623B2F
310
A3FEDE290100001202000031000000000000000000000000005A0500006662782F45374635344235342D363743322D343832342D383044432D4334454645303536354442422F636F72652E786D6C504B01021400140006080800B670623B1B8617914E010000330300003000000000000000000000000000D2060000666278
310
2F45374635344235342D363743322D343832342D383044432D4334454645303536354442422F636E782E786D6C504B01021400140006080800B670623B29652116630500003C10000034000000000000000000000000006E0800006662782F45374635344235342D363743322D343832342D383044432D4334454645303536
310
354442422F6F626A656374732E786D6C504B01021400140006080000B670623B0000000000000000000000003500000000000000000000000000230E00006662782F45374635344235342D363743322D343832342D383044432D4334454645303536354442422F76657274696365732E62696E504B01021400140006080800
310
B670623BF270F13306000000040000003600000000000000000000000000760E00006662782F45374635344235342D363743322D343832342D383044432D4334454645303536354442422F747269616E676C65732E62696E504B01021400140006080000B670623B0000000000000000000000003700000000000000000000
310
000000D00E00006662782F45374635344235342D363743322D343832342D383044432D4334454645303536354442422F617474726962757465732E62696E504B01021400140006080800B670623B08DA0BD190000000410100003600000000000000000000000000250F00006662782F45374635344235342D363743322D34
310
3832342D383044432D4334454645303536354442422F6469726563746F72792E786D6C504B01021400140006080800B670623B6378F24DFF000000A00100003B00000000000000000000000000091000006662782F45374635344235342D363743322D343832342D383044432D4334454645303536354442422F7265736F75
310
726365732F636F72652E786D6C504B0506000000000E000E0080040000611100000000
  0
XRECORD
  5
112
102
{ACAD_REACTORS
330
110
102
}
330
110
100
AcDbXrecord
280
     1
270
     1
271
     1
  0
XRECORD
  5
111
102
{ACAD_REACTORS
330
110
102
}
330
110
100
AcDbXrecord
280
     1
270
     1
271
     1
  0
XRECORD
  5
18A
102
{ACAD_REACTORS
330
110
102
}
330
110
100
AcDbXrecord
280
     1
 70
     0
 90
1778669749
  1
9BF507EE-FAF7-4A99-A33D-4EE51894BC40
310
504B03040A0000080000B670623B3DEE336E79000000790000001B0000006175746F6465736B2D64657369676E2D7061636B6167652E786D6C3C3F786D6C2076657273696F6E3D22312E302220656E636F64696E673D227574662D3822203F3E3C666F726D6174733E3C666F726D61743E687474703A2F2F736368656D612E
310
6175746F6465736B2E636F6D2F64657369676E2D7061636B6167652F323030393C2F666F726D61743E3C2F666F726D6174733E504B0304140006080800B670623BD486FD9CA0000000F4000000130000005B436F6E74656E745F54797065735D2E786D6C7D8EC10E82300C865F65E91D8A1E8C310C0EEA1BF002731658846E
310
D98AC1B77784ABF1D8FE5FBFBF75BBCE937A534CCEB38643598122B6FEE978D0B0485F9C41B54DDD7D022595594E1A469170414C76A4D9A4D207E29CF43ECE46F218070CC6BECC4078ACAA135ACF422C856C0E68EA1BF5669944DDD7BCDE7B1F8E415D77AECB980613C2E4AC91FC167A2B244592486606FC29C8FD7F045B9A
310
EF7053A7E60B504B0304140006080800B670623BCA089DFFEC0000007C01000008000000636F72652E786D6C8D90416E83301045AF62CDB632D8402020E32882F604BD80653BC44AB011B6AB1EBF262152BBEB6A467FFE9B197D76FA9EEFE84BAFDE38DB03CD08206DA553C64E3DC470C1474027CE56E7C22F1B202B66DDC3
310
260367D3EAE2B24BD2D9A06D48AA754AEFA2F05E0740F29E9A1EBCBCEA59642286E4F0B76C11F226269DD15797E0188D42CF2346A57DE662F40ABCAEC77628C6120F654571D50C04B7F5B9C1E3997CD4F550BE3745C3F20DE62C98F9755FAE5A04AD801784B498524C8A4F5A75E4D055873772EC0861F966FF03C545FD138A
310
C686B2D8DF7D621E384D8F3C069CE55B16A93C824A75CB8DFF00504B0304140006080800B670623B55019EA25F0000007C00000007000000636E782E786D6C4DCB3B0E80201045D1AD90E915ED2CF8AC45050C11660C8261F98AB1B07AC9C97D42D718D865D3E909258CFD00CCE24AC6E326A164D74DC0B4128928FF326038
310
472BA13128B1252AC747C6BAB984FC68F0B87FE8960A5C09FE86CFB69FBA01504B0304140006080800B670623B68FC0B7272010000D40300000C0000006662782F636F72652E786D6CC5535B6E833010BC8AE5DF0A6C1E8124328E22D29EA01770C0A128602363A31CBFCB234A53A555FA553EC09AD9F5CE8C31DB5DDA060D
310
D2F4B556190E7C8A9154852E6B5565D8D993B7C668C799D1DA7E29C3488956667884316795D1AE5BA0422B2B950554E9522EA0E87B69312A1A5864B82F3E642B7CE12C54F467BF13C55954D20F7CA0A18EB3DE1A1080E621E31BF3D3F1C2C88C73E65C5D2E6C5DC2B4FA544B8379921C36797888BC3C8A032F4E73EA6D927D
310
EA1DF6F42D49F2E8350D5346C666CE6CDD5ED515460A2B4BCC434A375E1078347C0FE22D5D6DE3D50B5D6F2965642CBF6B725DF96493AB958DC245EEDCD6631E809089F8E61622B2A81703E8219C913144F84C09DF070D8140C8561C9BAB8F3340832CAC363130A576376A108D933095FA747AD0CF0B46E64E983A6D0EAE1F
310
CE089F9EF1FB8E70D44255604258581E9D1D75B259C3125A278D37D80B52DAB4A279CEC62F0EFF44DDC43F9454E8469BFF5244960322CBEF41C6FBC83F01504B0304140006080800B670623B0F71DDB67E0000009D0000000B0000006662782F636E782E786D6C4DCCD10A83201886E15B91FFDCA54DB73F502386BB8F5816
310
32D3703976F9ABD1C18E3E78F87855FB990379BBFCF2296AE02706C4C5471A7C9C349475A408A4352AA7B4FEDD80C47E761A7606A3A69CCA72D0E0C6BE8475D3E0E3F3409428EA6B27A84079A782899AA2EC1A7AE3ECCC2FD858CB2D544655BFD2B67BD87C01504B0304140006080800B670623BE134B4FB28010000120200
310
00310000006662782F38353834323741342D343835462D343034322D383541392D4331303331363839454531452F636F72652E786D6C8D515B6EC32010BC0AE22B55850D0EA424C24451959EA0172086A42831583CAA1CBF503B52FB971F16CDCECC0EACD8DFC71BF836215AEF7A481A0C817183D7D65D7A98D3197108F652
310
04EFD31F1A044E8DA6871586525C82CFD3020DDE25E352419DD76601558C264130DCCAA58771F832A36A544E8511AFCDA486ABBA988634A55D7852C4144A00300FA927949C71DABD1D28A29C7D208A6987383B6CD13BC16BB2E1DBE3911C453B0BA5C8D9EA456E758963CFD684674DAA588A64C747FC2118958C86B2C3788B
310
0841B8FB247487D98EB257CC77188BB6D2FF89F2A49F1465EBD2BA5BE2CEB2082511EDDC9042FB7CBA3DC298FBE4430275DE2A9AE1054ADC60CC08E3A29D89E5F9C5714317C7987C28DFBBBA9E0A97B0D97643A568EB864AF95D5FA9759BF207504B0304140006080800B670623B1B8617914E010000330300003000000066
310
62782F38353834323741342D343835462D343034322D383541392D4331303331363839454531452F636E782E786D6CD593C16EC32010447F0571AD6CE3D489D20813A9877E410FBD62D82434182CC055F3F75D1292E692438FBD206B7698593D61BEFD1E2DF982108D773D6D6B460938E5B571FB9ECE6957AD29D90A1EBC4F
310
77364A9C1CA1A759A682EF839FA72269D8C9D92654AD71C72206887E0E0A22CAF926B15E498B01E0AA19451807D01A34B919F16B070157417138917400F2F6FA41FCF0092A45DEE414C19BDC21783E4BD39D891265658C3D8DEA00A3ACE59CBC8678ACB54CB26EEB6BD7839D7E9348BE70AD9C8321B9BCA7F9A4A26C542347
310
DEE050F09802D22BA6749A800A394DD62899107273365E3C82CFC6A55557BC06C10774B7ABE7AEC3B0F34CF06446280E154026D0542C187BA9DAB6628BF7B6DBB0E5A65B3EB1F58631DE64BBE083F7B65CC218087E22CABB042E51D1F2268F1FE12B3EA24D40D63E9CFE00120194D60B9D5BC67FE6D39CDF37E20AF817881F
310
504B0304140006080800B670623B5933D422630500003B100000340000006662782F38353834323741342D343835462D343034322D383541392D4331303331363839454531452F6F626A656374732E786D6CAD575B6FA33814FE2B887D0642934E9B156594264D158D3A534DD4D13E548A0C38942D60649B4EBABF7E3F8321
310
40924EF6928780CDF1B97EE762EFF32E4B8D37CA45C2F21BD3B547A641F39045491EDF98A5DC5AD7A6F1D9F73863B243661A39C9E88DA9B64DDF8B392B0BBD15D12D295339D85DDEFE618890E6D434C2940871638AF08566C426A5641115AF764424B1E3EDCE76ED9AB0CF36E6A47819302D08A7B984A6D8CFC1C5A89572FB
310
CB91E9F89EA3BEFB9EFAD754E3D3544E654F5F7E920B49F2F040D880CDD89D2CEE2E2EA7D6E56432B6269F2E5CEB7679BBB0DCABF168FE693E9FCEEEA6102C240727AD09A75BD3BF876F78127A4EFDA9D5582B7E4CA590E5390D2BFB6161A5B3E618D182E611E2985001691DAB47FDA5AB7CD3F93C566B2DB2BB7D9E55DD13
310
1D468DEECDB3AB290BFE8409E21C54704115AA6AFF68436BFC8DF65E0B184BF5B74418199194272435D224E084BF9B3E481589EFF5D828747285706581E9BB7B7E5D5D911ABFC6EE312DB7659A2A689A7E85EC0DF04FA5A8344BFEA2FCB834E8845895492EAFB541F2BDA0A63FF59C6AD3F7D4637CA13FD68E34B629891172
310
98597F1D183A57B9B75A98FE9765B05BAB7C3C2EBCE0ACA05C2AF8005A4DE09AA7F29216EB9E15397500C6F47CBE77CA7778FE2BD277AF0AE2C693DD6437D1522427B9D8329E2136F6A8FA19A3E6C56ADF0E5F50CF06D48734EDCEBF22F69C56D97EC138153F804B85E6FABFC7AFEFB32E523BE1F3BD372418E363EDCA7548
310
52949E8724474014288D94610BB57C1BEC4C7F854A89CA8E5324F55B871CBC78CE1BBEE3BFE68D6A5589EF3C730474506FCFA8FCF0659516D0ED04580EEA6425581B77CAE797FF4BCECC16EB2FEB926F49481F746159D06D922712BD730FDEAE42BD40F42C7AA5EF3F198F60E86110D6DD20645A9480B795CF95E3E3A659A8
310
C55E724F408873315335CFFB8584874484344D494E59D94869DB90C26A5B64F49C802CAC1D3ABE18A098D3B7444D123D8A9E5AE8F5214F0AE5B2B6E9B575DA3E61CBD3EA2B4009FA940524DD1305FB6A1FB294F14DF0BEA90BA109ECE1481FDC3FFAE8D60E75141700BE82725371B4873751B2DD960265F788137FACE6DD40
310
B575E4F0A5C99F46629D92131467A41EE11ABD8D4CCC039CA0AFB37C93A08B232B8F0AEFCA1E0A1015DF13FC83322B362463652ECF71D3A8B1A7D1BE65DE1D62C44F22C317D35F574FEB16153BA2D13E543D10A80E74C4A65E78A6B7CBCBD1D5DD9DB59C2DAFACC96C3AB566E3F1C29ADCDD5DBAD7D3C9ED7C822ED74F80A6
310
41755310DE4443F44A9E68373FADF6596BFA0F440AE7BECE2727AE9F4F2B1B53B1E7E00CF0DD1E5C65454A339A4BA2D0FBA05ED2EF0443458F47BDBFCA484CCFE0F2ED7E3DD0013B679C7B5499467F0ECEEADDB9CA85A34CE44B99053949D2C1416DB85DE4B136BB7165FBAC0B7AB3542BED4F8CA182A549847A1319316519
310
95A83A67147B9E5101C47487F2485F1ECE38FD568F839204296D3479219888530154036E6528FBFBC66F98E0D4107563A2D7D9AFF8D389681A08F58D89F22693900A3B407754734FC51C10C010D6D640809EE4718AC1BA3ED4AEDB53CA37283F68805A7E4B72CEB0A4EDEAD5DD8C14059A76AFAA56BA6901E13F32BC51C720
310
12AF41295B5BF61BAD3195181FB506E6B40F4C10AF5AF40EF9F5B159AE5DD1F43C72D635E94310D45C2D49785C5D0B94D3B54AB3C5A38349C0587D338AB48C11CBF339599C02CCA54A70A008A8D03C0B2201D5F9EFCF8F9CE12A9A19CB0410789EB32C63B95ECCF455D658BFE0621A3DA32C5075FB101723D77DAE867E7D0F
310
D90444509B44E2151B4DC2290B065803200FBAA9BE9D392A0603F2D5C2D00D6302A615680F66D2FA166E2079D4C551A54AB758161FCEFD4E450A14704CECFEDF504B0304140006080000B670623B000000000000000000000000350000006662782F38353834323741342D343835462D343034322D383541392D4331303331
310
363839454531452F76657274696365732E62696E504B0304140006080800B670623BF270F1330600000004000000360000006662782F38353834323741342D343835462D343034322D383541392D4331303331363839454531452F747269616E676C65732E62696E636660600000504B0304140006080000B670623B000000
310
000000000000000000370000006662782F38353834323741342D343835462D343034322D383541392D4331303331363839454531452F617474726962757465732E62696E504B0304140006080800B670623B08DA0BD19000000041010000360000006662782F38353834323741342D343835462D343034322D383541392D43
310
31303331363839454531452F6469726563746F72792E786D6C858F410AC3201045AF22B36F53E9A60B35CBEEBAE80D244E44489C6234F4F835464A48035D0DF398FF9F8AF63D0E6CC63039F212F8F9020C7D47C6792B21C5FE7403D62A1188E2E60C98D7234A5830286103A55745067B9D86B8A3CF9C7F90C11DE607FB1443
310
96D7B6A82D282E9A152AD114D5EF2CB866EEE831B8EEA07A7BB5A8D7D61A2BAAEB7FD5F70921FF497D00504B0304140006080800B670623BD9A3B367FE000000A00100003B0000006662782F38353834323741342D343835462D343034322D383541392D4331303331363839454531452F7265736F75726365732F636F7265
310
2E786D6C8D504B6E833010BD0A9A6D65B01D0201194711694FD00B586642AD043BF2A7EAF16B122AB5BB6E6646EFA3797AE2F8B5DC8A4FF4C1383B002B291468B59B8C9D0748F1420E501CA5F0CEC55F3228AC5A708015062966EFD27D83B4B3116DCCA875136EA00A012314FA968F0182FEC045952AC5AC08D7F2AEF455CD
310
58B232D3592745883E07289E4FD609D26370C96B0CA27AB252A464A64D63A6FCD35C0C7A904D73EE467EE664DCD58CD4ED4849D79C5A723ED1B7A61977AF2D6F45B59AA58866F9C9A83DAA8813484E6947182394BFB3BAA7FBBEDEBFD0434FA9A856F91F53BA4FFF342563E38E6F719FB60092E5200F428A6AED2BAF479979
310
AFDDCA6F504B010214000A0000080000B670623B3DEE336E79000000790000001B00000000000000000000000000000000006175746F6465736B2D64657369676E2D7061636B6167652E786D6C504B01021400140006080800B670623BD486FD9CA0000000F40000001300000000000000000000000000B20000005B436F6E
310
74656E745F54797065735D2E786D6C504B01021400140006080800B670623BCA089DFFEC0000007C010000080000000000000000000000000083010000636F72652E786D6C504B01021400140006080800B670623B55019EA25F0000007C000000070000000000000000000000000095020000636E782E786D6C504B010214
310
00140006080800B670623B68FC0B7272010000D40300000C00000000000000000000000000190300006662782F636F72652E786D6C504B01021400140006080800B670623B0F71DDB67E0000009D0000000B00000000000000000000000000B50400006662782F636E782E786D6C504B01021400140006080800B670623BE1
310
34B4FB280100001202000031000000000000000000000000005C0500006662782F38353834323741342D343835462D343034322D383541392D4331303331363839454531452F636F72652E786D6C504B01021400140006080800B670623B1B8617914E010000330300003000000000000000000000000000D3060000666278
310
2F38353834323741342D343835462D343034322D383541392D4331303331363839454531452F636E782E786D6C504B01021400140006080800B670623B5933D422630500003B10000034000000000000000000000000006F0800006662782F38353834323741342D343835462D343034322D383541392D4331303331363839
310
454531452F6F626A656374732E786D6C504B01021400140006080000B670623B0000000000000000000000003500000000000000000000000000240E00006662782F38353834323741342D343835462D343034322D383541392D4331303331363839454531452F76657274696365732E62696E504B01021400140006080800
310
B670623BF270F13306000000040000003600000000000000000000000000770E00006662782F38353834323741342D343835462D343034322D383541392D4331303331363839454531452F747269616E676C65732E62696E504B01021400140006080000B670623B0000000000000000000000003700000000000000000000
310
000000D10E00006662782F38353834323741342D343835462D343034322D383541392D4331303331363839454531452F617474726962757465732E62696E504B01021400140006080800B670623B08DA0BD190000000410100003600000000000000000000000000260F00006662782F38353834323741342D343835462D34
310
3034322D383541392D4331303331363839454531452F6469726563746F72792E786D6C504B01021400140006080800B670623BD9A3B367FE000000A00100003B000000000000000000000000000A1000006662782F38353834323741342D343835462D343034322D383541392D4331303331363839454531452F7265736F75
310
726365732F636F72652E786D6C504B0506000000000E000E0080040000611100000000
  0
XRECORD
  5
113
102
{ACAD_REACTORS
330
110
102
}
330
110
100
AcDbXrecord
280
     1
270
     1
271
     1
  0
XRECORD
  5
114
102
{ACAD_REACTORS
330
110
102
}
330
110
100
AcDbXrecord
280
     1
270
     1
271
     1
  0
CELLSTYLEMAP
  5
6FAB7
102
{ACAD_REACTORS
330
104
102
}
330
104
100
AcDbCellStyleMap
 90
        3
300
CELLSTYLE
  1
TABLEFORMAT_BEGIN
 90
        5
170
     1
 91
        0
 92
    32768
 62
   257
 93
        1
300
CONTENTFORMAT
  1
CONTENTFORMAT_BEGIN
 90
        0
 91
        0
 92
      512
 93
        0
300

 40
0.0
140
1.0
 94
        5
 62
     0
340
11
144
0.25
309
CONTENTFORMAT_END
171
     1
301
MARGIN
  1
CELLMARGIN_BEGIN
 40
0.06
 40
0.06
 40
0.06
 40
0.06
 40
0.18
 40
0.18
309
CELLMARGIN_END
 94
        6
 95
        1
302
GRIDFORMAT
  1
GRIDFORMAT_BEGIN
 90
        0
 91
        1
 62
     0
 92
       -2
340
0
 93
        0
 40
0.045
309
GRIDFORMAT_END
 95
        2
302
GRIDFORMAT
  1
GRIDFORMAT_BEGIN
 90
        0
 91
        1
 62
     0
 92
       -2
340
0
 93
        0
 40
0.045
309
GRIDFORMAT_END
 95
        4
302
GRIDFORMAT
  1
GRIDFORMAT_BEGIN
 90
        0
 91
        1
 62
     0
 92
       -2
340
0
 93
        0
 40
0.045
309
GRIDFORMAT_END
 95
        8
302
GRIDFORMAT
  1
GRIDFORMAT_BEGIN
 90
        0
 91
        1
 62
     0
 92
       -2
340
0
 93
        0
 40
0.045
309
GRIDFORMAT_END
 95
       16
302
GRIDFORMAT
  1
GRIDFORMAT_BEGIN
 90
        0
 91
        1
 62
     0
 92
       -2
340
0
 93
        0
 40
0.045
309
GRIDFORMAT_END
 95
       32
302
GRIDFORMAT
  1
GRIDFORMAT_BEGIN
 90
        0
 91
        1
 62
     0
 92
       -2
340
0
 93
        0
 40
0.045
309
GRIDFORMAT_END
309
TABLEFORMAT_END
  1
CELLSTYLE_BEGIN
 90
        1
 91
        1
300
_TITLE
309
CELLSTYLE_END
300
CELLSTYLE
  1
TABLEFORMAT_BEGIN
 90
        5
170
     1
 91
        0
 92
        0
 62
   257
 93
        1
300
CONTENTFORMAT
  1
CONTENTFORMAT_BEGIN
 90
        0
 91
        0
 92
      512
 93
        0
300

 40
0.0
140
1.0
 94
        5
 62
     0
340
11
144
0.18
309
CONTENTFORMAT_END
171
     1
301
MARGIN
  1
CELLMARGIN_BEGIN
 40
0.06
 40
0.06
 40
0.06
 40
0.06
 40
0.18
 40
0.18
309
CELLMARGIN_END
 94
        6
 95
        1
302
GRIDFORMAT
  1
GRIDFORMAT_BEGIN
 90
        0
 91
        1
 62
     0
 92
       -2
340
0
 93
        0
 40
0.045
309
GRIDFORMAT_END
 95
        2
302
GRIDFORMAT
  1
GRIDFORMAT_BEGIN
 90
        0
 91
        1
 62
     0
 92
       -2
340
0
 93
        0
 40
0.045
309
GRIDFORMAT_END
 95
        4
302
GRIDFORMAT
  1
GRIDFORMAT_BEGIN
 90
        0
 91
        1
 62
     0
 92
       -2
340
0
 93
        0
 40
0.045
309
GRIDFORMAT_END
 95
        8
302
GRIDFORMAT
  1
GRIDFORMAT_BEGIN
 90
        0
 91
        1
 62
     0
 92
       -2
340
0
 93
        0
 40
0.045
309
GRIDFORMAT_END
 95
       16
302
GRIDFORMAT
  1
GRIDFORMAT_BEGIN
 90
        0
 91
        1
 62
     0
 92
       -2
340
0
 93
        0
 40
0.045
309
GRIDFORMAT_END
 95
       32
302
GRIDFORMAT
  1
GRIDFORMAT_BEGIN
 90
        0
 91
        1
 62
     0
 92
       -2
340
0
 93
        0
 40
0.045
309
GRIDFORMAT_END
309
TABLEFORMAT_END
  1
CELLSTYLE_BEGIN
 90
        2
 91
        1
300
_HEADER
309
CELLSTYLE_END
300
CELLSTYLE
  1
TABLEFORMAT_BEGIN
 90
        5
170
     1
 91
        0
 92
        0
 62
   257
 93
        1
300
CONTENTFORMAT
  1
CONTENTFORMAT_BEGIN
 90
        0
 91
        0
 92
      512
 93
        0
300

 40
0.0
140
1.0
 94
        2
 62
     0
340
11
144
0.18
309
CONTENTFORMAT_END
171
     1
301
MARGIN
  1
CELLMARGIN_BEGIN
 40
0.06
 40
0.06
 40
0.06
 40
0.06
 40
0.18
 40
0.18
309
CELLMARGIN_END
 94
        6
 95
        1
302
GRIDFORMAT
  1
GRIDFORMAT_BEGIN
 90
        0
 91
        1
 62
     0
 92
       -2
340
0
 93
        0
 40
0.045
309
GRIDFORMAT_END
 95
        2
302
GRIDFORMAT
  1
GRIDFORMAT_BEGIN
 90
        0
 91
        1
 62
     0
 92
       -2
340
0
 93
        0
 40
0.045
309
GRIDFORMAT_END
 95
        4
302
GRIDFORMAT
  1
GRIDFORMAT_BEGIN
 90
        0
 91
        1
 62
     0
 92
       -2
340
0
 93
        0
 40
0.045
309
GRIDFORMAT_END
 95
        8
302
GRIDFORMAT
  1
GRIDFORMAT_BEGIN
 90
        0
 91
        1
 62
     0
 92
       -2
340
0
 93
        0
 40
0.045
309
GRIDFORMAT_END
 95
       16
302
GRIDFORMAT
  1
GRIDFORMAT_BEGIN
 90
        0
 91
        1
 62
     0
 92
       -2
340
0
 93
        0
 40
0.045
309
GRIDFORMAT_END
 95
       32
302
GRIDFORMAT
  1
GRIDFORMAT_BEGIN
 90
        0
 91
        1
 62
     0
 92
       -2
340
0
 93
        0
 40
0.045
309
GRIDFORMAT_END
309
TABLEFORMAT_END
  1
CELLSTYLE_BEGIN
 90
        3
 91
        2
300
_DATA
309
CELLSTYLE_END
  0
ENDSEC
  0
SECTION
  2
ACDSDATA
 70
     2
 71
     8
  0
ACDSSCHEMA
 90
        0
  1
AcDb_Thumbnail_Schema
  2
AcDbDs::ID
280
    10
 91
        8
  2
Thumbnail_Data
280
    15
 91
        0
101
ACDSRECORD
 95
        0
 90
        1
  2
AcDbDs::TreatedAsObjectData
280
     1
291
     1
101
ACDSRECORD
 95
        0
 90
        2
  2
AcDbDs::Legacy
280
     1
291
     1
101
ACDSRECORD
  1
AcDbDs::ID
 90
        3
  2
AcDs:Indexable
280
     1
291
     1
101
ACDSRECORD
  1
AcDbDs::ID
 90
        4
  2
AcDbDs::HandleAttribute
280
     7
282
     1
  0
ACDSSCHEMA
 90
        1
  1
AcDbDs::TreatedAsObjectDataSchema
  2
AcDbDs::TreatedAsObjectData
280
     1
 91
        0
  0
ACDSSCHEMA
 90
        2
  1
AcDbDs::LegacySchema
  2
AcDbDs::Legacy
280
     1
 91
        0
  0
ACDSSCHEMA
 90
        3
  1
AcDbDs::IndexedPropertySchema
  2
AcDs:Indexable
280
     1
 91
        0
  0
ACDSSCHEMA
 90
        4
  1
AcDbDs::HandleAttributeSchema
  2
AcDbDs::HandleAttribute
280
     7
 91
        1
284
     1
  0
ACDSSCHEMA
 90
        5
  1
AcDb3DSolid_ASM_Data
  2
AcDbDs::ID
280
    10
 91
        8
  2
ASM_Data
280
    15
 91
        0
101
ACDSRECORD
 95
        5
 90
        1
  2
AcDbDs::TreatedAsObjectData
280
     1
291
     1
101
ACDSRECORD
 95
        5
 90
        2
  2
AcDbDs::Legacy
280
     1
291
     1
101
ACDSRECORD
  1
AcDbDs::ID
 90
        3
  2
AcDs:Indexable
280
     1
291
     1
101
ACDSRECORD
  1
AcDbDs::ID
 90
        4
  2
AcDbDs::HandleAttribute
280
     7
282
     1
  0
ACDSRECORD
 90
        0
  2
AcDbDs::ID
280
    10
320
22
  2
Thumbnail_Data
280
    15
 94
     1666
310
89504E470D0A1A0A0000000D49484452000001000000006C0803000000B2ED9CC100000300504C5445212830FFFFFF2128300000000000000000000000000000000000000000000000000000330000660000990000CC0000FF0033000033330033660033990033CC0033FF0066000066330066660066990066CC0066FF0099
310
000099330099660099990099CC0099FF00CC0000CC3300CC6600CC9900CCCC00CCFF00FF0000FF3300FF6600FF9900FFCC00FFFF3300003300333300663300993300CC3300FF3333003333333333663333993333CC3333FF3366003366333366663366993366CC3366FF3399003399333399663399993399CC3399FF33CC00
310
33CC3333CC6633CC9933CCCC33CCFF33FF0033FF3333FF6633FF9933FFCC33FFFF6600006600336600666600996600CC6600FF6633006633336633666633996633CC6633FF6666006666336666666666996666CC6666FF6699006699336699666699996699CC6699FF66CC0066CC3366CC6666CC9966CCCC66CCFF66FF0066
310
FF3366FF6666FF9966FFCC66FFFF9900009900339900669900999900CC9900FF9933009933339933669933999933CC9933FF9966009966339966669966999966CC9966FF9999009999339999669999999999CC9999FF99CC0099CC3399CC6699CC9999CCCC99CCFF99FF0099FF3399FF6699FF9999FFCC99FFFFCC0000CC00
310
33CC0066CC0099CC00CCCC00FFCC3300CC3333CC3366CC3399CC33CCCC33FFCC6600CC6633CC6666CC6699CC66CCCC66FFCC9900CC9933CC9966CC9999CC99CCCC99FFCCCC00CCCC33CCCC66CCCC99CCCCCCCCCCFFCCFF00CCFF33CCFF66CCFF99CCFFCCCCFFFFFF0000FF0033FF0066FF0099FF00CCFF00FFFF3300FF3333
310
FF3366FF3399FF33CCFF33FFFF6600FF6633FF6666FF6699FF66CCFF66FFFF9900FF9933FF9966FF9999FF99CCFF99FFFFCC00FFCC33FFCC66FFCC99FFCCCCFFCCFFFFFF00FFFF33FFFF66FFFF99FFFFCCFFFFFF0000000D0D0D1A1A1A2828283535354343435050505D5D5D6B6B6B787878868686939393A1A1A1AEAEAEBB
310
BBBBC9C9C9D6D6D6E4E4E4F1F1F1FFFFFF0000000000000000000000000000000000000000000000000000000000002E4550F1000001634944415478DAED9BCB72C2301004F7FFFF77EE297044EC5816962E2133DD557040EC615BD25A0FA802000000000000000000804F43F2C842F3110D8FFC67F390D30858E848598D80
310
4712D302DACB640AD4FC14D056396C04AC960D93A7C08280168200042020514021000108400002C205F89C07AC0B28135605140210902D20BD06B4F7D875809C044CF37D969A2DC0A6126E53E094CB28B96788998053215085093876F938B526C0EC31B84B5A3742FC04B48BE2F723DB56C0D6F5BA17622AE0E7D66BB0E537
310
16703481808B9BD30C01BBB28880500117FB80B422D8DB0AA508B80890CAE7507CD4931A9E08D99C896994E8E808A122050C56072102DE8420C04A40A70501084040928073539A80F369F96B2F902AA0967E60FE7F05FC6E8C9B0217AB2104244D01E9CE67CE35205A40F7BF417102E247C07125142540DD6F070B50190AD0
310
FDDDE0EEBAC428FD4136FD7B212B0100000000000000000000F0F77C015593AD5B220BCA400000000049454E44AE4260829E009C02AB882400670008AA1A09C01F803DB482842B007804B0C60D91CF2F9E2F7FB1C23DC1579225015C3F890CE05202B8F9242E001C5FF3827301006B5440D9FC87A325E680CBB4BF3A80E341
310
024800126BCED8DCCAFE0BC89323148B0004169DB1773E315BC236EF7D16429C74C0FC8810FAB822E4686C54F4D26BA9A9E2DD7790D975BD451A1FD53D220800A0797E05CB04E203000DE41FA502A8BD05F61574D1160836078CE58FF12DE253CECF072C2F70EA6F011040B1F60060AF8009C658FE140940F746886607B0F5
310
F2D84660BD1618B88A08D2027100640B8C5D0B2DBC0AC45A06BBF6C2581840B855A0358D18E98F251203406F1A612A80B202BAD38891FF580B500000D49D4988F37FAC813E72214627000A3582A5C338FE00598ED82311F33F3A0000000049454E44AE4260820F467818FD4AC64A010000000049454E44AE42608200187F52
310
539FF6AC0FF2D01229B97F7B56AE64E8787DBF9E93B283504D4929EEDB336DE133B927D0B706F146D8FDD54728002424931276690CDE5FFA471401522320E6FA719CDCC9E90D234F422DA512220CD4066298BF969A4028B717C4D481E25C1BC6C59A99842240E2F24B1F92F8AC20F021F00EFE737AFD0FDF7E00E9E9886BC5
310
1247A50000000049454E44AE426082
  0
ENDSEC
  0
EOF
