  0
SECTION
  2
HEADER
  9
$ACADVER
  1
AC1032
  9
$ACADMAINTVER
 90
      197
  9
$DWGCODEPAGE
  3
ANSI_1252
  9
$LASTSAVEDBY
  1
gregb
  9
$REQUIREDVERSIONS
160
                 0
  9
$INSBASE
 10
0.0
 20
0.0
 30
0.0
  9
$EXTMIN
 10
104447.8488005733
 20
95262.84509547245
 30
0.0
  9
$EXTMAX
 10
104448.5130504489
 20
95263.51344091986
 30
0.0
  9
$LIMMIN
 10
0.0
 20
0.0
  9
$LIMMAX
 10
12.0
 20
9.0
  9
$ORTHOMODE
 70
     1
  9
$REGENMODE
 70
     1
  9
$FILLMODE
 70
     1
  9
$QTEXTMODE
 70
     0
  9
$MIRRTEXT
 70
     0
  9
$LTSCALE
 40
1.0
  9
$ATTMODE
 70
     1
  9
$TEXTSIZE
 40
0.2
  9
$TRACEWID
 40
0.05
  9
$TEXTSTYLE
  7
Standard
  9
$CLAYER
  8
freecads.com
  9
$CELTYPE
  6
ByLayer
  9
$CECOLOR
 62
   256
  9
$CELTSCALE
 40
1.0
  9
$DISPSILH
 70
     1
  9
$DIMSCALE
 40
1.0
  9
$DIMASZ
 40
0.18
  9
$DIMEXO
 40
0.0625
  9
$DIMDLI
 40
0.38
  9
$DIMRND
 40
0.0
  9
$DIMDLE
 40
0.0
  9
$DIMEXE
 40
0.18
  9
$DIMTP
 40
0.0
  9
$DIMTM
 40
0.0
  9
$DIMTXT
 40
0.18
  9
$DIMCEN
 40
0.09
  9
$DIMTSZ
 40
0.0
  9
$DIMTOL
 70
     0
  9
$DIMLIM
 70
     0
  9
$DIMTIH
 70
     1
  9
$DIMTOH
 70
     1
  9
$DIMSE1
 70
     0
  9
$DIMSE2
 70
     0
  9
$DIMTAD
 70
     0
  9
$DIMZIN
 70
     0
  9
$DIMBLK
  1

  9
$DIMASO
 70
     1
  9
$DIMSHO
 70
     1
  9
$DIMPOST
  1

  9
$DIMAPOST
  1

  9
$DIMALT
 70
     0
  9
$DIMALTD
 70
     2
  9
$DIMALTF
 40
25.4
  9
$DIMLFAC
 40
1.0
  9
$DIMTOFL
 70
     0
  9
$DIMTVP
 40
0.0
  9
$DIMTIX
 70
     0
  9
$DIMSOXD
 70
     0
  9
$DIMSAH
 70
     0
  9
$DIMBLK1
  1

  9
$DIMBLK2
  1

  9
$DIMSTYLE
  2
Standard
  9
$DIMCLRD
 70
     0
  9
$DIMCLRE
 70
     0
  9
$DIMCLRT
 70
     0
  9
$DIMTFAC
 40
1.0
  9
$DIMGAP
 40
0.09
  9
$DIMJUST
 70
     0
  9
$DIMSD1
 70
     0
  9
$DIMSD2
 70
     0
  9
$DIMTOLJ
 70
     1
  9
$DIMTZIN
 70
     0
  9
$DIMALTZ
 70
     0
  9
$DIMALTTZ
 70
     0
  9
$DIMUPT
 70
     0
  9
$DIMDEC
 70
     4
  9
$DIMTDEC
 70
     4
  9
$DIMALTU
 70
     2
  9
$DIMALTTD
 70
     2
  9
$DIMTXSTY
  7
Standard
  9
$DIMAUNIT
 70
     0
  9
$DIMADEC
 70
     0
  9
$DIMALTRND
 40
0.0
  9
$DIMAZIN
 70
     0
  9
$DIMDSEP
 70
    46
  9
$DIMATFIT
 70
     3
  9
$DIMFRAC
 70
     0
  9
$DIMLDRBLK
  1

  9
$DIMLUNIT
 70
     2
  9
$DIMLWD
 70
    -2
  9
$DIMLWE
 70
    -2
  9
$DIMTMOVE
 70
     0
  9
$DIMFXL
 40
1.0
  9
$DIMFXLON
 70
     0
  9
$DIMJOGANG
 40
0.7853981633974483
  9
$DIMTFILL
 70
     0
  9
$DIMTFILLCLR
 70
     0
  9
$DIMARCSYM
 70
     0
  9
$DIMLTYPE
  6

  9
$DIMLTEX1
  6

  9
$DIMLTEX2
  6

  9
$DIMTXTDIRECTION
 70
     0
  9
$LUNITS
 70
     2
  9
$LUPREC
 70
     4
  9
$SKETCHINC
 40
0.1
  9
$FILLETRAD
 40
0.0
  9
$AUNITS
 70
     0
  9
$AUPREC
 70
     0
  9
$MENU
  1
.
  9
$ELEVATION
 40
0.0
  9
$PELEVATION
 40
0.0
  9
$THICKNESS
 40
0.0
  9
$LIMCHECK
 70
     0
  9
$CHAMFERA
 40
0.0
  9
$CHAMFERB
 40
0.0
  9
$CHAMFERC
 40
0.0
  9
$CHAMFERD
 40
0.0
  9
$SKPOLY
 70
     0
  9
$TDCREATE
 40
2458157.454583334
  9
$TDUCREATE
 40
2458157.287916667
  9
$TDUPDATE
 40
2460666.778900463
  9
$TDUUPDATE
 40
2460666.612233796
  9
$TDINDWG
 40
0.1711458333
  9
$TDUSRTIMER
 40
0.1711458333
  9
$USRTIMER
 70
     1
  9
$ANGBASE
 50
0.0
  9
$ANGDIR
 70
     0
  9
$PDMODE
 70
     0
  9
$PDSIZE
 40
0.0
  9
$PLINEWID
 40
0.0
  9
$SPLFRAME
 70
     0
  9
$SPLINETYPE
 70
     6
  9
$SPLINESEGS
 70
     8
  9
$HANDSEED
  5
6B282
  9
$SURFTAB1
 70
     6
  9
$SURFTAB2
 70
     6
  9
$SURFTYPE
 70
     6
  9
$SURFU
 70
     6
  9
$SURFV
 70
     6
  9
$UCSBASE
  2

  9
$UCSNAME
  2

  9
$UCSORG
 10
0.0
 20
0.0
 30
0.0
  9
$UCSXDIR
 10
1.0
 20
0.0
 30
0.0
  9
$UCSYDIR
 10
0.0
 20
1.0
 30
0.0
  9
$UCSORTHOREF
  2

  9
$UCSORTHOVIEW
 70
     0
  9
$UCSORGTOP
 10
0.0
 20
0.0
 30
0.0
  9
$UCSORGBOTTOM
 10
0.0
 20
0.0
 30
0.0
  9
$UCSORGLEFT
 10
0.0
 20
0.0
 30
0.0
  9
$UCSORGRIGHT
 10
0.0
 20
0.0
 30
0.0
  9
$UCSORGFRONT
 10
0.0
 20
0.0
 30
0.0
  9
$UCSORGBACK
 10
0.0
 20
0.0
 30
0.0
  9
$PUCSBASE
  2

  9
$PUCSNAME
  2

  9
$PUCSORG
 10
0.0
 20
0.0
 30
0.0
  9
$PUCSXDIR
 10
1.0
 20
0.0
 30
0.0
  9
$PUCSYDIR
 10
0.0
 20
1.0
 30
0.0
  9
$PUCSORTHOREF
  2

  9
$PUCSORTHOVIEW
 70
     0
  9
$PUCSORGTOP
 10
0.0
 20
0.0
 30
0.0
  9
$PUCSORGBOTTOM
 10
0.0
 20
0.0
 30
0.0
  9
$PUCSORGLEFT
 10
0.0
 20
0.0
 30
0.0
  9
$PUCSORGRIGHT
 10
0.0
 20
0.0
 30
0.0
  9
$PUCSORGFRONT
 10
0.0
 20
0.0
 30
0.0
  9
$PUCSORGBACK
 10
0.0
 20
0.0
 30
0.0
  9
$USERI1
 70
     0
  9
$USERI2
 70
     0
  9
$USERI3
 70
     0
  9
$USERI4
 70
     0
  9
$USERI5
 70
     0
  9
$USERR1
 40
0.0
  9
$USERR2
 40
0.0
  9
$USERR3
 40
0.0
  9
$USERR4
 40
0.0
  9
$USERR5
 40
0.0
  9
$WORLDVIEW
 70
     1
  9
$SHADEDGE
 70
     3
  9
$SHADEDIF
 70
    70
  9
$TILEMODE
 70
     1
  9
$MAXACTVP
 70
    64
  9
$PINSBASE
 10
0.0
 20
0.0
 30
0.0
  9
$PLIMCHECK
 70
     0
  9
$PEXTMIN
 10
0.0
 20
0.0
 30
0.0
  9
$PEXTMAX
 10
0.0
 20
0.0
 30
0.0
  9
$PLIMMIN
 10
0.0
 20
0.0
  9
$PLIMMAX
 10
12.0
 20
9.0
  9
$UNITMODE
 70
     0
  9
$VISRETAIN
 70
     1
  9
$PLINEGEN
 70
     0
  9
$PSLTSCALE
 70
     1
  9
$TREEDEPTH
 70
  3020
  9
$CMLSTYLE
  2
Standard
  9
$CMLJUST
 70
     0
  9
$CMLSCALE
 40
1.0
  9
$PROXYGRAPHICS
 70
     1
  9
$MEASUREMENT
 70
     0
  9
$CELWEIGHT
370
    -1
  9
$ENDCAPS
280
     0
  9
$JOINSTYLE
280
     0
  9
$LWDISPLAY
290
     0
  9
$INSUNITS
 70
     1
  9
$HYPERLINKBASE
  1

  9
$STYLESHEET
  1
monochrome.ctb
  9
$XEDIT
290
     1
  9
$CEPSNTYPE
380
     0
  9
$PSTYLEMODE
290
     1
  9
$FINGERPRINTGUID
  2
{358EB121-6EE0-9143-8A3E-6E8E8869FDA6}
  9
$VERSIONGUID
  2
{99B63ACC-0915-424B-826F-2183422F2FD1}
  9
$EXTNAMES
290
     1
  9
$PSVPSCALE
 40
0.0
  9
$OLESTARTUP
290
     0
  9
$SORTENTS
280
   127
  9
$INDEXCTL
280
     0
  9
$HIDETEXT
280
     1
  9
$XCLIPFRAME
280
     2
  9
$HALOGAP
280
     0
  9
$OBSCOLOR
 70
   257
  9
$OBSLTYPE
280
     0
  9
$INTERSECTIONDISPLAY
280
     0
  9
$INTERSECTIONCOLOR
 70
   257
  9
$DIMASSOC
280
     2
  9
$PROJECTNAME
  1

  9
$CAMERADISPLAY
290
     0
  9
$LENSLENGTH
 40
50.0
  9
$CAMERAHEIGHT
 40
0.0
  9
$STEPSPERSEC
 40
2.0
  9
$STEPSIZE
 40
6.0
  9
$3DDWFPREC
 40
2.0
  9
$PSOLWIDTH
 40
0.25
  9
$PSOLHEIGHT
 40
4.0
  9
$LOFTANG1
 40
1.570796326794896
  9
$LOFTANG2
 40
1.570796326794896
  9
$LOFTMAG1
 40
0.0
  9
$LOFTMAG2
 40
0.0
  9
$LOFTPARAM
 70
     7
  9
$LOFTNORMALS
280
     1
  9
$LATITUDE
 40
37.795
  9
$LONGITUDE
 40
-122.394
  9
$NORTHDIRECTION
 40
0.0
  9
$TIMEZONE
 70
 -8000
  9
$LIGHTGLYPHDISPLAY
280
     1
  9
$TILEMODELIGHTSYNCH
280
     1
  9
$CMATERIAL
347
96
  9
$SOLIDHIST
280
     0
  9
$SHOWHIST
280
     1
  9
$DWFFRAME
280
     2
  9
$DGNFRAME
280
     0
  9
$REALWORLDSCALE
290
     1
  9
$INTERFERECOLOR
 62
     1
  9
$INTERFEREOBJVS
345
A3
  9
$INTERFEREVPVS
346
A0
  9
$CSHADOW
280
     0
  9
$SHADOWPLANELOCATION
 40
0.0
  0
ENDSEC
  0
SECTION
  2
CLASSES
  0
CLASS
  1
ACDBDICTIONARYWDFLT
  2
AcDbDictionaryWithDefault
  3
ObjectDBX Classes
 90
        0
 91
        1
280
     0
281
     0
  0
CLASS
  1
DICTIONARYVAR
  2
AcDbDictionaryVar
  3
ObjectDBX Classes
 90
        0
 91
       27
280
     0
281
     0
  0
CLASS
  1
TABLESTYLE
  2
AcDbTableStyle
  3
ObjectDBX Classes
 90
     4095
 91
        1
280
     0
281
     0
  0
CLASS
  1
MATERIAL
  2
AcDbMaterial
  3
ObjectDBX Classes
 90
     1153
 91
        3
280
     0
281
     0
  0
CLASS
  1
VISUALSTYLE
  2
AcDbVisualStyle
  3
ObjectDBX Classes
 90
     4095
 91
       25
280
     0
281
     0
  0
CLASS
  1
SCALE
  2
AcDbScale
  3
ObjectDBX Classes
 90
     1153
 91
       34
280
     0
281
     0
  0
CLASS
  1
MLEADERSTYLE
  2
AcDbMLeaderStyle
  3
ACDB_MLEADERSTYLE_CLASS
 90
     4095
 91
        1
280
     0
281
     0
  0
CLASS
  1
CELLSTYLEMAP
  2
AcDbCellStyleMap
  3
ObjectDBX Classes
 90
     1152
 91
        1
280
     0
281
     0
  0
CLASS
  1
EXACXREFPANELOBJECT
  2
ExAcXREFPanelObject
  3
EXAC_ESW
 90
     1025
 91
        1
280
     0
281
     0
  0
CLASS
  1
NPOCOLLECTION
  2
AcDbImpNonPersistentObjectsCollection
  3
ObjectDBX Classes
 90
     1153
 91
        1
280
     0
281
     0
  0
CLASS
  1
LAYER_INDEX
  2
AcDbLayerIndex
  3
ObjectDBX Classes
 90
        0
 91
        0
280
     0
281
     0
  0
CLASS
  1
SPATIAL_INDEX
  2
AcDbSpatialIndex
  3
ObjectDBX Classes
 90
        0
 91
        0
280
     0
281
     0
  0
CLASS
  1
IDBUFFER
  2
AcDbIdBuffer
  3
ObjectDBX Classes
 90
        0
 91
        0
280
     0
281
     0
  0
CLASS
  1
ACDBSECTIONVIEWSTYLE
  2
AcDbSectionViewStyle
  3
ObjectDBX Classes
 90
     1025
 91
        2
280
     0
281
     0
  0
CLASS
  1
ACDBDETAILVIEWSTYLE
  2
AcDbDetailViewStyle
  3
ObjectDBX Classes
 90
     1025
 91
        2
280
     0
281
     0
  0
CLASS
  1
SORTENTSTABLE
  2
AcDbSortentsTable
  3
ObjectDBX Classes
 90
        0
 91
        1
280
     0
281
     0
  0
CLASS
  1
ACAD_EVALUATION_GRAPH
  2
AcDbEvalGraph
  3
ObjectDBX Classes
 90
     1153
 91
        0
280
     0
281
     0
  0
CLASS
  1
BLOCKLINEARPARAMETER
  2
AcDbBlockLinearParameter
  3
ObjectDBX Classes
 90
     1153
 91
        0
280
     0
281
     0
  0
CLASS
  1
BLOCKLINEARGRIP
  2
AcDbBlockLinearGrip
  3
ObjectDBX Classes
 90
     1153
 91
        0
280
     0
281
     0
  0
CLASS
  1
BLOCKGRIPLOCATIONCOMPONENT
  2
AcDbBlockGripExpr
  3
ObjectDBX Classes
 90
     1153
 91
        0
280
     0
281
     0
  0
CLASS
  1
BLOCKSTRETCHACTION
  2
AcDbBlockStretchAction
  3
ObjectDBX Classes
 90
     1153
 91
        0
280
     0
281
     0
  0
CLASS
  1
ACDB_DYNAMICBLOCKPURGEPREVENTER_VERSION
  2
AcDbDynamicBlockPurgePreventer
  3
ObjectDBX Classes
 90
     1153
 91
        0
280
     0
281
     0
  0
CLASS
  1
BLOCKVISIBILITYPARAMETER
  2
AcDbBlockVisibilityParameter
  3
ObjectDBX Classes
 90
     1153
 91
        0
280
     0
281
     0
  0
CLASS
  1
BLOCKVISIBILITYGRIP
  2
AcDbBlockVisibilityGrip
  3
ObjectDBX Classes
 90
     1153
 91
        0
280
     0
281
     0
  0
CLASS
  1
ACDB_BLOCKREPRESENTATION_DATA
  2
AcDbBlockRepresentationData
  3
ObjectDBX Classes
 90
     1153
 91
        0
280
     0
281
     0
  0
CLASS
  1
SURFACE
  2
AcDbSurface
  3
ObjectDBX Classes
 90
     4095
 91
        0
280
     0
281
     1
  0
CLASS
  1
ACDBASSOCPERSSUBENTMANAGER
  2
AcDbAssocPersSubentManager
  3
ObjectDBX Classes
 90
     1024
 91
        1
280
     0
281
     0
  0
CLASS
  1
BLOCKARRAYACTION
  2
AcDbBlockArrayAction
  3
ObjectDBX Classes
 90
     1153
 91
        0
280
     0
281
     0
  0
CLASS
  1
BLOCKLOOKUPPARAMETER
  2
AcDbBlockLookupParameter
  3
ObjectDBX Classes
 90
     1153
 91
        0
280
     0
281
     0
  0
CLASS
  1
BLOCKLOOKUPGRIP
  2
AcDbBlockLookupGrip
  3
ObjectDBX Classes
 90
     1153
 91
        0
280
     0
281
     0
  0
CLASS
  1
BLOCKLOOKUPACTION
  2
AcDbBlockLookupAction
  3
ObjectDBX Classes
 90
     1153
 91
        0
280
     0
281
     0
  0
ENDSEC
  0
SECTION
  2
TABLES
  0
TABLE
  2
VPORT
  5
8
330
0
100
AcDbSymbolTable
 70
     1
  0
VPORT
  5
94
330
8
100
AcDbSymbolTableRecord
100
AcDbViewportTableRecord
  2
*Active
 70
     0
 10
0.0
 20
0.0
 11
1.0
 21
1.0
 12
104447.9892039371
 22
95262.72768298364
 13
0.0
 23
0.0
 14
0.5
 24
0.5
 15
0.5
 25
0.5
 16
0.0
 26
0.0
 36
1.0
 17
0.0
 27
0.0
 37
0.0
 40
3.067349986305613
 41
2.293369663941871
 42
50.0
 43
0.0
 44
0.0
 50
0.0
 51
0.0
 71
     0
 72
  1000
 73
     1
 74
     3
 75
     0
 76
     0
 77
     0
 78
     0
281
     0
 65
     1
110
0.0
120
0.0
130
0.0
111
1.0
121
0.0
131
0.0
112
0.0
122
1.0
132
0.0
 79
     0
146
0.0
348
9F
 60
     3
 61
     5
292
     1
282
     1
141
0.0
142
0.0
 63
   250
421
  3355443
1001
ACAD_NAV_VCDISPLAY
1070
     3
  0
ENDTAB
  0
TABLE
  2
LTYPE
  5
5
330
0
100
AcDbSymbolTable
 70
     1
  0
LTYPE
  5
14
330
5
100
AcDbSymbolTableRecord
100
AcDbLinetypeTableRecord
  2
ByBlock
 70
     0
  3

 72
    65
 73
     0
 40
0.0
  0
LTYPE
  5
15
330
5
100
AcDbSymbolTableRecord
100
AcDbLinetypeTableRecord
  2
ByLayer
 70
     0
  3

 72
    65
 73
     0
 40
0.0
  0
LTYPE
  5
16
330
5
100
AcDbSymbolTableRecord
100
AcDbLinetypeTableRecord
  2
Continuous
 70
     0
  3
Solid line
 72
    65
 73
     0
 40
0.0
  0
ENDTAB
  0
TABLE
  2
LAYER
  5
2
102
{ACAD_XDICTIONARY
360
18E
102
}
330
0
100
AcDbSymbolTable
 70
     2
  0
LAYER
  5
10
102
{ACAD_XDICTIONARY
360
E6
102
}
330
2
100
AcDbSymbolTableRecord
100
AcDbLayerTableRecord
  2
0
 70
     0
 62
     7
  6
Continuous
370
    -3
390
F
347
98
348
0
  0
LAYER
  5
204
330
2
100
AcDbSymbolTableRecord
100
AcDbLayerTableRecord
  2
freecads.com
 70
     0
 62
     7
  6
Continuous
370
    -3
390
F
347
98
348
0
1001
AcAecLayerStandard
1000

1000

1001
AcCmTransparency
1071
        0
  0
ENDTAB
  0
TABLE
  2
STYLE
  5
3
330
0
100
AcDbSymbolTable
 70
     1
  0
STYLE
  5
11
330
3
100
AcDbSymbolTableRecord
100
AcDbTextStyleTableRecord
  2
Standard
 70
     0
 40
0.0
 41
1.0
 50
0.0
 71
     0
 42
0.2
  3
arial.ttf
  4

1001
ACAD
1000
Arial
1071
       34
  0
ENDTAB
  0
TABLE
  2
VIEW
  5
6
330
0
100
AcDbSymbolTable
 70
     0
  0
ENDTAB
  0
TABLE
  2
UCS
  5
7
330
0
100
AcDbSymbolTable
 70
     0
  0
ENDTAB
  0
TABLE
  2
APPID
  5
9
330
0
100
AcDbSymbolTable
 70
    31
  0
APPID
  5
12
330
9
100
AcDbSymbolTableRecord
100
AcDbRegAppTableRecord
  2
ACAD
 70
     0
  0
APPID
  5
DD
330
9
100
AcDbSymbolTableRecord
100
AcDbRegAppTableRecord
  2
AcadAnnoPO
 70
     0
  0
APPID
  5
DE
330
9
100
AcDbSymbolTableRecord
100
AcDbRegAppTableRecord
  2
AcadAnnotative
 70
     0
  0
APPID
  5
DF
330
9
100
AcDbSymbolTableRecord
100
AcDbRegAppTableRecord
  2
ACAD_DSTYLE_DIMJAG
 70
     0
  0
APPID
  5
E0
330
9
100
AcDbSymbolTableRecord
100
AcDbRegAppTableRecord
  2
ACAD_DSTYLE_DIMTALN
 70
     0
  0
APPID
  5
107
330
9
100
AcDbSymbolTableRecord
100
AcDbRegAppTableRecord
  2
ACAD_MLEADERVER
 70
     0
  0
APPID
  5
1A6
330
9
100
AcDbSymbolTableRecord
100
AcDbRegAppTableRecord
  2
ACAD_NAV_VCDISPLAY
 70
     0
  0
APPID
  5
205
330
9
100
AcDbSymbolTableRecord
100
AcDbRegAppTableRecord
  2
AcAecLayerStandard
 70
     0
  0
APPID
  5
206
330
9
100
AcDbSymbolTableRecord
100
AcDbRegAppTableRecord
  2
AcCmTransparency
 70
     0
  0
APPID
  5
222
330
9
100
AcDbSymbolTableRecord
100
AcDbRegAppTableRecord
  2
ACAD_PSEXT
 70
     0
  0
APPID
  5
2DA
330
9
100
AcDbSymbolTableRecord
100
AcDbRegAppTableRecord
  2
GradientColor1ACI
 70
     0
  0
APPID
  5
2DB
330
9
100
AcDbSymbolTableRecord
100
AcDbRegAppTableRecord
  2
GradientColor2ACI
 70
     0
  0
APPID
  5
2F3
330
9
100
AcDbSymbolTableRecord
100
AcDbRegAppTableRecord
  2
ACAD_EXEMPT_FROM_CAD_STANDARDS
 70
     0
  0
APPID
  5
A1A
330
9
100
AcDbSymbolTableRecord
100
AcDbRegAppTableRecord
  2
AcDbBlockRepETag
 70
     0
  0
APPID
  5
2282
330
9
100
AcDbSymbolTableRecord
100
AcDbRegAppTableRecord
  2
RAK
 70
     0
  0
APPID
  5
39F4
330
9
100
AcDbSymbolTableRecord
100
AcDbRegAppTableRecord
  2
ACAD_DSTYLE_DIMJOGGED_JOGANGLE_SYMBOL
 70
     0
  0
APPID
  5
39F5
330
9
100
AcDbSymbolTableRecord
100
AcDbRegAppTableRecord
  2
AcDbDynamicBlockGUID
 70
     0
  0
APPID
  5
39F6
330
9
100
AcDbSymbolTableRecord
100
AcDbRegAppTableRecord
  2
ACAD_DSTYLE_DIMBREAK
 70
     0
  0
APPID
  5
3B59
330
9
100
AcDbSymbolTableRecord
100
AcDbRegAppTableRecord
  2
AEC_XDATA_BOUND_SPACE
 70
     0
  0
APPID
  5
75C5
330
9
100
AcDbSymbolTableRecord
100
AcDbRegAppTableRecord
  2
AcDbDynamicBlockTrueName
 70
     0
  0
APPID
  5
75C6
330
9
100
AcDbSymbolTableRecord
100
AcDbRegAppTableRecord
  2
AcDbBlockRepBTag
 70
     0
  0
APPID
  5
75C7
330
9
100
AcDbSymbolTableRecord
100
AcDbRegAppTableRecord
  2
ACAUTHENVIRON
 70
     0
  0
APPID
  5
AA90
330
9
100
AcDbSymbolTableRecord
100
AcDbRegAppTableRecord
  2
Acad_TC
 70
     0
  0
APPID
  5
AA9C
330
9
100
AcDbSymbolTableRecord
100
AcDbRegAppTableRecord
  2
AcDbBlockArrayActionTag
 70
     0
  0
APPID
  5
BEE4
330
9
100
AcDbSymbolTableRecord
100
AcDbRegAppTableRecord
  2
ACAD_DSTYLE_DIMTEXT_FILL
 70
     0
  0
APPID
  5
219E5
330
9
100
AcDbSymbolTableRecord
100
AcDbRegAppTableRecord
  2
AECLAY
 70
     0
  0
APPID
  5
26B46
330
9
100
AcDbSymbolTableRecord
100
AcDbRegAppTableRecord
  2
REVIT
 70
     0
  0
APPID
  5
280A5
330
9
100
AcDbSymbolTableRecord
100
AcDbRegAppTableRecord
  2
HATCHBACKGROUNDCOLOR
 70
     0
  0
APPID
  5
29EE0
330
9
100
AcDbSymbolTableRecord
100
AcDbRegAppTableRecord
  2
ACAD_STEPID
 70
     0
  0
APPID
  5
29EE1
330
9
100
AcDbSymbolTableRecord
100
AcDbRegAppTableRecord
  2
AcLayerTools
 70
     0
  0
APPID
  5
4D86C
330
9
100
AcDbSymbolTableRecord
100
AcDbRegAppTableRecord
  2
PE_URL
 70
     0
  0
ENDTAB
  0
TABLE
  2
DIMSTYLE
  5
A
330
0
100
AcDbSymbolTable
 70
     1
100
AcDbDimStyleTable
 71
     1
340
27
  0
DIMSTYLE
105
27
330
A
100
AcDbSymbolTableRecord
100
AcDbDimStyleTableRecord
  2
Standard
 70
     0
340
11
  0
ENDTAB
  0
TABLE
  2
BLOCK_RECORD
  5
1
330
0
100
AcDbSymbolTable
 70
     1
  0
BLOCK_RECORD
  5
1F
102
{ACAD_XDICTIONARY
360
15D
102
}
330
1
100
AcDbSymbolTableRecord
100
AcDbBlockTableRecord
  2
*Model_Space
340
22
 70
     0
280
     1
281
     0
  0
BLOCK_RECORD
  5
58
330
1
100
AcDbSymbolTableRecord
100
AcDbBlockTableRecord
  2
*Paper_Space
340
59
 70
     0
280
     1
281
     0
  0
BLOCK_RECORD
  5
5D
330
1
100
AcDbSymbolTableRecord
100
AcDbBlockTableRecord
  2
*Paper_Space0
340
5E
 70
     0
280
     1
281
     0
  0
ENDTAB
  0
ENDSEC
  0
SECTION
  2
BLOCKS
  0
BLOCK
  5
20
330
1F
100
AcDbEntity
  8
0
100
AcDbBlockBegin
  2
*Model_Space
 70
     0
 10
0.0
 20
0.0
 30
0.0
  3
*Model_Space
  1

  0
ENDBLK
  5
21
330
1F
100
AcDbEntity
  8
0
100
AcDbBlockEnd
  0
BLOCK
  5
5A
330
58
100
AcDbEntity
 67
     1
  8
0
100
AcDbBlockBegin
  2
*Paper_Space
 70
     0
 10
0.0
 20
0.0
 30
0.0
  3
*Paper_Space
  1

  0
ENDBLK
  5
5B
330
58
100
AcDbEntity
 67
     1
  8
0
100
AcDbBlockEnd
  0
BLOCK
  5
5F
330
5D
100
AcDbEntity
 67
     1
  8
0
100
AcDbBlockBegin
  2
*Paper_Space0
 70
     0
 10
0.0
 20
0.0
 30
0.0
  3
*Paper_Space0
  1

  0
ENDBLK
  5
60
330
5D
100
AcDbEntity
 67
     1
  8
0
100
AcDbBlockEnd
  0
ENDSEC
  0
SECTION
  2
ENTITIES
  0
LINE
  5
5FBCF
330
1F
100
AcDbEntity
  8
freecads.com
100
AcDbLine
 10
104447.9487170292
 20
95263.51121019986
 30
0.0
 11
104447.9449738745
 21
95263.5111537055
 31
0.0
  0
LINE
  5
5FBD0
330
1F
100
AcDbEntity
  8
freecads.com
100
AcDbLine
 10
104447.9449738745
 20
95263.5111537055
 30
0.0
 11
104447.9397963013
 21
95263.50797441837
 31
0.0
  0
LINE
  5
5FBD1
330
1F
100
AcDbEntity
  8
freecads.com
100
AcDbLine
 10
104447.9397963013
 20
95263.50797441837
 30
0.0
 11
104447.9331412662
 21
95263.50171376765
 31
0.0
  0
LINE
  5
5FBD2
330
1F
100
AcDbEntity
  8
freecads.com
100
AcDbLine
 10
104447.9331412662
 20
95263.50171376765
 30
0.0
 11
104447.9336911446
 21
95263.5063210169
 31
0.0
  0
LINE
  5
5FBD3
330
1F
100
AcDbEntity
  8
freecads.com
100
AcDbLine
 10
104447.9336911446
 20
95263.5063210169
 30
0.0
 11
104447.9333532546
 21
95263.50831177039
 31
0.0
  0
LINE
  5
5FBD4
330
1F
100
AcDbEntity
  8
freecads.com
100
AcDbLine
 10
104447.9333532546
 20
95263.50831177039
 30
0.0
 11
104447.9320016943
 21
95263.50760047956
 31
0.0
  0
LINE
  5
5FBD5
330
1F
100
AcDbEntity
  8
freecads.com
100
AcDbLine
 10
104447.9320016943
 20
95263.50760047956
 30
0.0
 11
104447.9302928746
 21
95263.50569473661
 31
0.0
  0
LINE
  5
5FBD6
330
1F
100
AcDbEntity
  8
freecads.com
100
AcDbLine
 10
104447.9302928746
 20
95263.50569473661
 30
0.0
 11
104447.9289633741
 21
95263.50412634569
 31
0.0
  0
LINE
  5
5FBD7
330
1F
100
AcDbEntity
  8
freecads.com
100
AcDbLine
 10
104447.9289633741
 20
95263.50412634569
 30
0.0
 11
104447.9280131928
 21
95263.50285333952
 31
0.0
  0
LINE
  5
5FBD8
330
1F
100
AcDbEntity
  8
freecads.com
100
AcDbLine
 10
104447.9280131928
 20
95263.50285333952
 30
0.0
 11
104447.9272669293
 21
95263.5073610511
 31
0.0
  0
LINE
  5
5FBD9
330
1F
100
AcDbEntity
  8
freecads.com
100
AcDbLine
 10
104447.9272669293
 20
95263.5073610511
 30
0.0
 11
104447.9261671725
 21
95263.51062750094
 31
0.0
  0
LINE
  5
5FBDA
330
1F
100
AcDbEntity
  8
freecads.com
100
AcDbLine
 10
104447.9261671725
 20
95263.51062750094
 30
0.0
 11
104447.9247144605
 21
95263.51265376517
 31
0.0
  0
LINE
  5
5FBDB
330
1F
100
AcDbEntity
  8
freecads.com
100
AcDbLine
 10
104447.9247144605
 20
95263.51265376517
 30
0.0
 11
104447.9229082552
 21
95263.51344091986
 31
0.0
  0
LINE
  5
5FBDC
330
1F
100
AcDbEntity
  8
freecads.com
100
AcDbLine
 10
104447.9229082552
 20
95263.51344091986
 30
0.0
 11
104447.9207485567
 21
95263.51299111718
 31
0.0
  0
LINE
  5
5FBDD
330
1F
100
AcDbEntity
  8
freecads.com
100
AcDbLine
 10
104447.9207485567
 20
95263.51299111718
 30
0.0
 11
104447.9182353649
 21
95263.51130435713
 31
0.0
  0
LINE
  5
5FBDE
330
1F
100
AcDbEntity
  8
freecads.com
100
AcDbLine
 10
104447.9182353649
 20
95263.51130435713
 30
0.0
 11
104447.9153692179
 21
95263.50838225383
 31
0.0
  0
LINE
  5
5FBDF
330
1F
100
AcDbEntity
  8
freecads.com
100
AcDbLine
 10
104447.9153692179
 20
95263.50838225383
 30
0.0
 11
104447.9121495777
 21
95263.50422588336
 31
0.0
  0
LINE
  5
5FBE0
330
1F
100
AcDbEntity
  8
freecads.com
100
AcDbLine
 10
104447.9121495777
 20
95263.50422588336
 30
0.0
 11
104447.9085764442
 21
95263.49883685984
 31
0.0
  0
LINE
  5
5FBE1
330
1F
100
AcDbEntity
  8
freecads.com
100
AcDbLine
 10
104447.9085764442
 20
95263.49883685984
 30
0.0
 11
104447.9046508935
 21
95263.49221572134
 31
0.0
  0
LINE
  5
5FBE2
330
1F
100
AcDbEntity
  8
freecads.com
100
AcDbLine
 10
104447.9046508935
 20
95263.49221572134
 30
0.0
 11
104447.9037007123
 21
95263.49265906752
 31
0.0
  0
LINE
  5
5FBE3
330
1F
100
AcDbEntity
  8
freecads.com
100
AcDbLine
 10
104447.9037007123
 20
95263.49265906752
 30
0.0
 11
104447.9031309263
 21
95263.49398856803
 31
0.0
  0
LINE
  5
5FBE4
330
1F
100
AcDbEntity
  8
freecads.com
100
AcDbLine
 10
104447.9031309263
 20
95263.49398856803
 30
0.0
 11
104447.9029409977
 21
95263.49620422285
 31
0.0
  0
LINE
  5
5FBE5
330
1F
100
AcDbEntity
  8
freecads.com
100
AcDbLine
 10
104447.9029409977
 20
95263.49620422285
 30
0.0
 11
104447.9021043432
 21
95263.49809059631
 31
0.0
  0
LINE
  5
5FBE6
330
1F
100
AcDbEntity
  8
freecads.com
100
AcDbLine
 10
104447.9021043432
 20
95263.49809059631
 30
0.0
 11
104447.8995373472
 21
95263.49495273837
 31
0.0
  0
LINE
  5
5FBE7
330
1F
100
AcDbEntity
  8
freecads.com
100
AcDbLine
 10
104447.8995373472
 20
95263.49495273837
 30
0.0
 11
104447.8951544613
 21
95263.48670779066
 31
0.0
  0
LINE
  5
5FBE8
330
1F
100
AcDbEntity
  8
freecads.com
100
AcDbLine
 10
104447.8951544613
 20
95263.48670779066
 30
0.0
 11
104447.8928823121
 21
95263.48890945641
 31
0.0
  0
LINE
  5
5FBE9
330
1F
100
AcDbEntity
  8
freecads.com
100
AcDbLine
 10
104447.8928823121
 20
95263.48890945641
 30
0.0
 11
104447.8910325255
 21
95263.48672231778
 31
0.0
  0
LINE
  5
5FBEA
330
1F
100
AcDbEntity
  8
freecads.com
100
AcDbLine
 10
104447.8910325255
 20
95263.48672231778
 30
0.0
 11
104447.8896470687
 21
95263.48006082615
 31
0.0
  0
LINE
  5
5FBEB
330
1F
100
AcDbEntity
  8
freecads.com
100
AcDbLine
 10
104447.8896470687
 20
95263.48006082615
 30
0.0
 11
104447.8845647288
 21
95263.47846230491
 31
0.0
  0
LINE
  5
5FBEC
330
1F
100
AcDbEntity
  8
freecads.com
100
AcDbLine
 10
104447.8845647288
 20
95263.47846230491
 30
0.0
 11
104447.8805218851
 21
95263.47594534684
 31
0.0
  0
LINE
  5
5FBED
330
1F
100
AcDbEntity
  8
freecads.com
100
AcDbLine
 10
104447.8805218851
 20
95263.47594534684
 30
0.0
 11
104447.8775136952
 21
95263.47251049001
 31
0.0
  0
LINE
  5
5FBEE
330
1F
100
AcDbEntity
  8
freecads.com
100
AcDbLine
 10
104447.8775136952
 20
95263.47251049001
 30
0.0
 11
104447.8755342405
 21
95263.46815719636
 31
0.0
  0
LINE
  5
5FBEF
330
1F
100
AcDbEntity
  8
freecads.com
100
AcDbLine
 10
104447.8755342405
 20
95263.46815719636
 30
0.0
 11
104447.8745786789
 21
95263.46288654197
 31
0.0
  0
LINE
  5
5FBF0
330
1F
100
AcDbEntity
  8
freecads.com
100
AcDbLine
 10
104447.8745786789
 20
95263.46288654197
 30
0.0
 11
104447.8746410917
 21
95263.45669852686
 31
0.0
  0
LINE
  5
5FBF1
330
1F
100
AcDbEntity
  8
freecads.com
100
AcDbLine
 10
104447.8746410917
 20
95263.45669852686
 30
0.0
 11
104447.8738108937
 21
95263.45428487276
 31
0.0
  0
LINE
  5
5FBF2
330
1F
100
AcDbEntity
  8
freecads.com
100
AcDbLine
 10
104447.8738108937
 20
95263.45428487276
 30
0.0
 11
104447.8712917834
 21
95263.45309580108
 31
0.0
  0
LINE
  5
5FBF3
330
1F
100
AcDbEntity
  8
freecads.com
100
AcDbLine
 10
104447.8712917834
 20
95263.45309580108
 30
0.0
 11
104447.8670428699
 21
95263.45308880653
 31
0.0
  0
LINE
  5
5FBF4
330
1F
100
AcDbEntity
  8
freecads.com
100
AcDbLine
 10
104447.8670428699
 20
95263.45308880653
 30
0.0
 11
104447.8619852799
 21
95263.45259649858
 31
0.0
  0
LINE
  5
5FBF5
330
1F
100
AcDbEntity
  8
freecads.com
100
AcDbLine
 10
104447.8619852799
 20
95263.45259649858
 30
0.0
 11
104447.8567162396
 21
95263.45003595915
 31
0.0
  0
LINE
  5
5FBF6
330
1F
100
AcDbEntity
  8
freecads.com
100
AcDbLine
 10
104447.8567162396
 20
95263.45003595915
 30
0.0
 11
104447.8512787924
 21
95263.44549058469
 31
0.0
  0
LINE
  5
5FBF7
330
1F
100
AcDbEntity
  8
freecads.com
100
AcDbLine
 10
104447.8512787924
 20
95263.44549058469
 30
0.0
 11
104447.8524183642
 21
95263.44461250099
 31
0.0
  0
LINE
  5
5FBF8
330
1F
100
AcDbEntity
  8
freecads.com
100
AcDbLine
 10
104447.8524183642
 20
95263.44461250099
 30
0.0
 11
104447.8558370798
 21
95263.4435218909
 31
0.0
  0
LINE
  5
5FBF9
330
1F
100
AcDbEntity
  8
freecads.com
100
AcDbLine
 10
104447.8558370798
 20
95263.4435218909
 30
0.0
 11
104447.8615354772
 21
95263.44226233579
 31
0.0
  0
LINE
  5
5FBFA
330
1F
100
AcDbEntity
  8
freecads.com
100
AcDbLine
 10
104447.8615354772
 20
95263.44226233579
 30
0.0
 11
104447.8681759852
 21
95263.44099632417
 31
0.0
  0
LINE
  5
5FBFB
330
1F
100
AcDbEntity
  8
freecads.com
100
AcDbLine
 10
104447.8681759852
 20
95263.44099632417
 30
0.0
 11
104447.8743946687
 21
95263.44023660959
 31
0.0
  0
LINE
  5
5FBFC
330
1F
100
AcDbEntity
  8
freecads.com
100
AcDbLine
 10
104447.8743946687
 20
95263.44023660959
 30
0.0
 11
104447.8801484843
 21
95263.43998319205
 31
0.0
  0
LINE
  5
5FBFD
330
1F
100
AcDbEntity
  8
freecads.com
100
AcDbLine
 10
104447.8801484843
 20
95263.43998319205
 30
0.0
 11
104447.8789319725
 21
95263.43674041603
 31
0.0
  0
LINE
  5
5FBFE
330
1F
100
AcDbEntity
  8
freecads.com
100
AcDbLine
 10
104447.8789319725
 20
95263.43674041603
 30
0.0
 11
104447.8775045485
 21
95263.43455220132
 31
0.0
  0
LINE
  5
5FBFF
330
1F
100
AcDbEntity
  8
freecads.com
100
AcDbLine
 10
104447.8775045485
 20
95263.43455220132
 30
0.0
 11
104447.8757806635
 21
95263.43333622754
 31
0.0
  0
LINE
  5
5FC00
330
1F
100
AcDbEntity
  8
freecads.com
100
AcDbLine
 10
104447.8757806635
 20
95263.43333622754
 30
0.0
 11
104447.8726648653
 21
95263.43188620575
 31
0.0
  0
LINE
  5
5FC01
330
1F
100
AcDbEntity
  8
freecads.com
100
AcDbLine
 10
104447.8726648653
 20
95263.43188620575
 30
0.0
 11
104447.8708570459
 21
95263.42908623787
 31
0.0
  0
LINE
  5
5FC02
330
1F
100
AcDbEntity
  8
freecads.com
100
AcDbLine
 10
104447.8708570459
 20
95263.42908623787
 30
0.0
 11
104447.8702732709
 21
95263.42497721506
 31
0.0
  0
LINE
  5
5FC03
330
1F
100
AcDbEntity
  8
freecads.com
100
AcDbLine
 10
104447.8702732709
 20
95263.42497721506
 30
0.0
 11
104447.8688797435
 21
95263.42422449502
 31
0.0
  0
LINE
  5
5FC04
330
1F
100
AcDbEntity
  8
freecads.com
100
AcDbLine
 10
104447.8688797435
 20
95263.42422449502
 30
0.0
 11
104447.8685004242
 21
95263.4219948511
 31
0.0
  0
LINE
  5
5FC05
330
1F
100
AcDbEntity
  8
freecads.com
100
AcDbLine
 10
104447.8685004242
 20
95263.4219948511
 30
0.0
 11
104447.8691336991
 21
95263.41833025055
 31
0.0
  0
LINE
  5
5FC06
330
1F
100
AcDbEntity
  8
freecads.com
100
AcDbLine
 10
104447.8691336991
 20
95263.41833025055
 30
0.0
 11
104447.8674867541
 21
95263.41363099621
 31
0.0
  0
LINE
  5
5FC07
330
1F
100
AcDbEntity
  8
freecads.com
100
AcDbLine
 10
104447.8674867541
 20
95263.41363099621
 30
0.0
 11
104447.8678671494
 21
95263.41087407166
 31
0.0
  0
LINE
  5
5FC08
330
1F
100
AcDbEntity
  8
freecads.com
100
AcDbLine
 10
104447.8678671494
 20
95263.41087407166
 30
0.0
 11
104447.8702732709
 21
95263.40997339021
 31
0.0
  0
LINE
  5
5FC09
330
1F
100
AcDbEntity
  8
freecads.com
100
AcDbLine
 10
104447.8702732709
 20
95263.40997339021
 30
0.0
 11
104447.8729177448
 21
95263.40558404777
 31
0.0
  0
LINE
  5
5FC0A
330
1F
100
AcDbEntity
  8
freecads.com
100
AcDbLine
 10
104447.8729177448
 20
95263.40558404777
 30
0.0
 11
104447.8766173181
 21
95263.40372672857
 31
0.0
  0
LINE
  5
5FC0B
330
1F
100
AcDbEntity
  8
freecads.com
100
AcDbLine
 10
104447.8766173181
 20
95263.40372672857
 30
0.0
 11
104447.8812880562
 21
95263.40427553089
 31
0.0
  0
LINE
  5
5FC0C
330
1F
100
AcDbEntity
  8
freecads.com
100
AcDbLine
 10
104447.8812880562
 20
95263.40427553089
 30
0.0
 11
104447.8833917984
 21
95263.40364171801
 31
0.0
  0
LINE
  5
5FC0D
330
1F
100
AcDbEntity
  8
freecads.com
100
AcDbLine
 10
104447.8833917984
 20
95263.40364171801
 30
0.0
 11
104447.8874792996
 21
95263.40326239877
 31
0.0
  0
LINE
  5
5FC0E
330
1F
100
AcDbEntity
  8
freecads.com
100
AcDbLine
 10
104447.8874792996
 20
95263.40326239877
 30
0.0
 11
104447.8936355702
 21
95263.40313595904
 31
0.0
  0
LINE
  5
5FC0F
330
1F
100
AcDbEntity
  8
freecads.com
100
AcDbLine
 10
104447.8936355702
 20
95263.40313595904
 30
0.0
 11
104447.8908146187
 21
95263.39976620521
 31
0.0
  0
LINE
  5
5FC10
330
1F
100
AcDbEntity
  8
freecads.com
100
AcDbLine
 10
104447.8908146187
 20
95263.39976620521
 30
0.0
 11
104447.8880862103
 21
95263.39631789733
 31
0.0
  0
LINE
  5
5FC11
330
1F
100
AcDbEntity
  8
freecads.com
100
AcDbLine
 10
104447.8880862103
 20
95263.39631789733
 30
0.0
 11
104447.8854498071
 21
95263.39279049736
 31
0.0
  0
LINE
  5
5FC12
330
1F
100
AcDbEntity
  8
freecads.com
100
AcDbLine
 10
104447.8854498071
 20
95263.39279049736
 30
0.0
 11
104447.8829059469
 21
95263.38918454332
 31
0.0
  0
LINE
  5
5FC13
330
1F
100
AcDbEntity
  8
freecads.com
100
AcDbLine
 10
104447.8829059469
 20
95263.38918454332
 30
0.0
 11
104447.8804540919
 21
95263.38549895916
 31
0.0
  0
LINE
  5
5FC14
330
1F
100
AcDbEntity
  8
freecads.com
100
AcDbLine
 10
104447.8804540919
 20
95263.38549895916
 30
0.0
 11
104447.8780937039
 21
95263.38173535897
 31
0.0
  0
LINE
  5
5FC15
330
1F
100
AcDbEntity
  8
freecads.com
100
AcDbLine
 10
104447.8780937039
 20
95263.38173535897
 30
0.0
 11
104447.875825859
 21
95263.37789266669
 31
0.0
  0
LINE
  5
5FC16
330
1F
100
AcDbEntity
  8
freecads.com
100
AcDbLine
 10
104447.875825859
 20
95263.37789266669
 30
0.0
 11
104447.8736494812
 21
95263.37397088232
 31
0.0
  0
LINE
  5
5FC17
330
1F
100
AcDbEntity
  8
freecads.com
100
AcDbLine
 10
104447.8736494812
 20
95263.37397088232
 30
0.0
 11
104447.8715656466
 21
95263.36997054388
 31
0.0
  0
LINE
  5
5FC18
330
1F
100
AcDbEntity
  8
freecads.com
100
AcDbLine
 10
104447.8715656466
 20
95263.36997054388
 30
0.0
 11
104447.8695727409
 21
95263.36589165138
 31
0.0
  0
LINE
  5
5FC19
330
1F
100
AcDbEntity
  8
freecads.com
100
AcDbLine
 10
104447.8695727409
 20
95263.36589165138
 30
0.0
 11
104447.8676718403
 21
95263.36173420482
 31
0.0
  0
LINE
  5
5FC1A
330
1F
100
AcDbEntity
  8
freecads.com
100
AcDbLine
 10
104447.8676718403
 20
95263.36173420482
 30
0.0
 11
104447.8658629448
 21
95263.35749766618
 31
0.0
  0
LINE
  5
5FC1B
330
1F
100
AcDbEntity
  8
freecads.com
100
AcDbLine
 10
104447.8658629448
 20
95263.35749766618
 30
0.0
 11
104447.8641449784
 21
95263.35318257347
 31
0.0
  0
LINE
  5
5FC1C
330
1F
100
AcDbEntity
  8
freecads.com
100
AcDbLine
 10
104447.8641449784
 20
95263.35318257347
 30
0.0
 11
104447.862518479
 21
95263.34878946476
 31
0.0
  0
LINE
  5
5FC1D
330
1F
100
AcDbEntity
  8
freecads.com
100
AcDbLine
 10
104447.862518479
 20
95263.34878946476
 30
0.0
 11
104447.8609839847
 21
95263.34431726393
 31
0.0
  0
LINE
  5
5FC1E
330
1F
100
AcDbEntity
  8
freecads.com
100
AcDbLine
 10
104447.8609839847
 20
95263.34431726393
 30
0.0
 11
104447.8595404194
 21
95263.33976704711
 31
0.0
  0
LINE
  5
5FC1F
330
1F
100
AcDbEntity
  8
freecads.com
100
AcDbLine
 10
104447.8595404194
 20
95263.33976704711
 30
0.0
 11
104447.8581883211
 21
95263.33513773817
 31
0.0
  0
LINE
  5
5FC20
330
1F
100
AcDbEntity
  8
freecads.com
100
AcDbLine
 10
104447.8581883211
 20
95263.33513773817
 30
0.0
 11
104447.8569271519
 21
95263.33043041322
 31
0.0
  0
LINE
  5
5FC21
330
1F
100
AcDbEntity
  8
freecads.com
100
AcDbLine
 10
104447.8569271519
 20
95263.33043041322
 30
0.0
 11
104447.8557574497
 21
95263.3256445342
 31
0.0
  0
LINE
  5
5FC22
330
1F
100
AcDbEntity
  8
freecads.com
100
AcDbLine
 10
104447.8557574497
 20
95263.3256445342
 30
0.0
 11
104447.8546781385
 21
95263.32078063919
 31
0.0
  0
LINE
  5
5FC23
330
1F
100
AcDbEntity
  8
freecads.com
100
AcDbLine
 10
104447.8546781385
 20
95263.32078063919
 30
0.0
 11
104447.8536902943
 21
95263.31583819011
 31
0.0
  0
LINE
  5
5FC24
330
1F
100
AcDbEntity
  8
freecads.com
100
AcDbLine
 10
104447.8536902943
 20
95263.31583819011
 30
0.0
 11
104447.8527933792
 21
95263.310817725
 31
0.0
  0
LINE
  5
5FC25
330
1F
100
AcDbEntity
  8
freecads.com
100
AcDbLine
 10
104447.8527933792
 20
95263.310817725
 30
0.0
 11
104447.851987393
 21
95263.30571870587
 31
0.0
  0
LINE
  5
5FC26
330
1F
100
AcDbEntity
  8
freecads.com
100
AcDbLine
 10
104447.851987393
 20
95263.30571870587
 30
0.0
 11
104447.8512717978
 21
95263.30054113266
 31
0.0
  0
LINE
  5
5FC27
330
1F
100
AcDbEntity
  8
freecads.com
100
AcDbLine
 10
104447.8512717978
 20
95263.30054113266
 30
0.0
 11
104447.8506471317
 21
95263.29528608147
 31
0.0
  0
LINE
  5
5FC28
330
1F
100
AcDbEntity
  8
freecads.com
100
AcDbLine
 10
104447.8506471317
 20
95263.29528608147
 30
0.0
 11
104447.8501133945
 21
95263.28995247625
 31
0.0
  0
LINE
  5
5FC29
330
1F
100
AcDbEntity
  8
freecads.com
100
AcDbLine
 10
104447.8501133945
 20
95263.28995247625
 30
0.0
 11
104447.8496700484
 21
95263.28454085499
 31
0.0
  0
LINE
  5
5FC2A
330
1F
100
AcDbEntity
  8
freecads.com
100
AcDbLine
 10
104447.8496700484
 20
95263.28454085499
 30
0.0
 11
104447.8493170931
 21
95263.27905121773
 31
0.0
  0
LINE
  5
5FC2B
330
1F
100
AcDbEntity
  8
freecads.com
100
AcDbLine
 10
104447.8493170931
 20
95263.27905121773
 30
0.0
 11
104447.8490545289
 21
95263.27348302642
 31
0.0
  0
LINE
  5
5FC2C
330
1F
100
AcDbEntity
  8
freecads.com
100
AcDbLine
 10
104447.8490545289
 20
95263.27348302642
 30
0.0
 11
104447.8488823556
 21
95263.26783735711
 31
0.0
  0
LINE
  5
5FC2D
330
1F
100
AcDbEntity
  8
freecads.com
100
AcDbLine
 10
104447.8488823556
 20
95263.26783735711
 30
0.0
 11
104447.8488005733
 21
95263.26211367178
 31
0.0
  0
LINE
  5
5FC2E
330
1F
100
AcDbEntity
  8
freecads.com
100
AcDbLine
 10
104447.8488005733
 20
95263.26211367178
 30
0.0
 11
104447.8488086439
 21
95263.25631197046
 31
0.0
  0
LINE
  5
5FC2F
330
1F
100
AcDbEntity
  8
freecads.com
100
AcDbLine
 10
104447.8488086439
 20
95263.25631197046
 30
0.0
 11
104447.8489087196
 21
95263.24993241258
 31
0.0
  0
LINE
  5
5FC30
330
1F
100
AcDbEntity
  8
freecads.com
100
AcDbLine
 10
104447.8489087196
 20
95263.24993241258
 30
0.0
 11
104447.8490916538
 21
95263.24368306074
 31
0.0
  0
LINE
  5
5FC31
330
1F
100
AcDbEntity
  8
freecads.com
100
AcDbLine
 10
104447.8490916538
 20
95263.24368306074
 30
0.0
 11
104447.8493574462
 21
95263.23756391494
 31
0.0
  0
LINE
  5
5FC32
330
1F
100
AcDbEntity
  8
freecads.com
100
AcDbLine
 10
104447.8493574462
 20
95263.23756391494
 30
0.0
 11
104447.8497055591
 21
95263.23157497516
 31
0.0
  0
LINE
  5
5FC33
330
1F
100
AcDbEntity
  8
freecads.com
100
AcDbLine
 10
104447.8497055591
 20
95263.23157497516
 30
0.0
 11
104447.8501365303
 21
95263.22571624145
 31
0.0
  0
LINE
  5
5FC34
330
1F
100
AcDbEntity
  8
freecads.com
100
AcDbLine
 10
104447.8501365303
 20
95263.22571624145
 30
0.0
 11
104447.8506503599
 21
95263.21998878984
 31
0.0
  0
LINE
  5
5FC35
330
1F
100
AcDbEntity
  8
freecads.com
100
AcDbLine
 10
104447.8506503599
 20
95263.21998878984
 30
0.0
 11
104447.8512465099
 21
95263.21439154427
 31
0.0
  0
LINE
  5
5FC36
330
1F
100
AcDbEntity
  8
freecads.com
100
AcDbLine
 10
104447.8512465099
 20
95263.21439154427
 30
0.0
 11
104447.8519255182
 21
95263.2089250428
 31
0.0
  0
LINE
  5
5FC37
330
1F
100
AcDbEntity
  8
freecads.com
100
AcDbLine
 10
104447.8519255182
 20
95263.2089250428
 30
0.0
 11
104447.8526868469
 21
95263.20358928538
 31
0.0
  0
LINE
  5
5FC38
330
1F
100
AcDbEntity
  8
freecads.com
100
AcDbLine
 10
104447.8526868469
 20
95263.20358928538
 30
0.0
 11
104447.8535315721
 21
95263.19838481011
 31
0.0
  0
LINE
  5
5FC39
330
1F
100
AcDbEntity
  8
freecads.com
100
AcDbLine
 10
104447.8535315721
 20
95263.19838481011
 30
0.0
 11
104447.8544580795
 21
95263.19331107892
 31
0.0
  0
LINE
  5
5FC3A
330
1F
100
AcDbEntity
  8
freecads.com
100
AcDbLine
 10
104447.8544580795
 20
95263.19331107892
 30
0.0
 11
104447.8554679834
 21
95263.18836862984
 31
0.0
  0
LINE
  5
5FC3B
330
1F
100
AcDbEntity
  8
freecads.com
100
AcDbLine
 10
104447.8554679834
 20
95263.18836862984
 30
0.0
 11
104447.8565602076
 21
95263.18355692483
 31
0.0
  0
LINE
  5
5FC3C
330
1F
100
AcDbEntity
  8
freecads.com
100
AcDbLine
 10
104447.8565602076
 20
95263.18355692483
 30
0.0
 11
104447.8577347522
 21
95263.17887703999
 31
0.0
  0
LINE
  5
5FC3D
330
1F
100
AcDbEntity
  8
freecads.com
100
AcDbLine
 10
104447.8577347522
 20
95263.17887703999
 30
0.0
 11
104447.8589926931
 21
95263.17432843729
 31
0.0
  0
LINE
  5
5FC3E
330
1F
100
AcDbEntity
  8
freecads.com
100
AcDbLine
 10
104447.8589926931
 20
95263.17432843729
 30
0.0
 11
104447.8603324164
 21
95263.1699111167
 31
0.0
  0
LINE
  5
5FC3F
330
1F
100
AcDbEntity
  8
freecads.com
100
AcDbLine
 10
104447.8603324164
 20
95263.1699111167
 30
0.0
 11
104447.8617555362
 21
95263.16562561628
 31
0.0
  0
LINE
  5
5FC40
330
1F
100
AcDbEntity
  8
freecads.com
100
AcDbLine
 10
104447.8617555362
 20
95263.16562561628
 30
0.0
 11
104447.8632609762
 21
95263.16147139798
 31
0.0
  0
LINE
  5
5FC41
330
1F
100
AcDbEntity
  8
freecads.com
100
AcDbLine
 10
104447.8632609762
 20
95263.16147139798
 30
0.0
 11
104447.8648492747
 21
95263.15744953787
 31
0.0
  0
LINE
  5
5FC42
330
1F
100
AcDbEntity
  8
freecads.com
100
AcDbLine
 10
104447.8648492747
 20
95263.15744953787
 30
0.0
 11
104447.8665198935
 21
95263.15355895992
 31
0.0
  0
LINE
  5
5FC43
330
1F
100
AcDbEntity
  8
freecads.com
100
AcDbLine
 10
104447.8665198935
 20
95263.15355895992
 30
0.0
 11
104447.8682733707
 21
95263.14980074014
 31
0.0
  0
LINE
  5
5FC44
330
1F
100
AcDbEntity
  8
freecads.com
100
AcDbLine
 10
104447.8682733707
 20
95263.14980074014
 30
0.0
 11
104447.8701097063
 21
95263.14617434053
 31
0.0
  0
LINE
  5
5FC45
330
1F
100
AcDbEntity
  8
freecads.com
100
AcDbLine
 10
104447.8701097063
 20
95263.14617434053
 30
0.0
 11
104447.8720283622
 21
95263.14268029913
 31
0.0
  0
LINE
  5
5FC46
330
1F
100
AcDbEntity
  8
freecads.com
100
AcDbLine
 10
104447.8720283622
 20
95263.14268029913
 30
0.0
 11
104447.8740298766
 21
95263.13931861592
 31
0.0
  0
LINE
  5
5FC47
330
1F
100
AcDbEntity
  8
freecads.com
100
AcDbLine
 10
104447.8740298766
 20
95263.13931861592
 30
0.0
 11
104447.8761142493
 21
95263.13608875289
 31
0.0
  0
LINE
  5
5FC48
330
1F
100
AcDbEntity
  8
freecads.com
100
AcDbLine
 10
104447.8761142493
 20
95263.13608875289
 30
0.0
 11
104447.8782809423
 21
95263.13299178612
 31
0.0
  0
LINE
  5
5FC49
330
1F
100
AcDbEntity
  8
freecads.com
100
AcDbLine
 10
104447.8782809423
 20
95263.13299178612
 30
0.0
 11
104447.8805299557
 21
95263.13002717754
 31
0.0
  0
LINE
  5
5FC4A
330
1F
100
AcDbEntity
  8
freecads.com
100
AcDbLine
 10
104447.8805299557
 20
95263.13002717754
 30
0.0
 11
104447.8828623656
 21
95263.1271954652
 31
0.0
  0
LINE
  5
5FC4B
330
1F
100
AcDbEntity
  8
freecads.com
100
AcDbLine
 10
104447.8828623656
 20
95263.1271954652
 30
0.0
 11
104447.8852770958
 21
95263.12449611108
 31
0.0
  0
LINE
  5
5FC4C
330
1F
100
AcDbEntity
  8
freecads.com
100
AcDbLine
 10
104447.8852770958
 20
95263.12449611108
 30
0.0
 11
104447.8886554582
 21
95263.12052213667
 31
0.0
  0
LINE
  5
5FC4D
330
1F
100
AcDbEntity
  8
freecads.com
100
AcDbLine
 10
104447.8886554582
 20
95263.12052213667
 30
0.0
 11
104447.8921053802
 21
95263.11665523252
 31
0.0
  0
LINE
  5
5FC4E
330
1F
100
AcDbEntity
  8
freecads.com
100
AcDbLine
 10
104447.8921053802
 20
95263.11665523252
 30
0.0
 11
104447.8956268617
 21
95263.11289432253
 31
0.0
  0
LINE
  5
5FC4F
330
1F
100
AcDbEntity
  8
freecads.com
100
AcDbLine
 10
104447.8956268617
 20
95263.11289432253
 30
0.0
 11
104447.8992199028
 21
95263.10923940673
 31
0.0
  0
LINE
  5
5FC50
330
1F
100
AcDbEntity
  8
freecads.com
100
AcDbLine
 10
104447.8992199028
 20
95263.10923940673
 30
0.0
 11
104447.9028855794
 21
95263.10569156118
 31
0.0
  0
LINE
  5
5FC51
330
1F
100
AcDbEntity
  8
freecads.com
100
AcDbLine
 10
104447.9028855794
 20
95263.10569156118
 30
0.0
 11
104447.9066233536
 21
95263.10224970981
 31
0.0
  0
LINE
  5
5FC52
330
1F
100
AcDbEntity
  8
freecads.com
100
AcDbLine
 10
104447.9066233536
 20
95263.10224970981
 30
0.0
 11
104447.9104343015
 21
95263.09891439066
 31
0.0
  0
LINE
  5
5FC53
330
1F
100
AcDbEntity
  8
freecads.com
100
AcDbLine
 10
104447.9104343015
 20
95263.09891439066
 30
0.0
 11
104447.914318961
 21
95263.09568506565
 31
0.0
  0
LINE
  5
5FC54
330
1F
100
AcDbEntity
  8
freecads.com
100
AcDbLine
 10
104447.914318961
 20
95263.09568506565
 30
0.0
 11
104447.9182767941
 21
95263.09256281093
 31
0.0
  0
LINE
  5
5FC55
330
1F
100
AcDbEntity
  8
freecads.com
100
AcDbLine
 10
104447.9182767941
 20
95263.09256281093
 30
0.0
 11
104447.922308339
 21
95263.08954655036
 31
0.0
  0
LINE
  5
5FC56
330
1F
100
AcDbEntity
  8
freecads.com
100
AcDbLine
 10
104447.922308339
 20
95263.08954655036
 30
0.0
 11
104447.9264146716
 21
95263.08663682202
 31
0.0
  0
LINE
  5
5FC57
330
1F
100
AcDbEntity
  8
freecads.com
100
AcDbLine
 10
104447.9264146716
 20
95263.08663682202
 30
0.0
 11
104447.9305952539
 21
95263.08383308784
 31
0.0
  0
LINE
  5
5FC58
330
1F
100
AcDbEntity
  8
freecads.com
100
AcDbLine
 10
104447.9305952539
 20
95263.08383308784
 30
0.0
 11
104447.9348511621
 21
95263.08113642391
 31
0.0
  0
LINE
  5
5FC59
330
1F
100
AcDbEntity
  8
freecads.com
100
AcDbLine
 10
104447.9348511621
 20
95263.08113642391
 30
0.0
 11
104447.939181858
 21
95263.07854575417
 31
0.0
  0
LINE
  5
5FC5A
330
1F
100
AcDbEntity
  8
freecads.com
100
AcDbLine
 10
104447.939181858
 20
95263.07854575417
 30
0.0
 11
104447.9435889558
 21
95263.07606161662
 31
0.0
  0
LINE
  5
5FC5B
330
1F
100
AcDbEntity
  8
freecads.com
100
AcDbLine
 10
104447.9435889558
 20
95263.07606161662
 30
0.0
 11
104447.9500384591
 21
95263.07243683115
 31
0.0
  0
LINE
  5
5FC5C
330
1F
100
AcDbEntity
  8
freecads.com
100
AcDbLine
 10
104447.9500384591
 20
95263.07243683115
 30
0.0
 11
104447.9560532248
 21
95263.06896915379
 31
0.0
  0
LINE
  5
5FC5D
330
1F
100
AcDbEntity
  8
freecads.com
100
AcDbLine
 10
104447.9560532248
 20
95263.06896915379
 30
0.0
 11
104447.9616305628
 21
95263.06565697041
 31
0.0
  0
LINE
  5
5FC5E
330
1F
100
AcDbEntity
  8
freecads.com
100
AcDbLine
 10
104447.9616305628
 20
95263.06565697041
 30
0.0
 11
104447.9667677829
 21
95263.0624975908
 31
0.0
  0
LINE
  5
5FC5F
330
1F
100
AcDbEntity
  8
freecads.com
100
AcDbLine
 10
104447.9667677829
 20
95263.0624975908
 30
0.0
 11
104447.9714627329
 21
95263.05948832478
 31
0.0
  0
LINE
  5
5FC60
330
1F
100
AcDbEntity
  8
freecads.com
100
AcDbLine
 10
104447.9714627329
 20
95263.05948832478
 30
0.0
 11
104447.9757132606
 21
95263.0566275582
 31
0.0
  0
LINE
  5
5FC61
330
1F
100
AcDbEntity
  8
freecads.com
100
AcDbLine
 10
104447.9757132606
 20
95263.0566275582
 30
0.0
 11
104447.9795166759
 21
95263.05391206284
 31
0.0
  0
LINE
  5
5FC62
330
1F
100
AcDbEntity
  8
freecads.com
100
AcDbLine
 10
104447.9795166759
 20
95263.05391206284
 30
0.0
 11
104447.9828719026
 21
95263.05134076258
 31
0.0
  0
LINE
  5
5FC63
330
1F
100
AcDbEntity
  8
freecads.com
100
AcDbLine
 10
104447.9828719026
 20
95263.05134076258
 30
0.0
 11
104447.9857751745
 21
95263.04891096723
 31
0.0
  0
LINE
  5
5FC64
330
1F
100
AcDbEntity
  8
freecads.com
100
AcDbLine
 10
104447.9857751745
 20
95263.04891096723
 30
0.0
 11
104447.9882248773
 21
95263.04661998659
 31
0.0
  0
LINE
  5
5FC65
330
1F
100
AcDbEntity
  8
freecads.com
100
AcDbLine
 10
104447.9882248773
 20
95263.04661998659
 30
0.0
 11
104447.9893811285
 21
95263.04107008868
 31
0.0
  0
LINE
  5
5FC66
330
1F
100
AcDbEntity
  8
freecads.com
100
AcDbLine
 10
104447.9893811285
 20
95263.04107008868
 30
0.0
 11
104447.9909113185
 21
95263.0358150375
 31
0.0
  0
LINE
  5
5FC67
330
1F
100
AcDbEntity
  8
freecads.com
100
AcDbLine
 10
104447.9909113185
 20
95263.0358150375
 30
0.0
 11
104447.9928127571
 21
95263.03085429502
 31
0.0
  0
LINE
  5
5FC68
330
1F
100
AcDbEntity
  8
freecads.com
100
AcDbLine
 10
104447.9928127571
 20
95263.03085429502
 30
0.0
 11
104447.9950832921
 21
95263.02618624709
 31
0.0
  0
LINE
  5
5FC69
330
1F
100
AcDbEntity
  8
freecads.com
100
AcDbLine
 10
104447.9950832921
 20
95263.02618624709
 30
0.0
 11
104447.9977207715
 21
95263.02180981765
 31
0.0
  0
LINE
  5
5FC6A
330
1F
100
AcDbEntity
  8
freecads.com
100
AcDbLine
 10
104447.9977207715
 20
95263.02180981765
 30
0.0
 11
104448.000723581
 21
95263.01772393063
 31
0.0
  0
LINE
  5
5FC6B
330
1F
100
AcDbEntity
  8
freecads.com
100
AcDbLine
 10
104448.000723581
 20
95263.01772393063
 30
0.0
 11
104448.0040879544
 21
95263.0139275099
 31
0.0
  0
LINE
  5
5FC6C
330
1F
100
AcDbEntity
  8
freecads.com
100
AcDbLine
 10
104448.0040879544
 20
95263.0139275099
 30
0.0
 11
104448.0078133537
 21
95263.01042001747
 31
0.0
  0
LINE
  5
5FC6D
330
1F
100
AcDbEntity
  8
freecads.com
100
AcDbLine
 10
104448.0078133537
 20
95263.01042001747
 30
0.0
 11
104448.0118960124
 21
95263.00719930114
 31
0.0
  0
LINE
  5
5FC6E
330
1F
100
AcDbEntity
  8
freecads.com
100
AcDbLine
 10
104448.0118960124
 20
95263.00719930114
 30
0.0
 11
104448.0163343166
 21
95263.00426482288
 31
0.0
  0
LINE
  5
5FC6F
330
1F
100
AcDbEntity
  8
freecads.com
100
AcDbLine
 10
104448.0163343166
 20
95263.00426482288
 30
0.0
 11
104448.0212869885
 21
95263.0010354979
 31
0.0
  0
LINE
  5
5FC70
330
1F
100
AcDbEntity
  8
freecads.com
100
AcDbLine
 10
104448.0212869885
 20
95263.0010354979
 30
0.0
 11
104448.0258877812
 21
95262.99755114123
 31
0.0
  0
LINE
  5
5FC71
330
1F
100
AcDbEntity
  8
freecads.com
100
AcDbLine
 10
104448.0258877812
 20
95262.99755114123
 30
0.0
 11
104448.0301372329
 21
95262.99381067683
 31
0.0
  0
LINE
  5
5FC72
330
1F
100
AcDbEntity
  8
freecads.com
100
AcDbLine
 10
104448.0301372329
 20
95262.99381067683
 30
0.0
 11
104448.0340342674
 21
95262.98981195253
 31
0.0
  0
LINE
  5
5FC73
330
1F
100
AcDbEntity
  8
freecads.com
100
AcDbLine
 10
104448.0340342674
 20
95262.98981195253
 30
0.0
 11
104448.0375799607
 21
95262.98555389221
 31
0.0
  0
LINE
  5
5FC74
330
1F
100
AcDbEntity
  8
freecads.com
100
AcDbLine
 10
104448.0375799607
 20
95262.98555389221
 30
0.0
 11
104448.040773775
 21
95262.98103488178
 31
0.0
  0
LINE
  5
5FC75
330
1F
100
AcDbEntity
  8
freecads.com
100
AcDbLine
 10
104448.040773775
 20
95262.98103488178
 30
0.0
 11
104448.0436157101
 21
95262.97625330713
 31
0.0
  0
LINE
  5
5FC76
330
1F
100
AcDbEntity
  8
freecads.com
100
AcDbLine
 10
104448.0436157101
 20
95262.97625330713
 30
0.0
 11
104448.0461057661
 21
95262.97120809212
 31
0.0
  0
LINE
  5
5FC77
330
1F
100
AcDbEntity
  8
freecads.com
100
AcDbLine
 10
104448.0461057661
 20
95262.97120809212
 30
0.0
 11
104448.048243943
 21
95262.96589654657
 31
0.0
  0
LINE
  5
5FC78
330
1F
100
AcDbEntity
  8
freecads.com
100
AcDbLine
 10
104448.048243943
 20
95262.96589654657
 30
0.0
 11
104448.0481804541
 21
95262.96401286336
 31
0.0
  0
LINE
  5
5FC79
330
1F
100
AcDbEntity
  8
freecads.com
100
AcDbLine
 10
104448.0481804541
 20
95262.96401286336
 30
0.0
 11
104448.0472248924
 21
95262.96064203345
 31
0.0
  0
LINE
  5
5FC7A
330
1F
100
AcDbEntity
  8
freecads.com
100
AcDbLine
 10
104448.0472248924
 20
95262.96064203345
 30
0.0
 11
104448.0453718775
 21
95262.95578244274
 31
0.0
  0
LINE
  5
5FC7B
330
1F
100
AcDbEntity
  8
freecads.com
100
AcDbLine
 10
104448.0453718775
 20
95262.95578244274
 30
0.0
 11
104448.0426171051
 21
95262.94943570539
 31
0.0
  0
LINE
  5
5FC7C
330
1F
100
AcDbEntity
  8
freecads.com
100
AcDbLine
 10
104448.0426171051
 20
95262.94943570539
 30
0.0
 11
104448.0389551948
 21
95262.94160074529
 31
0.0
  0
LINE
  5
5FC7D
330
1F
100
AcDbEntity
  8
freecads.com
100
AcDbLine
 10
104448.0389551948
 20
95262.94160074529
 30
0.0
 11
104448.034380228
 21
95262.93227756246
 31
0.0
  0
LINE
  5
5FC7E
330
1F
100
AcDbEntity
  8
freecads.com
100
AcDbLine
 10
104448.034380228
 20
95262.93227756246
 30
0.0
 11
104448.0313768805
 21
95262.9263225193
 31
0.0
  0
LINE
  5
5FC7F
330
1F
100
AcDbEntity
  8
freecads.com
100
AcDbLine
 10
104448.0313768805
 20
95262.9263225193
 30
0.0
 11
104448.0284079676
 21
95262.92065048597
 31
0.0
  0
LINE
  5
5FC80
330
1F
100
AcDbEntity
  8
freecads.com
100
AcDbLine
 10
104448.0284079676
 20
95262.92065048597
 30
0.0
 11
104448.0254729513
 21
95262.91525877226
 31
0.0
  0
LINE
  5
5FC81
330
1F
100
AcDbEntity
  8
freecads.com
100
AcDbLine
 10
104448.0254729513
 20
95262.91525877226
 30
0.0
 11
104448.0225729077
 21
95262.91014468794
 31
0.0
  0
LINE
  5
5FC82
330
1F
100
AcDbEntity
  8
freecads.com
100
AcDbLine
 10
104448.0225729077
 20
95262.91014468794
 30
0.0
 11
104448.0197067607
 21
95262.90530661892
 31
0.0
  0
LINE
  5
5FC83
330
1F
100
AcDbEntity
  8
freecads.com
100
AcDbLine
 10
104448.0197067607
 20
95262.90530661892
 30
0.0
 11
104448.0168745103
 21
95262.90074187496
 31
0.0
  0
LINE
  5
5FC84
330
1F
100
AcDbEntity
  8
freecads.com
100
AcDbLine
 10
104448.0168745103
 20
95262.90074187496
 30
0.0
 11
104448.0140766946
 21
95262.89644884196
 31
0.0
  0
LINE
  5
5FC85
330
1F
100
AcDbEntity
  8
freecads.com
100
AcDbLine
 10
104448.0140766946
 20
95262.89644884196
 30
0.0
 11
104448.0113133135
 21
95262.89242429166
 31
0.0
  0
LINE
  5
5FC86
330
1F
100
AcDbEntity
  8
freecads.com
100
AcDbLine
 10
104448.0113133135
 20
95262.89242429166
 30
0.0
 11
104448.0085843671
 21
95262.88866660992
 31
0.0
  0
LINE
  5
5FC87
330
1F
100
AcDbEntity
  8
freecads.com
100
AcDbLine
 10
104448.0085843671
 20
95262.88866660992
 30
0.0
 11
104448.0058893173
 21
95262.88517364461
 31
0.0
  0
LINE
  5
5FC88
330
1F
100
AcDbEntity
  8
freecads.com
100
AcDbLine
 10
104448.0058893173
 20
95262.88517364461
 30
0.0
 11
104447.9991632607
 21
95262.88200942264
 31
0.0
  0
LINE
  5
5FC89
330
1F
100
AcDbEntity
  8
freecads.com
100
AcDbLine
 10
104447.9991632607
 20
95262.88200942264
 30
0.0
 11
104447.9932571793
 21
95262.88023442377
 31
0.0
  0
LINE
  5
5FC8A
330
1F
100
AcDbEntity
  8
freecads.com
100
AcDbLine
 10
104447.9932571793
 20
95262.88023442377
 30
0.0
 11
104447.9882060459
 21
95262.87988415877
 31
0.0
  0
LINE
  5
5FC8B
330
1F
100
AcDbEntity
  8
freecads.com
100
AcDbLine
 10
104447.9882060459
 20
95262.87988415877
 30
0.0
 11
104447.9840453711
 21
95262.88099413836
 31
0.0
  0
LINE
  5
5FC8C
330
1F
100
AcDbEntity
  8
freecads.com
100
AcDbLine
 10
104447.9840453711
 20
95262.88099413836
 30
0.0
 11
104447.9794235947
 21
95262.88290041932
 31
0.0
  0
LINE
  5
5FC8D
330
1F
100
AcDbEntity
  8
freecads.com
100
AcDbLine
 10
104447.9794235947
 20
95262.88290041932
 30
0.0
 11
104447.9758144124
 21
95262.88370963372
 31
0.0
  0
LINE
  5
5FC8E
330
1F
100
AcDbEntity
  8
freecads.com
100
AcDbLine
 10
104447.9758144124
 20
95262.88370963372
 30
0.0
 11
104447.9732189003
 21
95262.88346374876
 31
0.0
  0
LINE
  5
5FC8F
330
1F
100
AcDbEntity
  8
freecads.com
100
AcDbLine
 10
104447.9732189003
 20
95262.88346374876
 30
0.0
 11
104447.970180042
 21
95262.88347020527
 31
0.0
  0
LINE
  5
5FC90
330
1F
100
AcDbEntity
  8
freecads.com
100
AcDbLine
 10
104447.970180042
 20
95262.88347020527
 30
0.0
 11
104447.9679008983
 21
95262.88199973789
 31
0.0
  0
LINE
  5
5FC91
330
1F
100
AcDbEntity
  8
freecads.com
100
AcDbLine
 10
104447.9679008983
 20
95262.88199973789
 30
0.0
 11
104447.9663814692
 21
95262.87909377582
 31
0.0
  0
LINE
  5
5FC92
330
1F
100
AcDbEntity
  8
freecads.com
100
AcDbLine
 10
104447.9663814692
 20
95262.87909377582
 30
0.0
 11
104447.9672186617
 21
95262.87611840642
 31
0.0
  0
LINE
  5
5FC93
330
1F
100
AcDbEntity
  8
freecads.com
100
AcDbLine
 10
104447.9672186617
 20
95262.87611840642
 30
0.0
 11
104447.9716854821
 21
95262.87478890592
 31
0.0
  0
LINE
  5
5FC94
330
1F
100
AcDbEntity
  8
freecads.com
100
AcDbLine
 10
104447.9716854821
 20
95262.87478890592
 30
0.0
 11
104447.9798664029
 21
95262.8751052743
 31
0.0
  0
LINE
  5
5FC95
330
1F
100
AcDbEntity
  8
freecads.com
100
AcDbLine
 10
104447.9798664029
 20
95262.8751052743
 30
0.0
 11
104447.9745973626
 21
95262.87369883386
 31
0.0
  0
LINE
  5
5FC96
330
1F
100
AcDbEntity
  8
freecads.com
100
AcDbLine
 10
104447.9745973626
 20
95262.87369883386
 30
0.0
 11
104447.9708902568
 21
95262.87246080041
 31
0.0
  0
LINE
  5
5FC97
330
1F
100
AcDbEntity
  8
freecads.com
100
AcDbLine
 10
104447.9708902568
 20
95262.87246080041
 30
0.0
 11
104447.9686606129
 21
95262.87130723947
 31
0.0
  0
LINE
  5
5FC98
330
1F
100
AcDbEntity
  8
freecads.com
100
AcDbLine
 10
104447.9686606129
 20
95262.87130723947
 30
0.0
 11
104447.9639828802
 21
95262.871314234
 31
0.0
  0
LINE
  5
5FC99
330
1F
100
AcDbEntity
  8
freecads.com
100
AcDbLine
 10
104447.9639828802
 20
95262.871314234
 30
0.0
 11
104447.9587138399
 21
95262.87136373381
 31
0.0
  0
LINE
  5
5FC9A
330
1F
100
AcDbEntity
  8
freecads.com
100
AcDbLine
 10
104447.9587138399
 20
95262.87136373381
 30
0.0
 11
104447.9528965354
 21
95262.87149770615
 31
0.0
  0
LINE
  5
5FC9B
330
1F
100
AcDbEntity
  8
freecads.com
100
AcDbLine
 10
104447.9528965354
 20
95262.87149770615
 30
0.0
 11
104447.9473245778
 21
95262.87149017356
 31
0.0
  0
LINE
  5
5FC9C
330
1F
100
AcDbEntity
  8
freecads.com
100
AcDbLine
 10
104447.9473245778
 20
95262.87149017356
 30
0.0
 11
104447.9431461476
 21
95262.87106081646
 31
0.0
  0
LINE
  5
5FC9D
330
1F
100
AcDbEntity
  8
freecads.com
100
AcDbLine
 10
104447.9431461476
 20
95262.87106081646
 30
0.0
 11
104447.9403607069
 21
95262.8701676676
 31
0.0
  0
LINE
  5
5FC9E
330
1F
100
AcDbEntity
  8
freecads.com
100
AcDbLine
 10
104447.9403607069
 20
95262.8701676676
 30
0.0
 11
104447.9381439759
 21
95262.86578531971
 31
0.0
  0
LINE
  5
5FC9F
330
1F
100
AcDbEntity
  8
freecads.com
100
AcDbLine
 10
104447.9381439759
 20
95262.86578531971
 30
0.0
 11
104447.93757419
 21
95262.86245753311
 31
0.0
  0
LINE
  5
5FCA0
330
1F
100
AcDbEntity
  8
freecads.com
100
AcDbLine
 10
104447.93757419
 20
95262.86245753311
 30
0.0
 11
104447.938650811
 21
95262.86010144946
 31
0.0
  0
LINE
  5
5FCA1
330
1F
100
AcDbEntity
  8
freecads.com
100
AcDbLine
 10
104447.938650811
 20
95262.86010144946
 30
0.0
 11
104447.9450997763
 21
95262.85825489109
 31
0.0
  0
LINE
  5
5FCA2
330
1F
100
AcDbEntity
  8
freecads.com
100
AcDbLine
 10
104447.9450997763
 20
95262.85825489109
 30
0.0
 11
104447.9516375183
 21
95262.85758395335
 31
0.0
  0
LINE
  5
5FCA3
330
1F
100
AcDbEntity
  8
freecads.com
100
AcDbLine
 10
104447.9516375183
 20
95262.85758395335
 30
0.0
 11
104447.9582817926
 21
95262.85812468506
 31
0.0
  0
LINE
  5
5FCA4
330
1F
100
AcDbEntity
  8
freecads.com
100
AcDbLine
 10
104447.9582817926
 20
95262.85812468506
 30
0.0
 11
104447.9650508925
 21
95262.85991098278
 31
0.0
  0
LINE
  5
5FCA5
330
1F
100
AcDbEntity
  8
freecads.com
100
AcDbLine
 10
104447.9650508925
 20
95262.85991098278
 30
0.0
 11
104447.9718565793
 21
95262.86193509484
 31
0.0
  0
LINE
  5
5FCA6
330
1F
100
AcDbEntity
  8
freecads.com
100
AcDbLine
 10
104447.9718565793
 20
95262.86193509484
 30
0.0
 11
104447.9786084619
 21
95262.86342546976
 31
0.0
  0
LINE
  5
5FCA7
330
1F
100
AcDbEntity
  8
freecads.com
100
AcDbLine
 10
104447.9786084619
 20
95262.86342546976
 30
0.0
 11
104447.9853248337
 21
95262.86434552069
 31
0.0
  0
LINE
  5
5FCA8
330
1F
100
AcDbEntity
  8
freecads.com
100
AcDbLine
 10
104447.9853248337
 20
95262.86434552069
 30
0.0
 11
104447.9920229122
 21
95262.86466027496
 31
0.0
  0
LINE
  5
5FCA9
330
1F
100
AcDbEntity
  8
freecads.com
100
AcDbLine
 10
104447.9920229122
 20
95262.86466027496
 30
0.0
 11
104447.9893709057
 21
95262.86288689023
 31
0.0
  0
LINE
  5
5FCAA
330
1F
100
AcDbEntity
  8
freecads.com
100
AcDbLine
 10
104447.9893709057
 20
95262.86288689023
 30
0.0
 11
104447.9871412618
 21
95262.86136746108
 31
0.0
  0
LINE
  5
5FCAB
330
1F
100
AcDbEntity
  8
freecads.com
100
AcDbLine
 10
104447.9871412618
 20
95262.86136746108
 30
0.0
 11
104447.9853759477
 21
95262.86010144946
 31
0.0
  0
LINE
  5
5FCAC
330
1F
100
AcDbEntity
  8
freecads.com
100
AcDbLine
 10
104447.9853759477
 20
95262.86010144946
 30
0.0
 11
104447.982527018
 21
95262.85927125146
 31
0.0
  0
LINE
  5
5FCAD
330
1F
100
AcDbEntity
  8
freecads.com
100
AcDbLine
 10
104447.982527018
 20
95262.85927125146
 30
0.0
 11
104447.9785379784
 21
95262.85827210843
 31
0.0
  0
LINE
  5
5FCAE
330
1F
100
AcDbEntity
  8
freecads.com
100
AcDbLine
 10
104447.9785379784
 20
95262.85827210843
 30
0.0
 11
104447.9734099051
 21
95262.85706205312
 31
0.0
  0
LINE
  5
5FCAF
330
1F
100
AcDbEntity
  8
freecads.com
100
AcDbLine
 10
104447.9734099051
 20
95262.85706205312
 30
0.0
 11
104447.9689285575
 21
95262.85516222863
 31
0.0
  0
LINE
  5
5FCB0
330
1F
100
AcDbEntity
  8
freecads.com
100
AcDbLine
 10
104447.9689285575
 20
95262.85516222863
 30
0.0
 11
104447.9669367279
 21
95262.85212337034
 31
0.0
  0
LINE
  5
5FCB1
330
1F
100
AcDbEntity
  8
freecads.com
100
AcDbLine
 10
104447.9669367279
 20
95262.85212337034
 30
0.0
 11
104447.967521041
 21
95262.84794494017
 31
0.0
  0
LINE
  5
5FCB2
330
1F
100
AcDbEntity
  8
freecads.com
100
AcDbLine
 10
104447.967521041
 20
95262.84794494017
 30
0.0
 11
104447.9684636897
 21
95262.84636148407
 31
0.0
  0
LINE
  5
5FCB3
330
1F
100
AcDbEntity
  8
freecads.com
100
AcDbLine
 10
104447.9684636897
 20
95262.84636148407
 30
0.0
 11
104447.9712631195
 21
95262.84541184086
 31
0.0
  0
LINE
  5
5FCB4
330
1F
100
AcDbEntity
  8
freecads.com
100
AcDbLine
 10
104447.9712631195
 20
95262.84541184086
 30
0.0
 11
104447.9758773633
 21
95262.84509547245
 31
0.0
  0
LINE
  5
5FCB5
330
1F
100
AcDbEntity
  8
freecads.com
100
AcDbLine
 10
104447.9758773633
 20
95262.84509547245
 30
0.0
 11
104447.9802613253
 21
95262.84611613716
 31
0.0
  0
LINE
  5
5FCB6
330
1F
100
AcDbEntity
  8
freecads.com
100
AcDbLine
 10
104447.9802613253
 20
95262.84611613716
 30
0.0
 11
104447.9835885739
 21
95262.84768506613
 31
0.0
  0
LINE
  5
5FCB7
330
1F
100
AcDbEntity
  8
freecads.com
100
AcDbLine
 10
104447.9835885739
 20
95262.84768506613
 30
0.0
 11
104447.9859457336
 21
95262.84984476465
 31
0.0
  0
LINE
  5
5FCB8
330
1F
100
AcDbEntity
  8
freecads.com
100
AcDbLine
 10
104447.9859457336
 20
95262.84984476465
 30
0.0
 11
104447.9881748395
 21
95262.85237678786
 31
0.0
  0
LINE
  5
5FCB9
330
1F
100
AcDbEntity
  8
freecads.com
100
AcDbLine
 10
104447.9881748395
 20
95262.85237678786
 30
0.0
 11
104447.9911222307
 21
95262.85503632694
 31
0.0
  0
LINE
  5
5FCBA
330
1F
100
AcDbEntity
  8
freecads.com
100
AcDbLine
 10
104447.9911222307
 20
95262.85503632694
 30
0.0
 11
104447.9948723799
 21
95262.85782230575
 31
0.0
  0
LINE
  5
5FCBB
330
1F
100
AcDbEntity
  8
freecads.com
100
AcDbLine
 10
104447.9948723799
 20
95262.85782230575
 30
0.0
 11
104448.0004276582
 21
95262.85902967083
 31
0.0
  0
LINE
  5
5FCBC
330
1F
100
AcDbEntity
  8
freecads.com
100
AcDbLine
 10
104448.0004276582
 20
95262.85902967083
 30
0.0
 11
104448.0054131506
 21
95262.8615014334
 31
0.0
  0
LINE
  5
5FCBD
330
1F
100
AcDbEntity
  8
freecads.com
100
AcDbLine
 10
104448.0054131506
 20
95262.8615014334
 30
0.0
 11
104448.0098293951
 21
95262.86522037615
 31
0.0
  0
LINE
  5
5FCBE
330
1F
100
AcDbEntity
  8
freecads.com
100
AcDbLine
 10
104448.0098293951
 20
95262.86522037615
 30
0.0
 11
104448.0136758537
 21
95262.8701676676
 31
0.0
  0
LINE
  5
5FCBF
330
1F
100
AcDbEntity
  8
freecads.com
100
AcDbLine
 10
104448.0136758537
 20
95262.8701676676
 30
0.0
 11
104448.0185521236
 21
95262.8710963272
 31
0.0
  0
LINE
  5
5FCC0
330
1F
100
AcDbEntity
  8
freecads.com
100
AcDbLine
 10
104448.0185521236
 20
95262.8710963272
 30
0.0
 11
104448.0220569259
 21
95262.87389468096
 31
0.0
  0
LINE
  5
5FCC1
330
1F
100
AcDbEntity
  8
freecads.com
100
AcDbLine
 10
104448.0220569259
 20
95262.87389468096
 30
0.0
 11
104448.024172505
 21
95262.87858102229
 31
0.0
  0
LINE
  5
5FCC2
330
1F
100
AcDbEntity
  8
freecads.com
100
AcDbLine
 10
104448.024172505
 20
95262.87858102229
 30
0.0
 11
104448.0248816437
 21
95262.88517364461
 31
0.0
  0
LINE
  5
5FCC3
330
1F
100
AcDbEntity
  8
freecads.com
100
AcDbLine
 10
104448.0248816437
 20
95262.88517364461
 30
0.0
 11
104448.0261411988
 21
95262.88675602462
 31
0.0
  0
LINE
  5
5FCC4
330
1F
100
AcDbEntity
  8
freecads.com
100
AcDbLine
 10
104448.0261411988
 20
95262.88675602462
 30
0.0
 11
104448.0276122042
 21
95262.88618570065
 31
0.0
  0
LINE
  5
5FCC5
330
1F
100
AcDbEntity
  8
freecads.com
100
AcDbLine
 10
104448.0276122042
 20
95262.88618570065
 30
0.0
 11
104448.0292516166
 21
95262.88346374876
 31
0.0
  0
LINE
  5
5FCC6
330
1F
100
AcDbEntity
  8
freecads.com
100
AcDbLine
 10
104448.0292516166
 20
95262.88346374876
 30
0.0
 11
104448.031396788
 21
95262.8806212756
 31
0.0
  0
LINE
  5
5FCC7
330
1F
100
AcDbEntity
  8
freecads.com
100
AcDbLine
 10
104448.031396788
 20
95262.8806212756
 30
0.0
 11
104448.0340068272
 21
95262.87934019881
 31
0.0
  0
LINE
  5
5FCC8
330
1F
100
AcDbEntity
  8
freecads.com
100
AcDbLine
 10
104448.0340068272
 20
95262.87934019881
 30
0.0
 11
104448.037038691
 21
95262.87966356177
 31
0.0
  0
LINE
  5
5FCC9
330
1F
100
AcDbEntity
  8
freecads.com
100
AcDbLine
 10
104448.037038691
 20
95262.87966356177
 30
0.0
 11
104448.0444389136
 21
95262.87611840642
 31
0.0
  0
LINE
  5
5FCCA
330
1F
100
AcDbEntity
  8
freecads.com
100
AcDbLine
 10
104448.0444389136
 20
95262.87611840642
 30
0.0
 11
104448.0495180252
 21
95262.87459897726
 31
0.0
  0
LINE
  5
5FCCB
330
1F
100
AcDbEntity
  8
freecads.com
100
AcDbLine
 10
104448.0495180252
 20
95262.87459897726
 30
0.0
 11
104448.0522329825
 21
95262.8751052743
 31
0.0
  0
LINE
  5
5FCCC
330
1F
100
AcDbEntity
  8
freecads.com
100
AcDbLine
 10
104448.0522329825
 20
95262.8751052743
 30
0.0
 11
104448.0540058292
 21
95262.87974157778
 31
0.0
  0
LINE
  5
5FCCD
330
1F
100
AcDbEntity
  8
freecads.com
100
AcDbLine
 10
104448.0540058292
 20
95262.87974157778
 30
0.0
 11
104448.0521065428
 21
95262.88230964977
 31
0.0
  0
LINE
  5
5FCCE
330
1F
100
AcDbEntity
  8
freecads.com
100
AcDbLine
 10
104448.0521065428
 20
95262.88230964977
 30
0.0
 11
104448.0465345852
 21
95262.88289396283
 31
0.0
  0
LINE
  5
5FCCF
330
1F
100
AcDbEntity
  8
freecads.com
100
AcDbLine
 10
104448.0465345852
 20
95262.88289396283
 30
0.0
 11
104448.0396901594
 21
95262.88364614483
 31
0.0
  0
LINE
  5
5FCD0
330
1F
100
AcDbEntity
  8
freecads.com
100
AcDbLine
 10
104448.0396901594
 20
95262.88364614483
 30
0.0
 11
104448.0339428003
 21
95262.88663604137
 31
0.0
  0
LINE
  5
5FCD1
330
1F
100
AcDbEntity
  8
freecads.com
100
AcDbLine
 10
104448.0339428003
 20
95262.88663604137
 30
0.0
 11
104448.0292516166
 21
95262.8918206091
 31
0.0
  0
LINE
  5
5FCD2
330
1F
100
AcDbEntity
  8
freecads.com
100
AcDbLine
 10
104448.0292516166
 20
95262.8918206091
 30
0.0
 11
104448.0286183418
 21
95262.89493640735
 31
0.0
  0
LINE
  5
5FCD3
330
1F
100
AcDbEntity
  8
freecads.com
100
AcDbLine
 10
104448.0286183418
 20
95262.89493640735
 30
0.0
 11
104448.0293780564
 21
95262.89902337046
 31
0.0
  0
LINE
  5
5FCD4
330
1F
100
AcDbEntity
  8
freecads.com
100
AcDbLine
 10
104448.0293780564
 20
95262.89902337046
 30
0.0
 11
104448.0315307603
 21
95262.90416597095
 31
0.0
  0
LINE
  5
5FCD5
330
1F
100
AcDbEntity
  8
freecads.com
100
AcDbLine
 10
104448.0315307603
 20
95262.90416597095
 30
0.0
 11
104448.0412881426
 21
95262.90486919119
 31
0.0
  0
LINE
  5
5FCD6
330
1F
100
AcDbEntity
  8
freecads.com
100
AcDbLine
 10
104448.0412881426
 20
95262.90486919119
 30
0.0
 11
104448.0489095003
 21
95262.90608946927
 31
0.0
  0
LINE
  5
5FCD7
330
1F
100
AcDbEntity
  8
freecads.com
100
AcDbLine
 10
104448.0489095003
 20
95262.90608946927
 30
0.0
 11
104448.0543942952
 21
95262.90777246304
 31
0.0
  0
LINE
  5
5FCD8
330
1F
100
AcDbEntity
  8
freecads.com
100
AcDbLine
 10
104448.0543942952
 20
95262.90777246304
 30
0.0
 11
104448.0577425273
 21
95262.90986383029
 31
0.0
  0
LINE
  5
5FCD9
330
1F
100
AcDbEntity
  8
freecads.com
100
AcDbLine
 10
104448.0577425273
 20
95262.90986383029
 30
0.0
 11
104448.060267556
 21
95262.91303719897
 31
0.0
  0
LINE
  5
5FCDA
330
1F
100
AcDbEntity
  8
freecads.com
100
AcDbLine
 10
104448.060267556
 20
95262.91303719897
 30
0.0
 11
104448.0621173427
 21
95262.91612555709
 31
0.0
  0
LINE
  5
5FCDB
330
1F
100
AcDbEntity
  8
freecads.com
100
AcDbLine
 10
104448.0621173427
 20
95262.91612555709
 30
0.0
 11
104448.06324992
 21
95262.91917194797
 31
0.0
  0
LINE
  5
5FCDC
330
1F
100
AcDbEntity
  8
freecads.com
100
AcDbLine
 10
104448.06324992
 20
95262.91917194797
 30
0.0
 11
104448.0584199216
 21
95262.91593024803
 31
0.0
  0
LINE
  5
5FCDD
330
1F
100
AcDbEntity
  8
freecads.com
100
AcDbLine
 10
104448.0584199216
 20
95262.91593024803
 30
0.0
 11
104448.0532794732
 21
95262.9139378804
 31
0.0
  0
LINE
  5
5FCDE
330
1F
100
AcDbEntity
  8
freecads.com
100
AcDbLine
 10
104448.0532794732
 20
95262.9139378804
 30
0.0
 11
104448.0478382597
 21
95262.91316740501
 31
0.0
  0
LINE
  5
5FCDF
330
1F
100
AcDbEntity
  8
freecads.com
100
AcDbLine
 10
104448.0478382597
 20
95262.91316740501
 30
0.0
 11
104448.0421054277
 21
95262.91359191974
 31
0.0
  0
LINE
  5
5FCE0
330
1F
100
AcDbEntity
  8
freecads.com
100
AcDbLine
 10
104448.0421054277
 20
95262.91359191974
 30
0.0
 11
104448.0360895859
 21
95262.9151829084
 31
0.0
  0
LINE
  5
5FCE1
330
1F
100
AcDbEntity
  8
freecads.com
100
AcDbLine
 10
104448.0360895859
 20
95262.9151829084
 30
0.0
 11
104448.0375218522
 21
95262.91748841616
 31
0.0
  0
LINE
  5
5FCE2
330
1F
100
AcDbEntity
  8
freecads.com
100
AcDbLine
 10
104448.0375218522
 20
95262.91748841616
 30
0.0
 11
104448.0393953127
 21
95262.92055471458
 31
0.0
  0
LINE
  5
5FCE3
330
1F
100
AcDbEntity
  8
freecads.com
100
AcDbLine
 10
104448.0393953127
 20
95262.92055471458
 30
0.0
 11
104448.0417045868
 21
95262.92437803737
 31
0.0
  0
LINE
  5
5FCE4
330
1F
100
AcDbEntity
  8
freecads.com
100
AcDbLine
 10
104448.0417045868
 20
95262.92437803737
 30
0.0
 11
104448.0444459081
 21
95262.92895408019
 31
0.0
  0
LINE
  5
5FCE5
330
1F
100
AcDbEntity
  8
freecads.com
100
AcDbLine
 10
104448.0444459081
 20
95262.92895408019
 30
0.0
 11
104448.0476149725
 21
95262.93427746265
 31
0.0
  0
LINE
  5
5FCE6
330
1F
100
AcDbEntity
  8
freecads.com
100
AcDbLine
 10
104448.0476149725
 20
95262.93427746265
 30
0.0
 11
104448.0512063994
 21
95262.94034441843
 31
0.0
  0
LINE
  5
5FCE7
330
1F
100
AcDbEntity
  8
freecads.com
100
AcDbLine
 10
104448.0512063994
 20
95262.94034441843
 30
0.0
 11
104448.0552164226
 21
95262.94715064322
 31
0.0
  0
LINE
  5
5FCE8
330
1F
100
AcDbEntity
  8
freecads.com
100
AcDbLine
 10
104448.0552164226
 20
95262.94715064322
 30
0.0
 11
104448.0596401997
 21
95262.95469075659
 31
0.0
  0
LINE
  5
5FCE9
330
1F
100
AcDbEntity
  8
freecads.com
100
AcDbLine
 10
104448.0596401997
 20
95262.95469075659
 30
0.0
 11
104448.0634812778
 21
95262.96149967157
 31
0.0
  0
LINE
  5
5FCEA
330
1F
100
AcDbEntity
  8
freecads.com
100
AcDbLine
 10
104448.0634812778
 20
95262.96149967157
 30
0.0
 11
104448.0666471139
 21
95262.96786793057
 31
0.0
  0
LINE
  5
5FCEB
330
1F
100
AcDbEntity
  8
freecads.com
100
AcDbLine
 10
104448.0666471139
 20
95262.96786793057
 30
0.0
 11
104448.0691371699
 21
95262.9737901532
 31
0.0
  0
LINE
  5
5FCEC
330
1F
100
AcDbEntity
  8
freecads.com
100
AcDbLine
 10
104448.0691371699
 20
95262.9737901532
 30
0.0
 11
104448.0709525219
 21
95262.97926257313
 31
0.0
  0
LINE
  5
5FCED
330
1F
100
AcDbEntity
  8
freecads.com
100
AcDbLine
 10
104448.0709525219
 20
95262.97926257313
 30
0.0
 11
104448.0720920937
 21
95262.98427980998
 31
0.0
  0
LINE
  5
5FCEE
330
1F
100
AcDbEntity
  8
freecads.com
100
AcDbLine
 10
104448.0720920937
 20
95262.98427980998
 30
0.0
 11
104448.0725564235
 21
95262.9888375594
 31
0.0
  0
LINE
  5
5FCEF
330
1F
100
AcDbEntity
  8
freecads.com
100
AcDbLine
 10
104448.0725564235
 20
95262.9888375594
 30
0.0
 11
104448.0723455113
 21
95262.99293097901
 31
0.0
  0
LINE
  5
5FCF0
330
1F
100
AcDbEntity
  8
freecads.com
100
AcDbLine
 10
104448.0723455113
 20
95262.99293097901
 30
0.0
 11
104448.0714588189
 21
95262.99655522645
 31
0.0
  0
LINE
  5
5FCF1
330
1F
100
AcDbEntity
  8
freecads.com
100
AcDbLine
 10
104448.0714588189
 20
95262.99655522645
 30
0.0
 11
104448.0698968845
 21
95262.99970653543
 31
0.0
  0
LINE
  5
5FCF2
330
1F
100
AcDbEntity
  8
freecads.com
100
AcDbLine
 10
104448.0698968845
 20
95262.99970653543
 30
0.0
 11
104448.0684479388
 21
95263.00109898679
 31
0.0
  0
LINE
  5
5FCF3
330
1F
100
AcDbEntity
  8
freecads.com
100
AcDbLine
 10
104448.0684479388
 20
95263.00109898679
 30
0.0
 11
104448.0675477954
 21
95263.0029977352
 31
0.0
  0
LINE
  5
5FCF4
330
1F
100
AcDbEntity
  8
freecads.com
100
AcDbLine
 10
104448.0675477954
 20
95263.0029977352
 30
0.0
 11
104448.0672389596
 21
95263.00540439475
 31
0.0
  0
LINE
  5
5FCF5
330
1F
100
AcDbEntity
  8
freecads.com
100
AcDbLine
 10
104448.0672389596
 20
95263.00540439475
 30
0.0
 11
104448.0708971036
 21
95263.0038849656
 31
0.0
  0
LINE
  5
5FCF6
330
1F
100
AcDbEntity
  8
freecads.com
100
AcDbLine
 10
104448.0708971036
 20
95263.0038849656
 30
0.0
 11
104448.0745972149
 21
95263.0038849656
 31
0.0
  0
LINE
  5
5FCF7
330
1F
100
AcDbEntity
  8
freecads.com
100
AcDbLine
 10
104448.0745972149
 20
95263.0038849656
 30
0.0
 11
104448.078255897
 21
95263.00540439475
 31
0.0
  0
LINE
  5
5FCF8
330
1F
100
AcDbEntity
  8
freecads.com
100
AcDbLine
 10
104448.078255897
 20
95263.00540439475
 30
0.0
 11
104448.0821104262
 21
95262.99971191583
 31
0.0
  0
LINE
  5
5FCF9
330
1F
100
AcDbEntity
  8
freecads.com
100
AcDbLine
 10
104448.0821104262
 20
95262.99971191583
 30
0.0
 11
104448.0863039215
 21
95262.99547968152
 31
0.0
  0
LINE
  5
5FCFA
330
1F
100
AcDbEntity
  8
freecads.com
100
AcDbLine
 10
104448.0863039215
 20
95262.99547968152
 30
0.0
 11
104448.090889111
 21
95262.99274320253
 31
0.0
  0
LINE
  5
5FCFB
330
1F
100
AcDbEntity
  8
freecads.com
100
AcDbLine
 10
104448.090889111
 20
95262.99274320253
 30
0.0
 11
104448.095920337
 21
95262.99153852765
 31
0.0
  0
LINE
  5
5FCFC
330
1F
100
AcDbEntity
  8
freecads.com
100
AcDbLine
 10
104448.095920337
 20
95262.99153852765
 30
0.0
 11
104448.101744636
 21
95262.98996206611
 31
0.0
  0
LINE
  5
5FCFD
330
1F
100
AcDbEntity
  8
freecads.com
100
AcDbLine
 10
104448.101744636
 20
95262.98996206611
 30
0.0
 11
104448.1055432089
 21
95262.98678277898
 31
0.0
  0
LINE
  5
5FCFE
330
1F
100
AcDbEntity
  8
freecads.com
100
AcDbLine
 10
104448.1055432089
 20
95262.98678277898
 30
0.0
 11
104448.1073165937
 21
95262.98204209545
 31
0.0
  0
LINE
  5
5FCFF
330
1F
100
AcDbEntity
  8
freecads.com
100
AcDbLine
 10
104448.1073165937
 20
95262.98204209545
 30
0.0
 11
104448.1082490195
 21
95262.97807457753
 31
0.0
  0
LINE
  5
5FD00
330
1F
100
AcDbEntity
  8
freecads.com
100
AcDbLine
 10
104448.1082490195
 20
95262.97807457753
 30
0.0
 11
104448.1094461618
 21
95262.9730040746
 31
0.0
  0
LINE
  5
5FD01
330
1F
100
AcDbEntity
  8
freecads.com
100
AcDbLine
 10
104448.1094461618
 20
95262.9730040746
 30
0.0
 11
104448.1108983358
 21
95262.96682090183
 31
0.0
  0
LINE
  5
5FD02
330
1F
100
AcDbEntity
  8
freecads.com
100
AcDbLine
 10
104448.1108983358
 20
95262.96682090183
 30
0.0
 11
104448.1125974708
 21
95262.95951645066
 31
0.0
  0
LINE
  5
5FD03
330
1F
100
AcDbEntity
  8
freecads.com
100
AcDbLine
 10
104448.1125974708
 20
95262.95951645066
 30
0.0
 11
104448.1145333441
 21
95262.9510815743
 31
0.0
  0
LINE
  5
5FD04
330
1F
100
AcDbEntity
  8
freecads.com
100
AcDbLine
 10
104448.1145333441
 20
95262.9510815743
 30
0.0
 11
104448.1159726051
 21
95262.94386374779
 31
0.0
  0
LINE
  5
5FD05
330
1F
100
AcDbEntity
  8
freecads.com
100
AcDbLine
 10
104448.1159726051
 20
95262.94386374779
 30
0.0
 11
104448.1170583728
 21
95262.9372157072
 31
0.0
  0
LINE
  5
5FD06
330
1F
100
AcDbEntity
  8
freecads.com
100
AcDbLine
 10
104448.1170583728
 20
95262.9372157072
 30
0.0
 11
104448.1177852668
 21
95262.93113799058
 31
0.0
  0
LINE
  5
5FD07
330
1F
100
AcDbEntity
  8
freecads.com
100
AcDbLine
 10
104448.1177852668
 20
95262.93113799058
 30
0.0
 11
104448.1181484448
 21
95262.92562952187
 31
0.0
  0
LINE
  5
5FD08
330
1F
100
AcDbEntity
  8
freecads.com
100
AcDbLine
 10
104448.1181484448
 20
95262.92562952187
 30
0.0
 11
104448.1181425264
 21
95262.92069137712
 31
0.0
  0
LINE
  5
5FD09
330
1F
100
AcDbEntity
  8
freecads.com
100
AcDbLine
 10
104448.1181425264
 20
95262.92069137712
 30
0.0
 11
104448.117761593
 21
95262.91632248028
 31
0.0
  0
LINE
  5
5FD0A
330
1F
100
AcDbEntity
  8
freecads.com
100
AcDbLine
 10
104448.117761593
 20
95262.91632248028
 30
0.0
 11
104448.1157288723
 21
95262.91133483571
 31
0.0
  0
LINE
  5
5FD0B
330
1F
100
AcDbEntity
  8
freecads.com
100
AcDbLine
 10
104448.1157288723
 20
95262.91133483571
 30
0.0
 11
104448.1118813376
 21
95262.90592482858
 31
0.0
  0
LINE
  5
5FD0C
330
1F
100
AcDbEntity
  8
freecads.com
100
AcDbLine
 10
104448.1118813376
 20
95262.90592482858
 30
0.0
 11
104448.1061770218
 21
95262.9001769314
 31
0.0
  0
LINE
  5
5FD0D
330
1F
100
AcDbEntity
  8
freecads.com
100
AcDbLine
 10
104448.1061770218
 20
95262.9001769314
 30
0.0
 11
104448.099668872
 21
95262.89543678593
 31
0.0
  0
LINE
  5
5FD0E
330
1F
100
AcDbEntity
  8
freecads.com
100
AcDbLine
 10
104448.099668872
 20
95262.89543678593
 30
0.0
 11
104448.0934991503
 21
95262.89301667533
 31
0.0
  0
LINE
  5
5FD0F
330
1F
100
AcDbEntity
  8
freecads.com
100
AcDbLine
 10
104448.0934991503
 20
95262.89301667533
 30
0.0
 11
104448.0877523292
 21
95262.89296018097
 31
0.0
  0
LINE
  5
5FD10
330
1F
100
AcDbEntity
  8
freecads.com
100
AcDbLine
 10
104448.0877523292
 20
95262.89296018097
 30
0.0
 11
104448.0828911244
 21
95262.89315010961
 31
0.0
  0
LINE
  5
5FD11
330
1F
100
AcDbEntity
  8
freecads.com
100
AcDbLine
 10
104448.0828911244
 20
95262.89315010961
 30
0.0
 11
104448.07710126
 21
95262.89371989554
 31
0.0
  0
LINE
  5
5FD12
330
1F
100
AcDbEntity
  8
freecads.com
100
AcDbLine
 10
104448.07710126
 20
95262.89371989554
 30
0.0
 11
104448.0704672084
 21
95262.89466953878
 31
0.0
  0
LINE
  5
5FD13
330
1F
100
AcDbEntity
  8
freecads.com
100
AcDbLine
 10
104448.0704672084
 20
95262.89466953878
 30
0.0
 11
104448.0640661289
 21
95262.89542925335
 31
0.0
  0
LINE
  5
5FD14
330
1F
100
AcDbEntity
  8
freecads.com
100
AcDbLine
 10
104448.0640661289
 20
95262.89542925335
 30
0.0
 11
104448.0588890937
 21
95262.89542925335
 31
0.0
  0
LINE
  5
5FD15
330
1F
100
AcDbEntity
  8
freecads.com
100
AcDbLine
 10
104448.0588890937
 20
95262.89542925335
 30
0.0
 11
104448.0548935977
 21
95262.89466953878
 31
0.0
  0
LINE
  5
5FD16
330
1F
100
AcDbEntity
  8
freecads.com
100
AcDbLine
 10
104448.0548935977
 20
95262.89466953878
 30
0.0
 11
104448.050397723
 21
95262.89009672419
 31
0.0
  0
LINE
  5
5FD17
330
1F
100
AcDbEntity
  8
freecads.com
100
AcDbLine
 10
104448.050397723
 20
95262.89009672419
 30
0.0
 11
104448.050967509
 21
95262.88695994233
 31
0.0
  0
LINE
  5
5FD18
330
1F
100
AcDbEntity
  8
freecads.com
100
AcDbLine
 10
104448.050967509
 20
95262.88695994233
 30
0.0
 11
104448.0566029555
 21
95262.88517364461
 31
0.0
  0
LINE
  5
5FD19
330
1F
100
AcDbEntity
  8
freecads.com
100
AcDbLine
 10
104448.0566029555
 20
95262.88517364461
 30
0.0
 11
104448.0616223445
 21
95262.88382316048
 31
0.0
  0
LINE
  5
5FD1A
330
1F
100
AcDbEntity
  8
freecads.com
100
AcDbLine
 10
104448.0616223445
 20
95262.88382316048
 30
0.0
 11
104448.0666541084
 21
95262.88285145756
 31
0.0
  0
LINE
  5
5FD1B
330
1F
100
AcDbEntity
  8
freecads.com
100
AcDbLine
 10
104448.0666541084
 20
95262.88285145756
 30
0.0
 11
104448.0716966333
 21
95262.88226068801
 31
0.0
  0
LINE
  5
5FD1C
330
1F
100
AcDbEntity
  8
freecads.com
100
AcDbLine
 10
104448.0716966333
 20
95262.88226068801
 30
0.0
 11
104448.0767509949
 21
95262.88205246595
 31
0.0
  0
LINE
  5
5FD1D
330
1F
100
AcDbEntity
  8
freecads.com
100
AcDbLine
 10
104448.0767509949
 20
95262.88205246595
 30
0.0
 11
104448.0818166555
 21
95262.8822294816
 31
0.0
  0
LINE
  5
5FD1E
330
1F
100
AcDbEntity
  8
freecads.com
100
AcDbLine
 10
104448.0818166555
 20
95262.8822294816
 30
0.0
 11
104448.086893615
 21
95262.88279388712
 31
0.0
  0
LINE
  5
5FD1F
330
1F
100
AcDbEntity
  8
freecads.com
100
AcDbLine
 10
104448.086893615
 20
95262.88279388712
 30
0.0
 11
104448.0919824113
 21
95262.88374783467
 31
0.0
  0
LINE
  5
5FD20
330
1F
100
AcDbEntity
  8
freecads.com
100
AcDbLine
 10
104448.0919824113
 20
95262.88374783467
 30
0.0
 11
104448.0970825066
 21
95262.88509401446
 31
0.0
  0
LINE
  5
5FD21
330
1F
100
AcDbEntity
  8
freecads.com
100
AcDbLine
 10
104448.0970825066
 20
95262.88509401446
 30
0.0
 11
104448.1021939007
 21
95262.88683457867
 31
0.0
  0
LINE
  5
5FD22
330
1F
100
AcDbEntity
  8
freecads.com
100
AcDbLine
 10
104448.1021939007
 20
95262.88683457867
 30
0.0
 11
104448.1073165937
 21
95262.88897167946
 31
0.0
  0
LINE
  5
5FD23
330
1F
100
AcDbEntity
  8
freecads.com
100
AcDbLine
 10
104448.1073165937
 20
95262.88897167946
 30
0.0
 11
104448.1055997033
 21
95262.88714287645
 31
0.0
  0
LINE
  5
5FD24
330
1F
100
AcDbEntity
  8
freecads.com
100
AcDbLine
 10
104448.1055997033
 20
95262.88714287645
 30
0.0
 11
104448.1027012738
 21
95262.8858623377
 31
0.0
  0
LINE
  5
5FD25
330
1F
100
AcDbEntity
  8
freecads.com
100
AcDbLine
 10
104448.1027012738
 20
95262.8858623377
 30
0.0
 11
104448.0985787999
 21
95262.88517364461
 31
0.0
  0
LINE
  5
5FD26
330
1F
100
AcDbEntity
  8
freecads.com
100
AcDbLine
 10
104448.0985787999
 20
95262.88517364461
 30
0.0
 11
104448.0945262715
 21
95262.88441984849
 31
0.0
  0
LINE
  5
5FD27
330
1F
100
AcDbEntity
  8
freecads.com
100
AcDbLine
 10
104448.0945262715
 20
95262.88441984849
 30
0.0
 11
104448.0914874132
 21
95262.8829493811
 31
0.0
  0
LINE
  5
5FD28
330
1F
100
AcDbEntity
  8
freecads.com
100
AcDbLine
 10
104448.0914874132
 20
95262.8829493811
 30
0.0
 11
104448.089461687
 21
95262.88080367166
 31
0.0
  0
LINE
  5
5FD29
330
1F
100
AcDbEntity
  8
freecads.com
100
AcDbLine
 10
104448.089461687
 20
95262.88080367166
 30
0.0
 11
104448.0907911875
 21
95262.87429713599
 31
0.0
  0
LINE
  5
5FD2A
330
1F
100
AcDbEntity
  8
freecads.com
100
AcDbLine
 10
104448.0907911875
 20
95262.87429713599
 30
0.0
 11
104448.0932602598
 21
95262.8711662726
 31
0.0
  0
LINE
  5
5FD2B
330
1F
100
AcDbEntity
  8
freecads.com
100
AcDbLine
 10
104448.0932602598
 20
95262.8711662726
 30
0.0
 11
104448.0968689041
 21
95262.87149770615
 31
0.0
  0
LINE
  5
5FD2C
330
1F
100
AcDbEntity
  8
freecads.com
100
AcDbLine
 10
104448.0968689041
 20
95262.87149770615
 30
0.0
 11
104448.1006115207
 21
95262.87346693798
 31
0.0
  0
LINE
  5
5FD2D
330
1F
100
AcDbEntity
  8
freecads.com
100
AcDbLine
 10
104448.1006115207
 20
95262.87346693798
 30
0.0
 11
104448.1031300929
 21
95262.87522525755
 31
0.0
  0
LINE
  5
5FD2E
330
1F
100
AcDbEntity
  8
freecads.com
100
AcDbLine
 10
104448.1031300929
 20
95262.87522525755
 30
0.0
 11
104448.1044671259
 21
95262.87681463209
 31
0.0
  0
LINE
  5
5FD2F
330
1F
100
AcDbEntity
  8
freecads.com
100
AcDbLine
 10
104448.1044671259
 20
95262.87681463209
 30
0.0
 11
104448.1054732635
 21
95262.87725098374
 31
0.0
  0
LINE
  5
5FD30
330
1F
100
AcDbEntity
  8
freecads.com
100
AcDbLine
 10
104448.1054732635
 20
95262.87725098374
 30
0.0
 11
104448.1107417658
 21
95262.88081120425
 31
0.0
  0
LINE
  5
5FD31
330
1F
100
AcDbEntity
  8
freecads.com
100
AcDbLine
 10
104448.1107417658
 20
95262.88081120425
 30
0.0
 11
104448.1202317414
 21
95262.88745278833
 31
0.0
  0
LINE
  5
5FD32
330
1F
100
AcDbEntity
  8
freecads.com
100
AcDbLine
 10
104448.1202317414
 20
95262.88745278833
 30
0.0
 11
104448.1278170503
 21
95262.89308177833
 31
0.0
  0
LINE
  5
5FD33
330
1F
100
AcDbEntity
  8
freecads.com
100
AcDbLine
 10
104448.1278170503
 20
95262.89308177833
 30
0.0
 11
104448.132909613
 21
95262.89773260893
 31
0.0
  0
LINE
  5
5FD34
330
1F
100
AcDbEntity
  8
freecads.com
100
AcDbLine
 10
104448.132909613
 20
95262.89773260893
 30
0.0
 11
104448.1355094294
 21
95262.90142142135
 31
0.0
  0
LINE
  5
5FD35
330
1F
100
AcDbEntity
  8
freecads.com
100
AcDbLine
 10
104448.1355094294
 20
95262.90142142135
 30
0.0
 11
104448.1356164997
 21
95262.90416597095
 31
0.0
  0
LINE
  5
5FD36
330
1F
100
AcDbEntity
  8
freecads.com
100
AcDbLine
 10
104448.1356164997
 20
95262.90416597095
 30
0.0
 11
104448.1390427478
 21
95262.90415951446
 31
0.0
  0
LINE
  5
5FD37
330
1F
100
AcDbEntity
  8
freecads.com
100
AcDbLine
 10
104448.1390427478
 20
95262.90415951446
 30
0.0
 11
104448.1432706778
 21
95262.90221126625
 31
0.0
  0
LINE
  5
5FD38
330
1F
100
AcDbEntity
  8
freecads.com
100
AcDbLine
 10
104448.1432706778
 20
95262.90221126625
 30
0.0
 11
104448.148343333
 21
95262.89827925909
 31
0.0
  0
LINE
  5
5FD39
330
1F
100
AcDbEntity
  8
freecads.com
100
AcDbLine
 10
104448.148343333
 20
95262.89827925909
 30
0.0
 11
104448.153168489
 21
95262.89509889586
 31
0.0
  0
LINE
  5
5FD3A
330
1F
100
AcDbEntity
  8
freecads.com
100
AcDbLine
 10
104448.153168489
 20
95262.89509889586
 30
0.0
 11
104448.1563058089
 21
95262.89575961081
 31
0.0
  0
LINE
  5
5FD3B
330
1F
100
AcDbEntity
  8
freecads.com
100
AcDbLine
 10
104448.1563058089
 20
95262.89575961081
 30
0.0
 11
104448.1578392271
 21
95262.9001769314
 31
0.0
  0
LINE
  5
5FD3C
330
1F
100
AcDbEntity
  8
freecads.com
100
AcDbLine
 10
104448.1578392271
 20
95262.9001769314
 30
0.0
 11
104448.156748617
 21
95262.90377266263
 31
0.0
  0
LINE
  5
5FD3D
330
1F
100
AcDbEntity
  8
freecads.com
100
AcDbLine
 10
104448.156748617
 20
95262.90377266263
 30
0.0
 11
104448.1549407976
 21
95262.90576341615
 31
0.0
  0
LINE
  5
5FD3E
330
1F
100
AcDbEntity
  8
freecads.com
100
AcDbLine
 10
104448.1549407976
 20
95262.90576341615
 30
0.0
 11
104448.1523318345
 21
95262.90606579545
 31
0.0
  0
LINE
  5
5FD3F
330
1F
100
AcDbEntity
  8
freecads.com
100
AcDbLine
 10
104448.1523318345
 20
95262.90606579545
 30
0.0
 11
104448.1492149601
 21
95262.90607278999
 31
0.0
  0
LINE
  5
5FD40
330
1F
100
AcDbEntity
  8
freecads.com
100
AcDbLine
 10
104448.1492149601
 20
95262.90607278999
 30
0.0
 11
104448.1458877116
 21
95262.90726186168
 31
0.0
  0
LINE
  5
5FD41
330
1F
100
AcDbEntity
  8
freecads.com
100
AcDbLine
 10
104448.1458877116
 20
95262.90726186168
 30
0.0
 11
104448.1422634642
 21
95262.90967551577
 31
0.0
  0
LINE
  5
5FD42
330
1F
100
AcDbEntity
  8
freecads.com
100
AcDbLine
 10
104448.1422634642
 20
95262.90967551577
 30
0.0
 11
104448.1401753251
 21
95262.91275634131
 31
0.0
  0
LINE
  5
5FD43
330
1F
100
AcDbEntity
  8
freecads.com
100
AcDbLine
 10
104448.1401753251
 20
95262.91275634131
 30
0.0
 11
104448.1377057147
 21
95262.9154578476
 31
0.0
  0
LINE
  5
5FD44
330
1F
100
AcDbEntity
  8
freecads.com
100
AcDbLine
 10
104448.1377057147
 20
95262.9154578476
 30
0.0
 11
104448.134856247
 21
95262.91765305687
 31
0.0
  0
LINE
  5
5FD45
330
1F
100
AcDbEntity
  8
freecads.com
100
AcDbLine
 10
104448.134856247
 20
95262.91765305687
 30
0.0
 11
104448.1321907895
 21
95262.91993865708
 31
0.0
  0
LINE
  5
5FD46
330
1F
100
AcDbEntity
  8
freecads.com
100
AcDbLine
 10
104448.1321907895
 20
95262.91993865708
 30
0.0
 11
104448.1306223986
 21
95262.92264661988
 31
0.0
  0
LINE
  5
5FD47
330
1F
100
AcDbEntity
  8
freecads.com
100
AcDbLine
 10
104448.1306223986
 20
95262.92264661988
 30
0.0
 11
104448.130109107
 21
95262.92581891247
 31
0.0
  0
LINE
  5
5FD48
330
1F
100
AcDbEntity
  8
freecads.com
100
AcDbLine
 10
104448.130109107
 20
95262.92581891247
 30
0.0
 11
104448.1353157345
 21
95262.92638869842
 31
0.0
  0
LINE
  5
5FD49
330
1F
100
AcDbEntity
  8
freecads.com
100
AcDbLine
 10
104448.1353157345
 20
95262.92638869842
 30
0.0
 11
104448.1399213696
 21
95262.92809805621
 31
0.0
  0
LINE
  5
5FD4A
330
1F
100
AcDbEntity
  8
freecads.com
100
AcDbLine
 10
104448.1399213696
 20
95262.92809805621
 30
0.0
 11
104448.1439260123
 21
95262.93094698587
 31
0.0
  0
LINE
  5
5FD4B
330
1F
100
AcDbEntity
  8
freecads.com
100
AcDbLine
 10
104448.1439260123
 20
95262.93094698587
 30
0.0
 11
104448.1473291247
 21
95262.93493602542
 31
0.0
  0
LINE
  5
5FD4C
330
1F
100
AcDbEntity
  8
freecads.com
100
AcDbLine
 10
104448.1473291247
 20
95262.93493602542
 30
0.0
 11
104448.1501312448
 21
95262.94006409882
 31
0.0
  0
LINE
  5
5FD4D
330
1F
100
AcDbEntity
  8
freecads.com
100
AcDbLine
 10
104448.1501312448
 20
95262.94006409882
 30
0.0
 11
104448.1523318345
 21
95262.94633228211
 31
0.0
  0
LINE
  5
5FD4E
330
1F
100
AcDbEntity
  8
freecads.com
100
AcDbLine
 10
104448.1523318345
 20
95262.94633228211
 30
0.0
 11
104448.144946677
 21
95262.94115686107
 31
0.0
  0
LINE
  5
5FD4F
330
1F
100
AcDbEntity
  8
freecads.com
100
AcDbLine
 10
104448.144946677
 20
95262.94115686107
 30
0.0
 11
104448.1387473631
 21
95262.93724906578
 31
0.0
  0
LINE
  5
5FD50
330
1F
100
AcDbEntity
  8
freecads.com
100
AcDbLine
 10
104448.1387473631
 20
95262.93724906578
 30
0.0
 11
104448.1337328164
 21
95262.93459921147
 31
0.0
  0
LINE
  5
5FD51
330
1F
100
AcDbEntity
  8
freecads.com
100
AcDbLine
 10
104448.1337328164
 20
95262.93459921147
 30
0.0
 11
104448.1299041132
 21
95262.93319868948
 31
0.0
  0
LINE
  5
5FD52
330
1F
100
AcDbEntity
  8
freecads.com
100
AcDbLine
 10
104448.1299041132
 20
95262.93319868948
 30
0.0
 11
104448.1272601774
 21
95262.93303781507
 31
0.0
  0
LINE
  5
5FD53
330
1F
100
AcDbEntity
  8
freecads.com
100
AcDbLine
 10
104448.1272601774
 20
95262.93303781507
 30
0.0
 11
104448.1264762509
 21
95262.9383466704
 31
0.0
  0
LINE
  5
5FD54
330
1F
100
AcDbEntity
  8
freecads.com
100
AcDbLine
 10
104448.1264762509
 20
95262.9383466704
 30
0.0
 11
104448.1258354435
 21
95262.94431462655
 31
0.0
  0
LINE
  5
5FD55
330
1F
100
AcDbEntity
  8
freecads.com
100
AcDbLine
 10
104448.1258354435
 20
95262.94431462655
 30
0.0
 11
104448.1253366791
 21
95262.95095890084
 31
0.0
  0
LINE
  5
5FD56
330
1F
100
AcDbEntity
  8
freecads.com
100
AcDbLine
 10
104448.1253366791
 20
95262.95095890084
 30
0.0
 11
104448.1249804956
 21
95262.95829832474
 31
0.0
  0
LINE
  5
5FD57
330
1F
100
AcDbEntity
  8
freecads.com
100
AcDbLine
 10
104448.1249804956
 20
95262.95829832474
 30
0.0
 11
104448.1246178556
 21
95262.96581584036
 31
0.0
  0
LINE
  5
5FD58
330
1F
100
AcDbEntity
  8
freecads.com
100
AcDbLine
 10
104448.1246178556
 20
95262.96581584036
 30
0.0
 11
104448.124077662
 21
95262.97299492789
 31
0.0
  0
LINE
  5
5FD59
330
1F
100
AcDbEntity
  8
freecads.com
100
AcDbLine
 10
104448.124077662
 20
95262.97299492789
 30
0.0
 11
104448.1233238659
 21
95262.97985388072
 31
0.0
  0
LINE
  5
5FD5A
330
1F
100
AcDbEntity
  8
freecads.com
100
AcDbLine
 10
104448.1233238659
 20
95262.97985388072
 30
0.0
 11
104448.1223204185
 21
95262.98640991623
 31
0.0
  0
LINE
  5
5FD5B
330
1F
100
AcDbEntity
  8
freecads.com
100
AcDbLine
 10
104448.1223204185
 20
95262.98640991623
 30
0.0
 11
104448.1252963259
 21
95262.99572395236
 31
0.0
  0
LINE
  5
5FD5C
330
1F
100
AcDbEntity
  8
freecads.com
100
AcDbLine
 10
104448.1252963259
 20
95262.99572395236
 30
0.0
 11
104448.12472654
 21
95263.00128192088
 31
0.0
  0
LINE
  5
5FD5D
330
1F
100
AcDbEntity
  8
freecads.com
100
AcDbLine
 10
104448.12472654
 20
95263.00128192088
 30
0.0
 11
104448.1206105227
 21
95263.00312525103
 31
0.0
  0
LINE
  5
5FD5E
330
1F
100
AcDbEntity
  8
freecads.com
100
AcDbLine
 10
104448.1206105227
 20
95263.00312525103
 30
0.0
 11
104448.1154899818
 21
95263.00368804241
 31
0.0
  0
LINE
  5
5FD5F
330
1F
100
AcDbEntity
  8
freecads.com
100
AcDbLine
 10
104448.1154899818
 20
95263.00368804241
 30
0.0
 11
104448.1119308374
 21
95263.0053479004
 31
0.0
  0
LINE
  5
5FD60
330
1F
100
AcDbEntity
  8
freecads.com
100
AcDbLine
 10
104448.1119308374
 20
95263.0053479004
 30
0.0
 11
104448.1099750566
 21
95263.00806285773
 31
0.0
  0
LINE
  5
5FD61
330
1F
100
AcDbEntity
  8
freecads.com
100
AcDbLine
 10
104448.1099750566
 20
95263.00806285773
 30
0.0
 11
104448.1146129742
 21
95263.00682051994
 31
0.0
  0
LINE
  5
5FD62
330
1F
100
AcDbEntity
  8
freecads.com
100
AcDbLine
 10
104448.1146129742
 20
95263.00682051994
 30
0.0
 11
104448.1194106901
 21
95263.0059445884
 31
0.0
  0
LINE
  5
5FD63
330
1F
100
AcDbEntity
  8
freecads.com
100
AcDbLine
 10
104448.1194106901
 20
95263.0059445884
 30
0.0
 11
104448.1243682044
 21
95263.00543506311
 31
0.0
  0
LINE
  5
5FD64
330
1F
100
AcDbEntity
  8
freecads.com
100
AcDbLine
 10
104448.1243682044
 20
95263.00543506311
 30
0.0
 11
104448.1294849789
 21
95263.00529409624
 31
0.0
  0
LINE
  5
5FD65
330
1F
100
AcDbEntity
  8
freecads.com
100
AcDbLine
 10
104448.1294849789
 20
95263.00529409624
 30
0.0
 11
104448.1347615517
 21
95263.00552222584
 31
0.0
  0
LINE
  5
5FD66
330
1F
100
AcDbEntity
  8
freecads.com
100
AcDbLine
 10
104448.1347615517
 20
95263.00552222584
 30
0.0
 11
104448.1401979229
 21
95263.006121066
 31
0.0
  0
LINE
  5
5FD67
330
1F
100
AcDbEntity
  8
freecads.com
100
AcDbLine
 10
104448.1401979229
 20
95263.006121066
 30
0.0
 11
104448.1457935543
 21
95263.00709115481
 31
0.0
  0
LINE
  5
5FD68
330
1F
100
AcDbEntity
  8
freecads.com
100
AcDbLine
 10
104448.1457935543
 20
95263.00709115481
 30
0.0
 11
104448.151548446
 21
95263.00843410634
 31
0.0
  0
LINE
  5
5FD69
330
1F
100
AcDbEntity
  8
freecads.com
100
AcDbLine
 10
104448.151548446
 20
95263.00843410634
 30
0.0
 11
104448.1574631361
 21
95263.01015045868
 31
0.0
  0
LINE
  5
5FD6A
330
1F
100
AcDbEntity
  8
freecads.com
100
AcDbLine
 10
104448.1574631361
 20
95263.01015045868
 30
0.0
 11
104448.1635376245
 21
95263.01224236398
 31
0.0
  0
LINE
  5
5FD6B
330
1F
100
AcDbEntity
  8
freecads.com
100
AcDbLine
 10
104448.1635376245
 20
95263.01224236398
 30
0.0
 11
104448.170107649
 21
95263.01478138174
 31
0.0
  0
LINE
  5
5FD6C
330
1F
100
AcDbEntity
  8
freecads.com
100
AcDbLine
 10
104448.170107649
 20
95263.01478138174
 30
0.0
 11
104448.1762698381
 21
95263.01733277446
 31
0.0
  0
LINE
  5
5FD6D
330
1F
100
AcDbEntity
  8
freecads.com
100
AcDbLine
 10
104448.1762698381
 20
95263.01733277446
 30
0.0
 11
104448.1820241918
 21
95263.01989546606
 31
0.0
  0
LINE
  5
5FD6E
330
1F
100
AcDbEntity
  8
freecads.com
100
AcDbLine
 10
104448.1820241918
 20
95263.01989546606
 30
0.0
 11
104448.1873707101
 21
95263.0224678424
 31
0.0
  0
LINE
  5
5FD6F
330
1F
100
AcDbEntity
  8
freecads.com
100
AcDbLine
 10
104448.1873707101
 20
95263.0224678424
 30
0.0
 11
104448.1923093928
 21
95263.02504775131
 31
0.0
  0
LINE
  5
5FD70
330
1F
100
AcDbEntity
  8
freecads.com
100
AcDbLine
 10
104448.1923093928
 20
95263.02504775131
 30
0.0
 11
104448.1968397022
 21
95263.02763357868
 31
0.0
  0
LINE
  5
5FD71
330
1F
100
AcDbEntity
  8
freecads.com
100
AcDbLine
 10
104448.1968397022
 20
95263.02763357868
 30
0.0
 11
104448.200962176
 21
95263.03022478648
 31
0.0
  0
LINE
  5
5FD72
330
1F
100
AcDbEntity
  8
freecads.com
100
AcDbLine
 10
104448.200962176
 20
95263.03022478648
 30
0.0
 11
104448.2046768144
 21
95263.03281868447
 31
0.0
  0
LINE
  5
5FD73
330
1F
100
AcDbEntity
  8
freecads.com
100
AcDbLine
 10
104448.2046768144
 20
95263.03281868447
 30
0.0
 11
104448.2079830793
 21
95263.03541419659
 31
0.0
  0
LINE
  5
5FD74
330
1F
100
AcDbEntity
  8
freecads.com
100
AcDbLine
 10
104448.2079830793
 20
95263.03541419659
 30
0.0
 11
104448.214373398
 21
95263.04021675489
 31
0.0
  0
LINE
  5
5FD75
330
1F
100
AcDbEntity
  8
freecads.com
100
AcDbLine
 10
104448.214373398
 20
95263.04021675489
 30
0.0
 11
104448.2204715603
 21
95263.04483745516
 31
0.0
  0
LINE
  5
5FD76
330
1F
100
AcDbEntity
  8
freecads.com
100
AcDbLine
 10
104448.2204715603
 20
95263.04483745516
 30
0.0
 11
104448.2262775659
 21
95263.04927575935
 31
0.0
  0
LINE
  5
5FD77
330
1F
100
AcDbEntity
  8
freecads.com
100
AcDbLine
 10
104448.2262775659
 20
95263.04927575935
 30
0.0
 11
104448.231790877
 21
95263.05353005339
 31
0.0
  0
LINE
  5
5FD78
330
1F
100
AcDbEntity
  8
freecads.com
100
AcDbLine
 10
104448.231790877
 20
95263.05353005339
 30
0.0
 11
104448.2370114935
 21
95263.05760033721
 31
0.0
  0
LINE
  5
5FD79
330
1F
100
AcDbEntity
  8
freecads.com
100
AcDbLine
 10
104448.2370114935
 20
95263.05760033721
 30
0.0
 11
104448.2419388774
 21
95263.06148607281
 31
0.0
  0
LINE
  5
5FD7A
330
1F
100
AcDbEntity
  8
freecads.com
100
AcDbLine
 10
104448.2419388774
 20
95263.06148607281
 30
0.0
 11
104448.2465735668
 21
95263.06518564606
 31
0.0
  0
LINE
  5
5FD7B
330
1F
100
AcDbEntity
  8
freecads.com
100
AcDbLine
 10
104448.2465735668
 20
95263.06518564606
 30
0.0
 11
104448.2509144855
 21
95263.06869959499
 31
0.0
  0
LINE
  5
5FD7C
330
1F
100
AcDbEntity
  8
freecads.com
100
AcDbLine
 10
104448.2509144855
 20
95263.06869959499
 30
0.0
 11
104448.2549621716
 21
95263.07202630549
 31
0.0
  0
LINE
  5
5FD7D
330
1F
100
AcDbEntity
  8
freecads.com
100
AcDbLine
 10
104448.2549621716
 20
95263.07202630549
 30
0.0
 11
104448.2587155489
 21
95263.07516523951
 31
0.0
  0
LINE
  5
5FD7E
330
1F
100
AcDbEntity
  8
freecads.com
100
AcDbLine
 10
104448.2587155489
 20
95263.07516523951
 30
0.0
 11
104448.2621746177
 21
95263.07811585901
 31
0.0
  0
LINE
  5
5FD7F
330
1F
100
AcDbEntity
  8
freecads.com
100
AcDbLine
 10
104448.2621746177
 20
95263.07811585901
 30
0.0
 11
104448.2653393777
 21
95263.08087762597
 31
0.0
  0
LINE
  5
5FD80
330
1F
100
AcDbEntity
  8
freecads.com
100
AcDbLine
 10
104448.2653393777
 20
95263.08087762597
 30
0.0
 11
104448.268209829
 21
95263.08344946425
 31
0.0
  0
LINE
  5
5FD81
330
1F
100
AcDbEntity
  8
freecads.com
100
AcDbLine
 10
104448.268209829
 20
95263.08344946425
 30
0.0
 11
104448.2707854336
 21
95263.08583083586
 31
0.0
  0
LINE
  5
5FD82
330
1F
100
AcDbEntity
  8
freecads.com
100
AcDbLine
 10
104448.2707854336
 20
95263.08583083586
 30
0.0
 11
104448.2730656534
 21
95263.08802120276
 31
0.0
  0
LINE
  5
5FD83
330
1F
100
AcDbEntity
  8
freecads.com
100
AcDbLine
 10
104448.2730656534
 20
95263.08802120276
 30
0.0
 11
104448.2750504884
 21
95263.09002002687
 31
0.0
  0
LINE
  5
5FD84
330
1F
100
AcDbEntity
  8
freecads.com
100
AcDbLine
 10
104448.2750504884
 20
95263.09002002687
 30
0.0
 11
104448.2767399387
 21
95263.09182569409
 31
0.0
  0
LINE
  5
5FD85
330
1F
100
AcDbEntity
  8
freecads.com
100
AcDbLine
 10
104448.2767399387
 20
95263.09182569409
 30
0.0
 11
104448.2791751145
 21
95263.09467946612
 31
0.0
  0
LINE
  5
5FD86
330
1F
100
AcDbEntity
  8
freecads.com
100
AcDbLine
 10
104448.2791751145
 20
95263.09467946612
 30
0.0
 11
104448.2817135942
 21
95263.0978528348
 31
0.0
  0
LINE
  5
5FD87
330
1F
100
AcDbEntity
  8
freecads.com
100
AcDbLine
 10
104448.2817135942
 20
95263.0978528348
 30
0.0
 11
104448.2843553779
 21
95263.10134418599
 31
0.0
  0
LINE
  5
5FD88
330
1F
100
AcDbEntity
  8
freecads.com
100
AcDbLine
 10
104448.2843553779
 20
95263.10134418599
 30
0.0
 11
104448.2871010036
 21
95263.10515351971
 31
0.0
  0
LINE
  5
5FD89
330
1F
100
AcDbEntity
  8
freecads.com
100
AcDbLine
 10
104448.2871010036
 20
95263.10515351971
 30
0.0
 11
104448.2899499332
 21
95263.10927922182
 31
0.0
  0
LINE
  5
5FD8A
330
1F
100
AcDbEntity
  8
freecads.com
100
AcDbLine
 10
104448.2899499332
 20
95263.10927922182
 30
0.0
 11
104448.2929027049
 21
95263.1137212923
 31
0.0
  0
LINE
  5
5FD8B
330
1F
100
AcDbEntity
  8
freecads.com
100
AcDbLine
 10
104448.2929027049
 20
95263.1137212923
 30
0.0
 11
104448.2959587805
 21
95263.11847811708
 31
0.0
  0
LINE
  5
5FD8C
330
1F
100
AcDbEntity
  8
freecads.com
100
AcDbLine
 10
104448.2959587805
 20
95263.11847811708
 30
0.0
 11
104448.2991186982
 21
95263.12354915805
 31
0.0
  0
LINE
  5
5FD8D
330
1F
100
AcDbEntity
  8
freecads.com
100
AcDbLine
 10
104448.2991186982
 20
95263.12354915805
 30
0.0
 11
104448.3023824578
 21
95263.12893387723
 31
0.0
  0
LINE
  5
5FD8E
330
1F
100
AcDbEntity
  8
freecads.com
100
AcDbLine
 10
104448.3023824578
 20
95263.12893387723
 30
0.0
 11
104448.3057489834
 21
95263.13463066049
 31
0.0
  0
LINE
  5
5FD8F
330
1F
100
AcDbEntity
  8
freecads.com
100
AcDbLine
 10
104448.3057489834
 20
95263.13463066049
 30
0.0
 11
104448.309219889
 21
95263.14063950778
 31
0.0
  0
LINE
  5
5FD90
330
1F
100
AcDbEntity
  8
freecads.com
100
AcDbLine
 10
104448.309219889
 20
95263.14063950778
 30
0.0
 11
104448.3144023046
 21
95263.13974904912
 31
0.0
  0
LINE
  5
5FD91
330
1F
100
AcDbEntity
  8
freecads.com
100
AcDbLine
 10
104448.3144023046
 20
95263.13974904912
 30
0.0
 11
104448.319517465
 21
95263.13918141534
 31
0.0
  0
LINE
  5
5FD92
330
1F
100
AcDbEntity
  8
freecads.com
100
AcDbLine
 10
104448.319517465
 20
95263.13918141534
 30
0.0
 11
104448.3245648321
 21
95263.13893553039
 31
0.0
  0
LINE
  5
5FD93
330
1F
100
AcDbEntity
  8
freecads.com
100
AcDbLine
 10
104448.3245648321
 20
95263.13893553039
 30
0.0
 11
104448.3295449441
 21
95263.13900978012
 31
0.0
  0
LINE
  5
5FD94
330
1F
100
AcDbEntity
  8
freecads.com
100
AcDbLine
 10
104448.3295449441
 20
95263.13900978012
 30
0.0
 11
104448.3344572629
 21
95263.13940416452
 31
0.0
  0
LINE
  5
5FD95
330
1F
100
AcDbEntity
  8
freecads.com
100
AcDbLine
 10
104448.3344572629
 20
95263.13940416452
 30
0.0
 11
104448.3393023264
 21
95263.14011653145
 31
0.0
  0
LINE
  5
5FD96
330
1F
100
AcDbEntity
  8
freecads.com
100
AcDbLine
 10
104448.3393023264
 20
95263.14011653145
 30
0.0
 11
104448.3440801348
 21
95263.14114634285
 31
0.0
  0
LINE
  5
5FD97
330
1F
100
AcDbEntity
  8
freecads.com
100
AcDbLine
 10
104448.3440801348
 20
95263.14114634285
 30
0.0
 11
104448.34879015
 21
95263.14249306068
 31
0.0
  0
LINE
  5
5FD98
330
1F
100
AcDbEntity
  8
freecads.com
100
AcDbLine
 10
104448.34879015
 20
95263.14249306068
 30
0.0
 11
104448.3534329099
 21
95263.14415507084
 31
0.0
  0
LINE
  5
5FD99
330
1F
100
AcDbEntity
  8
freecads.com
100
AcDbLine
 10
104448.3534329099
 20
95263.14415507084
 30
0.0
 11
104448.3580084147
 21
95263.14613129722
 31
0.0
  0
LINE
  5
5FD9A
330
1F
100
AcDbEntity
  8
freecads.com
100
AcDbLine
 10
104448.3580084147
 20
95263.14613129722
 30
0.0
 11
104448.3625161263
 21
95263.14842066373
 31
0.0
  0
LINE
  5
5FD9B
330
1F
100
AcDbEntity
  8
freecads.com
100
AcDbLine
 10
104448.3625161263
 20
95263.14842066373
 30
0.0
 11
104448.3669565827
 21
95263.15102263234
 31
0.0
  0
LINE
  5
5FD9C
330
1F
100
AcDbEntity
  8
freecads.com
100
AcDbLine
 10
104448.3669565827
 20
95263.15102263234
 30
0.0
 11
104448.3713297839
 21
95263.15393558894
 31
0.0
  0
LINE
  5
5FD9D
330
1F
100
AcDbEntity
  8
freecads.com
100
AcDbLine
 10
104448.3713297839
 20
95263.15393558894
 30
0.0
 11
104448.3713297839
 21
95263.15393558894
 31
0.0
  0
LINE
  5
5FD9E
330
1F
100
AcDbEntity
  8
freecads.com
100
AcDbLine
 10
104448.3713297839
 20
95263.15393558894
 30
0.0
 11
104448.3787827345
 21
95263.1592966343
 31
0.0
  0
LINE
  5
5FD9F
330
1F
100
AcDbEntity
  8
freecads.com
100
AcDbLine
 10
104448.3787827345
 20
95263.1592966343
 30
0.0
 11
104448.3851784336
 21
95263.16398351367
 31
0.0
  0
LINE
  5
5FDA0
330
1F
100
AcDbEntity
  8
freecads.com
100
AcDbLine
 10
104448.3851784336
 20
95263.16398351367
 30
0.0
 11
104448.3905082726
 21
95263.16799515097
 31
0.0
  0
LINE
  5
5FDA1
330
1F
100
AcDbEntity
  8
freecads.com
100
AcDbLine
 10
104448.3905082726
 20
95263.16799515097
 30
0.0
 11
104448.3947609525
 21
95263.17133262232
 31
0.0
  0
LINE
  5
5FDA2
330
1F
100
AcDbEntity
  8
freecads.com
100
AcDbLine
 10
104448.3947609525
 20
95263.17133262232
 30
0.0
 11
104448.3979273266
 21
95263.17399592766
 31
0.0
  0
LINE
  5
5FDA3
330
1F
100
AcDbEntity
  8
freecads.com
100
AcDbLine
 10
104448.3979273266
 20
95263.17399592766
 30
0.0
 11
104448.3999966342
 21
95263.17598399094
 31
0.0
  0
LINE
  5
5FDA4
330
1F
100
AcDbEntity
  8
freecads.com
100
AcDbLine
 10
104448.3999966342
 20
95263.17598399094
 30
0.0
 11
104448.4009602665
 21
95263.17729842629
 31
0.0
  0
LINE
  5
5FDA5
330
1F
100
AcDbEntity
  8
freecads.com
100
AcDbLine
 10
104448.4009602665
 20
95263.17729842629
 30
0.0
 11
104448.4048933497
 21
95263.18178676836
 31
0.0
  0
LINE
  5
5FDA6
330
1F
100
AcDbEntity
  8
freecads.com
100
AcDbLine
 10
104448.4048933497
 20
95263.18178676836
 30
0.0
 11
104448.4068415979
 21
95263.1857263081
 31
0.0
  0
LINE
  5
5FDA7
330
1F
100
AcDbEntity
  8
freecads.com
100
AcDbLine
 10
104448.4068415979
 20
95263.1857263081
 30
0.0
 11
104448.4068485925
 21
95263.18907346418
 31
0.0
  0
LINE
  5
5FDA8
330
1F
100
AcDbEntity
  8
freecads.com
100
AcDbLine
 10
104448.4068485925
 20
95263.18907346418
 30
0.0
 11
104448.406518773
 21
95263.1918529865
 31
0.0
  0
LINE
  5
5FDA9
330
1F
100
AcDbEntity
  8
freecads.com
100
AcDbLine
 10
104448.406518773
 20
95263.1918529865
 30
0.0
 11
104448.4073699547
 21
95263.19446356376
 31
0.0
  0
LINE
  5
5FDAA
330
1F
100
AcDbEntity
  8
freecads.com
100
AcDbLine
 10
104448.4073699547
 20
95263.19446356376
 30
0.0
 11
104448.4093187409
 21
95263.19686269074
 31
0.0
  0
LINE
  5
5FDAB
330
1F
100
AcDbEntity
  8
freecads.com
100
AcDbLine
 10
104448.4093187409
 20
95263.19686269074
 30
0.0
 11
104448.4069190759
 21
95263.19818465868
 31
0.0
  0
LINE
  5
5FDAC
330
1F
100
AcDbEntity
  8
freecads.com
100
AcDbLine
 10
104448.4069190759
 20
95263.19818465868
 30
0.0
 11
104448.4046888939
 21
95263.20022437394
 31
0.0
  0
LINE
  5
5FDAD
330
1F
100
AcDbEntity
  8
freecads.com
100
AcDbLine
 10
104448.4046888939
 20
95263.20022437394
 30
0.0
 11
104448.4026696242
 21
95263.2029398693
 31
0.0
  0
LINE
  5
5FDAE
330
1F
100
AcDbEntity
  8
freecads.com
100
AcDbLine
 10
104448.4026696242
 20
95263.2029398693
 30
0.0
 11
104448.4007143815
 21
95263.20490264465
 31
0.0
  0
LINE
  5
5FDAF
330
1F
100
AcDbEntity
  8
freecads.com
100
AcDbLine
 10
104448.4007143815
 20
95263.20490264465
 30
0.0
 11
104448.3982948089
 21
95263.20509257329
 31
0.0
  0
LINE
  5
5FDB0
330
1F
100
AcDbEntity
  8
freecads.com
100
AcDbLine
 10
104448.3982948089
 20
95263.20509257329
 30
0.0
 11
104448.3954523358
 21
95263.20350965525
 31
0.0
  0
LINE
  5
5FDB1
330
1F
100
AcDbEntity
  8
freecads.com
100
AcDbLine
 10
104448.3954523358
 20
95263.20350965525
 30
0.0
 11
104448.3969717649
 21
95263.20546543605
 31
0.0
  0
LINE
  5
5FDB2
330
1F
100
AcDbEntity
  8
freecads.com
100
AcDbLine
 10
104448.3969717649
 20
95263.20546543605
 30
0.0
 11
104448.3984917321
 21
95263.20788554663
 31
0.0
  0
LINE
  5
5FDB3
330
1F
100
AcDbEntity
  8
freecads.com
100
AcDbLine
 10
104448.3984917321
 20
95263.20788554663
 30
0.0
 11
104448.4000111613
 21
95263.21072640568
 31
0.0
  0
LINE
  5
5FDB4
330
1F
100
AcDbEntity
  8
freecads.com
100
AcDbLine
 10
104448.4000111613
 20
95263.21072640568
 30
0.0
 11
104448.401460645
 21
95263.213505928
 31
0.0
  0
LINE
  5
5FDB5
330
1F
100
AcDbEntity
  8
freecads.com
100
AcDbLine
 10
104448.401460645
 20
95263.213505928
 30
0.0
 11
104448.403120503
 21
95263.21611650526
 31
0.0
  0
LINE
  5
5FDB6
330
1F
100
AcDbEntity
  8
freecads.com
100
AcDbLine
 10
104448.403120503
 20
95263.21611650526
 30
0.0
 11
104448.404948768
 21
95263.21851563226
 31
0.0
  0
LINE
  5
5FDB7
330
1F
100
AcDbEntity
  8
freecads.com
100
AcDbLine
 10
104448.404948768
 20
95263.21851563226
 30
0.0
 11
104448.4066581258
 21
95263.22288345303
 31
0.0
  0
LINE
  5
5FDB8
330
1F
100
AcDbEntity
  8
freecads.com
100
AcDbLine
 10
104448.4066581258
 20
95263.22288345303
 30
0.0
 11
104448.4072279117
 21
95263.22725181184
 31
0.0
  0
LINE
  5
5FDB9
330
1F
100
AcDbEntity
  8
freecads.com
100
AcDbLine
 10
104448.4072279117
 20
95263.22725181184
 30
0.0
 11
104448.4066581258
 21
95263.23162124674
 31
0.0
  0
LINE
  5
5FDBA
330
1F
100
AcDbEntity
  8
freecads.com
100
AcDbLine
 10
104448.4066581258
 20
95263.23162124674
 30
0.0
 11
104448.4057084825
 21
95263.23567269912
 31
0.0
  0
LINE
  5
5FDBB
330
1F
100
AcDbEntity
  8
freecads.com
100
AcDbLine
 10
104448.4057084825
 20
95263.23567269912
 30
0.0
 11
104448.4051386966
 21
95263.23947181005
 31
0.0
  0
LINE
  5
5FDBC
330
1F
100
AcDbEntity
  8
freecads.com
100
AcDbLine
 10
104448.4051386966
 20
95263.23947181005
 30
0.0
 11
104448.404948768
 21
95263.24301750342
 31
0.0
  0
LINE
  5
5FDBD
330
1F
100
AcDbEntity
  8
freecads.com
100
AcDbLine
 10
104448.404948768
 20
95263.24301750342
 30
0.0
 11
104448.4028461019
 21
95263.24277108042
 31
0.0
  0
LINE
  5
5FDBE
330
1F
100
AcDbEntity
  8
freecads.com
100
AcDbLine
 10
104448.4028461019
 20
95263.24277108042
 30
0.0
 11
104448.4002785679
 21
95263.24357975678
 31
0.0
  0
LINE
  5
5FDBF
330
1F
100
AcDbEntity
  8
freecads.com
100
AcDbLine
 10
104448.4002785679
 20
95263.24357975678
 30
0.0
 11
104448.3971616936
 21
95263.2454854997
 31
0.0
  0
LINE
  5
5FDC0
330
1F
100
AcDbEntity
  8
freecads.com
100
AcDbLine
 10
104448.3971616936
 20
95263.2454854997
 30
0.0
 11
104448.3936655
 21
95263.24713890119
 31
0.0
  0
LINE
  5
5FDC1
330
1F
100
AcDbEntity
  8
freecads.com
100
AcDbLine
 10
104448.3936655
 20
95263.24713890119
 30
0.0
 11
104448.3899583942
 21
95263.24718840102
 31
0.0
  0
LINE
  5
5FDC2
330
1F
100
AcDbEntity
  8
freecads.com
100
AcDbLine
 10
104448.3899583942
 20
95263.24718840102
 30
0.0
 11
104448.3859564416
 21
95263.24567596638
 31
0.0
  0
LINE
  5
5FDC3
330
1F
100
AcDbEntity
  8
freecads.com
100
AcDbLine
 10
104448.3859564416
 20
95263.24567596638
 30
0.0
 11
104448.3912453894
 21
95263.25192101392
 31
0.0
  0
LINE
  5
5FDC4
330
1F
100
AcDbEntity
  8
freecads.com
100
AcDbLine
 10
104448.3912453894
 20
95263.25192101392
 30
0.0
 11
104448.3954953791
 21
95263.2576651448
 31
0.0
  0
LINE
  5
5FDC5
330
1F
100
AcDbEntity
  8
freecads.com
100
AcDbLine
 10
104448.3954953791
 20
95263.2576651448
 30
0.0
 11
104448.3987144813
 21
95263.26290782101
 31
0.0
  0
LINE
  5
5FDC6
330
1F
100
AcDbEntity
  8
freecads.com
100
AcDbLine
 10
104448.3987144813
 20
95263.26290782101
 30
0.0
 11
104448.4009129188
 21
95263.26764850454
 31
0.0
  0
LINE
  5
5FDC7
330
1F
100
AcDbEntity
  8
freecads.com
100
AcDbLine
 10
104448.4009129188
 20
95263.26764850454
 30
0.0
 11
104448.4020998383
 21
95263.2718877334
 31
0.0
  0
LINE
  5
5FDC8
330
1F
100
AcDbEntity
  8
freecads.com
100
AcDbLine
 10
104448.4020998383
 20
95263.2718877334
 30
0.0
 11
104448.4028595529
 21
95263.27524296009
 31
0.0
  0
LINE
  5
5FDC9
330
1F
100
AcDbEntity
  8
freecads.com
100
AcDbLine
 10
104448.4028595529
 20
95263.27524296009
 30
0.0
 11
104448.4028595529
 21
95263.27847174705
 31
0.0
  0
LINE
  5
5FDCA
330
1F
100
AcDbEntity
  8
freecads.com
100
AcDbLine
 10
104448.4028595529
 20
95263.27847174705
 30
0.0
 11
104448.4020998383
 21
95263.28157463229
 31
0.0
  0
LINE
  5
5FDCB
330
1F
100
AcDbEntity
  8
freecads.com
100
AcDbLine
 10
104448.4020998383
 20
95263.28157463229
 30
0.0
 11
104448.4013401237
 21
95263.28462048514
 31
0.0
  0
LINE
  5
5FDCC
330
1F
100
AcDbEntity
  8
freecads.com
100
AcDbLine
 10
104448.4013401237
 20
95263.28462048514
 30
0.0
 11
104448.4013401237
 21
95263.28732898598
 31
0.0
  0
LINE
  5
5FDCD
330
1F
100
AcDbEntity
  8
freecads.com
100
AcDbLine
 10
104448.4013401237
 20
95263.28732898598
 30
0.0
 11
104448.4020998383
 21
95263.28974264005
 31
0.0
  0
LINE
  5
5FDCE
330
1F
100
AcDbEntity
  8
freecads.com
100
AcDbLine
 10
104448.4020998383
 20
95263.28974264005
 30
0.0
 11
104448.400565882
 21
95263.28904587634
 31
0.0
  0
LINE
  5
5FDCF
330
1F
100
AcDbEntity
  8
freecads.com
100
AcDbLine
 10
104448.400565882
 20
95263.28904587634
 30
0.0
 11
104448.3981882767
 21
95263.28923526694
 31
0.0
  0
LINE
  5
5FDD0
330
1F
100
AcDbEntity
  8
freecads.com
100
AcDbLine
 10
104448.3981882767
 20
95263.28923526694
 30
0.0
 11
104448.3948825498
 21
95263.290312426
 31
0.0
  0
LINE
  5
5FDD1
330
1F
100
AcDbEntity
  8
freecads.com
100
AcDbLine
 10
104448.3948825498
 20
95263.290312426
 30
0.0
 11
104448.3909709883
 21
95263.29126153118
 31
0.0
  0
LINE
  5
5FDD2
330
1F
100
AcDbEntity
  8
freecads.com
100
AcDbLine
 10
104448.3909709883
 20
95263.29126153118
 30
0.0
 11
104448.3865106243
 21
95263.2910710645
 31
0.0
  0
LINE
  5
5FDD3
330
1F
100
AcDbEntity
  8
freecads.com
100
AcDbLine
 10
104448.3865106243
 20
95263.2910710645
 30
0.0
 11
104448.3815864687
 21
95263.28974264005
 31
0.0
  0
LINE
  5
5FDD4
330
1F
100
AcDbEntity
  8
freecads.com
100
AcDbLine
 10
104448.3815864687
 20
95263.28974264005
 30
0.0
 11
104448.3843557682
 21
95263.29322376847
 31
0.0
  0
LINE
  5
5FDD5
330
1F
100
AcDbEntity
  8
freecads.com
100
AcDbLine
 10
104448.3843557682
 20
95263.29322376847
 30
0.0
 11
104448.3867710364
 21
95263.29739574215
 31
0.0
  0
LINE
  5
5FDD6
330
1F
100
AcDbEntity
  8
freecads.com
100
AcDbLine
 10
104448.3867710364
 20
95263.29739574215
 30
0.0
 11
104448.388827969
 21
95263.30225425676
 31
0.0
  0
LINE
  5
5FDD7
330
1F
100
AcDbEntity
  8
freecads.com
100
AcDbLine
 10
104448.388827969
 20
95263.30225425676
 30
0.0
 11
104448.3905211856
 21
95263.30779285579
 31
0.0
  0
LINE
  5
5FDD8
330
1F
100
AcDbEntity
  8
freecads.com
100
AcDbLine
 10
104448.3905211856
 20
95263.30779285579
 30
0.0
 11
104448.3918447676
 21
95263.31400723494
 31
0.0
  0
LINE
  5
5FDD9
330
1F
100
AcDbEntity
  8
freecads.com
100
AcDbLine
 10
104448.3918447676
 20
95263.31400723494
 30
0.0
 11
104448.3927938728
 21
95263.32089147572
 31
0.0
  0
LINE
  5
5FDDA
330
1F
100
AcDbEntity
  8
freecads.com
100
AcDbLine
 10
104448.3927938728
 20
95263.32089147572
 30
0.0
 11
104448.3919082565
 21
95263.32437690847
 31
0.0
  0
LINE
  5
5FDDB
330
1F
100
AcDbEntity
  8
freecads.com
100
AcDbLine
 10
104448.3919082565
 20
95263.32437690847
 30
0.0
 11
104448.3892627065
 21
95263.32685082321
 31
0.0
  0
LINE
  5
5FDDC
330
1F
100
AcDbEntity
  8
freecads.com
100
AcDbLine
 10
104448.3892627065
 20
95263.32685082321
 30
0.0
 11
104448.3848755163
 21
95263.32830353522
 31
0.0
  0
LINE
  5
5FDDD
330
1F
100
AcDbEntity
  8
freecads.com
100
AcDbLine
 10
104448.3848755163
 20
95263.32830353522
 30
0.0
 11
104448.3787655172
 21
95263.3287258978
 31
0.0
  0
LINE
  5
5FDDE
330
1F
100
AcDbEntity
  8
freecads.com
100
AcDbLine
 10
104448.3787655172
 20
95263.3287258978
 30
0.0
 11
104448.3709504646
 21
95263.32810876422
 31
0.0
  0
LINE
  5
5FDDF
330
1F
100
AcDbEntity
  8
freecads.com
100
AcDbLine
 10
104448.3709504646
 20
95263.32810876422
 30
0.0
 11
104448.3751977641
 21
95263.3301205013
 31
0.0
  0
LINE
  5
5FDE0
330
1F
100
AcDbEntity
  8
freecads.com
100
AcDbLine
 10
104448.3751977641
 20
95263.3301205013
 30
0.0
 11
104448.3789662066
 21
95263.33287581175
 31
0.0
  0
LINE
  5
5FDE1
330
1F
100
AcDbEntity
  8
freecads.com
100
AcDbLine
 10
104448.3789662066
 20
95263.33287581175
 30
0.0
 11
104448.3822590205
 21
95263.33636985317
 31
0.0
  0
LINE
  5
5FDE2
330
1F
100
AcDbEntity
  8
freecads.com
100
AcDbLine
 10
104448.3822590205
 20
95263.33636985317
 30
0.0
 11
104448.3850772818
 21
95263.34059778314
 31
0.0
  0
LINE
  5
5FDE3
330
1F
100
AcDbEntity
  8
freecads.com
100
AcDbLine
 10
104448.3850772818
 20
95263.34059778314
 30
0.0
 11
104448.3874236807
 21
95263.34555637347
 31
0.0
  0
LINE
  5
5FDE4
330
1F
100
AcDbEntity
  8
freecads.com
100
AcDbLine
 10
104448.3874236807
 20
95263.34555637347
 30
0.0
 11
104448.3893003694
 21
95263.35124024372
 31
0.0
  0
LINE
  5
5FDE5
330
1F
100
AcDbEntity
  8
freecads.com
100
AcDbLine
 10
104448.3893003694
 20
95263.35124024372
 30
0.0
 11
104448.3907100381
 21
95263.35764562759
 31
0.0
  0
LINE
  5
5FDE6
330
1F
100
AcDbEntity
  8
freecads.com
100
AcDbLine
 10
104448.3907100381
 20
95263.35764562759
 30
0.0
 11
104448.3916543009
 21
95263.36476768273
 31
0.0
  0
LINE
  5
5FDE7
330
1F
100
AcDbEntity
  8
freecads.com
100
AcDbLine
 10
104448.3916543009
 20
95263.36476768273
 30
0.0
 11
104448.3892411849
 21
95263.36502110025
 31
0.0
  0
LINE
  5
5FDE8
330
1F
100
AcDbEntity
  8
freecads.com
100
AcDbLine
 10
104448.3892411849
 20
95263.36502110025
 30
0.0
 11
104448.386532146
 21
95263.36578081483
 31
0.0
  0
LINE
  5
5FDE9
330
1F
100
AcDbEntity
  8
freecads.com
100
AcDbLine
 10
104448.386532146
 20
95263.36578081483
 30
0.0
 11
104448.3834862932
 21
95263.36704682645
 31
0.0
  0
LINE
  5
5FDEA
330
1F
100
AcDbEntity
  8
freecads.com
100
AcDbLine
 10
104448.3834862932
 20
95263.36704682645
 30
0.0
 11
104448.3798771109
 21
95263.36812290942
 31
0.0
  0
LINE
  5
5FDEB
330
1F
100
AcDbEntity
  8
freecads.com
100
AcDbLine
 10
104448.3798771109
 20
95263.36812290942
 30
0.0
 11
104448.3751294328
 21
95263.36831283806
 31
0.0
  0
LINE
  5
5FDEC
330
1F
100
AcDbEntity
  8
freecads.com
100
AcDbLine
 10
104448.3751294328
 20
95263.36831283806
 30
0.0
 11
104448.3692411068
 21
95263.36761661237
 31
0.0
  0
LINE
  5
5FDED
330
1F
100
AcDbEntity
  8
freecads.com
100
AcDbLine
 10
104448.3692411068
 20
95263.36761661237
 30
0.0
 11
104448.3761484834
 21
95263.36951589883
 31
0.0
  0
LINE
  5
5FDEE
330
1F
100
AcDbEntity
  8
freecads.com
100
AcDbLine
 10
104448.3761484834
 20
95263.36951589883
 30
0.0
 11
104448.3824661665
 21
95263.37293461441
 31
0.0
  0
LINE
  5
5FDEF
330
1F
100
AcDbEntity
  8
freecads.com
100
AcDbLine
 10
104448.3824661665
 20
95263.37293461441
 30
0.0
 11
104448.3882355853
 21
95263.37787329719
 31
0.0
  0
LINE
  5
5FDF0
330
1F
100
AcDbEntity
  8
freecads.com
100
AcDbLine
 10
104448.3882355853
 20
95263.37787329719
 30
0.0
 11
104448.3925738138
 21
95263.38214696071
 31
0.0
  0
LINE
  5
5FDF1
330
1F
100
AcDbEntity
  8
freecads.com
100
AcDbLine
 10
104448.3925738138
 20
95263.38214696071
 30
0.0
 11
104448.3973042746
 21
95263.38642062423
 31
0.0
  0
LINE
  5
5FDF2
330
1F
100
AcDbEntity
  8
freecads.com
100
AcDbLine
 10
104448.3973042746
 20
95263.38642062423
 30
0.0
 11
104448.4023903807
 21
95263.39069428773
 31
0.0
  0
LINE
  5
5FDF3
330
1F
100
AcDbEntity
  8
freecads.com
100
AcDbLine
 10
104448.4023903807
 20
95263.39069428773
 30
0.0
 11
104448.4077976976
 21
95263.39496795124
 31
0.0
  0
LINE
  5
5FDF4
330
1F
100
AcDbEntity
  8
freecads.com
100
AcDbLine
 10
104448.4077976976
 20
95263.39496795124
 30
0.0
 11
104448.411823324
 21
95263.39404359598
 31
0.0
  0
LINE
  5
5FDF5
330
1F
100
AcDbEntity
  8
freecads.com
100
AcDbLine
 10
104448.411823324
 20
95263.39404359598
 30
0.0
 11
104448.4157461845
 21
95263.3926742804
 31
0.0
  0
LINE
  5
5FDF6
330
1F
100
AcDbEntity
  8
freecads.com
100
AcDbLine
 10
104448.4157461845
 20
95263.3926742804
 30
0.0
 11
104448.4195646649
 21
95263.39085839039
 31
0.0
  0
LINE
  5
5FDF7
330
1F
100
AcDbEntity
  8
freecads.com
100
AcDbLine
 10
104448.4195646649
 20
95263.39085839039
 30
0.0
 11
104448.4232776892
 21
95263.38859646399
 31
0.0
  0
LINE
  5
5FDF8
330
1F
100
AcDbEntity
  8
freecads.com
100
AcDbLine
 10
104448.4232776892
 20
95263.38859646399
 30
0.0
 11
104448.4268831052
 21
95263.38588688707
 31
0.0
  0
LINE
  5
5FDF9
330
1F
100
AcDbEntity
  8
freecads.com
100
AcDbLine
 10
104448.4268831052
 20
95263.38588688707
 30
0.0
 11
104448.4303792987
 21
95263.38273019769
 31
0.0
  0
LINE
  5
5FDFA
330
1F
100
AcDbEntity
  8
freecads.com
100
AcDbLine
 10
104448.4303792987
 20
95263.38273019769
 30
0.0
 11
104448.4337651938
 21
95263.37912478171
 31
0.0
  0
LINE
  5
5FDFB
330
1F
100
AcDbEntity
  8
freecads.com
100
AcDbLine
 10
104448.4337651938
 20
95263.37912478171
 30
0.0
 11
104448.4370391762
 21
95263.3750706391
 31
0.0
  0
LINE
  5
5FDFC
330
1F
100
AcDbEntity
  8
freecads.com
100
AcDbLine
 10
104448.4370391762
 20
95263.3750706391
 30
0.0
 11
104448.4401996319
 21
95263.37056776991
 31
0.0
  0
LINE
  5
5FDFD
330
1F
100
AcDbEntity
  8
freecads.com
100
AcDbLine
 10
104448.4401996319
 20
95263.37056776991
 30
0.0
 11
104448.4432444087
 21
95263.36561509806
 31
0.0
  0
LINE
  5
5FDFE
330
1F
100
AcDbEntity
  8
freecads.com
100
AcDbLine
 10
104448.4432444087
 20
95263.36561509806
 30
0.0
 11
104448.4461729685
 21
95263.36021154742
 31
0.0
  0
LINE
  5
5FDFF
330
1F
100
AcDbEntity
  8
freecads.com
100
AcDbLine
 10
104448.4461729685
 20
95263.36021154742
 30
0.0
 11
104448.4489831591
 21
95263.35435765608
 31
0.0
  0
LINE
  5
5FE00
330
1F
100
AcDbEntity
  8
freecads.com
100
AcDbLine
 10
104448.4489831591
 20
95263.35435765608
 30
0.0
 11
104448.4516733666
 21
95263.34805234792
 31
0.0
  0
LINE
  5
5FE01
330
1F
100
AcDbEntity
  8
freecads.com
100
AcDbLine
 10
104448.4516733666
 20
95263.34805234792
 30
0.0
 11
104448.4557694764
 21
95263.33816960194
 31
0.0
  0
LINE
  5
5FE02
330
1F
100
AcDbEntity
  8
freecads.com
100
AcDbLine
 10
104448.4557694764
 20
95263.33816960194
 30
0.0
 11
104448.459369512
 21
95263.32960505758
 31
0.0
  0
LINE
  5
5FE03
330
1F
100
AcDbEntity
  8
freecads.com
100
AcDbLine
 10
104448.459369512
 20
95263.32960505758
 30
0.0
 11
104448.4624750874
 21
95263.32235763879
 31
0.0
  0
LINE
  5
5FE04
330
1F
100
AcDbEntity
  8
freecads.com
100
AcDbLine
 10
104448.4624750874
 20
95263.32235763879
 30
0.0
 11
104448.4650883549
 21
95263.31642788358
 31
0.0
  0
LINE
  5
5FE05
330
1F
100
AcDbEntity
  8
freecads.com
100
AcDbLine
 10
104448.4650883549
 20
95263.31642788358
 30
0.0
 11
104448.4672125427
 21
95263.31181579196
 31
0.0
  0
LINE
  5
5FE06
330
1F
100
AcDbEntity
  8
freecads.com
100
AcDbLine
 10
104448.4672125427
 20
95263.31181579196
 30
0.0
 11
104448.4688487268
 21
95263.30852136396
 31
0.0
  0
LINE
  5
5FE07
330
1F
100
AcDbEntity
  8
freecads.com
100
AcDbLine
 10
104448.4688487268
 20
95263.30852136396
 30
0.0
 11
104448.4700001356
 21
95263.30654459954
 31
0.0
  0
LINE
  5
5FE08
330
1F
100
AcDbEntity
  8
freecads.com
100
AcDbLine
 10
104448.4700001356
 20
95263.30654459954
 30
0.0
 11
104448.4706683832
 21
95263.30588603677
 31
0.0
  0
LINE
  5
5FE09
330
1F
100
AcDbEntity
  8
freecads.com
100
AcDbLine
 10
104448.4706683832
 20
95263.30588603677
 30
0.0
 11
104448.4719908891
 21
95263.31100926778
 31
0.0
  0
LINE
  5
5FE0A
330
1F
100
AcDbEntity
  8
freecads.com
100
AcDbLine
 10
104448.4719908891
 20
95263.31100926778
 30
0.0
 11
104448.4729555975
 21
95263.31612281405
 31
0.0
  0
LINE
  5
5FE0B
330
1F
100
AcDbEntity
  8
freecads.com
100
AcDbLine
 10
104448.4729555975
 20
95263.31612281405
 30
0.0
 11
104448.4735598181
 21
95263.32122506145
 31
0.0
  0
LINE
  5
5FE0C
330
1F
100
AcDbEntity
  8
freecads.com
100
AcDbLine
 10
104448.4735598181
 20
95263.32122506145
 30
0.0
 11
104448.4738040889
 21
95263.3263149339
 31
0.0
  0
LINE
  5
5FE0D
330
1F
100
AcDbEntity
  8
freecads.com
100
AcDbLine
 10
104448.4738040889
 20
95263.3263149339
 30
0.0
 11
104448.4736873339
 21
95263.33139243138
 31
0.0
  0
LINE
  5
5FE0E
330
1F
100
AcDbEntity
  8
freecads.com
100
AcDbLine
 10
104448.4736873339
 20
95263.33139243138
 30
0.0
 11
104448.4732079389
 21
95263.33645647785
 31
0.0
  0
LINE
  5
5FE0F
330
1F
100
AcDbEntity
  8
freecads.com
100
AcDbLine
 10
104448.4732079389
 20
95263.33645647785
 30
0.0
 11
104448.472365904
 21
95263.34150545913
 31
0.0
  0
LINE
  5
5FE10
330
1F
100
AcDbEntity
  8
freecads.com
100
AcDbLine
 10
104448.472365904
 20
95263.34150545913
 30
0.0
 11
104448.471159615
 21
95263.34653937526
 31
0.0
  0
LINE
  5
5FE11
330
1F
100
AcDbEntity
  8
freecads.com
100
AcDbLine
 10
104448.471159615
 20
95263.34653937526
 30
0.0
 11
104448.4695885339
 21
95263.35155661211
 31
0.0
  0
LINE
  5
5FE12
330
1F
100
AcDbEntity
  8
freecads.com
100
AcDbLine
 10
104448.4695885339
 20
95263.35155661211
 30
0.0
 11
104448.4676521226
 21
95263.35655716966
 31
0.0
  0
LINE
  5
5FE13
330
1F
100
AcDbEntity
  8
freecads.com
100
AcDbLine
 10
104448.4676521226
 20
95263.35655716966
 30
0.0
 11
104448.465349305
 21
95263.36153943381
 31
0.0
  0
LINE
  5
5FE14
330
1F
100
AcDbEntity
  8
freecads.com
100
AcDbLine
 10
104448.465349305
 20
95263.36153943381
 30
0.0
 11
104448.4622259742
 21
95263.36732122761
 31
0.0
  0
LINE
  5
5FE15
330
1F
100
AcDbEntity
  8
freecads.com
100
AcDbLine
 10
104448.4622259742
 20
95263.36732122761
 30
0.0
 11
104448.4589336984
 21
95263.37263546336
 31
0.0
  0
LINE
  5
5FE16
330
1F
100
AcDbEntity
  8
freecads.com
100
AcDbLine
 10
104448.4589336984
 20
95263.37263546336
 30
0.0
 11
104448.4554724775
 21
95263.37747945083
 31
0.0
  0
LINE
  5
5FE17
330
1F
100
AcDbEntity
  8
freecads.com
100
AcDbLine
 10
104448.4554724775
 20
95263.37747945083
 30
0.0
 11
104448.4518423116
 21
95263.38184942378
 31
0.0
  0
LINE
  5
5FE18
330
1F
100
AcDbEntity
  8
freecads.com
100
AcDbLine
 10
104448.4518423116
 20
95263.38184942378
 30
0.0
 11
104448.4480437387
 21
95263.38574323
 31
0.0
  0
LINE
  5
5FE19
330
1F
100
AcDbEntity
  8
freecads.com
100
AcDbLine
 10
104448.4480437387
 20
95263.38574323
 30
0.0
 11
104448.4440762208
 21
95263.38915656516
 31
0.0
  0
LINE
  5
5FE1A
330
1F
100
AcDbEntity
  8
freecads.com
100
AcDbLine
 10
104448.4440762208
 20
95263.38915656516
 30
0.0
 11
104448.4399397579
 21
95263.39208727714
 31
0.0
  0
LINE
  5
5FE1B
330
1F
100
AcDbEntity
  8
freecads.com
100
AcDbLine
 10
104448.4399397579
 20
95263.39208727714
 30
0.0
 11
104448.4356343499
 21
95263.39453159961
 31
0.0
  0
LINE
  5
5FE1C
330
1F
100
AcDbEntity
  8
freecads.com
100
AcDbLine
 10
104448.4356343499
 20
95263.39453159961
 30
0.0
 11
104448.4311599969
 21
95263.39648630433
 31
0.0
  0
LINE
  5
5FE1D
330
1F
100
AcDbEntity
  8
freecads.com
100
AcDbLine
 10
104448.4311599969
 20
95263.39648630433
 30
0.0
 11
104448.4357683223
 21
95263.39484742996
 31
0.0
  0
LINE
  5
5FE1E
330
1F
100
AcDbEntity
  8
freecads.com
100
AcDbLine
 10
104448.4357683223
 20
95263.39484742996
 30
0.0
 11
104448.4392790429
 21
95263.39337750062
 31
0.0
  0
LINE
  5
5FE1F
330
1F
100
AcDbEntity
  8
freecads.com
100
AcDbLine
 10
104448.4392790429
 20
95263.39337750062
 30
0.0
 11
104448.4416076865
 21
95263.39211848355
 31
0.0
  0
LINE
  5
5FE20
330
1F
100
AcDbEntity
  8
freecads.com
100
AcDbLine
 10
104448.4416076865
 20
95263.39211848355
 30
0.0
 11
104448.4454369277
 21
95263.39005186621
 31
0.0
  0
LINE
  5
5FE21
330
1F
100
AcDbEntity
  8
freecads.com
100
AcDbLine
 10
104448.4454369277
 20
95263.39005186621
 30
0.0
 11
104448.4491747019
 21
95263.38772645091
 31
0.0
  0
LINE
  5
5FE22
330
1F
100
AcDbEntity
  8
freecads.com
100
AcDbLine
 10
104448.4491747019
 20
95263.38772645091
 30
0.0
 11
104448.4528215471
 21
95263.38514116158
 31
0.0
  0
LINE
  5
5FE23
330
1F
100
AcDbEntity
  8
freecads.com
100
AcDbLine
 10
104448.4528215471
 20
95263.38514116158
 30
0.0
 11
104448.4563769252
 21
95263.38229546016
 31
0.0
  0
LINE
  5
5FE24
330
1F
100
AcDbEntity
  8
freecads.com
100
AcDbLine
 10
104448.4563769252
 20
95263.38229546016
 30
0.0
 11
104448.4598419124
 21
95263.37918880862
 31
0.0
  0
LINE
  5
5FE25
330
1F
100
AcDbEntity
  8
freecads.com
100
AcDbLine
 10
104448.4598419124
 20
95263.37918880862
 30
0.0
 11
104448.4632148945
 21
95263.37582066894
 31
0.0
  0
LINE
  5
5FE26
330
1F
100
AcDbEntity
  8
freecads.com
100
AcDbLine
 10
104448.4632148945
 20
95263.37582066894
 30
0.0
 11
104448.4664969475
 21
95263.372189965
 31
0.0
  0
LINE
  5
5FE27
330
1F
100
AcDbEntity
  8
freecads.com
100
AcDbLine
 10
104448.4664969475
 20
95263.372189965
 30
0.0
 11
104448.4696880716
 21
95263.36829615878
 31
0.0
  0
LINE
  5
5FE28
330
1F
100
AcDbEntity
  8
freecads.com
100
AcDbLine
 10
104448.4696880716
 20
95263.36829615878
 30
0.0
 11
104448.4727877286
 21
95263.36413871222
 31
0.0
  0
LINE
  5
5FE29
330
1F
100
AcDbEntity
  8
freecads.com
100
AcDbLine
 10
104448.4727877286
 20
95263.36413871222
 30
0.0
 11
104448.4757964565
 21
95263.35971654926
 31
0.0
  0
LINE
  5
5FE2A
330
1F
100
AcDbEntity
  8
freecads.com
100
AcDbLine
 10
104448.4757964565
 20
95263.35971654926
 30
0.0
 11
104448.4787137175
 21
95263.3550296699
 31
0.0
  0
LINE
  5
5FE2B
330
1F
100
AcDbEntity
  8
freecads.com
100
AcDbLine
 10
104448.4787137175
 20
95263.3550296699
 30
0.0
 11
104448.4815400494
 21
95263.35007699801
 31
0.0
  0
LINE
  5
5FE2C
330
1F
100
AcDbEntity
  8
freecads.com
100
AcDbLine
 10
104448.4815400494
 20
95263.35007699801
 30
0.0
 11
104448.4842754523
 21
95263.34485799562
 31
0.0
  0
LINE
  5
5FE2D
330
1F
100
AcDbEntity
  8
freecads.com
100
AcDbLine
 10
104448.4842754523
 20
95263.34485799562
 30
0.0
 11
104448.4869193881
 21
95263.33937212465
 31
0.0
  0
LINE
  5
5FE2E
330
1F
100
AcDbEntity
  8
freecads.com
100
AcDbLine
 10
104448.4869193881
 20
95263.33937212465
 30
0.0
 11
104448.489471857
 21
95263.33361830902
 31
0.0
  0
LINE
  5
5FE2F
330
1F
100
AcDbEntity
  8
freecads.com
100
AcDbLine
 10
104448.489471857
 20
95263.33361830902
 30
0.0
 11
104448.4935173909
 21
95263.324409729
 31
0.0
  0
LINE
  5
5FE30
330
1F
100
AcDbEntity
  8
freecads.com
100
AcDbLine
 10
104448.4935173909
 20
95263.324409729
 30
0.0
 11
104448.4971685404
 21
95263.31628422649
 31
0.0
  0
LINE
  5
5FE31
330
1F
100
AcDbEntity
  8
freecads.com
100
AcDbLine
 10
104448.4971685404
 20
95263.31628422649
 30
0.0
 11
104448.5004258435
 21
95263.30924233956
 31
0.0
  0
LINE
  5
5FE32
330
1F
100
AcDbEntity
  8
freecads.com
100
AcDbLine
 10
104448.5004258435
 20
95263.30924233956
 30
0.0
 11
104448.5032887623
 21
95263.30328406816
 31
0.0
  0
LINE
  5
5FE33
330
1F
100
AcDbEntity
  8
freecads.com
100
AcDbLine
 10
104448.5032887623
 20
95263.30328406816
 30
0.0
 11
104448.5057578346
 21
95263.29840887425
 31
0.0
  0
LINE
  5
5FE34
330
1F
100
AcDbEntity
  8
freecads.com
100
AcDbLine
 10
104448.5057578346
 20
95263.29840887425
 30
0.0
 11
104448.5078330606
 21
95263.29461729591
 31
0.0
  0
LINE
  5
5FE35
330
1F
100
AcDbEntity
  8
freecads.com
100
AcDbLine
 10
104448.5078330606
 20
95263.29461729591
 30
0.0
 11
104448.5095144403
 21
95263.29190933314
 31
0.0
  0
LINE
  5
5FE36
330
1F
100
AcDbEntity
  8
freecads.com
100
AcDbLine
 10
104448.5095144403
 20
95263.29190933314
 30
0.0
 11
104448.5108014355
 21
95263.2902839098
 31
0.0
  0
LINE
  5
5FE37
330
1F
100
AcDbEntity
  8
freecads.com
100
AcDbLine
 10
104448.5108014355
 20
95263.2902839098
 30
0.0
 11
104448.5116951224
 21
95263.28974264005
 31
0.0
  0
LINE
  5
5FE38
330
1F
100
AcDbEntity
  8
freecads.com
100
AcDbLine
 10
104448.5116951224
 20
95263.28974264005
 30
0.0
 11
104448.5122928865
 21
95263.29315489917
 31
0.0
  0
LINE
  5
5FE39
330
1F
100
AcDbEntity
  8
freecads.com
100
AcDbLine
 10
104448.5122928865
 20
95263.29315489917
 30
0.0
 11
104448.5127190154
 21
95263.2970099664
 31
0.0
  0
LINE
  5
5FE3A
330
1F
100
AcDbEntity
  8
freecads.com
100
AcDbLine
 10
104448.5127190154
 20
95263.2970099664
 30
0.0
 11
104448.5129718949
 21
95263.30130461353
 31
0.0
  0
LINE
  5
5FE3B
330
1F
100
AcDbEntity
  8
freecads.com
100
AcDbLine
 10
104448.5129718949
 20
95263.30130461353
 30
0.0
 11
104448.5130504489
 21
95263.30603668839
 31
0.0
  0
LINE
  5
5FE3C
330
1F
100
AcDbEntity
  8
freecads.com
100
AcDbLine
 10
104448.5130504489
 20
95263.30603668839
 30
0.0
 11
104448.5129530634
 21
95263.31120457685
 31
0.0
  0
LINE
  5
5FE3D
330
1F
100
AcDbEntity
  8
freecads.com
100
AcDbLine
 10
104448.5129530634
 20
95263.31120457685
 30
0.0
 11
104448.5126792003
 21
95263.3168055887
 31
0.0
  0
LINE
  5
5FE3E
330
1F
100
AcDbEntity
  8
freecads.com
100
AcDbLine
 10
104448.5126792003
 20
95263.3168055887
 30
0.0
 11
104448.5122277835
 21
95263.32283703375
 31
0.0
  0
LINE
  5
5FE3F
330
1F
100
AcDbEntity
  8
freecads.com
100
AcDbLine
 10
104448.5122277835
 20
95263.32283703375
 30
0.0
 11
104448.5115971989
 21
95263.3292967598
 31
0.0
  0
LINE
  5
5FE40
330
1F
100
AcDbEntity
  8
freecads.com
100
AcDbLine
 10
104448.5115971989
 20
95263.3292967598
 30
0.0
 11
104448.5107869084
 21
95263.33618315277
 31
0.0
  0
LINE
  5
5FE41
330
1F
100
AcDbEntity
  8
freecads.com
100
AcDbLine
 10
104448.5107869084
 20
95263.33618315277
 30
0.0
 11
104448.5097947599
 21
95263.34349352243
 31
0.0
  0
LINE
  5
5FE42
330
1F
100
AcDbEntity
  8
freecads.com
100
AcDbLine
 10
104448.5097947599
 20
95263.34349352243
 30
0.0
 11
104448.5088139103
 21
95263.34957554336
 31
0.0
  0
LINE
  5
5FE43
330
1F
100
AcDbEntity
  8
freecads.com
100
AcDbLine
 10
104448.5088139103
 20
95263.34957554336
 30
0.0
 11
104448.5075807192
 21
95263.35537885882
 31
0.0
  0
LINE
  5
5FE44
330
1F
100
AcDbEntity
  8
freecads.com
100
AcDbLine
 10
104448.5075807192
 20
95263.35537885882
 30
0.0
 11
104448.5060968008
 21
95263.36090077856
 31
0.0
  0
LINE
  5
5FE45
330
1F
100
AcDbEntity
  8
freecads.com
100
AcDbLine
 10
104448.5060968008
 20
95263.36090077856
 30
0.0
 11
104448.5043643072
 21
95263.36613968849
 31
0.0
  0
LINE
  5
5FE46
330
1F
100
AcDbEntity
  8
freecads.com
100
AcDbLine
 10
104448.5043643072
 20
95263.36613968849
 30
0.0
 11
104448.5023832385
 21
95263.37109343645
 31
0.0
  0
LINE
  5
5FE47
330
1F
100
AcDbEntity
  8
freecads.com
100
AcDbLine
 10
104448.5023832385
 20
95263.37109343645
 30
0.0
 11
104448.5001557467
 21
95263.37576040829
 31
0.0
  0
LINE
  5
5FE48
330
1F
100
AcDbEntity
  8
freecads.com
100
AcDbLine
 10
104448.5001557467
 20
95263.37576040829
 30
0.0
 11
104448.497682908
 21
95263.38013845185
 31
0.0
  0
LINE
  5
5FE49
330
1F
100
AcDbEntity
  8
freecads.com
100
AcDbLine
 10
104448.497682908
 20
95263.38013845185
 30
0.0
 11
104448.4949663366
 21
95263.38422595301
 31
0.0
  0
LINE
  5
5FE4A
330
1F
100
AcDbEntity
  8
freecads.com
100
AcDbLine
 10
104448.4949663366
 20
95263.38422595301
 30
0.0
 11
104448.4920065704
 21
95263.38802022156
 31
0.0
  0
LINE
  5
5FE4B
330
1F
100
AcDbEntity
  8
freecads.com
100
AcDbLine
 10
104448.4920065704
 20
95263.38802022156
 30
0.0
 11
104448.4888057616
 21
95263.39151964336
 31
0.0
  0
LINE
  5
5FE4C
330
1F
100
AcDbEntity
  8
freecads.com
100
AcDbLine
 10
104448.4888057616
 20
95263.39151964336
 30
0.0
 11
104448.4853649863
 21
95263.39472206629
 31
0.0
  0
LINE
  5
5FE4D
330
1F
100
AcDbEntity
  8
freecads.com
100
AcDbLine
 10
104448.4853649863
 20
95263.39472206629
 30
0.0
 11
104448.4816853206
 21
95263.39762641423
 31
0.0
  0
LINE
  5
5FE4E
330
1F
100
AcDbEntity
  8
freecads.com
100
AcDbLine
 10
104448.4816853206
 20
95263.39762641423
 30
0.0
 11
104448.4783435449
 21
95263.40074328855
 31
0.0
  0
LINE
  5
5FE4F
330
1F
100
AcDbEntity
  8
freecads.com
100
AcDbLine
 10
104448.4783435449
 20
95263.40074328855
 30
0.0
 11
104448.4733133951
 21
95263.40255164598
 31
0.0
  0
LINE
  5
5FE50
330
1F
100
AcDbEntity
  8
freecads.com
100
AcDbLine
 10
104448.4733133951
 20
95263.40255164598
 30
0.0
 11
104448.4666793436
 21
95263.40313595904
 31
0.0
  0
LINE
  5
5FE51
330
1F
100
AcDbEntity
  8
freecads.com
100
AcDbLine
 10
104448.4666793436
 20
95263.40313595904
 30
0.0
 11
104448.4680653384
 21
95263.4038956736
 31
0.0
  0
LINE
  5
5FE52
330
1F
100
AcDbEntity
  8
freecads.com
100
AcDbLine
 10
104448.4680653384
 20
95263.4038956736
 30
0.0
 11
104448.4721948068
 21
95263.4038956736
 31
0.0
  0
LINE
  5
5FE53
330
1F
100
AcDbEntity
  8
freecads.com
100
AcDbLine
 10
104448.4721948068
 20
95263.4038956736
 30
0.0
 11
104448.4790247055
 21
95263.40313595904
 31
0.0
  0
LINE
  5
5FE54
330
1F
100
AcDbEntity
  8
freecads.com
100
AcDbLine
 10
104448.4790247055
 20
95263.40313595904
 30
0.0
 11
104448.474998003
 21
95263.4078255286
 31
0.0
  0
LINE
  5
5FE55
330
1F
100
AcDbEntity
  8
freecads.com
100
AcDbLine
 10
104448.474998003
 20
95263.4078255286
 30
0.0
 11
104448.4708932845
 21
95263.41215676255
 31
0.0
  0
LINE
  5
5FE56
330
1F
100
AcDbEntity
  8
freecads.com
100
AcDbLine
 10
104448.4708932845
 20
95263.41215676255
 30
0.0
 11
104448.4667083978
 21
95263.4161285848
 31
0.0
  0
LINE
  5
5FE57
330
1F
100
AcDbEntity
  8
freecads.com
100
AcDbLine
 10
104448.4667083978
 20
95263.4161285848
 30
0.0
 11
104448.4624401147
 21
95263.41973991923
 31
0.0
  0
LINE
  5
5FE58
330
1F
100
AcDbEntity
  8
freecads.com
100
AcDbLine
 10
104448.4624401147
 20
95263.41973991923
 30
0.0
 11
104448.458086283
 21
95263.42299022784
 31
0.0
  0
LINE
  5
5FE59
330
1F
100
AcDbEntity
  8
freecads.com
100
AcDbLine
 10
104448.458086283
 20
95263.42299022784
 30
0.0
 11
104448.4536442126
 21
95263.42587789651
 31
0.0
  0
LINE
  5
5FE5A
330
1F
100
AcDbEntity
  8
freecads.com
100
AcDbLine
 10
104448.4536442126
 20
95263.42587789651
 30
0.0
 11
104448.449111213
 21
95263.42840292519
 31
0.0
  0
LINE
  5
5FE5B
330
1F
100
AcDbEntity
  8
freecads.com
100
AcDbLine
 10
104448.449111213
 20
95263.42840292519
 30
0.0
 11
104448.4444851323
 21
95263.43056423783
 31
0.0
  0
LINE
  5
5FE5C
330
1F
100
AcDbEntity
  8
freecads.com
100
AcDbLine
 10
104448.4444851323
 20
95263.43056423783
 30
0.0
 11
104448.4397627422
 21
95263.43236022031
 31
0.0
  0
LINE
  5
5FE5D
330
1F
100
AcDbEntity
  8
freecads.com
100
AcDbLine
 10
104448.4397627422
 20
95263.43236022031
 30
0.0
 11
104448.4349424286
 21
95263.43379087261
 31
0.0
  0
LINE
  5
5FE5E
330
1F
100
AcDbEntity
  8
freecads.com
100
AcDbLine
 10
104448.4349424286
 20
95263.43379087261
 30
0.0
 11
104448.4300204251
 21
95263.43485458063
 31
0.0
  0
LINE
  5
5FE5F
330
1F
100
AcDbEntity
  8
freecads.com
100
AcDbLine
 10
104448.4300204251
 20
95263.43485458063
 30
0.0
 11
104448.4300204251
 21
95263.43485458063
 31
0.0
  0
LINE
  5
5FE60
330
1F
100
AcDbEntity
  8
freecads.com
100
AcDbLine
 10
104448.4300204251
 20
95263.43485458063
 30
0.0
 11
104448.4214714839
 21
95263.43642189548
 31
0.0
  0
LINE
  5
5FE61
330
1F
100
AcDbEntity
  8
freecads.com
100
AcDbLine
 10
104448.4214714839
 20
95263.43642189548
 30
0.0
 11
104448.4140518918
 21
95263.43770404832
 31
0.0
  0
LINE
  5
5FE62
330
1F
100
AcDbEntity
  8
freecads.com
100
AcDbLine
 10
104448.4140518918
 20
95263.43770404832
 30
0.0
 11
104448.40775035
 21
95263.4387010392
 31
0.0
  0
LINE
  5
5FE63
330
1F
100
AcDbEntity
  8
freecads.com
100
AcDbLine
 10
104448.40775035
 20
95263.4387010392
 30
0.0
 11
104448.4025571736
 21
95263.43941340613
 31
0.0
  0
LINE
  5
5FE64
330
1F
100
AcDbEntity
  8
freecads.com
100
AcDbLine
 10
104448.4025571736
 20
95263.43941340613
 30
0.0
 11
104448.3984610637
 21
95263.43984061105
 31
0.0
  0
LINE
  5
5FE65
330
1F
100
AcDbEntity
  8
freecads.com
100
AcDbLine
 10
104448.3984610637
 20
95263.43984061105
 30
0.0
 11
104448.3954523358
 21
95263.43998319205
 31
0.0
  0
LINE
  5
5FE66
330
1F
100
AcDbEntity
  8
freecads.com
100
AcDbLine
 10
104448.3954523358
 20
95263.43998319205
 30
0.0
 11
104448.3964724624
 21
95263.44099632417
 31
0.0
  0
LINE
  5
5FE67
330
1F
100
AcDbEntity
  8
freecads.com
100
AcDbLine
 10
104448.3964724624
 20
95263.44099632417
 30
0.0
 11
104448.3995613586
 21
95263.44175603876
 31
0.0
  0
LINE
  5
5FE68
330
1F
100
AcDbEntity
  8
freecads.com
100
AcDbLine
 10
104448.3995613586
 20
95263.44175603876
 30
0.0
 11
104448.4047604535
 21
95263.44226233579
 31
0.0
  0
LINE
  5
5FE69
330
1F
100
AcDbEntity
  8
freecads.com
100
AcDbLine
 10
104448.4047604535
 20
95263.44226233579
 30
0.0
 11
104448.4105142691
 21
95263.44252920436
 31
0.0
  0
LINE
  5
5FE6A
330
1F
100
AcDbEntity
  8
freecads.com
100
AcDbLine
 10
104448.4105142691
 20
95263.44252920436
 30
0.0
 11
104448.4155928427
 21
95263.44262766595
 31
0.0
  0
LINE
  5
5FE6B
330
1F
100
AcDbEntity
  8
freecads.com
100
AcDbLine
 10
104448.4155928427
 20
95263.44262766595
 30
0.0
 11
104448.419954745
 21
95263.44264165503
 31
0.0
  0
LINE
  5
5FE6C
330
1F
100
AcDbEntity
  8
freecads.com
100
AcDbLine
 10
104448.419954745
 20
95263.44264165503
 30
0.0
 11
104448.4163611659
 21
95263.44488744019
 31
0.0
  0
LINE
  5
5FE6D
330
1F
100
AcDbEntity
  8
freecads.com
100
AcDbLine
 10
104448.4163611659
 20
95263.44488744019
 30
0.0
 11
104448.4122521431
 21
95263.4467485257
 31
0.0
  0
LINE
  5
5FE6E
330
1F
100
AcDbEntity
  8
freecads.com
100
AcDbLine
 10
104448.4122521431
 20
95263.4467485257
 30
0.0
 11
104448.4076249863
 21
95263.44823352017
 31
0.0
  0
LINE
  5
5FE6F
330
1F
100
AcDbEntity
  8
freecads.com
100
AcDbLine
 10
104448.4076249863
 20
95263.44823352017
 30
0.0
 11
104448.4024759293
 21
95263.44935318451
 31
0.0
  0
LINE
  5
5FE70
330
1F
100
AcDbEntity
  8
freecads.com
100
AcDbLine
 10
104448.4024759293
 20
95263.44935318451
 30
0.0
 11
104448.3968022819
 21
95263.45011774147
 31
0.0
  0
LINE
  5
5FE71
330
1F
100
AcDbEntity
  8
freecads.com
100
AcDbLine
 10
104448.3968022819
 20
95263.45011774147
 30
0.0
 11
104448.3905997396
 21
95263.45053633773
 31
0.0
  0
LINE
  5
5FE72
330
1F
100
AcDbEntity
  8
freecads.com
100
AcDbLine
 10
104448.3905997396
 20
95263.45053633773
 30
0.0
 11
104448.3838656124
 21
95263.45061919613
 31
0.0
  0
LINE
  5
5FE73
330
1F
100
AcDbEntity
  8
freecads.com
100
AcDbLine
 10
104448.3838656124
 20
95263.45061919613
 30
0.0
 11
104448.3770868277
 21
95263.4503517895
 31
0.0
  0
LINE
  5
5FE74
330
1F
100
AcDbEntity
  8
freecads.com
100
AcDbLine
 10
104448.3770868277
 20
95263.4503517895
 30
0.0
 11
104448.3707530034
 21
95263.44987508476
 31
0.0
  0
LINE
  5
5FE75
330
1F
100
AcDbEntity
  8
freecads.com
100
AcDbLine
 10
104448.3707530034
 20
95263.44987508476
 30
0.0
 11
104448.3648673676
 21
95263.4491896199
 31
0.0
  0
LINE
  5
5FE76
330
1F
100
AcDbEntity
  8
freecads.com
100
AcDbLine
 10
104448.3648673676
 20
95263.4491896199
 30
0.0
 11
104448.3594342247
 21
95263.44829378082
 31
0.0
  0
LINE
  5
5FE77
330
1F
100
AcDbEntity
  8
freecads.com
100
AcDbLine
 10
104448.3594342247
 20
95263.44829378082
 30
0.0
 11
104448.3544557268
 21
95263.44718918167
 31
0.0
  0
LINE
  5
5FE78
330
1F
100
AcDbEntity
  8
freecads.com
100
AcDbLine
 10
104448.3544557268
 20
95263.44718918167
 30
0.0
 11
104448.3499361783
 21
95263.4458747463
 31
0.0
  0
LINE
  5
5FE79
330
1F
100
AcDbEntity
  8
freecads.com
100
AcDbLine
 10
104448.3499361783
 20
95263.4458747463
 30
0.0
 11
104448.3458782694
 21
95263.44435101282
 31
0.0
  0
LINE
  5
5FE7A
330
1F
100
AcDbEntity
  8
freecads.com
100
AcDbLine
 10
104448.3458782694
 20
95263.44435101282
 30
0.0
 11
104448.3403003934
 21
95263.44132668164
 31
0.0
  0
LINE
  5
5FE7B
330
1F
100
AcDbEntity
  8
freecads.com
100
AcDbLine
 10
104448.3403003934
 20
95263.44132668164
 30
0.0
 11
104448.3391113217
 21
95263.44104582399
 31
0.0
  0
LINE
  5
5FE7C
330
1F
100
AcDbEntity
  8
freecads.com
100
AcDbLine
 10
104448.3391113217
 20
95263.44104582399
 30
0.0
 11
104448.3422690872
 21
95263.44359291238
 31
0.0
  0
LINE
  5
5FE7D
330
1F
100
AcDbEntity
  8
freecads.com
100
AcDbLine
 10
104448.3422690872
 20
95263.44359291238
 30
0.0
 11
104448.3472717969
 21
95263.44680663417
 31
0.0
  0
LINE
  5
5FE7E
330
1F
100
AcDbEntity
  8
freecads.com
100
AcDbLine
 10
104448.3472717969
 20
95263.44680663417
 30
0.0
 11
104448.3512602984
 21
95263.44879738765
 31
0.0
  0
LINE
  5
5FE7F
330
1F
100
AcDbEntity
  8
freecads.com
100
AcDbLine
 10
104448.3512602984
 20
95263.44879738765
 30
0.0
 11
104448.3542351298
 21
95263.44947962426
 31
0.0
  0
LINE
  5
5FE80
330
1F
100
AcDbEntity
  8
freecads.com
100
AcDbLine
 10
104448.3542351298
 20
95263.44947962426
 30
0.0
 11
104448.3489876112
 21
95263.44980352524
 31
0.0
  0
LINE
  5
5FE81
330
1F
100
AcDbEntity
  8
freecads.com
100
AcDbLine
 10
104448.3489876112
 20
95263.44980352524
 30
0.0
 11
104448.3435286423
 21
95263.44928323911
 31
0.0
  0
LINE
  5
5FE82
330
1F
100
AcDbEntity
  8
freecads.com
100
AcDbLine
 10
104448.3435286423
 20
95263.44928323911
 30
0.0
 11
104448.3379012664
 21
95263.44796073315
 31
0.0
  0
LINE
  5
5FE83
330
1F
100
AcDbEntity
  8
freecads.com
100
AcDbLine
 10
104448.3379012664
 20
95263.44796073315
 30
0.0
 11
104448.332772655
 21
95263.44664522172
 31
0.0
  0
LINE
  5
5FE84
330
1F
100
AcDbEntity
  8
freecads.com
100
AcDbLine
 10
104448.332772655
 20
95263.44664522172
 30
0.0
 11
104448.3287841535
 21
95263.44579350205
 31
0.0
  0
LINE
  5
5FE85
330
1F
100
AcDbEntity
  8
freecads.com
100
AcDbLine
 10
104448.3287841535
 20
95263.44579350205
 30
0.0
 11
104448.3259352238
 21
95263.44549058469
 31
0.0
  0
LINE
  5
5FE86
330
1F
100
AcDbEntity
  8
freecads.com
100
AcDbLine
 10
104448.3259352238
 20
95263.44549058469
 30
0.0
 11
104448.3212440401
 21
95263.4455621442
 31
0.0
  0
LINE
  5
5FE87
330
1F
100
AcDbEntity
  8
freecads.com
100
AcDbLine
 10
104448.3212440401
 20
95263.4455621442
 30
0.0
 11
104448.3162924443
 21
95263.44520649878
 31
0.0
  0
LINE
  5
5FE88
330
1F
100
AcDbEntity
  8
freecads.com
100
AcDbLine
 10
104448.3162924443
 20
95263.44520649878
 30
0.0
 11
104448.311087431
 21
95263.44442311039
 31
0.0
  0
LINE
  5
5FE89
330
1F
100
AcDbEntity
  8
freecads.com
100
AcDbLine
 10
104448.311087431
 20
95263.44442311039
 30
0.0
 11
104448.3056354566
 21
95263.443211979
 31
0.0
  0
LINE
  5
5FE8A
330
1F
100
AcDbEntity
  8
freecads.com
100
AcDbLine
 10
104448.3056354566
 20
95263.443211979
 30
0.0
 11
104448.2999429777
 21
95263.44157418073
 31
0.0
  0
LINE
  5
5FE8B
330
1F
100
AcDbEntity
  8
freecads.com
100
AcDbLine
 10
104448.2999429777
 20
95263.44157418073
 30
0.0
 11
104448.2940164508
 21
95263.43950810142
 31
0.0
  0
LINE
  5
5FE8C
330
1F
100
AcDbEntity
  8
freecads.com
100
AcDbLine
 10
104448.2940164508
 20
95263.43950810142
 30
0.0
 11
104448.2878634084
 21
95263.43701535523
 31
0.0
  0
LINE
  5
5FE8D
330
1F
100
AcDbEntity
  8
freecads.com
100
AcDbLine
 10
104448.2878634084
 20
95263.43701535523
 30
0.0
 11
104448.2814892309
 21
95263.43409432801
 31
0.0
  0
LINE
  5
5FE8E
330
1F
100
AcDbEntity
  8
freecads.com
100
AcDbLine
 10
104448.2814892309
 20
95263.43409432801
 30
0.0
 11
104448.2763267228
 21
95263.43156983736
 31
0.0
  0
LINE
  5
5FE8F
330
1F
100
AcDbEntity
  8
freecads.com
100
AcDbLine
 10
104448.2763267228
 20
95263.43156983736
 30
0.0
 11
104448.271322937
 21
95263.42901037402
 31
0.0
  0
LINE
  5
5FE90
330
1F
100
AcDbEntity
  8
freecads.com
100
AcDbLine
 10
104448.271322937
 20
95263.42901037402
 30
0.0
 11
104448.2664757213
 21
95263.42641432385
 31
0.0
  0
LINE
  5
5FE91
330
1F
100
AcDbEntity
  8
freecads.com
100
AcDbLine
 10
104448.2664757213
 20
95263.42641432385
 30
0.0
 11
104448.2617850756
 21
95263.42378061078
 31
0.0
  0
LINE
  5
5FE92
330
1F
100
AcDbEntity
  8
freecads.com
100
AcDbLine
 10
104448.2617850756
 20
95263.42378061078
 30
0.0
 11
104448.2572488479
 21
95263.42110815875
 31
0.0
  0
LINE
  5
5FE93
330
1F
100
AcDbEntity
  8
freecads.com
100
AcDbLine
 10
104448.2572488479
 20
95263.42110815875
 30
0.0
 11
104448.2528665
 21
95263.41839589161
 31
0.0
  0
LINE
  5
5FE94
330
1F
100
AcDbEntity
  8
freecads.com
100
AcDbLine
 10
104448.2528665
 20
95263.41839589161
 30
0.0
 11
104448.2486374939
 21
95263.41564273334
 31
0.0
  0
LINE
  5
5FE95
330
1F
100
AcDbEntity
  8
freecads.com
100
AcDbLine
 10
104448.2486374939
 20
95263.41564273334
 30
0.0
 11
104448.2445591395
 21
95263.41284706978
 31
0.0
  0
LINE
  5
5FE96
330
1F
100
AcDbEntity
  8
freecads.com
100
AcDbLine
 10
104448.2445591395
 20
95263.41284706978
 30
0.0
 11
104448.2406314366
 21
95263.41000782487
 31
0.0
  0
LINE
  5
5FE97
330
1F
100
AcDbEntity
  8
freecads.com
100
AcDbLine
 10
104448.2406314366
 20
95263.41000782487
 30
0.0
 11
104448.2368533093
 21
95263.40712446055
 31
0.0
  0
LINE
  5
5FE98
330
1F
100
AcDbEntity
  8
freecads.com
100
AcDbLine
 10
104448.2368533093
 20
95263.40712446055
 30
0.0
 11
104448.2333205289
 21
95263.40402480355
 31
0.0
  0
LINE
  5
5FE99
330
1F
100
AcDbEntity
  8
freecads.com
100
AcDbLine
 10
104448.2333205289
 20
95263.40402480355
 30
0.0
 11
104448.2298447809
 21
95263.40082238064
 31
0.0
  0
LINE
  5
5FE9A
330
1F
100
AcDbEntity
  8
freecads.com
100
AcDbLine
 10
104448.2298447809
 20
95263.40082238064
 30
0.0
 11
104448.2264255273
 21
95263.39751880593
 31
0.0
  0
LINE
  5
5FE9B
330
1F
100
AcDbEntity
  8
freecads.com
100
AcDbLine
 10
104448.2264255273
 20
95263.39751880593
 30
0.0
 11
104448.2230638441
 21
95263.39411407942
 31
0.0
  0
LINE
  5
5FE9C
330
1F
100
AcDbEntity
  8
freecads.com
100
AcDbLine
 10
104448.2230638441
 20
95263.39411407942
 30
0.0
 11
104448.2197591933
 21
95263.39060820109
 31
0.0
  0
LINE
  5
5FE9D
330
1F
100
AcDbEntity
  8
freecads.com
100
AcDbLine
 10
104448.2197591933
 20
95263.39060820109
 30
0.0
 11
104448.2165110369
 21
95263.38700170903
 31
0.0
  0
LINE
  5
5FE9E
330
1F
100
AcDbEntity
  8
freecads.com
100
AcDbLine
 10
104448.2165110369
 20
95263.38700170903
 30
0.0
 11
104448.2133204509
 21
95263.38329567927
 31
0.0
  0
LINE
  5
5FE9F
330
1F
100
AcDbEntity
  8
freecads.com
100
AcDbLine
 10
104448.2133204509
 20
95263.38329567927
 30
0.0
 11
104448.2101863592
 21
95263.37949011187
 31
0.0
  0
LINE
  5
5FEA0
330
1F
100
AcDbEntity
  8
freecads.com
100
AcDbLine
 10
104448.2101863592
 20
95263.37949011187
 30
0.0
 11
104448.2071093
 21
95263.37558500676
 31
0.0
  0
LINE
  5
5FEA1
330
1F
100
AcDbEntity
  8
freecads.com
100
AcDbLine
 10
104448.2071093
 20
95263.37558500676
 30
0.0
 11
104448.2040892731
 21
95263.37158144007
 31
0.0
  0
LINE
  5
5FEA2
330
1F
100
AcDbEntity
  8
freecads.com
100
AcDbLine
 10
104448.2040892731
 20
95263.37158144007
 30
0.0
 11
104448.2011262787
 21
95263.36747941179
 31
0.0
  0
LINE
  5
5FEA3
330
1F
100
AcDbEntity
  8
freecads.com
100
AcDbLine
 10
104448.2011262787
 20
95263.36747941179
 30
0.0
 11
104448.1982203166
 21
95263.36327999802
 31
0.0
  0
LINE
  5
5FEA4
330
1F
100
AcDbEntity
  8
freecads.com
100
AcDbLine
 10
104448.1982203166
 20
95263.36327999802
 30
0.0
 11
104448.1953708489
 21
95263.35898266067
 31
0.0
  0
LINE
  5
5FEA5
330
1F
100
AcDbEntity
  8
freecads.com
100
AcDbLine
 10
104448.1953708489
 20
95263.35898266067
 30
0.0
 11
104448.1925789516
 21
95263.35458847588
 31
0.0
  0
LINE
  5
5FEA6
330
1F
100
AcDbEntity
  8
freecads.com
100
AcDbLine
 10
104448.1925789516
 20
95263.35458847588
 30
0.0
 11
104448.1898435487
 21
95263.35009798165
 31
0.0
  0
LINE
  5
5FEA7
330
1F
100
AcDbEntity
  8
freecads.com
100
AcDbLine
 10
104448.1898435487
 20
95263.35009798165
 30
0.0
 11
104448.1871657162
 21
95263.34551117798
 31
0.0
  0
LINE
  5
5FEA8
330
1F
100
AcDbEntity
  8
freecads.com
100
AcDbLine
 10
104448.1871657162
 20
95263.34551117798
 30
0.0
 11
104448.1845443781
 21
95263.34082860294
 31
0.0
  0
LINE
  5
5FEA9
330
1F
100
AcDbEntity
  8
freecads.com
100
AcDbLine
 10
104448.1845443781
 20
95263.34082860294
 30
0.0
 11
104448.1819800724
 21
95263.33605079456
 31
0.0
  0
LINE
  5
5FEAA
330
1F
100
AcDbEntity
  8
freecads.com
100
AcDbLine
 10
104448.1819800724
 20
95263.33605079456
 30
0.0
 11
104448.1794727991
 21
95263.33117775283
 31
0.0
  0
LINE
  5
5FEAB
330
1F
100
AcDbEntity
  8
freecads.com
100
AcDbLine
 10
104448.1794727991
 20
95263.33117775283
 30
0.0
 11
104448.1770225582
 21
95263.32621055384
 31
0.0
  0
LINE
  5
5FEAC
330
1F
100
AcDbEntity
  8
freecads.com
100
AcDbLine
 10
104448.1770225582
 20
95263.32621055384
 30
0.0
 11
104448.1770225582
 21
95263.32621055384
 31
0.0
  0
LINE
  5
5FEAD
330
1F
100
AcDbEntity
  8
freecads.com
100
AcDbLine
 10
104448.1770225582
 20
95263.32621055384
 30
0.0
 11
104448.1744092907
 21
95263.32065312336
 31
0.0
  0
LINE
  5
5FEAE
330
1F
100
AcDbEntity
  8
freecads.com
100
AcDbLine
 10
104448.1744092907
 20
95263.32065312336
 30
0.0
 11
104448.1719504411
 21
95263.31518715991
 31
0.0
  0
LINE
  5
5FEAF
330
1F
100
AcDbEntity
  8
freecads.com
100
AcDbLine
 10
104448.1719504411
 20
95263.31518715991
 30
0.0
 11
104448.1696460094
 21
95263.30981266353
 31
0.0
  0
LINE
  5
5FEB0
330
1F
100
AcDbEntity
  8
freecads.com
100
AcDbLine
 10
104448.1696460094
 20
95263.30981266353
 30
0.0
 11
104448.1674959957
 21
95263.30452963419
 31
0.0
  0
LINE
  5
5FEB1
330
1F
100
AcDbEntity
  8
freecads.com
100
AcDbLine
 10
104448.1674959957
 20
95263.30452963419
 30
0.0
 11
104448.1654998618
 21
95263.29933753386
 31
0.0
  0
LINE
  5
5FEB2
330
1F
100
AcDbEntity
  8
freecads.com
100
AcDbLine
 10
104448.1654998618
 20
95263.29933753386
 30
0.0
 11
104448.1636570697
 21
95263.29423743863
 31
0.0
  0
LINE
  5
5FEB3
330
1F
100
AcDbEntity
  8
freecads.com
100
AcDbLine
 10
104448.1636570697
 20
95263.29423743863
 30
0.0
 11
104448.1619681574
 21
95263.28922881045
 31
0.0
  0
LINE
  5
5FEB4
330
1F
100
AcDbEntity
  8
freecads.com
100
AcDbLine
 10
104448.1619681574
 20
95263.28922881045
 30
0.0
 11
104448.1604325871
 21
95263.28431164932
 31
0.0
  0
LINE
  5
5FEB5
330
1F
100
AcDbEntity
  8
freecads.com
100
AcDbLine
 10
104448.1604325871
 20
95263.28431164932
 30
0.0
 11
104448.1590503585
 21
95263.27948541721
 31
0.0
  0
LINE
  5
5FEB6
330
1F
100
AcDbEntity
  8
freecads.com
100
AcDbLine
 10
104448.1590503585
 20
95263.27948541721
 30
0.0
 11
104448.1578209337
 21
95263.27475119018
 31
0.0
  0
LINE
  5
5FEB7
330
1F
100
AcDbEntity
  8
freecads.com
100
AcDbLine
 10
104448.1578209337
 20
95263.27475119018
 30
0.0
 11
104448.1567443127
 21
95263.27010789216
 31
0.0
  0
LINE
  5
5FEB8
330
1F
100
AcDbEntity
  8
freecads.com
100
AcDbLine
 10
104448.1567443127
 20
95263.27010789216
 30
0.0
 11
104448.1558204954
 21
95263.26555659924
 31
0.0
  0
LINE
  5
5FEB9
330
1F
100
AcDbEntity
  8
freecads.com
100
AcDbLine
 10
104448.1558204954
 20
95263.26555659924
 30
0.0
 11
104448.155048944
 21
95263.2610967734
 31
0.0
  0
LINE
  5
5FEBA
330
1F
100
AcDbEntity
  8
freecads.com
100
AcDbLine
 10
104448.155048944
 20
95263.2610967734
 30
0.0
 11
104448.1544296582
 21
95263.25672787653
 31
0.0
  0
LINE
  5
5FEBB
330
1F
100
AcDbEntity
  8
freecads.com
100
AcDbLine
 10
104448.1544296582
 20
95263.25672787653
 30
0.0
 11
104448.1539626382
 21
95263.25245098478
 31
0.0
  0
LINE
  5
5FEBC
330
1F
100
AcDbEntity
  8
freecads.com
100
AcDbLine
 10
104448.1539626382
 20
95263.25245098478
 30
0.0
 11
104448.1536473459
 21
95263.24826556006
 31
0.0
  0
LINE
  5
5FEBD
330
1F
100
AcDbEntity
  8
freecads.com
100
AcDbLine
 10
104448.1536473459
 20
95263.24826556006
 30
0.0
 11
104448.1534837813
 21
95263.24417106437
 31
0.0
  0
LINE
  5
5FEBE
330
1F
100
AcDbEntity
  8
freecads.com
100
AcDbLine
 10
104448.1534837813
 20
95263.24417106437
 30
0.0
 11
104448.1534714063
 21
95263.24016857376
 31
0.0
  0
LINE
  5
5FEBF
330
1F
100
AcDbEntity
  8
freecads.com
100
AcDbLine
 10
104448.1534714063
 20
95263.24016857376
 30
0.0
 11
104448.1531717172
 21
95263.2368709175
 31
0.0
  0
LINE
  5
5FEC0
330
1F
100
AcDbEntity
  8
freecads.com
100
AcDbLine
 10
104448.1531717172
 20
95263.2368709175
 30
0.0
 11
104448.1522726499
 21
95263.234166721
 31
0.0
  0
LINE
  5
5FEC1
330
1F
100
AcDbEntity
  8
freecads.com
100
AcDbLine
 10
104448.1522726499
 20
95263.234166721
 30
0.0
 11
104448.1507752804
 21
95263.23205598425
 31
0.0
  0
LINE
  5
5FEC2
330
1F
100
AcDbEntity
  8
freecads.com
100
AcDbLine
 10
104448.1507752804
 20
95263.23205598425
 30
0.0
 11
104448.148681223
 21
95263.23053870727
 31
0.0
  0
LINE
  5
5FEC3
330
1F
100
AcDbEntity
  8
freecads.com
100
AcDbLine
 10
104448.148681223
 20
95263.23053870727
 30
0.0
 11
104448.1459904775
 21
95263.22961489004
 31
0.0
  0
LINE
  5
5FEC4
330
1F
100
AcDbEntity
  8
freecads.com
100
AcDbLine
 10
104448.1459904775
 20
95263.22961489004
 30
0.0
 11
104448.1427051962
 21
95263.22928399453
 31
0.0
  0
LINE
  5
5FEC5
330
1F
100
AcDbEntity
  8
freecads.com
100
AcDbLine
 10
104448.1427051962
 20
95263.22928399453
 30
0.0
 11
104448.1388264552
 21
95263.2295470968
 31
0.0
  0
LINE
  5
5FEC6
330
1F
100
AcDbEntity
  8
freecads.com
100
AcDbLine
 10
104448.1388264552
 20
95263.2295470968
 30
0.0
 11
104448.1343542543
 21
95263.23040365886
 31
0.0
  0
LINE
  5
5FEC7
330
1F
100
AcDbEntity
  8
freecads.com
100
AcDbLine
 10
104448.1343542543
 20
95263.23040365886
 30
0.0
 11
104448.1292902079
 21
95263.23185368065
 31
0.0
  0
LINE
  5
5FEC8
330
1F
100
AcDbEntity
  8
freecads.com
100
AcDbLine
 10
104448.1292902079
 20
95263.23185368065
 30
0.0
 11
104448.1236353919
 21
95263.23389662419
 31
0.0
  0
LINE
  5
5FEC9
330
1F
100
AcDbEntity
  8
freecads.com
100
AcDbLine
 10
104448.1236353919
 20
95263.23389662419
 30
0.0
 11
104448.1173908824
 21
95263.23653356548
 31
0.0
  0
LINE
  5
5FECA
330
1F
100
AcDbEntity
  8
freecads.com
100
AcDbLine
 10
104448.1173908824
 20
95263.23653356548
 30
0.0
 11
104448.1105577556
 21
95263.23976396655
 31
0.0
  0
LINE
  5
5FECB
330
1F
100
AcDbEntity
  8
freecads.com
100
AcDbLine
 10
104448.1105577556
 20
95263.23976396655
 30
0.0
 11
104448.1031370874
 21
95263.24358728935
 31
0.0
  0
LINE
  5
5FECC
330
1F
100
AcDbEntity
  8
freecads.com
100
AcDbLine
 10
104448.1031370874
 20
95263.24358728935
 30
0.0
 11
104448.095052476
 21
95263.24788032237
 31
0.0
  0
LINE
  5
5FECD
330
1F
100
AcDbEntity
  8
freecads.com
100
AcDbLine
 10
104448.095052476
 20
95263.24788032237
 30
0.0
 11
104448.0876086721
 21
95263.25192693237
 31
0.0
  0
LINE
  5
5FECE
330
1F
100
AcDbEntity
  8
freecads.com
100
AcDbLine
 10
104448.0876086721
 20
95263.25192693237
 30
0.0
 11
104448.0808045995
 21
95263.25572550524
 31
0.0
  0
LINE
  5
5FECF
330
1F
100
AcDbEntity
  8
freecads.com
100
AcDbLine
 10
104448.0808045995
 20
95263.25572550524
 30
0.0
 11
104448.0746391821
 21
95263.25927496491
 31
0.0
  0
LINE
  5
5FED0
330
1F
100
AcDbEntity
  8
freecads.com
100
AcDbLine
 10
104448.0746391821
 20
95263.25927496491
 30
0.0
 11
104448.06911242
 21
95263.26257315922
 31
0.0
  0
LINE
  5
5FED1
330
1F
100
AcDbEntity
  8
freecads.com
100
AcDbLine
 10
104448.06911242
 20
95263.26257315922
 30
0.0
 11
104448.064223237
 21
95263.26562008815
 31
0.0
  0
LINE
  5
5FED2
330
1F
100
AcDbEntity
  8
freecads.com
100
AcDbLine
 10
104448.064223237
 20
95263.26562008815
 30
0.0
 11
104448.0599710952
 21
95263.26841306149
 31
0.0
  0
LINE
  5
5FED3
330
1F
100
AcDbEntity
  8
freecads.com
100
AcDbLine
 10
104448.0599710952
 20
95263.26841306149
 30
0.0
 11
104448.0563559944
 21
95263.27095207925
 31
0.0
  0
LINE
  5
5FED4
330
1F
100
AcDbEntity
  8
freecads.com
100
AcDbLine
 10
104448.0563559944
 20
95263.27095207925
 30
0.0
 11
104448.0533757827
 21
95263.27323498927
 31
0.0
  0
LINE
  5
5FED5
330
1F
100
AcDbEntity
  8
freecads.com
100
AcDbLine
 10
104448.0533757827
 20
95263.27323498927
 30
0.0
 11
104448.0510309979
 21
95263.27526017743
 31
0.0
  0
LINE
  5
5FED6
330
1F
100
AcDbEntity
  8
freecads.com
100
AcDbLine
 10
104448.0510309979
 20
95263.27526017743
 30
0.0
 11
104448.049320564
 21
95263.27702764371
 31
0.0
  0
LINE
  5
5FED7
330
1F
100
AcDbEntity
  8
freecads.com
100
AcDbLine
 10
104448.049320564
 20
95263.27702764371
 30
0.0
 11
104448.048243943
 21
95263.27853469791
 31
0.0
  0
LINE
  5
5FED8
330
1F
100
AcDbEntity
  8
freecads.com
100
AcDbLine
 10
104448.048243943
 20
95263.27853469791
 30
0.0
 11
104448.0467428072
 21
95263.28397053102
 31
0.0
  0
LINE
  5
5FED9
330
1F
100
AcDbEntity
  8
freecads.com
100
AcDbLine
 10
104448.0467428072
 20
95263.28397053102
 30
0.0
 11
104448.0452583508
 21
95263.28933857092
 31
0.0
  0
LINE
  5
5FEDA
330
1F
100
AcDbEntity
  8
freecads.com
100
AcDbLine
 10
104448.0452583508
 20
95263.28933857092
 30
0.0
 11
104448.0437905736
 21
95263.29463881758
 31
0.0
  0
LINE
  5
5FEDB
330
1F
100
AcDbEntity
  8
freecads.com
100
AcDbLine
 10
104448.0437905736
 20
95263.29463881758
 30
0.0
 11
104448.0423400138
 21
95263.29987180906
 31
0.0
  0
LINE
  5
5FEDC
330
1F
100
AcDbEntity
  8
freecads.com
100
AcDbLine
 10
104448.0423400138
 20
95263.29987180906
 30
0.0
 11
104448.0409055952
 21
95263.3050370073
 31
0.0
  0
LINE
  5
5FEDD
330
1F
100
AcDbEntity
  8
freecads.com
100
AcDbLine
 10
104448.0409055952
 20
95263.3050370073
 30
0.0
 11
104448.0394873178
 21
95263.31013548841
 31
0.0
  0
LINE
  5
5FEDE
330
1F
100
AcDbEntity
  8
freecads.com
100
AcDbLine
 10
104448.0394873178
 20
95263.31013548841
 30
0.0
 11
104448.0380857197
 21
95263.31516725239
 31
0.0
  0
LINE
  5
5FEDF
330
1F
100
AcDbEntity
  8
freecads.com
100
AcDbLine
 10
104448.0380857197
 20
95263.31516725239
 30
0.0
 11
104448.0366997249
 21
95263.32013283724
 31
0.0
  0
LINE
  5
5FEE0
330
1F
100
AcDbEntity
  8
freecads.com
100
AcDbLine
 10
104448.0366997249
 20
95263.32013283724
 30
0.0
 11
104448.0353298713
 21
95263.32503224299
 31
0.0
  0
LINE
  5
5FEE1
330
1F
100
AcDbEntity
  8
freecads.com
100
AcDbLine
 10
104448.0353298713
 20
95263.32503224299
 30
0.0
 11
104448.0339761589
 21
95263.3298660077
 31
0.0
  0
LINE
  5
5FEE2
330
1F
100
AcDbEntity
  8
freecads.com
100
AcDbLine
 10
104448.0339761589
 20
95263.3298660077
 30
0.0
 11
104448.0326375117
 21
95263.33463359328
 31
0.0
  0
LINE
  5
5FEE3
330
1F
100
AcDbEntity
  8
freecads.com
100
AcDbLine
 10
104448.0326375117
 20
95263.33463359328
 30
0.0
 11
104448.0313150057
 21
95263.33933661391
 31
0.0
  0
LINE
  5
5FEE4
330
1F
100
AcDbEntity
  8
freecads.com
100
AcDbLine
 10
104448.0313150057
 20
95263.33933661391
 30
0.0
 11
104448.0300075649
 21
95263.34397453151
 31
0.0
  0
LINE
  5
5FEE5
330
1F
100
AcDbEntity
  8
freecads.com
100
AcDbLine
 10
104448.0300075649
 20
95263.34397453151
 30
0.0
 11
104448.0287151893
 21
95263.34854788412
 31
0.0
  0
LINE
  5
5FEE6
330
1F
100
AcDbEntity
  8
freecads.com
100
AcDbLine
 10
104448.0287151893
 20
95263.34854788412
 30
0.0
 11
104448.0274384168
 21
95263.35305667176
 31
0.0
  0
LINE
  5
5FEE7
330
1F
100
AcDbEntity
  8
freecads.com
100
AcDbLine
 10
104448.0274384168
 20
95263.35305667176
 30
0.0
 11
104448.0261761715
 21
95263.35750143248
 31
0.0
  0
LINE
  5
5FEE8
330
1F
100
AcDbEntity
  8
freecads.com
100
AcDbLine
 10
104448.0261761715
 20
95263.35750143248
 30
0.0
 11
104448.0249289913
 21
95263.36188216625
 31
0.0
  0
LINE
  5
5FEE9
330
1F
100
AcDbEntity
  8
freecads.com
100
AcDbLine
 10
104448.0249289913
 20
95263.36188216625
 30
0.0
 11
104448.0236963383
 21
95263.3661994111
 31
0.0
  0
LINE
  5
5FEEA
330
1F
100
AcDbEntity
  8
freecads.com
100
AcDbLine
 10
104448.0236963383
 20
95263.3661994111
 30
0.0
 11
104448.0224782124
 21
95263.37045370512
 31
0.0
  0
LINE
  5
5FEEB
330
1F
100
AcDbEntity
  8
freecads.com
100
AcDbLine
 10
104448.0224782124
 20
95263.37045370512
 30
0.0
 11
104448.0212740755
 21
95263.37464504829
 31
0.0
  0
LINE
  5
5FEEC
330
1F
100
AcDbEntity
  8
freecads.com
100
AcDbLine
 10
104448.0212740755
 20
95263.37464504829
 30
0.0
 11
104448.0197837006
 21
95263.37945567721
 31
0.0
  0
LINE
  5
5FEED
330
1F
100
AcDbEntity
  8
freecads.com
100
AcDbLine
 10
104448.0197837006
 20
95263.37945567721
 30
0.0
 11
104448.0181270709
 21
95263.38416730649
 31
0.0
  0
LINE
  5
5FEEE
330
1F
100
AcDbEntity
  8
freecads.com
100
AcDbLine
 10
104448.0181270709
 20
95263.38416730649
 30
0.0
 11
104448.0163047244
 21
95263.3887793981
 31
0.0
  0
LINE
  5
5FEEF
330
1F
100
AcDbEntity
  8
freecads.com
100
AcDbLine
 10
104448.0163047244
 20
95263.3887793981
 30
0.0
 11
104448.014315585
 21
95263.39329141398
 31
0.0
  0
LINE
  5
5FEF0
330
1F
100
AcDbEntity
  8
freecads.com
100
AcDbLine
 10
104448.014315585
 20
95263.39329141398
 30
0.0
 11
104448.0121601908
 21
95263.39770281612
 31
0.0
  0
LINE
  5
5FEF1
330
1F
100
AcDbEntity
  8
freecads.com
100
AcDbLine
 10
104448.0121601908
 20
95263.39770281612
 30
0.0
 11
104448.0098380038
 21
95263.40201414253
 31
0.0
  0
LINE
  5
5FEF2
330
1F
100
AcDbEntity
  8
freecads.com
100
AcDbLine
 10
104448.0098380038
 20
95263.40201414253
 30
0.0
 11
104448.0073490238
 21
95263.40622324106
 31
0.0
  0
LINE
  5
5FEF3
330
1F
100
AcDbEntity
  8
freecads.com
100
AcDbLine
 10
104448.0073490238
 20
95263.40622324106
 30
0.0
 11
104448.004692175
 21
95263.4103311878
 31
0.0
  0
LINE
  5
5FEF4
330
1F
100
AcDbEntity
  8
freecads.com
100
AcDbLine
 10
104448.004692175
 20
95263.4103311878
 30
0.0
 11
104448.0018685333
 21
95263.41433636861
 31
0.0
  0
LINE
  5
5FEF5
330
1F
100
AcDbEntity
  8
freecads.com
100
AcDbLine
 10
104448.0018685333
 20
95263.41433636861
 30
0.0
 11
104447.9988764846
 21
95263.41823932154
 31
0.0
  0
LINE
  5
5FEF6
330
1F
100
AcDbEntity
  8
freecads.com
100
AcDbLine
 10
104447.9988764846
 20
95263.41823932154
 30
0.0
 11
104447.995717105
 21
95263.42203843245
 31
0.0
  0
LINE
  5
5FEF7
330
1F
100
AcDbEntity
  8
freecads.com
100
AcDbLine
 10
104447.995717105
 20
95263.42203843245
 30
0.0
 11
104447.9923893184
 21
95263.42573423942
 31
0.0
  0
LINE
  5
5FEF8
330
1F
100
AcDbEntity
  8
freecads.com
100
AcDbLine
 10
104447.9923893184
 20
95263.42573423942
 30
0.0
 11
104447.9888931248
 21
95263.42932566633
 31
0.0
  0
LINE
  5
5FEF9
330
1F
100
AcDbEntity
  8
freecads.com
100
AcDbLine
 10
104447.9888931248
 20
95263.42932566633
 30
0.0
 11
104447.9852279863
 21
95263.43281271319
 31
0.0
  0
LINE
  5
5FEFA
330
1F
100
AcDbEntity
  8
freecads.com
100
AcDbLine
 10
104447.9852279863
 20
95263.43281271319
 30
0.0
 11
104447.9813944407
 21
95263.43619484197
 31
0.0
  0
LINE
  5
5FEFB
330
1F
100
AcDbEntity
  8
freecads.com
100
AcDbLine
 10
104447.9813944407
 20
95263.43619484197
 30
0.0
 11
104447.977391412
 21
95263.43947097656
 31
0.0
  0
LINE
  5
5FEFC
330
1F
100
AcDbEntity
  8
freecads.com
100
AcDbLine
 10
104447.977391412
 20
95263.43947097656
 30
0.0
 11
104447.9732189003
 21
95263.44264165503
 31
0.0
  0
LINE
  5
5FEFD
330
1F
100
AcDbEntity
  8
freecads.com
100
AcDbLine
 10
104447.9732189003
 20
95263.44264165503
 30
0.0
 11
104447.9673800741
 21
95263.44593500695
 31
0.0
  0
LINE
  5
5FEFE
330
1F
100
AcDbEntity
  8
freecads.com
100
AcDbLine
 10
104447.9673800741
 20
95263.44593500695
 30
0.0
 11
104447.962722787
 21
95263.44821415069
 31
0.0
  0
LINE
  5
5FEFF
330
1F
100
AcDbEntity
  8
freecads.com
100
AcDbLine
 10
104447.962722787
 20
95263.44821415069
 30
0.0
 11
104447.9591641807
 21
95263.44947962426
 31
0.0
  0
LINE
  5
5FF00
330
1F
100
AcDbEntity
  8
freecads.com
100
AcDbLine
 10
104447.9591641807
 20
95263.44947962426
 30
0.0
 11
104447.9614363299
 21
95263.44972604725
 31
0.0
  0
LINE
  5
5FF01
330
1F
100
AcDbEntity
  8
freecads.com
100
AcDbLine
 10
104447.9614363299
 20
95263.44972604725
 30
0.0
 11
104447.9636665118
 21
95263.45119651464
 31
0.0
  0
LINE
  5
5FF02
330
1F
100
AcDbEntity
  8
freecads.com
100
AcDbLine
 10
104447.9636665118
 20
95263.45119651464
 30
0.0
 11
104447.9658116832
 21
95263.4538495972
 31
0.0
  0
LINE
  5
5FF03
330
1F
100
AcDbEntity
  8
freecads.com
100
AcDbLine
 10
104447.9658116832
 20
95263.4538495972
 30
0.0
 11
104447.971762422
 21
95263.45759867025
 31
0.0
  0
LINE
  5
5FF04
330
1F
100
AcDbEntity
  8
freecads.com
100
AcDbLine
 10
104447.971762422
 20
95263.45759867025
 30
0.0
 11
104447.971762422
 21
95263.45978634694
 31
0.0
  0
LINE
  5
5FF05
330
1F
100
AcDbEntity
  8
freecads.com
100
AcDbLine
 10
104447.971762422
 20
95263.45978634694
 30
0.0
 11
104447.9658116832
 21
95263.4604965617
 31
0.0
  0
LINE
  5
5FF06
330
1F
100
AcDbEntity
  8
freecads.com
100
AcDbLine
 10
104447.9658116832
 20
95263.4604965617
 30
0.0
 11
104447.9620061158
 21
95263.46436561802
 31
0.0
  0
LINE
  5
5FF07
330
1F
100
AcDbEntity
  8
freecads.com
100
AcDbLine
 10
104447.9620061158
 20
95263.46436561802
 30
0.0
 11
104447.9570179332
 21
95263.46688472825
 31
0.0
  0
LINE
  5
5FF08
330
1F
100
AcDbEntity
  8
freecads.com
100
AcDbLine
 10
104447.9570179332
 20
95263.46688472825
 30
0.0
 11
104447.9508057062
 21
95263.46809478354
 31
0.0
  0
LINE
  5
5FF09
330
1F
100
AcDbEntity
  8
freecads.com
100
AcDbLine
 10
104447.9508057062
 20
95263.46809478354
 30
0.0
 11
104447.9444116212
 21
95263.46867156401
 31
0.0
  0
LINE
  5
5FF0A
330
1F
100
AcDbEntity
  8
freecads.com
100
AcDbLine
 10
104447.9444116212
 20
95263.46867156401
 30
0.0
 11
104447.9385232952
 21
95263.46929031172
 31
0.0
  0
LINE
  5
5FF0B
330
1F
100
AcDbEntity
  8
freecads.com
100
AcDbLine
 10
104447.9385232952
 20
95263.46929031172
 30
0.0
 11
104447.9331412662
 21
95263.4699929939
 31
0.0
  0
LINE
  5
5FF0C
330
1F
100
AcDbEntity
  8
freecads.com
100
AcDbLine
 10
104447.9331412662
 20
95263.4699929939
 30
0.0
 11
104447.9339714642
 21
95263.47261002767
 31
0.0
  0
LINE
  5
5FF0D
330
1F
100
AcDbEntity
  8
freecads.com
100
AcDbLine
 10
104447.9339714642
 20
95263.47261002767
 30
0.0
 11
104447.9387697182
 21
95263.47370763231
 31
0.0
  0
LINE
  5
5FF0E
330
1F
100
AcDbEntity
  8
freecads.com
100
AcDbLine
 10
104447.9387697182
 20
95263.47370763231
 30
0.0
 11
104447.9475774573
 21
95263.4734117095
 31
0.0
  0
LINE
  5
5FF0F
330
1F
100
AcDbEntity
  8
freecads.com
100
AcDbLine
 10
104447.9475774573
 20
95263.4734117095
 30
0.0
 11
104447.9549846744
 21
95263.47301678704
 31
0.0
  0
LINE
  5
5FF10
330
1F
100
AcDbEntity
  8
freecads.com
100
AcDbLine
 10
104447.9549846744
 20
95263.47301678704
 30
0.0
 11
104447.9612528577
 21
95263.47353061666
 31
0.0
  0
LINE
  5
5FF11
330
1F
100
AcDbEntity
  8
freecads.com
100
AcDbLine
 10
104447.9612528577
 20
95263.47353061666
 30
0.0
 11
104447.9663814692
 21
95263.47493490494
 31
0.0
  0
LINE
  5
5FF12
330
1F
100
AcDbEntity
  8
freecads.com
100
AcDbLine
 10
104447.9663814692
 20
95263.47493490494
 30
0.0
 11
104447.9703699707
 21
95263.47721189651
 31
0.0
  0
LINE
  5
5FF13
330
1F
100
AcDbEntity
  8
freecads.com
100
AcDbLine
 10
104447.9703699707
 20
95263.47721189651
 30
0.0
 11
104447.9727201359
 21
95263.4786113424
 31
0.0
  0
LINE
  5
5FF14
330
1F
100
AcDbEntity
  8
freecads.com
100
AcDbLine
 10
104447.9727201359
 20
95263.4786113424
 30
0.0
 11
104447.9737187409
 21
95263.48055905257
 31
0.0
  0
LINE
  5
5FF15
330
1F
100
AcDbEntity
  8
freecads.com
100
AcDbLine
 10
104447.9737187409
 20
95263.48055905257
 30
0.0
 11
104447.9734099051
 21
95263.48309860837
 31
0.0
  0
LINE
  5
5FF16
330
1F
100
AcDbEntity
  8
freecads.com
100
AcDbLine
 10
104447.9734099051
 20
95263.48309860837
 30
0.0
 11
104447.9727685596
 21
95263.48582109829
 31
0.0
  0
LINE
  5
5FF17
330
1F
100
AcDbEntity
  8
freecads.com
100
AcDbLine
 10
104447.9727685596
 20
95263.48582109829
 30
0.0
 11
104447.9727190598
 21
95263.48829070871
 31
0.0
  0
LINE
  5
5FF18
330
1F
100
AcDbEntity
  8
freecads.com
100
AcDbLine
 10
104447.9727190598
 20
95263.48829070871
 30
0.0
 11
104447.9732189003
 21
95263.49050582549
 31
0.0
  0
LINE
  5
5FF19
330
1F
100
AcDbEntity
  8
freecads.com
100
AcDbLine
 10
104447.9732189003
 20
95263.49050582549
 30
0.0
 11
104447.9708762677
 21
95263.49527610129
 31
0.0
  0
LINE
  5
5FF1A
330
1F
100
AcDbEntity
  8
freecads.com
100
AcDbLine
 10
104447.9708762677
 20
95263.49527610129
 30
0.0
 11
104447.9684071953
 21
95263.49675356321
 31
0.0
  0
LINE
  5
5FF1B
330
1F
100
AcDbEntity
  8
freecads.com
100
AcDbLine
 10
104447.9684071953
 20
95263.49675356321
 30
0.0
 11
104447.9658116832
 21
95263.495064651
 31
0.0
  0
LINE
  5
5FF1C
330
1F
100
AcDbEntity
  8
freecads.com
100
AcDbLine
 10
104447.9658116832
 20
95263.495064651
 30
0.0
 11
104447.9674510956
 21
95263.50126988345
 31
0.0
  0
LINE
  5
5FF1D
330
1F
100
AcDbEntity
  8
freecads.com
100
AcDbLine
 10
104447.9674510956
 20
95263.50126988345
 30
0.0
 11
104447.9662620239
 21
95263.50430874174
 31
0.0
  0
LINE
  5
5FF1E
330
1F
100
AcDbEntity
  8
freecads.com
100
AcDbLine
 10
104447.9662620239
 20
95263.50430874174
 30
0.0
 11
104447.9622019629
 21
95263.50418176395
 31
0.0
  0
LINE
  5
5FF1F
330
1F
100
AcDbEntity
  8
freecads.com
100
AcDbLine
 10
104447.9622019629
 20
95263.50418176395
 30
0.0
 11
104447.9572643562
 21
95263.50259238942
 31
0.0
  0
LINE
  5
5FF20
330
1F
100
AcDbEntity
  8
freecads.com
100
AcDbLine
 10
104447.9572643562
 20
95263.50259238942
 30
0.0
 11
104447.953085388
 21
95263.50121392713
 31
0.0
  0
LINE
  5
5FF21
330
1F
100
AcDbEntity
  8
freecads.com
100
AcDbLine
 10
104447.953085388
 20
95263.50121392713
 30
0.0
 11
104447.9496661343
 21
95263.50000440986
 31
0.0
  0
LINE
  5
5FF22
330
1F
100
AcDbEntity
  8
freecads.com
100
AcDbLine
 10
104447.9496661343
 20
95263.50000440986
 30
0.0
 11
104447.9491668318
 21
95263.50202314153
 31
0.0
  0
LINE
  5
5FF23
330
1F
100
AcDbEntity
  8
freecads.com
100
AcDbLine
 10
104447.9491668318
 20
95263.50202314153
 30
0.0
 11
104447.9488364744
 21
95263.50577221458
 31
0.0
  0
LINE
  5
5FF24
330
1F
100
AcDbEntity
  8
freecads.com
100
AcDbLine
 10
104447.9488364744
 20
95263.50577221458
 30
0.0
 11
104447.9487170292
 21
95263.51121019986
 31
0.0
  0
ENDSEC
  0
SECTION
  2
OBJECTS
  0
DICTIONARY
  5
C
330
0
100
AcDbDictionary
281
     1
  3
ACAD_ASSOCPERSSUBENTMANAGER
350
2C1D4
  3
ACAD_CIP_PREVIOUS_PRODUCT_INFO
350
1A5
  3
ACAD_COLOR
350
73
  3
ACAD_DETAILVIEWSTYLE
350
1AB
  3
ACAD_GROUP
350
D
  3
ACAD_LAYOUT
350
1A
  3
ACAD_MATERIAL
350
72
  3
ACAD_MLEADERSTYLE
350
D7
  3
ACAD_MLINESTYLE
350
17
  3
ACAD_PLOTSETTINGS
350
19
  3
ACAD_PLOTSTYLENAME
350
E
  3
ACAD_SCALELIST
350
B6
  3
ACAD_SECTIONVIEWSTYLE
350
1A8
  3
ACAD_TABLESTYLE
350
86
  3
ACAD_VISUALSTYLE
350
99
  3
ACDB_RECOMPOSE_DATA
350
6B281
  3
ACDBVARIABLEDICTIONARY
350
4A0D5
  3
AEC_PROPERTY_SET_DEFS
350
22D1
  0
DICTIONARY
  5
18E
330
2
100
AcDbDictionary
280
     1
281
     1
  3
ACAD_LAYERSTATES
360
18F
  0
DICTIONARY
  5
E6
330
10
100
AcDbDictionary
280
     1
281
     1
  0
DICTIONARY
  5
15D
330
1F
100
AcDbDictionary
280
     1
281
     1
  3
ACAD_SORTENTS
360
28E
  0
ACDBASSOCPERSSUBENTMANAGER
  5
2C1D4
102
{ACAD_REACTORS
330
C
102
}
330
C
100
AcDbAssocPersSubentManager
 90
        2
 90
        3
 90
        0
 90
        2
 90
     1260
 90
        0
 90
     1260
 90
        1
 90
        2
 90
        3
 90
        4
 90
        5
 90
        6
 90
        7
 90
        8
 90
        9
 90
       10
 90
       11
 90
       12
 90
       13
 90
       14
 90
       15
 90
       16
 90
       17
 90
       18
 90
       19
 90
       20
 90
       21
 90
       22
 90
       23
 90
       24
 90
       25
 90
       26
 90
       27
 90
       28
 90
       29
 90
       30
 90
       31
 90
       32
 90
       33
 90
       34
 90
       35
 90
       36
 90
       37
 90
       38
 90
       39
 90
       40
 90
       41
 90
       42
 90
       43
 90
       44
 90
       45
 90
       46
 90
       47
 90
       48
 90
       49
 90
       50
 90
       51
 90
       52
 90
       53
 90
       54
 90
       55
 90
       56
 90
       57
 90
       58
 90
       59
 90
       60
 90
       61
 90
       62
 90
       63
 90
       64
 90
       65
 90
       66
 90
       67
 90
       68
 90
       69
 90
       70
 90
       71
 90
       72
 90
       73
 90
       74
 90
       75
 90
       76
 90
       77
 90
       78
 90
       79
 90
       80
 90
       81
 90
       82
 90
       83
 90
       84
 90
       85
 90
       86
 90
       87
 90
       88
 90
       89
 90
       90
 90
       91
 90
       92
 90
       93
 90
       94
 90
       95
 90
       96
 90
       97
 90
       98
 90
       99
 90
      100
 90
      101
 90
      102
 90
      103
 90
      104
 90
      105
 90
      106
 90
      107
 90
      108
 90
      109
 90
      110
 90
      111
 90
      112
 90
      113
 90
      114
 90
      115
 90
      116
 90
      117
 90
      118
 90
      119
 90
      120
 90
      121
 90
      122
 90
      123
 90
      124
 90
      125
 90
      126
 90
      127
 90
      128
 90
      129
 90
      130
 90
      131
 90
      132
 90
      133
 90
      134
 90
      135
 90
      136
 90
      137
 90
      138
 90
      139
 90
      140
 90
      141
 90
      142
 90
      143
 90
      144
 90
      145
 90
      146
 90
      147
 90
      148
 90
      149
 90
      150
 90
      151
 90
      152
 90
      153
 90
      154
 90
      155
 90
      156
 90
      157
 90
      158
 90
      159
 90
      160
 90
      161
 90
      162
 90
      163
 90
      164
 90
      165
 90
      166
 90
      167
 90
      168
 90
      169
 90
      170
 90
      171
 90
      172
 90
      173
 90
      174
 90
      175
 90
      176
 90
      177
 90
      178
 90
      179
 90
      180
 90
      181
 90
      182
 90
      183
 90
      184
 90
      185
 90
      186
 90
      187
 90
      188
 90
      189
 90
      190
 90
      191
 90
      192
 90
      193
 90
      194
 90
      195
 90
      196
 90
      197
 90
      198
 90
      199
 90
      200
 90
      201
 90
      202
 90
      203
 90
      204
 90
      205
 90
      206
 90
      207
 90
      208
 90
      209
 90
      210
 90
      211
 90
      212
 90
      213
 90
      214
 90
      215
 90
      216
 90
      217
 90
      218
 90
      219
 90
      220
 90
      221
 90
      222
 90
      223
 90
      224
 90
      225
 90
      226
 90
      227
 90
      228
 90
      229
 90
      230
 90
      231
 90
      232
 90
      233
 90
      234
 90
      235
 90
      236
 90
      237
 90
      238
 90
      239
 90
      240
 90
      241
 90
      242
 90
      243
 90
      244
 90
      245
 90
      246
 90
      247
 90
      248
 90
      249
 90
      250
 90
      251
 90
      252
 90
      253
 90
      254
 90
      255
 90
      256
 90
      257
 90
      258
 90
      259
 90
      260
 90
      261
 90
      262
 90
      263
 90
      264
 90
      265
 90
      266
 90
      267
 90
      268
 90
      269
 90
      270
 90
      271
 90
      272
 90
      273
 90
      274
 90
      275
 90
      276
 90
      277
 90
      278
 90
      279
 90
      280
 90
      281
 90
      282
 90
      283
 90
      284
 90
      285
 90
      286
 90
      287
 90
      288
 90
      289
 90
      290
 90
      291
 90
      292
 90
      293
 90
      294
 90
      295
 90
      296
 90
      297
 90
      298
 90
      299
 90
      300
 90
      301
 90
      302
 90
      303
 90
      304
 90
      305
 90
      306
 90
      307
 90
      308
 90
      309
 90
      310
 90
      311
 90
      312
 90
      313
 90
      314
 90
      315
 90
      316
 90
      317
 90
      318
 90
      319
 90
      320
 90
      321
 90
      322
 90
      323
 90
      324
 90
      325
 90
      326
 90
      327
 90
      328
 90
      329
 90
      330
 90
      331
 90
      332
 90
      333
 90
      334
 90
      335
 90
      336
 90
      337
 90
      338
 90
      339
 90
      340
 90
      341
 90
      342
 90
      343
 90
      344
 90
      345
 90
      346
 90
      347
 90
      348
 90
      349
 90
      350
 90
      351
 90
      352
 90
      353
 90
      354
 90
      355
 90
      356
 90
      357
 90
      358
 90
      359
 90
      360
 90
      361
 90
      362
 90
      363
 90
      364
 90
      365
 90
      366
 90
      367
 90
      368
 90
      369
 90
      370
 90
      371
 90
      372
 90
      373
 90
      374
 90
      375
 90
      376
 90
      377
 90
      378
 90
      379
 90
      380
 90
      381
 90
      382
 90
      383
 90
      384
 90
      385
 90
      386
 90
      387
 90
      388
 90
      389
 90
      390
 90
      391
 90
      392
 90
      393
 90
      394
 90
      395
 90
      396
 90
      397
 90
      398
 90
      399
 90
      400
 90
      401
 90
      402
 90
      403
 90
      404
 90
      405
 90
      406
 90
      407
 90
      408
 90
      409
 90
      410
 90
      411
 90
      412
 90
      413
 90
      414
 90
      415
 90
      416
 90
      417
 90
      418
 90
      419
 90
      420
 90
      421
 90
      422
 90
      423
 90
      424
 90
      425
 90
      426
 90
      427
 90
      428
 90
      429
 90
      430
 90
      431
 90
      432
 90
      433
 90
      434
 90
      435
 90
      436
 90
      437
 90
      438
 90
      439
 90
      440
 90
      441
 90
      442
 90
      443
 90
      444
 90
      445
 90
      446
 90
      447
 90
      448
 90
      449
 90
      450
 90
      451
 90
      452
 90
      453
 90
      454
 90
      455
 90
      456
 90
      457
 90
      458
 90
      459
 90
      460
 90
      461
 90
      462
 90
      463
 90
      464
 90
      465
 90
      466
 90
      467
 90
      468
 90
      469
 90
      470
 90
      471
 90
      472
 90
      473
 90
      474
 90
      475
 90
      476
 90
      477
 90
      478
 90
      479
 90
      480
 90
      481
 90
      482
 90
      483
 90
      484
 90
      485
 90
      486
 90
      487
 90
      488
 90
      489
 90
      490
 90
      491
 90
      492
 90
      493
 90
      494
 90
      495
 90
      496
 90
      497
 90
      498
 90
      499
 90
      500
 90
      501
 90
      502
 90
      503
 90
      504
 90
      505
 90
      506
 90
      507
 90
      508
 90
      509
 90
      510
 90
      511
 90
      512
 90
      513
 90
      514
 90
      515
 90
      516
 90
      517
 90
      518
 90
      519
 90
      520
 90
      521
 90
      522
 90
      523
 90
      524
 90
      525
 90
      526
 90
      527
 90
      528
 90
      529
 90
      530
 90
      531
 90
      532
 90
      533
 90
      534
 90
      535
 90
      536
 90
      537
 90
      538
 90
      539
 90
      540
 90
      541
 90
      542
 90
      543
 90
      544
 90
      545
 90
      546
 90
      547
 90
      548
 90
      549
 90
      550
 90
      551
 90
      552
 90
      553
 90
      554
 90
      555
 90
      556
 90
      557
 90
      558
 90
      559
 90
      560
 90
      561
 90
      562
 90
      563
 90
      564
 90
      565
 90
      566
 90
      567
 90
      568
 90
      569
 90
      570
 90
      571
 90
      572
 90
      573
 90
      574
 90
      575
 90
      576
 90
      577
 90
      578
 90
      579
 90
      580
 90
      581
 90
      582
 90
      583
 90
      584
 90
      585
 90
      586
 90
      587
 90
      588
 90
      589
 90
      590
 90
      591
 90
      592
 90
      593
 90
      594
 90
      595
 90
      596
 90
      597
 90
      598
 90
      599
 90
      600
 90
      601
 90
      602
 90
      603
 90
      604
 90
      605
 90
      606
 90
      607
 90
      608
 90
      609
 90
      610
 90
      611
 90
      612
 90
      613
 90
      614
 90
      615
 90
      616
 90
      617
 90
      618
 90
      619
 90
      620
 90
      621
 90
      622
 90
      623
 90
      624
 90
      625
 90
      626
 90
      627
 90
      628
 90
      629
 90
      630
 90
      631
 90
      632
 90
      633
 90
      634
 90
      635
 90
      636
 90
      637
 90
      638
 90
      639
 90
      640
 90
      641
 90
      642
 90
      643
 90
      644
 90
      645
 90
      646
 90
      647
 90
      648
 90
      649
 90
      650
 90
      651
 90
      652
 90
      653
 90
      654
 90
      655
 90
      656
 90
      657
 90
      658
 90
      659
 90
      660
 90
      661
 90
      662
 90
      663
 90
      664
 90
      665
 90
      666
 90
      667
 90
      668
 90
      669
 90
      670
 90
      671
 90
      672
 90
      673
 90
      674
 90
      675
 90
      676
 90
      677
 90
      678
 90
      679
 90
      680
 90
      681
 90
      682
 90
      683
 90
      684
 90
      685
 90
      686
 90
      687
 90
      688
 90
      689
 90
      690
 90
      691
 90
      692
 90
      693
 90
      694
 90
      695
 90
      696
 90
      697
 90
      698
 90
      699
 90
      700
 90
      701
 90
      702
 90
      703
 90
      704
 90
      705
 90
      706
 90
      707
 90
      708
 90
      709
 90
      710
 90
      711
 90
      712
 90
      713
 90
      714
 90
      715
 90
      716
 90
      717
 90
      718
 90
      719
 90
      720
 90
      721
 90
      722
 90
      723
 90
      724
 90
      725
 90
      726
 90
      727
 90
      728
 90
      729
 90
      730
 90
      731
 90
      732
 90
      733
 90
      734
 90
      735
 90
      736
 90
      737
 90
      738
 90
      739
 90
      740
 90
      741
 90
      742
 90
      743
 90
      744
 90
      745
 90
      746
 90
      747
 90
      748
 90
      749
 90
      750
 90
      751
 90
      752
 90
      753
 90
      754
 90
      755
 90
      756
 90
      757
 90
      758
 90
      759
 90
      760
 90
      761
 90
      762
 90
      763
 90
      764
 90
      765
 90
      766
 90
      767
 90
      768
 90
      769
 90
      770
 90
      771
 90
      772
 90
      773
 90
      774
 90
      775
 90
      776
 90
      777
 90
      778
 90
      779
 90
      780
 90
      781
 90
      782
 90
      783
 90
      784
 90
      785
 90
      786
 90
      787
 90
      788
 90
      789
 90
      790
 90
      791
 90
      792
 90
      793
 90
      794
 90
      795
 90
      796
 90
      797
 90
      798
 90
      799
 90
      800
 90
      801
 90
      802
 90
      803
 90
      804
 90
      805
 90
      806
 90
      807
 90
      808
 90
      809
 90
      810
 90
      811
 90
      812
 90
      813
 90
      814
 90
      815
 90
      816
 90
      817
 90
      818
 90
      819
 90
      820
 90
      821
 90
      822
 90
      823
 90
      824
 90
      825
 90
      826
 90
      827
 90
      828
 90
      829
 90
      830
 90
      831
 90
      832
 90
      833
 90
      834
 90
      835
 90
      836
 90
      837
 90
      838
 90
      839
 90
      840
 90
      841
 90
      842
 90
      843
 90
      844
 90
      845
 90
      846
 90
      847
 90
      848
 90
      849
 90
      850
 90
      851
 90
      852
 90
      853
 90
      854
 90
      855
 90
      856
 90
      857
 90
      858
 90
      859
 90
      860
 90
      861
 90
      862
 90
      863
 90
      864
 90
      865
 90
      866
 90
      867
 90
      868
 90
      869
 90
      870
 90
      871
 90
      872
 90
      873
 90
      874
 90
      875
 90
      876
 90
      877
 90
      878
 90
      879
 90
      880
 90
      881
 90
      882
 90
      883
 90
      884
 90
      885
 90
      886
 90
      887
 90
      888
 90
      889
 90
      890
 90
      891
 90
      892
 90
      893
 90
      894
 90
      895
 90
      896
 90
      897
 90
      898
 90
      899
 90
      900
 90
      901
 90
      902
 90
      903
 90
      904
 90
      905
 90
      906
 90
      907
 90
      908
 90
      909
 90
      910
 90
      911
 90
      912
 90
      913
 90
      914
 90
      915
 90
      916
 90
      917
 90
      918
 90
      919
 90
      920
 90
      921
 90
      922
 90
      923
 90
      924
 90
      925
 90
      926
 90
      927
 90
      928
 90
      929
 90
      930
 90
      931
 90
      932
 90
      933
 90
      934
 90
      935
 90
      936
 90
      937
 90
      938
 90
      939
 90
      940
 90
      941
 90
      942
 90
      943
 90
      944
 90
      945
 90
      946
 90
      947
 90
      948
 90
      949
 90
      950
 90
      951
 90
      952
 90
      953
 90
      954
 90
      955
 90
      956
 90
      957
 90
      958
 90
      959
 90
      960
 90
      961
 90
      962
 90
      963
 90
      964
 90
      965
 90
      966
 90
      967
 90
      968
 90
      969
 90
      970
 90
      971
 90
      972
 90
      973
 90
      974
 90
      975
 90
      976
 90
      977
 90
      978
 90
      979
 90
      980
 90
      981
 90
      982
 90
      983
 90
      984
 90
      985
 90
      986
 90
      987
 90
      988
 90
      989
 90
      990
 90
      991
 90
      992
 90
      993
 90
      994
 90
      995
 90
      996
 90
      997
 90
      998
 90
      999
 90
     1000
 90
     1001
 90
     1002
 90
     1003
 90
     1004
 90
     1005
 90
     1006
 90
     1007
 90
     1008
 90
     1009
 90
     1010
 90
     1011
 90
     1012
 90
     1013
 90
     1014
 90
     1015
 90
     1016
 90
     1017
 90
     1018
 90
     1019
 90
     1020
 90
     1021
 90
     1022
 90
     1023
 90
     1024
 90
     1025
 90
     1026
 90
     1027
 90
     1028
 90
     1029
 90
     1030
 90
     1031
 90
     1032
 90
     1033
 90
     1034
 90
     1035
 90
     1036
 90
     1037
 90
     1038
 90
     1039
 90
     1040
 90
     1041
 90
     1042
 90
     1043
 90
     1044
 90
     1045
 90
     1046
 90
     1047
 90
     1048
 90
     1049
 90
     1050
 90
     1051
 90
     1052
 90
     1053
 90
     1054
 90
     1055
 90
     1056
 90
     1057
 90
     1058
 90
     1059
 90
     1060
 90
     1061
 90
     1062
 90
     1063
 90
     1064
 90
     1065
 90
     1066
 90
     1067
 90
     1068
 90
     1069
 90
     1070
 90
     1071
 90
     1072
 90
     1073
 90
     1074
 90
     1075
 90
     1076
 90
     1077
 90
     1078
 90
     1079
 90
     1080
 90
     1081
 90
     1082
 90
     1083
 90
     1084
 90
     1085
 90
     1086
 90
     1087
 90
     1088
 90
     1089
 90
     1090
 90
     1091
 90
     1092
 90
     1093
 90
     1094
 90
     1095
 90
     1096
 90
     1097
 90
     1098
 90
     1099
 90
     1100
 90
     1101
 90
     1102
 90
     1103
 90
     1104
 90
     1105
 90
     1106
 90
     1107
 90
     1108
 90
     1109
 90
     1110
 90
     1111
 90
     1112
 90
     1113
 90
     1114
 90
     1115
 90
     1116
 90
     1117
 90
     1118
 90
     1119
 90
     1120
 90
     1121
 90
     1122
 90
     1123
 90
     1124
 90
     1125
 90
     1126
 90
     1127
 90
     1128
 90
     1129
 90
     1130
 90
     1131
 90
     1132
 90
     1133
 90
     1134
 90
     1135
 90
     1136
 90
     1137
 90
     1138
 90
     1139
 90
     1140
 90
     1141
 90
     1142
 90
     1143
 90
     1144
 90
     1145
 90
     1146
 90
     1147
 90
     1148
 90
     1149
 90
     1150
 90
     1151
 90
     1152
 90
     1153
 90
     1154
 90
     1155
 90
     1156
 90
     1157
 90
     1158
 90
     1159
 90
     1160
 90
     1161
 90
     1162
 90
     1163
 90
     1164
 90
     1165
 90
     1166
 90
     1167
 90
     1168
 90
     1169
 90
     1170
 90
     1171
 90
     1172
 90
     1173
 90
     1174
 90
     1175
 90
     1176
 90
     1177
 90
     1178
 90
     1179
 90
     1180
 90
     1181
 90
     1182
 90
     1183
 90
     1184
 90
     1185
 90
     1186
 90
     1187
 90
     1188
 90
     1189
 90
     1190
 90
     1191
 90
     1192
 90
     1193
 90
     1194
 90
     1195
 90
     1196
 90
     1197
 90
     1198
 90
     1199
 90
     1200
 90
     1201
 90
     1202
 90
     1203
 90
     1204
 90
     1205
 90
     1206
 90
     1207
 90
     1208
 90
     1209
 90
     1210
 90
     1211
 90
     1212
 90
     1213
 90
     1214
 90
     1215
 90
     1216
 90
     1217
 90
     1218
 90
     1219
 90
     1220
 90
     1221
 90
     1222
 90
     1223
 90
     1224
 90
     1225
 90
     1226
 90
     1227
 90
     1228
 90
     1229
 90
     1230
 90
     1231
 90
     1232
 90
     1233
 90
     1234
 90
     1235
 90
     1236
 90
     1237
 90
     1238
 90
     1239
 90
     1240
 90
     1241
 90
     1242
 90
     1243
 90
     1244
 90
     1245
 90
     1246
 90
     1247
 90
     1248
 90
     1249
 90
     1250
 90
     1251
 90
     1252
 90
     1253
 90
     1254
 90
     1255
 90
     1256
 90
     1257
 90
     1258
 90
     1259
 90
     1260
 90
        0
 90
        0
290
     0
  0
XRECORD
  5
1A5
102
{ACAD_REACTORS
330
C
102
}
330
C
100
AcDbXrecord
280
     1
300
ACD
300
2022
300

  0
DICTIONARY
  5
73
102
{ACAD_REACTORS
330
C
102
}
330
C
100
AcDbDictionary
281
     1
  0
DICTIONARY
  5
1AB
102
{ACAD_REACTORS
330
C
102
}
330
C
100
AcDbDictionary
281
     1
  3
Imperial24
350
1AC
  3
Metric50
350
224
  0
DICTIONARY
  5
D
102
{ACAD_REACTORS
330
C
102
}
330
C
100
AcDbDictionary
281
     1
  0
DICTIONARY
  5
1A
102
{ACAD_REACTORS
330
C
102
}
330
C
100
AcDbDictionary
281
     1
  3
Layout1
350
59
  3
Layout2
350
5E
  3
Model
350
22
  0
DICTIONARY
  5
72
102
{ACAD_REACTORS
330
C
102
}
330
C
100
AcDbDictionary
281
     1
  3
ByBlock
350
97
  3
ByLayer
350
96
  3
Global
350
98
  0
DICTIONARY
  5
D7
102
{ACAD_REACTORS
330
C
102
}
330
C
100
AcDbDictionary
281
     1
  3
Standard
350
D8
  0
DICTIONARY
  5
17
102
{ACAD_REACTORS
330
C
102
}
330
C
100
AcDbDictionary
281
     1
  3
Standard
350
18
  0
DICTIONARY
  5
19
102
{ACAD_REACTORS
330
C
102
}
330
C
100
AcDbDictionary
281
     1
  0
ACDBDICTIONARYWDFLT
  5
E
102
{ACAD_REACTORS
330
C
102
}
330
C
100
AcDbDictionary
281
     1
  3
Normal
350
F
100
AcDbDictionaryWithDefault
340
F
  0
DICTIONARY
  5
B6
102
{ACAD_REACTORS
330
C
102
}
330
C
100
AcDbDictionary
281
     1
  3
*A1
350
2283
  3
A0
350
B7
  3
A1
350
124
  3
A2
350
125
  3
A3
350
126
  3
A4
350
127
  3
A5
350
128
  3
A6
350
129
  3
A7
350
12A
  3
A8
350
12B
  3
A9
350
12C
  3
B0
350
12D
  3
B1
350
12E
  3
B2
350
12F
  3
B3
350
130
  3
B4
350
131
  3
B5
350
132
  3
B6
350
133
  3
B7
350
134
  3
B8
350
135
  3
B9
350
136
  3
C0
350
137
  3
C1
350
138
  3
C2
350
139
  3
C3
350
13A
  3
C4
350
13B
  3
C5
350
13C
  3
C6
350
13D
  3
C7
350
13E
  3
C8
350
13F
  3
C9
350
140
  3
D0
350
141
  3
D1
350
142
  3
D2
350
143
  0
DICTIONARY
  5
1A8
102
{ACAD_REACTORS
330
C
102
}
330
C
100
AcDbDictionary
281
     1
  3
Imperial24
350
1AA
  3
Metric50
350
223
  0
DICTIONARY
  5
86
102
{ACAD_REACTORS
330
C
102
}
330
C
100
AcDbDictionary
281
     1
  3
Standard
350
87
  0
DICTIONARY
  5
99
102
{ACAD_REACTORS
330
C
102
}
330
C
100
AcDbDictionary
281
     1
  3
2dWireframe
350
9F
  3
3dWireframe
350
22946
  3
Basic
350
9E
  3
Brighten
350
A5
  3
ColorChange
350
A9
  3
Conceptual
350
A2
  3
Dim
350
A4
  3
EdgeColorOff
350
175
  3
Facepattern
350
A8
  3
Flat
350
9A
  3
FlatWithEdges
350
9B
  3
Gouraud
350
9C
  3
GouraudWithEdges
350
9D
  3
Hidden
350
A1
  3
JitterOff
350
173
  3
Linepattern
350
A7
  3
OverhangOff
350
174
  3
Realistic
350
A3
  3
Shaded
350
182
  3
Shaded with edges
350
181
  3
Shades of Gray
350
17E
  3
Sketchy
350
17F
  3
Thicken
350
A6
  3
Wireframe
350
A0
  3
X-Ray
350
180
  0
XRECORD
  5
6B281
102
{ACAD_REACTORS
330
C
102
}
330
C
100
AcDbXrecord
280
     1
 90
        1
330
87
  0
DICTIONARY
  5
4A0D5
102
{ACAD_REACTORS
330
C
102
}
330
C
100
AcDbDictionary
281
     2
  3
#COMPAREDIFFTOTAL
350
4A0D6
  3
#REVCLOUDAPPROXARCLEN
350
4A0D7
  3
ANNOALLVISIBLE
350
4A0D8
  3
CANNOSCALE
350
4A0D9
  3
CMLEADERSTYLE
350
4A0DA
  3
CTABLESTYLE
350
4A0DB
  3
CVIEWDETAILSTYLE
350
4A0DC
  3
CVIEWSECTIONSTYLE
350
4A0DD
  3
DIMADEC
350
4A0DE
  3
DIMASSOC
350
4A0DF
  3
DWFFRAME
350
4A0E0
  3
HIDETEXT
350
4A0E1
  3
HPCOLOR
350
4A0E2
  3
HPLAYER
350
4A0E3
  3
HPTRANSPARENCY
350
4A0E4
  3
INDEXCTL
350
4A0E5
  3
LAYEREVAL
350
4A0E6
  3
LAYERNOTIFY
350
4A0E7
  3
LIGHTINGUNITS
350
4A0E8
  3
MLEADERSCALE
350
4A0E9
  3
MSLTSCALE
350
4A0EA
  3
MSOLESCALE
350
4A0EB
  3
PDFFRAME
350
4A0EC
  3
POINTCLOUDCLIPFRAME
350
4A0ED
  3
PROJECTNAME
350
4A0EE
  3
SOLIDHIST
350
4A0EF
  3
SORTENTS
350
4A0F0
  0
DICTIONARY
  5
22D1
102
{ACAD_REACTORS
330
C
102
}
330
C
100
AcDbDictionary
281
     1
  0
DICTIONARY
  5
18F
102
{ACAD_REACTORS
330
18E
102
}
330
18E
100
AcDbDictionary
281
     1
  0
SORTENTSTABLE
  5
28E
102
{ACAD_REACTORS
330
15D
102
}
330
15D
100
AcDbSortentsTable
330
1F
  0
ACDBDETAILVIEWSTYLE
  5
1AC
102
{ACAD_REACTORS
330
1AB
102
}
330
1AB
100
AcDbModelDocViewStyle
 70
     0
  3
Imperial24
290
     0
300
Imperial24
 90
        0
100
AcDbDetailViewStyle
 70
     0
 71
     0
 90
        3
 71
     1
340
11
 62
   256
 40
0.24
340
0
 62
   256
 40
0.24
300

 40
0.36
280
     3
 71
     2
340
16
 90
       25
 62
   256
 71
     3
340
11
 62
   256
 40
0.24
 90
        1
 40
0.75
 90
        1
300
%<\AcVar ViewType \f "%tc1">% %<\AcVar ViewDetailId>%\PSCALE %<\AcVar ViewScale \f "%sn">%
 71
     4
340
16
 90
       25
 62
   256
340
16
 90
       25
 62
   256
280
     0
  0
ACDBDETAILVIEWSTYLE
  5
224
102
{ACAD_REACTORS
330
1AB
102
}
330
1AB
100
AcDbModelDocViewStyle
 70
     0
  3
Metric50
290
     0
300
Metric50
 90
        0
100
AcDbDetailViewStyle
 70
     0
 71
     0
 90
        3
 71
     1
340
11
 62
   256
 40
5.0
340
0
 62
   256
 40
5.0
300

 40
0.0
280
     1
 71
     2
340
16
 90
       25
 62
   256
 71
     3
340
11
 62
   256
 40
5.0
 90
        0
 40
15.0
 90
        1
300
%<\AcVar ViewDetailId>% (%<\AcVar ViewScale \f "%sn">%)
 71
     4
340
16
 90
       25
 62
   256
340
16
 90
       25
 62
   256
280
     0
  0
LAYOUT
  5
59
102
{ACAD_REACTORS
330
1A
102
}
330
1A
100
AcDbPlotSettings
  1

  2
None
  4

  6

 40
0.0
 41
0.0
 42
0.0
 43
0.0
 44
0.0
 45
0.0
 46
0.0
 47
0.0
 48
0.0
 49
0.0
140
0.0
141
0.0
142
1.0
143
1.0
 70
   688
 72
     0
 73
     0
 74
     5
  7

 75
    16
147
1.0
 76
     0
 77
     2
 78
   300
148
0.0
149
0.0
100
AcDbLayout
  1
Layout1
 70
     1
 71
     1
 10
0.0
 20
0.0
 11
12.0
 21
9.0
 12
0.0
 22
0.0
 32
0.0
 14
0.0
 24
0.0
 34
0.0
 15
0.0
 25
0.0
 35
0.0
146
0.0
 13
0.0
 23
0.0
 33
0.0
 16
1.0
 26
0.0
 36
0.0
 17
0.0
 27
1.0
 37
0.0
 76
     0
330
58
  0
LAYOUT
  5
5E
102
{ACAD_REACTORS
330
1A
102
}
330
1A
100
AcDbPlotSettings
  1

  2
None
  4

  6

 40
0.0
 41
0.0
 42
0.0
 43
0.0
 44
0.0
 45
0.0
 46
0.0
 47
0.0
 48
0.0
 49
0.0
140
0.0
141
0.0
142
1.0
143
1.0
 70
   688
 72
     0
 73
     0
 74
     5
  7

 75
    16
147
1.0
 76
     0
 77
     2
 78
   300
148
0.0
149
0.0
100
AcDbLayout
  1
Layout2
 70
     1
 71
     2
 10
0.0
 20
0.0
 11
12.0
 21
9.0
 12
0.0
 22
0.0
 32
0.0
 14
0.0
 24
0.0
 34
0.0
 15
0.0
 25
0.0
 35
0.0
146
0.0
 13
0.0
 23
0.0
 33
0.0
 16
1.0
 26
0.0
 36
0.0
 17
0.0
 27
1.0
 37
0.0
 76
     0
330
5D
  0
LAYOUT
  5
22
102
{ACAD_XDICTIONARY
360
194
102
}
102
{ACAD_REACTORS
330
1A
102
}
330
1A
100
AcDbPlotSettings
  1

  2
none_device
  4
ANSI_A_(8.50_x_11.00_Inches)
  6

 40
6.349999904632568
 41
19.04999923706055
 42
6.350006103515625
 43
19.04998779296875
 44
215.8999938964844
 45
279.3999938964844
 46
0.0
 47
0.0
 48
0.0
 49
0.0
140
0.0
141
0.0
142
1.0
143
2.584895464708373
 70
 11952
 72
     0
 73
     1
 74
     0
  7

 75
     0
147
0.3868628397755418
 76
     0
 77
     2
 78
   300
148
0.0
149
0.0
100
AcDbLayout
  1
Model
 70
     1
 71
     0
 10
0.0
 20
0.0
 11
12.0
 21
9.0
 12
0.0
 22
0.0
 32
0.0
 14
0.0
 24
0.0
 34
0.0
 15
0.0
 25
0.0
 35
0.0
146
0.0
 13
0.0
 23
0.0
 33
0.0
 16
1.0
 26
0.0
 36
0.0
 17
0.0
 27
1.0
 37
0.0
 76
     0
330
1F
331
94
  0
MATERIAL
  5
97
102
{ACAD_XDICTIONARY
360
188
102
}
102
{ACAD_REACTORS
330
72
102
}
330
72
100
AcDbMaterial
  1
ByBlock
 94
       63
  0
MATERIAL
  5
96
102
{ACAD_XDICTIONARY
360
186
102
}
102
{ACAD_REACTORS
330
72
102
}
330
72
100
AcDbMaterial
  1
ByLayer
 94
       63
  0
MATERIAL
  5
98
102
{ACAD_XDICTIONARY
360
110
102
}
102
{ACAD_REACTORS
330
72
102
}
330
72
100
AcDbMaterial
  1
Global
 43
0.0208000000566244
 43
0.0
 43
0.0
 43
0.0
 43
0.0
 43
0.0208000000566244
 43
0.0
 43
0.0
 43
0.0
 43
0.0
 43
1.0
 43
0.0
 43
0.0
 43
0.0
 43
0.0
 43
1.0
 49
0.0208000000566244
 49
0.0
 49
0.0
 49
0.0
 49
0.0
 49
0.0208000000566244
 49
0.0
 49
0.0
 49
0.0
 49
0.0
 49
1.0
 49
0.0
 49
0.0
 49
0.0
 49
0.0
 49
1.0
142
0.0208000000566244
142
0.0
142
0.0
142
0.0
142
0.0
142
0.0208000000566244
142
0.0
142
0.0
142
0.0
142
0.0
142
1.0
142
0.0
142
0.0
142
0.0
142
0.0
142
1.0
144
0.0208000000566244
144
0.0
144
0.0
144
0.0
144
0.0
144
0.0208000000566244
144
0.0
144
0.0
144
0.0
144
0.0
144
1.0
144
0.0
144
0.0
144
0.0
144
0.0
144
1.0
 94
       63
1001
ACAD
1070
    -1
1070
     3
1070
     0
1000

1071
        0
1070
     0
  0
MLEADERSTYLE
  5
D8
102
{ACAD_REACTORS
330
D7
102
}
330
D7
100
AcDbMLeaderStyle
179
     2
170
     2
171
     1
172
     0
 90
        2
 40
0.0
 41
0.0
173
     1
 91
-1056964608
340
14
 92
       -2
290
     1
 42
0.09
291
     1
 43
0.36
  3
Standard
 44
0.18
300

342
11
174
     1
178
     1
175
     1
176
     0
 93
-1056964608
 45
0.18
292
     0
297
     0
 46
0.18
 94
-1056964608
 47
1.0
 49
1.0
140
1.0
293
     1
141
0.0
294
     1
177
     0
142
1.0
295
     0
296
     0
143
0.125
271
     0
272
     9
273
     9
298
     0
  0
MLINESTYLE
  5
18
102
{ACAD_REACTORS
330
17
102
}
330
17
100
AcDbMlineStyle
  2
STANDARD
 70
     0
  3

 62
   256
 51
90.0
 52
90.0
 71
     2
 49
0.5
 62
   256
  6
BYLAYER
 49
-0.5
 62
   256
  6
BYLAYER
  0
ACDBPLACEHOLDER
  5
F
102
{ACAD_REACTORS
330
E
102
}
330
E
  0
SCALE
  5
2283
102
{ACAD_REACTORS
330
B6
102
}
330
B6
100
AcDbScale
 70
     0
300
1:75
140
1.0
141
75.0
290
     0
  0
SCALE
  5
B7
102
{ACAD_REACTORS
330
B6
102
}
330
B6
100
AcDbScale
 70
     0
300
1:1
140
1.0
141
1.0
290
     1
  0
SCALE
  5
124
102
{ACAD_REACTORS
330
B6
102
}
330
B6
100
AcDbScale
 70
     0
300
1:2
140
1.0
141
2.0
290
     0
  0
SCALE
  5
125
102
{ACAD_REACTORS
330
B6
102
}
330
B6
100
AcDbScale
 70
     0
300
1:4
140
1.0
141
4.0
290
     0
  0
SCALE
  5
126
102
{ACAD_REACTORS
330
B6
102
}
330
B6
100
AcDbScale
 70
     0
300
1:5
140
1.0
141
5.0
290
     0
  0
SCALE
  5
127
102
{ACAD_REACTORS
330
B6
102
}
330
B6
100
AcDbScale
 70
     0
300
1:8
140
1.0
141
8.0
290
     0
  0
SCALE
  5
128
102
{ACAD_REACTORS
330
B6
102
}
330
B6
100
AcDbScale
 70
     0
300
1:10
140
1.0
141
10.0
290
     0
  0
SCALE
  5
129
102
{ACAD_REACTORS
330
B6
102
}
330
B6
100
AcDbScale
 70
     0
300
1:16
140
1.0
141
16.0
290
     0
  0
SCALE
  5
12A
102
{ACAD_REACTORS
330
B6
102
}
330
B6
100
AcDbScale
 70
     0
300
1:20
140
1.0
141
20.0
290
     0
  0
SCALE
  5
12B
102
{ACAD_REACTORS
330
B6
102
}
330
B6
100
AcDbScale
 70
     0
300
1:30
140
1.0
141
30.0
290
     0
  0
SCALE
  5
12C
102
{ACAD_REACTORS
330
B6
102
}
330
B6
100
AcDbScale
 70
     0
300
1:40
140
1.0
141
40.0
290
     0
  0
SCALE
  5
12D
102
{ACAD_REACTORS
330
B6
102
}
330
B6
100
AcDbScale
 70
     0
300
1:50
140
1.0
141
50.0
290
     0
  0
SCALE
  5
12E
102
{ACAD_REACTORS
330
B6
102
}
330
B6
100
AcDbScale
 70
     0
300
1:100
140
1.0
141
100.0
290
     0
  0
SCALE
  5
12F
102
{ACAD_REACTORS
330
B6
102
}
330
B6
100
AcDbScale
 70
     0
300
2:1
140
2.0
141
1.0
290
     0
  0
SCALE
  5
130
102
{ACAD_REACTORS
330
B6
102
}
330
B6
100
AcDbScale
 70
     0
300
4:1
140
4.0
141
1.0
290
     0
  0
SCALE
  5
131
102
{ACAD_REACTORS
330
B6
102
}
330
B6
100
AcDbScale
 70
     0
300
8:1
140
8.0
141
1.0
290
     0
  0
SCALE
  5
132
102
{ACAD_REACTORS
330
B6
102
}
330
B6
100
AcDbScale
 70
     0
300
10:1
140
10.0
141
1.0
290
     0
  0
SCALE
  5
133
102
{ACAD_REACTORS
330
B6
102
}
330
B6
100
AcDbScale
 70
     0
300
100:1
140
100.0
141
1.0
290
     0
  0
SCALE
  5
134
102
{ACAD_REACTORS
330
B6
102
}
330
B6
100
AcDbScale
 70
     0
300
1/128" = 1'-0"
140
0.0078125
141
12.0
290
     0
  0
SCALE
  5
135
102
{ACAD_REACTORS
330
B6
102
}
330
B6
100
AcDbScale
 70
     0
300
1/64" = 1'-0"
140
0.015625
141
12.0
290
     0
  0
SCALE
  5
136
102
{ACAD_REACTORS
330
B6
102
}
330
B6
100
AcDbScale
 70
     0
300
1/32" = 1'-0"
140
0.03125
141
12.0
290
     0
  0
SCALE
  5
137
102
{ACAD_REACTORS
330
B6
102
}
330
B6
100
AcDbScale
 70
     0
300
1/16" = 1'-0"
140
0.0625
141
12.0
290
     0
  0
SCALE
  5
138
102
{ACAD_REACTORS
330
B6
102
}
330
B6
100
AcDbScale
 70
     0
300
3/32" = 1'-0"
140
0.09375
141
12.0
290
     0
  0
SCALE
  5
139
102
{ACAD_REACTORS
330
B6
102
}
330
B6
100
AcDbScale
 70
     0
300
1/8" = 1'-0"
140
0.125
141
12.0
290
     0
  0
SCALE
  5
13A
102
{ACAD_REACTORS
330
B6
102
}
330
B6
100
AcDbScale
 70
     0
300
3/16" = 1'-0"
140
0.1875
141
12.0
290
     0
  0
SCALE
  5
13B
102
{ACAD_REACTORS
330
B6
102
}
330
B6
100
AcDbScale
 70
     0
300
1/4" = 1'-0"
140
0.25
141
12.0
290
     0
  0
SCALE
  5
13C
102
{ACAD_REACTORS
330
B6
102
}
330
B6
100
AcDbScale
 70
     0
300
3/8" = 1'-0"
140
0.375
141
12.0
290
     0
  0
SCALE
  5
13D
102
{ACAD_REACTORS
330
B6
102
}
330
B6
100
AcDbScale
 70
     0
300
1/2" = 1'-0"
140
0.5
141
12.0
290
     0
  0
SCALE
  5
13E
102
{ACAD_REACTORS
330
B6
102
}
330
B6
100
AcDbScale
 70
     0
300
3/4" = 1'-0"
140
0.75
141
12.0
290
     0
  0
SCALE
  5
13F
102
{ACAD_REACTORS
330
B6
102
}
330
B6
100
AcDbScale
 70
     0
300
1" = 1'-0"
140
1.0
141
12.0
290
     0
  0
SCALE
  5
140
102
{ACAD_REACTORS
330
B6
102
}
330
B6
100
AcDbScale
 70
     0
300
1-1/2" = 1'-0"
140
1.5
141
12.0
290
     0
  0
SCALE
  5
141
102
{ACAD_REACTORS
330
B6
102
}
330
B6
100
AcDbScale
 70
     0
300
3" = 1'-0"
140
3.0
141
12.0
290
     0
  0
SCALE
  5
142
102
{ACAD_REACTORS
330
B6
102
}
330
B6
100
AcDbScale
 70
     0
300
6" = 1'-0"
140
6.0
141
12.0
290
     0
  0
SCALE
  5
143
102
{ACAD_REACTORS
330
B6
102
}
330
B6
100
AcDbScale
 70
     0
300
1'-0" = 1'-0"
140
12.0
141
12.0
290
     0
  0
ACDBSECTIONVIEWSTYLE
  5
1AA
102
{ACAD_REACTORS
330
1A8
102
}
330
1A8
100
AcDbModelDocViewStyle
 70
     0
  3
Imperial24
290
     0
300
Imperial24
 90
        0
100
AcDbSectionViewStyle
 70
     0
 71
     0
 90
       78
 71
     1
340
11
 62
   256
 40
0.24
340
0
340
0
 62
   256
 40
0.24
300
I, O, Q, S, X, Z
 40
0.48
 90
        3
 40
0.18
 90
        1
 71
     2
340
16
 90
       25
 62
   256
340
16
 90
       50
 62
   256
 40
0.24
 40
0.0
 40
0.24
 71
     3
340
11
 62
   256
 40
0.24
 90
        1
 40
0.75
 90
        1
300
%<\AcVar ViewType \f "%tc1">% %<\AcVar ViewSectionStartId>%-%<\AcVar ViewSectionEndId>%\PSCALE %<\AcVar ViewScale \f "%sn">%
 71
     4
 62
   256
 62
   257
300
ANSI31
 40
1.0
 90
        0
290
     0
290
     0
 90
        6
 40
0.0
 40
1.570796326794896
 40
0.2617993877991494
 40
1.308996938995747
 40
-0.2617993877991494
 40
1.832595714594046
  0
ACDBSECTIONVIEWSTYLE
  5
223
102
{ACAD_REACTORS
330
1A8
102
}
330
1A8
100
AcDbModelDocViewStyle
 70
     0
  3
Metric50
290
     0
300
Metric50
 90
        0
100
AcDbSectionViewStyle
 70
     0
 71
     0
 90
      102
 71
     1
340
11
 62
   256
 40
5.0
340
0
340
0
 62
   256
 40
5.0
300
I, O, Q, S, X, Z
 40
10.0
 90
        0
 40
2.5
 90
        0
 71
     2
340
16
 90
       25
 62
   256
340
16
 90
       50
 62
   256
 40
5.0
 40
2.5
 40
5.0
 71
     3
340
11
 62
   256
 40
5.0
 90
        0
 40
15.0
 90
        1
300
%<\AcVar ViewSectionStartId>%-%<\AcVar ViewSectionEndId>% (%<\AcVar ViewScale \f "%sn">%)
 71
     4
 62
   256
 62
   257
300
ANSI31
 40
1.0
 90
        0
290
     0
290
     0
 90
        6
 40
0.0
 40
1.570796326794896
 40
0.2617993877991494
 40
1.308996938995747
 40
-0.2617993877991494
 40
1.832595714594046
  0
TABLESTYLE
  5
87
102
{ACAD_XDICTIONARY
360
104
102
}
102
{ACAD_REACTORS
330
86
102
}
330
86
100
AcDbTableStyle
280
     0
  3
Standard
 70
     0
 71
     0
 40
0.06
 41
0.06
280
     0
281
     0
  7
Standard
140
0.18
170
     2
 62
     0
 63
     7
283
     0
 90
      512
 91
        0
  1

274
    -2
284
     1
 64
     0
275
    -2
285
     1
 65
     0
276
    -2
286
     1
 66
     0
277
    -2
287
     1
 67
     0
278
    -2
288
     1
 68
     0
279
    -2
289
     1
 69
     0
  7
Standard
140
0.25
170
     5
 62
     0
 63
     7
283
     0
 90
      512
 91
        0
  1

274
    -2
284
     1
 64
     0
275
    -2
285
     1
 65
     0
276
    -2
286
     1
 66
     0
277
    -2
287
     1
 67
     0
278
    -2
288
     1
 68
     0
279
    -2
289
     1
 69
     0
  7
Standard
140
0.18
170
     5
 62
     0
 63
     7
283
     0
 90
      512
 91
        0
  1

274
    -2
284
     1
 64
     0
275
    -2
285
     1
 65
     0
276
    -2
286
     1
 66
     0
277
    -2
287
     1
 67
     0
278
    -2
288
     1
 68
     0
279
    -2
289
     1
 69
     0
  0
VISUALSTYLE
  5
9F
102
{ACAD_REACTORS
330
99
102
}
330
99
100
AcDbVisualStyle
  2
2dWireframe
 70
     4
177
     3
291
     0
 70
    58
 90
        0
176
     1
 90
        2
176
     1
 90
        1
176
     1
 90
        0
176
     1
 40
0.6
176
     1
 40
30.0
176
     1
 62
     7
420
 16777215
176
     1
 90
        1
176
     1
 90
        4
176
     1
 62
     7
176
     1
 62
   257
176
     1
 90
        1
176
     1
 90
        1
176
     1
 40
1.0
176
     1
 90
        0
176
     1
 62
   257
176
     1
 40
1.0
176
     1
 90
        1
176
     1
 90
        6
176
     1
 90
        2
176
     1
 62
     7
176
     1
 90
        5
176
     1
 90
        0
176
     1
 90
        0
176
     1
290
     0
176
     1
 90
        1
176
     1
 40
0.0
176
     1
 90
        0
176
     1
290
     1
176
     1
290
     1
176
     1
290
     0
176
     1
290
     0
176
     1
290
     0
176
     1
290
     0
176
     1
290
     0
176
     1
290
     0
176
     1
290
     0
176
     1
 90
       50
176
     1
 40
0.0
176
     1
 40
1.0
176
     1
 90
        0
176
     1
 62
    18
420
        0
176
     1
 90
       50
176
     1
 90
        3
176
     1
 62
     5
420
      255
176
     1
290
     0
176
     1
 90
       50
176
     1
 90
       50
176
     1
 90
       50
176
     1
290
     0
176
     1
 90
       50
176
     1
 62
   256
176
     0
 40
1.0
176
     0
 90
        2
176
     1
  1
strokes_ogs.tif
176
     1
290
     0
176
     1
 40
1.0
176
     1
 40
1.0
176
     1
  0
VISUALSTYLE
  5
22946
102
{ACAD_REACTORS
330
99
102
}
330
99
100
AcDbVisualStyle
  2
3dWireframe
 70
     5
177
     3
291
     0
 70
    58
 90
        0
176
     1
 90
        2
176
     1
 90
        0
176
     1
 90
        0
176
     1
 40
0.6
176
     1
 40
30.0
176
     1
 62
     7
176
     1
 90
        1
176
     1
 90
        4
176
     1
 62
     7
176
     1
 62
   257
176
     1
 90
        1
176
     1
 90
        1
176
     1
 40
1.0
176
     1
 90
        0
176
     1
 62
   257
176
     1
 40
1.0
176
     1
 90
        1
176
     1
 90
        6
176
     1
 90
        2
176
     1
 62
     7
176
     1
 90
        5
176
     1
 90
        0
176
     1
 90
        0
176
     1
290
     0
176
     1
 90
        1
176
     1
 40
0.0
176
     1
 90
        0
176
     1
290
     0
176
     1
290
     1
176
     1
290
     1
176
     1
290
     0
176
     1
290
     0
176
     1
290
     0
176
     1
290
     0
176
     1
290
     0
176
     1
290
     0
176
     1
 90
       50
176
     1
 40
0.0
176
     1
 40
1.0
176
     1
 90
        0
176
     1
 62
    18
420
        0
176
     1
 90
       50
176
     1
 90
        3
176
     1
 62
     5
420
      255
176
     1
290
     0
176
     1
 90
       50
176
     1
 90
       50
176
     1
 90
       50
176
     1
290
     0
176
     1
 90
       50
176
     1
 62
   256
176
     0
 40
1.0
176
     0
 90
        2
176
     1
  1
strokes_ogs.tif
176
     1
290
     0
176
     1
 40
1.0
176
     1
 40
1.0
176
     1
  0
VISUALSTYLE
  5
9E
102
{ACAD_REACTORS
330
99
102
}
330
99
100
AcDbVisualStyle
  2
Basic
 70
     7
177
     3
291
     1
 70
    58
 90
        1
176
     1
 90
        0
176
     1
 90
        1
176
     1
 90
        0
176
     1
 40
0.6
176
     1
 40
30.0
176
     1
 62
     7
420
 16777215
176
     1
 90
        0
176
     1
 90
        4
176
     1
 62
     7
176
     1
 62
   257
176
     1
 90
        1
176
     1
 90
        1
176
     1
 40
1.0
176
     1
 90
        8
176
     1
 62
     7
176
     1
 40
1.0
176
     1
 90
        1
176
     1
 90
        6
176
     1
 90
        2
176
     1
 62
     7
176
     1
 90
        5
176
     1
 90
        0
176
     1
 90
        0
176
     1
290
     0
176
     1
 90
        1
176
     1
 40
0.0
176
     1
 90
        0
176
     1
290
     0
176
     1
290
     1
176
     1
290
     1
176
     1
290
     0
176
     1
290
     0
176
     1
290
     0
176
     1
290
     0
176
     1
290
     0
176
     1
290
     0
176
     1
 90
       50
176
     1
 40
0.0
176
     1
 40
1.0
176
     1
 90
        0
176
     1
 62
    18
420
        0
176
     1
 90
       50
176
     1
 90
        3
176
     1
 62
     5
420
      255
176
     1
290
     0
176
     1
 90
       50
176
     1
 90
       50
176
     1
 90
       50
176
     1
290
     0
176
     1
 90
       50
176
     1
 62
   256
176
     0
 40
1.0
176
     0
 90
        2
176
     1
  1
strokes_ogs.tif
176
     1
290
     0
176
     1
 40
1.0
176
     1
 40
1.0
176
     1
  0
VISUALSTYLE
  5
A5
102
{ACAD_REACTORS
330
99
102
}
330
99
100
AcDbVisualStyle
  2
Brighten
 70
    12
177
     3
291
     1
 70
    58
 90
        2
176
     1
 90
        2
176
     1
 90
        1
176
     1
 90
        0
176
     1
 40
0.6
176
     1
 40
30.0
176
     1
 62
     7
420
 16777215
176
     1
 90
        1
176
     1
 90
        4
176
     1
 62
     7
176
     1
 62
   257
176
     1
 90
        1
176
     1
 90
        1
176
     1
 40
1.0
176
     1
 90
        8
176
     1
 62
     7
176
     1
 40
1.0
176
     1
 90
        1
176
     1
 90
        6
176
     1
 90
        2
176
     1
 62
     7
176
     1
 90
        5
176
     1
 90
        0
176
     1
 90
        0
176
     1
290
     0
176
     1
 90
        1
176
     1
 40
50.0
176
     1
 90
        0
176
     1
290
     0
176
     1
290
     1
176
     1
290
     1
176
     1
290
     0
176
     1
290
     0
176
     1
290
     0
176
     1
290
     0
176
     1
290
     0
176
     1
290
     0
176
     1
 90
       50
176
     1
 40
0.0
176
     1
 40
1.0
176
     1
 90
        0
176
     1
 62
    18
420
        0
176
     1
 90
       50
176
     1
 90
        3
176
     1
 62
     5
420
      255
176
     1
290
     0
176
     1
 90
       50
176
     1
 90
       50
176
     1
 90
       50
176
     1
290
     0
176
     1
 90
       50
176
     1
 62
   256
176
     0
 40
1.0
176
     0
 90
        2
176
     1
  1
strokes_ogs.tif
176
     1
290
     0
176
     1
 40
1.0
176
     1
 40
1.0
176
     1
  0
VISUALSTYLE
  5
A9
102
{ACAD_REACTORS
330
99
102
}
330
99
100
AcDbVisualStyle
  2
ColorChange
 70
    16
177
     3
291
     1
 70
    58
 90
        2
176
     1
 90
        2
176
     1
 90
        3
176
     1
 90
        0
176
     1
 40
0.6
176
     1
 40
30.0
176
     1
 62
     8
420
  8421504
176
     1
 90
        1
176
     1
 90
        4
176
     1
 62
     7
176
     1
 62
   257
176
     1
 90
        1
176
     1
 90
        1
176
     1
 40
1.0
176
     1
 90
        8
176
     1
 62
     8
420
  8421504
176
     1
 40
1.0
176
     1
 90
        1
176
     1
 90
        6
176
     1
 90
        2
176
     1
 62
     7
176
     1
 90
        5
176
     1
 90
        0
176
     1
 90
        0
176
     1
290
     0
176
     1
 90
        1
176
     1
 40
0.0
176
     1
 90
        0
176
     1
290
     0
176
     1
290
     1
176
     1
290
     1
176
     1
290
     0
176
     1
290
     0
176
     1
290
     0
176
     1
290
     0
176
     1
290
     0
176
     1
290
     0
176
     1
 90
       50
176
     1
 40
0.0
176
     1
 40
1.0
176
     1
 90
        0
176
     1
 62
    18
420
        0
176
     1
 90
       50
176
     1
 90
        3
176
     1
 62
     5
420
      255
176
     1
290
     0
176
     1
 90
       50
176
     1
 90
       50
176
     1
 90
       50
176
     1
290
     0
176
     1
 90
       50
176
     1
 62
   256
176
     0
 40
1.0
176
     0
 90
        2
176
     1
  1
strokes_ogs.tif
176
     1
290
     0
176
     1
 40
1.0
176
     1
 40
1.0
176
     1
  0
VISUALSTYLE
  5
A2
102
{ACAD_REACTORS
330
99
102
}
330
99
100
AcDbVisualStyle
  2
Conceptual
 70
     9
177
     3
291
     0
 70
    58
 90
        3
176
     1
 90
        2
176
     1
 90
        1
176
     1
 90
        0
176
     1
 40
0.6
176
     1
 40
30.0
176
     1
 62
     7
420
 16777215
176
     1
 90
        2
176
     1
 90
        2
176
     1
 62
     7
176
     1
 62
   257
176
     1
 90
        1
176
     1
 90
        1
176
     1
 40
40.0
176
     1
 90
        8
176
     1
 62
     7
176
     1
 40
1.0
176
     1
 90
        1
176
     1
 90
        6
176
     1
 90
        2
176
     1
 62
     7
176
     1
 90
        3
176
     1
 90
        0
176
     1
 90
        0
176
     1
290
     0
176
     1
 90
        1
176
     1
 40
0.0
176
     1
 90
        0
176
     1
290
     0
176
     1
290
     1
176
     1
290
     1
176
     1
290
     0
176
     1
290
     0
176
     1
290
     0
176
     1
290
     0
176
     1
290
     0
176
     1
290
     0
176
     1
 90
       50
176
     1
 40
0.0
176
     1
 40
1.0
176
     1
 90
        0
176
     1
 62
    18
420
        0
176
     1
 90
       50
176
     1
 90
        3
176
     1
 62
     5
420
      255
176
     1
290
     0
176
     1
 90
       50
176
     1
 90
       50
176
     1
 90
       50
176
     1
290
     0
176
     1
 90
       50
176
     1
 62
   256
176
     0
 40
1.0
176
     0
 90
        2
176
     1
  1
strokes_ogs.tif
176
     1
290
     0
176
     1
 40
1.0
176
     1
 40
1.0
176
     1
  0
VISUALSTYLE
  5
A4
102
{ACAD_REACTORS
330
99
102
}
330
99
100
AcDbVisualStyle
  2
Dim
 70
    11
177
     3
291
     1
 70
    58
 90
        2
176
     1
 90
        2
176
     1
 90
        1
176
     1
 90
        0
176
     1
 40
0.6
176
     1
 40
30.0
176
     1
 62
     7
420
 16777215
176
     1
 90
        1
176
     1
 90
        4
176
     1
 62
     7
176
     1
 62
   257
176
     1
 90
        1
176
     1
 90
        1
176
     1
 40
1.0
176
     1
 90
        8
176
     1
 62
     7
176
     1
 40
1.0
176
     1
 90
        1
176
     1
 90
        6
176
     1
 90
        2
176
     1
 62
     7
176
     1
 90
        5
176
     1
 90
        0
176
     1
 90
        0
176
     1
290
     0
176
     1
 90
        1
176
     1
 40
-50.0
176
     1
 90
        0
176
     1
290
     0
176
     1
290
     1
176
     1
290
     1
176
     1
290
     0
176
     1
290
     0
176
     1
290
     0
176
     1
290
     0
176
     1
290
     0
176
     1
290
     0
176
     1
 90
       50
176
     1
 40
0.0
176
     1
 40
1.0
176
     1
 90
        0
176
     1
 62
    18
420
        0
176
     1
 90
       50
176
     1
 90
        3
176
     1
 62
     5
420
      255
176
     1
290
     0
176
     1
 90
       50
176
     1
 90
       50
176
     1
 90
       50
176
     1
290
     0
176
     1
 90
       50
176
     1
 62
   256
176
     0
 40
1.0
176
     0
 90
        2
176
     1
  1
strokes_ogs.tif
176
     1
290
     0
176
     1
 40
1.0
176
     1
 40
1.0
176
     1
  0
VISUALSTYLE
  5
175
102
{ACAD_REACTORS
330
99
102
}
330
99
100
AcDbVisualStyle
  2
EdgeColorOff
 70
    22
177
     3
291
     1
 70
    58
 90
        2
176
     0
 90
        2
176
     0
 90
        0
176
     0
 90
        0
176
     0
 40
0.6
176
     0
 40
30.0
176
     0
 62
     7
420
 16777215
176
     0
 90
        1
176
     0
 90
        4
176
     0
 62
     7
176
     0
 62
   257
176
     0
 90
        1
176
     0
 90
        1
176
     0
 40
1.0
176
     0
 90
        8
176
     2
 62
     7
176
     0
 40
1.0
176
     0
 90
        1
176
     0
 90
        6
176
     0
 90
        2
176
     0
 62
     7
176
     0
 90
        5
176
     0
 90
        0
176
     0
 90
        0
176
     0
290
     0
176
     0
 90
        1
176
     0
 40
0.0
176
     0
 90
        0
176
     0
290
     0
176
     1
290
     1
176
     1
290
     1
176
     1
290
     0
176
     1
290
     0
176
     1
290
     0
176
     1
290
     0
176
     1
290
     0
176
     1
290
     0
176
     1
 90
       50
176
     1
 40
0.0
176
     1
 40
1.0
176
     1
 90
        0
176
     1
 62
    18
420
        0
176
     1
 90
       50
176
     1
 90
        3
176
     1
 62
     5
420
      255
176
     1
290
     0
176
     1
 90
       50
176
     1
 90
       50
176
     1
 90
       50
176
     1
290
     0
176
     1
 90
       50
176
     1
 62
   256
176
     0
 40
1.0
176
     0
 90
        2
176
     1
  1
strokes_ogs.tif
176
     1
290
     0
176
     1
 40
1.0
176
     1
 40
1.0
176
     1
  0
VISUALSTYLE
  5
A8
102
{ACAD_REACTORS
330
99
102
}
330
99
100
AcDbVisualStyle
  2
Facepattern
 70
    15
177
     3
291
     1
 70
    58
 90
        2
176
     1
 90
        2
176
     1
 90
        1
176
     1
 90
        0
176
     1
 40
0.6
176
     1
 40
30.0
176
     1
 62
     7
420
 16777215
176
     1
 90
        1
176
     1
 90
        4
176
     1
 62
     7
176
     1
 62
   257
176
     1
 90
        1
176
     1
 90
        1
176
     1
 40
1.0
176
     1
 90
        8
176
     1
 62
     7
176
     1
 40
1.0
176
     1
 90
        1
176
     1
 90
        6
176
     1
 90
        2
176
     1
 62
     7
176
     1
 90
        5
176
     1
 90
        0
176
     1
 90
        0
176
     1
290
     0
176
     1
 90
        1
176
     1
 40
0.0
176
     1
 90
        0
176
     1
290
     0
176
     1
290
     1
176
     1
290
     1
176
     1
290
     0
176
     1
290
     0
176
     1
290
     0
176
     1
290
     0
176
     1
290
     0
176
     1
290
     0
176
     1
 90
       50
176
     1
 40
0.0
176
     1
 40
1.0
176
     1
 90
        0
176
     1
 62
    18
420
        0
176
     1
 90
       50
176
     1
 90
        3
176
     1
 62
     5
420
      255
176
     1
290
     0
176
     1
 90
       50
176
     1
 90
       50
176
     1
 90
       50
176
     1
290
     0
176
     1
 90
       50
176
     1
 62
   256
176
     0
 40
1.0
176
     0
 90
        2
176
     1
  1
strokes_ogs.tif
176
     1
290
     0
176
     1
 40
1.0
176
     1
 40
1.0
176
     1
  0
VISUALSTYLE
  5
9A
102
{ACAD_REACTORS
330
99
102
}
330
99
100
AcDbVisualStyle
  2
Flat
 70
     0
177
     3
291
     1
 70
    58
 90
        2
176
     1
 90
        1
176
     1
 90
        1
176
     1
 90
        2
176
     1
 40
0.6
176
     1
 40
30.0
176
     1
 62
     7
420
 16777215
176
     1
 90
        0
176
     1
 90
        0
176
     1
 62
     7
176
     1
 62
   257
176
     1
 90
        1
176
     1
 90
        1
176
     1
 40
1.0
176
     1
 90
        8
176
     1
 62
     7
176
     1
 40
1.0
176
     1
 90
        1
176
     1
 90
        6
176
     1
 90
        2
176
     1
 62
     7
176
     1
 90
        5
176
     1
 90
        0
176
     1
 90
        0
176
     1
290
     0
176
     1
 90
       13
176
     1
 40
0.0
176
     1
 90
        0
176
     1
290
     0
176
     1
290
     1
176
     1
290
     1
176
     1
290
     0
176
     1
290
     0
176
     1
290
     0
176
     1
290
     0
176
     1
290
     0
176
     1
290
     0
176
     1
 90
       50
176
     1
 40
0.0
176
     1
 40
1.0
176
     1
 90
        0
176
     1
 62
    18
420
        0
176
     1
 90
       50
176
     1
 90
        3
176
     1
 62
     5
420
      255
176
     1
290
     0
176
     1
 90
       50
176
     1
 90
       50
176
     1
 90
       50
176
     1
290
     0
176
     1
 90
       50
176
     1
 62
   256
176
     0
 40
1.0
176
     0
 90
        2
176
     1
  1
strokes_ogs.tif
176
     1
290
     0
176
     1
 40
1.0
176
     1
 40
1.0
176
     1
  0
VISUALSTYLE
  5
9B
102
{ACAD_REACTORS
330
99
102
}
330
99
100
AcDbVisualStyle
  2
FlatWithEdges
 70
     1
177
     3
291
     1
 70
    58
 90
        2
176
     1
 90
        1
176
     1
 90
        1
176
     1
 90
        2
176
     1
 40
0.6
176
     1
 40
30.0
176
     1
 62
     7
420
 16777215
176
     1
 90
        1
176
     1
 90
        0
176
     1
 62
     7
176
     1
 62
   257
176
     1
 90
        1
176
     1
 90
        1
176
     1
 40
1.0
176
     1
 90
        0
176
     1
 62
   257
176
     1
 40
1.0
176
     1
 90
        1
176
     1
 90
        6
176
     1
 90
        2
176
     1
 62
     7
176
     1
 90
        5
176
     1
 90
        0
176
     1
 90
        0
176
     1
290
     0
176
     1
 90
       13
176
     1
 40
0.0
176
     1
 90
        0
176
     1
290
     0
176
     1
290
     1
176
     1
290
     1
176
     1
290
     0
176
     1
290
     0
176
     1
290
     0
176
     1
290
     0
176
     1
290
     0
176
     1
290
     0
176
     1
 90
       50
176
     1
 40
0.0
176
     1
 40
1.0
176
     1
 90
        0
176
     1
 62
    18
420
        0
176
     1
 90
       50
176
     1
 90
        3
176
     1
 62
     5
420
      255
176
     1
290
     0
176
     1
 90
       50
176
     1
 90
       50
176
     1
 90
       50
176
     1
290
     0
176
     1
 90
       50
176
     1
 62
   256
176
     0
 40
1.0
176
     0
 90
        2
176
     1
  1
strokes_ogs.tif
176
     1
290
     0
176
     1
 40
1.0
176
     1
 40
1.0
176
     1
  0
VISUALSTYLE
  5
9C
102
{ACAD_REACTORS
330
99
102
}
330
99
100
AcDbVisualStyle
  2
Gouraud
 70
     2
177
     3
291
     1
 70
    58
 90
        2
176
     1
 90
        2
176
     1
 90
        1
176
     1
 90
        2
176
     1
 40
0.6
176
     1
 40
30.0
176
     1
 62
     7
420
 16777215
176
     1
 90
        0
176
     1
 90
        0
176
     1
 62
     7
176
     1
 62
   257
176
     1
 90
        1
176
     1
 90
        1
176
     1
 40
1.0
176
     1
 90
        0
176
     1
 62
     7
176
     1
 40
1.0
176
     1
 90
        1
176
     1
 90
        6
176
     1
 90
        2
176
     1
 62
     7
176
     1
 90
        5
176
     1
 90
        0
176
     1
 90
        0
176
     1
290
     0
176
     1
 90
       13
176
     1
 40
0.0
176
     1
 90
        0
176
     1
290
     0
176
     1
290
     1
176
     1
290
     1
176
     1
290
     0
176
     1
290
     0
176
     1
290
     0
176
     1
290
     0
176
     1
290
     0
176
     1
290
     0
176
     1
 90
       50
176
     1
 40
0.0
176
     1
 40
1.0
176
     1
 90
        0
176
     1
 62
    18
420
        0
176
     1
 90
       50
176
     1
 90
        3
176
     1
 62
     5
420
      255
176
     1
290
     0
176
     1
 90
       50
176
     1
 90
       50
176
     1
 90
       50
176
     1
290
     0
176
     1
 90
       50
176
     1
 62
   256
176
     0
 40
1.0
176
     0
 90
        2
176
     1
  1
strokes_ogs.tif
176
     1
290
     0
176
     1
 40
1.0
176
     1
 40
1.0
176
     1
  0
VISUALSTYLE
  5
9D
102
{ACAD_REACTORS
330
99
102
}
330
99
100
AcDbVisualStyle
  2
GouraudWithEdges
 70
     3
177
     3
291
     1
 70
    58
 90
        2
176
     1
 90
        2
176
     1
 90
        1
176
     1
 90
        2
176
     1
 40
0.6
176
     1
 40
30.0
176
     1
 62
     7
420
 16777215
176
     1
 90
        1
176
     1
 90
        0
176
     1
 62
     7
176
     1
 62
   257
176
     1
 90
        1
176
     1
 90
        1
176
     1
 40
1.0
176
     1
 90
        0
176
     1
 62
   257
176
     1
 40
1.0
176
     1
 90
        1
176
     1
 90
        6
176
     1
 90
        2
176
     1
 62
     7
176
     1
 90
        5
176
     1
 90
        0
176
     1
 90
        0
176
     1
290
     0
176
     1
 90
       13
176
     1
 40
0.0
176
     1
 90
        0
176
     1
290
     0
176
     1
290
     1
176
     1
290
     1
176
     1
290
     0
176
     1
290
     0
176
     1
290
     0
176
     1
290
     0
176
     1
290
     0
176
     1
290
     0
176
     1
 90
       50
176
     1
 40
0.0
176
     1
 40
1.0
176
     1
 90
        0
176
     1
 62
    18
420
        0
176
     1
 90
       50
176
     1
 90
        3
176
     1
 62
     5
420
      255
176
     1
290
     0
176
     1
 90
       50
176
     1
 90
       50
176
     1
 90
       50
176
     1
290
     0
176
     1
 90
       50
176
     1
 62
   256
176
     0
 40
1.0
176
     0
 90
        2
176
     1
  1
strokes_ogs.tif
176
     1
290
     0
176
     1
 40
1.0
176
     1
 40
1.0
176
     1
  0
VISUALSTYLE
  5
A1
102
{ACAD_REACTORS
330
99
102
}
330
99
100
AcDbVisualStyle
  2
Hidden
 70
     6
177
     3
291
     0
 70
    58
 90
        1
176
     1
 90
        2
176
     1
 90
        2
176
     1
 90
        0
176
     1
 40
0.6
176
     1
 40
30.0
176
     1
 62
     7
420
 16777215
176
     1
 90
        2
176
     1
 90
        2
176
     1
 62
     7
176
     1
 62
   257
176
     1
 90
        2
176
     1
 90
        1
176
     1
 40
40.0
176
     1
 90
        0
176
     1
 62
   257
176
     1
 40
1.0
176
     1
 90
        1
176
     1
 90
        6
176
     1
 90
        2
176
     1
 62
     7
176
     1
 90
        3
176
     1
 90
        0
176
     1
 90
        0
176
     1
290
     0
176
     1
 90
        1
176
     1
 40
0.0
176
     1
 90
        0
176
     1
290
     0
176
     1
290
     1
176
     1
290
     1
176
     1
290
     0
176
     1
290
     0
176
     1
290
     0
176
     1
290
     0
176
     1
290
     0
176
     1
290
     0
176
     1
 90
       50
176
     1
 40
0.0
176
     1
 40
1.0
176
     1
 90
        0
176
     1
 62
    18
420
        0
176
     1
 90
       50
176
     1
 90
        3
176
     1
 62
     5
420
      255
176
     1
290
     0
176
     1
 90
       50
176
     1
 90
       50
176
     1
 90
       50
176
     1
290
     0
176
     1
 90
       50
176
     1
 62
   256
176
     0
 40
1.0
176
     0
 90
        2
176
     1
  1
strokes_ogs.tif
176
     1
290
     0
176
     1
 40
1.0
176
     1
 40
1.0
176
     1
  0
VISUALSTYLE
  5
173
102
{ACAD_REACTORS
330
99
102
}
330
99
100
AcDbVisualStyle
  2
JitterOff
 70
    20
177
     3
291
     1
 70
    58
 90
        2
176
     0
 90
        2
176
     0
 90
        0
176
     0
 90
        0
176
     0
 40
0.6
176
     0
 40
30.0
176
     0
 62
     7
420
 16777215
176
     0
 90
        1
176
     0
 90
        4
176
     0
 62
     7
176
     0
 62
   257
176
     0
 90
        1
176
     0
 90
        1
176
     0
 40
1.0
176
     0
 90
       10
176
     2
 62
     7
176
     0
 40
1.0
176
     0
 90
        1
176
     0
 90
        6
176
     0
 90
        2
176
     0
 62
     7
176
     0
 90
        5
176
     0
 90
        0
176
     0
 90
        0
176
     0
290
     0
176
     0
 90
        1
176
     0
 40
0.0
176
     0
 90
        0
176
     0
290
     0
176
     1
290
     1
176
     1
290
     1
176
     1
290
     0
176
     1
290
     0
176
     1
290
     0
176
     1
290
     0
176
     1
290
     0
176
     1
290
     0
176
     1
 90
       50
176
     1
 40
0.0
176
     1
 40
1.0
176
     1
 90
        0
176
     1
 62
    18
420
        0
176
     1
 90
       50
176
     1
 90
        3
176
     1
 62
     5
420
      255
176
     1
290
     0
176
     1
 90
       50
176
     1
 90
       50
176
     1
 90
       50
176
     1
290
     0
176
     1
 90
       50
176
     1
 62
   256
176
     0
 40
1.0
176
     0
 90
        2
176
     1
  1
strokes_ogs.tif
176
     1
290
     0
176
     1
 40
1.0
176
     1
 40
1.0
176
     1
  0
VISUALSTYLE
  5
A7
102
{ACAD_REACTORS
330
99
102
}
330
99
100
AcDbVisualStyle
  2
Linepattern
 70
    14
177
     3
291
     1
 70
    58
 90
        2
176
     1
 90
        2
176
     1
 90
        1
176
     1
 90
        0
176
     1
 40
0.6
176
     1
 40
30.0
176
     1
 62
     7
420
 16777215
176
     1
 90
        1
176
     1
 90
        4
176
     1
 62
     7
176
     1
 62
   257
176
     1
 90
        7
176
     1
 90
        7
176
     1
 40
1.0
176
     1
 90
        8
176
     1
 62
     7
176
     1
 40
1.0
176
     1
 90
        1
176
     1
 90
        6
176
     1
 90
        2
176
     1
 62
     7
176
     1
 90
        5
176
     1
 90
        0
176
     1
 90
        0
176
     1
290
     0
176
     1
 90
        1
176
     1
 40
0.0
176
     1
 90
        0
176
     1
290
     0
176
     1
290
     1
176
     1
290
     1
176
     1
290
     0
176
     1
290
     0
176
     1
290
     0
176
     1
290
     0
176
     1
290
     0
176
     1
290
     0
176
     1
 90
       50
176
     1
 40
0.0
176
     1
 40
1.0
176
     1
 90
        0
176
     1
 62
    18
420
        0
176
     1
 90
       50
176
     1
 90
        3
176
     1
 62
     5
420
      255
176
     1
290
     0
176
     1
 90
       50
176
     1
 90
       50
176
     1
 90
       50
176
     1
290
     0
176
     1
 90
       50
176
     1
 62
   256
176
     0
 40
1.0
176
     0
 90
        2
176
     1
  1
strokes_ogs.tif
176
     1
290
     0
176
     1
 40
1.0
176
     1
 40
1.0
176
     1
  0
VISUALSTYLE
  5
174
102
{ACAD_REACTORS
330
99
102
}
330
99
100
AcDbVisualStyle
  2
OverhangOff
 70
    21
177
     3
291
     1
 70
    58
 90
        2
176
     0
 90
        2
176
     0
 90
        0
176
     0
 90
        0
176
     0
 40
0.6
176
     0
 40
30.0
176
     0
 62
     7
420
 16777215
176
     0
 90
        1
176
     0
 90
        4
176
     0
 62
     7
176
     0
 62
   257
176
     0
 90
        1
176
     0
 90
        1
176
     0
 40
1.0
176
     0
 90
        9
176
     2
 62
     7
176
     0
 40
1.0
176
     0
 90
        1
176
     0
 90
        6
176
     0
 90
        2
176
     0
 62
     7
176
     0
 90
        5
176
     0
 90
        0
176
     0
 90
        0
176
     0
290
     0
176
     0
 90
        1
176
     0
 40
0.0
176
     0
 90
        0
176
     0
290
     0
176
     1
290
     1
176
     1
290
     1
176
     1
290
     0
176
     1
290
     0
176
     1
290
     0
176
     1
290
     0
176
     1
290
     0
176
     1
290
     0
176
     1
 90
       50
176
     1
 40
0.0
176
     1
 40
1.0
176
     1
 90
        0
176
     1
 62
    18
420
        0
176
     1
 90
       50
176
     1
 90
        3
176
     1
 62
     5
420
      255
176
     1
290
     0
176
     1
 90
       50
176
     1
 90
       50
176
     1
 90
       50
176
     1
290
     0
176
     1
 90
       50
176
     1
 62
   256
176
     0
 40
1.0
176
     0
 90
        2
176
     1
  1
strokes_ogs.tif
176
     1
290
     0
176
     1
 40
1.0
176
     1
 40
1.0
176
     1
  0
VISUALSTYLE
  5
A3
102
{ACAD_REACTORS
330
99
102
}
330
99
100
AcDbVisualStyle
  2
Realistic
 70
     8
177
     3
291
     0
 70
    58
 90
        2
176
     1
 90
        2
176
     1
 90
        0
176
     1
 90
        2
176
     1
 40
0.6
176
     1
 40
30.0
176
     1
 62
     7
420
 16777215
176
     1
 90
        0
176
     1
 90
        0
176
     1
 62
     7
176
     1
 62
   257
176
     1
 90
        1
176
     1
 90
        1
176
     1
 40
1.0
176
     1
 90
        8
176
     1
 62
   257
176
     1
 40
1.0
176
     1
 90
        1
176
     1
 90
        6
176
     1
 90
        2
176
     1
 62
     7
176
     1
 90
        3
176
     1
 90
        0
176
     1
 90
        0
176
     1
290
     0
176
     1
 90
       13
176
     1
 40
0.0
176
     1
 90
        0
176
     1
290
     0
176
     1
290
     1
176
     1
290
     1
176
     1
290
     0
176
     1
290
     0
176
     1
290
     0
176
     1
290
     0
176
     1
290
     0
176
     1
290
     0
176
     1
 90
       50
176
     1
 40
0.0
176
     1
 40
1.0
176
     1
 90
        0
176
     1
 62
    18
420
        0
176
     1
 90
       50
176
     1
 90
        3
176
     1
 62
     5
420
      255
176
     1
290
     0
176
     1
 90
       50
176
     1
 90
       50
176
     1
 90
       50
176
     1
290
     0
176
     1
 90
       50
176
     1
 62
   256
176
     0
 40
1.0
176
     0
 90
        2
176
     1
  1
strokes_ogs.tif
176
     1
290
     0
176
     1
 40
1.0
176
     1
 40
1.0
176
     1
  0
VISUALSTYLE
  5
182
102
{ACAD_REACTORS
330
99
102
}
330
99
100
AcDbVisualStyle
  2
Shaded
 70
    27
177
     3
291
     0
 70
    58
 90
        2
176
     1
 90
        2
176
     1
 90
        1
176
     1
 90
        2
176
     1
 40
0.6
176
     1
 40
30.0
176
     1
 62
     7
420
 16777215
176
     1
 90
        0
176
     1
 90
        4
176
     1
 62
     7
176
     1
 62
   257
176
     1
 90
        1
176
     1
 90
        1
176
     1
 40
1.0
176
     1
 90
        8
176
     1
 62
   257
176
     1
 40
1.0
176
     1
 90
        1
176
     1
 90
        6
176
     1
 90
        2
176
     1
 62
     8
420
  7895160
176
     1
 90
        3
176
     1
 90
        0
176
     1
 90
        0
176
     1
290
     0
176
     1
 90
        5
176
     1
 40
0.0
176
     1
 90
        0
176
     1
290
     0
176
     1
290
     1
176
     1
290
     1
176
     1
290
     0
176
     1
290
     0
176
     1
290
     0
176
     1
290
     0
176
     1
290
     0
176
     1
290
     0
176
     1
 90
       50
176
     1
 40
0.0
176
     1
 40
1.0
176
     1
 90
        0
176
     1
 62
    18
420
        0
176
     1
 90
       50
176
     1
 90
        3
176
     1
 62
     5
420
      255
176
     1
290
     0
176
     1
 90
       50
176
     1
 90
       50
176
     1
 90
       50
176
     1
290
     0
176
     1
 90
       50
176
     1
 62
   256
176
     0
 40
1.0
176
     0
 90
        2
176
     1
  1
strokes_ogs.tif
176
     1
290
     0
176
     1
 40
1.0
176
     1
 40
1.0
176
     1
  0
VISUALSTYLE
  5
181
102
{ACAD_REACTORS
330
99
102
}
330
99
100
AcDbVisualStyle
  2
Shaded with edges
 70
    26
177
     3
291
     0
 70
    58
 90
        2
176
     1
 90
        2
176
     1
 90
        1
176
     1
 90
        2
176
     1
 40
0.6
176
     1
 40
30.0
176
     1
 62
     7
420
 16777215
176
     1
 90
        1
176
     1
 90
        2
176
     1
 62
     7
176
     1
 62
   257
176
     1
 90
        2
176
     1
 90
        1
176
     1
 40
1.0
176
     1
 90
        8
176
     1
 62
   257
176
     1
 40
1.0
176
     1
 90
        1
176
     1
 90
        6
176
     1
 90
        2
176
     1
 62
     7
176
     1
 90
        3
176
     1
 90
        0
176
     1
 90
        0
176
     1
290
     0
176
     1
 90
        5
176
     1
 40
0.0
176
     1
 90
        0
176
     1
290
     0
176
     1
290
     1
176
     1
290
     1
176
     1
290
     0
176
     1
290
     0
176
     1
290
     0
176
     1
290
     0
176
     1
290
     0
176
     1
290
     0
176
     1
 90
       50
176
     1
 40
0.0
176
     1
 40
1.0
176
     1
 90
        0
176
     1
 62
    18
420
        0
176
     1
 90
       50
176
     1
 90
        3
176
     1
 62
     5
420
      255
176
     1
290
     0
176
     1
 90
       50
176
     1
 90
       50
176
     1
 90
       50
176
     1
290
     0
176
     1
 90
       50
176
     1
 62
   256
176
     0
 40
1.0
176
     0
 90
        2
176
     1
  1
strokes_ogs.tif
176
     1
290
     0
176
     1
 40
1.0
176
     1
 40
1.0
176
     1
  0
VISUALSTYLE
  5
17E
102
{ACAD_REACTORS
330
99
102
}
330
99
100
AcDbVisualStyle
  2
Shades of Gray
 70
    23
177
     3
291
     0
 70
    58
 90
        2
176
     1
 90
        2
176
     1
 90
        3
176
     1
 90
        0
176
     1
 40
0.6
176
     1
 40
30.0
176
     1
 62
     7
420
 16777215
176
     1
 90
        2
176
     1
 90
        2
176
     1
 62
     7
176
     1
 62
     7
176
     1
 90
        1
176
     1
 90
        1
176
     1
 40
40.0
176
     1
 90
        8
176
     1
 62
     7
176
     1
 40
1.0
176
     1
 90
        1
176
     1
 90
        6
176
     1
 90
        2
176
     1
 62
     7
176
     1
 90
        3
176
     1
 90
        0
176
     1
 90
        0
176
     1
290
     0
176
     1
 90
        1
176
     1
 40
0.0
176
     1
 90
        0
176
     1
290
     0
176
     1
290
     1
176
     1
290
     1
176
     1
290
     0
176
     1
290
     0
176
     1
290
     0
176
     1
290
     0
176
     1
290
     0
176
     1
290
     0
176
     1
 90
       50
176
     1
 40
0.0
176
     1
 40
1.0
176
     1
 90
        0
176
     1
 62
    18
420
        0
176
     1
 90
       50
176
     1
 90
        3
176
     1
 62
     5
420
      255
176
     1
290
     0
176
     1
 90
       50
176
     1
 90
       50
176
     1
 90
       50
176
     1
290
     0
176
     1
 90
       50
176
     1
 62
   256
176
     0
 40
1.0
176
     0
 90
        2
176
     1
  1
strokes_ogs.tif
176
     1
290
     0
176
     1
 40
1.0
176
     1
 40
1.0
176
     1
  0
VISUALSTYLE
  5
17F
102
{ACAD_REACTORS
330
99
102
}
330
99
100
AcDbVisualStyle
  2
Sketchy
 70
    24
177
     3
291
     0
 70
    58
 90
        1
176
     1
 90
        2
176
     1
 90
        2
176
     1
 90
        0
176
     1
 40
0.6
176
     1
 40
30.0
176
     1
 62
     7
420
 16777215
176
     1
 90
        2
176
     1
 90
        2
176
     1
 62
     7
176
     1
 62
     7
176
     1
 90
        1
176
     1
 90
        1
176
     1
 40
40.0
176
     1
 90
       11
176
     1
 62
     7
176
     1
 40
1.0
176
     1
 90
        1
176
     1
 90
        6
176
     1
 90
        2
176
     1
 62
     7
176
     1
 90
        6
176
     1
 90
        0
176
     1
 90
        0
176
     1
290
     0
176
     1
 90
        1
176
     1
 40
0.0
176
     1
 90
        0
176
     1
290
     0
176
     1
290
     1
176
     1
290
     1
176
     1
290
     0
176
     1
290
     0
176
     1
290
     0
176
     1
290
     0
176
     1
290
     0
176
     1
290
     0
176
     1
 90
       50
176
     1
 40
0.0
176
     1
 40
1.0
176
     1
 90
        0
176
     1
 62
    18
420
        0
176
     1
 90
       50
176
     1
 90
        3
176
     1
 62
     5
420
      255
176
     1
290
     0
176
     1
 90
       50
176
     1
 90
       50
176
     1
 90
       50
176
     1
290
     0
176
     1
 90
       50
176
     1
 62
   256
176
     0
 40
1.0
176
     0
 90
        2
176
     1
  1
strokes_ogs.tif
176
     1
290
     0
176
     1
 40
1.0
176
     1
 40
1.0
176
     1
  0
VISUALSTYLE
  5
A6
102
{ACAD_REACTORS
330
99
102
}
330
99
100
AcDbVisualStyle
  2
Thicken
 70
    13
177
     3
291
     1
 70
    58
 90
        2
176
     1
 90
        2
176
     1
 90
        1
176
     1
 90
        0
176
     1
 40
0.6
176
     1
 40
30.0
176
     1
 62
     7
420
 16777215
176
     1
 90
        1
176
     1
 90
        4
176
     1
 62
     7
176
     1
 62
   257
176
     1
 90
        1
176
     1
 90
        1
176
     1
 40
1.0
176
     1
 90
       12
176
     1
 62
     7
176
     1
 40
1.0
176
     1
 90
        1
176
     1
 90
        6
176
     1
 90
        2
176
     1
 62
     7
176
     1
 90
        5
176
     1
 90
        0
176
     1
 90
        0
176
     1
290
     0
176
     1
 90
        1
176
     1
 40
0.0
176
     1
 90
        0
176
     1
290
     0
176
     1
290
     1
176
     1
290
     1
176
     1
290
     0
176
     1
290
     0
176
     1
290
     0
176
     1
290
     0
176
     1
290
     0
176
     1
290
     0
176
     1
 90
       50
176
     1
 40
0.0
176
     1
 40
1.0
176
     1
 90
        0
176
     1
 62
    18
420
        0
176
     1
 90
       50
176
     1
 90
        3
176
     1
 62
     5
420
      255
176
     1
290
     0
176
     1
 90
       50
176
     1
 90
       50
176
     1
 90
       50
176
     1
290
     0
176
     1
 90
       50
176
     1
 62
   256
176
     0
 40
1.0
176
     0
 90
        2
176
     1
  1
strokes_ogs.tif
176
     1
290
     0
176
     1
 40
1.0
176
     1
 40
1.0
176
     1
  0
VISUALSTYLE
  5
A0
102
{ACAD_REACTORS
330
99
102
}
330
99
100
AcDbVisualStyle
  2
Wireframe
 70
     5
177
     3
291
     0
 70
    58
 90
        0
176
     1
 90
        2
176
     1
 90
        0
176
     1
 90
        0
176
     1
 40
0.6
176
     1
 40
30.0
176
     1
 62
     7
420
 16777215
176
     1
 90
        1
176
     1
 90
        4
176
     1
 62
     7
176
     1
 62
   257
176
     1
 90
        1
176
     1
 90
        1
176
     1
 40
1.0
176
     1
 90
        0
176
     1
 62
   257
176
     1
 40
1.0
176
     1
 90
        1
176
     1
 90
        6
176
     1
 90
        2
176
     1
 62
     7
176
     1
 90
        3
176
     1
 90
        0
176
     1
 90
        0
176
     1
290
     0
176
     1
 90
        1
176
     1
 40
0.0
176
     1
 90
        0
176
     1
290
     0
176
     1
290
     1
176
     1
290
     1
176
     1
290
     0
176
     1
290
     0
176
     1
290
     0
176
     1
290
     0
176
     1
290
     0
176
     1
290
     0
176
     1
 90
       50
176
     1
 40
0.0
176
     1
 40
1.0
176
     1
 90
        0
176
     1
 62
    18
420
        0
176
     1
 90
       50
176
     1
 90
        3
176
     1
 62
     5
420
      255
176
     1
290
     0
176
     1
 90
       50
176
     1
 90
       50
176
     1
 90
       50
176
     1
290
     0
176
     1
 90
       50
176
     1
 62
   256
176
     0
 40
1.0
176
     0
 90
        2
176
     1
  1
strokes_ogs.tif
176
     1
290
     0
176
     1
 40
1.0
176
     1
 40
1.0
176
     1
  0
VISUALSTYLE
  5
180
102
{ACAD_REACTORS
330
99
102
}
330
99
100
AcDbVisualStyle
  2
X-Ray
 70
    25
177
     3
291
     0
 70
    58
 90
        2
176
     1
 90
        2
176
     1
 90
        1
176
     1
 90
        1
176
     1
 40
0.5
176
     1
 40
30.0
176
     1
 62
     7
420
 16777215
176
     1
 90
        1
176
     1
 90
        0
176
     1
 62
     7
176
     1
 62
   257
176
     1
 90
        1
176
     1
 90
        1
176
     1
 40
1.0
176
     1
 90
        8
176
     1
 62
     7
176
     1
 40
1.0
176
     1
 90
        1
176
     1
 90
        6
176
     1
 90
        2
176
     1
 62
     7
176
     1
 90
        3
176
     1
 90
        0
176
     1
 90
        0
176
     1
290
     0
176
     1
 90
       13
176
     1
 40
0.0
176
     1
 90
        0
176
     1
290
     0
176
     1
290
     1
176
     1
290
     1
176
     1
290
     0
176
     1
290
     0
176
     1
290
     0
176
     1
290
     0
176
     1
290
     0
176
     1
290
     0
176
     1
 90
       50
176
     1
 40
0.0
176
     1
 40
1.0
176
     1
 90
        0
176
     1
 62
    18
420
        0
176
     1
 90
       50
176
     1
 90
        3
176
     1
 62
     5
420
      255
176
     1
290
     0
176
     1
 90
       50
176
     1
 90
       50
176
     1
 90
       50
176
     1
290
     0
176
     1
 90
       50
176
     1
 62
   256
176
     0
 40
1.0
176
     0
 90
        2
176
     1
  1
strokes_ogs.tif
176
     1
290
     0
176
     1
 40
1.0
176
     1
 40
1.0
176
     1
  0
DICTIONARYVAR
  5
4A0D6
102
{ACAD_REACTORS
330
4A0D5
102
}
330
4A0D5
100
DictionaryVariables
280
     0
  1
2
  0
DICTIONARYVAR
  5
4A0D7
102
{ACAD_REACTORS
330
4A0D5
102
}
330
4A0D5
100
DictionaryVariables
280
     0
  1
400.000000
  0
DICTIONARYVAR
  5
4A0D8
102
{ACAD_REACTORS
330
4A0D5
102
}
330
4A0D5
100
DictionaryVariables
280
     0
  1
1
  0
DICTIONARYVAR
  5
4A0D9
102
{ACAD_REACTORS
330
4A0D5
102
}
330
4A0D5
100
DictionaryVariables
280
     0
  1
1:1
  0
DICTIONARYVAR
  5
4A0DA
102
{ACAD_REACTORS
330
4A0D5
102
}
330
4A0D5
100
DictionaryVariables
280
     0
  1
STANDARD
  0
DICTIONARYVAR
  5
4A0DB
102
{ACAD_REACTORS
330
4A0D5
102
}
330
4A0D5
100
DictionaryVariables
280
     0
  1
STANDARD
  0
DICTIONARYVAR
  5
4A0DC
102
{ACAD_REACTORS
330
4A0D5
102
}
330
4A0D5
100
DictionaryVariables
280
     0
  1
Imperial24
  0
DICTIONARYVAR
  5
4A0DD
102
{ACAD_REACTORS
330
4A0D5
102
}
330
4A0D5
100
DictionaryVariables
280
     0
  1
Imperial24
  0
DICTIONARYVAR
  5
4A0DE
102
{ACAD_REACTORS
330
4A0D5
102
}
330
4A0D5
100
DictionaryVariables
280
     0
  1
-1
  0
DICTIONARYVAR
  5
4A0DF
102
{ACAD_REACTORS
330
4A0D5
102
}
330
4A0D5
100
DictionaryVariables
280
     0
  1
1
  0
DICTIONARYVAR
  5
4A0E0
102
{ACAD_REACTORS
330
4A0D5
102
}
330
4A0D5
100
DictionaryVariables
280
     0
  1
2
  0
DICTIONARYVAR
  5
4A0E1
102
{ACAD_REACTORS
330
4A0D5
102
}
330
4A0D5
100
DictionaryVariables
280
     0
  1
0
  0
DICTIONARYVAR
  5
4A0E2
102
{ACAD_REACTORS
330
4A0D5
102
}
330
4A0D5
100
DictionaryVariables
280
     0
  1
4
  0
DICTIONARYVAR
  5
4A0E3
102
{ACAD_REACTORS
330
4A0D5
102
}
330
4A0D5
100
DictionaryVariables
280
     0
  1
V-Construction
  0
DICTIONARYVAR
  5
4A0E4
102
{ACAD_REACTORS
330
4A0D5
102
}
330
4A0D5
100
DictionaryVariables
280
     0
  1
ByLayer
  0
DICTIONARYVAR
  5
4A0E5
102
{ACAD_REACTORS
330
4A0D5
102
}
330
4A0D5
100
DictionaryVariables
280
     0
  1
0
  0
DICTIONARYVAR
  5
4A0E6
102
{ACAD_REACTORS
330
4A0D5
102
}
330
4A0D5
100
DictionaryVariables
280
     0
  1
0
  0
DICTIONARYVAR
  5
4A0E7
102
{ACAD_REACTORS
330
4A0D5
102
}
330
4A0D5
100
DictionaryVariables
280
     0
  1
0
  0
DICTIONARYVAR
  5
4A0E8
102
{ACAD_REACTORS
330
4A0D5
102
}
330
4A0D5
100
DictionaryVariables
280
     0
  1
2
  0
DICTIONARYVAR
  5
4A0E9
102
{ACAD_REACTORS
330
4A0D5
102
}
330
4A0D5
100
DictionaryVariables
280
     0
  1
1.000000
  0
DICTIONARYVAR
  5
4A0EA
102
{ACAD_REACTORS
330
4A0D5
102
}
330
4A0D5
100
DictionaryVariables
280
     0
  1
1
  0
DICTIONARYVAR
  5
4A0EB
102
{ACAD_REACTORS
330
4A0D5
102
}
330
4A0D5
100
DictionaryVariables
280
     0
  1
1.000000
  0
DICTIONARYVAR
  5
4A0EC
102
{ACAD_REACTORS
330
4A0D5
102
}
330
4A0D5
100
DictionaryVariables
280
     0
  1
1
  0
DICTIONARYVAR
  5
4A0ED
102
{ACAD_REACTORS
330
4A0D5
102
}
330
4A0D5
100
DictionaryVariables
280
     0
  1
0
  0
DICTIONARYVAR
  5
4A0EE
102
{ACAD_REACTORS
330
4A0D5
102
}
330
4A0D5
100
DictionaryVariables
280
     0
  1

  0
DICTIONARYVAR
  5
4A0EF
102
{ACAD_REACTORS
330
4A0D5
102
}
330
4A0D5
100
DictionaryVariables
280
     0
  1
0
  0
DICTIONARYVAR
  5
4A0F0
102
{ACAD_REACTORS
330
4A0D5
102
}
330
4A0D5
100
DictionaryVariables
280
     0
  1
127
  0
DICTIONARY
  5
194
330
22
100
AcDbDictionary
280
     1
281
     1
  0
DICTIONARY
  5
188
330
97
100
AcDbDictionary
280
     1
281
     1
  3
FBXASSET
360
189
  0
DICTIONARY
  5
186
330
96
100
AcDbDictionary
280
     1
281
     1
  3
FBXASSET
360
187
  0
DICTIONARY
  5
110
330
98
100
AcDbDictionary
280
     1
281
     1
  3
BUMPTILE
360
112
  3
DIFFUSETILE
360
111
  3
FBXASSET
360
18A
  3
OPACITYTILE
360
113
  3
REFLECTIONTILE
360
114
  0
DICTIONARY
  5
104
330
87
100
AcDbDictionary
280
     1
281
     1
  3
ACAD_ROUNDTRIP_2008_TABLESTYLE_CELLSTYLEMAP
360
6B280
  0
XRECORD
  5
189
102
{ACAD_REACTORS
330
188
102
}
330
188
100
AcDbXrecord
280
     1
 70
     1
 90
429727718
  1
508B35C9-AEE7-456F-BE74-D52651303AC6
310
504B03040A0000080000B670623B3DEE336E79000000790000001B0000006175746F6465736B2D64657369676E2D7061636B6167652E786D6C3C3F786D6C2076657273696F6E3D22312E302220656E636F64696E673D227574662D3822203F3E3C666F726D6174733E3C666F726D61743E687474703A2F2F736368656D612E
310
6175746F6465736B2E636F6D2F64657369676E2D7061636B6167652F323030393C2F666F726D61743E3C2F666F726D6174733E504B0304140006080800B670623BD486FD9CA0000000F4000000130000005B436F6E74656E745F54797065735D2E786D6C7D8EC10E82300C865F65E91D8A1E8C310C0EEA1BF002731658846E
310
D98AC1B77784ABF1D8FE5FBFBF75BBCE937A534CCEB38643598122B6FEE978D0B0485F9C41B54DDD7D022595594E1A469170414C76A4D9A4D207E29CF43ECE46F218070CC6BECC4078ACAA135ACF422C856C0E68EA1BF5669944DDD7BCDE7B1F8E415D77AECB980613C2E4AC91FC167A2B244592486606FC29C8FD7F045B9A
310
EF7053A7E60B504B0304140006080800B670623B28ED286BEB0000007C01000008000000636F72652E786D6C8D90416EC3201045AF82665B6183218D6D61A254764FD00B204C5C94182C03558F5F9C3852BBEB6A467FFE9B197D71FA9E6FE8CBACC17AD7012D0820E3B41FAD9B3A48F1826B40272956EFE32F1B20A766D3C1
310
268314D3EAD3B24BDABB685CCCAAF3A3D94515828980F42D371D04FD696655A814B3235C8B45E9AB9A4C419F5D8653B2237A1CB163DE672FD6AC209BF3C08E0D1B30EB19C3FC9D72FCC6EB231EFA33EDE96BDD341517E5064B11EDFCBCAF57A3A2194156843498524CAA0FCA5B7268F9E185D42D21A2DCEC7FA0B48CFF8492
310
759155FBBB0F2C80A4F991FB408A72CB22977B50B96EB9C91F504B0304140006080800B670623B55019EA25F0000007C00000007000000636E782E786D6C4DCB3B0E80201045D1AD90E915ED2CF8AC45050C11660C8261F98AB1B07AC9C97D42D718D865D3E909258CFD00CCE24AC6E326A164D74DC0B4128928FF32603847
310
2BA13128B1252AC747C6BAB984FC68F0B87FE8960A5C09FE86CFB69FBA01504B0304140006080800B670623B7BC41AC871010000D40300000C0000006662782F636F72652E786D6CC553ED6E8320147D15C2DF4501B56B6D90A64BBB27D80B50A5CE54C120983EFEAE1F4DD7A56BBA5FF3879273EEE59E7310BE393735EA95
310
ED2AA333CC428A91D2B9292A5D66D8BB63B0C26823B835C67D2BC348CB46657880B1E0A535BE9DA1DC68A7B403549B42CDA0EC3AE530CA6B5864B8CB3F552343E91D5474A7B095F949962A6421D0502778E72C0840D390E18DC5F170E664C205F7BE2A66B62A605A75AC94C522DDEEE3651AEF837817C741F2CE92E02D592D
310
83FD6ECB76EC7595A651C2C9D02CB8AB9A8BBADC2AE954814544691A3016D0E883256BBA58278B17BA5A53CAC9507ED3E4DBE2C9265F691747B3DCA9ADC382819091F8E1162272A8933DE82182932144F88C09DF060D8140C84E1EEA8B8F1340BDCA9DB1093085F157AA97B557309586747CD0EF0B4EA64E983A6E0EAEEFCE
310
889E9EF17847386AA94B30211D2C0FDE0D3AF9A4610EAD5536E8DD1969631B593F67E381C33F5157F17725E5A636F6BF1491F980C8FC7B90E13E8A2F504B0304140006080800B670623B70102A487D0000009D0000000B0000006662782F636E782E786D6C4DCCD10A83201886E15B91FFDC95A5C30335ACCDFB886521330D
310
A76397BF1A1DECE883878F57749FD5A3B74D2F17830472A901D9F088930B8B849267CC01754AA418F3DF0D5018572BE160506249B16C274D761E8BCFBB7A179E27F65CB39A0F14D396184C9921B81F34C3ACA1B4B99ABB6E6F062A25AA5F69DF23ACBE504B0304140006080800B670623B3610CA3329010000120200003100
310
00006662782F42384135303843342D343331462D343546312D424341352D3532343432364645413344462F636F72652E786D6C8D515B6EC32010BC0AE22B55850D0E446E848992B43E412FE000495162B07854397EA176A4F62F3F2C9A9D991D58BEBB8F37F0AD7D30CE76905418026DA553C65E3A98E219B510EC04F7CEC5
310
3F3408EC30EA0E16180A7EF12E4D0B249D8DDAC68C5AA7F4020E21E80881BCE54B0783FCD2E3500D296646B856D320AFC34557A4CAEDCC133C449F0380794839A138B47B86DB2345744D7A44594FD0E1B867883594369BFE63BF7EEF793D0B054FC9A8456E548E63CE46FB674D8A58F068C6477CE9F510B582A2C1F80D1182
310
70F349E816B32D65AFB8DD62CCEB42FF274A937A52948C8DEB66893BCB021484D7734370E5D2E9F608A3EF93F3119479ABA0E50B14B8C298119A43CCC4FCFCECB8A18B6388CEE7EF5D5D4F994BD86CBBA182D76543B9FCAE2FD7B24DF103504B0304140006080800B670623B1B8617914E0100003303000030000000666278
310
2F42384135303843342D343331462D343546312D424341352D3532343432364645413344462F636E782E786D6CD593C16EC32010447F0571AD6CE3D489D20813A9877E410FBD62D82434182CC055F3F75D1292E692438FBD206B7698593D61BEFD1E2DF982108D773D6D6B460938E5B571FB9ECE6957AD29D90A1EBC4F7736
310
4A9C1CA1A759A682EF839FA72269D8C9D92654AD71C72206887E0E0A22CAF926B15E498B01E0AA19451807D01A34B919F16B070157417138917400F2F6FA41FCF0092A45DEE414C19BDC21783E4BD39D891265658C3D8DEA00A3ACE59CBC8678ACB54CB26EEB6BD7839D7E9348BE70AD9C8321B9BCA7F9A4A26C542347DEE0
310
50F09802D22BA6749A800A394DD62899107273365E3C82CFC6A55557BC06C10774B7ABE7AEC3B0F34CF06446280E154026D0542C187BA9DAB6628BF7B6DBB0E5A65B3EB1F58631DE64BBE083F7B65CC218087E22CABB042E51D1F2268F1FE12B3EA24D40D63E9CFE00120194D60B9D5BC67FE6D39CDF37E20AF817881F504B
310
0304140006080800B670623BBFEF2E3B690500003C100000340000006662782F42384135303843342D343331462D343546312D424341352D3532343432364645413344462F6F626A656374732E786D6CAD575D739B3814FD2B0CFB0C98D84E931D4227B6938EA793B6534F3BFB90198F0099B001899144EAECAFDF231018B0
310
D37A3FFC609090EEE7B94757C1FB7D915B2F54C88CB31BDB7727B64559CC938CA53776A576CE956DBD0F03C1B9EA2DB32D460A7A63EB693B0C52C1ABD24C257447AA5C8D66EF177F5832A68CDA569C13296F6C193FD182B8A4523CA1F2D94D88226EBADBBBBEDB2C1C8A4D05299F46424B222853B014F30C52ACC6287F389C
310
D85E1878FA7B18E87FB36AFAF62AAFF667A83F635211161F291B8999FAB3D5DDC5FCDA99CF6653677679E13B8BFBC5CAF1DF4D27CBCBE5F2FAF6EE1A8AA51290642C117467871F101B91C581D77CEA2C36869F3229E68CD1B8F61F1ED6361B89092D294B90C78C4A68EB793D190E7D1D9BDEE7A91E1B95FDE9F3BCEAEFE809
310
6A6D6F9F7D4B79F4275C90E7A04248AA51D5C4C738DAE06F72885AC4796EBE65D22A88A22223B995679120E2D50EB1542F098381188D4EA111AE3DB043FF20AF6F2B4AE3D7D83D65E5AECA730D4D3BAC91BD05FEA992B565D95F549CD6069B90AB2A63EACA38A45E4B6A87D781574F86817E4C2FCCC72690D62E2729520E37
310
9BAF234797BAF6D62B3BFC781FED37BA1E4F2B2F052FA9501A3E80569BB8F6A9A364D4FA67654E6F803383981F82F21591FF84F23D9882BC896C3FDBCF8C162508933B2E0AE4C69DD43F6BD2BE38DDDBF10BF86CB4FA784D37F3AF16075E67EC9030DECA1FC0A55373F5DFF3378C591FA9BDF485C10B0A8C8BA909E5262639
310
A8E72163488806A595734C81CB77D1DE0ED7604A303B76913CEC0272F412782FF88EFF4636D8AA56DF7B322474C4B767303F625997056C7B032C473C592B36CEBD15F3F9FF5233B7ABCDC74D257624A60F8658567497B14CE1EC3C80B76FD02011038F9EE9EB0F2E12387A9C844D3F09855125116D1D731DF8B43D2CF4E0A0
310
79A020C6BE946BCE0B7EA1E1219331CD73C228AF5A2DDD31A4B1DA918CE91350854D40A71723140BFA92E94E62B0626016CEFA5864A50E5977E8753CEDBEE1CBB7F52780D20E17AF0BA0F5F9B02A3AD07DCC732EB6D1EBB661421BE0C39E21BABF0FE16D22EA6929407C8DE596724C88B749B6DB5512BC7B228ADFD7CB7EA6
310
3A22397E690BA8D5D8D4E40CEC8CDA23C2C0B7D5898640101CEC9C6D331CE328CB93CAFBBAC70A642DF70DF95155945B52F08AA973C23469FD69ADEF84F7BB18F983A8F8C90E37F5D35980B2139A1C523540813E824EF83448CF7C72B598CE97D7CEEDDDDD3B6736BFBC771677EF66CE6A7E7139F7A793E9EDF2B2B3A8B624
310
0CDA13AA5F8388264EC4A0129909F3B7F5A16CEDF08128E97D680ACA4B9BE7B7B58BB638F0B00700EF36AE8B32A705658A68F83EE897FC2B41573190D1CCAF0B92D233A47CFEB019D9809933F67DD1A5467F8CF69AD9A5AE859342D45355448C64F968A371DC2D596ADC6E43D93D1B466F877A64E2893E54F23C4B40388995
310
525E5005DA3983ED45412510D3EFCA13737B3863F74BD30F2A12E5B4B5E489A025CE25500DB855B11ACE5BBFA185D35DD48D8DC3CE7DC69F2944DB42AA6F6CF09BCA622ADD08C7A36E7C6AE18000BAB08E040135C2D21C9D75B3A91B77BB746C403F38018DFE6EC939DD92F16B40BC05294B9CDA035AAD6D330AE27FE4786B
310
8E45145EA34A75BE1C263A676A35A8ACC6297337400BF16C54EF515F3F77CB77EB3583889C754FFA29081AA98E2222ADEF05DA3E63D2EDEA8B8756C05A7FB6CABC4A91CBF325398202CC952E70A008A830324BA200D5E5EF8F5F04C75DB4B0EE3340E071C98B823333B83577596BF3849B69F2085AA0FAFA212F26BEFF5877
310
FDE622B28D88A42E49E43326DA82D31E8CB006401E1DA726059ECEC168F97A6599036306A135688F9AD2E61A6EA178F4CD51974A9F2CCB9F36FE5EBD14601068D9C3BF01504B0304140006080000B670623B000000000000000000000000350000006662782F42384135303843342D343331462D343546312D424341352D35
310
32343432364645413344462F76657274696365732E62696E504B0304140006080800B670623BF270F1330600000004000000360000006662782F42384135303843342D343331462D343546312D424341352D3532343432364645413344462F747269616E676C65732E62696E636660600000504B0304140006080000B67062
310
3B000000000000000000000000370000006662782F42384135303843342D343331462D343546312D424341352D3532343432364645413344462F617474726962757465732E62696E504B0304140006080800B670623B08DA0BD19000000041010000360000006662782F42384135303843342D343331462D343546312D4243
310
41352D3532343432364645413344462F6469726563746F72792E786D6C858F410AC3201045AF22B36F53E9A60B35CBEEBAE80D244E44489C6234F4F835464A48035D0DF398FF9F8AF63D0E6CC63039F212F8F9020C7D47C6792B21C5FE7403D62A1188E2E60C98D7234A5830286103A55745067B9D86B8A3CF9C7F90C11DE6
310
07FB144396D7B6A82D282E9A152AD114D5EF2CB866EEE831B8EEA07A7BB5A8D7D61A2BAAEB7FD5F70921FF497D00504B0304140006080800B670623B3B4606F3FE000000A00100003B0000006662782F42384135303843342D343331462D343546312D424341352D3532343432364645413344462F7265736F75726365732F
310
636F72652E786D6C8D504B6E833010BD0A9A6D65B08134808CA354A427E8052C332156828DFCA97AFC9A40A576D7CDCCE87D344F8F9FBEE647F689CE6B6B7A6039850C8DB2A336530F315C4903D94970676DF82583CCC8197B5861107C72362E3BA4AC096842428D1D7107A5F71820538F74F4E0D50D6799CB1892C2DFF345
310
AABB9C306779A2934E701F5C0A906D4FD609C2A1B7D129F4BCD858C163D4E3AED163FAA9AF1A1D88F67CA98E6D35906AA82A52BFB39ABCD5CD915C86331BD86BD3B665CD8BD52C78D0F34F46E550061C419494B6843142CB0F5677F4D0D58717DA7494F26295FF31C565FCA7296A13AA728FBBD93C0896823C09C18BB5AFB4
310
9E65A6BD762BBE01504B010214000A0000080000B670623B3DEE336E79000000790000001B00000000000000000000000000000000006175746F6465736B2D64657369676E2D7061636B6167652E786D6C504B01021400140006080800B670623BD486FD9CA0000000F40000001300000000000000000000000000B2000000
310
5B436F6E74656E745F54797065735D2E786D6C504B01021400140006080800B670623B28ED286BEB0000007C010000080000000000000000000000000083010000636F72652E786D6C504B01021400140006080800B670623B55019EA25F0000007C000000070000000000000000000000000094020000636E782E786D6C50
310
4B01021400140006080800B670623B7BC41AC871010000D40300000C00000000000000000000000000180300006662782F636F72652E786D6C504B01021400140006080800B670623B70102A487D0000009D0000000B00000000000000000000000000B30400006662782F636E782E786D6C504B01021400140006080800B6
310
70623B3610CA3329010000120200003100000000000000000000000000590500006662782F42384135303843342D343331462D343546312D424341352D3532343432364645413344462F636F72652E786D6C504B01021400140006080800B670623B1B8617914E010000330300003000000000000000000000000000D10600
310
006662782F42384135303843342D343331462D343546312D424341352D3532343432364645413344462F636E782E786D6C504B01021400140006080800B670623BBFEF2E3B690500003C10000034000000000000000000000000006D0800006662782F42384135303843342D343331462D343546312D424341352D35323434
310
32364645413344462F6F626A656374732E786D6C504B01021400140006080000B670623B0000000000000000000000003500000000000000000000000000280E00006662782F42384135303843342D343331462D343546312D424341352D3532343432364645413344462F76657274696365732E62696E504B010214001400
310
06080800B670623BF270F133060000000400000036000000000000000000000000007B0E00006662782F42384135303843342D343331462D343546312D424341352D3532343432364645413344462F747269616E676C65732E62696E504B01021400140006080000B670623B00000000000000000000000037000000000000
310
00000000000000D50E00006662782F42384135303843342D343331462D343546312D424341352D3532343432364645413344462F617474726962757465732E62696E504B01021400140006080800B670623B08DA0BD1900000004101000036000000000000000000000000002A0F00006662782F42384135303843342D3433
310
31462D343546312D424341352D3532343432364645413344462F6469726563746F72792E786D6C504B01021400140006080800B670623B3B4606F3FE000000A00100003B000000000000000000000000000E1000006662782F42384135303843342D343331462D343546312D424341352D3532343432364645413344462F72
310
65736F75726365732F636F72652E786D6C504B0506000000000E000E0080040000651100000000
  0
XRECORD
  5
187
102
{ACAD_REACTORS
330
186
102
}
330
186
100
AcDbXrecord
280
     1
 70
     1
 90
429727718
  1
887D55A9-D0DD-414E-B741-A7DCD4DA2B4C
310
504B03040A0000080000B670623B3DEE336E79000000790000001B0000006175746F6465736B2D64657369676E2D7061636B6167652E786D6C3C3F786D6C2076657273696F6E3D22312E302220656E636F64696E673D227574662D3822203F3E3C666F726D6174733E3C666F726D61743E687474703A2F2F736368656D612E
310
6175746F6465736B2E636F6D2F64657369676E2D7061636B6167652F323030393C2F666F726D61743E3C2F666F726D6174733E504B0304140006080800B670623BD486FD9CA0000000F4000000130000005B436F6E74656E745F54797065735D2E786D6C7D8EC10E82300C865F65E91D8A1E8C310C0EEA1BF002731658846E
310
D98AC1B77784ABF1D8FE5FBFBF75BBCE937A534CCEB38643598122B6FEE978D0B0485F9C41B54DDD7D022595594E1A469170414C76A4D9A4D207E29CF43ECE46F218070CC6BECC4078ACAA135ACF422C856C0E68EA1BF5669944DDD7BCDE7B1F8E415D77AECB980613C2E4AC91FC167A2B244592486606FC29C8FD7F045B9A
310
EF7053A7E60B504B0304140006080800B670623BBC1638F5EC0000007C01000008000000636F72652E786D6C8D90416EC3201045AF82665B61836BE2D8C24471DB9CA01740401C94182C03558F5F9C3852BBEB6A467FFE9B197D7EF89E6EE8CB2CC17AD7032D0820E394D7D68D3DA478C67B4007C117EFE32F1B202727D3C3
310
2A83E0E3E2D3BC49CABB685CCCAAF3DA6CA20CC14440EA969B1E82BA98491632C5EC08D76296EA2A4753D06797E194AC468F2356E77DF66CCD02825543D50CACC62D39ED70FDC68EB8FD68F6F8787A6784342D1DDA1D2F5758F068A7E77DB518198D065111D2624A31A93E69DD11D6D5EC85EC3B4278B9DAFF4069D6FF8492
310
75F1B5DADE7D600104CD8FDC0782976B16B9DC83CA75CD4DFC00504B0304140006080800B670623B55019EA25F0000007C00000007000000636E782E786D6C4DCB3B0E80201045D1AD90E915ED2CF8AC45050C11660C8261F98AB1B07AC9C97D42D718D865D3E909258CFD00CCE24AC6E326A164D74DC0B4128928FF326038
310
472BA13128B1252AC747C6BAB984FC68F0B87FE8960A5C09FE86CFB69FBA01504B0304140006080800B670623B3586FFB671010000D40300000C0000006662782F636F72652E786D6CC553ED6E8320147D15C2DF4541A76D6D90A6DDD627D80B50A4CE54C120983EFEAE1F4DD7A55BBA5FF3879273EEE59E7310B6393735EA
310
95ED2AA3731C851423A5A5292A5DE6D8BB63B0C268C39935C67D29C3488B46E578803167A535BE9D2169B453DA01AA4DA16650749D7218C91A1639EEE4876A4428BC838AEE14B6429E44A9C228041AEA38EB9C0501681A32BC313F1ECE8C4C3867DE57C5CC56054CAB8E95B298A7F12E5EEED224C8E87E11242FE936C8DE96
310
AB60BB7F4D295D66D12E5B30323473E6AAE6A24E5A259C2A308F29CD82280A68FC1E256B9AAE93F489AED694323294DF34F9B678B0C957DA3DC7B3DCA9ADC33C022123F1CD2D44E450277AD04338234388F01913BE0D1A0281909D38D4171F27807A259DB1093085F157AA17B557309586747CD0CF0B46A64E983A6E0EAEEF
310
CE881F9EF1FB8E70D44297604238581EBC1B74B249C31C5AAB6CD0BB33D2C636A27ECCC62F0EFF445DC5DF95244D6DEC7F2922F30191F9F720C37DE49F504B0304140006080800B670623B4220A0FF7D0000009D0000000B0000006662782F636E782E786D6C4DCCD10A83201886E15B91FFDCE542CB0335D0EC3E6259C84A
310
C3E9D8E5AF46073BFAE0E1E315DD675BD1DBA5978F41C2FD4600B9F088930F8B849267CC01754AA418F3DF0D50183727E164506249B1EC174D6E1ECB9A0F5D7D785E68DB8151CD286E5A5363CA6B8A39E90D36D40E96B086F55A43A544F52B1D7B86D517504B0304140006080800B670623B2FA3FEDE290100001202000031
310
0000006662782F45374635344235342D363743322D343832342D383044432D4334454645303536354442422F636F72652E786D6C8D515B6EC32010BC0AE22B55850D2E386E848994D7097A0117488A1283C5A3CAF10BB523B57FF961D1ECCCECC0F2ED7DBC816FED8371B687A4C210682B9D32F6D2C314CFA883602BB8772E
310
FEA141608751F7B0C050F08B77695A20E96CD43666D43AA5177008414708E42D5F7A18E4971E876A483133C2B59A06791D2EBA22556E679EE021FA1C00CC43CA09C5717D6274C7286AD7FB06D1AEA1A8C3873DDAD3E3E98859CB0EBB1DAF67A1E02919B5C88DCA71CCD968FFAC49110B1ECDF8882FBD1EA256503418BF2342
310
106E3E08DD60B6A1EC15771B8C795DE8FF4469524F8A92B1F1AD59E2CEB20005E1F5DC105CB9F4797B84D1F7C9F908CABC55D0F2050A5C61CC1AD2F27A26E6E767C7962E8E213A9FBF7775FDCC5CC266DB960A5E970DE5F2BBBE5CCB36C50F504B0304140006080800B670623B1B8617914E01000033030000300000006662
310
782F45374635344235342D363743322D343832342D383044432D4334454645303536354442422F636E782E786D6CD593C16EC32010447F0571AD6CE3D489D20813A9877E410FBD62D82434182CC055F3F75D1292E692438FBD206B7698593D61BEFD1E2DF982108D773D6D6B460938E5B571FB9ECE6957AD29D90A1EBC4F77
310
364A9C1CA1A759A682EF839FA72269D8C9D92654AD71C72206887E0E0A22CAF926B15E498B01E0AA19451807D01A34B919F16B070157417138917400F2F6FA41FCF0092A45DEE414C19BDC21783E4BD39D891265658C3D8DEA00A3ACE59CBC8678ACB54CB26EEB6BD7839D7E9348BE70AD9C8321B9BCA7F9A4A26C542347DE
310
E050F09802D22BA6749A800A394DD62899107273365E3C82CFC6A55557BC06C10774B7ABE7AEC3B0F34CF06446280E154026D0542C187BA9DAB6628BF7B6DBB0E5A65B3EB1F58631DE64BBE083F7B65CC218087E22CABB042E51D1F2268F1FE12B3EA24D40D63E9CFE00120194D60B9D5BC67FE6D39CDF37E20AF817881F50
310
4B0304140006080800B670623B29652116630500003C100000340000006662782F45374635344235342D363743322D343832342D383044432D4334454645303536354442422F6F626A656374732E786D6CAD575D739B3814FD2B0CFB0C989834C90EA1639B24E3E9A6EDD4D3CE3E64C623834CD8006224913AFDF57B040203
310
B65BEF871F0C12D2FD3CF7E8CA7FBFCB33E3957291B2E2D674ED8969D02262715A24B76625B7D6B569BC0F7CCE98EC2D338D82E4F4D654D366E0279C55A59E8AE99654991CCDDECFFF3444440B6A1A514684B83545F44C7362934AB2988A173B2692D8C97667BB76B3702836E1A47C1E092D09A78584A5982F20C5688C7287
310
C389E904BEA3BE07BEFAD7ABA6A75739B53F43FD69212429A20365233153D70BEF2E2E6FAC4BCF9B5ADEBB0BD79ADFCF43CBBD9A4E16EF168B9BD9DD0D140BC921495BC2E9D60C1E101B9E46BED37CEA2CD6861F3329624541A3DA7F7858DBAC25C6B4A4458C3CA654405BCFEBC970E8AAD8F43E4FD558ABEC4F9FE7557F47
310
4F506B7BFBEC5BCA367FC105710E2AB8A00A554D7CB4A30DFE26FBA86D18CBF4B75418399194A72433B274C3097F33032C554B027F2046A1932B842B0FCCC0DDCBEBDB8AD2F835768F59B9ADB24C41D30C6A64AF817F2A456D59FA83F2E3DA60137255A585BCD60EC9B7929AC18DEFD49381AF1ED30BFDB109A4B1CD488294
310
C3CDE6EBC8D185AABD6568061FEE37BB95AAC7E3CA4BCE4ACAA5820FA0D526AE7DAA2869B5EE5999531BE0CC20E6FBA07C41E43FA27CF7A6206F3CDD793B4F6B919C1462CB788EDCD893FA674CDA17AB7B3B7C019F8D561FAEE966FED562DFE98C1D12C6A9FC015C2A35D7FF3D7FC398F591DA4B5FE0BFA2C0189FEA50AE22
310
92817A1ED3020951A03432862970F976B33383259812CC8E5D240BBA801CBCF8CE2BBEE3BF910DB6AAD5F79E05123AE2DB33981FB1ACCB02B69D00CB014FD68AB573A7627EF9BFD4CC2C5C7D58557C4B22FAA88925A4DBB44825CECE3D78FB060D1231F0E885BE7D673C86A3874958F593906B5502D1563157814FDAC3420D
310
F69A070A22EC4B98E23CFF171A1E5311D12C23056555ABA53B8614563B92D17D02AAB009E8F46284624E5F53D5490C560CCCC2591FF1B45421EB0EBD8EA7ED13BE7C5D7E0428CD60FEF60779EB13E6664FF711CB185F6FDED60D139A001FF60CD1FD6D086F1D51474901E26B2CB794A343BC8ED3EDB612E0DD2351FCB65CF4
310
33D511C9E14B5B40ADC6A6263DB0336A8F700DDF56271A024E70B0B3629DE21847591E55DED73D56206AB927E46FAABC5C939C55853C274C93D69FD6FA4E78BF8B11DF898C9ECD60553FAD39283BA6F18984AA23E8884F83F45C5F5F859797B31B2B9C84A1E5B9DE9D35BFF25C6B76152E422F9C5DCC3D847F5801ED09D5AF
310
41441327A25FF15487F9EB725FB666F048A4701E9A827292E6F97569A32DF61DEC01C0BB8DCBBCCC684E0B49147C1FD54BF685A0AB18C868E6973949E819523E3DAC463660E68C7D9F55A9D1EFA3BD7A76A16AE1A810F95CE59B82A4D968A376DC2E8B44BBDD86B27B368CDE0ED548C7137DA860591A83706223A12CA712B4
310
7306DBF39C0A20A6DF95C7FAF670C6EED7A61F946493D1D6926782963813403548A78AE470DEF80D2D9CEAA26E4D1C76F60BFE74219A06527D6B82DF641A51616F703CAAC6A7160E08A00BEB4810A0274592A1B36E3675E36E978A0DE80727A0D6DF2D39A75BD27E0D8837276589537B40ABB56D5A41F48F1C6FCD3188C4EB
310
A6929D2FFB89CE995A4D00AE813BDD032DC48B56BD437DFDDC2DD7AED70C2272D63DE9A72068A45A92F0A4BE17A8A06B9366E16707AD80B1FC649459952097E74BB23805982B55E0401150A165964402AA8BDF9F3E7386BB686EDCA780C0D382E5392BF460A6EFB2C6EA1937D3F809B440D5F5435C4C5CF7A9EEFAF54564BD
310
2182DA24162F98680B4E7930C21A0079709CEAEB99A372305ABE0C0D7D6078105A83F6A0296DAEE1068A47DD1C55A9F4C9B2FC69E3EFD44B81028E963DF81B504B0304140006080000B670623B000000000000000000000000350000006662782F45374635344235342D363743322D343832342D383044432D433445464530
310
3536354442422F76657274696365732E62696E504B0304140006080800B670623BF270F1330600000004000000360000006662782F45374635344235342D363743322D343832342D383044432D4334454645303536354442422F747269616E676C65732E62696E636660600000504B0304140006080000B670623B00000000
310
0000000000000000370000006662782F45374635344235342D363743322D343832342D383044432D4334454645303536354442422F617474726962757465732E62696E504B0304140006080800B670623B08DA0BD19000000041010000360000006662782F45374635344235342D363743322D343832342D383044432D4334
310
454645303536354442422F6469726563746F72792E786D6C858F410AC3201045AF22B36F53E9A60B35CBEEBAE80D244E44489C6234F4F835464A48035D0DF398FF9F8AF63D0E6CC63039F212F8F9020C7D47C6792B21C5FE7403D62A1188E2E60C98D7234A5830286103A55745067B9D86B8A3CF9C7F90C11DE607FB144396
310
D7B6A82D282E9A152AD114D5EF2CB866EEE831B8EEA07A7BB5A8D7D61A2BAAEB7FD5F70921FF497D00504B0304140006080800B670623B6378F24DFF000000A00100003B0000006662782F45374635344235342D363743322D343832342D383044432D4334454645303536354442422F7265736F75726365732F636F72652E
310
786D6C8D504B6E833010BD0A9A6D65B0094E42641C85B639412F6099496225D8C89FAAC7AF09546A77DDCC8CDE47F3F4C4F16B7C149FE88371B603565228D06A37187BED20C50BD9437194C23B177FC9A0B06AC40E6618A4B87A97A615D2CE46B431A3D60DB8822A048C50E8473E3A08FA86A32A558A5911EEE5A4F45D5DB1
310
6465A6B34E8A107D0E502C4FE609D26370C96B0CA25A58295232C3AA3143FE692E063D485EF7F5AEE71BD2D2F39634AFFC44DAF7DD9E9CCE6F9CD25DCBFA762BAAD92C4534E34F46ED51451C40D694B6843142EB0FD61C283F34FC85EE0F948A6A96FF31A569F8A729191B37F51A77B105902C0779125254735F793DCBCC7B
310
EE567E03504B010214000A0000080000B670623B3DEE336E79000000790000001B00000000000000000000000000000000006175746F6465736B2D64657369676E2D7061636B6167652E786D6C504B01021400140006080800B670623BD486FD9CA0000000F40000001300000000000000000000000000B20000005B436F6E
310
74656E745F54797065735D2E786D6C504B01021400140006080800B670623BBC1638F5EC0000007C010000080000000000000000000000000083010000636F72652E786D6C504B01021400140006080800B670623B55019EA25F0000007C000000070000000000000000000000000095020000636E782E786D6C504B010214
310
00140006080800B670623B3586FFB671010000D40300000C00000000000000000000000000190300006662782F636F72652E786D6C504B01021400140006080800B670623B4220A0FF7D0000009D0000000B00000000000000000000000000B40400006662782F636E782E786D6C504B01021400140006080800B670623B2F
310
A3FEDE290100001202000031000000000000000000000000005A0500006662782F45374635344235342D363743322D343832342D383044432D4334454645303536354442422F636F72652E786D6C504B01021400140006080800B670623B1B8617914E010000330300003000000000000000000000000000D2060000666278
310
2F45374635344235342D363743322D343832342D383044432D4334454645303536354442422F636E782E786D6C504B01021400140006080800B670623B29652116630500003C10000034000000000000000000000000006E0800006662782F45374635344235342D363743322D343832342D383044432D4334454645303536
310
354442422F6F626A656374732E786D6C504B01021400140006080000B670623B0000000000000000000000003500000000000000000000000000230E00006662782F45374635344235342D363743322D343832342D383044432D4334454645303536354442422F76657274696365732E62696E504B01021400140006080800
310
B670623BF270F13306000000040000003600000000000000000000000000760E00006662782F45374635344235342D363743322D343832342D383044432D4334454645303536354442422F747269616E676C65732E62696E504B01021400140006080000B670623B0000000000000000000000003700000000000000000000
310
000000D00E00006662782F45374635344235342D363743322D343832342D383044432D4334454645303536354442422F617474726962757465732E62696E504B01021400140006080800B670623B08DA0BD190000000410100003600000000000000000000000000250F00006662782F45374635344235342D363743322D34
310
3832342D383044432D4334454645303536354442422F6469726563746F72792E786D6C504B01021400140006080800B670623B6378F24DFF000000A00100003B00000000000000000000000000091000006662782F45374635344235342D363743322D343832342D383044432D4334454645303536354442422F7265736F75
310
726365732F636F72652E786D6C504B0506000000000E000E0080040000611100000000
  0
XRECORD
  5
112
102
{ACAD_REACTORS
330
110
102
}
330
110
100
AcDbXrecord
280
     1
270
     1
271
     1
  0
XRECORD
  5
111
102
{ACAD_REACTORS
330
110
102
}
330
110
100
AcDbXrecord
280
     1
270
     1
271
     1
  0
XRECORD
  5
18A
102
{ACAD_REACTORS
330
110
102
}
330
110
100
AcDbXrecord
280
     1
 70
     0
 90
1778669749
  1
9BF507EE-FAF7-4A99-A33D-4EE51894BC40
310
504B03040A0000080000B670623B3DEE336E79000000790000001B0000006175746F6465736B2D64657369676E2D7061636B6167652E786D6C3C3F786D6C2076657273696F6E3D22312E302220656E636F64696E673D227574662D3822203F3E3C666F726D6174733E3C666F726D61743E687474703A2F2F736368656D612E
310
6175746F6465736B2E636F6D2F64657369676E2D7061636B6167652F323030393C2F666F726D61743E3C2F666F726D6174733E504B0304140006080800B670623BD486FD9CA0000000F4000000130000005B436F6E74656E745F54797065735D2E786D6C7D8EC10E82300C865F65E91D8A1E8C310C0EEA1BF002731658846E
310
D98AC1B77784ABF1D8FE5FBFBF75BBCE937A534CCEB38643598122B6FEE978D0B0485F9C41B54DDD7D022595594E1A469170414C76A4D9A4D207E29CF43ECE46F218070CC6BECC4078ACAA135ACF422C856C0E68EA1BF5669944DDD7BCDE7B1F8E415D77AECB980613C2E4AC91FC167A2B244592486606FC29C8FD7F045B9A
310
EF7053A7E60B504B0304140006080800B670623BCA089DFFEC0000007C01000008000000636F72652E786D6C8D90416E83301045AF62CDB632D8402020E32882F604BD80653BC44AB011B6AB1EBF262152BBEB6A467FFE9B197D76FA9EEFE84BAFDE38DB03CD08206DA553C64E3DC470C1474027CE56E7C22F1B202B66DDC3
310
260367D3EAE2B24BD2D9A06D48AA754AEFA2F05E0740F29E9A1EBCBCEA59642286E4F0B76C11F226269DD15797E0188D42CF2346A57DE662F40ABCAEC77628C6120F654571D50C04B7F5B9C1E3997CD4F550BE3745C3F20DE62C98F9755FAE5A04AD801784B498524C8A4F5A75E4D055873772EC0861F966FF03C545FD138A
310
C686B2D8DF7D621E384D8F3C069CE55B16A93C824A75CB8DFF00504B0304140006080800B670623B55019EA25F0000007C00000007000000636E782E786D6C4DCB3B0E80201045D1AD90E915ED2CF8AC45050C11660C8261F98AB1B07AC9C97D42D718D865D3E909258CFD00CCE24AC6E326A164D74DC0B4128928FF326038
310
472BA13128B1252AC747C6BAB984FC68F0B87FE8960A5C09FE86CFB69FBA01504B0304140006080800B670623B68FC0B7272010000D40300000C0000006662782F636F72652E786D6CC5535B6E833010BC8AE5DF0A6C1E8124328E22D29EA01770C0A128602363A31CBFCB234A53A555FA553EC09AD9F5CE8C31DB5DDA060D
310
D2F4B556190E7C8A9154852E6B5565D8D993B7C668C799D1DA7E29C3488956667884316795D1AE5BA0422B2B950554E9522EA0E87B69312A1A5864B82F3E642B7CE12C54F467BF13C55954D20F7CA0A18EB3DE1A1080E621E31BF3D3F1C2C88C73E65C5D2E6C5DC2B4FA544B8379921C36797888BC3C8A032F4E73EA6D927D
310
EA1DF6F42D49F2E8350D5346C666CE6CDD5ED515460A2B4BCC434A375E1078347C0FE22D5D6DE3D50B5D6F2965642CBF6B725DF96493AB958DC245EEDCD6631E809089F8E61622B2A81703E8219C913144F84C09DF070D8140C8561C9BAB8F3340832CAC363130A576376A108D933095FA747AD0CF0B46E64E983A6D0EAE1F
310
CE089F9EF1FB8E70D44255604258581E9D1D75B259C3125A278D37D80B52DAB4A279CEC62F0EFF44DDC43F9454E8469BFF5244960322CBEF41C6FBC83F01504B0304140006080800B670623B0F71DDB67E0000009D0000000B0000006662782F636E782E786D6C4DCCD10A83201886E15B91FFDCA54DB73F502386BB8F5816
310
32D3703976F9ABD1C18E3E78F87855FB990379BBFCF2296AE02706C4C5471A7C9C349475A408A4352AA7B4FEDD80C47E761A7606A3A69CCA72D0E0C6BE8475D3E0E3F3409428EA6B27A84079A782899AA2EC1A7AE3ECCC2FD858CB2D544655BFD2B67BD87C01504B0304140006080800B670623BE134B4FB28010000120200
310
00310000006662782F38353834323741342D343835462D343034322D383541392D4331303331363839454531452F636F72652E786D6C8D515B6EC32010BC0AE22B55850D0EA424C24451959EA0172086A42831583CAA1CBF503B52FB971F16CDCECC0EACD8DFC71BF836215AEF7A481A0C817183D7D65D7A98D3197108F652
310
04EFD31F1A044E8DA6871586525C82CFD3020DDE25E352419DD76601558C264130DCCAA58771F832A36A544E8511AFCDA486ABBA988634A55D7852C4144A00300FA927949C71DABD1D28A29C7D208A6987383B6CD13BC16BB2E1DBE3911C453B0BA5C8D9EA456E758963CFD684674DAA588A64C747FC2118958C86B2C3788B
310
0841B8FB247487D98EB257CC77188BB6D2FF89F2A49F1465EBD2BA5BE2CEB2082511EDDC9042FB7CBA3DC298FBE4430275DE2A9AE1054ADC60CC08E3A29D89E5F9C5714317C7987C28DFBBBA9E0A97B0D97643A568EB864AF95D5FA9759BF207504B0304140006080800B670623B1B8617914E010000330300003000000066
310
62782F38353834323741342D343835462D343034322D383541392D4331303331363839454531452F636E782E786D6CD593C16EC32010447F0571AD6CE3D489D20813A9877E410FBD62D82434182CC055F3F75D1292E692438FBD206B7698593D61BEFD1E2DF982108D773D6D6B460938E5B571FB9ECE6957AD29D90A1EBC4F
310
77364A9C1CA1A759A682EF839FA72269D8C9D92654AD71C72206887E0E0A22CAF926B15E498B01E0AA19451807D01A34B919F16B070157417138917400F2F6FA41FCF0092A45DEE414C19BDC21783E4BD39D891265658C3D8DEA00A3ACE59CBC8678ACB54CB26EEB6BD7839D7E9348BE70AD9C8321B9BCA7F9A4A26C542347
310
DEE050F09802D22BA6749A800A394DD62899107273365E3C82CFC6A55557BC06C10774B7ABE7AEC3B0F34CF06446280E154026D0542C187BA9DAB6628BF7B6DBB0E5A65B3EB1F58631DE64BBE083F7B65CC218087E22CABB042E51D1F2268F1FE12B3EA24D40D63E9CFE00120194D60B9D5BC67FE6D39CDF37E20AF817881F
310
504B0304140006080800B670623B5933D422630500003B100000340000006662782F38353834323741342D343835462D343034322D383541392D4331303331363839454531452F6F626A656374732E786D6CAD575B6FA33814FE2B887D0642934E9B156594264D158D3A534DD4D13E548A0C38942D60649B4EBABF7E3F8321
310
40924EF6928780CDF1B97EE762EFF32E4B8D37CA45C2F21BD3B547A641F39045491EDF98A5DC5AD7A6F1D9F73863B243661A39C9E88DA9B64DDF8B392B0BBD15D12D295339D85DDEFE618890E6D434C2940871638AF08566C426A5641115AF764424B1E3EDCE76ED9AB0CF36E6A47819302D08A7B984A6D8CFC1C5A89572FB
310
CB91E9F89EA3BEFB9EFAD754E3D3544E654F5F7E920B49F2F040D880CDD89D2CEE2E2EA7D6E56432B6269F2E5CEB7679BBB0DCABF168FE693E9FCEEEA6102C240727AD09A75BD3BF876F78127A4EFDA9D5582B7E4CA590E5390D2BFB6161A5B3E618D182E611E2985001691DAB47FDA5AB7CD3F93C566B2DB2BB7D9E55DD13
310
1D468DEECDB3AB290BFE8409E21C54704115AA6AFF68436BFC8DF65E0B184BF5B74418199194272435D224E084BF9B3E481589EFF5D828747285706581E9BB7B7E5D5D911ABFC6EE312DB7659A2A689A7E85EC0DF04FA5A8344BFEA2FCB834E8845895492EAFB541F2BDA0A63FF59C6AD3F7D4637CA13FD68E34B629891172
310
98597F1D183A57B9B75A98FE9765B05BAB7C3C2EBCE0ACA05C2AF8005A4DE09AA7F29216EB9E15397500C6F47CBE77CA7778FE2BD277AF0AE2C693DD6437D1522427B9D8329E2136F6A8FA19A3E6C56ADF0E5F50CF06D48734EDCEBF22F69C56D97EC138153F804B85E6FABFC7AFEFB32E523BE1F3BD372418E363EDCA7548
310
52949E8724474014288D94610BB57C1BEC4C7F854A89CA8E5324F55B871CBC78CE1BBEE3BFE68D6A5589EF3C730474506FCFA8FCF0659516D0ED04580EEA6425581B77CAE797FF4BCECC16EB2FEB926F49481F746159D06D922712BD730FDEAE42BD40F42C7AA5EF3F198F60E86110D6DD20645A9480B795CF95E3E3A659A8
310
C55E724F408873315335CFFB8584874484344D494E59D94869DB90C26A5B64F49C802CAC1D3ABE18A098D3B7444D123D8A9E5AE8F5214F0AE5B2B6E9B575DA3E61CBD3EA2B4009FA940524DD1305FB6A1FB294F14DF0BEA90BA109ECE1481FDC3FFAE8D60E75141700BE82725371B4873751B2DD960265F788137FACE6DD40
310
B575E4F0A5C99F46629D92131467A41EE11ABD8D4CCC039CA0AFB37C93A08B232B8F0AEFCA1E0A1015DF13FC83322B362463652ECF71D3A8B1A7D1BE65DE1D62C44F22C317D35F574FEB16153BA2D13E543D10A80E74C4A65E78A6B7CBCBD1D5DD9DB59C2DAFACC96C3AB566E3F1C29ADCDD5DBAD7D3C9ED7C822ED74F80A6
310
41755310DE4443F44A9E68373FADF6596BFA0F440AE7BECE2727AE9F4F2B1B53B1E7E00CF0DD1E5C65454A339A4BA2D0FBA05ED2EF0443458F47BDBFCA484CCFE0F2ED7E3DD0013B679C7B5499467F0ECEEADDB9CA85A34CE44B99053949D2C1416DB85DE4B136BB7165FBAC0B7AB3542BED4F8CA182A549847A1319316519
310
95A83A67147B9E5101C47487F2485F1ECE38FD568F839204296D3479219888530154036E6528FBFBC66F98E0D4107563A2D7D9AFF8D389681A08F58D89F22693900A3B407754734FC51C10C010D6D640809EE4718AC1BA3ED4AEDB53CA37283F68805A7E4B72CEB0A4EDEAD5DD8C14059A76AFAA56BA6901E13F32BC51C720
310
12AF41295B5BF61BAD3195181FB506E6B40F4C10AF5AF40EF9F5B159AE5DD1F43C72D635E94310D45C2D49785C5D0B94D3B54AB3C5A38349C0587D338AB48C11CBF339599C02CCA54A70A008A8D03C0B2201D5F9EFCF8F9CE12A9A19CB0410789EB32C63B95ECCF455D658BFE0621A3DA32C5075FB101723D77DAE867E7D0F
310
D90444509B44E2151B4DC2290B065803200FBAA9BE9D392A0603F2D5C2D00D6302A615680F66D2FA166E2079D4C551A54AB758161FCEFD4E450A14704CECFEDF504B0304140006080000B670623B000000000000000000000000350000006662782F38353834323741342D343835462D343034322D383541392D4331303331
310
363839454531452F76657274696365732E62696E504B0304140006080800B670623BF270F1330600000004000000360000006662782F38353834323741342D343835462D343034322D383541392D4331303331363839454531452F747269616E676C65732E62696E636660600000504B0304140006080000B670623B000000
310
000000000000000000370000006662782F38353834323741342D343835462D343034322D383541392D4331303331363839454531452F617474726962757465732E62696E504B0304140006080800B670623B08DA0BD19000000041010000360000006662782F38353834323741342D343835462D343034322D383541392D43
310
31303331363839454531452F6469726563746F72792E786D6C858F410AC3201045AF22B36F53E9A60B35CBEEBAE80D244E44489C6234F4F835464A48035D0DF398FF9F8AF63D0E6CC63039F212F8F9020C7D47C6792B21C5FE7403D62A1188E2E60C98D7234A5830286103A55745067B9D86B8A3CF9C7F90C11DE607FB1443
310
96D7B6A82D282E9A152AD114D5EF2CB866EEE831B8EEA07A7BB5A8D7D61A2BAAEB7FD5F70921FF497D00504B0304140006080800B670623BD9A3B367FE000000A00100003B0000006662782F38353834323741342D343835462D343034322D383541392D4331303331363839454531452F7265736F75726365732F636F7265
310
2E786D6C8D504B6E833010BD0A9A6D65B01D0201194711694FD00B586642AD043BF2A7EAF16B122AB5BB6E6646EFA3797AE2F8B5DC8A4FF4C1383B002B291468B59B8C9D0748F1420E501CA5F0CEC55F3228AC5A708015062966EFD27D83B4B3116DCCA875136EA00A012314FA968F0182FEC045952AC5AC08D7F2AEF455CD
310
58B232D3592745883E07289E4FD609D26370C96B0CA27AB252A464A64D63A6FCD35C0C7A904D73EE467EE664DCD58CD4ED4849D79C5A723ED1B7A61977AF2D6F45B59AA58866F9C9A83DAA8813484E6947182394BFB3BAA7FBBEDEBFD0434FA9A856F91F53BA4FFF342563E38E6F719FB60092E5200F428A6AED2BAF479979
310
AFDDCA6F504B010214000A0000080000B670623B3DEE336E79000000790000001B00000000000000000000000000000000006175746F6465736B2D64657369676E2D7061636B6167652E786D6C504B01021400140006080800B670623BD486FD9CA0000000F40000001300000000000000000000000000B20000005B436F6E
310
74656E745F54797065735D2E786D6C504B01021400140006080800B670623BCA089DFFEC0000007C010000080000000000000000000000000083010000636F72652E786D6C504B01021400140006080800B670623B55019EA25F0000007C000000070000000000000000000000000095020000636E782E786D6C504B010214
310
00140006080800B670623B68FC0B7272010000D40300000C00000000000000000000000000190300006662782F636F72652E786D6C504B01021400140006080800B670623B0F71DDB67E0000009D0000000B00000000000000000000000000B50400006662782F636E782E786D6C504B01021400140006080800B670623BE1
310
34B4FB280100001202000031000000000000000000000000005C0500006662782F38353834323741342D343835462D343034322D383541392D4331303331363839454531452F636F72652E786D6C504B01021400140006080800B670623B1B8617914E010000330300003000000000000000000000000000D3060000666278
310
2F38353834323741342D343835462D343034322D383541392D4331303331363839454531452F636E782E786D6C504B01021400140006080800B670623B5933D422630500003B10000034000000000000000000000000006F0800006662782F38353834323741342D343835462D343034322D383541392D4331303331363839
310
454531452F6F626A656374732E786D6C504B01021400140006080000B670623B0000000000000000000000003500000000000000000000000000240E00006662782F38353834323741342D343835462D343034322D383541392D4331303331363839454531452F76657274696365732E62696E504B01021400140006080800
310
B670623BF270F13306000000040000003600000000000000000000000000770E00006662782F38353834323741342D343835462D343034322D383541392D4331303331363839454531452F747269616E676C65732E62696E504B01021400140006080000B670623B0000000000000000000000003700000000000000000000
310
000000D10E00006662782F38353834323741342D343835462D343034322D383541392D4331303331363839454531452F617474726962757465732E62696E504B01021400140006080800B670623B08DA0BD190000000410100003600000000000000000000000000260F00006662782F38353834323741342D343835462D34
310
3034322D383541392D4331303331363839454531452F6469726563746F72792E786D6C504B01021400140006080800B670623BD9A3B367FE000000A00100003B000000000000000000000000000A1000006662782F38353834323741342D343835462D343034322D383541392D4331303331363839454531452F7265736F75
310
726365732F636F72652E786D6C504B0506000000000E000E0080040000611100000000
  0
XRECORD
  5
113
102
{ACAD_REACTORS
330
110
102
}
330
110
100
AcDbXrecord
280
     1
270
     1
271
     1
  0
XRECORD
  5
114
102
{ACAD_REACTORS
330
110
102
}
330
110
100
AcDbXrecord
280
     1
270
     1
271
     1
  0
CELLSTYLEMAP
  5
6B280
102
{ACAD_REACTORS
330
104
102
}
330
104
100
AcDbCellStyleMap
 90
        3
300
CELLSTYLE
  1
TABLEFORMAT_BEGIN
 90
        5
170
     1
 91
        0
 92
    32768
 62
   257
 93
        1
300
CONTENTFORMAT
  1
CONTENTFORMAT_BEGIN
 90
        0
 91
        0
 92
      512
 93
        0
300

 40
0.0
140
1.0
 94
        5
 62
     0
340
11
144
0.25
309
CONTENTFORMAT_END
171
     1
301
MARGIN
  1
CELLMARGIN_BEGIN
 40
0.06
 40
0.06
 40
0.06
 40
0.06
 40
0.18
 40
0.18
309
CELLMARGIN_END
 94
        6
 95
        1
302
GRIDFORMAT
  1
GRIDFORMAT_BEGIN
 90
        0
 91
        1
 62
     0
 92
       -2
340
0
 93
        0
 40
0.045
309
GRIDFORMAT_END
 95
        2
302
GRIDFORMAT
  1
GRIDFORMAT_BEGIN
 90
        0
 91
        1
 62
     0
 92
       -2
340
0
 93
        0
 40
0.045
309
GRIDFORMAT_END
 95
        4
302
GRIDFORMAT
  1
GRIDFORMAT_BEGIN
 90
        0
 91
        1
 62
     0
 92
       -2
340
0
 93
        0
 40
0.045
309
GRIDFORMAT_END
 95
        8
302
GRIDFORMAT
  1
GRIDFORMAT_BEGIN
 90
        0
 91
        1
 62
     0
 92
       -2
340
0
 93
        0
 40
0.045
309
GRIDFORMAT_END
 95
       16
302
GRIDFORMAT
  1
GRIDFORMAT_BEGIN
 90
        0
 91
        1
 62
     0
 92
       -2
340
0
 93
        0
 40
0.045
309
GRIDFORMAT_END
 95
       32
302
GRIDFORMAT
  1
GRIDFORMAT_BEGIN
 90
        0
 91
        1
 62
     0
 92
       -2
340
0
 93
        0
 40
0.045
309
GRIDFORMAT_END
309
TABLEFORMAT_END
  1
CELLSTYLE_BEGIN
 90
        1
 91
        1
300
_TITLE
309
CELLSTYLE_END
300
CELLSTYLE
  1
TABLEFORMAT_BEGIN
 90
        5
170
     1
 91
        0
 92
        0
 62
   257
 93
        1
300
CONTENTFORMAT
  1
CONTENTFORMAT_BEGIN
 90
        0
 91
        0
 92
      512
 93
        0
300

 40
0.0
140
1.0
 94
        5
 62
     0
340
11
144
0.18
309
CONTENTFORMAT_END
171
     1
301
MARGIN
  1
CELLMARGIN_BEGIN
 40
0.06
 40
0.06
 40
0.06
 40
0.06
 40
0.18
 40
0.18
309
CELLMARGIN_END
 94
        6
 95
        1
302
GRIDFORMAT
  1
GRIDFORMAT_BEGIN
 90
        0
 91
        1
 62
     0
 92
       -2
340
0
 93
        0
 40
0.045
309
GRIDFORMAT_END
 95
        2
302
GRIDFORMAT
  1
GRIDFORMAT_BEGIN
 90
        0
 91
        1
 62
     0
 92
       -2
340
0
 93
        0
 40
0.045
309
GRIDFORMAT_END
 95
        4
302
GRIDFORMAT
  1
GRIDFORMAT_BEGIN
 90
        0
 91
        1
 62
     0
 92
       -2
340
0
 93
        0
 40
0.045
309
GRIDFORMAT_END
 95
        8
302
GRIDFORMAT
  1
GRIDFORMAT_BEGIN
 90
        0
 91
        1
 62
     0
 92
       -2
340
0
 93
        0
 40
0.045
309
GRIDFORMAT_END
 95
       16
302
GRIDFORMAT
  1
GRIDFORMAT_BEGIN
 90
        0
 91
        1
 62
     0
 92
       -2
340
0
 93
        0
 40
0.045
309
GRIDFORMAT_END
 95
       32
302
GRIDFORMAT
  1
GRIDFORMAT_BEGIN
 90
        0
 91
        1
 62
     0
 92
       -2
340
0
 93
        0
 40
0.045
309
GRIDFORMAT_END
309
TABLEFORMAT_END
  1
CELLSTYLE_BEGIN
 90
        2
 91
        1
300
_HEADER
309
CELLSTYLE_END
300
CELLSTYLE
  1
TABLEFORMAT_BEGIN
 90
        5
170
     1
 91
        0
 92
        0
 62
   257
 93
        1
300
CONTENTFORMAT
  1
CONTENTFORMAT_BEGIN
 90
        0
 91
        0
 92
      512
 93
        0
300

 40
0.0
140
1.0
 94
        2
 62
     0
340
11
144
0.18
309
CONTENTFORMAT_END
171
     1
301
MARGIN
  1
CELLMARGIN_BEGIN
 40
0.06
 40
0.06
 40
0.06
 40
0.06
 40
0.18
 40
0.18
309
CELLMARGIN_END
 94
        6
 95
        1
302
GRIDFORMAT
  1
GRIDFORMAT_BEGIN
 90
        0
 91
        1
 62
     0
 92
       -2
340
0
 93
        0
 40
0.045
309
GRIDFORMAT_END
 95
        2
302
GRIDFORMAT
  1
GRIDFORMAT_BEGIN
 90
        0
 91
        1
 62
     0
 92
       -2
340
0
 93
        0
 40
0.045
309
GRIDFORMAT_END
 95
        4
302
GRIDFORMAT
  1
GRIDFORMAT_BEGIN
 90
        0
 91
        1
 62
     0
 92
       -2
340
0
 93
        0
 40
0.045
309
GRIDFORMAT_END
 95
        8
302
GRIDFORMAT
  1
GRIDFORMAT_BEGIN
 90
        0
 91
        1
 62
     0
 92
       -2
340
0
 93
        0
 40
0.045
309
GRIDFORMAT_END
 95
       16
302
GRIDFORMAT
  1
GRIDFORMAT_BEGIN
 90
        0
 91
        1
 62
     0
 92
       -2
340
0
 93
        0
 40
0.045
309
GRIDFORMAT_END
 95
       32
302
GRIDFORMAT
  1
GRIDFORMAT_BEGIN
 90
        0
 91
        1
 62
     0
 92
       -2
340
0
 93
        0
 40
0.045
309
GRIDFORMAT_END
309
TABLEFORMAT_END
  1
CELLSTYLE_BEGIN
 90
        3
 91
        2
300
_DATA
309
CELLSTYLE_END
  0
ENDSEC
  0
SECTION
  2
ACDSDATA
 70
     2
 71
     8
  0
ACDSSCHEMA
 90
        0
  1
AcDb_Thumbnail_Schema
  2
AcDbDs::ID
280
    10
 91
        8
  2
Thumbnail_Data
280
    15
 91
        0
101
ACDSRECORD
 95
        0
 90
        1
  2
AcDbDs::TreatedAsObjectData
280
     1
291
     1
101
ACDSRECORD
 95
        0
 90
        2
  2
AcDbDs::Legacy
280
     1
291
     1
101
ACDSRECORD
  1
AcDbDs::ID
 90
        3
  2
AcDs:Indexable
280
     1
291
     1
101
ACDSRECORD
  1
AcDbDs::ID
 90
        4
  2
AcDbDs::HandleAttribute
280
     7
282
     1
  0
ACDSSCHEMA
 90
        1
  1
AcDbDs::TreatedAsObjectDataSchema
  2
AcDbDs::TreatedAsObjectData
280
     1
 91
        0
  0
ACDSSCHEMA
 90
        2
  1
AcDbDs::LegacySchema
  2
AcDbDs::Legacy
280
     1
 91
        0
  0
ACDSSCHEMA
 90
        3
  1
AcDbDs::IndexedPropertySchema
  2
AcDs:Indexable
280
     1
 91
        0
  0
ACDSSCHEMA
 90
        4
  1
AcDbDs::HandleAttributeSchema
  2
AcDbDs::HandleAttribute
280
     7
 91
        1
284
     1
  0
ACDSSCHEMA
 90
        5
  1
AcDb3DSolid_ASM_Data
  2
AcDbDs::ID
280
    10
 91
        8
  2
ASM_Data
280
    15
 91
        0
101
ACDSRECORD
 95
        5
 90
        1
  2
AcDbDs::TreatedAsObjectData
280
     1
291
     1
101
ACDSRECORD
 95
        5
 90
        2
  2
AcDbDs::Legacy
280
     1
291
     1
101
ACDSRECORD
  1
AcDbDs::ID
 90
        3
  2
AcDs:Indexable
280
     1
291
     1
101
ACDSRECORD
  1
AcDbDs::ID
 90
        4
  2
AcDbDs::HandleAttribute
280
     7
282
     1
  0
ACDSRECORD
 90
        0
  2
AcDbDs::ID
280
    10
320
22
  2
Thumbnail_Data
280
    15
 94
     1666
310
89504E470D0A1A0A0000000D49484452000001000000006C0803000000B2ED9CC100000300504C5445212830FFFFFF2128300000000000000000000000000000000000000000000000000000330000660000990000CC0000FF0033000033330033660033990033CC0033FF0066000066330066660066990066CC0066FF0099
310
000099330099660099990099CC0099FF00CC0000CC3300CC6600CC9900CCCC00CCFF00FF0000FF3300FF6600FF9900FFCC00FFFF3300003300333300663300993300CC3300FF3333003333333333663333993333CC3333FF3366003366333366663366993366CC3366FF3399003399333399663399993399CC3399FF33CC00
310
33CC3333CC6633CC9933CCCC33CCFF33FF0033FF3333FF6633FF9933FFCC33FFFF6600006600336600666600996600CC6600FF6633006633336633666633996633CC6633FF6666006666336666666666996666CC6666FF6699006699336699666699996699CC6699FF66CC0066CC3366CC6666CC9966CCCC66CCFF66FF0066
310
FF3366FF6666FF9966FFCC66FFFF9900009900339900669900999900CC9900FF9933009933339933669933999933CC9933FF9966009966339966669966999966CC9966FF9999009999339999669999999999CC9999FF99CC0099CC3399CC6699CC9999CCCC99CCFF99FF0099FF3399FF6699FF9999FFCC99FFFFCC0000CC00
310
33CC0066CC0099CC00CCCC00FFCC3300CC3333CC3366CC3399CC33CCCC33FFCC6600CC6633CC6666CC6699CC66CCCC66FFCC9900CC9933CC9966CC9999CC99CCCC99FFCCCC00CCCC33CCCC66CCCC99CCCCCCCCCCFFCCFF00CCFF33CCFF66CCFF99CCFFCCCCFFFFFF0000FF0033FF0066FF0099FF00CCFF00FFFF3300FF3333
310
FF3366FF3399FF33CCFF33FFFF6600FF6633FF6666FF6699FF66CCFF66FFFF9900FF9933FF9966FF9999FF99CCFF99FFFFCC00FFCC33FFCC66FFCC99FFCCCCFFCCFFFFFF00FFFF33FFFF66FFFF99FFFFCCFFFFFF0000000D0D0D1A1A1A2828283535354343435050505D5D5D6B6B6B787878868686939393A1A1A1AEAEAEBB
310
BBBBC9C9C9D6D6D6E4E4E4F1F1F1FFFFFF0000000000000000000000000000000000000000000000000000000000002E4550F1000000CD4944415478DAEDD8CB0E8320100550FFFF7F67DFA6A63E2A4981B48903E7AC5CB8702E3080CB0200000000000000000000DC44444C5BF8CBA4197C961C338CF5D1E59D19C67A7B2A
310
553B6C02F1F31705906BF1B7758A31977CF50C18218075183B47337B0071A8FEF9D05E4EEA000E67BA6B0015132292F780F5DBDF95C71E42755DD9A77FF1D0F78FEDF2DECDBFBF09E40FE074B99B6F06942F3E1306B0B5C3D65D6DA000BE9F8563B823506520FB7DF814CCE83F84A2B045F6B6CADC9D710100000000000000
310
0000003A3D00DEC2F9CA2C8DFA270000000049454E44AE42608271075D0C0A01A03BC4DCEE7D5C4F3801D015C44C5864438B6974A576F4984356F0920613A82600D18B5A7817757455EFE14E828099EA5006923A6E2A63B9B897960044EC54055317D4F453114D5B4FD910C1975C0250074070A4660280E0452C011801F812
310
D1CB77CA0940D614C15ECA16C0434C378F952400715B044BA104E000C04D542D9D04E00300C1462601B80150C4D55149009E009C02AB882400670008AA1A09C01F803DB482842B007804B0C60D91CF2F9E2F7FB1C23DC1579225015C3F890CE05202B8F9242E001C5FF3827301006B5440D9FC87A325E680CBB4BF3A80E341
310
024800126BCED8DCCAFE0BC89323148B0004169DB1773E315BC236EF7D16429C74C0FC8810FAB822E4686C54F4D26BA9A9E2DD7790D975BD451A1FD53D220800A0797E05CB04E203000DE41FA502A8BD05F61574D1160836078CE58FF12DE253CECF072C2F70EA6F011040B1F60060AF8009C658FE140940F746886607B0F5
310
F2D84660BD1618B88A08D2027100640B8C5D0B2DBC0AC45A06BBF6C2581840B855A0358D18E98F251203406F1A612A80B202BAD38891FF580B500000D49D4988F37FAC813E72214627000A3582A5C338FE00598ED82311F33F3A0000000049454E44AE4260820F467818FD4AC64A010000000049454E44AE42608200187F52
310
539FF6AC0FF2D01229B97F7B56AE64E8787DBF9E93B283504D4929EEDB336DE133B927D0B706F146D8FDD54728002424931276690CDE5FFA471401522320E6FA719CDCC9E90D234F422DA512220CD4066298BF969A4028B717C4D481E25C1BC6C59A99842240E2F24B1F92F8AC20F021F00EFE737AFD0FDF7E00E9E9886BC5
310
1247A50000000049454E44AE426082
  0
ENDSEC
  0
EOF
