  0
SECTION
  2
HEADER
  9
$ACADVER
  1
AC1032
  9
$ACADMAINTVER
 90
      197
  9
$DWGCODEPAGE
  3
ANSI_1252
  9
$LASTSAVEDBY
  1
gregb
  9
$REQUIREDVERSIONS
160
                 0
  9
$INSBASE
 10
0.0
 20
0.0
 30
0.0
  9
$EXTMIN
 10
104448.985265286
 20
95264.00417819647
 30
0.0
  9
$EXTMAX
 10
104449.9323452767
 20
95265.36515843607
 30
0.0
  9
$LIMMIN
 10
0.0
 20
0.0
  9
$LIMMAX
 10
12.0
 20
9.0
  9
$ORTHOMODE
 70
     1
  9
$REGENMODE
 70
     1
  9
$FILLMODE
 70
     1
  9
$QTEXTMODE
 70
     0
  9
$MIRRTEXT
 70
     0
  9
$LTSCALE
 40
1.0
  9
$ATTMODE
 70
     1
  9
$TEXTSIZE
 40
0.2
  9
$TRACEWID
 40
0.05
  9
$TEXTSTYLE
  7
Standard
  9
$CLAYER
  8
freecads.com
  9
$CELTYPE
  6
ByLayer
  9
$CECOLOR
 62
   256
  9
$CELTSCALE
 40
1.0
  9
$DISPSILH
 70
     1
  9
$DIMSCALE
 40
1.0
  9
$DIMASZ
 40
0.18
  9
$DIMEXO
 40
0.0625
  9
$DIMDLI
 40
0.38
  9
$DIMRND
 40
0.0
  9
$DIMDLE
 40
0.0
  9
$DIMEXE
 40
0.18
  9
$DIMTP
 40
0.0
  9
$DIMTM
 40
0.0
  9
$DIMTXT
 40
0.18
  9
$DIMCEN
 40
0.09
  9
$DIMTSZ
 40
0.0
  9
$DIMTOL
 70
     0
  9
$DIMLIM
 70
     0
  9
$DIMTIH
 70
     1
  9
$DIMTOH
 70
     1
  9
$DIMSE1
 70
     0
  9
$DIMSE2
 70
     0
  9
$DIMTAD
 70
     0
  9
$DIMZIN
 70
     0
  9
$DIMBLK
  1

  9
$DIMASO
 70
     1
  9
$DIMSHO
 70
     1
  9
$DIMPOST
  1

  9
$DIMAPOST
  1

  9
$DIMALT
 70
     0
  9
$DIMALTD
 70
     2
  9
$DIMALTF
 40
25.4
  9
$DIMLFAC
 40
1.0
  9
$DIMTOFL
 70
     0
  9
$DIMTVP
 40
0.0
  9
$DIMTIX
 70
     0
  9
$DIMSOXD
 70
     0
  9
$DIMSAH
 70
     0
  9
$DIMBLK1
  1

  9
$DIMBLK2
  1

  9
$DIMSTYLE
  2
Standard
  9
$DIMCLRD
 70
     0
  9
$DIMCLRE
 70
     0
  9
$DIMCLRT
 70
     0
  9
$DIMTFAC
 40
1.0
  9
$DIMGAP
 40
0.09
  9
$DIMJUST
 70
     0
  9
$DIMSD1
 70
     0
  9
$DIMSD2
 70
     0
  9
$DIMTOLJ
 70
     1
  9
$DIMTZIN
 70
     0
  9
$DIMALTZ
 70
     0
  9
$DIMALTTZ
 70
     0
  9
$DIMUPT
 70
     0
  9
$DIMDEC
 70
     4
  9
$DIMTDEC
 70
     4
  9
$DIMALTU
 70
     2
  9
$DIMALTTD
 70
     2
  9
$DIMTXSTY
  7
Standard
  9
$DIMAUNIT
 70
     0
  9
$DIMADEC
 70
     0
  9
$DIMALTRND
 40
0.0
  9
$DIMAZIN
 70
     0
  9
$DIMDSEP
 70
    46
  9
$DIMATFIT
 70
     3
  9
$DIMFRAC
 70
     0
  9
$DIMLDRBLK
  1

  9
$DIMLUNIT
 70
     2
  9
$DIMLWD
 70
    -2
  9
$DIMLWE
 70
    -2
  9
$DIMTMOVE
 70
     0
  9
$DIMFXL
 40
1.0
  9
$DIMFXLON
 70
     0
  9
$DIMJOGANG
 40
0.7853981633974483
  9
$DIMTFILL
 70
     0
  9
$DIMTFILLCLR
 70
     0
  9
$DIMARCSYM
 70
     0
  9
$DIMLTYPE
  6

  9
$DIMLTEX1
  6

  9
$DIMLTEX2
  6

  9
$DIMTXTDIRECTION
 70
     0
  9
$LUNITS
 70
     2
  9
$LUPREC
 70
     4
  9
$SKETCHINC
 40
0.1
  9
$FILLETRAD
 40
0.0
  9
$AUNITS
 70
     0
  9
$AUPREC
 70
     0
  9
$MENU
  1
.
  9
$ELEVATION
 40
0.0
  9
$PELEVATION
 40
0.0
  9
$THICKNESS
 40
0.0
  9
$LIMCHECK
 70
     0
  9
$CHAMFERA
 40
0.0
  9
$CHAMFERB
 40
0.0
  9
$CHAMFERC
 40
0.0
  9
$CHAMFERD
 40
0.0
  9
$SKPOLY
 70
     0
  9
$TDCREATE
 40
2458157.454583334
  9
$TDUCREATE
 40
2458157.287916667
  9
$TDUPDATE
 40
2460666.779525463
  9
$TDUUPDATE
 40
2460666.612858797
  9
$TDINDWG
 40
0.1710532407
  9
$TDUSRTIMER
 40
0.1710532407
  9
$USRTIMER
 70
     1
  9
$ANGBASE
 50
0.0
  9
$ANGDIR
 70
     0
  9
$PDMODE
 70
     0
  9
$PDSIZE
 40
0.0
  9
$PLINEWID
 40
0.0
  9
$SPLFRAME
 70
     0
  9
$SPLINETYPE
 70
     6
  9
$SPLINESEGS
 70
     8
  9
$HANDSEED
  5
6B282
  9
$SURFTAB1
 70
     6
  9
$SURFTAB2
 70
     6
  9
$SURFTYPE
 70
     6
  9
$SURFU
 70
     6
  9
$SURFV
 70
     6
  9
$UCSBASE
  2

  9
$UCSNAME
  2

  9
$UCSORG
 10
0.0
 20
0.0
 30
0.0
  9
$UCSXDIR
 10
1.0
 20
0.0
 30
0.0
  9
$UCSYDIR
 10
0.0
 20
1.0
 30
0.0
  9
$UCSORTHOREF
  2

  9
$UCSORTHOVIEW
 70
     0
  9
$UCSORGTOP
 10
0.0
 20
0.0
 30
0.0
  9
$UCSORGBOTTOM
 10
0.0
 20
0.0
 30
0.0
  9
$UCSORGLEFT
 10
0.0
 20
0.0
 30
0.0
  9
$UCSORGRIGHT
 10
0.0
 20
0.0
 30
0.0
  9
$UCSORGFRONT
 10
0.0
 20
0.0
 30
0.0
  9
$UCSORGBACK
 10
0.0
 20
0.0
 30
0.0
  9
$PUCSBASE
  2

  9
$PUCSNAME
  2

  9
$PUCSORG
 10
0.0
 20
0.0
 30
0.0
  9
$PUCSXDIR
 10
1.0
 20
0.0
 30
0.0
  9
$PUCSYDIR
 10
0.0
 20
1.0
 30
0.0
  9
$PUCSORTHOREF
  2

  9
$PUCSORTHOVIEW
 70
     0
  9
$PUCSORGTOP
 10
0.0
 20
0.0
 30
0.0
  9
$PUCSORGBOTTOM
 10
0.0
 20
0.0
 30
0.0
  9
$PUCSORGLEFT
 10
0.0
 20
0.0
 30
0.0
  9
$PUCSORGRIGHT
 10
0.0
 20
0.0
 30
0.0
  9
$PUCSORGFRONT
 10
0.0
 20
0.0
 30
0.0
  9
$PUCSORGBACK
 10
0.0
 20
0.0
 30
0.0
  9
$USERI1
 70
     0
  9
$USERI2
 70
     0
  9
$USERI3
 70
     0
  9
$USERI4
 70
     0
  9
$USERI5
 70
     0
  9
$USERR1
 40
0.0
  9
$USERR2
 40
0.0
  9
$USERR3
 40
0.0
  9
$USERR4
 40
0.0
  9
$USERR5
 40
0.0
  9
$WORLDVIEW
 70
     1
  9
$SHADEDGE
 70
     3
  9
$SHADEDIF
 70
    70
  9
$TILEMODE
 70
     1
  9
$MAXACTVP
 70
    64
  9
$PINSBASE
 10
0.0
 20
0.0
 30
0.0
  9
$PLIMCHECK
 70
     0
  9
$PEXTMIN
 10
0.0
 20
0.0
 30
0.0
  9
$PEXTMAX
 10
0.0
 20
0.0
 30
0.0
  9
$PLIMMIN
 10
0.0
 20
0.0
  9
$PLIMMAX
 10
12.0
 20
9.0
  9
$UNITMODE
 70
     0
  9
$VISRETAIN
 70
     1
  9
$PLINEGEN
 70
     0
  9
$PSLTSCALE
 70
     1
  9
$TREEDEPTH
 70
  3020
  9
$CMLSTYLE
  2
Standard
  9
$CMLJUST
 70
     0
  9
$CMLSCALE
 40
1.0
  9
$PROXYGRAPHICS
 70
     1
  9
$MEASUREMENT
 70
     0
  9
$CELWEIGHT
370
    -1
  9
$ENDCAPS
280
     0
  9
$JOINSTYLE
280
     0
  9
$LWDISPLAY
290
     0
  9
$INSUNITS
 70
     1
  9
$HYPERLINKBASE
  1

  9
$STYLESHEET
  1
monochrome.ctb
  9
$XEDIT
290
     1
  9
$CEPSNTYPE
380
     0
  9
$PSTYLEMODE
290
     1
  9
$FINGERPRINTGUID
  2
{358EB121-6EE0-9143-8A3E-6E8E8869FDA6}
  9
$VERSIONGUID
  2
{9D3D447E-F911-C142-968B-96AE52C342AB}
  9
$EXTNAMES
290
     1
  9
$PSVPSCALE
 40
0.0
  9
$OLESTARTUP
290
     0
  9
$SORTENTS
280
   127
  9
$INDEXCTL
280
     0
  9
$HIDETEXT
280
     1
  9
$XCLIPFRAME
280
     2
  9
$HALOGAP
280
     0
  9
$OBSCOLOR
 70
   257
  9
$OBSLTYPE
280
     0
  9
$INTERSECTIONDISPLAY
280
     0
  9
$INTERSECTIONCOLOR
 70
   257
  9
$DIMASSOC
280
     2
  9
$PROJECTNAME
  1

  9
$CAMERADISPLAY
290
     0
  9
$LENSLENGTH
 40
50.0
  9
$CAMERAHEIGHT
 40
0.0
  9
$STEPSPERSEC
 40
2.0
  9
$STEPSIZE
 40
6.0
  9
$3DDWFPREC
 40
2.0
  9
$PSOLWIDTH
 40
0.25
  9
$PSOLHEIGHT
 40
4.0
  9
$LOFTANG1
 40
1.570796326794896
  9
$LOFTANG2
 40
1.570796326794896
  9
$LOFTMAG1
 40
0.0
  9
$LOFTMAG2
 40
0.0
  9
$LOFTPARAM
 70
     7
  9
$LOFTNORMALS
280
     1
  9
$LATITUDE
 40
37.795
  9
$LONGITUDE
 40
-122.394
  9
$NORTHDIRECTION
 40
0.0
  9
$TIMEZONE
 70
 -8000
  9
$LIGHTGLYPHDISPLAY
280
     1
  9
$TILEMODELIGHTSYNCH
280
     1
  9
$CMATERIAL
347
96
  9
$SOLIDHIST
280
     0
  9
$SHOWHIST
280
     1
  9
$DWFFRAME
280
     2
  9
$DGNFRAME
280
     0
  9
$REALWORLDSCALE
290
     1
  9
$INTERFERECOLOR
 62
     1
  9
$INTERFEREOBJVS
345
A3
  9
$INTERFEREVPVS
346
A0
  9
$CSHADOW
280
     0
  9
$SHADOWPLANELOCATION
 40
0.0
  0
ENDSEC
  0
SECTION
  2
CLASSES
  0
CLASS
  1
ACDBDICTIONARYWDFLT
  2
AcDbDictionaryWithDefault
  3
ObjectDBX Classes
 90
        0
 91
        1
280
     0
281
     0
  0
CLASS
  1
DICTIONARYVAR
  2
AcDbDictionaryVar
  3
ObjectDBX Classes
 90
        0
 91
       27
280
     0
281
     0
  0
CLASS
  1
TABLESTYLE
  2
AcDbTableStyle
  3
ObjectDBX Classes
 90
     4095
 91
        1
280
     0
281
     0
  0
CLASS
  1
MATERIAL
  2
AcDbMaterial
  3
ObjectDBX Classes
 90
     1153
 91
        3
280
     0
281
     0
  0
CLASS
  1
VISUALSTYLE
  2
AcDbVisualStyle
  3
ObjectDBX Classes
 90
     4095
 91
       25
280
     0
281
     0
  0
CLASS
  1
SCALE
  2
AcDbScale
  3
ObjectDBX Classes
 90
     1153
 91
       34
280
     0
281
     0
  0
CLASS
  1
MLEADERSTYLE
  2
AcDbMLeaderStyle
  3
ACDB_MLEADERSTYLE_CLASS
 90
     4095
 91
        1
280
     0
281
     0
  0
CLASS
  1
CELLSTYLEMAP
  2
AcDbCellStyleMap
  3
ObjectDBX Classes
 90
     1152
 91
        1
280
     0
281
     0
  0
CLASS
  1
EXACXREFPANELOBJECT
  2
ExAcXREFPanelObject
  3
EXAC_ESW
 90
     1025
 91
        1
280
     0
281
     0
  0
CLASS
  1
NPOCOLLECTION
  2
AcDbImpNonPersistentObjectsCollection
  3
ObjectDBX Classes
 90
     1153
 91
        1
280
     0
281
     0
  0
CLASS
  1
LAYER_INDEX
  2
AcDbLayerIndex
  3
ObjectDBX Classes
 90
        0
 91
        0
280
     0
281
     0
  0
CLASS
  1
SPATIAL_INDEX
  2
AcDbSpatialIndex
  3
ObjectDBX Classes
 90
        0
 91
        0
280
     0
281
     0
  0
CLASS
  1
IDBUFFER
  2
AcDbIdBuffer
  3
ObjectDBX Classes
 90
        0
 91
        0
280
     0
281
     0
  0
CLASS
  1
ACDBSECTIONVIEWSTYLE
  2
AcDbSectionViewStyle
  3
ObjectDBX Classes
 90
     1025
 91
        2
280
     0
281
     0
  0
CLASS
  1
ACDBDETAILVIEWSTYLE
  2
AcDbDetailViewStyle
  3
ObjectDBX Classes
 90
     1025
 91
        2
280
     0
281
     0
  0
CLASS
  1
SORTENTSTABLE
  2
AcDbSortentsTable
  3
ObjectDBX Classes
 90
        0
 91
        1
280
     0
281
     0
  0
CLASS
  1
ACAD_EVALUATION_GRAPH
  2
AcDbEvalGraph
  3
ObjectDBX Classes
 90
     1153
 91
        0
280
     0
281
     0
  0
CLASS
  1
BLOCKLINEARPARAMETER
  2
AcDbBlockLinearParameter
  3
ObjectDBX Classes
 90
     1153
 91
        0
280
     0
281
     0
  0
CLASS
  1
BLOCKLINEARGRIP
  2
AcDbBlockLinearGrip
  3
ObjectDBX Classes
 90
     1153
 91
        0
280
     0
281
     0
  0
CLASS
  1
BLOCKGRIPLOCATIONCOMPONENT
  2
AcDbBlockGripExpr
  3
ObjectDBX Classes
 90
     1153
 91
        0
280
     0
281
     0
  0
CLASS
  1
BLOCKSTRETCHACTION
  2
AcDbBlockStretchAction
  3
ObjectDBX Classes
 90
     1153
 91
        0
280
     0
281
     0
  0
CLASS
  1
ACDB_DYNAMICBLOCKPURGEPREVENTER_VERSION
  2
AcDbDynamicBlockPurgePreventer
  3
ObjectDBX Classes
 90
     1153
 91
        0
280
     0
281
     0
  0
CLASS
  1
BLOCKVISIBILITYPARAMETER
  2
AcDbBlockVisibilityParameter
  3
ObjectDBX Classes
 90
     1153
 91
        0
280
     0
281
     0
  0
CLASS
  1
BLOCKVISIBILITYGRIP
  2
AcDbBlockVisibilityGrip
  3
ObjectDBX Classes
 90
     1153
 91
        0
280
     0
281
     0
  0
CLASS
  1
ACDB_BLOCKREPRESENTATION_DATA
  2
AcDbBlockRepresentationData
  3
ObjectDBX Classes
 90
     1153
 91
        0
280
     0
281
     0
  0
CLASS
  1
SURFACE
  2
AcDbSurface
  3
ObjectDBX Classes
 90
     4095
 91
        0
280
     0
281
     1
  0
CLASS
  1
ACDBASSOCPERSSUBENTMANAGER
  2
AcDbAssocPersSubentManager
  3
ObjectDBX Classes
 90
     1024
 91
        1
280
     0
281
     0
  0
CLASS
  1
BLOCKARRAYACTION
  2
AcDbBlockArrayAction
  3
ObjectDBX Classes
 90
     1153
 91
        0
280
     0
281
     0
  0
CLASS
  1
BLOCKLOOKUPPARAMETER
  2
AcDbBlockLookupParameter
  3
ObjectDBX Classes
 90
     1153
 91
        0
280
     0
281
     0
  0
CLASS
  1
BLOCKLOOKUPGRIP
  2
AcDbBlockLookupGrip
  3
ObjectDBX Classes
 90
     1153
 91
        0
280
     0
281
     0
  0
CLASS
  1
BLOCKLOOKUPACTION
  2
AcDbBlockLookupAction
  3
ObjectDBX Classes
 90
     1153
 91
        0
280
     0
281
     0
  0
ENDSEC
  0
SECTION
  2
TABLES
  0
TABLE
  2
VPORT
  5
8
330
0
100
AcDbSymbolTable
 70
     1
  0
VPORT
  5
94
330
8
100
AcDbSymbolTableRecord
100
AcDbViewportTableRecord
  2
*Active
 70
     0
 10
0.0
 20
0.0
 11
1.0
 21
1.0
 12
104449.4856172494
 22
95264.58299677882
 13
0.0
 23
0.0
 14
0.5
 24
0.5
 15
0.5
 25
0.5
 16
0.0
 26
0.0
 36
1.0
 17
0.0
 27
0.0
 37
0.0
 40
1.914310346294259
 41
2.293369663941871
 42
50.0
 43
0.0
 44
0.0
 50
0.0
 51
0.0
 71
     0
 72
  1000
 73
     1
 74
     3
 75
     0
 76
     0
 77
     0
 78
     0
281
     0
 65
     1
110
0.0
120
0.0
130
0.0
111
1.0
121
0.0
131
0.0
112
0.0
122
1.0
132
0.0
 79
     0
146
0.0
348
9F
 60
     3
 61
     5
292
     1
282
     1
141
0.0
142
0.0
 63
   250
421
  3355443
1001
ACAD_NAV_VCDISPLAY
1070
     3
  0
ENDTAB
  0
TABLE
  2
LTYPE
  5
5
330
0
100
AcDbSymbolTable
 70
     1
  0
LTYPE
  5
14
330
5
100
AcDbSymbolTableRecord
100
AcDbLinetypeTableRecord
  2
ByBlock
 70
     0
  3

 72
    65
 73
     0
 40
0.0
  0
LTYPE
  5
15
330
5
100
AcDbSymbolTableRecord
100
AcDbLinetypeTableRecord
  2
ByLayer
 70
     0
  3

 72
    65
 73
     0
 40
0.0
  0
LTYPE
  5
16
330
5
100
AcDbSymbolTableRecord
100
AcDbLinetypeTableRecord
  2
Continuous
 70
     0
  3
Solid line
 72
    65
 73
     0
 40
0.0
  0
ENDTAB
  0
TABLE
  2
LAYER
  5
2
102
{ACAD_XDICTIONARY
360
18E
102
}
330
0
100
AcDbSymbolTable
 70
     2
  0
LAYER
  5
10
102
{ACAD_XDICTIONARY
360
E6
102
}
330
2
100
AcDbSymbolTableRecord
100
AcDbLayerTableRecord
  2
0
 70
     0
 62
     7
  6
Continuous
370
    -3
390
F
347
98
348
0
  0
LAYER
  5
204
330
2
100
AcDbSymbolTableRecord
100
AcDbLayerTableRecord
  2
freecads.com
 70
     0
 62
     7
  6
Continuous
370
    -3
390
F
347
98
348
0
1001
AcAecLayerStandard
1000

1000

1001
AcCmTransparency
1071
        0
  0
ENDTAB
  0
TABLE
  2
STYLE
  5
3
330
0
100
AcDbSymbolTable
 70
     1
  0
STYLE
  5
11
330
3
100
AcDbSymbolTableRecord
100
AcDbTextStyleTableRecord
  2
Standard
 70
     0
 40
0.0
 41
1.0
 50
0.0
 71
     0
 42
0.2
  3
arial.ttf
  4

1001
ACAD
1000
Arial
1071
       34
  0
ENDTAB
  0
TABLE
  2
VIEW
  5
6
330
0
100
AcDbSymbolTable
 70
     0
  0
ENDTAB
  0
TABLE
  2
UCS
  5
7
330
0
100
AcDbSymbolTable
 70
     0
  0
ENDTAB
  0
TABLE
  2
APPID
  5
9
330
0
100
AcDbSymbolTable
 70
    31
  0
APPID
  5
12
330
9
100
AcDbSymbolTableRecord
100
AcDbRegAppTableRecord
  2
ACAD
 70
     0
  0
APPID
  5
DD
330
9
100
AcDbSymbolTableRecord
100
AcDbRegAppTableRecord
  2
AcadAnnoPO
 70
     0
  0
APPID
  5
DE
330
9
100
AcDbSymbolTableRecord
100
AcDbRegAppTableRecord
  2
AcadAnnotative
 70
     0
  0
APPID
  5
DF
330
9
100
AcDbSymbolTableRecord
100
AcDbRegAppTableRecord
  2
ACAD_DSTYLE_DIMJAG
 70
     0
  0
APPID
  5
E0
330
9
100
AcDbSymbolTableRecord
100
AcDbRegAppTableRecord
  2
ACAD_DSTYLE_DIMTALN
 70
     0
  0
APPID
  5
107
330
9
100
AcDbSymbolTableRecord
100
AcDbRegAppTableRecord
  2
ACAD_MLEADERVER
 70
     0
  0
APPID
  5
1A6
330
9
100
AcDbSymbolTableRecord
100
AcDbRegAppTableRecord
  2
ACAD_NAV_VCDISPLAY
 70
     0
  0
APPID
  5
205
330
9
100
AcDbSymbolTableRecord
100
AcDbRegAppTableRecord
  2
AcAecLayerStandard
 70
     0
  0
APPID
  5
206
330
9
100
AcDbSymbolTableRecord
100
AcDbRegAppTableRecord
  2
AcCmTransparency
 70
     0
  0
APPID
  5
222
330
9
100
AcDbSymbolTableRecord
100
AcDbRegAppTableRecord
  2
ACAD_PSEXT
 70
     0
  0
APPID
  5
2DA
330
9
100
AcDbSymbolTableRecord
100
AcDbRegAppTableRecord
  2
GradientColor1ACI
 70
     0
  0
APPID
  5
2DB
330
9
100
AcDbSymbolTableRecord
100
AcDbRegAppTableRecord
  2
GradientColor2ACI
 70
     0
  0
APPID
  5
2F3
330
9
100
AcDbSymbolTableRecord
100
AcDbRegAppTableRecord
  2
ACAD_EXEMPT_FROM_CAD_STANDARDS
 70
     0
  0
APPID
  5
A1A
330
9
100
AcDbSymbolTableRecord
100
AcDbRegAppTableRecord
  2
AcDbBlockRepETag
 70
     0
  0
APPID
  5
2282
330
9
100
AcDbSymbolTableRecord
100
AcDbRegAppTableRecord
  2
RAK
 70
     0
  0
APPID
  5
39F4
330
9
100
AcDbSymbolTableRecord
100
AcDbRegAppTableRecord
  2
ACAD_DSTYLE_DIMJOGGED_JOGANGLE_SYMBOL
 70
     0
  0
APPID
  5
39F5
330
9
100
AcDbSymbolTableRecord
100
AcDbRegAppTableRecord
  2
AcDbDynamicBlockGUID
 70
     0
  0
APPID
  5
39F6
330
9
100
AcDbSymbolTableRecord
100
AcDbRegAppTableRecord
  2
ACAD_DSTYLE_DIMBREAK
 70
     0
  0
APPID
  5
3B59
330
9
100
AcDbSymbolTableRecord
100
AcDbRegAppTableRecord
  2
AEC_XDATA_BOUND_SPACE
 70
     0
  0
APPID
  5
75C5
330
9
100
AcDbSymbolTableRecord
100
AcDbRegAppTableRecord
  2
AcDbDynamicBlockTrueName
 70
     0
  0
APPID
  5
75C6
330
9
100
AcDbSymbolTableRecord
100
AcDbRegAppTableRecord
  2
AcDbBlockRepBTag
 70
     0
  0
APPID
  5
75C7
330
9
100
AcDbSymbolTableRecord
100
AcDbRegAppTableRecord
  2
ACAUTHENVIRON
 70
     0
  0
APPID
  5
AA90
330
9
100
AcDbSymbolTableRecord
100
AcDbRegAppTableRecord
  2
Acad_TC
 70
     0
  0
APPID
  5
AA9C
330
9
100
AcDbSymbolTableRecord
100
AcDbRegAppTableRecord
  2
AcDbBlockArrayActionTag
 70
     0
  0
APPID
  5
BEE4
330
9
100
AcDbSymbolTableRecord
100
AcDbRegAppTableRecord
  2
ACAD_DSTYLE_DIMTEXT_FILL
 70
     0
  0
APPID
  5
219E5
330
9
100
AcDbSymbolTableRecord
100
AcDbRegAppTableRecord
  2
AECLAY
 70
     0
  0
APPID
  5
26B46
330
9
100
AcDbSymbolTableRecord
100
AcDbRegAppTableRecord
  2
REVIT
 70
     0
  0
APPID
  5
280A5
330
9
100
AcDbSymbolTableRecord
100
AcDbRegAppTableRecord
  2
HATCHBACKGROUNDCOLOR
 70
     0
  0
APPID
  5
29EE0
330
9
100
AcDbSymbolTableRecord
100
AcDbRegAppTableRecord
  2
ACAD_STEPID
 70
     0
  0
APPID
  5
29EE1
330
9
100
AcDbSymbolTableRecord
100
AcDbRegAppTableRecord
  2
AcLayerTools
 70
     0
  0
APPID
  5
4D86C
330
9
100
AcDbSymbolTableRecord
100
AcDbRegAppTableRecord
  2
PE_URL
 70
     0
  0
ENDTAB
  0
TABLE
  2
DIMSTYLE
  5
A
330
0
100
AcDbSymbolTable
 70
     1
100
AcDbDimStyleTable
 71
     1
340
27
  0
DIMSTYLE
105
27
330
A
100
AcDbSymbolTableRecord
100
AcDbDimStyleTableRecord
  2
Standard
 70
     0
340
11
  0
ENDTAB
  0
TABLE
  2
BLOCK_RECORD
  5
1
330
0
100
AcDbSymbolTable
 70
     1
  0
BLOCK_RECORD
  5
1F
102
{ACAD_XDICTIONARY
360
15D
102
}
330
1
100
AcDbSymbolTableRecord
100
AcDbBlockTableRecord
  2
*Model_Space
340
22
 70
     0
280
     1
281
     0
  0
BLOCK_RECORD
  5
58
330
1
100
AcDbSymbolTableRecord
100
AcDbBlockTableRecord
  2
*Paper_Space
340
59
 70
     0
280
     1
281
     0
  0
BLOCK_RECORD
  5
5D
330
1
100
AcDbSymbolTableRecord
100
AcDbBlockTableRecord
  2
*Paper_Space0
340
5E
 70
     0
280
     1
281
     0
  0
ENDTAB
  0
ENDSEC
  0
SECTION
  2
BLOCKS
  0
BLOCK
  5
20
330
1F
100
AcDbEntity
  8
0
100
AcDbBlockBegin
  2
*Model_Space
 70
     0
 10
0.0
 20
0.0
 30
0.0
  3
*Model_Space
  1

  0
ENDBLK
  5
21
330
1F
100
AcDbEntity
  8
0
100
AcDbBlockEnd
  0
BLOCK
  5
5A
330
58
100
AcDbEntity
 67
     1
  8
0
100
AcDbBlockBegin
  2
*Paper_Space
 70
     0
 10
0.0
 20
0.0
 30
0.0
  3
*Paper_Space
  1

  0
ENDBLK
  5
5B
330
58
100
AcDbEntity
 67
     1
  8
0
100
AcDbBlockEnd
  0
BLOCK
  5
5F
330
5D
100
AcDbEntity
 67
     1
  8
0
100
AcDbBlockBegin
  2
*Paper_Space0
 70
     0
 10
0.0
 20
0.0
 30
0.0
  3
*Paper_Space0
  1

  0
ENDBLK
  5
60
330
5D
100
AcDbEntity
 67
     1
  8
0
100
AcDbBlockEnd
  0
ENDSEC
  0
SECTION
  2
ENTITIES
  0
LINE
  5
5F6A3
330
1F
100
AcDbEntity
  8
freecads.com
100
AcDbLine
 10
104449.4973408886
 20
95264.58652094083
 30
0.0
 11
104449.498889372
 21
95264.57881188244
 31
0.0
  0
LINE
  5
5F6A4
330
1F
100
AcDbEntity
  8
freecads.com
100
AcDbLine
 10
104449.498889372
 20
95264.57881188244
 30
0.0
 11
104449.5036435065
 21
95264.57321302274
 31
0.0
  0
LINE
  5
5F6A5
330
1F
100
AcDbEntity
  8
freecads.com
100
AcDbLine
 10
104449.5036435065
 20
95264.57321302274
 30
0.0
 11
104449.5117754655
 21
95264.56980829623
 31
0.0
  0
LINE
  5
5F6A6
330
1F
100
AcDbEntity
  8
freecads.com
100
AcDbLine
 10
104449.5117754655
 20
95264.56980829623
 30
0.0
 11
104449.5184719298
 21
95264.56852668141
 31
0.0
  0
LINE
  5
5F6A7
330
1F
100
AcDbEntity
  8
freecads.com
100
AcDbLine
 10
104449.5184719298
 20
95264.56852668141
 30
0.0
 11
104449.5225513604
 21
95264.57222733075
 31
0.0
  0
LINE
  5
5F6A8
330
1F
100
AcDbEntity
  8
freecads.com
100
AcDbLine
 10
104449.5225513604
 20
95264.57222733075
 30
0.0
 11
104449.5239298226
 21
95264.58082308151
 31
0.0
  0
LINE
  5
5F6A9
330
1F
100
AcDbEntity
  8
freecads.com
100
AcDbLine
 10
104449.5239298226
 20
95264.58082308151
 30
0.0
 11
104449.5240783221
 21
95264.58816627169
 31
0.0
  0
LINE
  5
5F6AA
330
1F
100
AcDbEntity
  8
freecads.com
100
AcDbLine
 10
104449.5240783221
 20
95264.58816627169
 30
0.0
 11
104449.5245248965
 21
95264.59581937375
 31
0.0
  0
LINE
  5
5F6AB
330
1F
100
AcDbEntity
  8
freecads.com
100
AcDbLine
 10
104449.5245248965
 20
95264.59581937375
 30
0.0
 11
104449.5252695459
 21
95264.60378023557
 31
0.0
  0
LINE
  5
5F6AC
330
1F
100
AcDbEntity
  8
freecads.com
100
AcDbLine
 10
104449.5252695459
 20
95264.60378023557
 30
0.0
 11
104449.5263144225
 21
95264.61204778101
 31
0.0
  0
LINE
  5
5F6AD
330
1F
100
AcDbEntity
  8
freecads.com
100
AcDbLine
 10
104449.5263144225
 20
95264.61204778101
 30
0.0
 11
104449.5276606023
 21
95264.62062201012
 31
0.0
  0
LINE
  5
5F6AE
330
1F
100
AcDbEntity
  8
freecads.com
100
AcDbLine
 10
104449.5276606023
 20
95264.62062201012
 30
0.0
 11
104449.5293080853
 21
95264.62950077069
 31
0.0
  0
LINE
  5
5F6AF
330
1F
100
AcDbEntity
  8
freecads.com
100
AcDbLine
 10
104449.5293080853
 20
95264.62950077069
 30
0.0
 11
104449.5312590238
 21
95264.63868406276
 31
0.0
  0
LINE
  5
5F6B0
330
1F
100
AcDbEntity
  8
freecads.com
100
AcDbLine
 10
104449.5312590238
 20
95264.63868406276
 30
0.0
 11
104449.5335144937
 21
95264.64816973414
 31
0.0
  0
LINE
  5
5F6B1
330
1F
100
AcDbEntity
  8
freecads.com
100
AcDbLine
 10
104449.5335144937
 20
95264.64816973414
 30
0.0
 11
104449.536073419
 21
95264.65795778481
 31
0.0
  0
LINE
  5
5F6B2
330
1F
100
AcDbEntity
  8
freecads.com
100
AcDbLine
 10
104449.536073419
 20
95264.65795778481
 30
0.0
 11
104449.5389390279
 21
95264.66804606265
 31
0.0
  0
LINE
  5
5F6B3
330
1F
100
AcDbEntity
  8
freecads.com
100
AcDbLine
 10
104449.5389390279
 20
95264.66804606265
 30
0.0
 11
104449.5421123966
 21
95264.67843456764
 31
0.0
  0
LINE
  5
5F6B4
330
1F
100
AcDbEntity
  8
freecads.com
100
AcDbLine
 10
104449.5421123966
 20
95264.67843456764
 30
0.0
 11
104449.545593525
 21
95264.6891222237
 31
0.0
  0
LINE
  5
5F6B5
330
1F
100
AcDbEntity
  8
freecads.com
100
AcDbLine
 10
104449.545593525
 20
95264.6891222237
 30
0.0
 11
104449.5493834892
 21
95264.70010687864
 31
0.0
  0
LINE
  5
5F6B6
330
1F
100
AcDbEntity
  8
freecads.com
100
AcDbLine
 10
104449.5493834892
 20
95264.70010687864
 30
0.0
 11
104449.5526644662
 21
95264.70924389913
 31
0.0
  0
LINE
  5
5F6B7
330
1F
100
AcDbEntity
  8
freecads.com
100
AcDbLine
 10
104449.5526644662
 20
95264.70924389913
 30
0.0
 11
104449.5560046277
 21
95264.71840674561
 31
0.0
  0
LINE
  5
5F6B8
330
1F
100
AcDbEntity
  8
freecads.com
100
AcDbLine
 10
104449.5560046277
 20
95264.71840674561
 30
0.0
 11
104449.559419039
 21
95264.72757712468
 31
0.0
  0
LINE
  5
5F6B9
330
1F
100
AcDbEntity
  8
freecads.com
100
AcDbLine
 10
104449.559419039
 20
95264.72757712468
 30
0.0
 11
104449.5629195369
 21
95264.73673351466
 31
0.0
  0
LINE
  5
5F6BA
330
1F
100
AcDbEntity
  8
freecads.com
100
AcDbLine
 10
104449.5629195369
 20
95264.73673351466
 30
0.0
 11
104449.5665201105
 21
95264.74585762215
 31
0.0
  0
LINE
  5
5F6BB
330
1F
100
AcDbEntity
  8
freecads.com
100
AcDbLine
 10
104449.5665201105
 20
95264.74585762215
 30
0.0
 11
104449.5702336728
 21
95264.75492900159
 31
0.0
  0
LINE
  5
5F6BC
330
1F
100
AcDbEntity
  8
freecads.com
100
AcDbLine
 10
104449.5702336728
 20
95264.75492900159
 30
0.0
 11
104449.5740731369
 21
95264.76392613128
 31
0.0
  0
LINE
  5
5F6BD
330
1F
100
AcDbEntity
  8
freecads.com
100
AcDbLine
 10
104449.5740731369
 20
95264.76392613128
 30
0.0
 11
104449.5778405033
 21
95264.77299751071
 31
0.0
  0
LINE
  5
5F6BE
330
1F
100
AcDbEntity
  8
freecads.com
100
AcDbLine
 10
104449.5778405033
 20
95264.77299751071
 30
0.0
 11
104449.5816401523
 21
95264.78198280351
 31
0.0
  0
LINE
  5
5F6BF
330
1F
100
AcDbEntity
  8
freecads.com
100
AcDbLine
 10
104449.5816401523
 20
95264.78198280351
 30
0.0
 11
104449.5854591708
 21
95264.79088739009
 31
0.0
  0
LINE
  5
5F6C0
330
1F
100
AcDbEntity
  8
freecads.com
100
AcDbLine
 10
104449.5854591708
 20
95264.79088739009
 30
0.0
 11
104449.5892846457
 21
95264.7997198791
 31
0.0
  0
LINE
  5
5F6C1
330
1F
100
AcDbEntity
  8
freecads.com
100
AcDbLine
 10
104449.5892846457
 20
95264.7997198791
 30
0.0
 11
104449.5931025881
 21
95264.80848565094
 31
0.0
  0
LINE
  5
5F6C2
330
1F
100
AcDbEntity
  8
freecads.com
100
AcDbLine
 10
104449.5931025881
 20
95264.80848565094
 30
0.0
 11
104449.596901161
 21
95264.81719116217
 31
0.0
  0
LINE
  5
5F6C3
330
1F
100
AcDbEntity
  8
freecads.com
100
AcDbLine
 10
104449.596901161
 20
95264.81719116217
 30
0.0
 11
104449.6006663753
 21
95264.82584394534
 31
0.0
  0
LINE
  5
5F6C4
330
1F
100
AcDbEntity
  8
freecads.com
100
AcDbLine
 10
104449.6006663753
 20
95264.82584394534
 30
0.0
 11
104449.6038623417
 21
95264.83160959788
 31
0.0
  0
LINE
  5
5F6C5
330
1F
100
AcDbEntity
  8
freecads.com
100
AcDbLine
 10
104449.6038623417
 20
95264.83160959788
 30
0.0
 11
104449.6073133398
 21
95264.83768516234
 31
0.0
  0
LINE
  5
5F6C6
330
1F
100
AcDbEntity
  8
freecads.com
100
AcDbLine
 10
104449.6073133398
 20
95264.83768516234
 30
0.0
 11
104449.6110193695
 21
95264.84407171475
 31
0.0
  0
LINE
  5
5F6C7
330
1F
100
AcDbEntity
  8
freecads.com
100
AcDbLine
 10
104449.6110193695
 20
95264.84407171475
 30
0.0
 11
104449.6149772027
 21
95264.85076817907
 31
0.0
  0
LINE
  5
5F6C8
330
1F
100
AcDbEntity
  8
freecads.com
100
AcDbLine
 10
104449.6149772027
 20
95264.85076817907
 30
0.0
 11
104449.6191879153
 21
95264.85777455528
 31
0.0
  0
LINE
  5
5F6C9
330
1F
100
AcDbEntity
  8
freecads.com
100
AcDbLine
 10
104449.6191879153
 20
95264.85777455528
 30
0.0
 11
104449.6236493553
 21
95264.86509084339
 31
0.0
  0
LINE
  5
5F6CA
330
1F
100
AcDbEntity
  8
freecads.com
100
AcDbLine
 10
104449.6236493553
 20
95264.86509084339
 30
0.0
 11
104449.6283615226
 21
95264.87271811946
 31
0.0
  0
LINE
  5
5F6CB
330
1F
100
AcDbEntity
  8
freecads.com
100
AcDbLine
 10
104449.6283615226
 20
95264.87271811946
 30
0.0
 11
104449.6333222651
 21
95264.88065530745
 31
0.0
  0
LINE
  5
5F6CC
330
1F
100
AcDbEntity
  8
freecads.com
100
AcDbLine
 10
104449.6333222651
 20
95264.88065530745
 30
0.0
 11
104449.6385315828
 21
95264.88890240733
 31
0.0
  0
LINE
  5
5F6CD
330
1F
100
AcDbEntity
  8
freecads.com
100
AcDbLine
 10
104449.6385315828
 20
95264.88890240733
 30
0.0
 11
104449.6439873235
 21
95264.8974594191
 31
0.0
  0
LINE
  5
5F6CE
330
1F
100
AcDbEntity
  8
freecads.com
100
AcDbLine
 10
104449.6439873235
 20
95264.8974594191
 30
0.0
 11
104449.649688411
 21
95264.90632634276
 31
0.0
  0
LINE
  5
5F6CF
330
1F
100
AcDbEntity
  8
freecads.com
100
AcDbLine
 10
104449.649688411
 20
95264.90632634276
 30
0.0
 11
104449.6556348455
 21
95264.91550425442
 31
0.0
  0
LINE
  5
5F6D0
330
1F
100
AcDbEntity
  8
freecads.com
100
AcDbLine
 10
104449.6556348455
 20
95264.91550425442
 30
0.0
 11
104449.6618255508
 21
95264.92499207796
 31
0.0
  0
LINE
  5
5F6D1
330
1F
100
AcDbEntity
  8
freecads.com
100
AcDbLine
 10
104449.6618255508
 20
95264.92499207796
 30
0.0
 11
104449.6683961134
 21
95264.93398490332
 31
0.0
  0
LINE
  5
5F6D2
330
1F
100
AcDbEntity
  8
freecads.com
100
AcDbLine
 10
104449.6683961134
 20
95264.93398490332
 30
0.0
 11
104449.6747127205
 21
95264.94272807743
 31
0.0
  0
LINE
  5
5F6D3
330
1F
100
AcDbEntity
  8
freecads.com
100
AcDbLine
 10
104449.6747127205
 20
95264.94272807743
 30
0.0
 11
104449.6807710676
 21
95264.95122160032
 31
0.0
  0
LINE
  5
5F6D4
330
1F
100
AcDbEntity
  8
freecads.com
100
AcDbLine
 10
104449.6807710676
 20
95264.95122160032
 30
0.0
 11
104449.6865657744
 21
95264.95946654803
 31
0.0
  0
LINE
  5
5F6D5
330
1F
100
AcDbEntity
  8
freecads.com
100
AcDbLine
 10
104449.6865657744
 20
95264.95946654803
 30
0.0
 11
104449.6920946887
 21
95264.9674618445
 31
0.0
  0
LINE
  5
5F6D6
330
1F
100
AcDbEntity
  8
freecads.com
100
AcDbLine
 10
104449.6920946887
 20
95264.9674618445
 30
0.0
 11
104449.697351354
 21
95264.97520748971
 31
0.0
  0
LINE
  5
5F6D7
330
1F
100
AcDbEntity
  8
freecads.com
100
AcDbLine
 10
104449.697351354
 20
95264.97520748971
 30
0.0
 11
104449.702332542
 21
95264.98270348366
 31
0.0
  0
LINE
  5
5F6D8
330
1F
100
AcDbEntity
  8
freecads.com
100
AcDbLine
 10
104449.702332542
 20
95264.98270348366
 30
0.0
 11
104449.7070339485
 21
95264.98995090246
 31
0.0
  0
LINE
  5
5F6D9
330
1F
100
AcDbEntity
  8
freecads.com
100
AcDbLine
 10
104449.7070339485
 20
95264.98995090246
 30
0.0
 11
104449.714095205
 21
95265.00094093783
 31
0.0
  0
LINE
  5
5F6DA
330
1F
100
AcDbEntity
  8
freecads.com
100
AcDbLine
 10
104449.714095205
 20
95265.00094093783
 30
0.0
 11
104449.720684061
 21
95265.01112821529
 31
0.0
  0
LINE
  5
5F6DB
330
1F
100
AcDbEntity
  8
freecads.com
100
AcDbLine
 10
104449.720684061
 20
95265.01112821529
 30
0.0
 11
104449.726780071
 21
95265.02053102827
 31
0.0
  0
LINE
  5
5F6DC
330
1F
100
AcDbEntity
  8
freecads.com
100
AcDbLine
 10
104449.726780071
 20
95265.02053102827
 30
0.0
 11
104449.7323649416
 21
95265.02916767018
 31
0.0
  0
LINE
  5
5F6DD
330
1F
100
AcDbEntity
  8
freecads.com
100
AcDbLine
 10
104449.7323649416
 20
95265.02916767018
 30
0.0
 11
104449.7374225316
 21
95265.03705643444
 31
0.0
  0
LINE
  5
5F6DE
330
1F
100
AcDbEntity
  8
freecads.com
100
AcDbLine
 10
104449.7374225316
 20
95265.03705643444
 30
0.0
 11
104449.7467650839
 21
95265.05104336088
 31
0.0
  0
LINE
  5
5F6DF
330
1F
100
AcDbEntity
  8
freecads.com
100
AcDbLine
 10
104449.7467650839
 20
95265.05104336088
 30
0.0
 11
104449.7553177913
 21
95265.06378848756
 31
0.0
  0
LINE
  5
5F6E0
330
1F
100
AcDbEntity
  8
freecads.com
100
AcDbLine
 10
104449.7553177913
 20
95265.06378848756
 30
0.0
 11
104449.7630785017
 21
95265.07529396667
 31
0.0
  0
LINE
  5
5F6E1
330
1F
100
AcDbEntity
  8
freecads.com
100
AcDbLine
 10
104449.7630785017
 20
95265.07529396667
 30
0.0
 11
104449.7700482911
 21
95265.08556087428
 31
0.0
  0
LINE
  5
5F6E2
330
1F
100
AcDbEntity
  8
freecads.com
100
AcDbLine
 10
104449.7700482911
 20
95265.08556087428
 30
0.0
 11
104449.7762260834
 21
95265.09459243863
 31
0.0
  0
LINE
  5
5F6E3
330
1F
100
AcDbEntity
  8
freecads.com
100
AcDbLine
 10
104449.7762260834
 20
95265.09459243863
 30
0.0
 11
104449.7816129548
 21
95265.10238865975
 31
0.0
  0
LINE
  5
5F6E4
330
1F
100
AcDbEntity
  8
freecads.com
100
AcDbLine
 10
104449.7816129548
 20
95265.10238865975
 30
0.0
 11
104449.7862089051
 21
95265.10895168978
 31
0.0
  0
LINE
  5
5F6E5
330
1F
100
AcDbEntity
  8
freecads.com
100
AcDbLine
 10
104449.7862089051
 20
95265.10895168978
 30
0.0
 11
104449.7900139345
 21
95265.11428368088
 31
0.0
  0
LINE
  5
5F6E6
330
1F
100
AcDbEntity
  8
freecads.com
100
AcDbLine
 10
104449.7900139345
 20
95265.11428368088
 30
0.0
 11
104449.7930280429
 21
95265.11838678525
 31
0.0
  0
LINE
  5
5F6E7
330
1F
100
AcDbEntity
  8
freecads.com
100
AcDbLine
 10
104449.7930280429
 20
95265.11838678525
 30
0.0
 11
104449.7952512303
 21
95265.12126100286
 31
0.0
  0
LINE
  5
5F6E8
330
1F
100
AcDbEntity
  8
freecads.com
100
AcDbLine
 10
104449.7952512303
 20
95265.12126100286
 30
0.0
 11
104449.7966834968
 21
95265.12291063804
 31
0.0
  0
LINE
  5
5F6E9
330
1F
100
AcDbEntity
  8
freecads.com
100
AcDbLine
 10
104449.7966834968
 20
95265.12291063804
 30
0.0
 11
104449.7991025313
 21
95265.12756254472
 31
0.0
  0
LINE
  5
5F6EA
330
1F
100
AcDbEntity
  8
freecads.com
100
AcDbLine
 10
104449.7991025313
 20
95265.12756254472
 30
0.0
 11
104449.8015947394
 21
95265.13302474189
 31
0.0
  0
LINE
  5
5F6EB
330
1F
100
AcDbEntity
  8
freecads.com
100
AcDbLine
 10
104449.8015947394
 20
95265.13302474189
 30
0.0
 11
104449.8041547408
 21
95265.13929722952
 31
0.0
  0
LINE
  5
5F6EC
330
1F
100
AcDbEntity
  8
freecads.com
100
AcDbLine
 10
104449.8041547408
 20
95265.13929722952
 30
0.0
 11
104449.8067793072
 21
95265.14638000762
 31
0.0
  0
LINE
  5
5F6ED
330
1F
100
AcDbEntity
  8
freecads.com
100
AcDbLine
 10
104449.8067793072
 20
95265.14638000762
 30
0.0
 11
104449.8094673624
 21
95265.15427307618
 31
0.0
  0
LINE
  5
5F6EE
330
1F
100
AcDbEntity
  8
freecads.com
100
AcDbLine
 10
104449.8094673624
 20
95265.15427307618
 30
0.0
 11
104449.8122124501
 21
95265.16297535916
 31
0.0
  0
LINE
  5
5F6EF
330
1F
100
AcDbEntity
  8
freecads.com
100
AcDbLine
 10
104449.8122124501
 20
95265.16297535916
 30
0.0
 11
104449.815012418
 21
95265.17248793261
 31
0.0
  0
LINE
  5
5F6F0
330
1F
100
AcDbEntity
  8
freecads.com
100
AcDbLine
 10
104449.815012418
 20
95265.17248793261
 30
0.0
 11
104449.8178640379
 21
95265.18281079653
 31
0.0
  0
LINE
  5
5F6F1
330
1F
100
AcDbEntity
  8
freecads.com
100
AcDbLine
 10
104449.8178640379
 20
95265.18281079653
 30
0.0
 11
104449.8207640814
 21
95265.19394395092
 31
0.0
  0
LINE
  5
5F6F2
330
1F
100
AcDbEntity
  8
freecads.com
100
AcDbLine
 10
104449.8207640814
 20
95265.19394395092
 30
0.0
 11
104449.8237093205
 21
95265.20588631971
 31
0.0
  0
LINE
  5
5F6F3
330
1F
100
AcDbEntity
  8
freecads.com
100
AcDbLine
 10
104449.8237093205
 20
95265.20588631971
 30
0.0
 11
104449.8266943747
 21
95265.21863897899
 31
0.0
  0
LINE
  5
5F6F4
330
1F
100
AcDbEntity
  8
freecads.com
100
AcDbLine
 10
104449.8266943747
 20
95265.21863897899
 30
0.0
 11
104449.8330109817
 21
95265.21381167079
 31
0.0
  0
LINE
  5
5F6F5
330
1F
100
AcDbEntity
  8
freecads.com
100
AcDbLine
 10
104449.8330109817
 20
95265.21381167079
 30
0.0
 11
104449.8389907748
 21
95265.20535688691
 31
0.0
  0
LINE
  5
5F6F6
330
1F
100
AcDbEntity
  8
freecads.com
100
AcDbLine
 10
104449.8389907748
 20
95265.20535688691
 30
0.0
 11
104449.8445476672
 21
95265.19318638852
 31
0.0
  0
LINE
  5
5F6F7
330
1F
100
AcDbEntity
  8
freecads.com
100
AcDbLine
 10
104449.8445476672
 20
95265.19318638852
 30
0.0
 11
104449.8532833088
 21
95265.16393737734
 31
0.0
  0
LINE
  5
5F6F8
330
1F
100
AcDbEntity
  8
freecads.com
100
AcDbLine
 10
104449.8532833088
 20
95265.16393737734
 30
0.0
 11
104449.8551901278
 21
95265.15652962219
 31
0.0
  0
LINE
  5
5F6F9
330
1F
100
AcDbEntity
  8
freecads.com
100
AcDbLine
 10
104449.8551901278
 20
95265.15652962219
 30
0.0
 11
104449.8563533735
 21
95265.14856230388
 31
0.0
  0
LINE
  5
5F6FA
330
1F
100
AcDbEntity
  8
freecads.com
100
AcDbLine
 10
104449.8563533735
 20
95265.14856230388
 30
0.0
 11
104449.8567773502
 21
95265.14004295499
 31
0.0
  0
LINE
  5
5F6FB
330
1F
100
AcDbEntity
  8
freecads.com
100
AcDbLine
 10
104449.8567773502
 20
95265.14004295499
 30
0.0
 11
104449.8564663622
 21
95265.13098018424
 31
0.0
  0
LINE
  5
5F6FC
330
1F
100
AcDbEntity
  8
freecads.com
100
AcDbLine
 10
104449.8564663622
 20
95265.13098018424
 30
0.0
 11
104449.85542579
 21
95265.12138367632
 31
0.0
  0
LINE
  5
5F6FD
330
1F
100
AcDbEntity
  8
freecads.com
100
AcDbLine
 10
104449.85542579
 20
95265.12138367632
 30
0.0
 11
104449.8536588617
 21
95265.1112620399
 31
0.0
  0
LINE
  5
5F6FE
330
1F
100
AcDbEntity
  8
freecads.com
100
AcDbLine
 10
104449.8536588617
 20
95265.1112620399
 30
0.0
 11
104449.8511709579
 21
95265.10062495976
 31
0.0
  0
LINE
  5
5F6FF
330
1F
100
AcDbEntity
  8
freecads.com
100
AcDbLine
 10
104449.8511709579
 20
95265.10062495976
 30
0.0
 11
104449.8479663828
 21
95265.08947996845
 31
0.0
  0
LINE
  5
5F700
330
1F
100
AcDbEntity
  8
freecads.com
100
AcDbLine
 10
104449.8479663828
 20
95265.08947996845
 30
0.0
 11
104449.8427775107
 21
95265.07519819528
 31
0.0
  0
LINE
  5
5F701
330
1F
100
AcDbEntity
  8
freecads.com
100
AcDbLine
 10
104449.8427775107
 20
95265.07519819528
 30
0.0
 11
104449.8382730274
 21
95265.06230564523
 31
0.0
  0
LINE
  5
5F702
330
1F
100
AcDbEntity
  8
freecads.com
100
AcDbLine
 10
104449.8382730274
 20
95265.06230564523
 30
0.0
 11
104449.8344400199
 21
95265.05079586179
 31
0.0
  0
LINE
  5
5F703
330
1F
100
AcDbEntity
  8
freecads.com
100
AcDbLine
 10
104449.8344400199
 20
95265.05079586179
 30
0.0
 11
104449.8312655751
 21
95265.04066023631
 31
0.0
  0
LINE
  5
5F704
330
1F
100
AcDbEntity
  8
freecads.com
100
AcDbLine
 10
104449.8312655751
 20
95265.04066023631
 30
0.0
 11
104449.8287357041
 21
95265.03189338836
 31
0.0
  0
LINE
  5
5F705
330
1F
100
AcDbEntity
  8
freecads.com
100
AcDbLine
 10
104449.8287357041
 20
95265.03189338836
 30
0.0
 11
104449.8268364177
 21
95265.02448993753
 31
0.0
  0
LINE
  5
5F706
330
1F
100
AcDbEntity
  8
freecads.com
100
AcDbLine
 10
104449.8268364177
 20
95265.02448993753
 30
0.0
 11
104449.8255548028
 21
95265.01844127515
 31
0.0
  0
LINE
  5
5F707
330
1F
100
AcDbEntity
  8
freecads.com
100
AcDbLine
 10
104449.8255548028
 20
95265.01844127515
 30
0.0
 11
104449.8327462653
 21
95265.02823578235
 31
0.0
  0
LINE
  5
5F708
330
1F
100
AcDbEntity
  8
freecads.com
100
AcDbLine
 10
104449.8327462653
 20
95265.02823578235
 30
0.0
 11
104449.8395040664
 21
95265.03726842278
 31
0.0
  0
LINE
  5
5F709
330
1F
100
AcDbEntity
  8
freecads.com
100
AcDbLine
 10
104449.8395040664
 20
95265.03726842278
 30
0.0
 11
104449.845828206
 21
95265.04554027257
 31
0.0
  0
LINE
  5
5F70A
330
1F
100
AcDbEntity
  8
freecads.com
100
AcDbLine
 10
104449.845828206
 20
95265.04554027257
 30
0.0
 11
104449.8517208363
 21
95265.0530502556
 31
0.0
  0
LINE
  5
5F70B
330
1F
100
AcDbEntity
  8
freecads.com
100
AcDbLine
 10
104449.8517208363
 20
95265.0530502556
 30
0.0
 11
104449.8571798052
 21
95265.05979944799
 31
0.0
  0
LINE
  5
5F70C
330
1F
100
AcDbEntity
  8
freecads.com
100
AcDbLine
 10
104449.8571798052
 20
95265.05979944799
 30
0.0
 11
104449.8622061888
 21
95265.06578677363
 31
0.0
  0
LINE
  5
5F70D
330
1F
100
AcDbEntity
  8
freecads.com
100
AcDbLine
 10
104449.8622061888
 20
95265.06578677363
 30
0.0
 11
104449.866801063
 21
95265.0710133086
 31
0.0
  0
LINE
  5
5F70E
330
1F
100
AcDbEntity
  8
freecads.com
100
AcDbLine
 10
104449.866801063
 20
95265.0710133086
 30
0.0
 11
104449.8709622759
 21
95265.07547905293
 31
0.0
  0
LINE
  5
5F70F
330
1F
100
AcDbEntity
  8
freecads.com
100
AcDbLine
 10
104449.8709622759
 20
95265.07547905293
 30
0.0
 11
104449.8746919795
 21
95265.07918400659
 31
0.0
  0
LINE
  5
5F710
330
1F
100
AcDbEntity
  8
freecads.com
100
AcDbLine
 10
104449.8746919795
 20
95265.07918400659
 30
0.0
 11
104449.8779880216
 21
95265.0821281696
 31
0.0
  0
LINE
  5
5F711
330
1F
100
AcDbEntity
  8
freecads.com
100
AcDbLine
 10
104449.8779880216
 20
95265.0821281696
 30
0.0
 11
104449.8808536305
 21
95265.08431154196
 31
0.0
  0
LINE
  5
5F712
330
1F
100
AcDbEntity
  8
freecads.com
100
AcDbLine
 10
104449.8808536305
 20
95265.08431154196
 30
0.0
 11
104449.8832866541
 21
95265.08573412364
 31
0.0
  0
LINE
  5
5F713
330
1F
100
AcDbEntity
  8
freecads.com
100
AcDbLine
 10
104449.8832866541
 20
95265.08573412364
 30
0.0
 11
104449.8852870924
 21
95265.08639591467
 31
0.0
  0
LINE
  5
5F714
330
1F
100
AcDbEntity
  8
freecads.com
100
AcDbLine
 10
104449.8852870924
 20
95265.08639591467
 30
0.0
 11
104449.8868560213
 21
95265.0862979911
 31
0.0
  0
LINE
  5
5F715
330
1F
100
AcDbEntity
  8
freecads.com
100
AcDbLine
 10
104449.8868560213
 20
95265.0862979911
 30
0.0
 11
104449.887993441
 21
95265.0854392769
 31
0.0
  0
LINE
  5
5F716
330
1F
100
AcDbEntity
  8
freecads.com
100
AcDbLine
 10
104449.887993441
 20
95265.0854392769
 30
0.0
 11
104449.8886993515
 21
95265.08382084811
 31
0.0
  0
LINE
  5
5F717
330
1F
100
AcDbEntity
  8
freecads.com
100
AcDbLine
 10
104449.8886993515
 20
95265.08382084811
 30
0.0
 11
104449.8889737526
 21
95265.08144270476
 31
0.0
  0
LINE
  5
5F718
330
1F
100
AcDbEntity
  8
freecads.com
100
AcDbLine
 10
104449.8889737526
 20
95265.08144270476
 30
0.0
 11
104449.8888166445
 21
95265.07830484682
 31
0.0
  0
LINE
  5
5F719
330
1F
100
AcDbEntity
  8
freecads.com
100
AcDbLine
 10
104449.8888166445
 20
95265.07830484682
 30
0.0
 11
104449.8882280271
 21
95265.07440619822
 31
0.0
  0
LINE
  5
5F71A
330
1F
100
AcDbEntity
  8
freecads.com
100
AcDbLine
 10
104449.8882280271
 20
95265.07440619822
 30
0.0
 11
104449.8872089765
 21
95265.06974783504
 31
0.0
  0
LINE
  5
5F71B
330
1F
100
AcDbEntity
  8
freecads.com
100
AcDbLine
 10
104449.8872089765
 20
95265.06974783504
 30
0.0
 11
104449.8857573406
 21
95265.06433083339
 31
0.0
  0
LINE
  5
5F71C
330
1F
100
AcDbEntity
  8
freecads.com
100
AcDbLine
 10
104449.8857573406
 20
95265.06433083339
 30
0.0
 11
104449.8838763476
 21
95265.05815304105
 31
0.0
  0
LINE
  5
5F71D
330
1F
100
AcDbEntity
  8
freecads.com
100
AcDbLine
 10
104449.8838763476
 20
95265.05815304105
 30
0.0
 11
104449.8815627692
 21
95265.05121661022
 31
0.0
  0
LINE
  5
5F71E
330
1F
100
AcDbEntity
  8
freecads.com
100
AcDbLine
 10
104449.8815627692
 20
95265.05121661022
 30
0.0
 11
104449.8788198337
 21
95265.04352154093
 31
0.0
  0
LINE
  5
5F71F
330
1F
100
AcDbEntity
  8
freecads.com
100
AcDbLine
 10
104449.8788198337
 20
95265.04352154093
 30
0.0
 11
104449.875645389
 21
95265.03506675704
 31
0.0
  0
LINE
  5
5F720
330
1F
100
AcDbEntity
  8
freecads.com
100
AcDbLine
 10
104449.875645389
 20
95265.03506675704
 30
0.0
 11
104449.872040511
 21
95265.02585225857
 31
0.0
  0
LINE
  5
5F721
330
1F
100
AcDbEntity
  8
freecads.com
100
AcDbLine
 10
104449.872040511
 20
95265.02585225857
 30
0.0
 11
104449.8680051999
 21
95265.01587912161
 31
0.0
  0
LINE
  5
5F722
330
1F
100
AcDbEntity
  8
freecads.com
100
AcDbLine
 10
104449.8680051999
 20
95265.01587912161
 30
0.0
 11
104449.8635394556
 21
95265.00514734616
 31
0.0
  0
LINE
  5
5F723
330
1F
100
AcDbEntity
  8
freecads.com
100
AcDbLine
 10
104449.8635394556
 20
95265.00514734616
 30
0.0
 11
104449.8635394556
 21
95265.00514734616
 31
0.0
  0
LINE
  5
5F724
330
1F
100
AcDbEntity
  8
freecads.com
100
AcDbLine
 10
104449.8635394556
 20
95265.00514734616
 30
0.0
 11
104449.8593750145
 21
95264.99946239983
 31
0.0
  0
LINE
  5
5F725
330
1F
100
AcDbEntity
  8
freecads.com
100
AcDbLine
 10
104449.8593750145
 20
95264.99946239983
 30
0.0
 11
104449.851497011
 21
95264.99006496726
 31
0.0
  0
LINE
  5
5F726
330
1F
100
AcDbEntity
  8
freecads.com
100
AcDbLine
 10
104449.851497011
 20
95264.99006496726
 30
0.0
 11
104449.8399893798
 21
95264.97703790683
 31
0.0
  0
LINE
  5
5F727
330
1F
100
AcDbEntity
  8
freecads.com
100
AcDbLine
 10
104449.8399893798
 20
95264.97703790683
 30
0.0
 11
104449.8290251704
 21
95264.96835284119
 31
0.0
  0
LINE
  5
5F728
330
1F
100
AcDbEntity
  8
freecads.com
100
AcDbLine
 10
104449.8290251704
 20
95264.96835284119
 30
0.0
 11
104449.8240816452
 21
95264.96340823994
 31
0.0
  0
LINE
  5
5F729
330
1F
100
AcDbEntity
  8
freecads.com
100
AcDbLine
 10
104449.8240816452
 20
95264.96340823994
 30
0.0
 11
104449.8251921629
 21
95264.96223853776
 31
0.0
  0
LINE
  5
5F72A
330
1F
100
AcDbEntity
  8
freecads.com
100
AcDbLine
 10
104449.8251921629
 20
95264.96223853776
 30
0.0
 11
104449.8323933101
 21
95264.96487816928
 31
0.0
  0
LINE
  5
5F72B
330
1F
100
AcDbEntity
  8
freecads.com
100
AcDbLine
 10
104449.8323933101
 20
95264.96487816928
 30
0.0
 11
104449.8389445032
 21
95264.9670819872
 31
0.0
  0
LINE
  5
5F72C
330
1F
100
AcDbEntity
  8
freecads.com
100
AcDbLine
 10
104449.8389445032
 20
95264.9670819872
 30
0.0
 11
104449.8477769922
 21
95264.97138631908
 31
0.0
  0
LINE
  5
5F72D
330
1F
100
AcDbEntity
  8
freecads.com
100
AcDbLine
 10
104449.8477769922
 20
95264.97138631908
 30
0.0
 11
104449.858888625
 21
95264.97775565418
 31
0.0
  0
LINE
  5
5F72E
330
1F
100
AcDbEntity
  8
freecads.com
100
AcDbLine
 10
104449.858888625
 20
95264.97775565418
 30
0.0
 11
104449.8722804775
 21
95264.98615448176
 31
0.0
  0
LINE
  5
5F72F
330
1F
100
AcDbEntity
  8
freecads.com
100
AcDbLine
 10
104449.8722804775
 20
95264.98615448176
 30
0.0
 11
104449.884102325
 21
95264.99548950152
 31
0.0
  0
LINE
  5
5F730
330
1F
100
AcDbEntity
  8
freecads.com
100
AcDbLine
 10
104449.884102325
 20
95264.99548950152
 30
0.0
 11
104449.8950708387
 21
95265.0024399214
 31
0.0
  0
LINE
  5
5F731
330
1F
100
AcDbEntity
  8
freecads.com
100
AcDbLine
 10
104449.8950708387
 20
95265.0024399214
 30
0.0
 11
104449.9051860186
 21
95265.0070401761
 31
0.0
  0
LINE
  5
5F732
330
1F
100
AcDbEntity
  8
freecads.com
100
AcDbLine
 10
104449.9051860186
 20
95265.0070401761
 30
0.0
 11
104449.9144467887
 21
95265.00932470023
 31
0.0
  0
LINE
  5
5F733
330
1F
100
AcDbEntity
  8
freecads.com
100
AcDbLine
 10
104449.9144467887
 20
95265.00932470023
 30
0.0
 11
104449.9176244617
 21
95265.00765031514
 31
0.0
  0
LINE
  5
5F734
330
1F
100
AcDbEntity
  8
freecads.com
100
AcDbLine
 10
104449.9176244617
 20
95265.00765031514
 30
0.0
 11
104449.9165828134
 21
95265.00251632329
 31
0.0
  0
LINE
  5
5F735
330
1F
100
AcDbEntity
  8
freecads.com
100
AcDbLine
 10
104449.9165828134
 20
95265.00251632329
 30
0.0
 11
104449.9114047021
 21
95264.99375055143
 31
0.0
  0
LINE
  5
5F736
330
1F
100
AcDbEntity
  8
freecads.com
100
AcDbLine
 10
104449.9114047021
 20
95264.99375055143
 30
0.0
 11
104449.9055809411
 21
95264.98592850431
 31
0.0
  0
LINE
  5
5F737
330
1F
100
AcDbEntity
  8
freecads.com
100
AcDbLine
 10
104449.9055809411
 20
95264.98592850431
 30
0.0
 11
104449.900261863
 21
95264.97852720567
 31
0.0
  0
LINE
  5
5F738
330
1F
100
AcDbEntity
  8
freecads.com
100
AcDbLine
 10
104449.900261863
 20
95264.97852720567
 30
0.0
 11
104449.8954496199
 21
95264.97171667655
 31
0.0
  0
LINE
  5
5F739
330
1F
100
AcDbEntity
  8
freecads.com
100
AcDbLine
 10
104449.8954496199
 20
95264.97171667655
 30
0.0
 11
104449.8959284768
 21
95264.97130991719
 31
0.0
  0
LINE
  5
5F73A
330
1F
100
AcDbEntity
  8
freecads.com
100
AcDbLine
 10
104449.8959284768
 20
95264.97130991719
 30
0.0
 11
104449.8942121245
 21
95264.96617484927
 31
0.0
  0
LINE
  5
5F73B
330
1F
100
AcDbEntity
  8
freecads.com
100
AcDbLine
 10
104449.8942121245
 20
95264.96617484927
 30
0.0
 11
104449.890132694
 21
95264.95614252773
 31
0.0
  0
LINE
  5
5F73C
330
1F
100
AcDbEntity
  8
freecads.com
100
AcDbLine
 10
104449.890132694
 20
95264.95614252773
 30
0.0
 11
104449.8872035961
 21
95264.95155626212
 31
0.0
  0
LINE
  5
5F73D
330
1F
100
AcDbEntity
  8
freecads.com
100
AcDbLine
 10
104449.8872035961
 20
95264.95155626212
 30
0.0
 11
104449.8833867298
 21
95264.94670743225
 31
0.0
  0
LINE
  5
5F73E
330
1F
100
AcDbEntity
  8
freecads.com
100
AcDbLine
 10
104449.8833867298
 20
95264.94670743225
 30
0.0
 11
104449.8786820951
 21
95264.94159819034
 31
0.0
  0
LINE
  5
5F73F
330
1F
100
AcDbEntity
  8
freecads.com
100
AcDbLine
 10
104449.8786820951
 20
95264.94159819034
 30
0.0
 11
104449.8730864637
 21
95264.93623068848
 31
0.0
  0
LINE
  5
5F740
330
1F
100
AcDbEntity
  8
freecads.com
100
AcDbLine
 10
104449.8730864637
 20
95264.93623068848
 30
0.0
 11
104449.8665987594
 21
95264.93060707888
 31
0.0
  0
LINE
  5
5F741
330
1F
100
AcDbEntity
  8
freecads.com
100
AcDbLine
 10
104449.8665987594
 20
95264.93060707888
 30
0.0
 11
104449.8592168303
 21
95264.92472736153
 31
0.0
  0
LINE
  5
5F742
330
1F
100
AcDbEntity
  8
freecads.com
100
AcDbLine
 10
104449.8592168303
 20
95264.92472736153
 30
0.0
 11
104449.8509396001
 21
95264.91859476468
 31
0.0
  0
LINE
  5
5F743
330
1F
100
AcDbEntity
  8
freecads.com
100
AcDbLine
 10
104449.8509396001
 20
95264.91859476468
 30
0.0
 11
104449.8417638406
 21
95264.91221036446
 31
0.0
  0
LINE
  5
5F744
330
1F
100
AcDbEntity
  8
freecads.com
100
AcDbLine
 10
104449.8417638406
 20
95264.91221036446
 30
0.0
 11
104449.8316906279
 21
95264.90557631293
 31
0.0
  0
LINE
  5
5F745
330
1F
100
AcDbEntity
  8
freecads.com
100
AcDbLine
 10
104449.8316906279
 20
95264.90557631293
 30
0.0
 11
104449.8207156577
 21
95264.89869368626
 31
0.0
  0
LINE
  5
5F746
330
1F
100
AcDbEntity
  8
freecads.com
100
AcDbLine
 10
104449.8207156577
 20
95264.89869368626
 30
0.0
 11
104449.8088378539
 21
95264.89156571267
 31
0.0
  0
LINE
  5
5F747
330
1F
100
AcDbEntity
  8
freecads.com
100
AcDbLine
 10
104449.8088378539
 20
95264.89156571267
 30
0.0
 11
104449.8059690167
 21
95264.88796298689
 31
0.0
  0
LINE
  5
5F748
330
1F
100
AcDbEntity
  8
freecads.com
100
AcDbLine
 10
104449.8059690167
 20
95264.88796298689
 30
0.0
 11
104449.8078596945
 21
95264.8862756888
 31
0.0
  0
LINE
  5
5F749
330
1F
100
AcDbEntity
  8
freecads.com
100
AcDbLine
 10
104449.8078596945
 20
95264.8862756888
 30
0.0
 11
104449.8145271046
 21
95264.88650381839
 31
0.0
  0
LINE
  5
5F74A
330
1F
100
AcDbEntity
  8
freecads.com
100
AcDbLine
 10
104449.8145271046
 20
95264.88650381839
 30
0.0
 11
104449.8259906164
 21
95264.88864737565
 31
0.0
  0
LINE
  5
5F74B
330
1F
100
AcDbEntity
  8
freecads.com
100
AcDbLine
 10
104449.8259906164
 20
95264.88864737565
 30
0.0
 11
104449.8422685235
 21
95264.89270528454
 31
0.0
  0
LINE
  5
5F74C
330
1F
100
AcDbEntity
  8
freecads.com
100
AcDbLine
 10
104449.8422685235
 20
95264.89270528454
 30
0.0
 11
104449.8552945078
 21
95264.8970989313
 31
0.0
  0
LINE
  5
5F74D
330
1F
100
AcDbEntity
  8
freecads.com
100
AcDbLine
 10
104449.8552945078
 20
95264.8970989313
 30
0.0
 11
104449.8670324209
 21
95264.90083509138
 31
0.0
  0
LINE
  5
5F74E
330
1F
100
AcDbEntity
  8
freecads.com
100
AcDbLine
 10
104449.8670324209
 20
95264.90083509138
 30
0.0
 11
104449.8774930234
 21
95264.90390730826
 31
0.0
  0
LINE
  5
5F74F
330
1F
100
AcDbEntity
  8
freecads.com
100
AcDbLine
 10
104449.8774930234
 20
95264.90390730826
 30
0.0
 11
104449.8866924567
 21
95264.90630804936
 31
0.0
  0
LINE
  5
5F750
330
1F
100
AcDbEntity
  8
freecads.com
100
AcDbLine
 10
104449.8866924567
 20
95264.90630804936
 30
0.0
 11
104449.8946414816
 21
95264.90803193427
 31
0.0
  0
LINE
  5
5F751
330
1F
100
AcDbEntity
  8
freecads.com
100
AcDbLine
 10
104449.8946414816
 20
95264.90803193427
 30
0.0
 11
104449.9013551633
 21
95264.90907035434
 31
0.0
  0
LINE
  5
5F752
330
1F
100
AcDbEntity
  8
freecads.com
100
AcDbLine
 10
104449.9013551633
 20
95264.90907035434
 30
0.0
 11
104449.9068464147
 21
95264.90941792914
 31
0.0
  0
LINE
  5
5F753
330
1F
100
AcDbEntity
  8
freecads.com
100
AcDbLine
 10
104449.9068464147
 20
95264.90941792914
 30
0.0
 11
104449.9168959535
 21
95264.90921347336
 31
0.0
  0
LINE
  5
5F754
330
1F
100
AcDbEntity
  8
freecads.com
100
AcDbLine
 10
104449.9168959535
 20
95264.90921347336
 30
0.0
 11
104449.9244780341
 21
95264.90860010607
 31
0.0
  0
LINE
  5
5F755
330
1F
100
AcDbEntity
  8
freecads.com
100
AcDbLine
 10
104449.9244780341
 20
95264.90860010607
 30
0.0
 11
104449.9295851239
 21
95264.9075821316
 31
0.0
  0
LINE
  5
5F756
330
1F
100
AcDbEntity
  8
freecads.com
100
AcDbLine
 10
104449.9295851239
 20
95264.9075821316
 30
0.0
 11
104449.9322096902
 21
95264.90616062599
 31
0.0
  0
LINE
  5
5F757
330
1F
100
AcDbEntity
  8
freecads.com
100
AcDbLine
 10
104449.9322096902
 20
95264.90616062599
 30
0.0
 11
104449.9323452767
 21
95264.90433774144
 31
0.0
  0
LINE
  5
5F758
330
1F
100
AcDbEntity
  8
freecads.com
100
AcDbLine
 10
104449.9323452767
 20
95264.90433774144
 30
0.0
 11
104449.9299854267
 21
95264.90211563011
 31
0.0
  0
LINE
  5
5F759
330
1F
100
AcDbEntity
  8
freecads.com
100
AcDbLine
 10
104449.9299854267
 20
95264.90211563011
 30
0.0
 11
104449.9251226078
 21
95264.89949752024
 31
0.0
  0
LINE
  5
5F75A
330
1F
100
AcDbEntity
  8
freecads.com
100
AcDbLine
 10
104449.9251226078
 20
95264.89949752024
 30
0.0
 11
104449.9177503634
 21
95264.89648448793
 31
0.0
  0
LINE
  5
5F75B
330
1F
100
AcDbEntity
  8
freecads.com
100
AcDbLine
 10
104449.9177503634
 20
95264.89648448793
 30
0.0
 11
104449.9078611609
 21
95264.89307976142
 31
0.0
  0
LINE
  5
5F75C
330
1F
100
AcDbEntity
  8
freecads.com
100
AcDbLine
 10
104449.9078611609
 20
95264.89307976142
 30
0.0
 11
104449.8954496199
 21
95264.88928549287
 31
0.0
  0
LINE
  5
5F75D
330
1F
100
AcDbEntity
  8
freecads.com
100
AcDbLine
 10
104449.8954496199
 20
95264.88928549287
 30
0.0
 11
104449.8806351857
 21
95264.88533304013
 31
0.0
  0
LINE
  5
5F75E
330
1F
100
AcDbEntity
  8
freecads.com
100
AcDbLine
 10
104449.8806351857
 20
95264.88533304013
 30
0.0
 11
104449.8681031234
 21
95264.88133001148
 31
0.0
  0
LINE
  5
5F75F
330
1F
100
AcDbEntity
  8
freecads.com
100
AcDbLine
 10
104449.8681031234
 20
95264.88133001148
 30
0.0
 11
104449.8578555853
 21
95264.8772839395
 31
0.0
  0
LINE
  5
5F760
330
1F
100
AcDbEntity
  8
freecads.com
100
AcDbLine
 10
104449.8578555853
 20
95264.8772839395
 30
0.0
 11
104449.8498979518
 21
95264.87319912856
 31
0.0
  0
LINE
  5
5F761
330
1F
100
AcDbEntity
  8
freecads.com
100
AcDbLine
 10
104449.8498979518
 20
95264.87319912856
 30
0.0
 11
104449.8442312988
 21
95264.86908418728
 31
0.0
  0
LINE
  5
5F762
330
1F
100
AcDbEntity
  8
freecads.com
100
AcDbLine
 10
104449.8442312988
 20
95264.86908418728
 30
0.0
 11
104449.8408599309
 21
95264.8649444961
 31
0.0
  0
LINE
  5
5F763
330
1F
100
AcDbEntity
  8
freecads.com
100
AcDbLine
 10
104449.8408599309
 20
95264.8649444961
 30
0.0
 11
104449.8397870762
 21
95264.86078543543
 31
0.0
  0
LINE
  5
5F764
330
1F
100
AcDbEntity
  8
freecads.com
100
AcDbLine
 10
104449.8397870762
 20
95264.86078543543
 30
0.0
 11
104449.8410148869
 21
95264.85661453785
 31
0.0
  0
LINE
  5
5F765
330
1F
100
AcDbEntity
  8
freecads.com
100
AcDbLine
 10
104449.8410148869
 20
95264.85661453785
 30
0.0
 11
104449.8445476672
 21
95264.85243610768
 31
0.0
  0
LINE
  5
5F766
330
1F
100
AcDbEntity
  8
freecads.com
100
AcDbLine
 10
104449.8445476672
 20
95264.85243610768
 30
0.0
 11
104449.8524966921
 21
95264.84873653442
 31
0.0
  0
LINE
  5
5F767
330
1F
100
AcDbEntity
  8
freecads.com
100
AcDbLine
 10
104449.8524966921
 20
95264.84873653442
 30
0.0
 11
104449.8617972772
 21
95264.8466403248
 31
0.0
  0
LINE
  5
5F768
330
1F
100
AcDbEntity
  8
freecads.com
100
AcDbLine
 10
104449.8617972772
 20
95264.8466403248
 30
0.0
 11
104449.8722804775
 21
95264.84597960987
 31
0.0
  0
LINE
  5
5F769
330
1F
100
AcDbEntity
  8
freecads.com
100
AcDbLine
 10
104449.8722804775
 20
95264.84597960987
 30
0.0
 11
104449.8807352614
 21
95264.84496593971
 31
0.0
  0
LINE
  5
5F76A
330
1F
100
AcDbEntity
  8
freecads.com
100
AcDbLine
 10
104449.8807352614
 20
95264.84496593971
 30
0.0
 11
104449.8900336943
 21
95264.84192708139
 31
0.0
  0
LINE
  5
5F76B
330
1F
100
AcDbEntity
  8
freecads.com
100
AcDbLine
 10
104449.8900336943
 20
95264.84192708139
 30
0.0
 11
104449.9000079074
 21
95264.83686303494
 31
0.0
  0
LINE
  5
5F76C
330
1F
100
AcDbEntity
  8
freecads.com
100
AcDbLine
 10
104449.9000079074
 20
95264.83686303494
 30
0.0
 11
104449.909379514
 21
95264.83016441845
 31
0.0
  0
LINE
  5
5F76D
330
1F
100
AcDbEntity
  8
freecads.com
100
AcDbLine
 10
104449.909379514
 20
95264.83016441845
 30
0.0
 11
104449.909379514
 21
95264.82456448269
 31
0.0
  0
LINE
  5
5F76E
330
1F
100
AcDbEntity
  8
freecads.com
100
AcDbLine
 10
104449.909379514
 20
95264.82456448269
 30
0.0
 11
104449.9000079074
 21
95264.82014500993
 31
0.0
  0
LINE
  5
5F76F
330
1F
100
AcDbEntity
  8
freecads.com
100
AcDbLine
 10
104449.9000079074
 20
95264.82014500993
 30
0.0
 11
104449.8888521552
 21
95264.81708032564
 31
0.0
  0
LINE
  5
5F770
330
1F
100
AcDbEntity
  8
freecads.com
100
AcDbLine
 10
104449.8888521552
 20
95264.81708032564
 30
0.0
 11
104449.8803973714
 21
95264.81536397328
 31
0.0
  0
LINE
  5
5F771
330
1F
100
AcDbEntity
  8
freecads.com
100
AcDbLine
 10
104449.8803973714
 20
95264.81536397328
 30
0.0
 11
104449.8745596213
 21
95264.81482916006
 31
0.0
  0
LINE
  5
5F772
330
1F
100
AcDbEntity
  8
freecads.com
100
AcDbLine
 10
104449.8745596213
 20
95264.81482916006
 30
0.0
 11
104449.8565642858
 21
95264.81254894024
 31
0.0
  0
LINE
  5
5F773
330
1F
100
AcDbEntity
  8
freecads.com
100
AcDbLine
 10
104449.8565642858
 20
95264.81254894024
 30
0.0
 11
104449.845828206
 21
95264.81026979652
 31
0.0
  0
LINE
  5
5F774
330
1F
100
AcDbEntity
  8
freecads.com
100
AcDbLine
 10
104449.845828206
 20
95264.81026979652
 30
0.0
 11
104449.8422685235
 21
95264.8079906528
 31
0.0
  0
LINE
  5
5F775
330
1F
100
AcDbEntity
  8
freecads.com
100
AcDbLine
 10
104449.8422685235
 20
95264.8079906528
 30
0.0
 11
104449.8432671285
 21
95264.80572549814
 31
0.0
  0
LINE
  5
5F776
330
1F
100
AcDbEntity
  8
freecads.com
100
AcDbLine
 10
104449.8432671285
 20
95264.80572549814
 30
0.0
 11
104449.8462069872
 21
95264.80202592491
 31
0.0
  0
LINE
  5
5F777
330
1F
100
AcDbEntity
  8
freecads.com
100
AcDbLine
 10
104449.8462069872
 20
95264.80202592491
 30
0.0
 11
104449.8510041651
 21
95264.79697586752
 31
0.0
  0
LINE
  5
5F778
330
1F
100
AcDbEntity
  8
freecads.com
100
AcDbLine
 10
104449.8510041651
 20
95264.79697586752
 30
0.0
 11
104449.8505909492
 21
95264.79961657512
 31
0.0
  0
LINE
  5
5F779
330
1F
100
AcDbEntity
  8
freecads.com
100
AcDbLine
 10
104449.8505909492
 20
95264.79961657512
 30
0.0
 11
104449.8520737915
 21
95264.79795295086
 31
0.0
  0
LINE
  5
5F77A
330
1F
100
AcDbEntity
  8
freecads.com
100
AcDbLine
 10
104449.8520737915
 20
95264.79795295086
 30
0.0
 11
104449.8554354747
 21
95264.79196885347
 31
0.0
  0
LINE
  5
5F77B
330
1F
100
AcDbEntity
  8
freecads.com
100
AcDbLine
 10
104449.8554354747
 20
95264.79196885347
 30
0.0
 11
104449.8606577054
 21
95264.78164491345
 31
0.0
  0
LINE
  5
5F77C
330
1F
100
AcDbEntity
  8
freecads.com
100
AcDbLine
 10
104449.8606577054
 20
95264.78164491345
 30
0.0
 11
104449.867721114
 21
95264.76696391352
 31
0.0
  0
LINE
  5
5F77D
330
1F
100
AcDbEntity
  8
freecads.com
100
AcDbLine
 10
104449.867721114
 20
95264.76696391352
 30
0.0
 11
104449.8712173075
 21
95264.75571669431
 31
0.0
  0
LINE
  5
5F77E
330
1F
100
AcDbEntity
  8
freecads.com
100
AcDbLine
 10
104449.8712173075
 20
95264.75571669431
 30
0.0
 11
104449.8703316913
 21
95264.74763853947
 31
0.0
  0
LINE
  5
5F77F
330
1F
100
AcDbEntity
  8
freecads.com
100
AcDbLine
 10
104449.8703316913
 20
95264.74763853947
 30
0.0
 11
104449.865101928
 21
95264.74276603577
 31
0.0
  0
LINE
  5
5F780
330
1F
100
AcDbEntity
  8
freecads.com
100
AcDbLine
 10
104449.865101928
 20
95264.74276603577
 30
0.0
 11
104449.8555624525
 21
95264.74113361793
 31
0.0
  0
LINE
  5
5F781
330
1F
100
AcDbEntity
  8
freecads.com
100
AcDbLine
 10
104449.8555624525
 20
95264.74113361793
 30
0.0
 11
104449.8453063057
 21
95264.73769983716
 31
0.0
  0
LINE
  5
5F782
330
1F
100
AcDbEntity
  8
freecads.com
100
AcDbLine
 10
104449.8453063057
 20
95264.73769983716
 30
0.0
 11
104449.8441667339
 21
95264.73038247297
 31
0.0
  0
LINE
  5
5F783
330
1F
100
AcDbEntity
  8
freecads.com
100
AcDbLine
 10
104449.8441667339
 20
95264.73038247297
 30
0.0
 11
104449.8521437369
 21
95264.71909974304
 31
0.0
  0
LINE
  5
5F784
330
1F
100
AcDbEntity
  8
freecads.com
100
AcDbLine
 10
104449.8521437369
 20
95264.71909974304
 30
0.0
 11
104449.8561317004
 21
95264.71264216915
 31
0.0
  0
LINE
  5
5F785
330
1F
100
AcDbEntity
  8
freecads.com
100
AcDbLine
 10
104449.8561317004
 20
95264.71264216915
 30
0.0
 11
104449.8563092541
 21
95264.7080828056
 31
0.0
  0
LINE
  5
5F786
330
1F
100
AcDbEntity
  8
freecads.com
100
AcDbLine
 10
104449.8563092541
 20
95264.7080828056
 30
0.0
 11
104449.8526677893
 21
95264.70542380458
 31
0.0
  0
LINE
  5
5F787
330
1F
100
AcDbEntity
  8
freecads.com
100
AcDbLine
 10
104449.8526677893
 20
95264.70542380458
 30
0.0
 11
104449.8451954692
 21
95264.70466409001
 31
0.0
  0
LINE
  5
5F788
330
1F
100
AcDbEntity
  8
freecads.com
100
AcDbLine
 10
104449.8451954692
 20
95264.70466409001
 30
0.0
 11
104449.8338826089
 21
95264.70580366186
 31
0.0
  0
LINE
  5
5F789
330
1F
100
AcDbEntity
  8
freecads.com
100
AcDbLine
 10
104449.8338826089
 20
95264.70580366186
 30
0.0
 11
104449.8187173716
 21
95264.70884252018
 31
0.0
  0
LINE
  5
5F78A
330
1F
100
AcDbEntity
  8
freecads.com
100
AcDbLine
 10
104449.8187173716
 20
95264.70884252018
 30
0.0
 11
104449.8244001658
 21
95264.69924708834
 31
0.0
  0
LINE
  5
5F78B
330
1F
100
AcDbEntity
  8
freecads.com
100
AcDbLine
 10
104449.8244001658
 20
95264.69924708834
 30
0.0
 11
104449.8307587401
 21
95264.68956664595
 31
0.0
  0
LINE
  5
5F78C
330
1F
100
AcDbEntity
  8
freecads.com
100
AcDbLine
 10
104449.8307587401
 20
95264.68956664595
 30
0.0
 11
104449.8377102361
 21
95264.67997121413
 31
0.0
  0
LINE
  5
5F78D
330
1F
100
AcDbEntity
  8
freecads.com
100
AcDbLine
 10
104449.8377102361
 20
95264.67997121413
 30
0.0
 11
104449.8335307298
 21
95264.67870574055
 31
0.0
  0
LINE
  5
5F78E
330
1F
100
AcDbEntity
  8
freecads.com
100
AcDbLine
 10
104449.8335307298
 20
95264.67870574055
 30
0.0
 11
104449.8209954393
 21
95264.67794494989
 31
0.0
  0
LINE
  5
5F78F
330
1F
100
AcDbEntity
  8
freecads.com
100
AcDbLine
 10
104449.8209954393
 20
95264.67794494989
 30
0.0
 11
104449.8001022124
 21
95264.67769207039
 31
0.0
  0
LINE
  5
5F790
330
1F
100
AcDbEntity
  8
freecads.com
100
AcDbLine
 10
104449.8001022124
 20
95264.67769207039
 30
0.0
 11
104449.7989486514
 21
95264.6765664876
 31
0.0
  0
LINE
  5
5F791
330
1F
100
AcDbEntity
  8
freecads.com
100
AcDbLine
 10
104449.7989486514
 20
95264.6765664876
 30
0.0
 11
104449.7999892237
 21
95264.67324569557
 31
0.0
  0
LINE
  5
5F792
330
1F
100
AcDbEntity
  8
freecads.com
100
AcDbLine
 10
104449.7999892237
 20
95264.67324569557
 30
0.0
 11
104449.8031399946
 21
95264.6678157809
 31
0.0
  0
LINE
  5
5F793
330
1F
100
AcDbEntity
  8
freecads.com
100
AcDbLine
 10
104449.8031399946
 20
95264.6678157809
 30
0.0
 11
104449.8044205333
 21
95264.66095037156
 31
0.0
  0
LINE
  5
5F794
330
1F
100
AcDbEntity
  8
freecads.com
100
AcDbLine
 10
104449.8044205333
 20
95264.66095037156
 30
0.0
 11
104449.800719884
 21
95264.6569548755
 31
0.0
  0
LINE
  5
5F795
330
1F
100
AcDbEntity
  8
freecads.com
100
AcDbLine
 10
104449.800719884
 20
95264.6569548755
 30
0.0
 11
104449.7921241332
 21
95264.65566142377
 31
0.0
  0
LINE
  5
5F796
330
1F
100
AcDbEntity
  8
freecads.com
100
AcDbLine
 10
104449.7921241332
 20
95264.65566142377
 30
0.0
 11
104449.7750165662
 21
95264.652240556
 31
0.0
  0
LINE
  5
5F797
330
1F
100
AcDbEntity
  8
freecads.com
100
AcDbLine
 10
104449.7750165662
 20
95264.652240556
 30
0.0
 11
104449.7639006291
 21
95264.64806320193
 31
0.0
  0
LINE
  5
5F798
330
1F
100
AcDbEntity
  8
freecads.com
100
AcDbLine
 10
104449.7639006291
 20
95264.64806320193
 30
0.0
 11
104449.7586934636
 21
95264.64312613324
 31
0.0
  0
LINE
  5
5F799
330
1F
100
AcDbEntity
  8
freecads.com
100
AcDbLine
 10
104449.7586934636
 20
95264.64312613324
 30
0.0
 11
104449.7534884503
 21
95264.63896061608
 31
0.0
  0
LINE
  5
5F79A
330
1F
100
AcDbEntity
  8
freecads.com
100
AcDbLine
 10
104449.7534884503
 20
95264.63896061608
 30
0.0
 11
104449.7438940946
 21
95264.63791896777
 31
0.0
  0
LINE
  5
5F79B
330
1F
100
AcDbEntity
  8
freecads.com
100
AcDbLine
 10
104449.7438940946
 20
95264.63791896777
 30
0.0
 11
104449.7298264619
 21
95264.64008404669
 31
0.0
  0
LINE
  5
5F79C
330
1F
100
AcDbEntity
  8
freecads.com
100
AcDbLine
 10
104449.7298264619
 20
95264.64008404669
 30
0.0
 11
104449.7276721438
 21
95264.63756601255
 31
0.0
  0
LINE
  5
5F79D
330
1F
100
AcDbEntity
  8
freecads.com
100
AcDbLine
 10
104449.7276721438
 20
95264.63756601255
 30
0.0
 11
104449.7288117157
 21
95264.63006679033
 31
0.0
  0
LINE
  5
5F79E
330
1F
100
AcDbEntity
  8
freecads.com
100
AcDbLine
 10
104449.7288117157
 20
95264.63006679033
 30
0.0
 11
104449.7332451775
 21
95264.6176724667
 31
0.0
  0
LINE
  5
5F79F
330
1F
100
AcDbEntity
  8
freecads.com
100
AcDbLine
 10
104449.7332451775
 20
95264.6176724667
 30
0.0
 11
104449.7306884043
 21
95264.62186273379
 31
0.0
  0
LINE
  5
5F7A0
330
1F
100
AcDbEntity
  8
freecads.com
100
AcDbLine
 10
104449.7306884043
 20
95264.62186273379
 30
0.0
 11
104449.7303020906
 21
95264.62120309492
 31
0.0
  0
LINE
  5
5F7A1
330
1F
100
AcDbEntity
  8
freecads.com
100
AcDbLine
 10
104449.7303020906
 20
95264.62120309492
 30
0.0
 11
104449.7320668666
 21
95264.61567418063
 31
0.0
  0
LINE
  5
5F7A2
330
1F
100
AcDbEntity
  8
freecads.com
100
AcDbLine
 10
104449.7320668666
 20
95264.61567418063
 30
0.0
 11
104449.7359655152
 21
95264.60525984965
 31
0.0
  0
LINE
  5
5F7A3
330
1F
100
AcDbEntity
  8
freecads.com
100
AcDbLine
 10
104449.7359655152
 20
95264.60525984965
 30
0.0
 11
104449.741980819
 21
95264.58993965642
 31
0.0
  0
LINE
  5
5F7A4
330
1F
100
AcDbEntity
  8
freecads.com
100
AcDbLine
 10
104449.741980819
 20
95264.58993965642
 30
0.0
 11
104449.7450498077
 21
95264.57710844308
 31
0.0
  0
LINE
  5
5F7A5
330
1F
100
AcDbEntity
  8
freecads.com
100
AcDbLine
 10
104449.7450498077
 20
95264.57710844308
 30
0.0
 11
104449.7440232245
 21
95264.56876341967
 31
0.0
  0
LINE
  5
5F7A6
330
1F
100
AcDbEntity
  8
freecads.com
100
AcDbLine
 10
104449.7440232245
 20
95264.56876341967
 30
0.0
 11
104449.7389365803
 21
95264.56483356467
 31
0.0
  0
LINE
  5
5F7A7
330
1F
100
AcDbEntity
  8
freecads.com
100
AcDbLine
 10
104449.7389365803
 20
95264.56483356467
 30
0.0
 11
104449.7298264619
 21
95264.56524893269
 31
0.0
  0
LINE
  5
5F7A8
330
1F
100
AcDbEntity
  8
freecads.com
100
AcDbLine
 10
104449.7298264619
 20
95264.56524893269
 30
0.0
 11
104449.7257448792
 21
95264.56738710955
 31
0.0
  0
LINE
  5
5F7A9
330
1F
100
AcDbEntity
  8
freecads.com
100
AcDbLine
 10
104449.7257448792
 20
95264.56738710955
 30
0.0
 11
104449.7179497342
 21
95264.5737467599
 31
0.0
  0
LINE
  5
5F7AA
330
1F
100
AcDbEntity
  8
freecads.com
100
AcDbLine
 10
104449.7179497342
 20
95264.5737467599
 30
0.0
 11
104449.7062710057
 21
95264.58424179709
 31
0.0
  0
LINE
  5
5F7AB
330
1F
100
AcDbEntity
  8
freecads.com
100
AcDbLine
 10
104449.7062710057
 20
95264.58424179709
 30
0.0
 11
104449.6952422313
 21
95264.59562567884
 31
0.0
  0
LINE
  5
5F7AC
330
1F
100
AcDbEntity
  8
freecads.com
100
AcDbLine
 10
104449.6952422313
 20
95264.59562567884
 30
0.0
 11
104449.6886867339
 21
95264.60312490105
 31
0.0
  0
LINE
  5
5F7AD
330
1F
100
AcDbEntity
  8
freecads.com
100
AcDbLine
 10
104449.6886867339
 20
95264.60312490105
 30
0.0
 11
104449.6865205789
 21
95264.60665768142
 31
0.0
  0
LINE
  5
5F7AE
330
1F
100
AcDbEntity
  8
freecads.com
100
AcDbLine
 10
104449.6865205789
 20
95264.60665768142
 30
0.0
 11
104449.6876020422
 21
95264.59710529291
 31
0.0
  0
LINE
  5
5F7AF
330
1F
100
AcDbEntity
  8
freecads.com
100
AcDbLine
 10
104449.6876020422
 20
95264.59710529291
 30
0.0
 11
104449.6880583015
 21
95264.58769925167
 31
0.0
  0
LINE
  5
5F7B0
330
1F
100
AcDbEntity
  8
freecads.com
100
AcDbLine
 10
104449.6880583015
 20
95264.58769925167
 30
0.0
 11
104449.687883976
 21
95264.5784470903
 31
0.0
  0
LINE
  5
5F7B1
330
1F
100
AcDbEntity
  8
freecads.com
100
AcDbLine
 10
104449.687883976
 20
95264.5784470903
 30
0.0
 11
104449.6870715334
 21
95264.5693552653
 31
0.0
  0
LINE
  5
5F7B2
330
1F
100
AcDbEntity
  8
freecads.com
100
AcDbLine
 10
104449.6870715334
 20
95264.5693552653
 30
0.0
 11
104449.685614517
 21
95264.56042808099
 31
0.0
  0
LINE
  5
5F7B3
330
1F
100
AcDbEntity
  8
freecads.com
100
AcDbLine
 10
104449.685614517
 20
95264.56042808099
 30
0.0
 11
104449.6835075466
 21
95264.55167306995
 31
0.0
  0
LINE
  5
5F7B4
330
1F
100
AcDbEntity
  8
freecads.com
100
AcDbLine
 10
104449.6835075466
 20
95264.55167306995
 30
0.0
 11
104449.6807441655
 21
95264.54309668869
 31
0.0
  0
LINE
  5
5F7B5
330
1F
100
AcDbEntity
  8
freecads.com
100
AcDbLine
 10
104449.6807441655
 20
95264.54309668869
 30
0.0
 11
104449.6773179173
 21
95264.53470431761
 31
0.0
  0
LINE
  5
5F7B6
330
1F
100
AcDbEntity
  8
freecads.com
100
AcDbLine
 10
104449.6773179173
 20
95264.53470431761
 30
0.0
 11
104449.6732212695
 21
95264.52650241322
 31
0.0
  0
LINE
  5
5F7B7
330
1F
100
AcDbEntity
  8
freecads.com
100
AcDbLine
 10
104449.6732212695
 20
95264.52650241322
 30
0.0
 11
104449.6667776847
 21
95264.51797553178
 31
0.0
  0
LINE
  5
5F7B8
330
1F
100
AcDbEntity
  8
freecads.com
100
AcDbLine
 10
104449.6667776847
 20
95264.51797553178
 30
0.0
 11
104449.6566194614
 21
95264.51502060794
 31
0.0
  0
LINE
  5
5F7B9
330
1F
100
AcDbEntity
  8
freecads.com
100
AcDbLine
 10
104449.6566194614
 20
95264.51502060794
 30
0.0
 11
104449.6428326864
 21
95264.51738476222
 31
0.0
  0
LINE
  5
5F7BA
330
1F
100
AcDbEntity
  8
freecads.com
100
AcDbLine
 10
104449.6428326864
 20
95264.51738476222
 30
0.0
 11
104449.6324398771
 21
95264.52130923681
 31
0.0
  0
LINE
  5
5F7BB
330
1F
100
AcDbEntity
  8
freecads.com
100
AcDbLine
 10
104449.6324398771
 20
95264.52130923681
 30
0.0
 11
104449.6286359238
 21
95264.52056673957
 31
0.0
  0
LINE
  5
5F7BC
330
1F
100
AcDbEntity
  8
freecads.com
100
AcDbLine
 10
104449.6286359238
 20
95264.52056673957
 30
0.0
 11
104449.6314552612
 21
95264.51519493338
 31
0.0
  0
LINE
  5
5F7BD
330
1F
100
AcDbEntity
  8
freecads.com
100
AcDbLine
 10
104449.6314552612
 20
95264.51519493338
 30
0.0
 11
104449.6409344761
 21
95264.50523040509
 31
0.0
  0
LINE
  5
5F7BE
330
1F
100
AcDbEntity
  8
freecads.com
100
AcDbLine
 10
104449.6409344761
 20
95264.50523040509
 30
0.0
 11
104449.6574329802
 21
95264.50550373017
 31
0.0
  0
LINE
  5
5F7BF
330
1F
100
AcDbEntity
  8
freecads.com
100
AcDbLine
 10
104449.6574329802
 20
95264.50550373017
 30
0.0
 11
104449.671360722
 21
95264.50541226312
 31
0.0
  0
LINE
  5
5F7C0
330
1F
100
AcDbEntity
  8
freecads.com
100
AcDbLine
 10
104449.671360722
 20
95264.50541226312
 30
0.0
 11
104449.6826994083
 21
95264.50495600393
 31
0.0
  0
LINE
  5
5F7C1
330
1F
100
AcDbEntity
  8
freecads.com
100
AcDbLine
 10
104449.6826994083
 20
95264.50495600393
 30
0.0
 11
104449.6914296694
 21
95264.50413602869
 31
0.0
  0
LINE
  5
5F7C2
330
1F
100
AcDbEntity
  8
freecads.com
100
AcDbLine
 10
104449.6914296694
 20
95264.50413602869
 30
0.0
 11
104449.6975353641
 21
95264.50295126135
 31
0.0
  0
LINE
  5
5F7C3
330
1F
100
AcDbEntity
  8
freecads.com
100
AcDbLine
 10
104449.6975353641
 20
95264.50295126135
 30
0.0
 11
104449.6999554747
 21
95264.50131776741
 31
0.0
  0
LINE
  5
5F7C4
330
1F
100
AcDbEntity
  8
freecads.com
100
AcDbLine
 10
104449.6999554747
 20
95264.50131776741
 30
0.0
 11
104449.7027134754
 21
95264.49951640453
 31
0.0
  0
LINE
  5
5F7C5
330
1F
100
AcDbEntity
  8
freecads.com
100
AcDbLine
 10
104449.7027134754
 20
95264.49951640453
 30
0.0
 11
104449.7058933006
 21
95264.49763003109
 31
0.0
  0
LINE
  5
5F7C6
330
1F
100
AcDbEntity
  8
freecads.com
100
AcDbLine
 10
104449.7058933006
 20
95264.49763003109
 30
0.0
 11
104449.709452983
 21
95264.49547786514
 31
0.0
  0
LINE
  5
5F7C7
330
1F
100
AcDbEntity
  8
freecads.com
100
AcDbLine
 10
104449.709452983
 20
95264.49547786514
 30
0.0
 11
104449.7133484034
 21
95264.49357857869
 31
0.0
  0
LINE
  5
5F7C8
330
1F
100
AcDbEntity
  8
freecads.com
100
AcDbLine
 10
104449.7133484034
 20
95264.49357857869
 30
0.0
 11
104449.7176667243
 21
95264.49193217175
 31
0.0
  0
LINE
  5
5F7C9
330
1F
100
AcDbEntity
  8
freecads.com
100
AcDbLine
 10
104449.7176667243
 20
95264.49193217175
 30
0.0
 11
104449.7239854835
 21
95264.48764182894
 31
0.0
  0
LINE
  5
5F7CA
330
1F
100
AcDbEntity
  8
freecads.com
100
AcDbLine
 10
104449.7239854835
 20
95264.48764182894
 30
0.0
 11
104449.7284458475
 21
95264.48242175046
 31
0.0
  0
LINE
  5
5F7CB
330
1F
100
AcDbEntity
  8
freecads.com
100
AcDbLine
 10
104449.7284458475
 20
95264.48242175046
 30
0.0
 11
104449.7309660338
 21
95264.47635802293
 31
0.0
  0
LINE
  5
5F7CC
330
1F
100
AcDbEntity
  8
freecads.com
100
AcDbLine
 10
104449.7309660338
 20
95264.47635802293
 30
0.0
 11
104449.7331181997
 21
95264.47075916324
 31
0.0
  0
LINE
  5
5F7CD
330
1F
100
AcDbEntity
  8
freecads.com
100
AcDbLine
 10
104449.7331181997
 20
95264.47075916324
 30
0.0
 11
104449.7350174861
 21
95264.46752338177
 31
0.0
  0
LINE
  5
5F7CE
330
1F
100
AcDbEntity
  8
freecads.com
100
AcDbLine
 10
104449.7350174861
 20
95264.46752338177
 30
0.0
 11
104449.7366638931
 21
95264.46648280952
 31
0.0
  0
LINE
  5
5F7CF
330
1F
100
AcDbEntity
  8
freecads.com
100
AcDbLine
 10
104449.7366638931
 20
95264.46648280952
 30
0.0
 11
104449.7503925596
 21
95264.45671090009
 31
0.0
  0
LINE
  5
5F7D0
330
1F
100
AcDbEntity
  8
freecads.com
100
AcDbLine
 10
104449.7503925596
 20
95264.45671090009
 30
0.0
 11
104449.7607380213
 21
95264.44900614603
 31
0.0
  0
LINE
  5
5F7D1
330
1F
100
AcDbEntity
  8
freecads.com
100
AcDbLine
 10
104449.7607380213
 20
95264.44900614603
 30
0.0
 11
104449.7675926698
 21
95264.44329644979
 31
0.0
  0
LINE
  5
5F7D2
330
1F
100
AcDbEntity
  8
freecads.com
100
AcDbLine
 10
104449.7675926698
 20
95264.44329644979
 30
0.0
 11
104449.7708532012
 21
95264.43950863775
 31
0.0
  0
LINE
  5
5F7D3
330
1F
100
AcDbEntity
  8
freecads.com
100
AcDbLine
 10
104449.7708532012
 20
95264.43950863775
 30
0.0
 11
104449.7701903341
 21
95264.43282723858
 31
0.0
  0
LINE
  5
5F7D4
330
1F
100
AcDbEntity
  8
freecads.com
100
AcDbLine
 10
104449.7701903341
 20
95264.43282723858
 30
0.0
 11
104449.7650541901
 21
95264.42276909108
 31
0.0
  0
LINE
  5
5F7D5
330
1F
100
AcDbEntity
  8
freecads.com
100
AcDbLine
 10
104449.7650541901
 20
95264.42276909108
 30
0.0
 11
104449.755274748
 21
95264.40950098807
 31
0.0
  0
LINE
  5
5F7D6
330
1F
100
AcDbEntity
  8
freecads.com
100
AcDbLine
 10
104449.755274748
 20
95264.40950098807
 30
0.0
 11
104449.7546420112
 21
95264.41139919842
 31
0.0
  0
LINE
  5
5F7D7
330
1F
100
AcDbEntity
  8
freecads.com
100
AcDbLine
 10
104449.7546420112
 20
95264.41139919842
 30
0.0
 11
104449.754262154
 21
95264.41405819944
 31
0.0
  0
LINE
  5
5F7D8
330
1F
100
AcDbEntity
  8
freecads.com
100
AcDbLine
 10
104449.754262154
 20
95264.41405819944
 30
0.0
 11
104449.7541351762
 21
95264.41747906719
 31
0.0
  0
LINE
  5
5F7D9
330
1F
100
AcDbEntity
  8
freecads.com
100
AcDbLine
 10
104449.7541351762
 20
95264.41747906719
 30
0.0
 11
104449.7538962858
 21
95264.42062983813
 31
0.0
  0
LINE
  5
5F7DA
330
1F
100
AcDbEntity
  8
freecads.com
100
AcDbLine
 10
104449.7538962858
 20
95264.42062983813
 30
0.0
 11
104449.7532355708
 21
95264.42318876343
 31
0.0
  0
LINE
  5
5F7DB
330
1F
100
AcDbEntity
  8
freecads.com
100
AcDbLine
 10
104449.7532355708
 20
95264.42318876343
 30
0.0
 11
104449.7522369658
 21
95264.42507513689
 31
0.0
  0
LINE
  5
5F7DC
330
1F
100
AcDbEntity
  8
freecads.com
100
AcDbLine
 10
104449.7522369658
 20
95264.42507513689
 30
0.0
 11
104449.7428395332
 21
95264.43050612762
 31
0.0
  0
LINE
  5
5F7DD
330
1F
100
AcDbEntity
  8
freecads.com
100
AcDbLine
 10
104449.7428395332
 20
95264.43050612762
 30
0.0
 11
104449.7327663206
 21
95264.43458555815
 31
0.0
  0
LINE
  5
5F7DE
330
1F
100
AcDbEntity
  8
freecads.com
100
AcDbLine
 10
104449.7327663206
 20
95264.43458555815
 30
0.0
 11
104449.7218483828
 21
95264.43722949402
 31
0.0
  0
LINE
  5
5F7DF
330
1F
100
AcDbEntity
  8
freecads.com
100
AcDbLine
 10
104449.7218483828
 20
95264.43722949402
 30
0.0
 11
104449.7272782974
 21
95264.42966140249
 31
0.0
  0
LINE
  5
5F7E0
330
1F
100
AcDbEntity
  8
freecads.com
100
AcDbLine
 10
104449.7272782974
 20
95264.42966140249
 30
0.0
 11
104449.7343965863
 21
95264.42150146534
 31
0.0
  0
LINE
  5
5F7E1
330
1F
100
AcDbEntity
  8
freecads.com
100
AcDbLine
 10
104449.7343965863
 20
95264.42150146534
 30
0.0
 11
104449.7431203909
 21
95264.41291970366
 31
0.0
  0
LINE
  5
5F7E2
330
1F
100
AcDbEntity
  8
freecads.com
100
AcDbLine
 10
104449.7431203909
 20
95264.41291970366
 30
0.0
 11
104449.7342857497
 21
95264.41480392493
 31
0.0
  0
LINE
  5
5F7E3
330
1F
100
AcDbEntity
  8
freecads.com
100
AcDbLine
 10
104449.7342857497
 20
95264.41480392493
 30
0.0
 11
104449.7253650219
 21
95264.41736392632
 31
0.0
  0
LINE
  5
5F7E4
330
1F
100
AcDbEntity
  8
freecads.com
100
AcDbLine
 10
104449.7253650219
 20
95264.41736392632
 30
0.0
 11
104449.7165271525
 21
95264.42051577333
 31
0.0
  0
LINE
  5
5F7E5
330
1F
100
AcDbEntity
  8
freecads.com
100
AcDbLine
 10
104449.7165271525
 20
95264.42051577333
 30
0.0
 11
104449.7118429633
 21
95264.42368268552
 31
0.0
  0
LINE
  5
5F7E6
330
1F
100
AcDbEntity
  8
freecads.com
100
AcDbLine
 10
104449.7118429633
 20
95264.42368268552
 30
0.0
 11
104449.7084242477
 21
95264.42558197196
 31
0.0
  0
LINE
  5
5F7E7
330
1F
100
AcDbEntity
  8
freecads.com
100
AcDbLine
 10
104449.7084242477
 20
95264.42558197196
 30
0.0
 11
104449.7062710057
 21
95264.42621470874
 31
0.0
  0
LINE
  5
5F7E8
330
1F
100
AcDbEntity
  8
freecads.com
100
AcDbLine
 10
104449.7062710057
 20
95264.42621470874
 30
0.0
 11
104449.6935979766
 21
95264.42544315726
 31
0.0
  0
LINE
  5
5F7E9
330
1F
100
AcDbEntity
  8
freecads.com
100
AcDbLine
 10
104449.6935979766
 20
95264.42544315726
 30
0.0
 11
104449.6829318422
 21
95264.42313926361
 31
0.0
  0
LINE
  5
5F7EA
330
1F
100
AcDbEntity
  8
freecads.com
100
AcDbLine
 10
104449.6829318422
 20
95264.42313926361
 30
0.0
 11
104449.6742704504
 21
95264.41932239732
 31
0.0
  0
LINE
  5
5F7EB
330
1F
100
AcDbEntity
  8
freecads.com
100
AcDbLine
 10
104449.6742704504
 20
95264.41932239732
 30
0.0
 11
104449.6676148772
 21
95264.41401085179
 31
0.0
  0
LINE
  5
5F7EC
330
1F
100
AcDbEntity
  8
freecads.com
100
AcDbLine
 10
104449.6676148772
 20
95264.41401085179
 30
0.0
 11
104449.6629651227
 21
95264.40722184434
 31
0.0
  0
LINE
  5
5F7ED
330
1F
100
AcDbEntity
  8
freecads.com
100
AcDbLine
 10
104449.6629651227
 20
95264.40722184434
 30
0.0
 11
104449.656535527
 21
95264.3939117741
 31
0.0
  0
LINE
  5
5F7EE
330
1F
100
AcDbEntity
  8
freecads.com
100
AcDbLine
 10
104449.656535527
 20
95264.3939117741
 30
0.0
 11
104449.6487554471
 21
95264.38355662769
 31
0.0
  0
LINE
  5
5F7EF
330
1F
100
AcDbEntity
  8
freecads.com
100
AcDbLine
 10
104449.6487554471
 20
95264.38355662769
 30
0.0
 11
104449.6397949042
 21
95264.37607031846
 31
0.0
  0
LINE
  5
5F7F0
330
1F
100
AcDbEntity
  8
freecads.com
100
AcDbLine
 10
104449.6397949042
 20
95264.37607031846
 30
0.0
 11
104449.6317479558
 21
95264.36956432084
 31
0.0
  0
LINE
  5
5F7F1
330
1F
100
AcDbEntity
  8
freecads.com
100
AcDbLine
 10
104449.6317479558
 20
95264.36956432084
 30
0.0
 11
104449.624241201
 21
95264.36281190019
 31
0.0
  0
LINE
  5
5F7F2
330
1F
100
AcDbEntity
  8
freecads.com
100
AcDbLine
 10
104449.624241201
 20
95264.36281190019
 30
0.0
 11
104449.6172671072
 21
95264.35581736091
 31
0.0
  0
LINE
  5
5F7F3
330
1F
100
AcDbEntity
  8
freecads.com
100
AcDbLine
 10
104449.6172671072
 20
95264.35581736091
 30
0.0
 11
104449.6108202942
 21
95264.34858608334
 31
0.0
  0
LINE
  5
5F7F4
330
1F
100
AcDbEntity
  8
freecads.com
100
AcDbLine
 10
104449.6108202942
 20
95264.34858608334
 30
0.0
 11
104449.6048921531
 21
95264.34112237188
 31
0.0
  0
LINE
  5
5F7F5
330
1F
100
AcDbEntity
  8
freecads.com
100
AcDbLine
 10
104449.6048921531
 20
95264.34112237188
 30
0.0
 11
104449.5994783797
 21
95264.33343053081
 31
0.0
  0
LINE
  5
5F7F6
330
1F
100
AcDbEntity
  8
freecads.com
100
AcDbLine
 10
104449.5994783797
 20
95264.33343053081
 30
0.0
 11
104449.5945692892
 21
95264.32551486449
 31
0.0
  0
LINE
  5
5F7F7
330
1F
100
AcDbEntity
  8
freecads.com
100
AcDbLine
 10
104449.5945692892
 20
95264.32551486449
 30
0.0
 11
104449.5901605772
 21
95264.31738075332
 31
0.0
  0
LINE
  5
5F7F8
330
1F
100
AcDbEntity
  8
freecads.com
100
AcDbLine
 10
104449.5901605772
 20
95264.31738075332
 30
0.0
 11
104449.5862447113
 21
95264.30903250165
 31
0.0
  0
LINE
  5
5F7F9
330
1F
100
AcDbEntity
  8
freecads.com
100
AcDbLine
 10
104449.5862447113
 20
95264.30903250165
 30
0.0
 11
104449.5828141588
 21
95264.30047333771
 31
0.0
  0
LINE
  5
5F7FA
330
1F
100
AcDbEntity
  8
freecads.com
100
AcDbLine
 10
104449.5828141588
 20
95264.30047333771
 30
0.0
 11
104449.5773724072
 21
95264.28770776545
 31
0.0
  0
LINE
  5
5F7FB
330
1F
100
AcDbEntity
  8
freecads.com
100
AcDbLine
 10
104449.5773724072
 20
95264.28770776545
 30
0.0
 11
104449.5730992818
 21
95264.27610974321
 31
0.0
  0
LINE
  5
5F7FC
330
1F
100
AcDbEntity
  8
freecads.com
100
AcDbLine
 10
104449.5730992818
 20
95264.27610974321
 30
0.0
 11
104449.5700044671
 21
95264.26568895574
 31
0.0
  0
LINE
  5
5F7FD
330
1F
100
AcDbEntity
  8
freecads.com
100
AcDbLine
 10
104449.5700044671
 20
95264.26568895574
 30
0.0
 11
104449.5680911916
 21
95264.25644970736
 31
0.0
  0
LINE
  5
5F7FE
330
1F
100
AcDbEntity
  8
freecads.com
100
AcDbLine
 10
104449.5680911916
 20
95264.25644970736
 30
0.0
 11
104449.5673669878
 21
95264.24840060675
 31
0.0
  0
LINE
  5
5F7FF
330
1F
100
AcDbEntity
  8
freecads.com
100
AcDbLine
 10
104449.5673669878
 20
95264.24840060675
 30
0.0
 11
104449.5678404643
 21
95264.24154703432
 31
0.0
  0
LINE
  5
5F800
330
1F
100
AcDbEntity
  8
freecads.com
100
AcDbLine
 10
104449.5678404643
 20
95264.24154703432
 30
0.0
 11
104449.5695148494
 21
95264.23589652264
 31
0.0
  0
LINE
  5
5F801
330
1F
100
AcDbEntity
  8
freecads.com
100
AcDbLine
 10
104449.5695148494
 20
95264.23589652264
 30
0.0
 11
104449.5723438715
 21
95264.22894610275
 31
0.0
  0
LINE
  5
5F802
330
1F
100
AcDbEntity
  8
freecads.com
100
AcDbLine
 10
104449.5723438715
 20
95264.22894610275
 30
0.0
 11
104449.5762769548
 21
95264.22279090818
 31
0.0
  0
LINE
  5
5F803
330
1F
100
AcDbEntity
  8
freecads.com
100
AcDbLine
 10
104449.5762769548
 20
95264.22279090818
 30
0.0
 11
104449.5813194796
 21
95264.21743631932
 31
0.0
  0
LINE
  5
5F804
330
1F
100
AcDbEntity
  8
freecads.com
100
AcDbLine
 10
104449.5813194796
 20
95264.21743631932
 30
0.0
 11
104449.5874789785
 21
95264.21288771659
 31
0.0
  0
LINE
  5
5F805
330
1F
100
AcDbEntity
  8
freecads.com
100
AcDbLine
 10
104449.5874789785
 20
95264.21288771659
 30
0.0
 11
104449.5947597559
 21
95264.20915263262
 31
0.0
  0
LINE
  5
5F806
330
1F
100
AcDbEntity
  8
freecads.com
100
AcDbLine
 10
104449.5947597559
 20
95264.20915263262
 30
0.0
 11
104449.6031704204
 21
95264.20623644778
 31
0.0
  0
LINE
  5
5F807
330
1F
100
AcDbEntity
  8
freecads.com
100
AcDbLine
 10
104449.6031704204
 20
95264.20623644778
 30
0.0
 11
104449.6127152763
 21
95264.20414561856
 31
0.0
  0
LINE
  5
5F808
330
1F
100
AcDbEntity
  8
freecads.com
100
AcDbLine
 10
104449.6127152763
 20
95264.20414561856
 30
0.0
 11
104449.6234018563
 21
95264.20288660149
 31
0.0
  0
LINE
  5
5F809
330
1F
100
AcDbEntity
  8
freecads.com
100
AcDbLine
 10
104449.6234018563
 20
95264.20288660149
 30
0.0
 11
104449.6352366167
 21
95264.20246585304
 31
0.0
  0
LINE
  5
5F80A
330
1F
100
AcDbEntity
  8
freecads.com
100
AcDbLine
 10
104449.6352366167
 20
95264.20246585304
 30
0.0
 11
104449.6481636014
 21
95264.20138008534
 31
0.0
  0
LINE
  5
5F80B
330
1F
100
AcDbEntity
  8
freecads.com
100
AcDbLine
 10
104449.6481636014
 20
95264.20138008534
 30
0.0
 11
104449.6590255829
 21
95264.19926127795
 31
0.0
  0
LINE
  5
5F80C
330
1F
100
AcDbEntity
  8
freecads.com
100
AcDbLine
 10
104449.6590255829
 20
95264.19926127795
 30
0.0
 11
104449.6678225612
 21
95264.19611050704
 31
0.0
  0
LINE
  5
5F80D
330
1F
100
AcDbEntity
  8
freecads.com
100
AcDbLine
 10
104449.6678225612
 20
95264.19611050704
 30
0.0
 11
104449.6745534602
 21
95264.19192562038
 31
0.0
  0
LINE
  5
5F80E
330
1F
100
AcDbEntity
  8
freecads.com
100
AcDbLine
 10
104449.6745534602
 20
95264.19192562038
 30
0.0
 11
104449.6792193559
 21
95264.18670877012
 31
0.0
  0
LINE
  5
5F80F
330
1F
100
AcDbEntity
  8
freecads.com
100
AcDbLine
 10
104449.6792193559
 20
95264.18670877012
 30
0.0
 11
104449.6818191724
 21
95264.18045780417
 31
0.0
  0
LINE
  5
5F810
330
1F
100
AcDbEntity
  8
freecads.com
100
AcDbLine
 10
104449.6818191724
 20
95264.18045780417
 30
0.0
 11
104449.6823529095
 21
95264.17317379854
 31
0.0
  0
LINE
  5
5F811
330
1F
100
AcDbEntity
  8
freecads.com
100
AcDbLine
 10
104449.6823529095
 20
95264.17317379854
 30
0.0
 11
104449.6808216435
 21
95264.16485782934
 31
0.0
  0
LINE
  5
5F812
330
1F
100
AcDbEntity
  8
freecads.com
100
AcDbLine
 10
104449.6808216435
 20
95264.16485782934
 30
0.0
 11
104449.6761084001
 21
95264.15406686934
 31
0.0
  0
LINE
  5
5F813
330
1F
100
AcDbEntity
  8
freecads.com
100
AcDbLine
 10
104449.6761084001
 20
95264.15406686934
 30
0.0
 11
104449.6694528269
 21
95264.1489328775
 31
0.0
  0
LINE
  5
5F814
330
1F
100
AcDbEntity
  8
freecads.com
100
AcDbLine
 10
104449.6694528269
 20
95264.1489328775
 30
0.0
 11
104449.660685979
 21
95264.14928368055
 31
0.0
  0
LINE
  5
5F815
330
1F
100
AcDbEntity
  8
freecads.com
100
AcDbLine
 10
104449.660685979
 20
95264.14928368055
 30
0.0
 11
104449.6550021087
 21
95264.1471444276
 31
0.0
  0
LINE
  5
5F816
330
1F
100
AcDbEntity
  8
freecads.com
100
AcDbLine
 10
104449.6550021087
 20
95264.1471444276
 30
0.0
 11
104449.6539604604
 21
95264.13926642419
 31
0.0
  0
LINE
  5
5F817
330
1F
100
AcDbEntity
  8
freecads.com
100
AcDbLine
 10
104449.6539604604
 20
95264.13926642419
 30
0.0
 11
104449.6576481967
 21
95264.12573252869
 31
0.0
  0
LINE
  5
5F818
330
1F
100
AcDbEntity
  8
freecads.com
100
AcDbLine
 10
104449.6576481967
 20
95264.12573252869
 30
0.0
 11
104449.6613520743
 21
95264.11155298339
 31
0.0
  0
LINE
  5
5F819
330
1F
100
AcDbEntity
  8
freecads.com
100
AcDbLine
 10
104449.6613520743
 20
95264.11155298339
 30
0.0
 11
104449.6616372363
 21
95264.10146793381
 31
0.0
  0
LINE
  5
5F81A
330
1F
100
AcDbEntity
  8
freecads.com
100
AcDbLine
 10
104449.6616372363
 20
95264.10146793381
 30
0.0
 11
104449.6585026066
 21
95264.09544294526
 31
0.0
  0
LINE
  5
5F81B
330
1F
100
AcDbEntity
  8
freecads.com
100
AcDbLine
 10
104449.6585026066
 20
95264.09544294526
 30
0.0
 11
104449.6519503374
 21
95264.09344250703
 31
0.0
  0
LINE
  5
5F81C
330
1F
100
AcDbEntity
  8
freecads.com
100
AcDbLine
 10
104449.6519503374
 20
95264.09344250703
 30
0.0
 11
104449.6395678507
 21
95264.09382128823
 31
0.0
  0
LINE
  5
5F81D
330
1F
100
AcDbEntity
  8
freecads.com
100
AcDbLine
 10
104449.6395678507
 20
95264.09382128823
 30
0.0
 11
104449.6306471229
 21
95264.09344250703
 31
0.0
  0
LINE
  5
5F81E
330
1F
100
AcDbEntity
  8
freecads.com
100
AcDbLine
 10
104449.6306471229
 20
95264.09344250703
 30
0.0
 11
104449.625357099
 21
95264.09230293515
 31
0.0
  0
LINE
  5
5F81F
330
1F
100
AcDbEntity
  8
freecads.com
100
AcDbLine
 10
104449.625357099
 20
95264.09230293515
 30
0.0
 11
104449.6218124817
 21
95264.08822135246
 31
0.0
  0
LINE
  5
5F820
330
1F
100
AcDbEntity
  8
freecads.com
100
AcDbLine
 10
104449.6218124817
 20
95264.08822135246
 30
0.0
 11
104449.6202930526
 21
95264.08346614182
 31
0.0
  0
LINE
  5
5F821
330
1F
100
AcDbEntity
  8
freecads.com
100
AcDbLine
 10
104449.6202930526
 20
95264.08346614182
 30
0.0
 11
104449.6207988115
 21
95264.07786835822
 31
0.0
  0
LINE
  5
5F822
330
1F
100
AcDbEntity
  8
freecads.com
100
AcDbLine
 10
104449.6207988115
 20
95264.07786835822
 30
0.0
 11
104449.6219383834
 21
95264.07277418144
 31
0.0
  0
LINE
  5
5F823
330
1F
100
AcDbEntity
  8
freecads.com
100
AcDbLine
 10
104449.6219383834
 20
95264.07277418144
 30
0.0
 11
104449.6207988115
 21
95264.06953839995
 31
0.0
  0
LINE
  5
5F824
330
1F
100
AcDbEntity
  8
freecads.com
100
AcDbLine
 10
104449.6207988115
 20
95264.06953839995
 30
0.0
 11
104449.6173800959
 21
95264.06798884046
 31
0.0
  0
LINE
  5
5F825
330
1F
100
AcDbEntity
  8
freecads.com
100
AcDbLine
 10
104449.6173800959
 20
95264.06798884046
 30
0.0
 11
104449.6076576863
 21
95264.06609063013
 31
0.0
  0
LINE
  5
5F826
330
1F
100
AcDbEntity
  8
freecads.com
100
AcDbLine
 10
104449.6076576863
 20
95264.06609063013
 30
0.0
 11
104449.599118968
 21
95264.06647048741
 31
0.0
  0
LINE
  5
5F827
330
1F
100
AcDbEntity
  8
freecads.com
100
AcDbLine
 10
104449.599118968
 20
95264.06647048741
 30
0.0
 11
104449.5919307337
 21
95264.06912841233
 31
0.0
  0
LINE
  5
5F828
330
1F
100
AcDbEntity
  8
freecads.com
100
AcDbLine
 10
104449.5919307337
 20
95264.06912841233
 30
0.0
 11
104449.5831638858
 21
95264.07098573153
 31
0.0
  0
LINE
  5
5F829
330
1F
100
AcDbEntity
  8
freecads.com
100
AcDbLine
 10
104449.5831638858
 20
95264.07098573153
 30
0.0
 11
104449.5780277418
 21
95264.06955023686
 31
0.0
  0
LINE
  5
5F82A
330
1F
100
AcDbEntity
  8
freecads.com
100
AcDbLine
 10
104449.5780277418
 20
95264.06955023686
 30
0.0
 11
104449.5763533567
 21
95264.06457012489
 31
0.0
  0
LINE
  5
5F82B
330
1F
100
AcDbEntity
  8
freecads.com
100
AcDbLine
 10
104449.5763533567
 20
95264.06457012489
 30
0.0
 11
104449.5746101023
 21
95264.05931561173
 31
0.0
  0
LINE
  5
5F82C
330
1F
100
AcDbEntity
  8
freecads.com
100
AcDbLine
 10
104449.5746101023
 20
95264.05931561173
 30
0.0
 11
104449.5706802472
 21
95264.05495101922
 31
0.0
  0
LINE
  5
5F82D
330
1F
100
AcDbEntity
  8
freecads.com
100
AcDbLine
 10
104449.5706802472
 20
95264.05495101922
 30
0.0
 11
104449.5645637917
 21
95264.05148280382
 31
0.0
  0
LINE
  5
5F82E
330
1F
100
AcDbEntity
  8
freecads.com
100
AcDbLine
 10
104449.5645637917
 20
95264.05148280382
 30
0.0
 11
104449.5562607355
 21
95264.04891957419
 31
0.0
  0
LINE
  5
5F82F
330
1F
100
AcDbEntity
  8
freecads.com
100
AcDbLine
 10
104449.5562607355
 20
95264.04891957419
 30
0.0
 11
104449.5457710787
 21
95264.04726563466
 31
0.0
  0
LINE
  5
5F830
330
1F
100
AcDbEntity
  8
freecads.com
100
AcDbLine
 10
104449.5457710787
 20
95264.04726563466
 30
0.0
 11
104449.5330948213
 21
95264.0465295939
 31
0.0
  0
LINE
  5
5F831
330
1F
100
AcDbEntity
  8
freecads.com
100
AcDbLine
 10
104449.5330948213
 20
95264.0465295939
 30
0.0
 11
104449.5182319634
 21
95264.04671683234
 31
0.0
  0
LINE
  5
5F832
330
1F
100
AcDbEntity
  8
freecads.com
100
AcDbLine
 10
104449.5182319634
 20
95264.04671683234
 30
0.0
 11
104449.508876498
 21
95264.04495851277
 31
0.0
  0
LINE
  5
5F833
330
1F
100
AcDbEntity
  8
freecads.com
100
AcDbLine
 10
104449.508876498
 20
95264.04495851277
 30
0.0
 11
104449.5028967049
 21
95264.03973951037
 31
0.0
  0
LINE
  5
5F834
330
1F
100
AcDbEntity
  8
freecads.com
100
AcDbLine
 10
104449.5028967049
 20
95264.03973951037
 30
0.0
 11
104449.5003786708
 21
95264.03114375961
 31
0.0
  0
LINE
  5
5F835
330
1F
100
AcDbEntity
  8
freecads.com
100
AcDbLine
 10
104449.5003786708
 20
95264.03114375961
 30
0.0
 11
104449.4982404939
 21
95264.02381133026
 31
0.0
  0
LINE
  5
5F836
330
1F
100
AcDbEntity
  8
freecads.com
100
AcDbLine
 10
104449.4982404939
 20
95264.02381133026
 30
0.0
 11
104449.4941610634
 21
95264.01935096636
 31
0.0
  0
LINE
  5
5F837
330
1F
100
AcDbEntity
  8
freecads.com
100
AcDbLine
 10
104449.4941610634
 20
95264.01935096636
 30
0.0
 11
104449.4882243137
 21
95264.01784552628
 31
0.0
  0
LINE
  5
5F838
330
1F
100
AcDbEntity
  8
freecads.com
100
AcDbLine
 10
104449.4882243137
 20
95264.01784552628
 30
0.0
 11
104449.4808983408
 21
95264.01927564055
 31
0.0
  0
LINE
  5
5F839
330
1F
100
AcDbEntity
  8
freecads.com
100
AcDbLine
 10
104449.4808983408
 20
95264.01927564055
 30
0.0
 11
104449.4732172606
 21
95264.02359180933
 31
0.0
  0
LINE
  5
5F83A
330
1F
100
AcDbEntity
  8
freecads.com
100
AcDbLine
 10
104449.4732172606
 20
95264.02359180933
 30
0.0
 11
104449.4652520944
 21
95264.0308284673
 31
0.0
  0
LINE
  5
5F83B
330
1F
100
AcDbEntity
  8
freecads.com
100
AcDbLine
 10
104449.4652520944
 20
95264.0308284673
 30
0.0
 11
104449.4570727878
 21
95264.04101897302
 31
0.0
  0
LINE
  5
5F83C
330
1F
100
AcDbEntity
  8
freecads.com
100
AcDbLine
 10
104449.4570727878
 20
95264.04101897302
 30
0.0
 11
104449.4484458306
 21
95264.02941341819
 31
0.0
  0
LINE
  5
5F83D
330
1F
100
AcDbEntity
  8
freecads.com
100
AcDbLine
 10
104449.4484458306
 20
95264.02941341819
 30
0.0
 11
104449.440150307
 21
95264.01999338787
 31
0.0
  0
LINE
  5
5F83E
330
1F
100
AcDbEntity
  8
freecads.com
100
AcDbLine
 10
104449.440150307
 20
95264.01999338787
 30
0.0
 11
104449.4321948256
 21
95264.01275995816
 31
0.0
  0
LINE
  5
5F83F
330
1F
100
AcDbEntity
  8
freecads.com
100
AcDbLine
 10
104449.4321948256
 20
95264.01275995816
 30
0.0
 11
104449.4245836908
 21
95264.00771312903
 31
0.0
  0
LINE
  5
5F840
330
1F
100
AcDbEntity
  8
freecads.com
100
AcDbLine
 10
104449.4245836908
 20
95264.00771312903
 30
0.0
 11
104449.4173255111
 21
95264.0048529005
 31
0.0
  0
LINE
  5
5F841
330
1F
100
AcDbEntity
  8
freecads.com
100
AcDbLine
 10
104449.4173255111
 20
95264.0048529005
 30
0.0
 11
104449.4104256671
 21
95264.00417819647
 31
0.0
  0
LINE
  5
5F842
330
1F
100
AcDbEntity
  8
freecads.com
100
AcDbLine
 10
104449.4104256671
 20
95264.00417819647
 30
0.0
 11
104449.4038916914
 21
95264.00569009306
 31
0.0
  0
LINE
  5
5F843
330
1F
100
AcDbEntity
  8
freecads.com
100
AcDbLine
 10
104449.4038916914
 20
95264.00569009306
 30
0.0
 11
104449.4038916914
 21
95264.00569009306
 31
0.0
  0
LINE
  5
5F844
330
1F
100
AcDbEntity
  8
freecads.com
100
AcDbLine
 10
104449.4038916914
 20
95264.00569009306
 30
0.0
 11
104449.3976816165
 21
95264.00957367648
 31
0.0
  0
LINE
  5
5F845
330
1F
100
AcDbEntity
  8
freecads.com
100
AcDbLine
 10
104449.3976816165
 20
95264.00957367648
 30
0.0
 11
104449.39240881
 21
95264.01503156932
 31
0.0
  0
LINE
  5
5F846
330
1F
100
AcDbEntity
  8
freecads.com
100
AcDbLine
 10
104449.39240881
 20
95264.01503156932
 30
0.0
 11
104449.3880808043
 21
95264.02205731502
 31
0.0
  0
LINE
  5
5F847
330
1F
100
AcDbEntity
  8
freecads.com
100
AcDbLine
 10
104449.3880808043
 20
95264.02205731502
 30
0.0
 11
104449.3847019038
 21
95264.03064553319
 31
0.0
  0
LINE
  5
5F848
330
1F
100
AcDbEntity
  8
freecads.com
100
AcDbLine
 10
104449.3847019038
 20
95264.03064553319
 30
0.0
 11
104449.3822807171
 21
95264.04078761517
 31
0.0
  0
LINE
  5
5F849
330
1F
100
AcDbEntity
  8
freecads.com
100
AcDbLine
 10
104449.3822807171
 20
95264.04078761517
 30
0.0
 11
104449.3808237008
 21
95264.05247818056
 31
0.0
  0
LINE
  5
5F84A
330
1F
100
AcDbEntity
  8
freecads.com
100
AcDbLine
 10
104449.3808237008
 20
95264.05247818056
 30
0.0
 11
104449.3803362352
 21
95264.06570969674
 31
0.0
  0
LINE
  5
5F84B
330
1F
100
AcDbEntity
  8
freecads.com
100
AcDbLine
 10
104449.3803362352
 20
95264.06570969674
 30
0.0
 11
104449.3746114738
 21
95264.05884536348
 31
0.0
  0
LINE
  5
5F84C
330
1F
100
AcDbEntity
  8
freecads.com
100
AcDbLine
 10
104449.3746114738
 20
95264.05884536348
 30
0.0
 11
104449.3694764058
 21
95264.05029157995
 31
0.0
  0
LINE
  5
5F84D
330
1F
100
AcDbEntity
  8
freecads.com
100
AcDbLine
 10
104449.3694764058
 20
95264.05029157995
 30
0.0
 11
104449.3647631624
 21
95264.03987940115
 31
0.0
  0
LINE
  5
5F84E
330
1F
100
AcDbEntity
  8
freecads.com
100
AcDbLine
 10
104449.3647631624
 20
95264.03987940115
 30
0.0
 11
104449.3590362489
 21
95264.02948121141
 31
0.0
  0
LINE
  5
5F84F
330
1F
100
AcDbEntity
  8
freecads.com
100
AcDbLine
 10
104449.3590362489
 20
95264.02948121141
 30
0.0
 11
104449.353902257
 21
95264.02330449517
 31
0.0
  0
LINE
  5
5F850
330
1F
100
AcDbEntity
  8
freecads.com
100
AcDbLine
 10
104449.353902257
 20
95264.02330449517
 30
0.0
 11
104449.3491890136
 21
95264.02126424187
 31
0.0
  0
LINE
  5
5F851
330
1F
100
AcDbEntity
  8
freecads.com
100
AcDbLine
 10
104449.3491890136
 20
95264.02126424187
 30
0.0
 11
104449.3391405509
 21
95264.02574074701
 31
0.0
  0
LINE
  5
5F852
330
1F
100
AcDbEntity
  8
freecads.com
100
AcDbLine
 10
104449.3391405509
 20
95264.02574074701
 30
0.0
 11
104449.3311926021
 21
95264.03171193141
 31
0.0
  0
LINE
  5
5F853
330
1F
100
AcDbEntity
  8
freecads.com
100
AcDbLine
 10
104449.3311926021
 20
95264.03171193141
 30
0.0
 11
104449.3253096565
 21
95264.03910784965
 31
0.0
  0
LINE
  5
5F854
330
1F
100
AcDbEntity
  8
freecads.com
100
AcDbLine
 10
104449.3253096565
 20
95264.03910784965
 30
0.0
 11
104449.3214572794
 21
95264.04785640419
 31
0.0
  0
LINE
  5
5F855
330
1F
100
AcDbEntity
  8
freecads.com
100
AcDbLine
 10
104449.3214572794
 20
95264.04785640419
 30
0.0
 11
104449.3190834404
 21
95264.05199932364
 31
0.0
  0
LINE
  5
5F856
330
1F
100
AcDbEntity
  8
freecads.com
100
AcDbLine
 10
104449.3190834404
 20
95264.05199932364
 30
0.0
 11
104449.3146854893
 21
95264.05209401893
 31
0.0
  0
LINE
  5
5F857
330
1F
100
AcDbEntity
  8
freecads.com
100
AcDbLine
 10
104449.3146854893
 20
95264.05209401893
 30
0.0
 11
104449.3082451327
 21
95264.0481039033
 31
0.0
  0
LINE
  5
5F858
330
1F
100
AcDbEntity
  8
freecads.com
100
AcDbLine
 10
104449.3082451327
 20
95264.0481039033
 30
0.0
 11
104449.2997451534
 21
95264.03999346594
 31
0.0
  0
LINE
  5
5F859
330
1F
100
AcDbEntity
  8
freecads.com
100
AcDbLine
 10
104449.2997451534
 20
95264.03999346594
 30
0.0
 11
104449.2891661817
 21
95264.027725044
 31
0.0
  0
LINE
  5
5F85A
330
1F
100
AcDbEntity
  8
freecads.com
100
AcDbLine
 10
104449.2891661817
 20
95264.027725044
 30
0.0
 11
104449.2843690038
 21
95264.02536088973
 31
0.0
  0
LINE
  5
5F85B
330
1F
100
AcDbEntity
  8
freecads.com
100
AcDbLine
 10
104449.2843690038
 20
95264.02536088973
 30
0.0
 11
104449.2806683545
 21
95264.02831581357
 31
0.0
  0
LINE
  5
5F85C
330
1F
100
AcDbEntity
  8
freecads.com
100
AcDbLine
 10
104449.2806683545
 20
95264.02831581357
 30
0.0
 11
104449.2781503203
 21
95264.03684161893
 31
0.0
  0
LINE
  5
5F85D
330
1F
100
AcDbEntity
  8
freecads.com
100
AcDbLine
 10
104449.2781503203
 20
95264.03684161893
 30
0.0
 11
104449.2757441988
 21
95264.04607010647
 31
0.0
  0
LINE
  5
5F85E
330
1F
100
AcDbEntity
  8
freecads.com
100
AcDbLine
 10
104449.2757441988
 20
95264.04607010647
 30
0.0
 11
104449.2730851978
 21
95264.05167004224
 31
0.0
  0
LINE
  5
5F85F
330
1F
100
AcDbEntity
  8
freecads.com
100
AcDbLine
 10
104449.2730851978
 20
95264.05167004224
 30
0.0
 11
104449.2701733173
 21
95264.0535553396
 31
0.0
  0
LINE
  5
5F860
330
1F
100
AcDbEntity
  8
freecads.com
100
AcDbLine
 10
104449.2701733173
 20
95264.0535553396
 30
0.0
 11
104449.2584149587
 21
95264.05781555208
 31
0.0
  0
LINE
  5
5F861
330
1F
100
AcDbEntity
  8
freecads.com
100
AcDbLine
 10
104449.2584149587
 20
95264.05781555208
 30
0.0
 11
104449.2487581901
 21
95264.06428603898
 31
0.0
  0
LINE
  5
5F862
330
1F
100
AcDbEntity
  8
freecads.com
100
AcDbLine
 10
104449.2487581901
 20
95264.06428603898
 30
0.0
 11
104449.2411653487
 21
95264.07289255057
 31
0.0
  0
LINE
  5
5F863
330
1F
100
AcDbEntity
  8
freecads.com
100
AcDbLine
 10
104449.2411653487
 20
95264.07289255057
 30
0.0
 11
104449.2356030758
 21
95264.08356621754
 31
0.0
  0
LINE
  5
5F864
330
1F
100
AcDbEntity
  8
freecads.com
100
AcDbLine
 10
104449.2356030758
 20
95264.08356621754
 30
0.0
 11
104449.2336758112
 21
95264.08293240466
 31
0.0
  0
LINE
  5
5F865
330
1F
100
AcDbEntity
  8
freecads.com
100
AcDbLine
 10
104449.2336758112
 20
95264.08293240466
 30
0.0
 11
104449.2277810287
 21
95264.08255254738
 31
0.0
  0
LINE
  5
5F866
330
1F
100
AcDbEntity
  8
freecads.com
100
AcDbLine
 10
104449.2277810287
 20
95264.08255254738
 30
0.0
 11
104449.2177508594
 21
95264.08242664567
 31
0.0
  0
LINE
  5
5F867
330
1F
100
AcDbEntity
  8
freecads.com
100
AcDbLine
 10
104449.2177508594
 20
95264.08242664567
 30
0.0
 11
104449.2067199328
 21
95264.08435498636
 31
0.0
  0
LINE
  5
5F868
330
1F
100
AcDbEntity
  8
freecads.com
100
AcDbLine
 10
104449.2067199328
 20
95264.08435498636
 30
0.0
 11
104449.2001622832
 21
95264.09024976885
 31
0.0
  0
LINE
  5
5F869
330
1F
100
AcDbEntity
  8
freecads.com
100
AcDbLine
 10
104449.2001622832
 20
95264.09024976885
 30
0.0
 11
104449.1979950521
 21
95264.1002799382
 31
0.0
  0
LINE
  5
5F86A
330
1F
100
AcDbEntity
  8
freecads.com
100
AcDbLine
 10
104449.1979950521
 20
95264.1002799382
 30
0.0
 11
104449.1965057533
 21
95264.11330377039
 31
0.0
  0
LINE
  5
5F86B
330
1F
100
AcDbEntity
  8
freecads.com
100
AcDbLine
 10
104449.1965057533
 20
95264.11330377039
 30
0.0
 11
104449.1920604546
 21
95264.12269367037
 31
0.0
  0
LINE
  5
5F86C
330
1F
100
AcDbEntity
  8
freecads.com
100
AcDbLine
 10
104449.1920604546
 20
95264.12269367037
 30
0.0
 11
104449.1846946666
 21
95264.12838076888
 31
0.0
  0
LINE
  5
5F86D
330
1F
100
AcDbEntity
  8
freecads.com
100
AcDbLine
 10
104449.1846946666
 20
95264.12838076888
 30
0.0
 11
104449.1744439003
 21
95264.13029189221
 31
0.0
  0
LINE
  5
5F86E
330
1F
100
AcDbEntity
  8
freecads.com
100
AcDbLine
 10
104449.1744439003
 20
95264.13029189221
 30
0.0
 11
104449.1668327654
 21
95264.13157027878
 31
0.0
  0
LINE
  5
5F86F
330
1F
100
AcDbEntity
  8
freecads.com
100
AcDbLine
 10
104449.1668327654
 20
95264.13157027878
 30
0.0
 11
104449.1626844656
 21
95264.13542050365
 31
0.0
  0
LINE
  5
5F870
330
1F
100
AcDbEntity
  8
freecads.com
100
AcDbLine
 10
104449.1626844656
 20
95264.13542050365
 30
0.0
 11
104449.1620011529
 21
95264.14185978413
 31
0.0
  0
LINE
  5
5F871
330
1F
100
AcDbEntity
  8
freecads.com
100
AcDbLine
 10
104449.1620011529
 20
95264.14185978413
 30
0.0
 11
104449.1647806752
 21
95264.15090533758
 31
0.0
  0
LINE
  5
5F872
330
1F
100
AcDbEntity
  8
freecads.com
100
AcDbLine
 10
104449.1647806752
 20
95264.15090533758
 30
0.0
 11
104449.1710251847
 21
95264.16257868563
 31
0.0
  0
LINE
  5
5F873
330
1F
100
AcDbEntity
  8
freecads.com
100
AcDbLine
 10
104449.1710251847
 20
95264.16257868563
 30
0.0
 11
104449.1749098442
 21
95264.16900935746
 31
0.0
  0
LINE
  5
5F874
330
1F
100
AcDbEntity
  8
freecads.com
100
AcDbLine
 10
104449.1749098442
 20
95264.16900935746
 30
0.0
 11
104449.1792356977
 21
95264.17527969291
 31
0.0
  0
LINE
  5
5F875
330
1F
100
AcDbEntity
  8
freecads.com
100
AcDbLine
 10
104449.1792356977
 20
95264.17527969291
 30
0.0
 11
104449.1840027453
 21
95264.18138753985
 31
0.0
  0
LINE
  5
5F876
330
1F
100
AcDbEntity
  8
freecads.com
100
AcDbLine
 10
104449.1840027453
 20
95264.18138753985
 30
0.0
 11
104449.189213139
 21
95264.18733505042
 31
0.0
  0
LINE
  5
5F877
330
1F
100
AcDbEntity
  8
freecads.com
100
AcDbLine
 10
104449.189213139
 20
95264.18733505042
 30
0.0
 11
104449.1948647268
 21
95264.19312330071
 31
0.0
  0
LINE
  5
5F878
330
1F
100
AcDbEntity
  8
freecads.com
100
AcDbLine
 10
104449.1948647268
 20
95264.19312330071
 30
0.0
 11
104449.2009575085
 21
95264.1987533668
 31
0.0
  0
LINE
  5
5F879
330
1F
100
AcDbEntity
  8
freecads.com
100
AcDbLine
 10
104449.2009575085
 20
95264.1987533668
 30
0.0
 11
104449.2074936365
 21
95264.20422417261
 31
0.0
  0
LINE
  5
5F87A
330
1F
100
AcDbEntity
  8
freecads.com
100
AcDbLine
 10
104449.2074936365
 20
95264.20422417261
 30
0.0
 11
104449.2144709585
 21
95264.20953894641
 31
0.0
  0
LINE
  5
5F87B
330
1F
100
AcDbEntity
  8
freecads.com
100
AcDbLine
 10
104449.2144709585
 20
95264.20953894641
 30
0.0
 11
104449.2218894744
 21
95264.21469768816
 31
0.0
  0
LINE
  5
5F87C
330
1F
100
AcDbEntity
  8
freecads.com
100
AcDbLine
 10
104449.2218894744
 20
95264.21469768816
 30
0.0
 11
104449.2297502605
 21
95264.21970039788
 31
0.0
  0
LINE
  5
5F87D
330
1F
100
AcDbEntity
  8
freecads.com
100
AcDbLine
 10
104449.2297502605
 20
95264.21970039788
 30
0.0
 11
104449.2380533167
 21
95264.22454922775
 31
0.0
  0
LINE
  5
5F87E
330
1F
100
AcDbEntity
  8
freecads.com
100
AcDbLine
 10
104449.2380533167
 20
95264.22454922775
 30
0.0
 11
104449.246798643
 21
95264.22924417774
 31
0.0
  0
LINE
  5
5F87F
330
1F
100
AcDbEntity
  8
freecads.com
100
AcDbLine
 10
104449.246798643
 20
95264.22924417774
 30
0.0
 11
104449.2559862394
 21
95264.23378524787
 31
0.0
  0
LINE
  5
5F880
330
1F
100
AcDbEntity
  8
freecads.com
100
AcDbLine
 10
104449.2559862394
 20
95264.23378524787
 30
0.0
 11
104449.2656150298
 21
95264.23817566637
 31
0.0
  0
LINE
  5
5F881
330
1F
100
AcDbEntity
  8
freecads.com
100
AcDbLine
 10
104449.2656150298
 20
95264.23817566637
 30
0.0
 11
104449.27459279
 21
95264.24192581552
 31
0.0
  0
LINE
  5
5F882
330
1F
100
AcDbEntity
  8
freecads.com
100
AcDbLine
 10
104449.27459279
 20
95264.24192581552
 30
0.0
 11
104449.2832939969
 21
95264.24585244228
 31
0.0
  0
LINE
  5
5F883
330
1F
100
AcDbEntity
  8
freecads.com
100
AcDbLine
 10
104449.2832939969
 20
95264.24585244228
 30
0.0
 11
104449.2917218788
 21
95264.24995662273
 31
0.0
  0
LINE
  5
5F884
330
1F
100
AcDbEntity
  8
freecads.com
100
AcDbLine
 10
104449.2917218788
 20
95264.24995662273
 30
0.0
 11
104449.2998775116
 21
95264.25424050902
 31
0.0
  0
LINE
  5
5F885
330
1F
100
AcDbEntity
  8
freecads.com
100
AcDbLine
 10
104449.2998775116
 20
95264.25424050902
 30
0.0
 11
104449.3077641236
 21
95264.25870517726
 31
0.0
  0
LINE
  5
5F886
330
1F
100
AcDbEntity
  8
freecads.com
100
AcDbLine
 10
104449.3077641236
 20
95264.25870517726
 30
0.0
 11
104449.3153838671
 21
95264.2633538557
 31
0.0
  0
LINE
  5
5F887
330
1F
100
AcDbEntity
  8
freecads.com
100
AcDbLine
 10
104449.3153838671
 20
95264.2633538557
 30
0.0
 11
104449.3227388942
 21
95264.26818546822
 31
0.0
  0
LINE
  5
5F888
330
1F
100
AcDbEntity
  8
freecads.com
100
AcDbLine
 10
104449.3227388942
 20
95264.26818546822
 30
0.0
 11
104449.3298324332
 21
95264.27320324311
 31
0.0
  0
LINE
  5
5F889
330
1F
100
AcDbEntity
  8
freecads.com
100
AcDbLine
 10
104449.3298324332
 20
95264.27320324311
 30
0.0
 11
104449.3366677122
 21
95264.27840933251
 31
0.0
  0
LINE
  5
5F88A
330
1F
100
AcDbEntity
  8
freecads.com
100
AcDbLine
 10
104449.3366677122
 20
95264.27840933251
 30
0.0
 11
104449.3432458074
 21
95264.28380481252
 31
0.0
  0
LINE
  5
5F88B
330
1F
100
AcDbEntity
  8
freecads.com
100
AcDbLine
 10
104449.3432458074
 20
95264.28380481252
 30
0.0
 11
104449.349569947
 21
95264.28939075922
 31
0.0
  0
LINE
  5
5F88C
330
1F
100
AcDbEntity
  8
freecads.com
100
AcDbLine
 10
104449.349569947
 20
95264.28939075922
 30
0.0
 11
104449.3556422832
 21
95264.29516932475
 31
0.0
  0
LINE
  5
5F88D
330
1F
100
AcDbEntity
  8
freecads.com
100
AcDbLine
 10
104449.3556422832
 20
95264.29516932475
 30
0.0
 11
104449.3614649681
 21
95264.30114266132
 31
0.0
  0
LINE
  5
5F88E
330
1F
100
AcDbEntity
  8
freecads.com
100
AcDbLine
 10
104449.3614649681
 20
95264.30114266132
 30
0.0
 11
104449.3670423062
 21
95264.30731184499
 31
0.0
  0
LINE
  5
5F88F
330
1F
100
AcDbEntity
  8
freecads.com
100
AcDbLine
 10
104449.3670423062
 20
95264.30731184499
 30
0.0
 11
104449.3670423062
 21
95264.30731184499
 31
0.0
  0
LINE
  5
5F890
330
1F
100
AcDbEntity
  8
freecads.com
100
AcDbLine
 10
104449.3670423062
 20
95264.30731184499
 30
0.0
 11
104449.3719029729
 21
95264.31491652331
 31
0.0
  0
LINE
  5
5F891
330
1F
100
AcDbEntity
  8
freecads.com
100
AcDbLine
 10
104449.3719029729
 20
95264.31491652331
 30
0.0
 11
104449.3750892546
 21
95264.32274717908
 31
0.0
  0
LINE
  5
5F892
330
1F
100
AcDbEntity
  8
freecads.com
100
AcDbLine
 10
104449.3750892546
 20
95264.32274717908
 30
0.0
 11
104449.3766011512
 21
95264.3307962797
 31
0.0
  0
LINE
  5
5F893
330
1F
100
AcDbEntity
  8
freecads.com
100
AcDbLine
 10
104449.3766011512
 20
95264.3307962797
 30
0.0
 11
104449.3764386626
 21
95264.33905844474
 31
0.0
  0
LINE
  5
5F894
330
1F
100
AcDbEntity
  8
freecads.com
100
AcDbLine
 10
104449.3764386626
 20
95264.33905844474
 30
0.0
 11
104449.3746007129
 21
95264.34752721771
 31
0.0
  0
LINE
  5
5F895
330
1F
100
AcDbEntity
  8
freecads.com
100
AcDbLine
 10
104449.3746007129
 20
95264.34752721771
 30
0.0
 11
104449.3710894542
 21
95264.35619506603
 31
0.0
  0
LINE
  5
5F896
330
1F
100
AcDbEntity
  8
freecads.com
100
AcDbLine
 10
104449.3710894542
 20
95264.35619506603
 30
0.0
 11
104449.3659027343
 21
95264.36505553318
 31
0.0
  0
LINE
  5
5F897
330
1F
100
AcDbEntity
  8
freecads.com
100
AcDbLine
 10
104449.3659027343
 20
95264.36505553318
 30
0.0
 11
104449.362254813
 21
95264.36181867563
 31
0.0
  0
LINE
  5
5F898
330
1F
100
AcDbEntity
  8
freecads.com
100
AcDbLine
 10
104449.362254813
 20
95264.36181867563
 30
0.0
 11
104449.355873641
 21
95264.36031431163
 31
0.0
  0
LINE
  5
5F899
330
1F
100
AcDbEntity
  8
freecads.com
100
AcDbLine
 10
104449.355873641
 20
95264.36031431163
 30
0.0
 11
104449.3467570661
 21
95264.36054136514
 31
0.0
  0
LINE
  5
5F89A
330
1F
100
AcDbEntity
  8
freecads.com
100
AcDbLine
 10
104449.3467570661
 20
95264.36054136514
 30
0.0
 11
104449.3349050883
 21
95264.3625019883
 31
0.0
  0
LINE
  5
5F89B
330
1F
100
AcDbEntity
  8
freecads.com
100
AcDbLine
 10
104449.3349050883
 20
95264.3625019883
 30
0.0
 11
104449.3203177076
 21
95264.36619510507
 31
0.0
  0
LINE
  5
5F89C
330
1F
100
AcDbEntity
  8
freecads.com
100
AcDbLine
 10
104449.3203177076
 20
95264.36619510507
 30
0.0
 11
104449.3061822817
 21
95264.37029175291
 31
0.0
  0
LINE
  5
5F89D
330
1F
100
AcDbEntity
  8
freecads.com
100
AcDbLine
 10
104449.3061822817
 20
95264.37029175291
 30
0.0
 11
104449.2952202245
 21
95264.37480699707
 31
0.0
  0
LINE
  5
5F89E
330
1F
100
AcDbEntity
  8
freecads.com
100
AcDbLine
 10
104449.2952202245
 20
95264.37480699707
 30
0.0
 11
104449.2874132425
 21
95264.37970532674
 31
0.0
  0
LINE
  5
5F89F
330
1F
100
AcDbEntity
  8
freecads.com
100
AcDbLine
 10
104449.2874132425
 20
95264.37970532674
 30
0.0
 11
104449.2827419664
 21
95264.38495015513
 31
0.0
  0
LINE
  5
5F8A0
330
1F
100
AcDbEntity
  8
freecads.com
100
AcDbLine
 10
104449.2827419664
 20
95264.38495015513
 30
0.0
 11
104449.2811881025
 21
95264.39050489543
 31
0.0
  0
LINE
  5
5F8A1
330
1F
100
AcDbEntity
  8
freecads.com
100
AcDbLine
 10
104449.2811881025
 20
95264.39050489543
 30
0.0
 11
104449.2796224018
 21
95264.39599614681
 31
0.0
  0
LINE
  5
5F8A2
330
1F
100
AcDbEntity
  8
freecads.com
100
AcDbLine
 10
104449.2796224018
 20
95264.39599614681
 30
0.0
 11
104449.2794792828
 21
95264.40451441958
 31
0.0
  0
LINE
  5
5F8A3
330
1F
100
AcDbEntity
  8
freecads.com
100
AcDbLine
 10
104449.2794792828
 20
95264.40451441958
 30
0.0
 11
104449.2807608976
 21
95264.41609414842
 31
0.0
  0
LINE
  5
5F8A4
330
1F
100
AcDbEntity
  8
freecads.com
100
AcDbLine
 10
104449.2807608976
 20
95264.41609414842
 30
0.0
 11
104449.2834672463
 21
95264.43077299621
 31
0.0
  0
LINE
  5
5F8A5
330
1F
100
AcDbEntity
  8
freecads.com
100
AcDbLine
 10
104449.2834672463
 20
95264.43077299621
 30
0.0
 11
104449.2872539823
 21
95264.44748779296
 31
0.0
  0
LINE
  5
5F8A6
330
1F
100
AcDbEntity
  8
freecads.com
100
AcDbLine
 10
104449.2872539823
 20
95264.44748779296
 30
0.0
 11
104449.2909546316
 21
95264.46040294077
 31
0.0
  0
LINE
  5
5F8A7
330
1F
100
AcDbEntity
  8
freecads.com
100
AcDbLine
 10
104449.2909546316
 20
95264.46040294077
 30
0.0
 11
104449.294487412
 21
95264.46952059176
 31
0.0
  0
LINE
  5
5F8A8
330
1F
100
AcDbEntity
  8
freecads.com
100
AcDbLine
 10
104449.294487412
 20
95264.46952059176
 30
0.0
 11
104449.2926989621
 21
95264.47179973549
 31
0.0
  0
LINE
  5
5F8A9
330
1F
100
AcDbEntity
  8
freecads.com
100
AcDbLine
 10
104449.2926989621
 20
95264.47179973549
 30
0.0
 11
104449.2842431021
 21
95264.47104002089
 31
0.0
  0
LINE
  5
5F8AA
330
1F
100
AcDbEntity
  8
freecads.com
100
AcDbLine
 10
104449.2842431021
 20
95264.47104002089
 30
0.0
 11
104449.2690337454
 21
95264.46724144802
 31
0.0
  0
LINE
  5
5F8AB
330
1F
100
AcDbEntity
  8
freecads.com
100
AcDbLine
 10
104449.2690337454
 20
95264.46724144802
 30
0.0
 11
104449.2578629281
 21
95264.46528728136
 31
0.0
  0
LINE
  5
5F8AC
330
1F
100
AcDbEntity
  8
freecads.com
100
AcDbLine
 10
104449.2578629281
 20
95264.46528728136
 30
0.0
 11
104449.248496702
 21
95264.46628588635
 31
0.0
  0
LINE
  5
5F8AD
330
1F
100
AcDbEntity
  8
freecads.com
100
AcDbLine
 10
104449.248496702
 20
95264.46628588635
 30
0.0
 11
104449.2409178496
 21
95264.470276002
 31
0.0
  0
LINE
  5
5F8AE
330
1F
100
AcDbEntity
  8
freecads.com
100
AcDbLine
 10
104449.2409178496
 20
95264.470276002
 30
0.0
 11
104449.2351059255
 21
95264.47729313904
 31
0.0
  0
LINE
  5
5F8AF
330
1F
100
AcDbEntity
  8
freecads.com
100
AcDbLine
 10
104449.2351059255
 20
95264.47729313904
 30
0.0
 11
104449.2310447884
 21
95264.48737280821
 31
0.0
  0
LINE
  5
5F8B0
330
1F
100
AcDbEntity
  8
freecads.com
100
AcDbLine
 10
104449.2310447884
 20
95264.48737280821
 30
0.0
 11
104449.2335778877
 21
95264.49749014028
 31
0.0
  0
LINE
  5
5F8B1
330
1F
100
AcDbEntity
  8
freecads.com
100
AcDbLine
 10
104449.2335778877
 20
95264.49749014028
 30
0.0
 11
104449.2381361751
 21
95264.50271129485
 31
0.0
  0
LINE
  5
5F8B2
330
1F
100
AcDbEntity
  8
freecads.com
100
AcDbLine
 10
104449.2381361751
 20
95264.50271129485
 30
0.0
 11
104449.2447207268
 21
95264.50295126135
 31
0.0
  0
LINE
  5
5F8B3
330
1F
100
AcDbEntity
  8
freecads.com
100
AcDbLine
 10
104449.2447207268
 20
95264.50295126135
 30
0.0
 11
104449.2473528258
 21
95264.50255526283
 31
0.0
  0
LINE
  5
5F8B4
330
1F
100
AcDbEntity
  8
freecads.com
100
AcDbLine
 10
104449.2473528258
 20
95264.50255526283
 30
0.0
 11
104449.2422177578
 21
95264.50891491316
 31
0.0
  0
LINE
  5
5F8B5
330
1F
100
AcDbEntity
  8
freecads.com
100
AcDbLine
 10
104449.2422177578
 20
95264.50891491316
 30
0.0
 11
104449.229146578
 21
95264.52194304967
 31
0.0
  0
LINE
  5
5F8B6
330
1F
100
AcDbEntity
  8
freecads.com
100
AcDbLine
 10
104449.229146578
 20
95264.52194304967
 30
0.0
 11
104449.2244462476
 21
95264.52956924968
 31
0.0
  0
LINE
  5
5F8B7
330
1F
100
AcDbEntity
  8
freecads.com
100
AcDbLine
 10
104449.2244462476
 20
95264.52956924968
 30
0.0
 11
104449.227007325
 21
95264.53736331863
 31
0.0
  0
LINE
  5
5F8B8
330
1F
100
AcDbEntity
  8
freecads.com
100
AcDbLine
 10
104449.227007325
 20
95264.53736331863
 30
0.0
 11
104449.2367426477
 21
95264.54549420154
 31
0.0
  0
LINE
  5
5F8B9
330
1F
100
AcDbEntity
  8
freecads.com
100
AcDbLine
 10
104449.2367426477
 20
95264.54549420154
 30
0.0
 11
104449.2466060242
 21
95264.55449993992
 31
0.0
  0
LINE
  5
5F8BA
330
1F
100
AcDbEntity
  8
freecads.com
100
AcDbLine
 10
104449.2466060242
 20
95264.55449993992
 30
0.0
 11
104449.2510663881
 21
95264.56105651345
 31
0.0
  0
LINE
  5
5F8BB
330
1F
100
AcDbEntity
  8
freecads.com
100
AcDbLine
 10
104449.2510663881
 20
95264.56105651345
 30
0.0
 11
104449.250040881
 21
95264.56524893269
 31
0.0
  0
LINE
  5
5F8BC
330
1F
100
AcDbEntity
  8
freecads.com
100
AcDbLine
 10
104449.250040881
 20
95264.56524893269
 30
0.0
 11
104449.2425276697
 21
95264.57185500603
 31
0.0
  0
LINE
  5
5F8BD
330
1F
100
AcDbEntity
  8
freecads.com
100
AcDbLine
 10
104449.2425276697
 20
95264.57185500603
 30
0.0
 11
104449.2365887678
 21
95264.57897114273
 31
0.0
  0
LINE
  5
5F8BE
330
1F
100
AcDbEntity
  8
freecads.com
100
AcDbLine
 10
104449.2365887678
 20
95264.57897114273
 30
0.0
 11
104449.2322177188
 21
95264.58659949488
 31
0.0
  0
LINE
  5
5F8BF
330
1F
100
AcDbEntity
  8
freecads.com
100
AcDbLine
 10
104449.2322177188
 20
95264.58659949488
 30
0.0
 11
104449.2294091422
 21
95264.59474006255
 31
0.0
  0
LINE
  5
5F8C0
330
1F
100
AcDbEntity
  8
freecads.com
100
AcDbLine
 10
104449.2294091422
 20
95264.59474006255
 30
0.0
 11
104449.2281555056
 21
95264.60339176962
 31
0.0
  0
LINE
  5
5F8C1
330
1F
100
AcDbEntity
  8
freecads.com
100
AcDbLine
 10
104449.2281555056
 20
95264.60339176962
 30
0.0
 11
104449.2284492762
 21
95264.61255569218
 31
0.0
  0
LINE
  5
5F8C2
330
1F
100
AcDbEntity
  8
freecads.com
100
AcDbLine
 10
104449.2284492762
 20
95264.61255569218
 30
0.0
 11
104449.2302861499
 21
95264.62223075416
 31
0.0
  0
LINE
  5
5F8C3
330
1F
100
AcDbEntity
  8
freecads.com
100
AcDbLine
 10
104449.2302861499
 20
95264.62223075416
 30
0.0
 11
104449.2239684668
 21
95264.62576138237
 31
0.0
  0
LINE
  5
5F8C4
330
1F
100
AcDbEntity
  8
freecads.com
100
AcDbLine
 10
104449.2239684668
 20
95264.62576138237
 30
0.0
 11
104449.2172289591
 21
95264.62794152648
 31
0.0
  0
LINE
  5
5F8C5
330
1F
100
AcDbEntity
  8
freecads.com
100
AcDbLine
 10
104449.2172289591
 20
95264.62794152648
 30
0.0
 11
104449.2101537136
 21
95264.62868725197
 31
0.0
  0
LINE
  5
5F8C6
330
1F
100
AcDbEntity
  8
freecads.com
100
AcDbLine
 10
104449.2101537136
 20
95264.62868725197
 30
0.0
 11
104449.2023994597
 21
95264.62995380164
 31
0.0
  0
LINE
  5
5F8C7
330
1F
100
AcDbEntity
  8
freecads.com
100
AcDbLine
 10
104449.2023994597
 20
95264.62995380164
 30
0.0
 11
104449.1987838209
 21
95264.63375345059
 31
0.0
  0
LINE
  5
5F8C8
330
1F
100
AcDbEntity
  8
freecads.com
100
AcDbLine
 10
104449.1987838209
 20
95264.63375345059
 30
0.0
 11
104449.199134624
 21
95264.64008404669
 31
0.0
  0
LINE
  5
5F8C9
330
1F
100
AcDbEntity
  8
freecads.com
100
AcDbLine
 10
104449.199134624
 20
95264.64008404669
 30
0.0
 11
104449.1995435355
 21
95264.64073184865
 31
0.0
  0
LINE
  5
5F8CA
330
1F
100
AcDbEntity
  8
freecads.com
100
AcDbLine
 10
104449.1995435355
 20
95264.64073184865
 30
0.0
 11
104449.2008800306
 21
95264.64880785134
 31
0.0
  0
LINE
  5
5F8CB
330
1F
100
AcDbEntity
  8
freecads.com
100
AcDbLine
 10
104449.2008800306
 20
95264.64880785134
 30
0.0
 11
104449.2033162824
 21
95264.66439706531
 31
0.0
  0
LINE
  5
5F8CC
330
1F
100
AcDbEntity
  8
freecads.com
100
AcDbLine
 10
104449.2033162824
 20
95264.66439706531
 30
0.0
 11
104449.205087515
 21
95264.67126355072
 31
0.0
  0
LINE
  5
5F8CD
330
1F
100
AcDbEntity
  8
freecads.com
100
AcDbLine
 10
104449.205087515
 20
95264.67126355072
 30
0.0
 11
104449.2073666587
 21
95264.6782979051
 31
0.0
  0
LINE
  5
5F8CE
330
1F
100
AcDbEntity
  8
freecads.com
100
AcDbLine
 10
104449.2073666587
 20
95264.6782979051
 30
0.0
 11
104449.2101537136
 21
95264.68566907345
 31
0.0
  0
LINE
  5
5F8CF
330
1F
100
AcDbEntity
  8
freecads.com
100
AcDbLine
 10
104449.2101537136
 20
95264.68566907345
 30
0.0
 11
104449.1974333368
 21
95264.69269266698
 31
0.0
  0
LINE
  5
5F8D0
330
1F
100
AcDbEntity
  8
freecads.com
100
AcDbLine
 10
104449.1974333368
 20
95264.69269266698
 30
0.0
 11
104449.1879756436
 21
95264.69964308688
 31
0.0
  0
LINE
  5
5F8D1
330
1F
100
AcDbEntity
  8
freecads.com
100
AcDbLine
 10
104449.1879756436
 20
95264.69964308688
 30
0.0
 11
104449.1817634166
 21
95264.70653970264
 31
0.0
  0
LINE
  5
5F8D2
330
1F
100
AcDbEntity
  8
freecads.com
100
AcDbLine
 10
104449.1817634166
 20
95264.70653970264
 30
0.0
 11
104449.1787783625
 21
95264.71339865548
 31
0.0
  0
LINE
  5
5F8D3
330
1F
100
AcDbEntity
  8
freecads.com
100
AcDbLine
 10
104449.1787783625
 20
95264.71339865548
 30
0.0
 11
104449.1790032638
 21
95264.72023931491
 31
0.0
  0
LINE
  5
5F8D4
330
1F
100
AcDbEntity
  8
freecads.com
100
AcDbLine
 10
104449.1790032638
 20
95264.72023931491
 30
0.0
 11
104449.18108118
 21
95264.72636437917
 31
0.0
  0
LINE
  5
5F8D5
330
1F
100
AcDbEntity
  8
freecads.com
100
AcDbLine
 10
104449.18108118
 20
95264.72636437917
 30
0.0
 11
104449.1850809804
 21
95264.73505482522
 31
0.0
  0
LINE
  5
5F8D6
330
1F
100
AcDbEntity
  8
freecads.com
100
AcDbLine
 10
104449.1850809804
 20
95264.73505482522
 30
0.0
 11
104449.1910758386
 21
95264.74630850092
 31
0.0
  0
LINE
  5
5F8D7
330
1F
100
AcDbEntity
  8
freecads.com
100
AcDbLine
 10
104449.1910758386
 20
95264.74630850092
 30
0.0
 11
104449.199134624
 21
95264.76012648233
 31
0.0
  0
LINE
  5
5F8D8
330
1F
100
AcDbEntity
  8
freecads.com
100
AcDbLine
 10
104449.199134624
 20
95264.76012648233
 30
0.0
 11
104449.1973623153
 21
95264.76264451648
 31
0.0
  0
LINE
  5
5F8D9
330
1F
100
AcDbEntity
  8
freecads.com
100
AcDbLine
 10
104449.1973623153
 20
95264.76264451648
 30
0.0
 11
104449.1920443133
 21
95264.76558437515
 31
0.0
  0
LINE
  5
5F8DA
330
1F
100
AcDbEntity
  8
freecads.com
100
AcDbLine
 10
104449.1920443133
 20
95264.76558437515
 30
0.0
 11
104449.1831806179
 21
95264.76886212387
 31
0.0
  0
LINE
  5
5F8DB
330
1F
100
AcDbEntity
  8
freecads.com
100
AcDbLine
 10
104449.1831806179
 20
95264.76886212387
 30
0.0
 11
104449.1740500539
 21
95264.77240996941
 31
0.0
  0
LINE
  5
5F8DC
330
1F
100
AcDbEntity
  8
freecads.com
100
AcDbLine
 10
104449.1740500539
 20
95264.77240996941
 30
0.0
 11
104449.1686341283
 21
95264.77696825688
 31
0.0
  0
LINE
  5
5F8DD
330
1F
100
AcDbEntity
  8
freecads.com
100
AcDbLine
 10
104449.1686341283
 20
95264.77696825688
 30
0.0
 11
104449.1668478306
 21
95264.78253806233
 31
0.0
  0
LINE
  5
5F8DE
330
1F
100
AcDbEntity
  8
freecads.com
100
AcDbLine
 10
104449.1668478306
 20
95264.78253806233
 30
0.0
 11
104449.1682069234
 21
95264.79372717304
 31
0.0
  0
LINE
  5
5F8DF
330
1F
100
AcDbEntity
  8
freecads.com
100
AcDbLine
 10
104449.1682069234
 20
95264.79372717304
 30
0.0
 11
104449.1723078756
 21
95264.80281576979
 31
0.0
  0
LINE
  5
5F8E0
330
1F
100
AcDbEntity
  8
freecads.com
100
AcDbLine
 10
104449.1723078756
 20
95264.80281576979
 30
0.0
 11
104449.1791861979
 21
95264.80983721118
 31
0.0
  0
LINE
  5
5F8E1
330
1F
100
AcDbEntity
  8
freecads.com
100
AcDbLine
 10
104449.1791861979
 20
95264.80983721118
 30
0.0
 11
104449.1888784772
 21
95264.81482916006
 31
0.0
  0
LINE
  5
5F8E2
330
1F
100
AcDbEntity
  8
freecads.com
100
AcDbLine
 10
104449.1888784772
 20
95264.81482916006
 30
0.0
 11
104449.2025415027
 21
95264.82089181151
 31
0.0
  0
LINE
  5
5F8E3
330
1F
100
AcDbEntity
  8
freecads.com
100
AcDbLine
 10
104449.2025415027
 20
95264.82089181151
 30
0.0
 11
104449.2108015155
 21
95264.82611188999
 31
0.0
  0
LINE
  5
5F8E4
330
1F
100
AcDbEntity
  8
freecads.com
100
AcDbLine
 10
104449.2108015155
 20
95264.82611188999
 30
0.0
 11
104449.2135735053
 21
95264.83040223279
 31
0.0
  0
LINE
  5
5F8E5
330
1F
100
AcDbEntity
  8
freecads.com
100
AcDbLine
 10
104449.2135735053
 20
95264.83040223279
 30
0.0
 11
104449.2082813292
 21
95264.8338069593
 31
0.0
  0
LINE
  5
5F8E6
330
1F
100
AcDbEntity
  8
freecads.com
100
AcDbLine
 10
104449.2082813292
 20
95264.8338069593
 30
0.0
 11
104449.1955620285
 21
95264.83712775135
 31
0.0
  0
LINE
  5
5F8E7
330
1F
100
AcDbEntity
  8
freecads.com
100
AcDbLine
 10
104449.1955620285
 20
95264.83712775135
 30
0.0
 11
104449.1755845482
 21
95264.84028175053
 31
0.0
  0
LINE
  5
5F8E8
330
1F
100
AcDbEntity
  8
freecads.com
100
AcDbLine
 10
104449.1755845482
 20
95264.84028175053
 30
0.0
 11
104449.1565766186
 21
95264.84330554367
 31
0.0
  0
LINE
  5
5F8E9
330
1F
100
AcDbEntity
  8
freecads.com
100
AcDbLine
 10
104449.1565766186
 20
95264.84330554367
 30
0.0
 11
104449.1443211097
 21
95264.84624540236
 31
0.0
  0
LINE
  5
5F8EA
330
1F
100
AcDbEntity
  8
freecads.com
100
AcDbLine
 10
104449.1443211097
 20
95264.84624540236
 30
0.0
 11
104449.1387340869
 21
95264.84901739207
 31
0.0
  0
LINE
  5
5F8EB
330
1F
100
AcDbEntity
  8
freecads.com
100
AcDbLine
 10
104449.1387340869
 20
95264.84901739207
 30
0.0
 11
104449.1315307875
 21
95264.85482716402
 31
0.0
  0
LINE
  5
5F8EC
330
1F
100
AcDbEntity
  8
freecads.com
100
AcDbLine
 10
104449.1315307875
 20
95264.85482716402
 30
0.0
 11
104449.1259319278
 21
95264.86156667166
 31
0.0
  0
LINE
  5
5F8ED
330
1F
100
AcDbEntity
  8
freecads.com
100
AcDbLine
 10
104449.1259319278
 20
95264.86156667166
 30
0.0
 11
104449.1220214423
 21
95264.86914982834
 31
0.0
  0
LINE
  5
5F8EE
330
1F
100
AcDbEntity
  8
freecads.com
100
AcDbLine
 10
104449.1220214423
 20
95264.86914982834
 30
0.0
 11
104449.1216695632
 21
95264.87702890785
 31
0.0
  0
LINE
  5
5F8EF
330
1F
100
AcDbEntity
  8
freecads.com
100
AcDbLine
 10
104449.1216695632
 20
95264.87702890785
 30
0.0
 11
104449.1275643457
 21
95264.88254598522
 31
0.0
  0
LINE
  5
5F8F0
330
1F
100
AcDbEntity
  8
freecads.com
100
AcDbLine
 10
104449.1275643457
 20
95264.88254598522
 30
0.0
 11
104449.1398736588
 21
95264.88586677727
 31
0.0
  0
LINE
  5
5F8F1
330
1F
100
AcDbEntity
  8
freecads.com
100
AcDbLine
 10
104449.1398736588
 20
95264.88586677727
 30
0.0
 11
104449.1305321825
 21
95264.89357583567
 31
0.0
  0
LINE
  5
5F8F2
330
1F
100
AcDbEntity
  8
freecads.com
100
AcDbLine
 10
104449.1305321825
 20
95264.89357583567
 30
0.0
 11
104449.123133036
 21
95264.89917577144
 31
0.0
  0
LINE
  5
5F8F3
330
1F
100
AcDbEntity
  8
freecads.com
100
AcDbLine
 10
104449.123133036
 20
95264.89917577144
 30
0.0
 11
104449.1178440883
 21
95264.90258049795
 31
0.0
  0
LINE
  5
5F8F4
330
1F
100
AcDbEntity
  8
freecads.com
100
AcDbLine
 10
104449.1178440883
 20
95264.90258049795
 30
0.0
 11
104449.1095840754
 21
95264.90779950034
 31
0.0
  0
LINE
  5
5F8F5
330
1F
100
AcDbEntity
  8
freecads.com
100
AcDbLine
 10
104449.1095840754
 20
95264.90779950034
 30
0.0
 11
104449.1029285022
 21
95264.91445399743
 31
0.0
  0
LINE
  5
5F8F6
330
1F
100
AcDbEntity
  8
freecads.com
100
AcDbLine
 10
104449.1029285022
 20
95264.91445399743
 30
0.0
 11
104449.0977073476
 21
95264.92271185814
 31
0.0
  0
LINE
  5
5F8F7
330
1F
100
AcDbEntity
  8
freecads.com
100
AcDbLine
 10
104449.0977073476
 20
95264.92271185814
 30
0.0
 11
104449.0908699165
 21
95264.93320904751
 31
0.0
  0
LINE
  5
5F8F8
330
1F
100
AcDbEntity
  8
freecads.com
100
AcDbLine
 10
104449.0908699165
 20
95264.93320904751
 30
0.0
 11
104449.0908699165
 21
95264.93956977393
 31
0.0
  0
LINE
  5
5F8F9
330
1F
100
AcDbEntity
  8
freecads.com
100
AcDbLine
 10
104449.0908699165
 20
95264.93956977393
 30
0.0
 11
104449.0977073476
 21
95264.94170902687
 31
0.0
  0
LINE
  5
5F8FA
330
1F
100
AcDbEntity
  8
freecads.com
100
AcDbLine
 10
104449.0977073476
 20
95264.94170902687
 30
0.0
 11
104449.1054185582
 21
95264.94211686232
 31
0.0
  0
LINE
  5
5F8FB
330
1F
100
AcDbEntity
  8
freecads.com
100
AcDbLine
 10
104449.1054185582
 20
95264.94211686232
 30
0.0
 11
104449.1125389992
 21
95264.94345335736
 31
0.0
  0
LINE
  5
5F8FC
330
1F
100
AcDbEntity
  8
freecads.com
100
AcDbLine
 10
104449.1125389992
 20
95264.94345335736
 30
0.0
 11
104449.1189836601
 21
95264.94588638096
 31
0.0
  0
LINE
  5
5F8FD
330
1F
100
AcDbEntity
  8
freecads.com
100
AcDbLine
 10
104449.1189836601
 20
95264.94588638096
 30
0.0
 11
104449.1139798743
 21
95264.95152290355
 31
0.0
  0
LINE
  5
5F8FE
330
1F
100
AcDbEntity
  8
freecads.com
100
AcDbLine
 10
104449.1139798743
 20
95264.95152290355
 30
0.0
 11
104449.1080797114
 21
95264.95780399985
 31
0.0
  0
LINE
  5
5F8FF
330
1F
100
AcDbEntity
  8
freecads.com
100
AcDbLine
 10
104449.1080797114
 20
95264.95780399985
 30
0.0
 11
104449.1012702584
 21
95264.96473827851
 31
0.0
  0
LINE
  5
5F900
330
1F
100
AcDbEntity
  8
freecads.com
100
AcDbLine
 10
104449.1012702584
 20
95264.96473827851
 30
0.0
 11
104449.0935439826
 21
95264.97233757643
 31
0.0
  0
LINE
  5
5F901
330
1F
100
AcDbEntity
  8
freecads.com
100
AcDbLine
 10
104449.0935439826
 20
95264.97233757643
 30
0.0
 11
104449.0848901234
 21
95264.98061265446
 31
0.0
  0
LINE
  5
5F902
330
1F
100
AcDbEntity
  8
freecads.com
100
AcDbLine
 10
104449.0848901234
 20
95264.98061265446
 30
0.0
 11
104449.0752968437
 21
95264.98957319734
 31
0.0
  0
LINE
  5
5F903
330
1F
100
AcDbEntity
  8
freecads.com
100
AcDbLine
 10
104449.0752968437
 20
95264.98957319734
 30
0.0
 11
104449.0711829785
 21
95264.99290367414
 31
0.0
  0
LINE
  5
5F904
330
1F
100
AcDbEntity
  8
freecads.com
100
AcDbLine
 10
104449.0711829785
 20
95264.99290367414
 30
0.0
 11
104449.0699540918
 21
95264.99520003518
 31
0.0
  0
LINE
  5
5F905
330
1F
100
AcDbEntity
  8
freecads.com
100
AcDbLine
 10
104449.0699540918
 20
95264.99520003518
 30
0.0
 11
104449.0716101835
 21
95264.99646443268
 31
0.0
  0
LINE
  5
5F906
330
1F
100
AcDbEntity
  8
freecads.com
100
AcDbLine
 10
104449.0716101835
 20
95264.99646443268
 30
0.0
 11
104449.0761512536
 21
95264.99669471442
 31
0.0
  0
LINE
  5
5F907
330
1F
100
AcDbEntity
  8
freecads.com
100
AcDbLine
 10
104449.0761512536
 20
95264.99669471442
 30
0.0
 11
104449.0835762261
 21
95264.99589410871
 31
0.0
  0
LINE
  5
5F908
330
1F
100
AcDbEntity
  8
freecads.com
100
AcDbLine
 10
104449.0835762261
 20
95264.99589410871
 30
0.0
 11
104449.093886177
 21
95264.99405938725
 31
0.0
  0
LINE
  5
5F909
330
1F
100
AcDbEntity
  8
freecads.com
100
AcDbLine
 10
104449.093886177
 20
95264.99405938725
 30
0.0
 11
104449.1070811064
 21
95264.99119270221
 31
0.0
  0
LINE
  5
5F90A
330
1F
100
AcDbEntity
  8
freecads.com
100
AcDbLine
 10
104449.1070811064
 20
95264.99119270221
 30
0.0
 11
104449.1231610142
 21
95264.98729405361
 31
0.0
  0
LINE
  5
5F90B
330
1F
100
AcDbEntity
  8
freecads.com
100
AcDbLine
 10
104449.1231610142
 20
95264.98729405361
 30
0.0
 11
104449.1120676749
 21
95264.99331688999
 31
0.0
  0
LINE
  5
5F90C
330
1F
100
AcDbEntity
  8
freecads.com
100
AcDbLine
 10
104449.1120676749
 20
95264.99331688999
 30
0.0
 11
104449.1022376569
 21
95264.99934080247
 31
0.0
  0
LINE
  5
5F90D
330
1F
100
AcDbEntity
  8
freecads.com
100
AcDbLine
 10
104449.1022376569
 20
95264.99934080247
 30
0.0
 11
104449.0936763408
 21
95265.00536363883
 31
0.0
  0
LINE
  5
5F90E
330
1F
100
AcDbEntity
  8
freecads.com
100
AcDbLine
 10
104449.0936763408
 20
95265.00536363883
 30
0.0
 11
104449.0863923352
 21
95265.01138755129
 31
0.0
  0
LINE
  5
5F90F
330
1F
100
AcDbEntity
  8
freecads.com
100
AcDbLine
 10
104449.0863923352
 20
95265.01138755129
 30
0.0
 11
104449.0803888683
 21
95265.01741146375
 31
0.0
  0
LINE
  5
5F910
330
1F
100
AcDbEntity
  8
freecads.com
100
AcDbLine
 10
104449.0803888683
 20
95265.01741146375
 30
0.0
 11
104449.075675625
 21
95265.0234364523
 31
0.0
  0
LINE
  5
5F911
330
1F
100
AcDbEntity
  8
freecads.com
100
AcDbLine
 10
104449.075675625
 20
95265.0234364523
 30
0.0
 11
104449.0722590615
 21
95265.02946036476
 31
0.0
  0
LINE
  5
5F912
330
1F
100
AcDbEntity
  8
freecads.com
100
AcDbLine
 10
104449.0722590615
 20
95265.02946036476
 30
0.0
 11
104449.0680128381
 21
95265.03785058366
 31
0.0
  0
LINE
  5
5F913
330
1F
100
AcDbEntity
  8
freecads.com
100
AcDbLine
 10
104449.0680128381
 20
95265.03785058366
 30
0.0
 11
104449.0680160664
 21
95265.04525618667
 31
0.0
  0
LINE
  5
5F914
330
1F
100
AcDbEntity
  8
freecads.com
100
AcDbLine
 10
104449.0680160664
 20
95265.04525618667
 30
0.0
 11
104449.0722300073
 21
95265.05169546714
 31
0.0
  0
LINE
  5
5F915
330
1F
100
AcDbEntity
  8
freecads.com
100
AcDbLine
 10
104449.0722300073
 20
95265.05169546714
 30
0.0
 11
104449.0806202262
 21
95265.05718564246
 31
0.0
  0
LINE
  5
5F916
330
1F
100
AcDbEntity
  8
freecads.com
100
AcDbLine
 10
104449.0806202262
 20
95265.05718564246
 30
0.0
 11
104449.0931490602
 21
95265.06174715816
 31
0.0
  0
LINE
  5
5F917
330
1F
100
AcDbEntity
  8
freecads.com
100
AcDbLine
 10
104449.0931490602
 20
95265.06174715816
 30
0.0
 11
104449.0964386458
 21
95265.06311270745
 31
0.0
  0
LINE
  5
5F918
330
1F
100
AcDbEntity
  8
freecads.com
100
AcDbLine
 10
104449.0964386458
 20
95265.06311270745
 30
0.0
 11
104449.0938162316
 21
95265.06725670296
 31
0.0
  0
LINE
  5
5F919
330
1F
100
AcDbEntity
  8
freecads.com
100
AcDbLine
 10
104449.0938162316
 20
95265.06725670296
 30
0.0
 11
104449.0853528391
 21
95265.07424909011
 31
0.0
  0
LINE
  5
5F91A
330
1F
100
AcDbEntity
  8
freecads.com
100
AcDbLine
 10
104449.0853528391
 20
95265.07424909011
 30
0.0
 11
104449.0711194896
 21
95265.08416304249
 31
0.0
  0
LINE
  5
5F91B
330
1F
100
AcDbEntity
  8
freecads.com
100
AcDbLine
 10
104449.0711194896
 20
95265.08416304249
 30
0.0
 11
104449.0598496727
 21
95265.0911575818
 31
0.0
  0
LINE
  5
5F91C
330
1F
100
AcDbEntity
  8
freecads.com
100
AcDbLine
 10
104449.0598496727
 20
95265.0911575818
 30
0.0
 11
104449.0499723071
 21
95265.09808970828
 31
0.0
  0
LINE
  5
5F91D
330
1F
100
AcDbEntity
  8
freecads.com
100
AcDbLine
 10
104449.0499723071
 20
95265.09808970828
 30
0.0
 11
104449.0414873929
 21
95265.10495942197
 31
0.0
  0
LINE
  5
5F91E
330
1F
100
AcDbEntity
  8
freecads.com
100
AcDbLine
 10
104449.0414873929
 20
95265.10495942197
 30
0.0
 11
104449.0343960061
 21
95265.11176564675
 31
0.0
  0
LINE
  5
5F91F
330
1F
100
AcDbEntity
  8
freecads.com
100
AcDbLine
 10
104449.0343960061
 20
95265.11176564675
 30
0.0
 11
104449.0286981468
 21
95265.11850838263
 31
0.0
  0
LINE
  5
5F920
330
1F
100
AcDbEntity
  8
freecads.com
100
AcDbLine
 10
104449.0286981468
 20
95265.11850838263
 30
0.0
 11
104449.024394891
 21
95265.12518978179
 31
0.0
  0
LINE
  5
5F921
330
1F
100
AcDbEntity
  8
freecads.com
100
AcDbLine
 10
104449.024394891
 20
95265.12518978179
 30
0.0
 11
104449.0170032771
 21
95265.13631217536
 31
0.0
  0
LINE
  5
5F922
330
1F
100
AcDbEntity
  8
freecads.com
100
AcDbLine
 10
104449.0170032771
 20
95265.13631217536
 30
0.0
 11
104449.011217179
 21
95265.1464316596
 31
0.0
  0
LINE
  5
5F923
330
1F
100
AcDbEntity
  8
freecads.com
100
AcDbLine
 10
104449.011217179
 20
95265.1464316596
 30
0.0
 11
104449.0069989338
 21
95265.15554823451
 31
0.0
  0
LINE
  5
5F924
330
1F
100
AcDbEntity
  8
freecads.com
100
AcDbLine
 10
104449.0069989338
 20
95265.15554823451
 30
0.0
 11
104449.0043108785
 21
95265.16366297618
 31
0.0
  0
LINE
  5
5F925
330
1F
100
AcDbEntity
  8
freecads.com
100
AcDbLine
 10
104449.0043108785
 20
95265.16366297618
 30
0.0
 11
104449.0031185786
 21
95265.17077480852
 31
0.0
  0
LINE
  5
5F926
330
1F
100
AcDbEntity
  8
freecads.com
100
AcDbLine
 10
104449.0031185786
 20
95265.17077480852
 30
0.0
 11
104449.0033198061
 21
95265.17889277844
 31
0.0
  0
LINE
  5
5F927
330
1F
100
AcDbEntity
  8
freecads.com
100
AcDbLine
 10
104449.0033198061
 20
95265.17889277844
 30
0.0
 11
104449.0072970087
 21
95265.18216945108
 31
0.0
  0
LINE
  5
5F928
330
1F
100
AcDbEntity
  8
freecads.com
100
AcDbLine
 10
104449.0072970087
 20
95265.18216945108
 30
0.0
 11
104449.014978089
 21
95265.18060267429
 31
0.0
  0
LINE
  5
5F929
330
1F
100
AcDbEntity
  8
freecads.com
100
AcDbLine
 10
104449.014978089
 20
95265.18060267429
 30
0.0
 11
104449.0262920253
 21
95265.17419352412
 31
0.0
  0
LINE
  5
5F92A
330
1F
100
AcDbEntity
  8
freecads.com
100
AcDbLine
 10
104449.0262920253
 20
95265.17419352412
 30
0.0
 11
104449.0391727385
 21
95265.16430432163
 31
0.0
  0
LINE
  5
5F92B
330
1F
100
AcDbEntity
  8
freecads.com
100
AcDbLine
 10
104449.0391727385
 20
95265.16430432163
 30
0.0
 11
104449.0487057575
 21
95265.15576775544
 31
0.0
  0
LINE
  5
5F92C
330
1F
100
AcDbEntity
  8
freecads.com
100
AcDbLine
 10
104449.0487057575
 20
95265.15576775544
 30
0.0
 11
104449.0548200609
 21
95265.14865699917
 31
0.0
  0
LINE
  5
5F92D
330
1F
100
AcDbEntity
  8
freecads.com
100
AcDbLine
 10
104449.0548200609
 20
95265.14865699917
 30
0.0
 11
104449.0574435512
 21
95265.14304199823
 31
0.0
  0
LINE
  5
5F92E
330
1F
100
AcDbEntity
  8
freecads.com
100
AcDbLine
 10
104449.0574435512
 20
95265.14304199823
 30
0.0
 11
104449.0536718804
 21
95265.15407292475
 31
0.0
  0
LINE
  5
5F92F
330
1F
100
AcDbEntity
  8
freecads.com
100
AcDbLine
 10
104449.0536718804
 20
95265.15407292475
 30
0.0
 11
104449.0477900109
 21
95265.16518886182
 31
0.0
  0
LINE
  5
5F930
330
1F
100
AcDbEntity
  8
freecads.com
100
AcDbLine
 10
104449.0477900109
 20
95265.16518886182
 30
0.0
 11
104449.0399679638
 21
95265.17647266784
 31
0.0
  0
LINE
  5
5F931
330
1F
100
AcDbEntity
  8
freecads.com
100
AcDbLine
 10
104449.0399679638
 20
95265.17647266784
 30
0.0
 11
104449.0313291697
 21
95265.18712266099
 31
0.0
  0
LINE
  5
5F932
330
1F
100
AcDbEntity
  8
freecads.com
100
AcDbLine
 10
104449.0313291697
 20
95265.18712266099
 30
0.0
 11
104449.0235361768
 21
95265.19709687404
 31
0.0
  0
LINE
  5
5F933
330
1F
100
AcDbEntity
  8
freecads.com
100
AcDbLine
 10
104449.0235361768
 20
95265.19709687404
 30
0.0
 11
104449.0164168119
 21
95265.20648031752
 31
0.0
  0
LINE
  5
5F934
330
1F
100
AcDbEntity
  8
freecads.com
100
AcDbLine
 10
104449.0164168119
 20
95265.20648031752
 30
0.0
 11
104449.0098451732
 21
95265.21440136425
 31
0.0
  0
LINE
  5
5F935
330
1F
100
AcDbEntity
  8
freecads.com
100
AcDbLine
 10
104449.0098451732
 20
95265.21440136425
 30
0.0
 11
104449.0040590751
 21
95265.22245584528
 31
0.0
  0
LINE
  5
5F936
330
1F
100
AcDbEntity
  8
freecads.com
100
AcDbLine
 10
104449.0040590751
 20
95265.22245584528
 30
0.0
 11
104448.9990542132
 21
95265.23063945626
 31
0.0
  0
LINE
  5
5F937
330
1F
100
AcDbEntity
  8
freecads.com
100
AcDbLine
 10
104448.9990542132
 20
95265.23063945626
 30
0.0
 11
104448.9948284354
 21
95265.23894358854
 31
0.0
  0
LINE
  5
5F938
330
1F
100
AcDbEntity
  8
freecads.com
100
AcDbLine
 10
104448.9948284354
 20
95265.23894358854
 30
0.0
 11
104448.9913774373
 21
95265.24736393778
 31
0.0
  0
LINE
  5
5F939
330
1F
100
AcDbEntity
  8
freecads.com
100
AcDbLine
 10
104448.9913774373
 20
95265.24736393778
 30
0.0
 11
104448.9886990668
 21
95265.25589404746
 31
0.0
  0
LINE
  5
5F93A
330
1F
100
AcDbEntity
  8
freecads.com
100
AcDbLine
 10
104448.9886990668
 20
95265.25589404746
 30
0.0
 11
104448.9867890195
 21
95265.26452638504
 31
0.0
  0
LINE
  5
5F93B
330
1F
100
AcDbEntity
  8
freecads.com
100
AcDbLine
 10
104448.9867890195
 20
95265.26452638504
 30
0.0
 11
104448.9856462194
 21
95265.27325664618
 31
0.0
  0
LINE
  5
5F93C
330
1F
100
AcDbEntity
  8
freecads.com
100
AcDbLine
 10
104448.9856462194
 20
95265.27325664618
 30
0.0
 11
104448.985265286
 21
95265.28207729827
 31
0.0
  0
LINE
  5
5F93D
330
1F
100
AcDbEntity
  8
freecads.com
100
AcDbLine
 10
104448.985265286
 20
95265.28207729827
 30
0.0
 11
104448.9869127691
 21
95265.28422946419
 31
0.0
  0
LINE
  5
5F93E
330
1F
100
AcDbEntity
  8
freecads.com
100
AcDbLine
 10
104448.9869127691
 20
95265.28422946419
 30
0.0
 11
104448.9888109794
 21
95265.2846093215
 31
0.0
  0
LINE
  5
5F93F
330
1F
100
AcDbEntity
  8
freecads.com
100
AcDbLine
 10
104448.9888109794
 20
95265.2846093215
 30
0.0
 11
104448.9909642214
 21
95265.28321687015
 31
0.0
  0
LINE
  5
5F940
330
1F
100
AcDbEntity
  8
freecads.com
100
AcDbLine
 10
104448.9909642214
 20
95265.28321687015
 30
0.0
 11
104448.9986603668
 21
95265.2759845165
 31
0.0
  0
LINE
  5
5F941
330
1F
100
AcDbEntity
  8
freecads.com
100
AcDbLine
 10
104448.9986603668
 20
95265.2759845165
 30
0.0
 11
104449.0056818082
 21
95265.26639016074
 31
0.0
  0
LINE
  5
5F942
330
1F
100
AcDbEntity
  8
freecads.com
100
AcDbLine
 10
104449.0056818082
 20
95265.26639016074
 30
0.0
 11
104449.0118585244
 21
95265.25434448798
 31
0.0
  0
LINE
  5
5F943
330
1F
100
AcDbEntity
  8
freecads.com
100
AcDbLine
 10
104449.0118585244
 20
95265.25434448798
 30
0.0
 11
104449.0178523066
 21
95265.24274754184
 31
0.0
  0
LINE
  5
5F944
330
1F
100
AcDbEntity
  8
freecads.com
100
AcDbLine
 10
104449.0178523066
 20
95265.24274754184
 30
0.0
 11
104449.0244885103
 21
95265.23364280382
 31
0.0
  0
LINE
  5
5F945
330
1F
100
AcDbEntity
  8
freecads.com
100
AcDbLine
 10
104449.0244885103
 20
95265.23364280382
 30
0.0
 11
104449.0318360048
 21
95265.22710344762
 31
0.0
  0
LINE
  5
5F946
330
1F
100
AcDbEntity
  8
freecads.com
100
AcDbLine
 10
104449.0318360048
 20
95265.22710344762
 30
0.0
 11
104449.0399679638
 21
95265.22319834253
 31
0.0
  0
LINE
  5
5F947
330
1F
100
AcDbEntity
  8
freecads.com
100
AcDbLine
 10
104449.0399679638
 20
95265.22319834253
 30
0.0
 11
104449.0475511204
 21
95265.22103003534
 31
0.0
  0
LINE
  5
5F948
330
1F
100
AcDbEntity
  8
freecads.com
100
AcDbLine
 10
104449.0475511204
 20
95265.22103003534
 30
0.0
 11
104449.0512506937
 21
95265.22359003674
 31
0.0
  0
LINE
  5
5F949
330
1F
100
AcDbEntity
  8
freecads.com
100
AcDbLine
 10
104449.0512506937
 20
95265.22359003674
 30
0.0
 11
104449.0509827491
 21
95265.23079441222
 31
0.0
  0
LINE
  5
5F94A
330
1F
100
AcDbEntity
  8
freecads.com
100
AcDbLine
 10
104449.0509827491
 20
95265.23079441222
 30
0.0
 11
104449.0480708685
 21
95265.24116354771
 31
0.0
  0
LINE
  5
5F94B
330
1F
100
AcDbEntity
  8
freecads.com
100
AcDbLine
 10
104449.0480708685
 20
95265.24116354771
 30
0.0
 11
104449.0454118675
 21
95265.24866169383
 31
0.0
  0
LINE
  5
5F94C
330
1F
100
AcDbEntity
  8
freecads.com
100
AcDbLine
 10
104449.0454118675
 20
95265.24866169383
 30
0.0
 11
104449.043005746
 21
95265.25320491613
 31
0.0
  0
LINE
  5
5F94D
330
1F
100
AcDbEntity
  8
freecads.com
100
AcDbLine
 10
104449.043005746
 20
95265.25320491613
 30
0.0
 11
104449.0401089306
 21
95265.2587919389
 31
0.0
  0
LINE
  5
5F94E
330
1F
100
AcDbEntity
  8
freecads.com
100
AcDbLine
 10
104449.0401089306
 20
95265.2587919389
 30
0.0
 11
104449.0367892147
 21
95265.26648916037
 31
0.0
  0
LINE
  5
5F94F
330
1F
100
AcDbEntity
  8
freecads.com
100
AcDbLine
 10
104449.0367892147
 20
95265.26648916037
 30
0.0
 11
104449.0331305326
 21
95265.27637943894
 31
0.0
  0
LINE
  5
5F950
330
1F
100
AcDbEntity
  8
freecads.com
100
AcDbLine
 10
104449.0331305326
 20
95265.27637943894
 30
0.0
 11
104449.0308643019
 21
95265.28117661683
 31
0.0
  0
LINE
  5
5F951
330
1F
100
AcDbEntity
  8
freecads.com
100
AcDbLine
 10
104449.0308643019
 20
95265.28117661683
 30
0.0
 11
104449.0271658047
 21
95265.2894355536
 31
0.0
  0
LINE
  5
5F952
330
1F
100
AcDbEntity
  8
freecads.com
100
AcDbLine
 10
104449.0271658047
 20
95265.2894355536
 30
0.0
 11
104449.0221146712
 21
95265.30107016268
 31
0.0
  0
LINE
  5
5F953
330
1F
100
AcDbEntity
  8
freecads.com
100
AcDbLine
 10
104449.0221146712
 20
95265.30107016268
 30
0.0
 11
104449.0167955931
 21
95265.30764180137
 31
0.0
  0
LINE
  5
5F954
330
1F
100
AcDbEntity
  8
freecads.com
100
AcDbLine
 10
104449.0167955931
 20
95265.30764180137
 30
0.0
 11
104449.0160358785
 21
95265.31438238508
 31
0.0
  0
LINE
  5
5F955
330
1F
100
AcDbEntity
  8
freecads.com
100
AcDbLine
 10
104449.0160358785
 20
95265.31438238508
 30
0.0
 11
104449.0198355275
 21
95265.3212058272
 31
0.0
  0
LINE
  5
5F956
330
1F
100
AcDbEntity
  8
freecads.com
100
AcDbLine
 10
104449.0198355275
 20
95265.3212058272
 30
0.0
 11
104449.0252944964
 21
95265.32375183951
 31
0.0
  0
LINE
  5
5F957
330
1F
100
AcDbEntity
  8
freecads.com
100
AcDbLine
 10
104449.0252944964
 20
95265.32375183951
 30
0.0
 11
104449.0326086323
 21
95265.31853176102
 31
0.0
  0
LINE
  5
5F958
330
1F
100
AcDbEntity
  8
freecads.com
100
AcDbLine
 10
104449.0326086323
 20
95265.31853176102
 30
0.0
 11
104449.0418661741
 21
95265.30562845014
 31
0.0
  0
LINE
  5
5F959
330
1F
100
AcDbEntity
  8
freecads.com
100
AcDbLine
 10
104449.0418661741
 20
95265.30562845014
 30
0.0
 11
104449.0462469079
 21
95265.29854244378
 31
0.0
  0
LINE
  5
5F95A
330
1F
100
AcDbEntity
  8
freecads.com
100
AcDbLine
 10
104449.0462469079
 20
95265.29854244378
 30
0.0
 11
104449.0508460865
 21
95265.29124229693
 31
0.0
  0
LINE
  5
5F95B
330
1F
100
AcDbEntity
  8
freecads.com
100
AcDbLine
 10
104449.0508460865
 20
95265.29124229693
 30
0.0
 11
104449.0556680143
 21
95265.28372800955
 31
0.0
  0
LINE
  5
5F95C
330
1F
100
AcDbEntity
  8
freecads.com
100
AcDbLine
 10
104449.0556680143
 20
95265.28372800955
 30
0.0
 11
104449.0607169956
 21
95265.27599958166
 31
0.0
  0
LINE
  5
5F95D
330
1F
100
AcDbEntity
  8
freecads.com
100
AcDbLine
 10
104449.0607169956
 20
95265.27599958166
 30
0.0
 11
104449.0659984108
 21
95265.26805701326
 31
0.0
  0
LINE
  5
5F95E
330
1F
100
AcDbEntity
  8
freecads.com
100
AcDbLine
 10
104449.0659984108
 20
95265.26805701326
 30
0.0
 11
104449.0715144121
 21
95265.25990138043
 31
0.0
  0
LINE
  5
5F95F
330
1F
100
AcDbEntity
  8
freecads.com
100
AcDbLine
 10
104449.0715144121
 20
95265.25990138043
 30
0.0
 11
104449.077271456
 21
95265.25153160712
 31
0.0
  0
LINE
  5
5F960
330
1F
100
AcDbEntity
  8
freecads.com
100
AcDbLine
 10
104449.077271456
 20
95265.25153160712
 30
0.0
 11
104449.0832738468
 21
95265.24294876935
 31
0.0
  0
LINE
  5
5F961
330
1F
100
AcDbEntity
  8
freecads.com
100
AcDbLine
 10
104449.0832738468
 20
95265.24294876935
 30
0.0
 11
104449.0931781144
 21
95265.23000241514
 31
0.0
  0
LINE
  5
5F962
330
1F
100
AcDbEntity
  8
freecads.com
100
AcDbLine
 10
104449.0931781144
 20
95265.23000241514
 30
0.0
 11
104449.1016059962
 21
95265.22003035426
 31
0.0
  0
LINE
  5
5F963
330
1F
100
AcDbEntity
  8
freecads.com
100
AcDbLine
 10
104449.1016059962
 20
95265.22003035426
 30
0.0
 11
104449.1085348945
 21
95265.21303473888
 31
0.0
  0
LINE
  5
5F964
330
1F
100
AcDbEntity
  8
freecads.com
100
AcDbLine
 10
104449.1085348945
 20
95265.21303473888
 30
0.0
 11
104449.1139454397
 21
95265.20901341683
 31
0.0
  0
LINE
  5
5F965
330
1F
100
AcDbEntity
  8
freecads.com
100
AcDbLine
 10
104449.1139454397
 20
95265.20901341683
 30
0.0
 11
104449.117815034
 21
95265.20796854027
 31
0.0
  0
LINE
  5
5F966
330
1F
100
AcDbEntity
  8
freecads.com
100
AcDbLine
 10
104449.117815034
 20
95265.20796854027
 30
0.0
 11
104449.120123232
 21
95265.20989903312
 31
0.0
  0
LINE
  5
5F967
330
1F
100
AcDbEntity
  8
freecads.com
100
AcDbLine
 10
104449.120123232
 20
95265.20989903312
 30
0.0
 11
104449.1198692764
 21
95265.21241921942
 31
0.0
  0
LINE
  5
5F968
330
1F
100
AcDbEntity
  8
freecads.com
100
AcDbLine
 10
104449.1198692764
 20
95265.21241921942
 30
0.0
 11
104449.1191095618
 21
95265.2146004396
 31
0.0
  0
LINE
  5
5F969
330
1F
100
AcDbEntity
  8
freecads.com
100
AcDbLine
 10
104449.1191095618
 20
95265.2146004396
 30
0.0
 11
104449.1178440883
 21
95265.21635983526
 31
0.0
  0
LINE
  5
5F96A
330
1F
100
AcDbEntity
  8
freecads.com
100
AcDbLine
 10
104449.1178440883
 20
95265.21635983526
 30
0.0
 11
104449.1119848165
 21
95265.22324353802
 31
0.0
  0
LINE
  5
5F96B
330
1F
100
AcDbEntity
  8
freecads.com
100
AcDbLine
 10
104449.1119848165
 20
95265.22324353802
 30
0.0
 11
104449.1064645109
 21
95265.23054583703
 31
0.0
  0
LINE
  5
5F96C
330
1F
100
AcDbEntity
  8
freecads.com
100
AcDbLine
 10
104449.1064645109
 20
95265.23054583703
 30
0.0
 11
104449.1012971604
 21
95265.23826780842
 31
0.0
  0
LINE
  5
5F96D
330
1F
100
AcDbEntity
  8
freecads.com
100
AcDbLine
 10
104449.1012971604
 20
95265.23826780842
 30
0.0
 11
104449.0964946021
 21
95265.24640730002
 31
0.0
  0
LINE
  5
5F96E
330
1F
100
AcDbEntity
  8
freecads.com
100
AcDbLine
 10
104449.0964946021
 20
95265.24640730002
 30
0.0
 11
104449.0920708251
 21
95265.25496646396
 31
0.0
  0
LINE
  5
5F96F
330
1F
100
AcDbEntity
  8
freecads.com
100
AcDbLine
 10
104449.0920708251
 20
95265.25496646396
 30
0.0
 11
104449.0880398183
 21
95265.26394422416
 31
0.0
  0
LINE
  5
5F970
330
1F
100
AcDbEntity
  8
freecads.com
100
AcDbLine
 10
104449.0880398183
 20
95265.26394422416
 30
0.0
 11
104449.0844134186
 21
95265.27334165672
 31
0.0
  0
LINE
  5
5F971
330
1F
100
AcDbEntity
  8
freecads.com
100
AcDbLine
 10
104449.0844134186
 20
95265.27334165672
 30
0.0
 11
104449.0815617988
 21
95265.28087854185
 31
0.0
  0
LINE
  5
5F972
330
1F
100
AcDbEntity
  8
freecads.com
100
AcDbLine
 10
104449.0815617988
 20
95265.28087854185
 30
0.0
 11
104449.0783077239
 21
95265.28944954268
 31
0.0
  0
LINE
  5
5F973
330
1F
100
AcDbEntity
  8
freecads.com
100
AcDbLine
 10
104449.0783077239
 20
95265.28944954268
 30
0.0
 11
104449.0746318245
 21
95265.29907725702
 31
0.0
  0
LINE
  5
5F974
330
1F
100
AcDbEntity
  8
freecads.com
100
AcDbLine
 10
104449.0746318245
 20
95265.29907725702
 30
0.0
 11
104449.0705125789
 21
95265.30978105432
 31
0.0
  0
LINE
  5
5F975
330
1F
100
AcDbEntity
  8
freecads.com
100
AcDbLine
 10
104449.0705125789
 20
95265.30978105432
 30
0.0
 11
104449.0659306176
 21
95265.32158138016
 31
0.0
  0
LINE
  5
5F976
330
1F
100
AcDbEntity
  8
freecads.com
100
AcDbLine
 10
104449.0659306176
 20
95265.32158138016
 30
0.0
 11
104449.0608622668
 21
95265.33450083228
 31
0.0
  0
LINE
  5
5F977
330
1F
100
AcDbEntity
  8
freecads.com
100
AcDbLine
 10
104449.0608622668
 20
95265.33450083228
 30
0.0
 11
104449.0570636939
 21
95265.34869759489
 31
0.0
  0
LINE
  5
5F978
330
1F
100
AcDbEntity
  8
freecads.com
100
AcDbLine
 10
104449.0570636939
 20
95265.34869759489
 30
0.0
 11
104449.0570636939
 21
95265.35867288401
 31
0.0
  0
LINE
  5
5F979
330
1F
100
AcDbEntity
  8
freecads.com
100
AcDbLine
 10
104449.0570636939
 20
95265.35867288401
 30
0.0
 11
104449.0608622668
 21
95265.36451171022
 31
0.0
  0
LINE
  5
5F97A
330
1F
100
AcDbEntity
  8
freecads.com
100
AcDbLine
 10
104449.0608622668
 20
95265.36451171022
 30
0.0
 11
104449.0670949393
 21
95265.36515843607
 31
0.0
  0
LINE
  5
5F97B
330
1F
100
AcDbEntity
  8
freecads.com
100
AcDbLine
 10
104449.0670949393
 20
95265.36515843607
 30
0.0
 11
104449.0722289312
 21
95265.36107792946
 31
0.0
  0
LINE
  5
5F97C
330
1F
100
AcDbEntity
  8
freecads.com
100
AcDbLine
 10
104449.0722289312
 20
95265.36107792946
 30
0.0
 11
104449.0764364156
 21
95265.35235304875
 31
0.0
  0
LINE
  5
5F97D
330
1F
100
AcDbEntity
  8
freecads.com
100
AcDbLine
 10
104449.0764364156
 20
95265.35235304875
 30
0.0
 11
104449.0796151647
 21
95265.34197100025
 31
0.0
  0
LINE
  5
5F97E
330
1F
100
AcDbEntity
  8
freecads.com
100
AcDbLine
 10
104449.0796151647
 20
95265.34197100025
 30
0.0
 11
104449.0831328799
 21
95265.33209363467
 31
0.0
  0
LINE
  5
5F97F
330
1F
100
AcDbEntity
  8
freecads.com
100
AcDbLine
 10
104449.0831328799
 20
95265.33209363467
 30
0.0
 11
104449.0870745718
 21
95265.32272310419
 31
0.0
  0
LINE
  5
5F980
330
1F
100
AcDbEntity
  8
freecads.com
100
AcDbLine
 10
104449.0870745718
 20
95265.32272310419
 30
0.0
 11
104449.0911389372
 21
95265.31360545318
 31
0.0
  0
LINE
  5
5F981
330
1F
100
AcDbEntity
  8
freecads.com
100
AcDbLine
 10
104449.0911389372
 20
95265.31360545318
 30
0.0
 11
104449.0950365097
 21
95265.30448887827
 31
0.0
  0
LINE
  5
5F982
330
1F
100
AcDbEntity
  8
freecads.com
100
AcDbLine
 10
104449.0950365097
 20
95265.30448887827
 30
0.0
 11
104449.0988469195
 21
95265.29537122728
 31
0.0
  0
LINE
  5
5F983
330
1F
100
AcDbEntity
  8
freecads.com
100
AcDbLine
 10
104449.0988469195
 20
95265.29537122728
 30
0.0
 11
104449.1016038441
 21
95265.28803018926
 31
0.0
  0
LINE
  5
5F984
330
1F
100
AcDbEntity
  8
freecads.com
100
AcDbLine
 10
104449.1016038441
 20
95265.28803018926
 30
0.0
 11
104449.1053195586
 21
95265.28006502312
 31
0.0
  0
LINE
  5
5F985
330
1F
100
AcDbEntity
  8
freecads.com
100
AcDbLine
 10
104449.1053195586
 20
95265.28006502312
 30
0.0
 11
104449.110006976
 21
95265.27148864186
 31
0.0
  0
LINE
  5
5F986
330
1F
100
AcDbEntity
  8
freecads.com
100
AcDbLine
 10
104449.110006976
 20
95265.27148864186
 30
0.0
 11
104449.115674705
 21
95265.26230965412
 31
0.0
  0
LINE
  5
5F987
330
1F
100
AcDbEntity
  8
freecads.com
100
AcDbLine
 10
104449.115674705
 20
95265.26230965412
 30
0.0
 11
104449.1223356586
 21
95265.25253989685
 31
0.0
  0
LINE
  5
5F988
330
1F
100
AcDbEntity
  8
freecads.com
100
AcDbLine
 10
104449.1223356586
 20
95265.25253989685
 30
0.0
 11
104449.1299984454
 21
95265.24219013085
 31
0.0
  0
LINE
  5
5F989
330
1F
100
AcDbEntity
  8
freecads.com
100
AcDbLine
 10
104449.1299984454
 20
95265.24219013085
 30
0.0
 11
104449.1347956233
 21
95265.23888332787
 31
0.0
  0
LINE
  5
5F98A
330
1F
100
AcDbEntity
  8
freecads.com
100
AcDbLine
 10
104449.1347956233
 20
95265.23888332787
 30
0.0
 11
104449.1377354819
 21
95265.24106347199
 31
0.0
  0
LINE
  5
5F98B
330
1F
100
AcDbEntity
  8
freecads.com
100
AcDbLine
 10
104449.1377354819
 20
95265.24106347199
 30
0.0
 11
104449.1387340869
 21
95265.24864662867
 31
0.0
  0
LINE
  5
5F98C
330
1F
100
AcDbEntity
  8
freecads.com
100
AcDbLine
 10
104449.1387340869
 20
95265.24864662867
 30
0.0
 11
104449.132484197
 21
95265.26283478261
 31
0.0
  0
LINE
  5
5F98D
330
1F
100
AcDbEntity
  8
freecads.com
100
AcDbLine
 10
104449.132484197
 20
95265.26283478261
 30
0.0
 11
104449.1270532063
 21
95265.2755928223
 31
0.0
  0
LINE
  5
5F98E
330
1F
100
AcDbEntity
  8
freecads.com
100
AcDbLine
 10
104449.1270532063
 20
95265.2755928223
 30
0.0
 11
104449.1224411147
 21
95265.28691859555
 31
0.0
  0
LINE
  5
5F98F
330
1F
100
AcDbEntity
  8
freecads.com
100
AcDbLine
 10
104449.1224411147
 20
95265.28691859555
 30
0.0
 11
104449.1186457701
 21
95265.29681210238
 31
0.0
  0
LINE
  5
5F990
330
1F
100
AcDbEntity
  8
freecads.com
100
AcDbLine
 10
104449.1186457701
 20
95265.29681210238
 30
0.0
 11
104449.1156650202
 21
95265.30527119058
 31
0.0
  0
LINE
  5
5F991
330
1F
100
AcDbEntity
  8
freecads.com
100
AcDbLine
 10
104449.1156650202
 20
95265.30527119058
 30
0.0
 11
104449.113495637
 21
95265.31229586021
 31
0.0
  0
LINE
  5
5F992
330
1F
100
AcDbEntity
  8
freecads.com
100
AcDbLine
 10
104449.113495637
 20
95265.31229586021
 30
0.0
 11
104449.1121365442
 21
95265.31788395907
 31
0.0
  0
LINE
  5
5F993
330
1F
100
AcDbEntity
  8
freecads.com
100
AcDbLine
 10
104449.1121365442
 20
95265.31788395907
 30
0.0
 11
104449.1115866658
 21
95265.32203548716
 31
0.0
  0
LINE
  5
5F994
330
1F
100
AcDbEntity
  8
freecads.com
100
AcDbLine
 10
104449.1115866658
 20
95265.32203548716
 30
0.0
 11
104449.1118416974
 21
95265.32474936841
 31
0.0
  0
LINE
  5
5F995
330
1F
100
AcDbEntity
  8
freecads.com
100
AcDbLine
 10
104449.1118416974
 20
95265.32474936841
 30
0.0
 11
104449.1129005631
 21
95265.32602452673
 31
0.0
  0
LINE
  5
5F996
330
1F
100
AcDbEntity
  8
freecads.com
100
AcDbLine
 10
104449.1129005631
 20
95265.32602452673
 30
0.0
 11
104449.1147621866
 21
95265.32585988604
 31
0.0
  0
LINE
  5
5F997
330
1F
100
AcDbEntity
  8
freecads.com
100
AcDbLine
 10
104449.1147621866
 20
95265.32585988604
 30
0.0
 11
104449.1174233398
 21
95265.32425329417
 31
0.0
  0
LINE
  5
5F998
330
1F
100
AcDbEntity
  8
freecads.com
100
AcDbLine
 10
104449.1174233398
 20
95265.32425329417
 30
0.0
 11
104449.1208818705
 21
95265.3212058272
 31
0.0
  0
LINE
  5
5F999
330
1F
100
AcDbEntity
  8
freecads.com
100
AcDbLine
 10
104449.1208818705
 20
95265.3212058272
 30
0.0
 11
104449.1208818705
 21
95265.3212058272
 31
0.0
  0
LINE
  5
5F99A
330
1F
100
AcDbEntity
  8
freecads.com
100
AcDbLine
 10
104449.1208818705
 20
95265.3212058272
 30
0.0
 11
104449.1271156191
 21
95265.31448030864
 31
0.0
  0
LINE
  5
5F99B
330
1F
100
AcDbEntity
  8
freecads.com
100
AcDbLine
 10
104449.1271156191
 20
95265.31448030864
 30
0.0
 11
104449.1334494435
 21
95265.30731682431
 31
0.0
  0
LINE
  5
5F99C
330
1F
100
AcDbEntity
  8
freecads.com
100
AcDbLine
 10
104449.1334494435
 20
95265.30731682431
 30
0.0
 11
104449.1398898
 21
95265.29969492864
 31
0.0
  0
LINE
  5
5F99D
330
1F
100
AcDbEntity
  8
freecads.com
100
AcDbLine
 10
104449.1398898
 20
95265.29969492864
 30
0.0
 11
104449.1464431453
 21
95265.29159417604
 31
0.0
  0
LINE
  5
5F99E
330
1F
100
AcDbEntity
  8
freecads.com
100
AcDbLine
 10
104449.1464431453
 20
95265.29159417604
 30
0.0
 11
104449.1531159358
 21
95265.28299519705
 31
0.0
  0
LINE
  5
5F99F
330
1F
100
AcDbEntity
  8
freecads.com
100
AcDbLine
 10
104449.1531159358
 20
95265.28299519705
 30
0.0
 11
104449.1599157041
 21
95265.27387862213
 31
0.0
  0
LINE
  5
5F9A0
330
1F
100
AcDbEntity
  8
freecads.com
100
AcDbLine
 10
104449.1599157041
 20
95265.27387862213
 30
0.0
 11
104449.1668478306
 21
95265.26422508181
 31
0.0
  0
LINE
  5
5F9A1
330
1F
100
AcDbEntity
  8
freecads.com
100
AcDbLine
 10
104449.1668478306
 20
95265.26422508181
 30
0.0
 11
104449.1691280504
 21
95265.25989169568
 31
0.0
  0
LINE
  5
5F9A2
330
1F
100
AcDbEntity
  8
freecads.com
100
AcDbLine
 10
104449.1691280504
 20
95265.25989169568
 30
0.0
 11
104449.1721669087
 21
95265.25474479086
 31
0.0
  0
LINE
  5
5F9A3
330
1F
100
AcDbEntity
  8
freecads.com
100
AcDbLine
 10
104449.1721669087
 20
95265.25474479086
 30
0.0
 11
104449.1759654816
 21
95265.2487897477
 31
0.0
  0
LINE
  5
5F9A4
330
1F
100
AcDbEntity
  8
freecads.com
100
AcDbLine
 10
104449.1759654816
 20
95265.2487897477
 30
0.0
 11
104449.180523769
 21
95265.24202656624
 31
0.0
  0
LINE
  5
5F9A5
330
1F
100
AcDbEntity
  8
freecads.com
100
AcDbLine
 10
104449.180523769
 20
95265.24202656624
 30
0.0
 11
104449.1858417711
 21
95265.23446062689
 31
0.0
  0
LINE
  5
5F9A6
330
1F
100
AcDbEntity
  8
freecads.com
100
AcDbLine
 10
104449.1858417711
 20
95265.23446062689
 30
0.0
 11
104449.1919205638
 21
95265.2260940818
 31
0.0
  0
LINE
  5
5F9A7
330
1F
100
AcDbEntity
  8
freecads.com
100
AcDbLine
 10
104449.1919205638
 20
95265.2260940818
 30
0.0
 11
104449.198757995
 21
95265.21693123532
 31
0.0
  0
LINE
  5
5F9A8
330
1F
100
AcDbEntity
  8
freecads.com
100
AcDbLine
 10
104449.198757995
 20
95265.21693123532
 30
0.0
 11
104449.2063551407
 21
95265.20697316353
 31
0.0
  0
LINE
  5
5F9A9
330
1F
100
AcDbEntity
  8
freecads.com
100
AcDbLine
 10
104449.2063551407
 20
95265.20697316353
 30
0.0
 11
104449.2147130771
 21
95265.19622417074
 31
0.0
  0
LINE
  5
5F9AA
330
1F
100
AcDbEntity
  8
freecads.com
100
AcDbLine
 10
104449.2147130771
 20
95265.19622417074
 30
0.0
 11
104449.2176744575
 21
95265.1918789477
 31
0.0
  0
LINE
  5
5F9AB
330
1F
100
AcDbEntity
  8
freecads.com
100
AcDbLine
 10
104449.2176744575
 20
95265.1918789477
 30
0.0
 11
104449.2208618152
 21
95265.18729698643
 31
0.0
  0
LINE
  5
5F9AC
330
1F
100
AcDbEntity
  8
freecads.com
100
AcDbLine
 10
104449.2208618152
 20
95265.18729698643
 30
0.0
 11
104449.2242751504
 21
95265.18247936298
 31
0.0
  0
LINE
  5
5F9AD
330
1F
100
AcDbEntity
  8
freecads.com
100
AcDbLine
 10
104449.2242751504
 20
95265.18247936298
 30
0.0
 11
104449.2279133869
 21
95265.17742392519
 31
0.0
  0
LINE
  5
5F9AE
330
1F
100
AcDbEntity
  8
freecads.com
100
AcDbLine
 10
104449.2279133869
 20
95265.17742392519
 30
0.0
 11
104449.2317776009
 21
95265.17213282524
 31
0.0
  0
LINE
  5
5F9AF
330
1F
100
AcDbEntity
  8
freecads.com
100
AcDbLine
 10
104449.2317776009
 20
95265.17213282524
 30
0.0
 11
104449.2358667161
 21
95265.1666060631
 31
0.0
  0
LINE
  5
5F9B0
330
1F
100
AcDbEntity
  8
freecads.com
100
AcDbLine
 10
104449.2358667161
 20
95265.1666060631
 30
0.0
 11
104449.2401818089
 21
95265.1608436388
 31
0.0
  0
LINE
  5
5F9B1
330
1F
100
AcDbEntity
  8
freecads.com
100
AcDbLine
 10
104449.2401818089
 20
95265.1608436388
 30
0.0
 11
104449.244722879
 21
95265.15484662841
 31
0.0
  0
LINE
  5
5F9B2
330
1F
100
AcDbEntity
  8
freecads.com
100
AcDbLine
 10
104449.244722879
 20
95265.15484662841
 30
0.0
 11
104449.2494888505
 21
95265.14861503194
 31
0.0
  0
LINE
  5
5F9B3
330
1F
100
AcDbEntity
  8
freecads.com
100
AcDbLine
 10
104449.2494888505
 20
95265.14861503194
 30
0.0
 11
104449.2544807993
 21
95265.1421477733
 31
0.0
  0
LINE
  5
5F9B4
330
1F
100
AcDbEntity
  8
freecads.com
100
AcDbLine
 10
104449.2544807993
 20
95265.1421477733
 30
0.0
 11
104449.2596987257
 21
95265.13544700465
 31
0.0
  0
LINE
  5
5F9B5
330
1F
100
AcDbEntity
  8
freecads.com
100
AcDbLine
 10
104449.2596987257
 20
95265.13544700465
 30
0.0
 11
104449.2651415533
 21
95265.12851272599
 31
0.0
  0
LINE
  5
5F9B6
330
1F
100
AcDbEntity
  8
freecads.com
100
AcDbLine
 10
104449.2651415533
 20
95265.12851272599
 30
0.0
 11
104449.2708103584
 21
95265.12134493733
 31
0.0
  0
LINE
  5
5F9B7
330
1F
100
AcDbEntity
  8
freecads.com
100
AcDbLine
 10
104449.2708103584
 20
95265.12134493733
 30
0.0
 11
104449.2767040648
 21
95265.11394363867
 31
0.0
  0
LINE
  5
5F9B8
330
1F
100
AcDbEntity
  8
freecads.com
100
AcDbLine
 10
104449.2767040648
 20
95265.11394363867
 30
0.0
 11
104449.2828237487
 21
95265.10630990609
 31
0.0
  0
LINE
  5
5F9B9
330
1F
100
AcDbEntity
  8
freecads.com
100
AcDbLine
 10
104449.2828237487
 20
95265.10630990609
 30
0.0
 11
104449.2891683338
 21
95265.0984426635
 31
0.0
  0
LINE
  5
5F9BA
330
1F
100
AcDbEntity
  8
freecads.com
100
AcDbLine
 10
104449.2891683338
 20
95265.0984426635
 30
0.0
 11
104449.2957388965
 21
95265.09034406307
 31
0.0
  0
LINE
  5
5F9BB
330
1F
100
AcDbEntity
  8
freecads.com
100
AcDbLine
 10
104449.2957388965
 20
95265.09034406307
 30
0.0
 11
104449.3025354365
 21
95265.0820141048
 31
0.0
  0
LINE
  5
5F9BC
330
1F
100
AcDbEntity
  8
freecads.com
100
AcDbLine
 10
104449.3025354365
 20
95265.0820141048
 30
0.0
 11
104449.3095568779
 21
95265.07345171262
 31
0.0
  0
LINE
  5
5F9BD
330
1F
100
AcDbEntity
  8
freecads.com
100
AcDbLine
 10
104449.3095568779
 20
95265.07345171262
 30
0.0
 11
104449.3168042967
 21
95265.06465903869
 31
0.0
  0
LINE
  5
5F9BE
330
1F
100
AcDbEntity
  8
freecads.com
100
AcDbLine
 10
104449.3168042967
 20
95265.06465903869
 30
0.0
 11
104449.3242776929
 21
95265.05563500691
 31
0.0
  0
LINE
  5
5F9BF
330
1F
100
AcDbEntity
  8
freecads.com
100
AcDbLine
 10
104449.3242776929
 20
95265.05563500691
 30
0.0
 11
104449.3319759904
 21
95265.04638069337
 31
0.0
  0
LINE
  5
5F9C0
330
1F
100
AcDbEntity
  8
freecads.com
100
AcDbLine
 10
104449.3319759904
 20
95265.04638069337
 30
0.0
 11
104449.3399002654
 21
95265.03689609809
 31
0.0
  0
LINE
  5
5F9C1
330
1F
100
AcDbEntity
  8
freecads.com
100
AcDbLine
 10
104449.3399002654
 20
95265.03689609809
 30
0.0
 11
104449.3480494418
 21
95265.02718122102
 31
0.0
  0
LINE
  5
5F9C2
330
1F
100
AcDbEntity
  8
freecads.com
100
AcDbLine
 10
104449.3480494418
 20
95265.02718122102
 30
0.0
 11
104449.3480494418
 21
95265.02718122102
 31
0.0
  0
LINE
  5
5F9C3
330
1F
100
AcDbEntity
  8
freecads.com
100
AcDbLine
 10
104449.3480494418
 20
95265.02718122102
 30
0.0
 11
104449.3557907826
 21
95265.01749755039
 31
0.0
  0
LINE
  5
5F9C4
330
1F
100
AcDbEntity
  8
freecads.com
100
AcDbLine
 10
104449.3557907826
 20
95265.01749755039
 30
0.0
 11
104449.3633061461
 21
95265.0079817487
 31
0.0
  0
LINE
  5
5F9C5
330
1F
100
AcDbEntity
  8
freecads.com
100
AcDbLine
 10
104449.3633061461
 20
95265.0079817487
 30
0.0
 11
104449.37059338
 21
95264.99863596811
 31
0.0
  0
LINE
  5
5F9C6
330
1F
100
AcDbEntity
  8
freecads.com
100
AcDbLine
 10
104449.37059338
 20
95264.99863596811
 30
0.0
 11
104449.3776535603
 21
95264.98945805647
 31
0.0
  0
LINE
  5
5F9C7
330
1F
100
AcDbEntity
  8
freecads.com
100
AcDbLine
 10
104449.3776535603
 20
95264.98945805647
 30
0.0
 11
104449.3844866872
 21
95264.98045016593
 31
0.0
  0
LINE
  5
5F9C8
330
1F
100
AcDbEntity
  8
freecads.com
100
AcDbLine
 10
104449.3844866872
 20
95264.98045016593
 30
0.0
 11
104449.3910906084
 21
95264.97161014434
 31
0.0
  0
LINE
  5
5F9C9
330
1F
100
AcDbEntity
  8
freecads.com
100
AcDbLine
 10
104449.3910906084
 20
95264.97161014434
 30
0.0
 11
104449.397467476
 21
95264.96294014386
 31
0.0
  0
LINE
  5
5F9CA
330
1F
100
AcDbEntity
  8
freecads.com
100
AcDbLine
 10
104449.397467476
 20
95264.96294014386
 30
0.0
 11
104449.4036162141
 21
95264.9544390884
 31
0.0
  0
LINE
  5
5F9CB
330
1F
100
AcDbEntity
  8
freecads.com
100
AcDbLine
 10
104449.4036162141
 20
95264.9544390884
 30
0.0
 11
104449.4095368226
 21
95264.94610805405
 31
0.0
  0
LINE
  5
5F9CC
330
1F
100
AcDbEntity
  8
freecads.com
100
AcDbLine
 10
104449.4095368226
 20
95264.94610805405
 30
0.0
 11
104449.4152282254
 21
95264.93794596474
 31
0.0
  0
LINE
  5
5F9CD
330
1F
100
AcDbEntity
  8
freecads.com
100
AcDbLine
 10
104449.4152282254
 20
95264.93794596474
 30
0.0
 11
104449.4206914987
 21
95264.92995389652
 31
0.0
  0
LINE
  5
5F9CE
330
1F
100
AcDbEntity
  8
freecads.com
100
AcDbLine
 10
104449.4206914987
 20
95264.92995389652
 30
0.0
 11
104449.4259244902
 21
95264.92213184942
 31
0.0
  0
LINE
  5
5F9CF
330
1F
100
AcDbEntity
  8
freecads.com
100
AcDbLine
 10
104449.4259244902
 20
95264.92213184942
 30
0.0
 11
104449.430929352
 21
95264.91447874734
 31
0.0
  0
LINE
  5
5F9D0
330
1F
100
AcDbEntity
  8
freecads.com
100
AcDbLine
 10
104449.430929352
 20
95264.91447874734
 30
0.0
 11
104449.4357039322
 21
95264.90699674246
 31
0.0
  0
LINE
  5
5F9D1
330
1F
100
AcDbEntity
  8
freecads.com
100
AcDbLine
 10
104449.4357039322
 20
95264.90699674246
 30
0.0
 11
104449.4402493066
 21
95264.8996836826
 31
0.0
  0
LINE
  5
5F9D2
330
1F
100
AcDbEntity
  8
freecads.com
100
AcDbLine
 10
104449.4402493066
 20
95264.8996836826
 30
0.0
 11
104449.4445654754
 21
95264.89254171993
 31
0.0
  0
LINE
  5
5F9D3
330
1F
100
AcDbEntity
  8
freecads.com
100
AcDbLine
 10
104449.4445654754
 20
95264.89254171993
 30
0.0
 11
104449.4486502864
 21
95264.88556977838
 31
0.0
  0
LINE
  5
5F9D4
330
1F
100
AcDbEntity
  8
freecads.com
100
AcDbLine
 10
104449.4486502864
 20
95264.88556977838
 30
0.0
 11
104449.4525058917
 21
95264.87876785793
 31
0.0
  0
LINE
  5
5F9D5
330
1F
100
AcDbEntity
  8
freecads.com
100
AcDbLine
 10
104449.4525058917
 20
95264.87876785793
 30
0.0
 11
104449.4561301391
 21
95264.87213703468
 31
0.0
  0
LINE
  5
5F9D6
330
1F
100
AcDbEntity
  8
freecads.com
100
AcDbLine
 10
104449.4561301391
 20
95264.87213703468
 30
0.0
 11
104449.4595241048
 21
95264.86567623253
 31
0.0
  0
LINE
  5
5F9D7
330
1F
100
AcDbEntity
  8
freecads.com
100
AcDbLine
 10
104449.4595241048
 20
95264.86567623253
 30
0.0
 11
104449.4626867126
 21
95264.85938652756
 31
0.0
  0
LINE
  5
5F9D8
330
1F
100
AcDbEntity
  8
freecads.com
100
AcDbLine
 10
104449.4626867126
 20
95264.85938652756
 30
0.0
 11
104449.4656190387
 21
95264.85326684372
 31
0.0
  0
LINE
  5
5F9D9
330
1F
100
AcDbEntity
  8
freecads.com
100
AcDbLine
 10
104449.4656190387
 20
95264.85326684372
 30
0.0
 11
104449.468320007
 21
95264.84731933315
 31
0.0
  0
LINE
  5
5F9DA
330
1F
100
AcDbEntity
  8
freecads.com
100
AcDbLine
 10
104449.468320007
 20
95264.84731933315
 30
0.0
 11
104449.4707885413
 21
95264.8415418437
 31
0.0
  0
LINE
  5
5F9DB
330
1F
100
AcDbEntity
  8
freecads.com
100
AcDbLine
 10
104449.4707885413
 20
95264.8415418437
 30
0.0
 11
104449.4730257178
 21
95264.83593545142
 31
0.0
  0
LINE
  5
5F9DC
330
1F
100
AcDbEntity
  8
freecads.com
100
AcDbLine
 10
104449.4730257178
 20
95264.83593545142
 30
0.0
 11
104449.4750304604
 21
95264.83050123243
 31
0.0
  0
LINE
  5
5F9DD
330
1F
100
AcDbEntity
  8
freecads.com
100
AcDbLine
 10
104449.4750304604
 20
95264.83050123243
 30
0.0
 11
104449.4768038451
 21
95264.82523703455
 31
0.0
  0
LINE
  5
5F9DE
330
1F
100
AcDbEntity
  8
freecads.com
100
AcDbLine
 10
104449.4768038451
 20
95264.82523703455
 30
0.0
 11
104449.4783447959
 21
95264.82014500993
 31
0.0
  0
LINE
  5
5F9DF
330
1F
100
AcDbEntity
  8
freecads.com
100
AcDbLine
 10
104449.4783447959
 20
95264.82014500993
 30
0.0
 11
104449.4783447959
 21
95264.82014500993
 31
0.0
  0
LINE
  5
5F9E0
330
1F
100
AcDbEntity
  8
freecads.com
100
AcDbLine
 10
104449.4783447959
 20
95264.82014500993
 30
0.0
 11
104449.4806239396
 21
95264.81142658571
 31
0.0
  0
LINE
  5
5F9E1
330
1F
100
AcDbEntity
  8
freecads.com
100
AcDbLine
 10
104449.4806239396
 20
95264.81142658571
 30
0.0
 11
104449.4827266058
 21
95264.80262853135
 31
0.0
  0
LINE
  5
5F9E2
330
1F
100
AcDbEntity
  8
freecads.com
100
AcDbLine
 10
104449.4827266058
 20
95264.80262853135
 30
0.0
 11
104449.4846517182
 21
95264.79375407511
 31
0.0
  0
LINE
  5
5F9E3
330
1F
100
AcDbEntity
  8
freecads.com
100
AcDbLine
 10
104449.4846517182
 20
95264.79375407511
 30
0.0
 11
104449.4863992769
 21
95264.78480536914
 31
0.0
  0
LINE
  5
5F9E4
330
1F
100
AcDbEntity
  8
freecads.com
100
AcDbLine
 10
104449.4863992769
 20
95264.78480536914
 30
0.0
 11
104449.4879671298
 21
95264.77578348954
 31
0.0
  0
LINE
  5
5F9E5
330
1F
100
AcDbEntity
  8
freecads.com
100
AcDbLine
 10
104449.4879671298
 20
95264.77578348954
 30
0.0
 11
104449.4893542008
 21
95264.76669166452
 31
0.0
  0
LINE
  5
5F9E6
330
1F
100
AcDbEntity
  8
freecads.com
100
AcDbLine
 10
104449.4893542008
 20
95264.76669166452
 30
0.0
 11
104449.4905594137
 21
95264.7575309702
 31
0.0
  0
LINE
  5
5F9E7
330
1F
100
AcDbEntity
  8
freecads.com
100
AcDbLine
 10
104449.4905594137
 20
95264.7575309702
 30
0.0
 11
104449.4915827686
 21
95264.74830355873
 31
0.0
  0
LINE
  5
5F9E8
330
1F
100
AcDbEntity
  8
freecads.com
100
AcDbLine
 10
104449.4915827686
 20
95264.74830355873
 30
0.0
 11
104449.4924221133
 21
95264.73901265839
 31
0.0
  0
LINE
  5
5F9E9
330
1F
100
AcDbEntity
  8
freecads.com
100
AcDbLine
 10
104449.4924221133
 20
95264.73901265839
 30
0.0
 11
104449.4930774479
 21
95264.72965934521
 31
0.0
  0
LINE
  5
5F9EA
330
1F
100
AcDbEntity
  8
freecads.com
100
AcDbLine
 10
104449.4930774479
 20
95264.72965934521
 30
0.0
 11
104449.4935455439
 21
95264.7202457714
 31
0.0
  0
LINE
  5
5F9EB
330
1F
100
AcDbEntity
  8
freecads.com
100
AcDbLine
 10
104449.4935455439
 20
95264.7202457714
 30
0.0
 11
104449.4938285538
 21
95264.71077408912
 31
0.0
  0
LINE
  5
5F9EC
330
1F
100
AcDbEntity
  8
freecads.com
100
AcDbLine
 10
104449.4938285538
 20
95264.71077408912
 30
0.0
 11
104449.493922173
 21
95264.70124645049
 31
0.0
  0
LINE
  5
5F9ED
330
1F
100
AcDbEntity
  8
freecads.com
100
AcDbLine
 10
104449.493922173
 20
95264.70124645049
 30
0.0
 11
104449.4935971959
 21
95264.69174894222
 31
0.0
  0
LINE
  5
5F9EE
330
1F
100
AcDbEntity
  8
freecads.com
100
AcDbLine
 10
104449.4935971959
 20
95264.69174894222
 30
0.0
 11
104449.4933841315
 21
95264.68224820566
 31
0.0
  0
LINE
  5
5F9EF
330
1F
100
AcDbEntity
  8
freecads.com
100
AcDbLine
 10
104449.4933841315
 20
95264.68224820566
 30
0.0
 11
104449.4932808275
 21
95264.67274316482
 31
0.0
  0
LINE
  5
5F9F0
330
1F
100
AcDbEntity
  8
freecads.com
100
AcDbLine
 10
104449.4932808275
 20
95264.67274316482
 30
0.0
 11
104449.4932883601
 21
95264.66322951527
 31
0.0
  0
LINE
  5
5F9F1
330
1F
100
AcDbEntity
  8
freecads.com
100
AcDbLine
 10
104449.4932883601
 20
95264.66322951527
 30
0.0
 11
104449.4934067292
 21
95264.65370510493
 31
0.0
  0
LINE
  5
5F9F2
330
1F
100
AcDbEntity
  8
freecads.com
100
AcDbLine
 10
104449.4934067292
 20
95264.65370510493
 30
0.0
 11
104449.4936359349
 21
95264.64416885765
 31
0.0
  0
LINE
  5
5F9F3
330
1F
100
AcDbEntity
  8
freecads.com
100
AcDbLine
 10
104449.4936359349
 20
95264.64416885765
 30
0.0
 11
104449.4939770532
 21
95264.63461539306
 31
0.0
  0
LINE
  5
5F9F4
330
1F
100
AcDbEntity
  8
freecads.com
100
AcDbLine
 10
104449.4939770532
 20
95264.63461539306
 30
0.0
 11
104449.494427932
 21
95264.62504363504
 31
0.0
  0
LINE
  5
5F9F5
330
1F
100
AcDbEntity
  8
freecads.com
100
AcDbLine
 10
104449.494427932
 20
95264.62504363504
 30
0.0
 11
104449.4949896473
 21
95264.61545143146
 31
0.0
  0
LINE
  5
5F9F6
330
1F
100
AcDbEntity
  8
freecads.com
100
AcDbLine
 10
104449.4949896473
 20
95264.61545143146
 30
0.0
 11
104449.4956632752
 21
95264.60583555405
 31
0.0
  0
LINE
  5
5F9F7
330
1F
100
AcDbEntity
  8
freecads.com
100
AcDbLine
 10
104449.4956632752
 20
95264.60583555405
 30
0.0
 11
104449.4964466636
 21
95264.59619277455
 31
0.0
  0
LINE
  5
5F9F8
330
1F
100
AcDbEntity
  8
freecads.com
100
AcDbLine
 10
104449.4964466636
 20
95264.59619277455
 30
0.0
 11
104449.4973408886
 21
95264.58652094083
 31
0.0
  0
ENDSEC
  0
SECTION
  2
OBJECTS
  0
DICTIONARY
  5
C
330
0
100
AcDbDictionary
281
     1
  3
ACAD_ASSOCPERSSUBENTMANAGER
350
2C1D4
  3
ACAD_CIP_PREVIOUS_PRODUCT_INFO
350
1A5
  3
ACAD_COLOR
350
73
  3
ACAD_DETAILVIEWSTYLE
350
1AB
  3
ACAD_GROUP
350
D
  3
ACAD_LAYOUT
350
1A
  3
ACAD_MATERIAL
350
72
  3
ACAD_MLEADERSTYLE
350
D7
  3
ACAD_MLINESTYLE
350
17
  3
ACAD_PLOTSETTINGS
350
19
  3
ACAD_PLOTSTYLENAME
350
E
  3
ACAD_SCALELIST
350
B6
  3
ACAD_SECTIONVIEWSTYLE
350
1A8
  3
ACAD_TABLESTYLE
350
86
  3
ACAD_VISUALSTYLE
350
99
  3
ACDB_RECOMPOSE_DATA
350
6B281
  3
ACDBVARIABLEDICTIONARY
350
4A0D5
  3
AEC_PROPERTY_SET_DEFS
350
22D1
  0
DICTIONARY
  5
18E
330
2
100
AcDbDictionary
280
     1
281
     1
  3
ACAD_LAYERSTATES
360
18F
  0
DICTIONARY
  5
E6
330
10
100
AcDbDictionary
280
     1
281
     1
  0
DICTIONARY
  5
15D
330
1F
100
AcDbDictionary
280
     1
281
     1
  3
ACAD_SORTENTS
360
28E
  0
ACDBASSOCPERSSUBENTMANAGER
  5
2C1D4
102
{ACAD_REACTORS
330
C
102
}
330
C
100
AcDbAssocPersSubentManager
 90
        2
 90
        3
 90
        0
 90
        2
 90
     1260
 90
        0
 90
     1260
 90
        1
 90
        2
 90
        3
 90
        4
 90
        5
 90
        6
 90
        7
 90
        8
 90
        9
 90
       10
 90
       11
 90
       12
 90
       13
 90
       14
 90
       15
 90
       16
 90
       17
 90
       18
 90
       19
 90
       20
 90
       21
 90
       22
 90
       23
 90
       24
 90
       25
 90
       26
 90
       27
 90
       28
 90
       29
 90
       30
 90
       31
 90
       32
 90
       33
 90
       34
 90
       35
 90
       36
 90
       37
 90
       38
 90
       39
 90
       40
 90
       41
 90
       42
 90
       43
 90
       44
 90
       45
 90
       46
 90
       47
 90
       48
 90
       49
 90
       50
 90
       51
 90
       52
 90
       53
 90
       54
 90
       55
 90
       56
 90
       57
 90
       58
 90
       59
 90
       60
 90
       61
 90
       62
 90
       63
 90
       64
 90
       65
 90
       66
 90
       67
 90
       68
 90
       69
 90
       70
 90
       71
 90
       72
 90
       73
 90
       74
 90
       75
 90
       76
 90
       77
 90
       78
 90
       79
 90
       80
 90
       81
 90
       82
 90
       83
 90
       84
 90
       85
 90
       86
 90
       87
 90
       88
 90
       89
 90
       90
 90
       91
 90
       92
 90
       93
 90
       94
 90
       95
 90
       96
 90
       97
 90
       98
 90
       99
 90
      100
 90
      101
 90
      102
 90
      103
 90
      104
 90
      105
 90
      106
 90
      107
 90
      108
 90
      109
 90
      110
 90
      111
 90
      112
 90
      113
 90
      114
 90
      115
 90
      116
 90
      117
 90
      118
 90
      119
 90
      120
 90
      121
 90
      122
 90
      123
 90
      124
 90
      125
 90
      126
 90
      127
 90
      128
 90
      129
 90
      130
 90
      131
 90
      132
 90
      133
 90
      134
 90
      135
 90
      136
 90
      137
 90
      138
 90
      139
 90
      140
 90
      141
 90
      142
 90
      143
 90
      144
 90
      145
 90
      146
 90
      147
 90
      148
 90
      149
 90
      150
 90
      151
 90
      152
 90
      153
 90
      154
 90
      155
 90
      156
 90
      157
 90
      158
 90
      159
 90
      160
 90
      161
 90
      162
 90
      163
 90
      164
 90
      165
 90
      166
 90
      167
 90
      168
 90
      169
 90
      170
 90
      171
 90
      172
 90
      173
 90
      174
 90
      175
 90
      176
 90
      177
 90
      178
 90
      179
 90
      180
 90
      181
 90
      182
 90
      183
 90
      184
 90
      185
 90
      186
 90
      187
 90
      188
 90
      189
 90
      190
 90
      191
 90
      192
 90
      193
 90
      194
 90
      195
 90
      196
 90
      197
 90
      198
 90
      199
 90
      200
 90
      201
 90
      202
 90
      203
 90
      204
 90
      205
 90
      206
 90
      207
 90
      208
 90
      209
 90
      210
 90
      211
 90
      212
 90
      213
 90
      214
 90
      215
 90
      216
 90
      217
 90
      218
 90
      219
 90
      220
 90
      221
 90
      222
 90
      223
 90
      224
 90
      225
 90
      226
 90
      227
 90
      228
 90
      229
 90
      230
 90
      231
 90
      232
 90
      233
 90
      234
 90
      235
 90
      236
 90
      237
 90
      238
 90
      239
 90
      240
 90
      241
 90
      242
 90
      243
 90
      244
 90
      245
 90
      246
 90
      247
 90
      248
 90
      249
 90
      250
 90
      251
 90
      252
 90
      253
 90
      254
 90
      255
 90
      256
 90
      257
 90
      258
 90
      259
 90
      260
 90
      261
 90
      262
 90
      263
 90
      264
 90
      265
 90
      266
 90
      267
 90
      268
 90
      269
 90
      270
 90
      271
 90
      272
 90
      273
 90
      274
 90
      275
 90
      276
 90
      277
 90
      278
 90
      279
 90
      280
 90
      281
 90
      282
 90
      283
 90
      284
 90
      285
 90
      286
 90
      287
 90
      288
 90
      289
 90
      290
 90
      291
 90
      292
 90
      293
 90
      294
 90
      295
 90
      296
 90
      297
 90
      298
 90
      299
 90
      300
 90
      301
 90
      302
 90
      303
 90
      304
 90
      305
 90
      306
 90
      307
 90
      308
 90
      309
 90
      310
 90
      311
 90
      312
 90
      313
 90
      314
 90
      315
 90
      316
 90
      317
 90
      318
 90
      319
 90
      320
 90
      321
 90
      322
 90
      323
 90
      324
 90
      325
 90
      326
 90
      327
 90
      328
 90
      329
 90
      330
 90
      331
 90
      332
 90
      333
 90
      334
 90
      335
 90
      336
 90
      337
 90
      338
 90
      339
 90
      340
 90
      341
 90
      342
 90
      343
 90
      344
 90
      345
 90
      346
 90
      347
 90
      348
 90
      349
 90
      350
 90
      351
 90
      352
 90
      353
 90
      354
 90
      355
 90
      356
 90
      357
 90
      358
 90
      359
 90
      360
 90
      361
 90
      362
 90
      363
 90
      364
 90
      365
 90
      366
 90
      367
 90
      368
 90
      369
 90
      370
 90
      371
 90
      372
 90
      373
 90
      374
 90
      375
 90
      376
 90
      377
 90
      378
 90
      379
 90
      380
 90
      381
 90
      382
 90
      383
 90
      384
 90
      385
 90
      386
 90
      387
 90
      388
 90
      389
 90
      390
 90
      391
 90
      392
 90
      393
 90
      394
 90
      395
 90
      396
 90
      397
 90
      398
 90
      399
 90
      400
 90
      401
 90
      402
 90
      403
 90
      404
 90
      405
 90
      406
 90
      407
 90
      408
 90
      409
 90
      410
 90
      411
 90
      412
 90
      413
 90
      414
 90
      415
 90
      416
 90
      417
 90
      418
 90
      419
 90
      420
 90
      421
 90
      422
 90
      423
 90
      424
 90
      425
 90
      426
 90
      427
 90
      428
 90
      429
 90
      430
 90
      431
 90
      432
 90
      433
 90
      434
 90
      435
 90
      436
 90
      437
 90
      438
 90
      439
 90
      440
 90
      441
 90
      442
 90
      443
 90
      444
 90
      445
 90
      446
 90
      447
 90
      448
 90
      449
 90
      450
 90
      451
 90
      452
 90
      453
 90
      454
 90
      455
 90
      456
 90
      457
 90
      458
 90
      459
 90
      460
 90
      461
 90
      462
 90
      463
 90
      464
 90
      465
 90
      466
 90
      467
 90
      468
 90
      469
 90
      470
 90
      471
 90
      472
 90
      473
 90
      474
 90
      475
 90
      476
 90
      477
 90
      478
 90
      479
 90
      480
 90
      481
 90
      482
 90
      483
 90
      484
 90
      485
 90
      486
 90
      487
 90
      488
 90
      489
 90
      490
 90
      491
 90
      492
 90
      493
 90
      494
 90
      495
 90
      496
 90
      497
 90
      498
 90
      499
 90
      500
 90
      501
 90
      502
 90
      503
 90
      504
 90
      505
 90
      506
 90
      507
 90
      508
 90
      509
 90
      510
 90
      511
 90
      512
 90
      513
 90
      514
 90
      515
 90
      516
 90
      517
 90
      518
 90
      519
 90
      520
 90
      521
 90
      522
 90
      523
 90
      524
 90
      525
 90
      526
 90
      527
 90
      528
 90
      529
 90
      530
 90
      531
 90
      532
 90
      533
 90
      534
 90
      535
 90
      536
 90
      537
 90
      538
 90
      539
 90
      540
 90
      541
 90
      542
 90
      543
 90
      544
 90
      545
 90
      546
 90
      547
 90
      548
 90
      549
 90
      550
 90
      551
 90
      552
 90
      553
 90
      554
 90
      555
 90
      556
 90
      557
 90
      558
 90
      559
 90
      560
 90
      561
 90
      562
 90
      563
 90
      564
 90
      565
 90
      566
 90
      567
 90
      568
 90
      569
 90
      570
 90
      571
 90
      572
 90
      573
 90
      574
 90
      575
 90
      576
 90
      577
 90
      578
 90
      579
 90
      580
 90
      581
 90
      582
 90
      583
 90
      584
 90
      585
 90
      586
 90
      587
 90
      588
 90
      589
 90
      590
 90
      591
 90
      592
 90
      593
 90
      594
 90
      595
 90
      596
 90
      597
 90
      598
 90
      599
 90
      600
 90
      601
 90
      602
 90
      603
 90
      604
 90
      605
 90
      606
 90
      607
 90
      608
 90
      609
 90
      610
 90
      611
 90
      612
 90
      613
 90
      614
 90
      615
 90
      616
 90
      617
 90
      618
 90
      619
 90
      620
 90
      621
 90
      622
 90
      623
 90
      624
 90
      625
 90
      626
 90
      627
 90
      628
 90
      629
 90
      630
 90
      631
 90
      632
 90
      633
 90
      634
 90
      635
 90
      636
 90
      637
 90
      638
 90
      639
 90
      640
 90
      641
 90
      642
 90
      643
 90
      644
 90
      645
 90
      646
 90
      647
 90
      648
 90
      649
 90
      650
 90
      651
 90
      652
 90
      653
 90
      654
 90
      655
 90
      656
 90
      657
 90
      658
 90
      659
 90
      660
 90
      661
 90
      662
 90
      663
 90
      664
 90
      665
 90
      666
 90
      667
 90
      668
 90
      669
 90
      670
 90
      671
 90
      672
 90
      673
 90
      674
 90
      675
 90
      676
 90
      677
 90
      678
 90
      679
 90
      680
 90
      681
 90
      682
 90
      683
 90
      684
 90
      685
 90
      686
 90
      687
 90
      688
 90
      689
 90
      690
 90
      691
 90
      692
 90
      693
 90
      694
 90
      695
 90
      696
 90
      697
 90
      698
 90
      699
 90
      700
 90
      701
 90
      702
 90
      703
 90
      704
 90
      705
 90
      706
 90
      707
 90
      708
 90
      709
 90
      710
 90
      711
 90
      712
 90
      713
 90
      714
 90
      715
 90
      716
 90
      717
 90
      718
 90
      719
 90
      720
 90
      721
 90
      722
 90
      723
 90
      724
 90
      725
 90
      726
 90
      727
 90
      728
 90
      729
 90
      730
 90
      731
 90
      732
 90
      733
 90
      734
 90
      735
 90
      736
 90
      737
 90
      738
 90
      739
 90
      740
 90
      741
 90
      742
 90
      743
 90
      744
 90
      745
 90
      746
 90
      747
 90
      748
 90
      749
 90
      750
 90
      751
 90
      752
 90
      753
 90
      754
 90
      755
 90
      756
 90
      757
 90
      758
 90
      759
 90
      760
 90
      761
 90
      762
 90
      763
 90
      764
 90
      765
 90
      766
 90
      767
 90
      768
 90
      769
 90
      770
 90
      771
 90
      772
 90
      773
 90
      774
 90
      775
 90
      776
 90
      777
 90
      778
 90
      779
 90
      780
 90
      781
 90
      782
 90
      783
 90
      784
 90
      785
 90
      786
 90
      787
 90
      788
 90
      789
 90
      790
 90
      791
 90
      792
 90
      793
 90
      794
 90
      795
 90
      796
 90
      797
 90
      798
 90
      799
 90
      800
 90
      801
 90
      802
 90
      803
 90
      804
 90
      805
 90
      806
 90
      807
 90
      808
 90
      809
 90
      810
 90
      811
 90
      812
 90
      813
 90
      814
 90
      815
 90
      816
 90
      817
 90
      818
 90
      819
 90
      820
 90
      821
 90
      822
 90
      823
 90
      824
 90
      825
 90
      826
 90
      827
 90
      828
 90
      829
 90
      830
 90
      831
 90
      832
 90
      833
 90
      834
 90
      835
 90
      836
 90
      837
 90
      838
 90
      839
 90
      840
 90
      841
 90
      842
 90
      843
 90
      844
 90
      845
 90
      846
 90
      847
 90
      848
 90
      849
 90
      850
 90
      851
 90
      852
 90
      853
 90
      854
 90
      855
 90
      856
 90
      857
 90
      858
 90
      859
 90
      860
 90
      861
 90
      862
 90
      863
 90
      864
 90
      865
 90
      866
 90
      867
 90
      868
 90
      869
 90
      870
 90
      871
 90
      872
 90
      873
 90
      874
 90
      875
 90
      876
 90
      877
 90
      878
 90
      879
 90
      880
 90
      881
 90
      882
 90
      883
 90
      884
 90
      885
 90
      886
 90
      887
 90
      888
 90
      889
 90
      890
 90
      891
 90
      892
 90
      893
 90
      894
 90
      895
 90
      896
 90
      897
 90
      898
 90
      899
 90
      900
 90
      901
 90
      902
 90
      903
 90
      904
 90
      905
 90
      906
 90
      907
 90
      908
 90
      909
 90
      910
 90
      911
 90
      912
 90
      913
 90
      914
 90
      915
 90
      916
 90
      917
 90
      918
 90
      919
 90
      920
 90
      921
 90
      922
 90
      923
 90
      924
 90
      925
 90
      926
 90
      927
 90
      928
 90
      929
 90
      930
 90
      931
 90
      932
 90
      933
 90
      934
 90
      935
 90
      936
 90
      937
 90
      938
 90
      939
 90
      940
 90
      941
 90
      942
 90
      943
 90
      944
 90
      945
 90
      946
 90
      947
 90
      948
 90
      949
 90
      950
 90
      951
 90
      952
 90
      953
 90
      954
 90
      955
 90
      956
 90
      957
 90
      958
 90
      959
 90
      960
 90
      961
 90
      962
 90
      963
 90
      964
 90
      965
 90
      966
 90
      967
 90
      968
 90
      969
 90
      970
 90
      971
 90
      972
 90
      973
 90
      974
 90
      975
 90
      976
 90
      977
 90
      978
 90
      979
 90
      980
 90
      981
 90
      982
 90
      983
 90
      984
 90
      985
 90
      986
 90
      987
 90
      988
 90
      989
 90
      990
 90
      991
 90
      992
 90
      993
 90
      994
 90
      995
 90
      996
 90
      997
 90
      998
 90
      999
 90
     1000
 90
     1001
 90
     1002
 90
     1003
 90
     1004
 90
     1005
 90
     1006
 90
     1007
 90
     1008
 90
     1009
 90
     1010
 90
     1011
 90
     1012
 90
     1013
 90
     1014
 90
     1015
 90
     1016
 90
     1017
 90
     1018
 90
     1019
 90
     1020
 90
     1021
 90
     1022
 90
     1023
 90
     1024
 90
     1025
 90
     1026
 90
     1027
 90
     1028
 90
     1029
 90
     1030
 90
     1031
 90
     1032
 90
     1033
 90
     1034
 90
     1035
 90
     1036
 90
     1037
 90
     1038
 90
     1039
 90
     1040
 90
     1041
 90
     1042
 90
     1043
 90
     1044
 90
     1045
 90
     1046
 90
     1047
 90
     1048
 90
     1049
 90
     1050
 90
     1051
 90
     1052
 90
     1053
 90
     1054
 90
     1055
 90
     1056
 90
     1057
 90
     1058
 90
     1059
 90
     1060
 90
     1061
 90
     1062
 90
     1063
 90
     1064
 90
     1065
 90
     1066
 90
     1067
 90
     1068
 90
     1069
 90
     1070
 90
     1071
 90
     1072
 90
     1073
 90
     1074
 90
     1075
 90
     1076
 90
     1077
 90
     1078
 90
     1079
 90
     1080
 90
     1081
 90
     1082
 90
     1083
 90
     1084
 90
     1085
 90
     1086
 90
     1087
 90
     1088
 90
     1089
 90
     1090
 90
     1091
 90
     1092
 90
     1093
 90
     1094
 90
     1095
 90
     1096
 90
     1097
 90
     1098
 90
     1099
 90
     1100
 90
     1101
 90
     1102
 90
     1103
 90
     1104
 90
     1105
 90
     1106
 90
     1107
 90
     1108
 90
     1109
 90
     1110
 90
     1111
 90
     1112
 90
     1113
 90
     1114
 90
     1115
 90
     1116
 90
     1117
 90
     1118
 90
     1119
 90
     1120
 90
     1121
 90
     1122
 90
     1123
 90
     1124
 90
     1125
 90
     1126
 90
     1127
 90
     1128
 90
     1129
 90
     1130
 90
     1131
 90
     1132
 90
     1133
 90
     1134
 90
     1135
 90
     1136
 90
     1137
 90
     1138
 90
     1139
 90
     1140
 90
     1141
 90
     1142
 90
     1143
 90
     1144
 90
     1145
 90
     1146
 90
     1147
 90
     1148
 90
     1149
 90
     1150
 90
     1151
 90
     1152
 90
     1153
 90
     1154
 90
     1155
 90
     1156
 90
     1157
 90
     1158
 90
     1159
 90
     1160
 90
     1161
 90
     1162
 90
     1163
 90
     1164
 90
     1165
 90
     1166
 90
     1167
 90
     1168
 90
     1169
 90
     1170
 90
     1171
 90
     1172
 90
     1173
 90
     1174
 90
     1175
 90
     1176
 90
     1177
 90
     1178
 90
     1179
 90
     1180
 90
     1181
 90
     1182
 90
     1183
 90
     1184
 90
     1185
 90
     1186
 90
     1187
 90
     1188
 90
     1189
 90
     1190
 90
     1191
 90
     1192
 90
     1193
 90
     1194
 90
     1195
 90
     1196
 90
     1197
 90
     1198
 90
     1199
 90
     1200
 90
     1201
 90
     1202
 90
     1203
 90
     1204
 90
     1205
 90
     1206
 90
     1207
 90
     1208
 90
     1209
 90
     1210
 90
     1211
 90
     1212
 90
     1213
 90
     1214
 90
     1215
 90
     1216
 90
     1217
 90
     1218
 90
     1219
 90
     1220
 90
     1221
 90
     1222
 90
     1223
 90
     1224
 90
     1225
 90
     1226
 90
     1227
 90
     1228
 90
     1229
 90
     1230
 90
     1231
 90
     1232
 90
     1233
 90
     1234
 90
     1235
 90
     1236
 90
     1237
 90
     1238
 90
     1239
 90
     1240
 90
     1241
 90
     1242
 90
     1243
 90
     1244
 90
     1245
 90
     1246
 90
     1247
 90
     1248
 90
     1249
 90
     1250
 90
     1251
 90
     1252
 90
     1253
 90
     1254
 90
     1255
 90
     1256
 90
     1257
 90
     1258
 90
     1259
 90
     1260
 90
        0
 90
        0
290
     0
  0
XRECORD
  5
1A5
102
{ACAD_REACTORS
330
C
102
}
330
C
100
AcDbXrecord
280
     1
300
ACD
300
2022
300

  0
DICTIONARY
  5
73
102
{ACAD_REACTORS
330
C
102
}
330
C
100
AcDbDictionary
281
     1
  0
DICTIONARY
  5
1AB
102
{ACAD_REACTORS
330
C
102
}
330
C
100
AcDbDictionary
281
     1
  3
Imperial24
350
1AC
  3
Metric50
350
224
  0
DICTIONARY
  5
D
102
{ACAD_REACTORS
330
C
102
}
330
C
100
AcDbDictionary
281
     1
  0
DICTIONARY
  5
1A
102
{ACAD_REACTORS
330
C
102
}
330
C
100
AcDbDictionary
281
     1
  3
Layout1
350
59
  3
Layout2
350
5E
  3
Model
350
22
  0
DICTIONARY
  5
72
102
{ACAD_REACTORS
330
C
102
}
330
C
100
AcDbDictionary
281
     1
  3
ByBlock
350
97
  3
ByLayer
350
96
  3
Global
350
98
  0
DICTIONARY
  5
D7
102
{ACAD_REACTORS
330
C
102
}
330
C
100
AcDbDictionary
281
     1
  3
Standard
350
D8
  0
DICTIONARY
  5
17
102
{ACAD_REACTORS
330
C
102
}
330
C
100
AcDbDictionary
281
     1
  3
Standard
350
18
  0
DICTIONARY
  5
19
102
{ACAD_REACTORS
330
C
102
}
330
C
100
AcDbDictionary
281
     1
  0
ACDBDICTIONARYWDFLT
  5
E
102
{ACAD_REACTORS
330
C
102
}
330
C
100
AcDbDictionary
281
     1
  3
Normal
350
F
100
AcDbDictionaryWithDefault
340
F
  0
DICTIONARY
  5
B6
102
{ACAD_REACTORS
330
C
102
}
330
C
100
AcDbDictionary
281
     1
  3
*A1
350
2283
  3
A0
350
B7
  3
A1
350
124
  3
A2
350
125
  3
A3
350
126
  3
A4
350
127
  3
A5
350
128
  3
A6
350
129
  3
A7
350
12A
  3
A8
350
12B
  3
A9
350
12C
  3
B0
350
12D
  3
B1
350
12E
  3
B2
350
12F
  3
B3
350
130
  3
B4
350
131
  3
B5
350
132
  3
B6
350
133
  3
B7
350
134
  3
B8
350
135
  3
B9
350
136
  3
C0
350
137
  3
C1
350
138
  3
C2
350
139
  3
C3
350
13A
  3
C4
350
13B
  3
C5
350
13C
  3
C6
350
13D
  3
C7
350
13E
  3
C8
350
13F
  3
C9
350
140
  3
D0
350
141
  3
D1
350
142
  3
D2
350
143
  0
DICTIONARY
  5
1A8
102
{ACAD_REACTORS
330
C
102
}
330
C
100
AcDbDictionary
281
     1
  3
Imperial24
350
1AA
  3
Metric50
350
223
  0
DICTIONARY
  5
86
102
{ACAD_REACTORS
330
C
102
}
330
C
100
AcDbDictionary
281
     1
  3
Standard
350
87
  0
DICTIONARY
  5
99
102
{ACAD_REACTORS
330
C
102
}
330
C
100
AcDbDictionary
281
     1
  3
2dWireframe
350
9F
  3
3dWireframe
350
22946
  3
Basic
350
9E
  3
Brighten
350
A5
  3
ColorChange
350
A9
  3
Conceptual
350
A2
  3
Dim
350
A4
  3
EdgeColorOff
350
175
  3
Facepattern
350
A8
  3
Flat
350
9A
  3
FlatWithEdges
350
9B
  3
Gouraud
350
9C
  3
GouraudWithEdges
350
9D
  3
Hidden
350
A1
  3
JitterOff
350
173
  3
Linepattern
350
A7
  3
OverhangOff
350
174
  3
Realistic
350
A3
  3
Shaded
350
182
  3
Shaded with edges
350
181
  3
Shades of Gray
350
17E
  3
Sketchy
350
17F
  3
Thicken
350
A6
  3
Wireframe
350
A0
  3
X-Ray
350
180
  0
XRECORD
  5
6B281
102
{ACAD_REACTORS
330
C
102
}
330
C
100
AcDbXrecord
280
     1
 90
        1
330
87
  0
DICTIONARY
  5
4A0D5
102
{ACAD_REACTORS
330
C
102
}
330
C
100
AcDbDictionary
281
     2
  3
#COMPAREDIFFTOTAL
350
4A0D6
  3
#REVCLOUDAPPROXARCLEN
350
4A0D7
  3
ANNOALLVISIBLE
350
4A0D8
  3
CANNOSCALE
350
4A0D9
  3
CMLEADERSTYLE
350
4A0DA
  3
CTABLESTYLE
350
4A0DB
  3
CVIEWDETAILSTYLE
350
4A0DC
  3
CVIEWSECTIONSTYLE
350
4A0DD
  3
DIMADEC
350
4A0DE
  3
DIMASSOC
350
4A0DF
  3
DWFFRAME
350
4A0E0
  3
HIDETEXT
350
4A0E1
  3
HPCOLOR
350
4A0E2
  3
HPLAYER
350
4A0E3
  3
HPTRANSPARENCY
350
4A0E4
  3
INDEXCTL
350
4A0E5
  3
LAYEREVAL
350
4A0E6
  3
LAYERNOTIFY
350
4A0E7
  3
LIGHTINGUNITS
350
4A0E8
  3
MLEADERSCALE
350
4A0E9
  3
MSLTSCALE
350
4A0EA
  3
MSOLESCALE
350
4A0EB
  3
PDFFRAME
350
4A0EC
  3
POINTCLOUDCLIPFRAME
350
4A0ED
  3
PROJECTNAME
350
4A0EE
  3
SOLIDHIST
350
4A0EF
  3
SORTENTS
350
4A0F0
  0
DICTIONARY
  5
22D1
102
{ACAD_REACTORS
330
C
102
}
330
C
100
AcDbDictionary
281
     1
  0
DICTIONARY
  5
18F
102
{ACAD_REACTORS
330
18E
102
}
330
18E
100
AcDbDictionary
281
     1
  0
SORTENTSTABLE
  5
28E
102
{ACAD_REACTORS
330
15D
102
}
330
15D
100
AcDbSortentsTable
330
1F
  0
ACDBDETAILVIEWSTYLE
  5
1AC
102
{ACAD_REACTORS
330
1AB
102
}
330
1AB
100
AcDbModelDocViewStyle
 70
     0
  3
Imperial24
290
     0
300
Imperial24
 90
        0
100
AcDbDetailViewStyle
 70
     0
 71
     0
 90
        3
 71
     1
340
11
 62
   256
 40
0.24
340
0
 62
   256
 40
0.24
300

 40
0.36
280
     3
 71
     2
340
16
 90
       25
 62
   256
 71
     3
340
11
 62
   256
 40
0.24
 90
        1
 40
0.75
 90
        1
300
%<\AcVar ViewType \f "%tc1">% %<\AcVar ViewDetailId>%\PSCALE %<\AcVar ViewScale \f "%sn">%
 71
     4
340
16
 90
       25
 62
   256
340
16
 90
       25
 62
   256
280
     0
  0
ACDBDETAILVIEWSTYLE
  5
224
102
{ACAD_REACTORS
330
1AB
102
}
330
1AB
100
AcDbModelDocViewStyle
 70
     0
  3
Metric50
290
     0
300
Metric50
 90
        0
100
AcDbDetailViewStyle
 70
     0
 71
     0
 90
        3
 71
     1
340
11
 62
   256
 40
5.0
340
0
 62
   256
 40
5.0
300

 40
0.0
280
     1
 71
     2
340
16
 90
       25
 62
   256
 71
     3
340
11
 62
   256
 40
5.0
 90
        0
 40
15.0
 90
        1
300
%<\AcVar ViewDetailId>% (%<\AcVar ViewScale \f "%sn">%)
 71
     4
340
16
 90
       25
 62
   256
340
16
 90
       25
 62
   256
280
     0
  0
LAYOUT
  5
59
102
{ACAD_REACTORS
330
1A
102
}
330
1A
100
AcDbPlotSettings
  1

  2
None
  4

  6

 40
0.0
 41
0.0
 42
0.0
 43
0.0
 44
0.0
 45
0.0
 46
0.0
 47
0.0
 48
0.0
 49
0.0
140
0.0
141
0.0
142
1.0
143
1.0
 70
   688
 72
     0
 73
     0
 74
     5
  7

 75
    16
147
1.0
 76
     0
 77
     2
 78
   300
148
0.0
149
0.0
100
AcDbLayout
  1
Layout1
 70
     1
 71
     1
 10
0.0
 20
0.0
 11
12.0
 21
9.0
 12
0.0
 22
0.0
 32
0.0
 14
0.0
 24
0.0
 34
0.0
 15
0.0
 25
0.0
 35
0.0
146
0.0
 13
0.0
 23
0.0
 33
0.0
 16
1.0
 26
0.0
 36
0.0
 17
0.0
 27
1.0
 37
0.0
 76
     0
330
58
  0
LAYOUT
  5
5E
102
{ACAD_REACTORS
330
1A
102
}
330
1A
100
AcDbPlotSettings
  1

  2
None
  4

  6

 40
0.0
 41
0.0
 42
0.0
 43
0.0
 44
0.0
 45
0.0
 46
0.0
 47
0.0
 48
0.0
 49
0.0
140
0.0
141
0.0
142
1.0
143
1.0
 70
   688
 72
     0
 73
     0
 74
     5
  7

 75
    16
147
1.0
 76
     0
 77
     2
 78
   300
148
0.0
149
0.0
100
AcDbLayout
  1
Layout2
 70
     1
 71
     2
 10
0.0
 20
0.0
 11
12.0
 21
9.0
 12
0.0
 22
0.0
 32
0.0
 14
0.0
 24
0.0
 34
0.0
 15
0.0
 25
0.0
 35
0.0
146
0.0
 13
0.0
 23
0.0
 33
0.0
 16
1.0
 26
0.0
 36
0.0
 17
0.0
 27
1.0
 37
0.0
 76
     0
330
5D
  0
LAYOUT
  5
22
102
{ACAD_XDICTIONARY
360
194
102
}
102
{ACAD_REACTORS
330
1A
102
}
330
1A
100
AcDbPlotSettings
  1

  2
none_device
  4
ANSI_A_(8.50_x_11.00_Inches)
  6

 40
6.349999904632568
 41
19.04999923706055
 42
6.350006103515625
 43
19.04998779296875
 44
215.8999938964844
 45
279.3999938964844
 46
0.0
 47
0.0
 48
0.0
 49
0.0
140
0.0
141
0.0
142
1.0
143
2.584895464708373
 70
 11952
 72
     0
 73
     1
 74
     0
  7

 75
     0
147
0.3868628397755418
 76
     0
 77
     2
 78
   300
148
0.0
149
0.0
100
AcDbLayout
  1
Model
 70
     1
 71
     0
 10
0.0
 20
0.0
 11
12.0
 21
9.0
 12
0.0
 22
0.0
 32
0.0
 14
0.0
 24
0.0
 34
0.0
 15
0.0
 25
0.0
 35
0.0
146
0.0
 13
0.0
 23
0.0
 33
0.0
 16
1.0
 26
0.0
 36
0.0
 17
0.0
 27
1.0
 37
0.0
 76
     0
330
1F
331
94
  0
MATERIAL
  5
97
102
{ACAD_XDICTIONARY
360
188
102
}
102
{ACAD_REACTORS
330
72
102
}
330
72
100
AcDbMaterial
  1
ByBlock
 94
       63
  0
MATERIAL
  5
96
102
{ACAD_XDICTIONARY
360
186
102
}
102
{ACAD_REACTORS
330
72
102
}
330
72
100
AcDbMaterial
  1
ByLayer
 94
       63
  0
MATERIAL
  5
98
102
{ACAD_XDICTIONARY
360
110
102
}
102
{ACAD_REACTORS
330
72
102
}
330
72
100
AcDbMaterial
  1
Global
 43
0.0208000000566244
 43
0.0
 43
0.0
 43
0.0
 43
0.0
 43
0.0208000000566244
 43
0.0
 43
0.0
 43
0.0
 43
0.0
 43
1.0
 43
0.0
 43
0.0
 43
0.0
 43
0.0
 43
1.0
 49
0.0208000000566244
 49
0.0
 49
0.0
 49
0.0
 49
0.0
 49
0.0208000000566244
 49
0.0
 49
0.0
 49
0.0
 49
0.0
 49
1.0
 49
0.0
 49
0.0
 49
0.0
 49
0.0
 49
1.0
142
0.0208000000566244
142
0.0
142
0.0
142
0.0
142
0.0
142
0.0208000000566244
142
0.0
142
0.0
142
0.0
142
0.0
142
1.0
142
0.0
142
0.0
142
0.0
142
0.0
142
1.0
144
0.0208000000566244
144
0.0
144
0.0
144
0.0
144
0.0
144
0.0208000000566244
144
0.0
144
0.0
144
0.0
144
0.0
144
1.0
144
0.0
144
0.0
144
0.0
144
0.0
144
1.0
 94
       63
1001
ACAD
1070
    -1
1070
     3
1070
     0
1000

1071
        0
1070
     0
  0
MLEADERSTYLE
  5
D8
102
{ACAD_REACTORS
330
D7
102
}
330
D7
100
AcDbMLeaderStyle
179
     2
170
     2
171
     1
172
     0
 90
        2
 40
0.0
 41
0.0
173
     1
 91
-1056964608
340
14
 92
       -2
290
     1
 42
0.09
291
     1
 43
0.36
  3
Standard
 44
0.18
300

342
11
174
     1
178
     1
175
     1
176
     0
 93
-1056964608
 45
0.18
292
     0
297
     0
 46
0.18
 94
-1056964608
 47
1.0
 49
1.0
140
1.0
293
     1
141
0.0
294
     1
177
     0
142
1.0
295
     0
296
     0
143
0.125
271
     0
272
     9
273
     9
298
     0
  0
MLINESTYLE
  5
18
102
{ACAD_REACTORS
330
17
102
}
330
17
100
AcDbMlineStyle
  2
STANDARD
 70
     0
  3

 62
   256
 51
90.0
 52
90.0
 71
     2
 49
0.5
 62
   256
  6
BYLAYER
 49
-0.5
 62
   256
  6
BYLAYER
  0
ACDBPLACEHOLDER
  5
F
102
{ACAD_REACTORS
330
E
102
}
330
E
  0
SCALE
  5
2283
102
{ACAD_REACTORS
330
B6
102
}
330
B6
100
AcDbScale
 70
     0
300
1:75
140
1.0
141
75.0
290
     0
  0
SCALE
  5
B7
102
{ACAD_REACTORS
330
B6
102
}
330
B6
100
AcDbScale
 70
     0
300
1:1
140
1.0
141
1.0
290
     1
  0
SCALE
  5
124
102
{ACAD_REACTORS
330
B6
102
}
330
B6
100
AcDbScale
 70
     0
300
1:2
140
1.0
141
2.0
290
     0
  0
SCALE
  5
125
102
{ACAD_REACTORS
330
B6
102
}
330
B6
100
AcDbScale
 70
     0
300
1:4
140
1.0
141
4.0
290
     0
  0
SCALE
  5
126
102
{ACAD_REACTORS
330
B6
102
}
330
B6
100
AcDbScale
 70
     0
300
1:5
140
1.0
141
5.0
290
     0
  0
SCALE
  5
127
102
{ACAD_REACTORS
330
B6
102
}
330
B6
100
AcDbScale
 70
     0
300
1:8
140
1.0
141
8.0
290
     0
  0
SCALE
  5
128
102
{ACAD_REACTORS
330
B6
102
}
330
B6
100
AcDbScale
 70
     0
300
1:10
140
1.0
141
10.0
290
     0
  0
SCALE
  5
129
102
{ACAD_REACTORS
330
B6
102
}
330
B6
100
AcDbScale
 70
     0
300
1:16
140
1.0
141
16.0
290
     0
  0
SCALE
  5
12A
102
{ACAD_REACTORS
330
B6
102
}
330
B6
100
AcDbScale
 70
     0
300
1:20
140
1.0
141
20.0
290
     0
  0
SCALE
  5
12B
102
{ACAD_REACTORS
330
B6
102
}
330
B6
100
AcDbScale
 70
     0
300
1:30
140
1.0
141
30.0
290
     0
  0
SCALE
  5
12C
102
{ACAD_REACTORS
330
B6
102
}
330
B6
100
AcDbScale
 70
     0
300
1:40
140
1.0
141
40.0
290
     0
  0
SCALE
  5
12D
102
{ACAD_REACTORS
330
B6
102
}
330
B6
100
AcDbScale
 70
     0
300
1:50
140
1.0
141
50.0
290
     0
  0
SCALE
  5
12E
102
{ACAD_REACTORS
330
B6
102
}
330
B6
100
AcDbScale
 70
     0
300
1:100
140
1.0
141
100.0
290
     0
  0
SCALE
  5
12F
102
{ACAD_REACTORS
330
B6
102
}
330
B6
100
AcDbScale
 70
     0
300
2:1
140
2.0
141
1.0
290
     0
  0
SCALE
  5
130
102
{ACAD_REACTORS
330
B6
102
}
330
B6
100
AcDbScale
 70
     0
300
4:1
140
4.0
141
1.0
290
     0
  0
SCALE
  5
131
102
{ACAD_REACTORS
330
B6
102
}
330
B6
100
AcDbScale
 70
     0
300
8:1
140
8.0
141
1.0
290
     0
  0
SCALE
  5
132
102
{ACAD_REACTORS
330
B6
102
}
330
B6
100
AcDbScale
 70
     0
300
10:1
140
10.0
141
1.0
290
     0
  0
SCALE
  5
133
102
{ACAD_REACTORS
330
B6
102
}
330
B6
100
AcDbScale
 70
     0
300
100:1
140
100.0
141
1.0
290
     0
  0
SCALE
  5
134
102
{ACAD_REACTORS
330
B6
102
}
330
B6
100
AcDbScale
 70
     0
300
1/128" = 1'-0"
140
0.0078125
141
12.0
290
     0
  0
SCALE
  5
135
102
{ACAD_REACTORS
330
B6
102
}
330
B6
100
AcDbScale
 70
     0
300
1/64" = 1'-0"
140
0.015625
141
12.0
290
     0
  0
SCALE
  5
136
102
{ACAD_REACTORS
330
B6
102
}
330
B6
100
AcDbScale
 70
     0
300
1/32" = 1'-0"
140
0.03125
141
12.0
290
     0
  0
SCALE
  5
137
102
{ACAD_REACTORS
330
B6
102
}
330
B6
100
AcDbScale
 70
     0
300
1/16" = 1'-0"
140
0.0625
141
12.0
290
     0
  0
SCALE
  5
138
102
{ACAD_REACTORS
330
B6
102
}
330
B6
100
AcDbScale
 70
     0
300
3/32" = 1'-0"
140
0.09375
141
12.0
290
     0
  0
SCALE
  5
139
102
{ACAD_REACTORS
330
B6
102
}
330
B6
100
AcDbScale
 70
     0
300
1/8" = 1'-0"
140
0.125
141
12.0
290
     0
  0
SCALE
  5
13A
102
{ACAD_REACTORS
330
B6
102
}
330
B6
100
AcDbScale
 70
     0
300
3/16" = 1'-0"
140
0.1875
141
12.0
290
     0
  0
SCALE
  5
13B
102
{ACAD_REACTORS
330
B6
102
}
330
B6
100
AcDbScale
 70
     0
300
1/4" = 1'-0"
140
0.25
141
12.0
290
     0
  0
SCALE
  5
13C
102
{ACAD_REACTORS
330
B6
102
}
330
B6
100
AcDbScale
 70
     0
300
3/8" = 1'-0"
140
0.375
141
12.0
290
     0
  0
SCALE
  5
13D
102
{ACAD_REACTORS
330
B6
102
}
330
B6
100
AcDbScale
 70
     0
300
1/2" = 1'-0"
140
0.5
141
12.0
290
     0
  0
SCALE
  5
13E
102
{ACAD_REACTORS
330
B6
102
}
330
B6
100
AcDbScale
 70
     0
300
3/4" = 1'-0"
140
0.75
141
12.0
290
     0
  0
SCALE
  5
13F
102
{ACAD_REACTORS
330
B6
102
}
330
B6
100
AcDbScale
 70
     0
300
1" = 1'-0"
140
1.0
141
12.0
290
     0
  0
SCALE
  5
140
102
{ACAD_REACTORS
330
B6
102
}
330
B6
100
AcDbScale
 70
     0
300
1-1/2" = 1'-0"
140
1.5
141
12.0
290
     0
  0
SCALE
  5
141
102
{ACAD_REACTORS
330
B6
102
}
330
B6
100
AcDbScale
 70
     0
300
3" = 1'-0"
140
3.0
141
12.0
290
     0
  0
SCALE
  5
142
102
{ACAD_REACTORS
330
B6
102
}
330
B6
100
AcDbScale
 70
     0
300
6" = 1'-0"
140
6.0
141
12.0
290
     0
  0
SCALE
  5
143
102
{ACAD_REACTORS
330
B6
102
}
330
B6
100
AcDbScale
 70
     0
300
1'-0" = 1'-0"
140
12.0
141
12.0
290
     0
  0
ACDBSECTIONVIEWSTYLE
  5
1AA
102
{ACAD_REACTORS
330
1A8
102
}
330
1A8
100
AcDbModelDocViewStyle
 70
     0
  3
Imperial24
290
     0
300
Imperial24
 90
        0
100
AcDbSectionViewStyle
 70
     0
 71
     0
 90
       78
 71
     1
340
11
 62
   256
 40
0.24
340
0
340
0
 62
   256
 40
0.24
300
I, O, Q, S, X, Z
 40
0.48
 90
        3
 40
0.18
 90
        1
 71
     2
340
16
 90
       25
 62
   256
340
16
 90
       50
 62
   256
 40
0.24
 40
0.0
 40
0.24
 71
     3
340
11
 62
   256
 40
0.24
 90
        1
 40
0.75
 90
        1
300
%<\AcVar ViewType \f "%tc1">% %<\AcVar ViewSectionStartId>%-%<\AcVar ViewSectionEndId>%\PSCALE %<\AcVar ViewScale \f "%sn">%
 71
     4
 62
   256
 62
   257
300
ANSI31
 40
1.0
 90
        0
290
     0
290
     0
 90
        6
 40
0.0
 40
1.570796326794896
 40
0.2617993877991494
 40
1.308996938995747
 40
-0.2617993877991494
 40
1.832595714594046
  0
ACDBSECTIONVIEWSTYLE
  5
223
102
{ACAD_REACTORS
330
1A8
102
}
330
1A8
100
AcDbModelDocViewStyle
 70
     0
  3
Metric50
290
     0
300
Metric50
 90
        0
100
AcDbSectionViewStyle
 70
     0
 71
     0
 90
      102
 71
     1
340
11
 62
   256
 40
5.0
340
0
340
0
 62
   256
 40
5.0
300
I, O, Q, S, X, Z
 40
10.0
 90
        0
 40
2.5
 90
        0
 71
     2
340
16
 90
       25
 62
   256
340
16
 90
       50
 62
   256
 40
5.0
 40
2.5
 40
5.0
 71
     3
340
11
 62
   256
 40
5.0
 90
        0
 40
15.0
 90
        1
300
%<\AcVar ViewSectionStartId>%-%<\AcVar ViewSectionEndId>% (%<\AcVar ViewScale \f "%sn">%)
 71
     4
 62
   256
 62
   257
300
ANSI31
 40
1.0
 90
        0
290
     0
290
     0
 90
        6
 40
0.0
 40
1.570796326794896
 40
0.2617993877991494
 40
1.308996938995747
 40
-0.2617993877991494
 40
1.832595714594046
  0
TABLESTYLE
  5
87
102
{ACAD_XDICTIONARY
360
104
102
}
102
{ACAD_REACTORS
330
86
102
}
330
86
100
AcDbTableStyle
280
     0
  3
Standard
 70
     0
 71
     0
 40
0.06
 41
0.06
280
     0
281
     0
  7
Standard
140
0.18
170
     2
 62
     0
 63
     7
283
     0
 90
      512
 91
        0
  1

274
    -2
284
     1
 64
     0
275
    -2
285
     1
 65
     0
276
    -2
286
     1
 66
     0
277
    -2
287
     1
 67
     0
278
    -2
288
     1
 68
     0
279
    -2
289
     1
 69
     0
  7
Standard
140
0.25
170
     5
 62
     0
 63
     7
283
     0
 90
      512
 91
        0
  1

274
    -2
284
     1
 64
     0
275
    -2
285
     1
 65
     0
276
    -2
286
     1
 66
     0
277
    -2
287
     1
 67
     0
278
    -2
288
     1
 68
     0
279
    -2
289
     1
 69
     0
  7
Standard
140
0.18
170
     5
 62
     0
 63
     7
283
     0
 90
      512
 91
        0
  1

274
    -2
284
     1
 64
     0
275
    -2
285
     1
 65
     0
276
    -2
286
     1
 66
     0
277
    -2
287
     1
 67
     0
278
    -2
288
     1
 68
     0
279
    -2
289
     1
 69
     0
  0
VISUALSTYLE
  5
9F
102
{ACAD_REACTORS
330
99
102
}
330
99
100
AcDbVisualStyle
  2
2dWireframe
 70
     4
177
     3
291
     0
 70
    58
 90
        0
176
     1
 90
        2
176
     1
 90
        1
176
     1
 90
        0
176
     1
 40
0.6
176
     1
 40
30.0
176
     1
 62
     7
420
 16777215
176
     1
 90
        1
176
     1
 90
        4
176
     1
 62
     7
176
     1
 62
   257
176
     1
 90
        1
176
     1
 90
        1
176
     1
 40
1.0
176
     1
 90
        0
176
     1
 62
   257
176
     1
 40
1.0
176
     1
 90
        1
176
     1
 90
        6
176
     1
 90
        2
176
     1
 62
     7
176
     1
 90
        5
176
     1
 90
        0
176
     1
 90
        0
176
     1
290
     0
176
     1
 90
        1
176
     1
 40
0.0
176
     1
 90
        0
176
     1
290
     1
176
     1
290
     1
176
     1
290
     0
176
     1
290
     0
176
     1
290
     0
176
     1
290
     0
176
     1
290
     0
176
     1
290
     0
176
     1
290
     0
176
     1
 90
       50
176
     1
 40
0.0
176
     1
 40
1.0
176
     1
 90
        0
176
     1
 62
    18
420
        0
176
     1
 90
       50
176
     1
 90
        3
176
     1
 62
     5
420
      255
176
     1
290
     0
176
     1
 90
       50
176
     1
 90
       50
176
     1
 90
       50
176
     1
290
     0
176
     1
 90
       50
176
     1
 62
   256
176
     0
 40
1.0
176
     0
 90
        2
176
     1
  1
strokes_ogs.tif
176
     1
290
     0
176
     1
 40
1.0
176
     1
 40
1.0
176
     1
  0
VISUALSTYLE
  5
22946
102
{ACAD_REACTORS
330
99
102
}
330
99
100
AcDbVisualStyle
  2
3dWireframe
 70
     5
177
     3
291
     0
 70
    58
 90
        0
176
     1
 90
        2
176
     1
 90
        0
176
     1
 90
        0
176
     1
 40
0.6
176
     1
 40
30.0
176
     1
 62
     7
176
     1
 90
        1
176
     1
 90
        4
176
     1
 62
     7
176
     1
 62
   257
176
     1
 90
        1
176
     1
 90
        1
176
     1
 40
1.0
176
     1
 90
        0
176
     1
 62
   257
176
     1
 40
1.0
176
     1
 90
        1
176
     1
 90
        6
176
     1
 90
        2
176
     1
 62
     7
176
     1
 90
        5
176
     1
 90
        0
176
     1
 90
        0
176
     1
290
     0
176
     1
 90
        1
176
     1
 40
0.0
176
     1
 90
        0
176
     1
290
     0
176
     1
290
     1
176
     1
290
     1
176
     1
290
     0
176
     1
290
     0
176
     1
290
     0
176
     1
290
     0
176
     1
290
     0
176
     1
290
     0
176
     1
 90
       50
176
     1
 40
0.0
176
     1
 40
1.0
176
     1
 90
        0
176
     1
 62
    18
420
        0
176
     1
 90
       50
176
     1
 90
        3
176
     1
 62
     5
420
      255
176
     1
290
     0
176
     1
 90
       50
176
     1
 90
       50
176
     1
 90
       50
176
     1
290
     0
176
     1
 90
       50
176
     1
 62
   256
176
     0
 40
1.0
176
     0
 90
        2
176
     1
  1
strokes_ogs.tif
176
     1
290
     0
176
     1
 40
1.0
176
     1
 40
1.0
176
     1
  0
VISUALSTYLE
  5
9E
102
{ACAD_REACTORS
330
99
102
}
330
99
100
AcDbVisualStyle
  2
Basic
 70
     7
177
     3
291
     1
 70
    58
 90
        1
176
     1
 90
        0
176
     1
 90
        1
176
     1
 90
        0
176
     1
 40
0.6
176
     1
 40
30.0
176
     1
 62
     7
420
 16777215
176
     1
 90
        0
176
     1
 90
        4
176
     1
 62
     7
176
     1
 62
   257
176
     1
 90
        1
176
     1
 90
        1
176
     1
 40
1.0
176
     1
 90
        8
176
     1
 62
     7
176
     1
 40
1.0
176
     1
 90
        1
176
     1
 90
        6
176
     1
 90
        2
176
     1
 62
     7
176
     1
 90
        5
176
     1
 90
        0
176
     1
 90
        0
176
     1
290
     0
176
     1
 90
        1
176
     1
 40
0.0
176
     1
 90
        0
176
     1
290
     0
176
     1
290
     1
176
     1
290
     1
176
     1
290
     0
176
     1
290
     0
176
     1
290
     0
176
     1
290
     0
176
     1
290
     0
176
     1
290
     0
176
     1
 90
       50
176
     1
 40
0.0
176
     1
 40
1.0
176
     1
 90
        0
176
     1
 62
    18
420
        0
176
     1
 90
       50
176
     1
 90
        3
176
     1
 62
     5
420
      255
176
     1
290
     0
176
     1
 90
       50
176
     1
 90
       50
176
     1
 90
       50
176
     1
290
     0
176
     1
 90
       50
176
     1
 62
   256
176
     0
 40
1.0
176
     0
 90
        2
176
     1
  1
strokes_ogs.tif
176
     1
290
     0
176
     1
 40
1.0
176
     1
 40
1.0
176
     1
  0
VISUALSTYLE
  5
A5
102
{ACAD_REACTORS
330
99
102
}
330
99
100
AcDbVisualStyle
  2
Brighten
 70
    12
177
     3
291
     1
 70
    58
 90
        2
176
     1
 90
        2
176
     1
 90
        1
176
     1
 90
        0
176
     1
 40
0.6
176
     1
 40
30.0
176
     1
 62
     7
420
 16777215
176
     1
 90
        1
176
     1
 90
        4
176
     1
 62
     7
176
     1
 62
   257
176
     1
 90
        1
176
     1
 90
        1
176
     1
 40
1.0
176
     1
 90
        8
176
     1
 62
     7
176
     1
 40
1.0
176
     1
 90
        1
176
     1
 90
        6
176
     1
 90
        2
176
     1
 62
     7
176
     1
 90
        5
176
     1
 90
        0
176
     1
 90
        0
176
     1
290
     0
176
     1
 90
        1
176
     1
 40
50.0
176
     1
 90
        0
176
     1
290
     0
176
     1
290
     1
176
     1
290
     1
176
     1
290
     0
176
     1
290
     0
176
     1
290
     0
176
     1
290
     0
176
     1
290
     0
176
     1
290
     0
176
     1
 90
       50
176
     1
 40
0.0
176
     1
 40
1.0
176
     1
 90
        0
176
     1
 62
    18
420
        0
176
     1
 90
       50
176
     1
 90
        3
176
     1
 62
     5
420
      255
176
     1
290
     0
176
     1
 90
       50
176
     1
 90
       50
176
     1
 90
       50
176
     1
290
     0
176
     1
 90
       50
176
     1
 62
   256
176
     0
 40
1.0
176
     0
 90
        2
176
     1
  1
strokes_ogs.tif
176
     1
290
     0
176
     1
 40
1.0
176
     1
 40
1.0
176
     1
  0
VISUALSTYLE
  5
A9
102
{ACAD_REACTORS
330
99
102
}
330
99
100
AcDbVisualStyle
  2
ColorChange
 70
    16
177
     3
291
     1
 70
    58
 90
        2
176
     1
 90
        2
176
     1
 90
        3
176
     1
 90
        0
176
     1
 40
0.6
176
     1
 40
30.0
176
     1
 62
     8
420
  8421504
176
     1
 90
        1
176
     1
 90
        4
176
     1
 62
     7
176
     1
 62
   257
176
     1
 90
        1
176
     1
 90
        1
176
     1
 40
1.0
176
     1
 90
        8
176
     1
 62
     8
420
  8421504
176
     1
 40
1.0
176
     1
 90
        1
176
     1
 90
        6
176
     1
 90
        2
176
     1
 62
     7
176
     1
 90
        5
176
     1
 90
        0
176
     1
 90
        0
176
     1
290
     0
176
     1
 90
        1
176
     1
 40
0.0
176
     1
 90
        0
176
     1
290
     0
176
     1
290
     1
176
     1
290
     1
176
     1
290
     0
176
     1
290
     0
176
     1
290
     0
176
     1
290
     0
176
     1
290
     0
176
     1
290
     0
176
     1
 90
       50
176
     1
 40
0.0
176
     1
 40
1.0
176
     1
 90
        0
176
     1
 62
    18
420
        0
176
     1
 90
       50
176
     1
 90
        3
176
     1
 62
     5
420
      255
176
     1
290
     0
176
     1
 90
       50
176
     1
 90
       50
176
     1
 90
       50
176
     1
290
     0
176
     1
 90
       50
176
     1
 62
   256
176
     0
 40
1.0
176
     0
 90
        2
176
     1
  1
strokes_ogs.tif
176
     1
290
     0
176
     1
 40
1.0
176
     1
 40
1.0
176
     1
  0
VISUALSTYLE
  5
A2
102
{ACAD_REACTORS
330
99
102
}
330
99
100
AcDbVisualStyle
  2
Conceptual
 70
     9
177
     3
291
     0
 70
    58
 90
        3
176
     1
 90
        2
176
     1
 90
        1
176
     1
 90
        0
176
     1
 40
0.6
176
     1
 40
30.0
176
     1
 62
     7
420
 16777215
176
     1
 90
        2
176
     1
 90
        2
176
     1
 62
     7
176
     1
 62
   257
176
     1
 90
        1
176
     1
 90
        1
176
     1
 40
40.0
176
     1
 90
        8
176
     1
 62
     7
176
     1
 40
1.0
176
     1
 90
        1
176
     1
 90
        6
176
     1
 90
        2
176
     1
 62
     7
176
     1
 90
        3
176
     1
 90
        0
176
     1
 90
        0
176
     1
290
     0
176
     1
 90
        1
176
     1
 40
0.0
176
     1
 90
        0
176
     1
290
     0
176
     1
290
     1
176
     1
290
     1
176
     1
290
     0
176
     1
290
     0
176
     1
290
     0
176
     1
290
     0
176
     1
290
     0
176
     1
290
     0
176
     1
 90
       50
176
     1
 40
0.0
176
     1
 40
1.0
176
     1
 90
        0
176
     1
 62
    18
420
        0
176
     1
 90
       50
176
     1
 90
        3
176
     1
 62
     5
420
      255
176
     1
290
     0
176
     1
 90
       50
176
     1
 90
       50
176
     1
 90
       50
176
     1
290
     0
176
     1
 90
       50
176
     1
 62
   256
176
     0
 40
1.0
176
     0
 90
        2
176
     1
  1
strokes_ogs.tif
176
     1
290
     0
176
     1
 40
1.0
176
     1
 40
1.0
176
     1
  0
VISUALSTYLE
  5
A4
102
{ACAD_REACTORS
330
99
102
}
330
99
100
AcDbVisualStyle
  2
Dim
 70
    11
177
     3
291
     1
 70
    58
 90
        2
176
     1
 90
        2
176
     1
 90
        1
176
     1
 90
        0
176
     1
 40
0.6
176
     1
 40
30.0
176
     1
 62
     7
420
 16777215
176
     1
 90
        1
176
     1
 90
        4
176
     1
 62
     7
176
     1
 62
   257
176
     1
 90
        1
176
     1
 90
        1
176
     1
 40
1.0
176
     1
 90
        8
176
     1
 62
     7
176
     1
 40
1.0
176
     1
 90
        1
176
     1
 90
        6
176
     1
 90
        2
176
     1
 62
     7
176
     1
 90
        5
176
     1
 90
        0
176
     1
 90
        0
176
     1
290
     0
176
     1
 90
        1
176
     1
 40
-50.0
176
     1
 90
        0
176
     1
290
     0
176
     1
290
     1
176
     1
290
     1
176
     1
290
     0
176
     1
290
     0
176
     1
290
     0
176
     1
290
     0
176
     1
290
     0
176
     1
290
     0
176
     1
 90
       50
176
     1
 40
0.0
176
     1
 40
1.0
176
     1
 90
        0
176
     1
 62
    18
420
        0
176
     1
 90
       50
176
     1
 90
        3
176
     1
 62
     5
420
      255
176
     1
290
     0
176
     1
 90
       50
176
     1
 90
       50
176
     1
 90
       50
176
     1
290
     0
176
     1
 90
       50
176
     1
 62
   256
176
     0
 40
1.0
176
     0
 90
        2
176
     1
  1
strokes_ogs.tif
176
     1
290
     0
176
     1
 40
1.0
176
     1
 40
1.0
176
     1
  0
VISUALSTYLE
  5
175
102
{ACAD_REACTORS
330
99
102
}
330
99
100
AcDbVisualStyle
  2
EdgeColorOff
 70
    22
177
     3
291
     1
 70
    58
 90
        2
176
     0
 90
        2
176
     0
 90
        0
176
     0
 90
        0
176
     0
 40
0.6
176
     0
 40
30.0
176
     0
 62
     7
420
 16777215
176
     0
 90
        1
176
     0
 90
        4
176
     0
 62
     7
176
     0
 62
   257
176
     0
 90
        1
176
     0
 90
        1
176
     0
 40
1.0
176
     0
 90
        8
176
     2
 62
     7
176
     0
 40
1.0
176
     0
 90
        1
176
     0
 90
        6
176
     0
 90
        2
176
     0
 62
     7
176
     0
 90
        5
176
     0
 90
        0
176
     0
 90
        0
176
     0
290
     0
176
     0
 90
        1
176
     0
 40
0.0
176
     0
 90
        0
176
     0
290
     0
176
     1
290
     1
176
     1
290
     1
176
     1
290
     0
176
     1
290
     0
176
     1
290
     0
176
     1
290
     0
176
     1
290
     0
176
     1
290
     0
176
     1
 90
       50
176
     1
 40
0.0
176
     1
 40
1.0
176
     1
 90
        0
176
     1
 62
    18
420
        0
176
     1
 90
       50
176
     1
 90
        3
176
     1
 62
     5
420
      255
176
     1
290
     0
176
     1
 90
       50
176
     1
 90
       50
176
     1
 90
       50
176
     1
290
     0
176
     1
 90
       50
176
     1
 62
   256
176
     0
 40
1.0
176
     0
 90
        2
176
     1
  1
strokes_ogs.tif
176
     1
290
     0
176
     1
 40
1.0
176
     1
 40
1.0
176
     1
  0
VISUALSTYLE
  5
A8
102
{ACAD_REACTORS
330
99
102
}
330
99
100
AcDbVisualStyle
  2
Facepattern
 70
    15
177
     3
291
     1
 70
    58
 90
        2
176
     1
 90
        2
176
     1
 90
        1
176
     1
 90
        0
176
     1
 40
0.6
176
     1
 40
30.0
176
     1
 62
     7
420
 16777215
176
     1
 90
        1
176
     1
 90
        4
176
     1
 62
     7
176
     1
 62
   257
176
     1
 90
        1
176
     1
 90
        1
176
     1
 40
1.0
176
     1
 90
        8
176
     1
 62
     7
176
     1
 40
1.0
176
     1
 90
        1
176
     1
 90
        6
176
     1
 90
        2
176
     1
 62
     7
176
     1
 90
        5
176
     1
 90
        0
176
     1
 90
        0
176
     1
290
     0
176
     1
 90
        1
176
     1
 40
0.0
176
     1
 90
        0
176
     1
290
     0
176
     1
290
     1
176
     1
290
     1
176
     1
290
     0
176
     1
290
     0
176
     1
290
     0
176
     1
290
     0
176
     1
290
     0
176
     1
290
     0
176
     1
 90
       50
176
     1
 40
0.0
176
     1
 40
1.0
176
     1
 90
        0
176
     1
 62
    18
420
        0
176
     1
 90
       50
176
     1
 90
        3
176
     1
 62
     5
420
      255
176
     1
290
     0
176
     1
 90
       50
176
     1
 90
       50
176
     1
 90
       50
176
     1
290
     0
176
     1
 90
       50
176
     1
 62
   256
176
     0
 40
1.0
176
     0
 90
        2
176
     1
  1
strokes_ogs.tif
176
     1
290
     0
176
     1
 40
1.0
176
     1
 40
1.0
176
     1
  0
VISUALSTYLE
  5
9A
102
{ACAD_REACTORS
330
99
102
}
330
99
100
AcDbVisualStyle
  2
Flat
 70
     0
177
     3
291
     1
 70
    58
 90
        2
176
     1
 90
        1
176
     1
 90
        1
176
     1
 90
        2
176
     1
 40
0.6
176
     1
 40
30.0
176
     1
 62
     7
420
 16777215
176
     1
 90
        0
176
     1
 90
        0
176
     1
 62
     7
176
     1
 62
   257
176
     1
 90
        1
176
     1
 90
        1
176
     1
 40
1.0
176
     1
 90
        8
176
     1
 62
     7
176
     1
 40
1.0
176
     1
 90
        1
176
     1
 90
        6
176
     1
 90
        2
176
     1
 62
     7
176
     1
 90
        5
176
     1
 90
        0
176
     1
 90
        0
176
     1
290
     0
176
     1
 90
       13
176
     1
 40
0.0
176
     1
 90
        0
176
     1
290
     0
176
     1
290
     1
176
     1
290
     1
176
     1
290
     0
176
     1
290
     0
176
     1
290
     0
176
     1
290
     0
176
     1
290
     0
176
     1
290
     0
176
     1
 90
       50
176
     1
 40
0.0
176
     1
 40
1.0
176
     1
 90
        0
176
     1
 62
    18
420
        0
176
     1
 90
       50
176
     1
 90
        3
176
     1
 62
     5
420
      255
176
     1
290
     0
176
     1
 90
       50
176
     1
 90
       50
176
     1
 90
       50
176
     1
290
     0
176
     1
 90
       50
176
     1
 62
   256
176
     0
 40
1.0
176
     0
 90
        2
176
     1
  1
strokes_ogs.tif
176
     1
290
     0
176
     1
 40
1.0
176
     1
 40
1.0
176
     1
  0
VISUALSTYLE
  5
9B
102
{ACAD_REACTORS
330
99
102
}
330
99
100
AcDbVisualStyle
  2
FlatWithEdges
 70
     1
177
     3
291
     1
 70
    58
 90
        2
176
     1
 90
        1
176
     1
 90
        1
176
     1
 90
        2
176
     1
 40
0.6
176
     1
 40
30.0
176
     1
 62
     7
420
 16777215
176
     1
 90
        1
176
     1
 90
        0
176
     1
 62
     7
176
     1
 62
   257
176
     1
 90
        1
176
     1
 90
        1
176
     1
 40
1.0
176
     1
 90
        0
176
     1
 62
   257
176
     1
 40
1.0
176
     1
 90
        1
176
     1
 90
        6
176
     1
 90
        2
176
     1
 62
     7
176
     1
 90
        5
176
     1
 90
        0
176
     1
 90
        0
176
     1
290
     0
176
     1
 90
       13
176
     1
 40
0.0
176
     1
 90
        0
176
     1
290
     0
176
     1
290
     1
176
     1
290
     1
176
     1
290
     0
176
     1
290
     0
176
     1
290
     0
176
     1
290
     0
176
     1
290
     0
176
     1
290
     0
176
     1
 90
       50
176
     1
 40
0.0
176
     1
 40
1.0
176
     1
 90
        0
176
     1
 62
    18
420
        0
176
     1
 90
       50
176
     1
 90
        3
176
     1
 62
     5
420
      255
176
     1
290
     0
176
     1
 90
       50
176
     1
 90
       50
176
     1
 90
       50
176
     1
290
     0
176
     1
 90
       50
176
     1
 62
   256
176
     0
 40
1.0
176
     0
 90
        2
176
     1
  1
strokes_ogs.tif
176
     1
290
     0
176
     1
 40
1.0
176
     1
 40
1.0
176
     1
  0
VISUALSTYLE
  5
9C
102
{ACAD_REACTORS
330
99
102
}
330
99
100
AcDbVisualStyle
  2
Gouraud
 70
     2
177
     3
291
     1
 70
    58
 90
        2
176
     1
 90
        2
176
     1
 90
        1
176
     1
 90
        2
176
     1
 40
0.6
176
     1
 40
30.0
176
     1
 62
     7
420
 16777215
176
     1
 90
        0
176
     1
 90
        0
176
     1
 62
     7
176
     1
 62
   257
176
     1
 90
        1
176
     1
 90
        1
176
     1
 40
1.0
176
     1
 90
        0
176
     1
 62
     7
176
     1
 40
1.0
176
     1
 90
        1
176
     1
 90
        6
176
     1
 90
        2
176
     1
 62
     7
176
     1
 90
        5
176
     1
 90
        0
176
     1
 90
        0
176
     1
290
     0
176
     1
 90
       13
176
     1
 40
0.0
176
     1
 90
        0
176
     1
290
     0
176
     1
290
     1
176
     1
290
     1
176
     1
290
     0
176
     1
290
     0
176
     1
290
     0
176
     1
290
     0
176
     1
290
     0
176
     1
290
     0
176
     1
 90
       50
176
     1
 40
0.0
176
     1
 40
1.0
176
     1
 90
        0
176
     1
 62
    18
420
        0
176
     1
 90
       50
176
     1
 90
        3
176
     1
 62
     5
420
      255
176
     1
290
     0
176
     1
 90
       50
176
     1
 90
       50
176
     1
 90
       50
176
     1
290
     0
176
     1
 90
       50
176
     1
 62
   256
176
     0
 40
1.0
176
     0
 90
        2
176
     1
  1
strokes_ogs.tif
176
     1
290
     0
176
     1
 40
1.0
176
     1
 40
1.0
176
     1
  0
VISUALSTYLE
  5
9D
102
{ACAD_REACTORS
330
99
102
}
330
99
100
AcDbVisualStyle
  2
GouraudWithEdges
 70
     3
177
     3
291
     1
 70
    58
 90
        2
176
     1
 90
        2
176
     1
 90
        1
176
     1
 90
        2
176
     1
 40
0.6
176
     1
 40
30.0
176
     1
 62
     7
420
 16777215
176
     1
 90
        1
176
     1
 90
        0
176
     1
 62
     7
176
     1
 62
   257
176
     1
 90
        1
176
     1
 90
        1
176
     1
 40
1.0
176
     1
 90
        0
176
     1
 62
   257
176
     1
 40
1.0
176
     1
 90
        1
176
     1
 90
        6
176
     1
 90
        2
176
     1
 62
     7
176
     1
 90
        5
176
     1
 90
        0
176
     1
 90
        0
176
     1
290
     0
176
     1
 90
       13
176
     1
 40
0.0
176
     1
 90
        0
176
     1
290
     0
176
     1
290
     1
176
     1
290
     1
176
     1
290
     0
176
     1
290
     0
176
     1
290
     0
176
     1
290
     0
176
     1
290
     0
176
     1
290
     0
176
     1
 90
       50
176
     1
 40
0.0
176
     1
 40
1.0
176
     1
 90
        0
176
     1
 62
    18
420
        0
176
     1
 90
       50
176
     1
 90
        3
176
     1
 62
     5
420
      255
176
     1
290
     0
176
     1
 90
       50
176
     1
 90
       50
176
     1
 90
       50
176
     1
290
     0
176
     1
 90
       50
176
     1
 62
   256
176
     0
 40
1.0
176
     0
 90
        2
176
     1
  1
strokes_ogs.tif
176
     1
290
     0
176
     1
 40
1.0
176
     1
 40
1.0
176
     1
  0
VISUALSTYLE
  5
A1
102
{ACAD_REACTORS
330
99
102
}
330
99
100
AcDbVisualStyle
  2
Hidden
 70
     6
177
     3
291
     0
 70
    58
 90
        1
176
     1
 90
        2
176
     1
 90
        2
176
     1
 90
        0
176
     1
 40
0.6
176
     1
 40
30.0
176
     1
 62
     7
420
 16777215
176
     1
 90
        2
176
     1
 90
        2
176
     1
 62
     7
176
     1
 62
   257
176
     1
 90
        2
176
     1
 90
        1
176
     1
 40
40.0
176
     1
 90
        0
176
     1
 62
   257
176
     1
 40
1.0
176
     1
 90
        1
176
     1
 90
        6
176
     1
 90
        2
176
     1
 62
     7
176
     1
 90
        3
176
     1
 90
        0
176
     1
 90
        0
176
     1
290
     0
176
     1
 90
        1
176
     1
 40
0.0
176
     1
 90
        0
176
     1
290
     0
176
     1
290
     1
176
     1
290
     1
176
     1
290
     0
176
     1
290
     0
176
     1
290
     0
176
     1
290
     0
176
     1
290
     0
176
     1
290
     0
176
     1
 90
       50
176
     1
 40
0.0
176
     1
 40
1.0
176
     1
 90
        0
176
     1
 62
    18
420
        0
176
     1
 90
       50
176
     1
 90
        3
176
     1
 62
     5
420
      255
176
     1
290
     0
176
     1
 90
       50
176
     1
 90
       50
176
     1
 90
       50
176
     1
290
     0
176
     1
 90
       50
176
     1
 62
   256
176
     0
 40
1.0
176
     0
 90
        2
176
     1
  1
strokes_ogs.tif
176
     1
290
     0
176
     1
 40
1.0
176
     1
 40
1.0
176
     1
  0
VISUALSTYLE
  5
173
102
{ACAD_REACTORS
330
99
102
}
330
99
100
AcDbVisualStyle
  2
JitterOff
 70
    20
177
     3
291
     1
 70
    58
 90
        2
176
     0
 90
        2
176
     0
 90
        0
176
     0
 90
        0
176
     0
 40
0.6
176
     0
 40
30.0
176
     0
 62
     7
420
 16777215
176
     0
 90
        1
176
     0
 90
        4
176
     0
 62
     7
176
     0
 62
   257
176
     0
 90
        1
176
     0
 90
        1
176
     0
 40
1.0
176
     0
 90
       10
176
     2
 62
     7
176
     0
 40
1.0
176
     0
 90
        1
176
     0
 90
        6
176
     0
 90
        2
176
     0
 62
     7
176
     0
 90
        5
176
     0
 90
        0
176
     0
 90
        0
176
     0
290
     0
176
     0
 90
        1
176
     0
 40
0.0
176
     0
 90
        0
176
     0
290
     0
176
     1
290
     1
176
     1
290
     1
176
     1
290
     0
176
     1
290
     0
176
     1
290
     0
176
     1
290
     0
176
     1
290
     0
176
     1
290
     0
176
     1
 90
       50
176
     1
 40
0.0
176
     1
 40
1.0
176
     1
 90
        0
176
     1
 62
    18
420
        0
176
     1
 90
       50
176
     1
 90
        3
176
     1
 62
     5
420
      255
176
     1
290
     0
176
     1
 90
       50
176
     1
 90
       50
176
     1
 90
       50
176
     1
290
     0
176
     1
 90
       50
176
     1
 62
   256
176
     0
 40
1.0
176
     0
 90
        2
176
     1
  1
strokes_ogs.tif
176
     1
290
     0
176
     1
 40
1.0
176
     1
 40
1.0
176
     1
  0
VISUALSTYLE
  5
A7
102
{ACAD_REACTORS
330
99
102
}
330
99
100
AcDbVisualStyle
  2
Linepattern
 70
    14
177
     3
291
     1
 70
    58
 90
        2
176
     1
 90
        2
176
     1
 90
        1
176
     1
 90
        0
176
     1
 40
0.6
176
     1
 40
30.0
176
     1
 62
     7
420
 16777215
176
     1
 90
        1
176
     1
 90
        4
176
     1
 62
     7
176
     1
 62
   257
176
     1
 90
        7
176
     1
 90
        7
176
     1
 40
1.0
176
     1
 90
        8
176
     1
 62
     7
176
     1
 40
1.0
176
     1
 90
        1
176
     1
 90
        6
176
     1
 90
        2
176
     1
 62
     7
176
     1
 90
        5
176
     1
 90
        0
176
     1
 90
        0
176
     1
290
     0
176
     1
 90
        1
176
     1
 40
0.0
176
     1
 90
        0
176
     1
290
     0
176
     1
290
     1
176
     1
290
     1
176
     1
290
     0
176
     1
290
     0
176
     1
290
     0
176
     1
290
     0
176
     1
290
     0
176
     1
290
     0
176
     1
 90
       50
176
     1
 40
0.0
176
     1
 40
1.0
176
     1
 90
        0
176
     1
 62
    18
420
        0
176
     1
 90
       50
176
     1
 90
        3
176
     1
 62
     5
420
      255
176
     1
290
     0
176
     1
 90
       50
176
     1
 90
       50
176
     1
 90
       50
176
     1
290
     0
176
     1
 90
       50
176
     1
 62
   256
176
     0
 40
1.0
176
     0
 90
        2
176
     1
  1
strokes_ogs.tif
176
     1
290
     0
176
     1
 40
1.0
176
     1
 40
1.0
176
     1
  0
VISUALSTYLE
  5
174
102
{ACAD_REACTORS
330
99
102
}
330
99
100
AcDbVisualStyle
  2
OverhangOff
 70
    21
177
     3
291
     1
 70
    58
 90
        2
176
     0
 90
        2
176
     0
 90
        0
176
     0
 90
        0
176
     0
 40
0.6
176
     0
 40
30.0
176
     0
 62
     7
420
 16777215
176
     0
 90
        1
176
     0
 90
        4
176
     0
 62
     7
176
     0
 62
   257
176
     0
 90
        1
176
     0
 90
        1
176
     0
 40
1.0
176
     0
 90
        9
176
     2
 62
     7
176
     0
 40
1.0
176
     0
 90
        1
176
     0
 90
        6
176
     0
 90
        2
176
     0
 62
     7
176
     0
 90
        5
176
     0
 90
        0
176
     0
 90
        0
176
     0
290
     0
176
     0
 90
        1
176
     0
 40
0.0
176
     0
 90
        0
176
     0
290
     0
176
     1
290
     1
176
     1
290
     1
176
     1
290
     0
176
     1
290
     0
176
     1
290
     0
176
     1
290
     0
176
     1
290
     0
176
     1
290
     0
176
     1
 90
       50
176
     1
 40
0.0
176
     1
 40
1.0
176
     1
 90
        0
176
     1
 62
    18
420
        0
176
     1
 90
       50
176
     1
 90
        3
176
     1
 62
     5
420
      255
176
     1
290
     0
176
     1
 90
       50
176
     1
 90
       50
176
     1
 90
       50
176
     1
290
     0
176
     1
 90
       50
176
     1
 62
   256
176
     0
 40
1.0
176
     0
 90
        2
176
     1
  1
strokes_ogs.tif
176
     1
290
     0
176
     1
 40
1.0
176
     1
 40
1.0
176
     1
  0
VISUALSTYLE
  5
A3
102
{ACAD_REACTORS
330
99
102
}
330
99
100
AcDbVisualStyle
  2
Realistic
 70
     8
177
     3
291
     0
 70
    58
 90
        2
176
     1
 90
        2
176
     1
 90
        0
176
     1
 90
        2
176
     1
 40
0.6
176
     1
 40
30.0
176
     1
 62
     7
420
 16777215
176
     1
 90
        0
176
     1
 90
        0
176
     1
 62
     7
176
     1
 62
   257
176
     1
 90
        1
176
     1
 90
        1
176
     1
 40
1.0
176
     1
 90
        8
176
     1
 62
   257
176
     1
 40
1.0
176
     1
 90
        1
176
     1
 90
        6
176
     1
 90
        2
176
     1
 62
     7
176
     1
 90
        3
176
     1
 90
        0
176
     1
 90
        0
176
     1
290
     0
176
     1
 90
       13
176
     1
 40
0.0
176
     1
 90
        0
176
     1
290
     0
176
     1
290
     1
176
     1
290
     1
176
     1
290
     0
176
     1
290
     0
176
     1
290
     0
176
     1
290
     0
176
     1
290
     0
176
     1
290
     0
176
     1
 90
       50
176
     1
 40
0.0
176
     1
 40
1.0
176
     1
 90
        0
176
     1
 62
    18
420
        0
176
     1
 90
       50
176
     1
 90
        3
176
     1
 62
     5
420
      255
176
     1
290
     0
176
     1
 90
       50
176
     1
 90
       50
176
     1
 90
       50
176
     1
290
     0
176
     1
 90
       50
176
     1
 62
   256
176
     0
 40
1.0
176
     0
 90
        2
176
     1
  1
strokes_ogs.tif
176
     1
290
     0
176
     1
 40
1.0
176
     1
 40
1.0
176
     1
  0
VISUALSTYLE
  5
182
102
{ACAD_REACTORS
330
99
102
}
330
99
100
AcDbVisualStyle
  2
Shaded
 70
    27
177
     3
291
     0
 70
    58
 90
        2
176
     1
 90
        2
176
     1
 90
        1
176
     1
 90
        2
176
     1
 40
0.6
176
     1
 40
30.0
176
     1
 62
     7
420
 16777215
176
     1
 90
        0
176
     1
 90
        4
176
     1
 62
     7
176
     1
 62
   257
176
     1
 90
        1
176
     1
 90
        1
176
     1
 40
1.0
176
     1
 90
        8
176
     1
 62
   257
176
     1
 40
1.0
176
     1
 90
        1
176
     1
 90
        6
176
     1
 90
        2
176
     1
 62
     8
420
  7895160
176
     1
 90
        3
176
     1
 90
        0
176
     1
 90
        0
176
     1
290
     0
176
     1
 90
        5
176
     1
 40
0.0
176
     1
 90
        0
176
     1
290
     0
176
     1
290
     1
176
     1
290
     1
176
     1
290
     0
176
     1
290
     0
176
     1
290
     0
176
     1
290
     0
176
     1
290
     0
176
     1
290
     0
176
     1
 90
       50
176
     1
 40
0.0
176
     1
 40
1.0
176
     1
 90
        0
176
     1
 62
    18
420
        0
176
     1
 90
       50
176
     1
 90
        3
176
     1
 62
     5
420
      255
176
     1
290
     0
176
     1
 90
       50
176
     1
 90
       50
176
     1
 90
       50
176
     1
290
     0
176
     1
 90
       50
176
     1
 62
   256
176
     0
 40
1.0
176
     0
 90
        2
176
     1
  1
strokes_ogs.tif
176
     1
290
     0
176
     1
 40
1.0
176
     1
 40
1.0
176
     1
  0
VISUALSTYLE
  5
181
102
{ACAD_REACTORS
330
99
102
}
330
99
100
AcDbVisualStyle
  2
Shaded with edges
 70
    26
177
     3
291
     0
 70
    58
 90
        2
176
     1
 90
        2
176
     1
 90
        1
176
     1
 90
        2
176
     1
 40
0.6
176
     1
 40
30.0
176
     1
 62
     7
420
 16777215
176
     1
 90
        1
176
     1
 90
        2
176
     1
 62
     7
176
     1
 62
   257
176
     1
 90
        2
176
     1
 90
        1
176
     1
 40
1.0
176
     1
 90
        8
176
     1
 62
   257
176
     1
 40
1.0
176
     1
 90
        1
176
     1
 90
        6
176
     1
 90
        2
176
     1
 62
     7
176
     1
 90
        3
176
     1
 90
        0
176
     1
 90
        0
176
     1
290
     0
176
     1
 90
        5
176
     1
 40
0.0
176
     1
 90
        0
176
     1
290
     0
176
     1
290
     1
176
     1
290
     1
176
     1
290
     0
176
     1
290
     0
176
     1
290
     0
176
     1
290
     0
176
     1
290
     0
176
     1
290
     0
176
     1
 90
       50
176
     1
 40
0.0
176
     1
 40
1.0
176
     1
 90
        0
176
     1
 62
    18
420
        0
176
     1
 90
       50
176
     1
 90
        3
176
     1
 62
     5
420
      255
176
     1
290
     0
176
     1
 90
       50
176
     1
 90
       50
176
     1
 90
       50
176
     1
290
     0
176
     1
 90
       50
176
     1
 62
   256
176
     0
 40
1.0
176
     0
 90
        2
176
     1
  1
strokes_ogs.tif
176
     1
290
     0
176
     1
 40
1.0
176
     1
 40
1.0
176
     1
  0
VISUALSTYLE
  5
17E
102
{ACAD_REACTORS
330
99
102
}
330
99
100
AcDbVisualStyle
  2
Shades of Gray
 70
    23
177
     3
291
     0
 70
    58
 90
        2
176
     1
 90
        2
176
     1
 90
        3
176
     1
 90
        0
176
     1
 40
0.6
176
     1
 40
30.0
176
     1
 62
     7
420
 16777215
176
     1
 90
        2
176
     1
 90
        2
176
     1
 62
     7
176
     1
 62
     7
176
     1
 90
        1
176
     1
 90
        1
176
     1
 40
40.0
176
     1
 90
        8
176
     1
 62
     7
176
     1
 40
1.0
176
     1
 90
        1
176
     1
 90
        6
176
     1
 90
        2
176
     1
 62
     7
176
     1
 90
        3
176
     1
 90
        0
176
     1
 90
        0
176
     1
290
     0
176
     1
 90
        1
176
     1
 40
0.0
176
     1
 90
        0
176
     1
290
     0
176
     1
290
     1
176
     1
290
     1
176
     1
290
     0
176
     1
290
     0
176
     1
290
     0
176
     1
290
     0
176
     1
290
     0
176
     1
290
     0
176
     1
 90
       50
176
     1
 40
0.0
176
     1
 40
1.0
176
     1
 90
        0
176
     1
 62
    18
420
        0
176
     1
 90
       50
176
     1
 90
        3
176
     1
 62
     5
420
      255
176
     1
290
     0
176
     1
 90
       50
176
     1
 90
       50
176
     1
 90
       50
176
     1
290
     0
176
     1
 90
       50
176
     1
 62
   256
176
     0
 40
1.0
176
     0
 90
        2
176
     1
  1
strokes_ogs.tif
176
     1
290
     0
176
     1
 40
1.0
176
     1
 40
1.0
176
     1
  0
VISUALSTYLE
  5
17F
102
{ACAD_REACTORS
330
99
102
}
330
99
100
AcDbVisualStyle
  2
Sketchy
 70
    24
177
     3
291
     0
 70
    58
 90
        1
176
     1
 90
        2
176
     1
 90
        2
176
     1
 90
        0
176
     1
 40
0.6
176
     1
 40
30.0
176
     1
 62
     7
420
 16777215
176
     1
 90
        2
176
     1
 90
        2
176
     1
 62
     7
176
     1
 62
     7
176
     1
 90
        1
176
     1
 90
        1
176
     1
 40
40.0
176
     1
 90
       11
176
     1
 62
     7
176
     1
 40
1.0
176
     1
 90
        1
176
     1
 90
        6
176
     1
 90
        2
176
     1
 62
     7
176
     1
 90
        6
176
     1
 90
        0
176
     1
 90
        0
176
     1
290
     0
176
     1
 90
        1
176
     1
 40
0.0
176
     1
 90
        0
176
     1
290
     0
176
     1
290
     1
176
     1
290
     1
176
     1
290
     0
176
     1
290
     0
176
     1
290
     0
176
     1
290
     0
176
     1
290
     0
176
     1
290
     0
176
     1
 90
       50
176
     1
 40
0.0
176
     1
 40
1.0
176
     1
 90
        0
176
     1
 62
    18
420
        0
176
     1
 90
       50
176
     1
 90
        3
176
     1
 62
     5
420
      255
176
     1
290
     0
176
     1
 90
       50
176
     1
 90
       50
176
     1
 90
       50
176
     1
290
     0
176
     1
 90
       50
176
     1
 62
   256
176
     0
 40
1.0
176
     0
 90
        2
176
     1
  1
strokes_ogs.tif
176
     1
290
     0
176
     1
 40
1.0
176
     1
 40
1.0
176
     1
  0
VISUALSTYLE
  5
A6
102
{ACAD_REACTORS
330
99
102
}
330
99
100
AcDbVisualStyle
  2
Thicken
 70
    13
177
     3
291
     1
 70
    58
 90
        2
176
     1
 90
        2
176
     1
 90
        1
176
     1
 90
        0
176
     1
 40
0.6
176
     1
 40
30.0
176
     1
 62
     7
420
 16777215
176
     1
 90
        1
176
     1
 90
        4
176
     1
 62
     7
176
     1
 62
   257
176
     1
 90
        1
176
     1
 90
        1
176
     1
 40
1.0
176
     1
 90
       12
176
     1
 62
     7
176
     1
 40
1.0
176
     1
 90
        1
176
     1
 90
        6
176
     1
 90
        2
176
     1
 62
     7
176
     1
 90
        5
176
     1
 90
        0
176
     1
 90
        0
176
     1
290
     0
176
     1
 90
        1
176
     1
 40
0.0
176
     1
 90
        0
176
     1
290
     0
176
     1
290
     1
176
     1
290
     1
176
     1
290
     0
176
     1
290
     0
176
     1
290
     0
176
     1
290
     0
176
     1
290
     0
176
     1
290
     0
176
     1
 90
       50
176
     1
 40
0.0
176
     1
 40
1.0
176
     1
 90
        0
176
     1
 62
    18
420
        0
176
     1
 90
       50
176
     1
 90
        3
176
     1
 62
     5
420
      255
176
     1
290
     0
176
     1
 90
       50
176
     1
 90
       50
176
     1
 90
       50
176
     1
290
     0
176
     1
 90
       50
176
     1
 62
   256
176
     0
 40
1.0
176
     0
 90
        2
176
     1
  1
strokes_ogs.tif
176
     1
290
     0
176
     1
 40
1.0
176
     1
 40
1.0
176
     1
  0
VISUALSTYLE
  5
A0
102
{ACAD_REACTORS
330
99
102
}
330
99
100
AcDbVisualStyle
  2
Wireframe
 70
     5
177
     3
291
     0
 70
    58
 90
        0
176
     1
 90
        2
176
     1
 90
        0
176
     1
 90
        0
176
     1
 40
0.6
176
     1
 40
30.0
176
     1
 62
     7
420
 16777215
176
     1
 90
        1
176
     1
 90
        4
176
     1
 62
     7
176
     1
 62
   257
176
     1
 90
        1
176
     1
 90
        1
176
     1
 40
1.0
176
     1
 90
        0
176
     1
 62
   257
176
     1
 40
1.0
176
     1
 90
        1
176
     1
 90
        6
176
     1
 90
        2
176
     1
 62
     7
176
     1
 90
        3
176
     1
 90
        0
176
     1
 90
        0
176
     1
290
     0
176
     1
 90
        1
176
     1
 40
0.0
176
     1
 90
        0
176
     1
290
     0
176
     1
290
     1
176
     1
290
     1
176
     1
290
     0
176
     1
290
     0
176
     1
290
     0
176
     1
290
     0
176
     1
290
     0
176
     1
290
     0
176
     1
 90
       50
176
     1
 40
0.0
176
     1
 40
1.0
176
     1
 90
        0
176
     1
 62
    18
420
        0
176
     1
 90
       50
176
     1
 90
        3
176
     1
 62
     5
420
      255
176
     1
290
     0
176
     1
 90
       50
176
     1
 90
       50
176
     1
 90
       50
176
     1
290
     0
176
     1
 90
       50
176
     1
 62
   256
176
     0
 40
1.0
176
     0
 90
        2
176
     1
  1
strokes_ogs.tif
176
     1
290
     0
176
     1
 40
1.0
176
     1
 40
1.0
176
     1
  0
VISUALSTYLE
  5
180
102
{ACAD_REACTORS
330
99
102
}
330
99
100
AcDbVisualStyle
  2
X-Ray
 70
    25
177
     3
291
     0
 70
    58
 90
        2
176
     1
 90
        2
176
     1
 90
        1
176
     1
 90
        1
176
     1
 40
0.5
176
     1
 40
30.0
176
     1
 62
     7
420
 16777215
176
     1
 90
        1
176
     1
 90
        0
176
     1
 62
     7
176
     1
 62
   257
176
     1
 90
        1
176
     1
 90
        1
176
     1
 40
1.0
176
     1
 90
        8
176
     1
 62
     7
176
     1
 40
1.0
176
     1
 90
        1
176
     1
 90
        6
176
     1
 90
        2
176
     1
 62
     7
176
     1
 90
        3
176
     1
 90
        0
176
     1
 90
        0
176
     1
290
     0
176
     1
 90
       13
176
     1
 40
0.0
176
     1
 90
        0
176
     1
290
     0
176
     1
290
     1
176
     1
290
     1
176
     1
290
     0
176
     1
290
     0
176
     1
290
     0
176
     1
290
     0
176
     1
290
     0
176
     1
290
     0
176
     1
 90
       50
176
     1
 40
0.0
176
     1
 40
1.0
176
     1
 90
        0
176
     1
 62
    18
420
        0
176
     1
 90
       50
176
     1
 90
        3
176
     1
 62
     5
420
      255
176
     1
290
     0
176
     1
 90
       50
176
     1
 90
       50
176
     1
 90
       50
176
     1
290
     0
176
     1
 90
       50
176
     1
 62
   256
176
     0
 40
1.0
176
     0
 90
        2
176
     1
  1
strokes_ogs.tif
176
     1
290
     0
176
     1
 40
1.0
176
     1
 40
1.0
176
     1
  0
DICTIONARYVAR
  5
4A0D6
102
{ACAD_REACTORS
330
4A0D5
102
}
330
4A0D5
100
DictionaryVariables
280
     0
  1
2
  0
DICTIONARYVAR
  5
4A0D7
102
{ACAD_REACTORS
330
4A0D5
102
}
330
4A0D5
100
DictionaryVariables
280
     0
  1
400.000000
  0
DICTIONARYVAR
  5
4A0D8
102
{ACAD_REACTORS
330
4A0D5
102
}
330
4A0D5
100
DictionaryVariables
280
     0
  1
1
  0
DICTIONARYVAR
  5
4A0D9
102
{ACAD_REACTORS
330
4A0D5
102
}
330
4A0D5
100
DictionaryVariables
280
     0
  1
1:1
  0
DICTIONARYVAR
  5
4A0DA
102
{ACAD_REACTORS
330
4A0D5
102
}
330
4A0D5
100
DictionaryVariables
280
     0
  1
STANDARD
  0
DICTIONARYVAR
  5
4A0DB
102
{ACAD_REACTORS
330
4A0D5
102
}
330
4A0D5
100
DictionaryVariables
280
     0
  1
STANDARD
  0
DICTIONARYVAR
  5
4A0DC
102
{ACAD_REACTORS
330
4A0D5
102
}
330
4A0D5
100
DictionaryVariables
280
     0
  1
Imperial24
  0
DICTIONARYVAR
  5
4A0DD
102
{ACAD_REACTORS
330
4A0D5
102
}
330
4A0D5
100
DictionaryVariables
280
     0
  1
Imperial24
  0
DICTIONARYVAR
  5
4A0DE
102
{ACAD_REACTORS
330
4A0D5
102
}
330
4A0D5
100
DictionaryVariables
280
     0
  1
-1
  0
DICTIONARYVAR
  5
4A0DF
102
{ACAD_REACTORS
330
4A0D5
102
}
330
4A0D5
100
DictionaryVariables
280
     0
  1
1
  0
DICTIONARYVAR
  5
4A0E0
102
{ACAD_REACTORS
330
4A0D5
102
}
330
4A0D5
100
DictionaryVariables
280
     0
  1
2
  0
DICTIONARYVAR
  5
4A0E1
102
{ACAD_REACTORS
330
4A0D5
102
}
330
4A0D5
100
DictionaryVariables
280
     0
  1
0
  0
DICTIONARYVAR
  5
4A0E2
102
{ACAD_REACTORS
330
4A0D5
102
}
330
4A0D5
100
DictionaryVariables
280
     0
  1
4
  0
DICTIONARYVAR
  5
4A0E3
102
{ACAD_REACTORS
330
4A0D5
102
}
330
4A0D5
100
DictionaryVariables
280
     0
  1
V-Construction
  0
DICTIONARYVAR
  5
4A0E4
102
{ACAD_REACTORS
330
4A0D5
102
}
330
4A0D5
100
DictionaryVariables
280
     0
  1
ByLayer
  0
DICTIONARYVAR
  5
4A0E5
102
{ACAD_REACTORS
330
4A0D5
102
}
330
4A0D5
100
DictionaryVariables
280
     0
  1
0
  0
DICTIONARYVAR
  5
4A0E6
102
{ACAD_REACTORS
330
4A0D5
102
}
330
4A0D5
100
DictionaryVariables
280
     0
  1
0
  0
DICTIONARYVAR
  5
4A0E7
102
{ACAD_REACTORS
330
4A0D5
102
}
330
4A0D5
100
DictionaryVariables
280
     0
  1
0
  0
DICTIONARYVAR
  5
4A0E8
102
{ACAD_REACTORS
330
4A0D5
102
}
330
4A0D5
100
DictionaryVariables
280
     0
  1
2
  0
DICTIONARYVAR
  5
4A0E9
102
{ACAD_REACTORS
330
4A0D5
102
}
330
4A0D5
100
DictionaryVariables
280
     0
  1
1.000000
  0
DICTIONARYVAR
  5
4A0EA
102
{ACAD_REACTORS
330
4A0D5
102
}
330
4A0D5
100
DictionaryVariables
280
     0
  1
1
  0
DICTIONARYVAR
  5
4A0EB
102
{ACAD_REACTORS
330
4A0D5
102
}
330
4A0D5
100
DictionaryVariables
280
     0
  1
1.000000
  0
DICTIONARYVAR
  5
4A0EC
102
{ACAD_REACTORS
330
4A0D5
102
}
330
4A0D5
100
DictionaryVariables
280
     0
  1
1
  0
DICTIONARYVAR
  5
4A0ED
102
{ACAD_REACTORS
330
4A0D5
102
}
330
4A0D5
100
DictionaryVariables
280
     0
  1
0
  0
DICTIONARYVAR
  5
4A0EE
102
{ACAD_REACTORS
330
4A0D5
102
}
330
4A0D5
100
DictionaryVariables
280
     0
  1

  0
DICTIONARYVAR
  5
4A0EF
102
{ACAD_REACTORS
330
4A0D5
102
}
330
4A0D5
100
DictionaryVariables
280
     0
  1
0
  0
DICTIONARYVAR
  5
4A0F0
102
{ACAD_REACTORS
330
4A0D5
102
}
330
4A0D5
100
DictionaryVariables
280
     0
  1
127
  0
DICTIONARY
  5
194
330
22
100
AcDbDictionary
280
     1
281
     1
  0
DICTIONARY
  5
188
330
97
100
AcDbDictionary
280
     1
281
     1
  3
FBXASSET
360
189
  0
DICTIONARY
  5
186
330
96
100
AcDbDictionary
280
     1
281
     1
  3
FBXASSET
360
187
  0
DICTIONARY
  5
110
330
98
100
AcDbDictionary
280
     1
281
     1
  3
BUMPTILE
360
112
  3
DIFFUSETILE
360
111
  3
FBXASSET
360
18A
  3
OPACITYTILE
360
113
  3
REFLECTIONTILE
360
114
  0
DICTIONARY
  5
104
330
87
100
AcDbDictionary
280
     1
281
     1
  3
ACAD_ROUNDTRIP_2008_TABLESTYLE_CELLSTYLEMAP
360
6B280
  0
XRECORD
  5
189
102
{ACAD_REACTORS
330
188
102
}
330
188
100
AcDbXrecord
280
     1
 70
     1
 90
429727718
  1
508B35C9-AEE7-456F-BE74-D52651303AC6
310
504B03040A0000080000B670623B3DEE336E79000000790000001B0000006175746F6465736B2D64657369676E2D7061636B6167652E786D6C3C3F786D6C2076657273696F6E3D22312E302220656E636F64696E673D227574662D3822203F3E3C666F726D6174733E3C666F726D61743E687474703A2F2F736368656D612E
310
6175746F6465736B2E636F6D2F64657369676E2D7061636B6167652F323030393C2F666F726D61743E3C2F666F726D6174733E504B0304140006080800B670623BD486FD9CA0000000F4000000130000005B436F6E74656E745F54797065735D2E786D6C7D8EC10E82300C865F65E91D8A1E8C310C0EEA1BF002731658846E
310
D98AC1B77784ABF1D8FE5FBFBF75BBCE937A534CCEB38643598122B6FEE978D0B0485F9C41B54DDD7D022595594E1A469170414C76A4D9A4D207E29CF43ECE46F218070CC6BECC4078ACAA135ACF422C856C0E68EA1BF5669944DDD7BCDE7B1F8E415D77AECB980613C2E4AC91FC167A2B244592486606FC29C8FD7F045B9A
310
EF7053A7E60B504B0304140006080800B670623B28ED286BEB0000007C01000008000000636F72652E786D6C8D90416EC3201045AF82665B6183218D6D61A254764FD00B204C5C94182C03558F5F9C3852BBEB6A467FFE9B197D71FA9E6FE8CBACC17AD7012D0820E3B41FAD9B3A48F1826B40272956EFE32F1B20A766D3C1
310
268314D3EAD3B24BDABB685CCCAAF3A3D94515828980F42D371D04FD696655A814B3235C8B45E9AB9A4C419F5D8653B2237A1CB163DE672FD6AC209BF3C08E0D1B30EB19C3FC9D72FCC6EB231EFA33EDE96BDD341517E5064B11EDFCBCAF57A3A2194156843498524CAA0FCA5B7268F9E185D42D21A2DCEC7FA0B48CFF8492
310
759155FBBB0F2C80A4F991FB408A72CB22977B50B96EB9C91F504B0304140006080800B670623B55019EA25F0000007C00000007000000636E782E786D6C4DCB3B0E80201045D1AD90E915ED2CF8AC45050C11660C8261F98AB1B07AC9C97D42D718D865D3E909258CFD00CCE24AC6E326A164D74DC0B4128928FF32603847
310
2BA13128B1252AC747C6BAB984FC68F0B87FE8960A5C09FE86CFB69FBA01504B0304140006080800B670623B7BC41AC871010000D40300000C0000006662782F636F72652E786D6CC553ED6E8320147D15C2DF4501B56B6D90A64BBB27D80B50A5CE54C120983EFEAE1F4DD7A56BBA5FF3879273EEE59E7310BE393735EA95
310
ED2AA333CC428A91D2B9292A5D66D8BB63B0C26823B835C67D2BC348CB46657880B1E0A535BE9DA1DC68A7B403549B42CDA0EC3AE530CA6B5864B8CB3F552343E91D5474A7B095F949962A6421D0502778E72C0840D390E18DC5F170E664C205F7BE2A66B62A605A75AC94C522DDEEE3651AEF837817C741F2CE92E02D592D
310
83FD6ECB76EC7595A651C2C9D02CB8AB9A8BBADC2AE954814544691A3016D0E883256BBA58278B17BA5A53CAC9507ED3E4DBE2C9265F691747B3DCA9ADC382819091F8E1162272A8933DE82182932144F88C09DF060D8140C84E1EEA8B8F1340BDCA9DB1093085F157AA97B557309586747CD0EF0B4EA64E983A6E0EAEEFCE
310
889E9EF17847386AA94B30211D2C0FDE0D3AF9A4610EAD5536E8DD1969631B593F67E381C33F5157F17725E5A636F6BF1491F980C8FC7B90E13E8A2F504B0304140006080800B670623B70102A487D0000009D0000000B0000006662782F636E782E786D6C4DCCD10A83201886E15B91FFDC95A5C30335ACCDFB886521330D
310
A76397BF1A1DECE883878F57749FD5A3B74D2F17830472A901D9F088930B8B849267CC01754AA418F3DF0D5018572BE160506249B16C274D761E8BCFBB7A179E27F65CB39A0F14D396184C9921B81F34C3ACA1B4B99ABB6E6F062A25AA5F69DF23ACBE504B0304140006080800B670623B3610CA3329010000120200003100
310
00006662782F42384135303843342D343331462D343546312D424341352D3532343432364645413344462F636F72652E786D6C8D515B6EC32010BC0AE22B55850D0E446E848992B43E412FE000495162B07854397EA176A4F62F3F2C9A9D991D58BEBB8F37F0AD7D30CE76905418026DA553C65E3A98E219B510EC04F7CEC5
310
3F3408EC30EA0E16180A7EF12E4D0B249D8DDAC68C5AA7F4020E21E80881BCE54B0783FCD2E3500D296646B856D320AFC34557A4CAEDCC133C449F0380794839A138B47B86DB2345744D7A44594FD0E1B867883594369BFE63BF7EEF793D0B054FC9A8456E548E63CE46FB674D8A58F068C6477CE9F510B582A2C1F80D1182
310
70F349E816B32D65AFB8DD62CCEB42FF274A937A52948C8DEB66893BCB021484D7734370E5D2E9F608A3EF93F3119479ABA0E50B14B8C298119A43CCC4FCFCECB8A18B6388CEE7EF5D5D4F994BD86CBBA182D76543B9FCAE2FD7B24DF103504B0304140006080800B670623B1B8617914E0100003303000030000000666278
310
2F42384135303843342D343331462D343546312D424341352D3532343432364645413344462F636E782E786D6CD593C16EC32010447F0571AD6CE3D489D20813A9877E410FBD62D82434182CC055F3F75D1292E692438FBD206B7698593D61BEFD1E2DF982108D773D6D6B460938E5B571FB9ECE6957AD29D90A1EBC4F7736
310
4A9C1CA1A759A682EF839FA72269D8C9D92654AD71C72206887E0E0A22CAF926B15E498B01E0AA19451807D01A34B919F16B070157417138917400F2F6FA41FCF0092A45DEE414C19BDC21783E4BD39D891265658C3D8DEA00A3ACE59CBC8678ACB54CB26EEB6BD7839D7E9348BE70AD9C8321B9BCA7F9A4A26C542347DEE0
310
50F09802D22BA6749A800A394DD62899107273365E3C82CFC6A55557BC06C10774B7ABE7AEC3B0F34CF06446280E154026D0542C187BA9DAB6628BF7B6DBB0E5A65B3EB1F58631DE64BBE083F7B65CC218087E22CABB042E51D1F2268F1FE12B3EA24D40D63E9CFE00120194D60B9D5BC67FE6D39CDF37E20AF817881F504B
310
0304140006080800B670623BBFEF2E3B690500003C100000340000006662782F42384135303843342D343331462D343546312D424341352D3532343432364645413344462F6F626A656374732E786D6CAD575D739B3814FD2B0CFB0C98D84E931D4227B6938EA793B6534F3BFB90198F0099B001899144EAECAFDF231018B0
310
D37A3FFC609090EEE7B94757C1FB7D915B2F54C88CB31BDB7727B64559CC938CA53776A576CE956DBD0F03C1B9EA2DB32D460A7A63EB693B0C52C1ABD24C257447AA5C8D66EF177F5832A68CDA569C13296F6C193FD182B8A4523CA1F2D94D88226EBADBBBBEDB2C1C8A4D05299F46424B222853B014F30C52ACC6287F389C
310
D85E1878FA7B18E87FB36AFAF62AAFF667A83F635211161F291B8999FAB3D5DDC5FCDA99CF6653677679E13B8BFBC5CAF1DF4D27CBCBE5F2FAF6EE1A8AA51290642C117467871F101B91C581D77CEA2C36869F3229E68CD1B8F61F1ED6361B89092D294B90C78C4A68EB793D190E7D1D9BDEE7A91E1B95FDE9F3BCEAEFE809
310
6A6D6F9F7D4B79F4275C90E7A04248AA51D5C4C738DAE06F72885AC4796EBE65D22A88A22223B995679120E2D50EB1542F098381188D4EA111AE3DB043FF20AF6F2B4AE3D7D83D65E5AECA730D4D3BAC91BD05FEA992B565D95F549CD6069B90AB2A63EACA38A45E4B6A87D781574F86817E4C2FCCC72690D62E2729520E37
310
9BAF234797BAF6D62B3BFC781FED37BA1E4F2B2F052FA9501A3E80569BB8F6A9A364D4FA67654E6F803383981F82F21591FF84F23D9882BC896C3FDBCF8C162508933B2E0AE4C69DD43F6BD2BE38DDDBF10BF86CB4FA784D37F3AF16075E67EC9030DECA1FC0A55373F5DFF3378C591FA9BDF485C10B0A8C8BA909E5262639
310
A8E72163488806A595734C81CB77D1DE0ED7604A303B76913CEC0272F412782FF88EFF4636D8AA56DF7B322474C4B767303F625997056C7B032C473C592B36CEBD15F3F9FF5233B7ABCDC74D257624A60F8658567497B14CE1EC3C80B76FD02011038F9EE9EB0F2E12387A9C844D3F09855125116D1D731DF8B43D2CF4E0A0
310
79A020C6BE946BCE0B7EA1E1219331CD73C228AF5A2DDD31A4B1DA918CE91350854D40A71723140BFA92E94E62B0626016CEFA5864A50E5977E8753CEDBEE1CBB7F52780D20E17AF0BA0F5F9B02A3AD07DCC732EB6D1EBB661421BE0C39E21BABF0FE16D22EA6929407C8DE596724C88B749B6DB5512BC7B228ADFD7CB7EA6
310
3A22397E690BA8D5D8D4E40CEC8CDA23C2C0B7D5898640101CEC9C6D331CE328CB93CAFBBAC70A642DF70DF95155945B52F08AA973C23469FD69ADEF84F7BB18F983A8F8C90E37F5D35980B2139A1C523540813E824EF83448CF7C72B598CE97D7CEEDDDDD3B6736BFBC771677EF66CE6A7E7139F7A793E9EDF2B2B3A8B624
310
0CDA13AA5F8388264EC4A0129909F3B7F5A16CEDF08128E97D680ACA4B9BE7B7B58BB638F0B00700EF36AE8B32A705658A68F83EE897FC2B41573190D1CCAF0B92D233A47CFEB019D9809933F67DD1A5467F8CF69AD9A5AE859342D45355448C64F968A371DC2D596ADC6E43D93D1B466F877A64E2893E54F23C4B40388995
310
525E5005DA3983ED45412510D3EFCA13737B3863F74BD30F2A12E5B4B5E489A025CE25500DB855B11ACE5BBFA185D35DD48D8DC3CE7DC69F2944DB42AA6F6CF09BCA622ADD08C7A36E7C6AE18000BAB08E040135C2D21C9D75B3A91B77BB746C403F38018DFE6EC939DD92F16B40BC05294B9CDA035AAD6D330AE27FE4786B
310
8E45145EA34A75BE1C263A676A35A8ACC6297337400BF16C54EF515F3F77CB77EB3583889C754FFA29081AA98E2222ADEF05DA3E63D2EDEA8B8756C05A7FB6CABC4A91CBF325398202CC952E70A008A830324BA200D5E5EF8F5F04C75DB4B0EE3340E071C98B823333B83577596BF3849B69F2085AA0FAFA212F26BEFF5877
310
FDE622B28D88A42E49E43326DA82D31E8CB006401E1DA726059ECEC168F97A6599036306A135688F9AD2E61A6EA178F4CD51974A9F2CCB9F36FE5EBD14601068D9C3BF01504B0304140006080000B670623B000000000000000000000000350000006662782F42384135303843342D343331462D343546312D424341352D35
310
32343432364645413344462F76657274696365732E62696E504B0304140006080800B670623BF270F1330600000004000000360000006662782F42384135303843342D343331462D343546312D424341352D3532343432364645413344462F747269616E676C65732E62696E636660600000504B0304140006080000B67062
310
3B000000000000000000000000370000006662782F42384135303843342D343331462D343546312D424341352D3532343432364645413344462F617474726962757465732E62696E504B0304140006080800B670623B08DA0BD19000000041010000360000006662782F42384135303843342D343331462D343546312D4243
310
41352D3532343432364645413344462F6469726563746F72792E786D6C858F410AC3201045AF22B36F53E9A60B35CBEEBAE80D244E44489C6234F4F835464A48035D0DF398FF9F8AF63D0E6CC63039F212F8F9020C7D47C6792B21C5FE7403D62A1188E2E60C98D7234A5830286103A55745067B9D86B8A3CF9C7F90C11DE6
310
07FB144396D7B6A82D282E9A152AD114D5EF2CB866EEE831B8EEA07A7BB5A8D7D61A2BAAEB7FD5F70921FF497D00504B0304140006080800B670623B3B4606F3FE000000A00100003B0000006662782F42384135303843342D343331462D343546312D424341352D3532343432364645413344462F7265736F75726365732F
310
636F72652E786D6C8D504B6E833010BD0A9A6D65B08134808CA354A427E8052C332156828DFCA97AFC9A40A576D7CDCCE87D344F8F9FBEE647F689CE6B6B7A6039850C8DB2A336530F315C4903D94970676DF82583CCC8197B5861107C72362E3BA4AC096842428D1D7107A5F71820538F74F4E0D50D6799CB1892C2DFF345
310
AABB9C306779A2934E701F5C0A906D4FD609C2A1B7D129F4BCD858C163D4E3AED163FAA9AF1A1D88F67CA98E6D35906AA82A52BFB39ABCD5CD915C86331BD86BD3B665CD8BD52C78D0F34F46E550061C419494B6843142CB0F5677F4D0D58717DA7494F26295FF31C565FCA7296A13AA728FBBD93C0896823C09C18BB5AFB4
310
9E65A6BD762BBE01504B010214000A0000080000B670623B3DEE336E79000000790000001B00000000000000000000000000000000006175746F6465736B2D64657369676E2D7061636B6167652E786D6C504B01021400140006080800B670623BD486FD9CA0000000F40000001300000000000000000000000000B2000000
310
5B436F6E74656E745F54797065735D2E786D6C504B01021400140006080800B670623B28ED286BEB0000007C010000080000000000000000000000000083010000636F72652E786D6C504B01021400140006080800B670623B55019EA25F0000007C000000070000000000000000000000000094020000636E782E786D6C50
310
4B01021400140006080800B670623B7BC41AC871010000D40300000C00000000000000000000000000180300006662782F636F72652E786D6C504B01021400140006080800B670623B70102A487D0000009D0000000B00000000000000000000000000B30400006662782F636E782E786D6C504B01021400140006080800B6
310
70623B3610CA3329010000120200003100000000000000000000000000590500006662782F42384135303843342D343331462D343546312D424341352D3532343432364645413344462F636F72652E786D6C504B01021400140006080800B670623B1B8617914E010000330300003000000000000000000000000000D10600
310
006662782F42384135303843342D343331462D343546312D424341352D3532343432364645413344462F636E782E786D6C504B01021400140006080800B670623BBFEF2E3B690500003C10000034000000000000000000000000006D0800006662782F42384135303843342D343331462D343546312D424341352D35323434
310
32364645413344462F6F626A656374732E786D6C504B01021400140006080000B670623B0000000000000000000000003500000000000000000000000000280E00006662782F42384135303843342D343331462D343546312D424341352D3532343432364645413344462F76657274696365732E62696E504B010214001400
310
06080800B670623BF270F133060000000400000036000000000000000000000000007B0E00006662782F42384135303843342D343331462D343546312D424341352D3532343432364645413344462F747269616E676C65732E62696E504B01021400140006080000B670623B00000000000000000000000037000000000000
310
00000000000000D50E00006662782F42384135303843342D343331462D343546312D424341352D3532343432364645413344462F617474726962757465732E62696E504B01021400140006080800B670623B08DA0BD1900000004101000036000000000000000000000000002A0F00006662782F42384135303843342D3433
310
31462D343546312D424341352D3532343432364645413344462F6469726563746F72792E786D6C504B01021400140006080800B670623B3B4606F3FE000000A00100003B000000000000000000000000000E1000006662782F42384135303843342D343331462D343546312D424341352D3532343432364645413344462F72
310
65736F75726365732F636F72652E786D6C504B0506000000000E000E0080040000651100000000
  0
XRECORD
  5
187
102
{ACAD_REACTORS
330
186
102
}
330
186
100
AcDbXrecord
280
     1
 70
     1
 90
429727718
  1
887D55A9-D0DD-414E-B741-A7DCD4DA2B4C
310
504B03040A0000080000B670623B3DEE336E79000000790000001B0000006175746F6465736B2D64657369676E2D7061636B6167652E786D6C3C3F786D6C2076657273696F6E3D22312E302220656E636F64696E673D227574662D3822203F3E3C666F726D6174733E3C666F726D61743E687474703A2F2F736368656D612E
310
6175746F6465736B2E636F6D2F64657369676E2D7061636B6167652F323030393C2F666F726D61743E3C2F666F726D6174733E504B0304140006080800B670623BD486FD9CA0000000F4000000130000005B436F6E74656E745F54797065735D2E786D6C7D8EC10E82300C865F65E91D8A1E8C310C0EEA1BF002731658846E
310
D98AC1B77784ABF1D8FE5FBFBF75BBCE937A534CCEB38643598122B6FEE978D0B0485F9C41B54DDD7D022595594E1A469170414C76A4D9A4D207E29CF43ECE46F218070CC6BECC4078ACAA135ACF422C856C0E68EA1BF5669944DDD7BCDE7B1F8E415D77AECB980613C2E4AC91FC167A2B244592486606FC29C8FD7F045B9A
310
EF7053A7E60B504B0304140006080800B670623BBC1638F5EC0000007C01000008000000636F72652E786D6C8D90416EC3201045AF82665B61836BE2D8C24471DB9CA01740401C94182C03558F5F9C3852BBEB6A467FFE9B197D7EF89E6EE8CB2CC17AD7032D0820E394D7D68D3DA478C67B4007C117EFE32F1B202727D3C3
310
2A83E0E3E2D3BC49CABB685CCCAAF3DA6CA20CC14440EA969B1E82BA98491632C5EC08D76296EA2A4753D06797E194AC468F2356E77DF66CCD02825543D50CACC62D39ED70FDC68EB8FD68F6F8787A6784342D1DDA1D2F5758F068A7E77DB518198D065111D2624A31A93E69DD11D6D5EC85EC3B4278B9DAFF4069D6FF8492
310
75F1B5DADE7D600104CD8FDC0782976B16B9DC83CA75CD4DFC00504B0304140006080800B670623B55019EA25F0000007C00000007000000636E782E786D6C4DCB3B0E80201045D1AD90E915ED2CF8AC45050C11660C8261F98AB1B07AC9C97D42D718D865D3E909258CFD00CCE24AC6E326A164D74DC0B4128928FF326038
310
472BA13128B1252AC747C6BAB984FC68F0B87FE8960A5C09FE86CFB69FBA01504B0304140006080800B670623B3586FFB671010000D40300000C0000006662782F636F72652E786D6CC553ED6E8320147D15C2DF4541A76D6D90A6DDD627D80B50A4CE54C120983EFEAE1F4DD7A55BBA5FF3879273EEE59E7310B6393735EA
310
95ED2AA3731C851423A5A5292A5DE6D8BB63B0C268C39935C67D29C3488B46E578803167A535BE9D2169B453DA01AA4DA16650749D7218C91A1639EEE4876A4428BC838AEE14B6429E44A9C228041AEA38EB9C0501681A32BC313F1ECE8C4C3867DE57C5CC56054CAB8E95B298A7F12E5EEED224C8E87E11242FE936C8DE96
310
AB60BB7F4D295D66D12E5B30323473E6AAE6A24E5A259C2A308F29CD82280A68FC1E256B9AAE93F489AED694323294DF34F9B678B0C957DA3DC7B3DCA9ADC33C022123F1CD2D44E450277AD04338234388F01913BE0D1A0281909D38D4171F27807A259DB1093085F157AA17B557309586747CD0CF0B46A64E983A6E0EAEEF
310
CE881F9EF1FB8E70D44297604238581EBC1B74B249C31C5AAB6CD0BB33D2C636A27ECCC62F0EFF445DC5DF95244D6DEC7F2922F30191F9F720C37DE49F504B0304140006080800B670623B4220A0FF7D0000009D0000000B0000006662782F636E782E786D6C4DCCD10A83201886E15B91FFDCE542CB0335D0EC3E6259C84A
310
C3E9D8E5AF46073BFAE0E1E315DD675BD1DBA5978F41C2FD4600B9F088930F8B849267CC01754AA418F3DF0D50183727E164506249B1EC174D6E1ECB9A0F5D7D785E68DB8151CD286E5A5363CA6B8A39E90D36D40E96B086F55A43A544F52B1D7B86D517504B0304140006080800B670623B2FA3FEDE290100001202000031
310
0000006662782F45374635344235342D363743322D343832342D383044432D4334454645303536354442422F636F72652E786D6C8D515B6EC32010BC0AE22B55850D2E386E848994D7097A0117488A1283C5A3CAF10BB523B57FF961D1ECCCECC0F2ED7DBC816FED8371B687A4C210682B9D32F6D2C314CFA883602BB8772E
310
FEA141608751F7B0C050F08B77695A20E96CD43666D43AA5177008414708E42D5F7A18E4971E876A483133C2B59A06791D2EBA22556E679EE021FA1C00CC43CA09C5717D6274C7286AD7FB06D1AEA1A8C3873DDAD3E3E98859CB0EBB1DAF67A1E02919B5C88DCA71CCD968FFAC49110B1ECDF8882FBD1EA256503418BF2342
310
106E3E08DD60B6A1EC15771B8C795DE8FF4469524F8A92B1F1AD59E2CEB20005E1F5DC105CB9F4797B84D1F7C9F908CABC55D0F2050A5C61CC1AD2F27A26E6E767C7962E8E213A9FBF7775FDCC5CC266DB960A5E970DE5F2BBBE5CCB36C50F504B0304140006080800B670623B1B8617914E01000033030000300000006662
310
782F45374635344235342D363743322D343832342D383044432D4334454645303536354442422F636E782E786D6CD593C16EC32010447F0571AD6CE3D489D20813A9877E410FBD62D82434182CC055F3F75D1292E692438FBD206B7698593D61BEFD1E2DF982108D773D6D6B460938E5B571FB9ECE6957AD29D90A1EBC4F77
310
364A9C1CA1A759A682EF839FA72269D8C9D92654AD71C72206887E0E0A22CAF926B15E498B01E0AA19451807D01A34B919F16B070157417138917400F2F6FA41FCF0092A45DEE414C19BDC21783E4BD39D891265658C3D8DEA00A3ACE59CBC8678ACB54CB26EEB6BD7839D7E9348BE70AD9C8321B9BCA7F9A4A26C542347DE
310
E050F09802D22BA6749A800A394DD62899107273365E3C82CFC6A55557BC06C10774B7ABE7AEC3B0F34CF06446280E154026D0542C187BA9DAB6628BF7B6DBB0E5A65B3EB1F58631DE64BBE083F7B65CC218087E22CABB042E51D1F2268F1FE12B3EA24D40D63E9CFE00120194D60B9D5BC67FE6D39CDF37E20AF817881F50
310
4B0304140006080800B670623B29652116630500003C100000340000006662782F45374635344235342D363743322D343832342D383044432D4334454645303536354442422F6F626A656374732E786D6CAD575D739B3814FD2B0CFB0C989834C90EA1639B24E3E9A6EDD4D3CE3E64C623834CD8006224913AFDF57B040203
310
B65BEF871F0C12D2FD3CF7E8CA7FBFCB33E3957291B2E2D674ED8969D02262715A24B76625B7D6B569BC0F7CCE98EC2D338D82E4F4D654D366E0279C55A59E8AE99654991CCDDECFFF3444440B6A1A514684B83545F44C7362934AB2988A173B2692D8C97667BB76B3702836E1A47C1E092D09A78584A5982F20C5688C7287
310
C389E904BEA3BE07BEFAD7ABA6A75739B53F43FD69212429A20365233153D70BEF2E2E6FAC4BCF9B5ADEBB0BD79ADFCF43CBBD9A4E16EF168B9BD9DD0D140BC921495BC2E9D60C1E101B9E46BED37CEA2CD6861F3329624541A3DA7F7858DBAC25C6B4A4458C3CA654405BCFEBC970E8AAD8F43E4FD558ABEC4F9FE7557F47
310
4F506B7BFBEC5BCA367FC105710E2AB8A00A554D7CB4A30DFE26FBA86D18CBF4B75418399194A72433B274C3097F33032C554B027F2046A1932B842B0FCCC0DDCBEBDB8AD2F835768F59B9ADB24C41D30C6A64AF817F2A456D59FA83F2E3DA60137255A585BCD60EC9B7929AC18DEFD49381AF1ED30BFDB109A4B1CD488294
310
C3CDE6EBC8D185AABD6568061FEE37BB95AAC7E3CA4BCE4ACAA5820FA0D526AE7DAA2869B5EE5999531BE0CC20E6FBA07C41E43FA27CF7A6206F3CDD793B4F6B919C1462CB788EDCD893FA674CDA17AB7B3B7C019F8D561FAEE966FED562DFE98C1D12C6A9FC015C2A35D7FF3D7FC398F591DA4B5FE0BFA2C0189FEA50AE22
310
92817A1ED3020951A03432862970F976B33383259812CC8E5D240BBA801CBCF8CE2BBEE3BF910DB6AAD5F79E05123AE2DB33981FB1ACCB02B69D00CB014FD68AB573A7627EF9BFD4CC2C5C7D58557C4B22FAA88925A4DBB44825CECE3D78FB060D1231F0E885BE7D673C86A3874958F593906B5502D1563157814FDAC3420D
310
F69A070A22EC4B98E23CFF171A1E5311D12C23056555ABA53B8614563B92D17D02AAB009E8F46284624E5F53D5490C560CCCC2591FF1B45421EB0EBD8EA7ED13BE7C5D7E0428CD60FEF60779EB13E6664FF711CB185F6FDED60D139A001FF60CD1FD6D086F1D51474901E26B2CB794A343BC8ED3EDB612E0DD2351FCB65CF4
310
33D511C9E14B5B40ADC6A6263DB0336A8F700DDF56271A024E70B0B3629DE21847591E55DED73D56206AB927E46FAABC5C939C55853C274C93D69FD6FA4E78BF8B11DF898C9ECD60553FAD39283BA6F18984AA23E8884F83F45C5F5F859797B31B2B9C84A1E5B9DE9D35BFF25C6B76152E422F9C5DCC3D847F5801ED09D5AF
310
41441327A25FF15487F9EB725FB666F048A4701E9A827292E6F97569A32DF61DEC01C0BB8DCBBCCC684E0B49147C1FD54BF685A0AB18C868E6973949E819523E3DAC463660E68C7D9F55A9D1EFA3BD7A76A16AE1A810F95CE59B82A4D968A376DC2E8B44BBDD86B27B368CDE0ED548C7137DA860591A83706223A12CA712B4
310
7306DBF39C0A20A6DF95C7FAF670C6EED7A61F946493D1D6926782963813403548A78AE470DEF80D2D9CEAA26E4D1C76F60BFE74219A06527D6B82DF641A51616F703CAAC6A7160E08A00BEB4810A0274592A1B36E3675E36E978A0DE80727A0D6DF2D39A75BD27E0D8837276589537B40ABB56D5A41F48F1C6FCD3188C4EB
310
A6929D2FFB89CE995A4D00AE813BDD032DC48B56BD437DFDDC2DD7AED70C2272D63DE9A72068A45A92F0A4BE17A8A06B9366E16707AD80B1FC649459952097E74BB23805982B55E0401150A165964402AA8BDF9F3E7386BB686EDCA780C0D382E5392BF460A6EFB2C6EA1937D3F809B440D5F5435C4C5CF7A9EEFAF54564BD
310
2182DA24162F98680B4E7930C21A0079709CEAEB99A372305ABE0C0D7D6078105A83F6A0296DAEE1068A47DD1C55A9F4C9B2FC69E3EFD44B81028E963DF81B504B0304140006080000B670623B000000000000000000000000350000006662782F45374635344235342D363743322D343832342D383044432D433445464530
310
3536354442422F76657274696365732E62696E504B0304140006080800B670623BF270F1330600000004000000360000006662782F45374635344235342D363743322D343832342D383044432D4334454645303536354442422F747269616E676C65732E62696E636660600000504B0304140006080000B670623B00000000
310
0000000000000000370000006662782F45374635344235342D363743322D343832342D383044432D4334454645303536354442422F617474726962757465732E62696E504B0304140006080800B670623B08DA0BD19000000041010000360000006662782F45374635344235342D363743322D343832342D383044432D4334
310
454645303536354442422F6469726563746F72792E786D6C858F410AC3201045AF22B36F53E9A60B35CBEEBAE80D244E44489C6234F4F835464A48035D0DF398FF9F8AF63D0E6CC63039F212F8F9020C7D47C6792B21C5FE7403D62A1188E2E60C98D7234A5830286103A55745067B9D86B8A3CF9C7F90C11DE607FB144396
310
D7B6A82D282E9A152AD114D5EF2CB866EEE831B8EEA07A7BB5A8D7D61A2BAAEB7FD5F70921FF497D00504B0304140006080800B670623B6378F24DFF000000A00100003B0000006662782F45374635344235342D363743322D343832342D383044432D4334454645303536354442422F7265736F75726365732F636F72652E
310
786D6C8D504B6E833010BD0A9A6D65B0094E42641C85B639412F6099496225D8C89FAAC7AF09546A77DDCC8CDE47F3F4C4F16B7C149FE88371B603565228D06A37187BED20C50BD9437194C23B177FC9A0B06AC40E6618A4B87A97A615D2CE46B431A3D60DB8822A048C50E8473E3A08FA86A32A558A5911EEE5A4F45D5DB1
310
6465A6B34E8A107D0E502C4FE609D26370C96B0CA25A58295232C3AA3143FE692E063D485EF7F5AEE71BD2D2F39634AFFC44DAF7DD9E9CCE6F9CD25DCBFA762BAAD92C4534E34F46ED51451C40D694B6843142EB0FD61C283F34FC85EE0F948A6A96FF31A569F8A729191B37F51A77B105902C0779125254735F793DCBCC7B
310
EE567E03504B010214000A0000080000B670623B3DEE336E79000000790000001B00000000000000000000000000000000006175746F6465736B2D64657369676E2D7061636B6167652E786D6C504B01021400140006080800B670623BD486FD9CA0000000F40000001300000000000000000000000000B20000005B436F6E
310
74656E745F54797065735D2E786D6C504B01021400140006080800B670623BBC1638F5EC0000007C010000080000000000000000000000000083010000636F72652E786D6C504B01021400140006080800B670623B55019EA25F0000007C000000070000000000000000000000000095020000636E782E786D6C504B010214
310
00140006080800B670623B3586FFB671010000D40300000C00000000000000000000000000190300006662782F636F72652E786D6C504B01021400140006080800B670623B4220A0FF7D0000009D0000000B00000000000000000000000000B40400006662782F636E782E786D6C504B01021400140006080800B670623B2F
310
A3FEDE290100001202000031000000000000000000000000005A0500006662782F45374635344235342D363743322D343832342D383044432D4334454645303536354442422F636F72652E786D6C504B01021400140006080800B670623B1B8617914E010000330300003000000000000000000000000000D2060000666278
310
2F45374635344235342D363743322D343832342D383044432D4334454645303536354442422F636E782E786D6C504B01021400140006080800B670623B29652116630500003C10000034000000000000000000000000006E0800006662782F45374635344235342D363743322D343832342D383044432D4334454645303536
310
354442422F6F626A656374732E786D6C504B01021400140006080000B670623B0000000000000000000000003500000000000000000000000000230E00006662782F45374635344235342D363743322D343832342D383044432D4334454645303536354442422F76657274696365732E62696E504B01021400140006080800
310
B670623BF270F13306000000040000003600000000000000000000000000760E00006662782F45374635344235342D363743322D343832342D383044432D4334454645303536354442422F747269616E676C65732E62696E504B01021400140006080000B670623B0000000000000000000000003700000000000000000000
310
000000D00E00006662782F45374635344235342D363743322D343832342D383044432D4334454645303536354442422F617474726962757465732E62696E504B01021400140006080800B670623B08DA0BD190000000410100003600000000000000000000000000250F00006662782F45374635344235342D363743322D34
310
3832342D383044432D4334454645303536354442422F6469726563746F72792E786D6C504B01021400140006080800B670623B6378F24DFF000000A00100003B00000000000000000000000000091000006662782F45374635344235342D363743322D343832342D383044432D4334454645303536354442422F7265736F75
310
726365732F636F72652E786D6C504B0506000000000E000E0080040000611100000000
  0
XRECORD
  5
112
102
{ACAD_REACTORS
330
110
102
}
330
110
100
AcDbXrecord
280
     1
270
     1
271
     1
  0
XRECORD
  5
111
102
{ACAD_REACTORS
330
110
102
}
330
110
100
AcDbXrecord
280
     1
270
     1
271
     1
  0
XRECORD
  5
18A
102
{ACAD_REACTORS
330
110
102
}
330
110
100
AcDbXrecord
280
     1
 70
     0
 90
1778669749
  1
9BF507EE-FAF7-4A99-A33D-4EE51894BC40
310
504B03040A0000080000B670623B3DEE336E79000000790000001B0000006175746F6465736B2D64657369676E2D7061636B6167652E786D6C3C3F786D6C2076657273696F6E3D22312E302220656E636F64696E673D227574662D3822203F3E3C666F726D6174733E3C666F726D61743E687474703A2F2F736368656D612E
310
6175746F6465736B2E636F6D2F64657369676E2D7061636B6167652F323030393C2F666F726D61743E3C2F666F726D6174733E504B0304140006080800B670623BD486FD9CA0000000F4000000130000005B436F6E74656E745F54797065735D2E786D6C7D8EC10E82300C865F65E91D8A1E8C310C0EEA1BF002731658846E
310
D98AC1B77784ABF1D8FE5FBFBF75BBCE937A534CCEB38643598122B6FEE978D0B0485F9C41B54DDD7D022595594E1A469170414C76A4D9A4D207E29CF43ECE46F218070CC6BECC4078ACAA135ACF422C856C0E68EA1BF5669944DDD7BCDE7B1F8E415D77AECB980613C2E4AC91FC167A2B244592486606FC29C8FD7F045B9A
310
EF7053A7E60B504B0304140006080800B670623BCA089DFFEC0000007C01000008000000636F72652E786D6C8D90416E83301045AF62CDB632D8402020E32882F604BD80653BC44AB011B6AB1EBF262152BBEB6A467FFE9B197D76FA9EEFE84BAFDE38DB03CD08206DA553C64E3DC470C1474027CE56E7C22F1B202B66DDC3
310
260367D3EAE2B24BD2D9A06D48AA754AEFA2F05E0740F29E9A1EBCBCEA59642286E4F0B76C11F226269DD15797E0188D42CF2346A57DE662F40ABCAEC77628C6120F654571D50C04B7F5B9C1E3997CD4F550BE3745C3F20DE62C98F9755FAE5A04AD801784B498524C8A4F5A75E4D055873772EC0861F966FF03C545FD138A
310
C686B2D8DF7D621E384D8F3C069CE55B16A93C824A75CB8DFF00504B0304140006080800B670623B55019EA25F0000007C00000007000000636E782E786D6C4DCB3B0E80201045D1AD90E915ED2CF8AC45050C11660C8261F98AB1B07AC9C97D42D718D865D3E909258CFD00CCE24AC6E326A164D74DC0B4128928FF326038
310
472BA13128B1252AC747C6BAB984FC68F0B87FE8960A5C09FE86CFB69FBA01504B0304140006080800B670623B68FC0B7272010000D40300000C0000006662782F636F72652E786D6CC5535B6E833010BC8AE5DF0A6C1E8124328E22D29EA01770C0A128602363A31CBFCB234A53A555FA553EC09AD9F5CE8C31DB5DDA060D
310
D2F4B556190E7C8A9154852E6B5565D8D993B7C668C799D1DA7E29C3488956667884316795D1AE5BA0422B2B950554E9522EA0E87B69312A1A5864B82F3E642B7CE12C54F467BF13C55954D20F7CA0A18EB3DE1A1080E621E31BF3D3F1C2C88C73E65C5D2E6C5DC2B4FA544B8379921C36797888BC3C8A032F4E73EA6D927D
310
EA1DF6F42D49F2E8350D5346C666CE6CDD5ED515460A2B4BCC434A375E1078347C0FE22D5D6DE3D50B5D6F2965642CBF6B725DF96493AB958DC245EEDCD6631E809089F8E61622B2A81703E8219C913144F84C09DF070D8140C8561C9BAB8F3340832CAC363130A576376A108D933095FA747AD0CF0B46E64E983A6D0EAE1F
310
CE089F9EF1FB8E70D44255604258581E9D1D75B259C3125A278D37D80B52DAB4A279CEC62F0EFF44DDC43F9454E8469BFF5244960322CBEF41C6FBC83F01504B0304140006080800B670623B0F71DDB67E0000009D0000000B0000006662782F636E782E786D6C4DCCD10A83201886E15B91FFDCA54DB73F502386BB8F5816
310
32D3703976F9ABD1C18E3E78F87855FB990379BBFCF2296AE02706C4C5471A7C9C349475A408A4352AA7B4FEDD80C47E761A7606A3A69CCA72D0E0C6BE8475D3E0E3F3409428EA6B27A84079A782899AA2EC1A7AE3ECCC2FD858CB2D544655BFD2B67BD87C01504B0304140006080800B670623BE134B4FB28010000120200
310
00310000006662782F38353834323741342D343835462D343034322D383541392D4331303331363839454531452F636F72652E786D6C8D515B6EC32010BC0AE22B55850D0EA424C24451959EA0172086A42831583CAA1CBF503B52FB971F16CDCECC0EACD8DFC71BF836215AEF7A481A0C817183D7D65D7A98D3197108F652
310
04EFD31F1A044E8DA6871586525C82CFD3020DDE25E352419DD76601558C264130DCCAA58771F832A36A544E8511AFCDA486ABBA988634A55D7852C4144A00300FA927949C71DABD1D28A29C7D208A6987383B6CD13BC16BB2E1DBE3911C453B0BA5C8D9EA456E758963CFD684674DAA588A64C747FC2118958C86B2C3788B
310
0841B8FB247487D98EB257CC77188BB6D2FF89F2A49F1465EBD2BA5BE2CEB2082511EDDC9042FB7CBA3DC298FBE4430275DE2A9AE1054ADC60CC08E3A29D89E5F9C5714317C7987C28DFBBBA9E0A97B0D97643A568EB864AF95D5FA9759BF207504B0304140006080800B670623B1B8617914E010000330300003000000066
310
62782F38353834323741342D343835462D343034322D383541392D4331303331363839454531452F636E782E786D6CD593C16EC32010447F0571AD6CE3D489D20813A9877E410FBD62D82434182CC055F3F75D1292E692438FBD206B7698593D61BEFD1E2DF982108D773D6D6B460938E5B571FB9ECE6957AD29D90A1EBC4F
310
77364A9C1CA1A759A682EF839FA72269D8C9D92654AD71C72206887E0E0A22CAF926B15E498B01E0AA19451807D01A34B919F16B070157417138917400F2F6FA41FCF0092A45DEE414C19BDC21783E4BD39D891265658C3D8DEA00A3ACE59CBC8678ACB54CB26EEB6BD7839D7E9348BE70AD9C8321B9BCA7F9A4A26C542347
310
DEE050F09802D22BA6749A800A394DD62899107273365E3C82CFC6A55557BC06C10774B7ABE7AEC3B0F34CF06446280E154026D0542C187BA9DAB6628BF7B6DBB0E5A65B3EB1F58631DE64BBE083F7B65CC218087E22CABB042E51D1F2268F1FE12B3EA24D40D63E9CFE00120194D60B9D5BC67FE6D39CDF37E20AF817881F
310
504B0304140006080800B670623B5933D422630500003B100000340000006662782F38353834323741342D343835462D343034322D383541392D4331303331363839454531452F6F626A656374732E786D6CAD575B6FA33814FE2B887D0642934E9B156594264D158D3A534DD4D13E548A0C38942D60649B4EBABF7E3F8321
310
40924EF6928780CDF1B97EE762EFF32E4B8D37CA45C2F21BD3B547A641F39045491EDF98A5DC5AD7A6F1D9F73863B243661A39C9E88DA9B64DDF8B392B0BBD15D12D295339D85DDEFE618890E6D434C2940871638AF08566C426A5641115AF764424B1E3EDCE76ED9AB0CF36E6A47819302D08A7B984A6D8CFC1C5A89572FB
310
CB91E9F89EA3BEFB9EFAD754E3D3544E654F5F7E920B49F2F040D880CDD89D2CEE2E2EA7D6E56432B6269F2E5CEB7679BBB0DCABF168FE693E9FCEEEA6102C240727AD09A75BD3BF876F78127A4EFDA9D5582B7E4CA590E5390D2BFB6161A5B3E618D182E611E2985001691DAB47FDA5AB7CD3F93C566B2DB2BB7D9E55DD13
310
1D468DEECDB3AB290BFE8409E21C54704115AA6AFF68436BFC8DF65E0B184BF5B74418199194272435D224E084BF9B3E481589EFF5D828747285706581E9BB7B7E5D5D911ABFC6EE312DB7659A2A689A7E85EC0DF04FA5A8344BFEA2FCB834E8845895492EAFB541F2BDA0A63FF59C6AD3F7D4637CA13FD68E34B629891172
310
98597F1D183A57B9B75A98FE9765B05BAB7C3C2EBCE0ACA05C2AF8005A4DE09AA7F29216EB9E15397500C6F47CBE77CA7778FE2BD277AF0AE2C693DD6437D1522427B9D8329E2136F6A8FA19A3E6C56ADF0E5F50CF06D48734EDCEBF22F69C56D97EC138153F804B85E6FABFC7AFEFB32E523BE1F3BD372418E363EDCA7548
310
52949E8724474014288D94610BB57C1BEC4C7F854A89CA8E5324F55B871CBC78CE1BBEE3BFE68D6A5589EF3C730474506FCFA8FCF0659516D0ED04580EEA6425581B77CAE797FF4BCECC16EB2FEB926F49481F746159D06D922712BD730FDEAE42BD40F42C7AA5EF3F198F60E86110D6DD20645A9480B795CF95E3E3A659A8
310
C55E724F408873315335CFFB8584874484344D494E59D94869DB90C26A5B64F49C802CAC1D3ABE18A098D3B7444D123D8A9E5AE8F5214F0AE5B2B6E9B575DA3E61CBD3EA2B4009FA940524DD1305FB6A1FB294F14DF0BEA90BA109ECE1481FDC3FFAE8D60E75141700BE82725371B4873751B2DD960265F788137FACE6DD40
310
B575E4F0A5C99F46629D92131467A41EE11ABD8D4CCC039CA0AFB37C93A08B232B8F0AEFCA1E0A1015DF13FC83322B362463652ECF71D3A8B1A7D1BE65DE1D62C44F22C317D35F574FEB16153BA2D13E543D10A80E74C4A65E78A6B7CBCBD1D5DD9DB59C2DAFACC96C3AB566E3F1C29ADCDD5DBAD7D3C9ED7C822ED74F80A6
310
41755310DE4443F44A9E68373FADF6596BFA0F440AE7BECE2727AE9F4F2B1B53B1E7E00CF0DD1E5C65454A339A4BA2D0FBA05ED2EF0443458F47BDBFCA484CCFE0F2ED7E3DD0013B679C7B5499467F0ECEEADDB9CA85A34CE44B99053949D2C1416DB85DE4B136BB7165FBAC0B7AB3542BED4F8CA182A549847A1319316519
310
95A83A67147B9E5101C47487F2485F1ECE38FD568F839204296D3479219888530154036E6528FBFBC66F98E0D4107563A2D7D9AFF8D389681A08F58D89F22693900A3B407754734FC51C10C010D6D640809EE4718AC1BA3ED4AEDB53CA37283F68805A7E4B72CEB0A4EDEAD5DD8C14059A76AFAA56BA6901E13F32BC51C720
310
12AF41295B5BF61BAD3195181FB506E6B40F4C10AF5AF40EF9F5B159AE5DD1F43C72D635E94310D45C2D49785C5D0B94D3B54AB3C5A38349C0587D338AB48C11CBF339599C02CCA54A70A008A8D03C0B2201D5F9EFCF8F9CE12A9A19CB0410789EB32C63B95ECCF455D658BFE0621A3DA32C5075FB101723D77DAE867E7D0F
310
D90444509B44E2151B4DC2290B065803200FBAA9BE9D392A0603F2D5C2D00D6302A615680F66D2FA166E2079D4C551A54AB758161FCEFD4E450A14704CECFEDF504B0304140006080000B670623B000000000000000000000000350000006662782F38353834323741342D343835462D343034322D383541392D4331303331
310
363839454531452F76657274696365732E62696E504B0304140006080800B670623BF270F1330600000004000000360000006662782F38353834323741342D343835462D343034322D383541392D4331303331363839454531452F747269616E676C65732E62696E636660600000504B0304140006080000B670623B000000
310
000000000000000000370000006662782F38353834323741342D343835462D343034322D383541392D4331303331363839454531452F617474726962757465732E62696E504B0304140006080800B670623B08DA0BD19000000041010000360000006662782F38353834323741342D343835462D343034322D383541392D43
310
31303331363839454531452F6469726563746F72792E786D6C858F410AC3201045AF22B36F53E9A60B35CBEEBAE80D244E44489C6234F4F835464A48035D0DF398FF9F8AF63D0E6CC63039F212F8F9020C7D47C6792B21C5FE7403D62A1188E2E60C98D7234A5830286103A55745067B9D86B8A3CF9C7F90C11DE607FB1443
310
96D7B6A82D282E9A152AD114D5EF2CB866EEE831B8EEA07A7BB5A8D7D61A2BAAEB7FD5F70921FF497D00504B0304140006080800B670623BD9A3B367FE000000A00100003B0000006662782F38353834323741342D343835462D343034322D383541392D4331303331363839454531452F7265736F75726365732F636F7265
310
2E786D6C8D504B6E833010BD0A9A6D65B01D0201194711694FD00B586642AD043BF2A7EAF16B122AB5BB6E6646EFA3797AE2F8B5DC8A4FF4C1383B002B291468B59B8C9D0748F1420E501CA5F0CEC55F3228AC5A708015062966EFD27D83B4B3116DCCA875136EA00A012314FA968F0182FEC045952AC5AC08D7F2AEF455CD
310
58B232D3592745883E07289E4FD609D26370C96B0CA27AB252A464A64D63A6FCD35C0C7A904D73EE467EE664DCD58CD4ED4849D79C5A723ED1B7A61977AF2D6F45B59AA58866F9C9A83DAA8813484E6947182394BFB3BAA7FBBEDEBFD0434FA9A856F91F53BA4FFF342563E38E6F719FB60092E5200F428A6AED2BAF479979
310
AFDDCA6F504B010214000A0000080000B670623B3DEE336E79000000790000001B00000000000000000000000000000000006175746F6465736B2D64657369676E2D7061636B6167652E786D6C504B01021400140006080800B670623BD486FD9CA0000000F40000001300000000000000000000000000B20000005B436F6E
310
74656E745F54797065735D2E786D6C504B01021400140006080800B670623BCA089DFFEC0000007C010000080000000000000000000000000083010000636F72652E786D6C504B01021400140006080800B670623B55019EA25F0000007C000000070000000000000000000000000095020000636E782E786D6C504B010214
310
00140006080800B670623B68FC0B7272010000D40300000C00000000000000000000000000190300006662782F636F72652E786D6C504B01021400140006080800B670623B0F71DDB67E0000009D0000000B00000000000000000000000000B50400006662782F636E782E786D6C504B01021400140006080800B670623BE1
310
34B4FB280100001202000031000000000000000000000000005C0500006662782F38353834323741342D343835462D343034322D383541392D4331303331363839454531452F636F72652E786D6C504B01021400140006080800B670623B1B8617914E010000330300003000000000000000000000000000D3060000666278
310
2F38353834323741342D343835462D343034322D383541392D4331303331363839454531452F636E782E786D6C504B01021400140006080800B670623B5933D422630500003B10000034000000000000000000000000006F0800006662782F38353834323741342D343835462D343034322D383541392D4331303331363839
310
454531452F6F626A656374732E786D6C504B01021400140006080000B670623B0000000000000000000000003500000000000000000000000000240E00006662782F38353834323741342D343835462D343034322D383541392D4331303331363839454531452F76657274696365732E62696E504B01021400140006080800
310
B670623BF270F13306000000040000003600000000000000000000000000770E00006662782F38353834323741342D343835462D343034322D383541392D4331303331363839454531452F747269616E676C65732E62696E504B01021400140006080000B670623B0000000000000000000000003700000000000000000000
310
000000D10E00006662782F38353834323741342D343835462D343034322D383541392D4331303331363839454531452F617474726962757465732E62696E504B01021400140006080800B670623B08DA0BD190000000410100003600000000000000000000000000260F00006662782F38353834323741342D343835462D34
310
3034322D383541392D4331303331363839454531452F6469726563746F72792E786D6C504B01021400140006080800B670623BD9A3B367FE000000A00100003B000000000000000000000000000A1000006662782F38353834323741342D343835462D343034322D383541392D4331303331363839454531452F7265736F75
310
726365732F636F72652E786D6C504B0506000000000E000E0080040000611100000000
  0
XRECORD
  5
113
102
{ACAD_REACTORS
330
110
102
}
330
110
100
AcDbXrecord
280
     1
270
     1
271
     1
  0
XRECORD
  5
114
102
{ACAD_REACTORS
330
110
102
}
330
110
100
AcDbXrecord
280
     1
270
     1
271
     1
  0
CELLSTYLEMAP
  5
6B280
102
{ACAD_REACTORS
330
104
102
}
330
104
100
AcDbCellStyleMap
 90
        3
300
CELLSTYLE
  1
TABLEFORMAT_BEGIN
 90
        5
170
     1
 91
        0
 92
    32768
 62
   257
 93
        1
300
CONTENTFORMAT
  1
CONTENTFORMAT_BEGIN
 90
        0
 91
        0
 92
      512
 93
        0
300

 40
0.0
140
1.0
 94
        5
 62
     0
340
11
144
0.25
309
CONTENTFORMAT_END
171
     1
301
MARGIN
  1
CELLMARGIN_BEGIN
 40
0.06
 40
0.06
 40
0.06
 40
0.06
 40
0.18
 40
0.18
309
CELLMARGIN_END
 94
        6
 95
        1
302
GRIDFORMAT
  1
GRIDFORMAT_BEGIN
 90
        0
 91
        1
 62
     0
 92
       -2
340
0
 93
        0
 40
0.045
309
GRIDFORMAT_END
 95
        2
302
GRIDFORMAT
  1
GRIDFORMAT_BEGIN
 90
        0
 91
        1
 62
     0
 92
       -2
340
0
 93
        0
 40
0.045
309
GRIDFORMAT_END
 95
        4
302
GRIDFORMAT
  1
GRIDFORMAT_BEGIN
 90
        0
 91
        1
 62
     0
 92
       -2
340
0
 93
        0
 40
0.045
309
GRIDFORMAT_END
 95
        8
302
GRIDFORMAT
  1
GRIDFORMAT_BEGIN
 90
        0
 91
        1
 62
     0
 92
       -2
340
0
 93
        0
 40
0.045
309
GRIDFORMAT_END
 95
       16
302
GRIDFORMAT
  1
GRIDFORMAT_BEGIN
 90
        0
 91
        1
 62
     0
 92
       -2
340
0
 93
        0
 40
0.045
309
GRIDFORMAT_END
 95
       32
302
GRIDFORMAT
  1
GRIDFORMAT_BEGIN
 90
        0
 91
        1
 62
     0
 92
       -2
340
0
 93
        0
 40
0.045
309
GRIDFORMAT_END
309
TABLEFORMAT_END
  1
CELLSTYLE_BEGIN
 90
        1
 91
        1
300
_TITLE
309
CELLSTYLE_END
300
CELLSTYLE
  1
TABLEFORMAT_BEGIN
 90
        5
170
     1
 91
        0
 92
        0
 62
   257
 93
        1
300
CONTENTFORMAT
  1
CONTENTFORMAT_BEGIN
 90
        0
 91
        0
 92
      512
 93
        0
300

 40
0.0
140
1.0
 94
        5
 62
     0
340
11
144
0.18
309
CONTENTFORMAT_END
171
     1
301
MARGIN
  1
CELLMARGIN_BEGIN
 40
0.06
 40
0.06
 40
0.06
 40
0.06
 40
0.18
 40
0.18
309
CELLMARGIN_END
 94
        6
 95
        1
302
GRIDFORMAT
  1
GRIDFORMAT_BEGIN
 90
        0
 91
        1
 62
     0
 92
       -2
340
0
 93
        0
 40
0.045
309
GRIDFORMAT_END
 95
        2
302
GRIDFORMAT
  1
GRIDFORMAT_BEGIN
 90
        0
 91
        1
 62
     0
 92
       -2
340
0
 93
        0
 40
0.045
309
GRIDFORMAT_END
 95
        4
302
GRIDFORMAT
  1
GRIDFORMAT_BEGIN
 90
        0
 91
        1
 62
     0
 92
       -2
340
0
 93
        0
 40
0.045
309
GRIDFORMAT_END
 95
        8
302
GRIDFORMAT
  1
GRIDFORMAT_BEGIN
 90
        0
 91
        1
 62
     0
 92
       -2
340
0
 93
        0
 40
0.045
309
GRIDFORMAT_END
 95
       16
302
GRIDFORMAT
  1
GRIDFORMAT_BEGIN
 90
        0
 91
        1
 62
     0
 92
       -2
340
0
 93
        0
 40
0.045
309
GRIDFORMAT_END
 95
       32
302
GRIDFORMAT
  1
GRIDFORMAT_BEGIN
 90
        0
 91
        1
 62
     0
 92
       -2
340
0
 93
        0
 40
0.045
309
GRIDFORMAT_END
309
TABLEFORMAT_END
  1
CELLSTYLE_BEGIN
 90
        2
 91
        1
300
_HEADER
309
CELLSTYLE_END
300
CELLSTYLE
  1
TABLEFORMAT_BEGIN
 90
        5
170
     1
 91
        0
 92
        0
 62
   257
 93
        1
300
CONTENTFORMAT
  1
CONTENTFORMAT_BEGIN
 90
        0
 91
        0
 92
      512
 93
        0
300

 40
0.0
140
1.0
 94
        2
 62
     0
340
11
144
0.18
309
CONTENTFORMAT_END
171
     1
301
MARGIN
  1
CELLMARGIN_BEGIN
 40
0.06
 40
0.06
 40
0.06
 40
0.06
 40
0.18
 40
0.18
309
CELLMARGIN_END
 94
        6
 95
        1
302
GRIDFORMAT
  1
GRIDFORMAT_BEGIN
 90
        0
 91
        1
 62
     0
 92
       -2
340
0
 93
        0
 40
0.045
309
GRIDFORMAT_END
 95
        2
302
GRIDFORMAT
  1
GRIDFORMAT_BEGIN
 90
        0
 91
        1
 62
     0
 92
       -2
340
0
 93
        0
 40
0.045
309
GRIDFORMAT_END
 95
        4
302
GRIDFORMAT
  1
GRIDFORMAT_BEGIN
 90
        0
 91
        1
 62
     0
 92
       -2
340
0
 93
        0
 40
0.045
309
GRIDFORMAT_END
 95
        8
302
GRIDFORMAT
  1
GRIDFORMAT_BEGIN
 90
        0
 91
        1
 62
     0
 92
       -2
340
0
 93
        0
 40
0.045
309
GRIDFORMAT_END
 95
       16
302
GRIDFORMAT
  1
GRIDFORMAT_BEGIN
 90
        0
 91
        1
 62
     0
 92
       -2
340
0
 93
        0
 40
0.045
309
GRIDFORMAT_END
 95
       32
302
GRIDFORMAT
  1
GRIDFORMAT_BEGIN
 90
        0
 91
        1
 62
     0
 92
       -2
340
0
 93
        0
 40
0.045
309
GRIDFORMAT_END
309
TABLEFORMAT_END
  1
CELLSTYLE_BEGIN
 90
        3
 91
        2
300
_DATA
309
CELLSTYLE_END
  0
ENDSEC
  0
SECTION
  2
ACDSDATA
 70
     2
 71
     8
  0
ACDSSCHEMA
 90
        0
  1
AcDb_Thumbnail_Schema
  2
AcDbDs::ID
280
    10
 91
        8
  2
Thumbnail_Data
280
    15
 91
        0
101
ACDSRECORD
 95
        0
 90
        1
  2
AcDbDs::TreatedAsObjectData
280
     1
291
     1
101
ACDSRECORD
 95
        0
 90
        2
  2
AcDbDs::Legacy
280
     1
291
     1
101
ACDSRECORD
  1
AcDbDs::ID
 90
        3
  2
AcDs:Indexable
280
     1
291
     1
101
ACDSRECORD
  1
AcDbDs::ID
 90
        4
  2
AcDbDs::HandleAttribute
280
     7
282
     1
  0
ACDSSCHEMA
 90
        1
  1
AcDbDs::TreatedAsObjectDataSchema
  2
AcDbDs::TreatedAsObjectData
280
     1
 91
        0
  0
ACDSSCHEMA
 90
        2
  1
AcDbDs::LegacySchema
  2
AcDbDs::Legacy
280
     1
 91
        0
  0
ACDSSCHEMA
 90
        3
  1
AcDbDs::IndexedPropertySchema
  2
AcDs:Indexable
280
     1
 91
        0
  0
ACDSSCHEMA
 90
        4
  1
AcDbDs::HandleAttributeSchema
  2
AcDbDs::HandleAttribute
280
     7
 91
        1
284
     1
  0
ACDSSCHEMA
 90
        5
  1
AcDb3DSolid_ASM_Data
  2
AcDbDs::ID
280
    10
 91
        8
  2
ASM_Data
280
    15
 91
        0
101
ACDSRECORD
 95
        5
 90
        1
  2
AcDbDs::TreatedAsObjectData
280
     1
291
     1
101
ACDSRECORD
 95
        5
 90
        2
  2
AcDbDs::Legacy
280
     1
291
     1
101
ACDSRECORD
  1
AcDbDs::ID
 90
        3
  2
AcDs:Indexable
280
     1
291
     1
101
ACDSRECORD
  1
AcDbDs::ID
 90
        4
  2
AcDbDs::HandleAttribute
280
     7
282
     1
  0
ACDSRECORD
 90
        0
  2
AcDbDs::ID
280
    10
320
22
  2
Thumbnail_Data
280
    15
 94
     1666
310
89504E470D0A1A0A0000000D49484452000001000000006C0803000000B2ED9CC100000300504C5445212830FFFFFF2128300000000000000000000000000000000000000000000000000000330000660000990000CC0000FF0033000033330033660033990033CC0033FF0066000066330066660066990066CC0066FF0099
310
000099330099660099990099CC0099FF00CC0000CC3300CC6600CC9900CCCC00CCFF00FF0000FF3300FF6600FF9900FFCC00FFFF3300003300333300663300993300CC3300FF3333003333333333663333993333CC3333FF3366003366333366663366993366CC3366FF3399003399333399663399993399CC3399FF33CC00
310
33CC3333CC6633CC9933CCCC33CCFF33FF0033FF3333FF6633FF9933FFCC33FFFF6600006600336600666600996600CC6600FF6633006633336633666633996633CC6633FF6666006666336666666666996666CC6666FF6699006699336699666699996699CC6699FF66CC0066CC3366CC6666CC9966CCCC66CCFF66FF0066
310
FF3366FF6666FF9966FFCC66FFFF9900009900339900669900999900CC9900FF9933009933339933669933999933CC9933FF9966009966339966669966999966CC9966FF9999009999339999669999999999CC9999FF99CC0099CC3399CC6699CC9999CCCC99CCFF99FF0099FF3399FF6699FF9999FFCC99FFFFCC0000CC00
310
33CC0066CC0099CC00CCCC00FFCC3300CC3333CC3366CC3399CC33CCCC33FFCC6600CC6633CC6666CC6699CC66CCCC66FFCC9900CC9933CC9966CC9999CC99CCCC99FFCCCC00CCCC33CCCC66CCCC99CCCCCCCCCCFFCCFF00CCFF33CCFF66CCFF99CCFFCCCCFFFFFF0000FF0033FF0066FF0099FF00CCFF00FFFF3300FF3333
310
FF3366FF3399FF33CCFF33FFFF6600FF6633FF6666FF6699FF66CCFF66FFFF9900FF9933FF9966FF9999FF99CCFF99FFFFCC00FFCC33FFCC66FFCC99FFCCCCFFCCFFFFFF00FFFF33FFFF66FFFF99FFFFCCFFFFFF0000000D0D0D1A1A1A2828283535354343435050505D5D5D6B6B6B787878868686939393A1A1A1AEAEAEBB
310
BBBBC9C9C9D6D6D6E4E4E4F1F1F1FFFFFF0000000000000000000000000000000000000000000000000000000000002E4550F1000000CD4944415478DAEDD8CB0E8320100550FFFF7F67DFA6A63E2A4981B48903E7AC5CB8702E3080CB0200000000000000000000DC44444C5BF8CBA4197C961C338CF5D1E59D19C67A7B2A
310
553B6C02F1F31705906BF1B7758A31977CF50C18218075183B47337B0071A8FEF9D05E4EEA000E67BA6B0015132292F780F5DBDF95C71E42755DD9A77FF1D0F78FEDF2DECDBFBF09E40FE074B99B6F06942F3E1306B0B5C3D65D6DA000BE9F8563B823506520FB7DF814CCE83F84A2B045F6B6CADC9D710100000000000000
310
0000003A3D00DEC2F9CA2C8DFA270000000049454E44AE42608271075D0C0A01A03BC4DCEE7D5C4F3801D015C44C5864438B6974A576F4984356F0920613A82600D18B5A7817757455EFE14E828099EA5006923A6E2A63B9B897960044EC54055317D4F453114D5B4FD910C1975C0250074070A4660280E0452C011801F812
310
D1CB77CA0940D614C15ECA16C0434C378F952400715B044BA104E000C04D542D9D04E00300C1462601B80150C4D55149009E009C02AB882400670008AA1A09C01F803DB482842B007804B0C60D91CF2F9E2F7FB1C23DC1579225015C3F890CE05202B8F9242E001C5FF3827301006B5440D9FC87A325E680CBB4BF3A80E341
310
024800126BCED8DCCAFE0BC89323148B0004169DB1773E315BC236EF7D16429C74C0FC8810FAB822E4686C54F4D26BA9A9E2DD7790D975BD451A1FD53D220800A0797E05CB04E203000DE41FA502A8BD05F61574D1160836078CE58FF12DE253CECF072C2F70EA6F011040B1F60060AF8009C658FE140940F746886607B0F5
310
F2D84660BD1618B88A08D2027100640B8C5D0B2DBC0AC45A06BBF6C2581840B855A0358D18E98F251203406F1A612A80B202BAD38891FF580B500000D49D4988F37FAC813E72214627000A3582A5C338FE00598ED82311F33F3A0000000049454E44AE4260820F467818FD4AC64A010000000049454E44AE42608200187F52
310
539FF6AC0FF2D01229B97F7B56AE64E8787DBF9E93B283504D4929EEDB336DE133B927D0B706F146D8FDD54728002424931276690CDE5FFA471401522320E6FA719CDCC9E90D234F422DA512220CD4066298BF969A4028B717C4D481E25C1BC6C59A99842240E2F24B1F92F8AC20F021F00EFE737AFD0FDF7E00E9E9886BC5
310
1247A50000000049454E44AE426082
  0
ENDSEC
  0
EOF
