  0
SECTION
  2
HEADER
  9
$ACADVER
  1
AC1032
  9
$ACADMAINTVER
 90
      197
  9
$DWGCODEPAGE
  3
ANSI_1252
  9
$LASTSAVEDBY
  1
gregb
  9
$REQUIREDVERSIONS
160
                 0
  9
$INSBASE
 10
0.0
 20
0.0
 30
0.0
  9
$EXTMIN
 10
104446.9657724177
 20
95264.00831226187
 30
0.0
  9
$EXTMAX
 10
104447.7196193825
 20
95264.80652047807
 30
0.0
  9
$LIMMIN
 10
0.0
 20
0.0
  9
$LIMMAX
 10
12.0
 20
9.0
  9
$ORTHOMODE
 70
     1
  9
$REGENMODE
 70
     1
  9
$FILLMODE
 70
     1
  9
$QTEXTMODE
 70
     0
  9
$MIRRTEXT
 70
     0
  9
$LTSCALE
 40
1.0
  9
$ATTMODE
 70
     1
  9
$TEXTSIZE
 40
0.2
  9
$TRACEWID
 40
0.05
  9
$TEXTSTYLE
  7
Standard
  9
$CLAYER
  8
freecads.com
  9
$CELTYPE
  6
ByLayer
  9
$CECOLOR
 62
   256
  9
$CELTSCALE
 40
1.0
  9
$DISPSILH
 70
     1
  9
$DIMSCALE
 40
1.0
  9
$DIMASZ
 40
0.18
  9
$DIMEXO
 40
0.0625
  9
$DIMDLI
 40
0.38
  9
$DIMRND
 40
0.0
  9
$DIMDLE
 40
0.0
  9
$DIMEXE
 40
0.18
  9
$DIMTP
 40
0.0
  9
$DIMTM
 40
0.0
  9
$DIMTXT
 40
0.18
  9
$DIMCEN
 40
0.09
  9
$DIMTSZ
 40
0.0
  9
$DIMTOL
 70
     0
  9
$DIMLIM
 70
     0
  9
$DIMTIH
 70
     1
  9
$DIMTOH
 70
     1
  9
$DIMSE1
 70
     0
  9
$DIMSE2
 70
     0
  9
$DIMTAD
 70
     0
  9
$DIMZIN
 70
     0
  9
$DIMBLK
  1

  9
$DIMASO
 70
     1
  9
$DIMSHO
 70
     1
  9
$DIMPOST
  1

  9
$DIMAPOST
  1

  9
$DIMALT
 70
     0
  9
$DIMALTD
 70
     2
  9
$DIMALTF
 40
25.4
  9
$DIMLFAC
 40
1.0
  9
$DIMTOFL
 70
     0
  9
$DIMTVP
 40
0.0
  9
$DIMTIX
 70
     0
  9
$DIMSOXD
 70
     0
  9
$DIMSAH
 70
     0
  9
$DIMBLK1
  1

  9
$DIMBLK2
  1

  9
$DIMSTYLE
  2
Standard
  9
$DIMCLRD
 70
     0
  9
$DIMCLRE
 70
     0
  9
$DIMCLRT
 70
     0
  9
$DIMTFAC
 40
1.0
  9
$DIMGAP
 40
0.09
  9
$DIMJUST
 70
     0
  9
$DIMSD1
 70
     0
  9
$DIMSD2
 70
     0
  9
$DIMTOLJ
 70
     1
  9
$DIMTZIN
 70
     0
  9
$DIMALTZ
 70
     0
  9
$DIMALTTZ
 70
     0
  9
$DIMUPT
 70
     0
  9
$DIMDEC
 70
     4
  9
$DIMTDEC
 70
     4
  9
$DIMALTU
 70
     2
  9
$DIMALTTD
 70
     2
  9
$DIMTXSTY
  7
Standard
  9
$DIMAUNIT
 70
     0
  9
$DIMADEC
 70
     0
  9
$DIMALTRND
 40
0.0
  9
$DIMAZIN
 70
     0
  9
$DIMDSEP
 70
    46
  9
$DIMATFIT
 70
     3
  9
$DIMFRAC
 70
     0
  9
$DIMLDRBLK
  1

  9
$DIMLUNIT
 70
     2
  9
$DIMLWD
 70
    -2
  9
$DIMLWE
 70
    -2
  9
$DIMTMOVE
 70
     0
  9
$DIMFXL
 40
1.0
  9
$DIMFXLON
 70
     0
  9
$DIMJOGANG
 40
0.7853981633974483
  9
$DIMTFILL
 70
     0
  9
$DIMTFILLCLR
 70
     0
  9
$DIMARCSYM
 70
     0
  9
$DIMLTYPE
  6

  9
$DIMLTEX1
  6

  9
$DIMLTEX2
  6

  9
$DIMTXTDIRECTION
 70
     0
  9
$LUNITS
 70
     2
  9
$LUPREC
 70
     4
  9
$SKETCHINC
 40
0.1
  9
$FILLETRAD
 40
0.0
  9
$AUNITS
 70
     0
  9
$AUPREC
 70
     0
  9
$MENU
  1
.
  9
$ELEVATION
 40
0.0
  9
$PELEVATION
 40
0.0
  9
$THICKNESS
 40
0.0
  9
$LIMCHECK
 70
     0
  9
$CHAMFERA
 40
0.0
  9
$CHAMFERB
 40
0.0
  9
$CHAMFERC
 40
0.0
  9
$CHAMFERD
 40
0.0
  9
$SKPOLY
 70
     0
  9
$TDCREATE
 40
2458157.454583334
  9
$TDUCREATE
 40
2458157.287916667
  9
$TDUPDATE
 40
2460666.779618056
  9
$TDUUPDATE
 40
2460666.612951389
  9
$TDINDWG
 40
0.1710185185
  9
$TDUSRTIMER
 40
0.1710185185
  9
$USRTIMER
 70
     1
  9
$ANGBASE
 50
0.0
  9
$ANGDIR
 70
     0
  9
$PDMODE
 70
     0
  9
$PDSIZE
 40
0.0
  9
$PLINEWID
 40
0.0
  9
$SPLFRAME
 70
     0
  9
$SPLINETYPE
 70
     6
  9
$SPLINESEGS
 70
     8
  9
$HANDSEED
  5
6B282
  9
$SURFTAB1
 70
     6
  9
$SURFTAB2
 70
     6
  9
$SURFTYPE
 70
     6
  9
$SURFU
 70
     6
  9
$SURFV
 70
     6
  9
$UCSBASE
  2

  9
$UCSNAME
  2

  9
$UCSORG
 10
0.0
 20
0.0
 30
0.0
  9
$UCSXDIR
 10
1.0
 20
0.0
 30
0.0
  9
$UCSYDIR
 10
0.0
 20
1.0
 30
0.0
  9
$UCSORTHOREF
  2

  9
$UCSORTHOVIEW
 70
     0
  9
$UCSORGTOP
 10
0.0
 20
0.0
 30
0.0
  9
$UCSORGBOTTOM
 10
0.0
 20
0.0
 30
0.0
  9
$UCSORGLEFT
 10
0.0
 20
0.0
 30
0.0
  9
$UCSORGRIGHT
 10
0.0
 20
0.0
 30
0.0
  9
$UCSORGFRONT
 10
0.0
 20
0.0
 30
0.0
  9
$UCSORGBACK
 10
0.0
 20
0.0
 30
0.0
  9
$PUCSBASE
  2

  9
$PUCSNAME
  2

  9
$PUCSORG
 10
0.0
 20
0.0
 30
0.0
  9
$PUCSXDIR
 10
1.0
 20
0.0
 30
0.0
  9
$PUCSYDIR
 10
0.0
 20
1.0
 30
0.0
  9
$PUCSORTHOREF
  2

  9
$PUCSORTHOVIEW
 70
     0
  9
$PUCSORGTOP
 10
0.0
 20
0.0
 30
0.0
  9
$PUCSORGBOTTOM
 10
0.0
 20
0.0
 30
0.0
  9
$PUCSORGLEFT
 10
0.0
 20
0.0
 30
0.0
  9
$PUCSORGRIGHT
 10
0.0
 20
0.0
 30
0.0
  9
$PUCSORGFRONT
 10
0.0
 20
0.0
 30
0.0
  9
$PUCSORGBACK
 10
0.0
 20
0.0
 30
0.0
  9
$USERI1
 70
     0
  9
$USERI2
 70
     0
  9
$USERI3
 70
     0
  9
$USERI4
 70
     0
  9
$USERI5
 70
     0
  9
$USERR1
 40
0.0
  9
$USERR2
 40
0.0
  9
$USERR3
 40
0.0
  9
$USERR4
 40
0.0
  9
$USERR5
 40
0.0
  9
$WORLDVIEW
 70
     1
  9
$SHADEDGE
 70
     3
  9
$SHADEDIF
 70
    70
  9
$TILEMODE
 70
     1
  9
$MAXACTVP
 70
    64
  9
$PINSBASE
 10
0.0
 20
0.0
 30
0.0
  9
$PLIMCHECK
 70
     0
  9
$PEXTMIN
 10
0.0
 20
0.0
 30
0.0
  9
$PEXTMAX
 10
0.0
 20
0.0
 30
0.0
  9
$PLIMMIN
 10
0.0
 20
0.0
  9
$PLIMMAX
 10
12.0
 20
9.0
  9
$UNITMODE
 70
     0
  9
$VISRETAIN
 70
     1
  9
$PLINEGEN
 70
     0
  9
$PSLTSCALE
 70
     1
  9
$TREEDEPTH
 70
  3020
  9
$CMLSTYLE
  2
Standard
  9
$CMLJUST
 70
     0
  9
$CMLSCALE
 40
1.0
  9
$PROXYGRAPHICS
 70
     1
  9
$MEASUREMENT
 70
     0
  9
$CELWEIGHT
370
    -1
  9
$ENDCAPS
280
     0
  9
$JOINSTYLE
280
     0
  9
$LWDISPLAY
290
     0
  9
$INSUNITS
 70
     1
  9
$HYPERLINKBASE
  1

  9
$STYLESHEET
  1
monochrome.ctb
  9
$XEDIT
290
     1
  9
$CEPSNTYPE
380
     0
  9
$PSTYLEMODE
290
     1
  9
$FINGERPRINTGUID
  2
{358EB121-6EE0-9143-8A3E-6E8E8869FDA6}
  9
$VERSIONGUID
  2
{2C690B08-9EC8-B944-87D9-1E968409A3F8}
  9
$EXTNAMES
290
     1
  9
$PSVPSCALE
 40
0.0
  9
$OLESTARTUP
290
     0
  9
$SORTENTS
280
   127
  9
$INDEXCTL
280
     0
  9
$HIDETEXT
280
     1
  9
$XCLIPFRAME
280
     2
  9
$HALOGAP
280
     0
  9
$OBSCOLOR
 70
   257
  9
$OBSLTYPE
280
     0
  9
$INTERSECTIONDISPLAY
280
     0
  9
$INTERSECTIONCOLOR
 70
   257
  9
$DIMASSOC
280
     2
  9
$PROJECTNAME
  1

  9
$CAMERADISPLAY
290
     0
  9
$LENSLENGTH
 40
50.0
  9
$CAMERAHEIGHT
 40
0.0
  9
$STEPSPERSEC
 40
2.0
  9
$STEPSIZE
 40
6.0
  9
$3DDWFPREC
 40
2.0
  9
$PSOLWIDTH
 40
0.25
  9
$PSOLHEIGHT
 40
4.0
  9
$LOFTANG1
 40
1.570796326794896
  9
$LOFTANG2
 40
1.570796326794896
  9
$LOFTMAG1
 40
0.0
  9
$LOFTMAG2
 40
0.0
  9
$LOFTPARAM
 70
     7
  9
$LOFTNORMALS
280
     1
  9
$LATITUDE
 40
37.795
  9
$LONGITUDE
 40
-122.394
  9
$NORTHDIRECTION
 40
0.0
  9
$TIMEZONE
 70
 -8000
  9
$LIGHTGLYPHDISPLAY
280
     1
  9
$TILEMODELIGHTSYNCH
280
     1
  9
$CMATERIAL
347
96
  9
$SOLIDHIST
280
     0
  9
$SHOWHIST
280
     1
  9
$DWFFRAME
280
     2
  9
$DGNFRAME
280
     0
  9
$REALWORLDSCALE
290
     1
  9
$INTERFERECOLOR
 62
     1
  9
$INTERFEREOBJVS
345
A3
  9
$INTERFEREVPVS
346
A0
  9
$CSHADOW
280
     0
  9
$SHADOWPLANELOCATION
 40
0.0
  0
ENDSEC
  0
SECTION
  2
CLASSES
  0
CLASS
  1
ACDBDICTIONARYWDFLT
  2
AcDbDictionaryWithDefault
  3
ObjectDBX Classes
 90
        0
 91
        1
280
     0
281
     0
  0
CLASS
  1
DICTIONARYVAR
  2
AcDbDictionaryVar
  3
ObjectDBX Classes
 90
        0
 91
       27
280
     0
281
     0
  0
CLASS
  1
TABLESTYLE
  2
AcDbTableStyle
  3
ObjectDBX Classes
 90
     4095
 91
        1
280
     0
281
     0
  0
CLASS
  1
MATERIAL
  2
AcDbMaterial
  3
ObjectDBX Classes
 90
     1153
 91
        3
280
     0
281
     0
  0
CLASS
  1
VISUALSTYLE
  2
AcDbVisualStyle
  3
ObjectDBX Classes
 90
     4095
 91
       25
280
     0
281
     0
  0
CLASS
  1
SCALE
  2
AcDbScale
  3
ObjectDBX Classes
 90
     1153
 91
       34
280
     0
281
     0
  0
CLASS
  1
MLEADERSTYLE
  2
AcDbMLeaderStyle
  3
ACDB_MLEADERSTYLE_CLASS
 90
     4095
 91
        1
280
     0
281
     0
  0
CLASS
  1
CELLSTYLEMAP
  2
AcDbCellStyleMap
  3
ObjectDBX Classes
 90
     1152
 91
        1
280
     0
281
     0
  0
CLASS
  1
EXACXREFPANELOBJECT
  2
ExAcXREFPanelObject
  3
EXAC_ESW
 90
     1025
 91
        1
280
     0
281
     0
  0
CLASS
  1
NPOCOLLECTION
  2
AcDbImpNonPersistentObjectsCollection
  3
ObjectDBX Classes
 90
     1153
 91
        1
280
     0
281
     0
  0
CLASS
  1
LAYER_INDEX
  2
AcDbLayerIndex
  3
ObjectDBX Classes
 90
        0
 91
        0
280
     0
281
     0
  0
CLASS
  1
SPATIAL_INDEX
  2
AcDbSpatialIndex
  3
ObjectDBX Classes
 90
        0
 91
        0
280
     0
281
     0
  0
CLASS
  1
IDBUFFER
  2
AcDbIdBuffer
  3
ObjectDBX Classes
 90
        0
 91
        0
280
     0
281
     0
  0
CLASS
  1
ACDBSECTIONVIEWSTYLE
  2
AcDbSectionViewStyle
  3
ObjectDBX Classes
 90
     1025
 91
        2
280
     0
281
     0
  0
CLASS
  1
ACDBDETAILVIEWSTYLE
  2
AcDbDetailViewStyle
  3
ObjectDBX Classes
 90
     1025
 91
        2
280
     0
281
     0
  0
CLASS
  1
SORTENTSTABLE
  2
AcDbSortentsTable
  3
ObjectDBX Classes
 90
        0
 91
        1
280
     0
281
     0
  0
CLASS
  1
ACAD_EVALUATION_GRAPH
  2
AcDbEvalGraph
  3
ObjectDBX Classes
 90
     1153
 91
        0
280
     0
281
     0
  0
CLASS
  1
BLOCKLINEARPARAMETER
  2
AcDbBlockLinearParameter
  3
ObjectDBX Classes
 90
     1153
 91
        0
280
     0
281
     0
  0
CLASS
  1
BLOCKLINEARGRIP
  2
AcDbBlockLinearGrip
  3
ObjectDBX Classes
 90
     1153
 91
        0
280
     0
281
     0
  0
CLASS
  1
BLOCKGRIPLOCATIONCOMPONENT
  2
AcDbBlockGripExpr
  3
ObjectDBX Classes
 90
     1153
 91
        0
280
     0
281
     0
  0
CLASS
  1
BLOCKSTRETCHACTION
  2
AcDbBlockStretchAction
  3
ObjectDBX Classes
 90
     1153
 91
        0
280
     0
281
     0
  0
CLASS
  1
ACDB_DYNAMICBLOCKPURGEPREVENTER_VERSION
  2
AcDbDynamicBlockPurgePreventer
  3
ObjectDBX Classes
 90
     1153
 91
        0
280
     0
281
     0
  0
CLASS
  1
BLOCKVISIBILITYPARAMETER
  2
AcDbBlockVisibilityParameter
  3
ObjectDBX Classes
 90
     1153
 91
        0
280
     0
281
     0
  0
CLASS
  1
BLOCKVISIBILITYGRIP
  2
AcDbBlockVisibilityGrip
  3
ObjectDBX Classes
 90
     1153
 91
        0
280
     0
281
     0
  0
CLASS
  1
ACDB_BLOCKREPRESENTATION_DATA
  2
AcDbBlockRepresentationData
  3
ObjectDBX Classes
 90
     1153
 91
        0
280
     0
281
     0
  0
CLASS
  1
SURFACE
  2
AcDbSurface
  3
ObjectDBX Classes
 90
     4095
 91
        0
280
     0
281
     1
  0
CLASS
  1
ACDBASSOCPERSSUBENTMANAGER
  2
AcDbAssocPersSubentManager
  3
ObjectDBX Classes
 90
     1024
 91
        1
280
     0
281
     0
  0
CLASS
  1
BLOCKARRAYACTION
  2
AcDbBlockArrayAction
  3
ObjectDBX Classes
 90
     1153
 91
        0
280
     0
281
     0
  0
CLASS
  1
BLOCKLOOKUPPARAMETER
  2
AcDbBlockLookupParameter
  3
ObjectDBX Classes
 90
     1153
 91
        0
280
     0
281
     0
  0
CLASS
  1
BLOCKLOOKUPGRIP
  2
AcDbBlockLookupGrip
  3
ObjectDBX Classes
 90
     1153
 91
        0
280
     0
281
     0
  0
CLASS
  1
BLOCKLOOKUPACTION
  2
AcDbBlockLookupAction
  3
ObjectDBX Classes
 90
     1153
 91
        0
280
     0
281
     0
  0
ENDSEC
  0
SECTION
  2
TABLES
  0
TABLE
  2
VPORT
  5
8
330
0
100
AcDbSymbolTable
 70
     1
  0
VPORT
  5
94
330
8
100
AcDbSymbolTableRecord
100
AcDbViewportTableRecord
  2
*Active
 70
     0
 10
0.0
 20
0.0
 11
1.0
 21
1.0
 12
104447.5074244386
 22
95264.39525971294
 13
0.0
 23
0.0
 14
0.5
 24
0.5
 15
0.5
 25
0.5
 16
0.0
 26
0.0
 36
1.0
 17
0.0
 27
0.0
 37
0.0
 40
1.914228139630493
 41
2.293369663941871
 42
50.0
 43
0.0
 44
0.0
 50
0.0
 51
0.0
 71
     0
 72
  1000
 73
     1
 74
     3
 75
     0
 76
     0
 77
     0
 78
     0
281
     0
 65
     1
110
0.0
120
0.0
130
0.0
111
1.0
121
0.0
131
0.0
112
0.0
122
1.0
132
0.0
 79
     0
146
0.0
348
9F
 60
     3
 61
     5
292
     1
282
     1
141
0.0
142
0.0
 63
   250
421
  3355443
1001
ACAD_NAV_VCDISPLAY
1070
     3
  0
ENDTAB
  0
TABLE
  2
LTYPE
  5
5
330
0
100
AcDbSymbolTable
 70
     1
  0
LTYPE
  5
14
330
5
100
AcDbSymbolTableRecord
100
AcDbLinetypeTableRecord
  2
ByBlock
 70
     0
  3

 72
    65
 73
     0
 40
0.0
  0
LTYPE
  5
15
330
5
100
AcDbSymbolTableRecord
100
AcDbLinetypeTableRecord
  2
ByLayer
 70
     0
  3

 72
    65
 73
     0
 40
0.0
  0
LTYPE
  5
16
330
5
100
AcDbSymbolTableRecord
100
AcDbLinetypeTableRecord
  2
Continuous
 70
     0
  3
Solid line
 72
    65
 73
     0
 40
0.0
  0
ENDTAB
  0
TABLE
  2
LAYER
  5
2
102
{ACAD_XDICTIONARY
360
18E
102
}
330
0
100
AcDbSymbolTable
 70
     2
  0
LAYER
  5
10
102
{ACAD_XDICTIONARY
360
E6
102
}
330
2
100
AcDbSymbolTableRecord
100
AcDbLayerTableRecord
  2
0
 70
     0
 62
     7
  6
Continuous
370
    -3
390
F
347
98
348
0
  0
LAYER
  5
204
330
2
100
AcDbSymbolTableRecord
100
AcDbLayerTableRecord
  2
freecads.com
 70
     0
 62
     7
  6
Continuous
370
    -3
390
F
347
98
348
0
1001
AcAecLayerStandard
1000

1000

1001
AcCmTransparency
1071
        0
  0
ENDTAB
  0
TABLE
  2
STYLE
  5
3
330
0
100
AcDbSymbolTable
 70
     1
  0
STYLE
  5
11
330
3
100
AcDbSymbolTableRecord
100
AcDbTextStyleTableRecord
  2
Standard
 70
     0
 40
0.0
 41
1.0
 50
0.0
 71
     0
 42
0.2
  3
arial.ttf
  4

1001
ACAD
1000
Arial
1071
       34
  0
ENDTAB
  0
TABLE
  2
VIEW
  5
6
330
0
100
AcDbSymbolTable
 70
     0
  0
ENDTAB
  0
TABLE
  2
UCS
  5
7
330
0
100
AcDbSymbolTable
 70
     0
  0
ENDTAB
  0
TABLE
  2
APPID
  5
9
330
0
100
AcDbSymbolTable
 70
    31
  0
APPID
  5
12
330
9
100
AcDbSymbolTableRecord
100
AcDbRegAppTableRecord
  2
ACAD
 70
     0
  0
APPID
  5
DD
330
9
100
AcDbSymbolTableRecord
100
AcDbRegAppTableRecord
  2
AcadAnnoPO
 70
     0
  0
APPID
  5
DE
330
9
100
AcDbSymbolTableRecord
100
AcDbRegAppTableRecord
  2
AcadAnnotative
 70
     0
  0
APPID
  5
DF
330
9
100
AcDbSymbolTableRecord
100
AcDbRegAppTableRecord
  2
ACAD_DSTYLE_DIMJAG
 70
     0
  0
APPID
  5
E0
330
9
100
AcDbSymbolTableRecord
100
AcDbRegAppTableRecord
  2
ACAD_DSTYLE_DIMTALN
 70
     0
  0
APPID
  5
107
330
9
100
AcDbSymbolTableRecord
100
AcDbRegAppTableRecord
  2
ACAD_MLEADERVER
 70
     0
  0
APPID
  5
1A6
330
9
100
AcDbSymbolTableRecord
100
AcDbRegAppTableRecord
  2
ACAD_NAV_VCDISPLAY
 70
     0
  0
APPID
  5
205
330
9
100
AcDbSymbolTableRecord
100
AcDbRegAppTableRecord
  2
AcAecLayerStandard
 70
     0
  0
APPID
  5
206
330
9
100
AcDbSymbolTableRecord
100
AcDbRegAppTableRecord
  2
AcCmTransparency
 70
     0
  0
APPID
  5
222
330
9
100
AcDbSymbolTableRecord
100
AcDbRegAppTableRecord
  2
ACAD_PSEXT
 70
     0
  0
APPID
  5
2DA
330
9
100
AcDbSymbolTableRecord
100
AcDbRegAppTableRecord
  2
GradientColor1ACI
 70
     0
  0
APPID
  5
2DB
330
9
100
AcDbSymbolTableRecord
100
AcDbRegAppTableRecord
  2
GradientColor2ACI
 70
     0
  0
APPID
  5
2F3
330
9
100
AcDbSymbolTableRecord
100
AcDbRegAppTableRecord
  2
ACAD_EXEMPT_FROM_CAD_STANDARDS
 70
     0
  0
APPID
  5
A1A
330
9
100
AcDbSymbolTableRecord
100
AcDbRegAppTableRecord
  2
AcDbBlockRepETag
 70
     0
  0
APPID
  5
2282
330
9
100
AcDbSymbolTableRecord
100
AcDbRegAppTableRecord
  2
RAK
 70
     0
  0
APPID
  5
39F4
330
9
100
AcDbSymbolTableRecord
100
AcDbRegAppTableRecord
  2
ACAD_DSTYLE_DIMJOGGED_JOGANGLE_SYMBOL
 70
     0
  0
APPID
  5
39F5
330
9
100
AcDbSymbolTableRecord
100
AcDbRegAppTableRecord
  2
AcDbDynamicBlockGUID
 70
     0
  0
APPID
  5
39F6
330
9
100
AcDbSymbolTableRecord
100
AcDbRegAppTableRecord
  2
ACAD_DSTYLE_DIMBREAK
 70
     0
  0
APPID
  5
3B59
330
9
100
AcDbSymbolTableRecord
100
AcDbRegAppTableRecord
  2
AEC_XDATA_BOUND_SPACE
 70
     0
  0
APPID
  5
75C5
330
9
100
AcDbSymbolTableRecord
100
AcDbRegAppTableRecord
  2
AcDbDynamicBlockTrueName
 70
     0
  0
APPID
  5
75C6
330
9
100
AcDbSymbolTableRecord
100
AcDbRegAppTableRecord
  2
AcDbBlockRepBTag
 70
     0
  0
APPID
  5
75C7
330
9
100
AcDbSymbolTableRecord
100
AcDbRegAppTableRecord
  2
ACAUTHENVIRON
 70
     0
  0
APPID
  5
AA90
330
9
100
AcDbSymbolTableRecord
100
AcDbRegAppTableRecord
  2
Acad_TC
 70
     0
  0
APPID
  5
AA9C
330
9
100
AcDbSymbolTableRecord
100
AcDbRegAppTableRecord
  2
AcDbBlockArrayActionTag
 70
     0
  0
APPID
  5
BEE4
330
9
100
AcDbSymbolTableRecord
100
AcDbRegAppTableRecord
  2
ACAD_DSTYLE_DIMTEXT_FILL
 70
     0
  0
APPID
  5
219E5
330
9
100
AcDbSymbolTableRecord
100
AcDbRegAppTableRecord
  2
AECLAY
 70
     0
  0
APPID
  5
26B46
330
9
100
AcDbSymbolTableRecord
100
AcDbRegAppTableRecord
  2
REVIT
 70
     0
  0
APPID
  5
280A5
330
9
100
AcDbSymbolTableRecord
100
AcDbRegAppTableRecord
  2
HATCHBACKGROUNDCOLOR
 70
     0
  0
APPID
  5
29EE0
330
9
100
AcDbSymbolTableRecord
100
AcDbRegAppTableRecord
  2
ACAD_STEPID
 70
     0
  0
APPID
  5
29EE1
330
9
100
AcDbSymbolTableRecord
100
AcDbRegAppTableRecord
  2
AcLayerTools
 70
     0
  0
APPID
  5
4D86C
330
9
100
AcDbSymbolTableRecord
100
AcDbRegAppTableRecord
  2
PE_URL
 70
     0
  0
ENDTAB
  0
TABLE
  2
DIMSTYLE
  5
A
330
0
100
AcDbSymbolTable
 70
     1
100
AcDbDimStyleTable
 71
     1
340
27
  0
DIMSTYLE
105
27
330
A
100
AcDbSymbolTableRecord
100
AcDbDimStyleTableRecord
  2
Standard
 70
     0
340
11
  0
ENDTAB
  0
TABLE
  2
BLOCK_RECORD
  5
1
330
0
100
AcDbSymbolTable
 70
     1
  0
BLOCK_RECORD
  5
1F
102
{ACAD_XDICTIONARY
360
15D
102
}
330
1
100
AcDbSymbolTableRecord
100
AcDbBlockTableRecord
  2
*Model_Space
340
22
 70
     0
280
     1
281
     0
  0
BLOCK_RECORD
  5
58
330
1
100
AcDbSymbolTableRecord
100
AcDbBlockTableRecord
  2
*Paper_Space
340
59
 70
     0
280
     1
281
     0
  0
BLOCK_RECORD
  5
5D
330
1
100
AcDbSymbolTableRecord
100
AcDbBlockTableRecord
  2
*Paper_Space0
340
5E
 70
     0
280
     1
281
     0
  0
ENDTAB
  0
ENDSEC
  0
SECTION
  2
BLOCKS
  0
BLOCK
  5
20
330
1F
100
AcDbEntity
  8
0
100
AcDbBlockBegin
  2
*Model_Space
 70
     0
 10
0.0
 20
0.0
 30
0.0
  3
*Model_Space
  1

  0
ENDBLK
  5
21
330
1F
100
AcDbEntity
  8
0
100
AcDbBlockEnd
  0
BLOCK
  5
5A
330
58
100
AcDbEntity
 67
     1
  8
0
100
AcDbBlockBegin
  2
*Paper_Space
 70
     0
 10
0.0
 20
0.0
 30
0.0
  3
*Paper_Space
  1

  0
ENDBLK
  5
5B
330
58
100
AcDbEntity
 67
     1
  8
0
100
AcDbBlockEnd
  0
BLOCK
  5
5F
330
5D
100
AcDbEntity
 67
     1
  8
0
100
AcDbBlockBegin
  2
*Paper_Space0
 70
     0
 10
0.0
 20
0.0
 30
0.0
  3
*Paper_Space0
  1

  0
ENDBLK
  5
60
330
5D
100
AcDbEntity
 67
     1
  8
0
100
AcDbBlockEnd
  0
ENDSEC
  0
SECTION
  2
ENTITIES
  0
LINE
  5
5E310
330
1F
100
AcDbEntity
  8
freecads.com
100
AcDbLine
 10
104447.2509344045
 20
95264.29105306201
 30
0.0
 11
104447.2545548857
 21
95264.29630865125
 31
0.0
  0
LINE
  5
5E311
330
1F
100
AcDbEntity
  8
freecads.com
100
AcDbLine
 10
104447.2545548857
 20
95264.29630865125
 30
0.0
 11
104447.2591446486
 21
95264.30107973411
 31
0.0
  0
LINE
  5
5E312
330
1F
100
AcDbEntity
  8
freecads.com
100
AcDbLine
 10
104447.2591446486
 20
95264.30107973411
 30
0.0
 11
104447.2642896703
 21
95264.30547418794
 31
0.0
  0
LINE
  5
5E313
330
1F
100
AcDbEntity
  8
freecads.com
100
AcDbLine
 10
104447.2642896703
 20
95264.30547418794
 30
0.0
 11
104447.2695759279
 21
95264.3096006971
 31
0.0
  0
LINE
  5
5E314
330
1F
100
AcDbEntity
  8
freecads.com
100
AcDbLine
 10
104447.2695759279
 20
95264.3096006971
 30
0.0
 11
104447.2745893984
 21
95264.31356686989
 31
0.0
  0
LINE
  5
5E315
330
1F
100
AcDbEntity
  8
freecads.com
100
AcDbLine
 10
104447.2745893984
 20
95264.31356686989
 30
0.0
 11
104447.27891579
 21
95264.31748139073
 31
0.0
  0
LINE
  5
5E316
330
1F
100
AcDbEntity
  8
freecads.com
100
AcDbLine
 10
104447.27891579
 20
95264.31748139073
 30
0.0
 11
104447.2821408107
 21
95264.3214524059
 31
0.0
  0
LINE
  5
5E317
330
1F
100
AcDbEntity
  8
freecads.com
100
AcDbLine
 10
104447.2821408107
 20
95264.3214524059
 30
0.0
 11
104447.2769807238
 21
95264.31902610783
 31
0.0
  0
LINE
  5
5E318
330
1F
100
AcDbEntity
  8
freecads.com
100
AcDbLine
 10
104447.2769807238
 20
95264.31902610783
 30
0.0
 11
104447.2710810989
 21
95264.31657021745
 31
0.0
  0
LINE
  5
5E319
330
1F
100
AcDbEntity
  8
freecads.com
100
AcDbLine
 10
104447.2710810989
 20
95264.31657021745
 30
0.0
 11
104447.26468809
 21
95264.31445786659
 31
0.0
  0
LINE
  5
5E31A
330
1F
100
AcDbEntity
  8
freecads.com
100
AcDbLine
 10
104447.26468809
 20
95264.31445786659
 30
0.0
 11
104447.2580483891
 21
95264.31306299404
 31
0.0
  0
LINE
  5
5E31B
330
1F
100
AcDbEntity
  8
freecads.com
100
AcDbLine
 10
104447.2580483891
 20
95264.31306299404
 30
0.0
 11
104447.2514089571
 21
95264.3127590006
 31
0.0
  0
LINE
  5
5E31C
330
1F
100
AcDbEntity
  8
freecads.com
100
AcDbLine
 10
104447.2514089571
 20
95264.3127590006
 30
0.0
 11
104447.2450159482
 21
95264.31391982512
 31
0.0
  0
LINE
  5
5E31D
330
1F
100
AcDbEntity
  8
freecads.com
100
AcDbLine
 10
104447.2450159482
 20
95264.31391982512
 30
0.0
 11
104447.2454488026
 21
95264.30864459737
 31
0.0
  0
LINE
  5
5E31E
330
1F
100
AcDbEntity
  8
freecads.com
100
AcDbLine
 10
104447.2454488026
 20
95264.30864459737
 30
0.0
 11
104447.2452513414
 21
95264.30319262301
 31
0.0
  0
LINE
  5
5E31F
330
1F
100
AcDbEntity
  8
freecads.com
100
AcDbLine
 10
104447.2452513414
 20
95264.30319262301
 30
0.0
 11
104447.2464156632
 21
95264.29738769344
 31
0.0
  0
LINE
  5
5E320
330
1F
100
AcDbEntity
  8
freecads.com
100
AcDbLine
 10
104447.2464156632
 20
95264.29738769344
 30
0.0
 11
104447.2509344045
 21
95264.29105306201
 31
0.0
  0
LINE
  5
5E321
330
1F
100
AcDbEntity
  8
freecads.com
100
AcDbLine
 10
104447.2700348773
 20
95264.26495805001
 30
0.0
 11
104447.2737783009
 21
95264.26919324356
 31
0.0
  0
LINE
  5
5E322
330
1F
100
AcDbEntity
  8
freecads.com
100
AcDbLine
 10
104447.2737783009
 20
95264.26919324356
 30
0.0
 11
104447.2787032636
 21
95264.27242149246
 31
0.0
  0
LINE
  5
5E323
330
1F
100
AcDbEntity
  8
freecads.com
100
AcDbLine
 10
104447.2787032636
 20
95264.27242149246
 30
0.0
 11
104447.2843432835
 21
95264.27495351569
 31
0.0
  0
LINE
  5
5E324
330
1F
100
AcDbEntity
  8
freecads.com
100
AcDbLine
 10
104447.2843432835
 20
95264.27495351569
 30
0.0
 11
104447.2902326856
 21
95264.27709922513
 31
0.0
  0
LINE
  5
5E325
330
1F
100
AcDbEntity
  8
freecads.com
100
AcDbLine
 10
104447.2902326856
 20
95264.27709922513
 30
0.0
 11
104447.2959055259
 21
95264.27916987779
 31
0.0
  0
LINE
  5
5E326
330
1F
100
AcDbEntity
  8
freecads.com
100
AcDbLine
 10
104447.2959055259
 20
95264.27916987779
 30
0.0
 11
104447.3008961298
 21
95264.28147565457
 31
0.0
  0
LINE
  5
5E327
330
1F
100
AcDbEntity
  8
freecads.com
100
AcDbLine
 10
104447.3008961298
 20
95264.28147565457
 30
0.0
 11
104447.304738553
 21
95264.28432754345
 31
0.0
  0
LINE
  5
5E328
330
1F
100
AcDbEntity
  8
freecads.com
100
AcDbLine
 10
104447.304738553
 20
95264.28432754345
 30
0.0
 11
104447.2991047206
 21
95264.28334481069
 31
0.0
  0
LINE
  5
5E329
330
1F
100
AcDbEntity
  8
freecads.com
100
AcDbLine
 10
104447.2991047206
 20
95264.28334481069
 30
0.0
 11
104447.2929393033
 21
95264.28239489844
 31
0.0
  0
LINE
  5
5E32A
330
1F
100
AcDbEntity
  8
freecads.com
100
AcDbLine
 10
104447.2929393033
 20
95264.28239489844
 30
0.0
 11
104447.2864349198
 21
95264.28170862653
 31
0.0
  0
LINE
  5
5E32B
330
1F
100
AcDbEntity
  8
freecads.com
100
AcDbLine
 10
104447.2864349198
 20
95264.28170862653
 30
0.0
 11
104447.279784727
 21
95264.28151654572
 31
0.0
  0
LINE
  5
5E32C
330
1F
100
AcDbEntity
  8
freecads.com
100
AcDbLine
 10
104447.279784727
 20
95264.28151654572
 30
0.0
 11
104447.2731816129
 21
95264.2820492068
 31
0.0
  0
LINE
  5
5E32D
330
1F
100
AcDbEntity
  8
freecads.com
100
AcDbLine
 10
104447.2731816129
 20
95264.2820492068
 30
0.0
 11
104447.2668184653
 21
95264.2835368915
 31
0.0
  0
LINE
  5
5E32E
330
1F
100
AcDbEntity
  8
freecads.com
100
AcDbLine
 10
104447.2668184653
 20
95264.2835368915
 30
0.0
 11
104447.260888172
 21
95264.28621068866
 31
0.0
  0
LINE
  5
5E32F
330
1F
100
AcDbEntity
  8
freecads.com
100
AcDbLine
 10
104447.260888172
 20
95264.28621068866
 30
0.0
 11
104447.2615257512
 21
95264.2792659182
 31
0.0
  0
LINE
  5
5E330
330
1F
100
AcDbEntity
  8
freecads.com
100
AcDbLine
 10
104447.2615257512
 20
95264.2792659182
 30
0.0
 11
104447.2643754879
 21
95264.27172338365
 31
0.0
  0
LINE
  5
5E331
330
1F
100
AcDbEntity
  8
freecads.com
100
AcDbLine
 10
104447.2643754879
 20
95264.27172338365
 30
0.0
 11
104447.2700348773
 21
95264.26495805001
 31
0.0
  0
LINE
  5
5E332
330
1F
100
AcDbEntity
  8
freecads.com
100
AcDbLine
 10
104447.2904804537
 20
95264.24155324543
 30
0.0
 11
104447.2959940338
 21
95264.24609915794
 31
0.0
  0
LINE
  5
5E333
330
1F
100
AcDbEntity
  8
freecads.com
100
AcDbLine
 10
104447.2959940338
 20
95264.24609915794
 30
0.0
 11
104447.3020383918
 21
95264.24994265729
 31
0.0
  0
LINE
  5
5E334
330
1F
100
AcDbEntity
  8
freecads.com
100
AcDbLine
 10
104447.3020383918
 20
95264.24994265729
 30
0.0
 11
104447.308202195
 21
95264.2533229029
 31
0.0
  0
LINE
  5
5E335
330
1F
100
AcDbEntity
  8
freecads.com
100
AcDbLine
 10
104447.308202195
 20
95264.2533229029
 30
0.0
 11
104447.3140746489
 21
95264.25647878525
 31
0.0
  0
LINE
  5
5E336
330
1F
100
AcDbEntity
  8
freecads.com
100
AcDbLine
 10
104447.3140746489
 20
95264.25647878525
 30
0.0
 11
104447.3192444205
 21
95264.25965000175
 31
0.0
  0
LINE
  5
5E337
330
1F
100
AcDbEntity
  8
freecads.com
100
AcDbLine
 10
104447.3192444205
 20
95264.25965000175
 30
0.0
 11
104447.3233009842
 21
95264.26307490483
 31
0.0
  0
LINE
  5
5E338
330
1F
100
AcDbEntity
  8
freecads.com
100
AcDbLine
 10
104447.3233009842
 20
95264.26307490483
 30
0.0
 11
104447.3175331795
 21
95264.2608605951
 31
0.0
  0
LINE
  5
5E339
330
1F
100
AcDbEntity
  8
freecads.com
100
AcDbLine
 10
104447.3175331795
 20
95264.2608605951
 30
0.0
 11
104447.3116833235
 21
95264.25872080411
 31
0.0
  0
LINE
  5
5E33A
330
1F
100
AcDbEntity
  8
freecads.com
100
AcDbLine
 10
104447.3116833235
 20
95264.25872080411
 30
0.0
 11
104447.3055792428
 21
95264.25695468294
 31
0.0
  0
LINE
  5
5E33B
330
1F
100
AcDbEntity
  8
freecads.com
100
AcDbLine
 10
104447.3055792428
 20
95264.25695468294
 30
0.0
 11
104447.2990493024
 21
95264.25586111361
 31
0.0
  0
LINE
  5
5E33C
330
1F
100
AcDbEntity
  8
freecads.com
100
AcDbLine
 10
104447.2990493024
 20
95264.25586111361
 30
0.0
 11
104447.2919213288
 21
95264.25573897821
 31
0.0
  0
LINE
  5
5E33D
330
1F
100
AcDbEntity
  8
freecads.com
100
AcDbLine
 10
104447.2919213288
 20
95264.25573897821
 30
0.0
 11
104447.2840239559
 21
95264.25688742776
 31
0.0
  0
LINE
  5
5E33E
330
1F
100
AcDbEntity
  8
freecads.com
100
AcDbLine
 10
104447.2840239559
 20
95264.25688742776
 30
0.0
 11
104447.2850403162
 21
95264.25165658842
 31
0.0
  0
LINE
  5
5E33F
330
1F
100
AcDbEntity
  8
freecads.com
100
AcDbLine
 10
104447.2850403162
 20
95264.25165658842
 30
0.0
 11
104447.2871327596
 21
95264.24660491693
 31
0.0
  0
LINE
  5
5E340
330
1F
100
AcDbEntity
  8
freecads.com
100
AcDbLine
 10
104447.2871327596
 20
95264.24660491693
 30
0.0
 11
104447.2904804537
 21
95264.24155324543
 31
0.0
  0
LINE
  5
5E341
330
1F
100
AcDbEntity
  8
freecads.com
100
AcDbLine
 10
104447.314154279
 20
95264.2114229223
 30
0.0
 11
104447.3188279763
 21
95264.216762446
 31
0.0
  0
LINE
  5
5E342
330
1F
100
AcDbEntity
  8
freecads.com
100
AcDbLine
 10
104447.3188279763
 20
95264.216762446
 30
0.0
 11
104447.3244335615
 21
95264.22172560966
 31
0.0
  0
LINE
  5
5E343
330
1F
100
AcDbEntity
  8
freecads.com
100
AcDbLine
 10
104447.3244335615
 20
95264.22172560966
 30
0.0
 11
104447.3304531697
 21
95264.22633124477
 31
0.0
  0
LINE
  5
5E344
330
1F
100
AcDbEntity
  8
freecads.com
100
AcDbLine
 10
104447.3304531697
 20
95264.22633124477
 30
0.0
 11
104447.3363692048
 21
95264.23059791374
 31
0.0
  0
LINE
  5
5E345
330
1F
100
AcDbEntity
  8
freecads.com
100
AcDbLine
 10
104447.3363692048
 20
95264.23059791374
 30
0.0
 11
104447.3416640711
 21
95264.23454471705
 31
0.0
  0
LINE
  5
5E346
330
1F
100
AcDbEntity
  8
freecads.com
100
AcDbLine
 10
104447.3416640711
 20
95264.23454471705
 30
0.0
 11
104447.3458201725
 21
95264.23819021713
 31
0.0
  0
LINE
  5
5E347
330
1F
100
AcDbEntity
  8
freecads.com
100
AcDbLine
 10
104447.3458201725
 20
95264.23819021713
 30
0.0
 11
104447.3483199133
 21
95264.24155324543
 31
0.0
  0
LINE
  5
5E348
330
1F
100
AcDbEntity
  8
freecads.com
100
AcDbLine
 10
104447.3483199133
 20
95264.24155324543
 30
0.0
 11
104447.3429583299
 21
95264.2393830551
 31
0.0
  0
LINE
  5
5E349
330
1F
100
AcDbEntity
  8
freecads.com
100
AcDbLine
 10
104447.3429583299
 20
95264.2393830551
 30
0.0
 11
104447.3371168135
 21
95264.23677516802
 31
0.0
  0
LINE
  5
5E34A
330
1F
100
AcDbEntity
  8
freecads.com
100
AcDbLine
 10
104447.3371168135
 20
95264.23677516802
 30
0.0
 11
104447.3309409043
 21
95264.23404971888
 31
0.0
  0
LINE
  5
5E34B
330
1F
100
AcDbEntity
  8
freecads.com
100
AcDbLine
 10
104447.3309409043
 20
95264.23404971888
 30
0.0
 11
104447.3245769496
 21
95264.23152657335
 31
0.0
  0
LINE
  5
5E34C
330
1F
100
AcDbEntity
  8
freecads.com
100
AcDbLine
 10
104447.3245769496
 20
95264.23152657335
 30
0.0
 11
104447.3181707587
 21
95264.22952586608
 31
0.0
  0
LINE
  5
5E34D
330
1F
100
AcDbEntity
  8
freecads.com
100
AcDbLine
 10
104447.3181707587
 20
95264.22952586608
 30
0.0
 11
104447.3118678717
 21
95264.22836719374
 31
0.0
  0
LINE
  5
5E34E
330
1F
100
AcDbEntity
  8
freecads.com
100
AcDbLine
 10
104447.3118678717
 20
95264.22836719374
 30
0.0
 11
104447.305814636
 21
95264.22837122906
 31
0.0
  0
LINE
  5
5E34F
330
1F
100
AcDbEntity
  8
freecads.com
100
AcDbLine
 10
104447.305814636
 20
95264.22837122906
 30
0.0
 11
104447.3060637492
 21
95264.22320011235
 31
0.0
  0
LINE
  5
5E350
330
1F
100
AcDbEntity
  8
freecads.com
100
AcDbLine
 10
104447.3060637492
 20
95264.22320011235
 30
0.0
 11
104447.3101388754
 21
95264.21695291269
 31
0.0
  0
LINE
  5
5E351
330
1F
100
AcDbEntity
  8
freecads.com
100
AcDbLine
 10
104447.3101388754
 20
95264.21695291269
 30
0.0
 11
104447.314154279
 21
95264.2114229223
 31
0.0
  0
LINE
  5
5E352
330
1F
100
AcDbEntity
  8
freecads.com
100
AcDbLine
 10
104447.3456297058
 20
95264.18075455767
 30
0.0
 11
104447.348381788
 21
95264.18671148396
 31
0.0
  0
LINE
  5
5E353
330
1F
100
AcDbEntity
  8
freecads.com
100
AcDbLine
 10
104447.348381788
 20
95264.18671148396
 30
0.0
 11
104447.3518249845
 21
95264.19224093631
 31
0.0
  0
LINE
  5
5E354
330
1F
100
AcDbEntity
  8
freecads.com
100
AcDbLine
 10
104447.3518249845
 20
95264.19224093631
 30
0.0
 11
104447.3557330488
 21
95264.19739402863
 31
0.0
  0
LINE
  5
5E355
330
1F
100
AcDbEntity
  8
freecads.com
100
AcDbLine
 10
104447.3557330488
 20
95264.19739402863
 30
0.0
 11
104447.3598800036
 21
95264.20222160586
 31
0.0
  0
LINE
  5
5E356
330
1F
100
AcDbEntity
  8
freecads.com
100
AcDbLine
 10
104447.3598800036
 20
95264.20222160586
 30
0.0
 11
104447.3640404094
 21
95264.2067747819
 31
0.0
  0
LINE
  5
5E357
330
1F
100
AcDbEntity
  8
freecads.com
100
AcDbLine
 10
104447.3640404094
 20
95264.2067747819
 30
0.0
 11
104447.3679882887
 21
95264.21110413272
 31
0.0
  0
LINE
  5
5E358
330
1F
100
AcDbEntity
  8
freecads.com
100
AcDbLine
 10
104447.3679882887
 20
95264.21110413272
 30
0.0
 11
104447.3714976643
 21
95264.21526077221
 31
0.0
  0
LINE
  5
5E359
330
1F
100
AcDbEntity
  8
freecads.com
100
AcDbLine
 10
104447.3714976643
 20
95264.21526077221
 30
0.0
 11
104447.3743430967
 21
95264.21929581433
 31
0.0
  0
LINE
  5
5E35A
330
1F
100
AcDbEntity
  8
freecads.com
100
AcDbLine
 10
104447.3743430967
 20
95264.21929581433
 30
0.0
 11
104447.3762980705
 21
95264.22325983496
 31
0.0
  0
LINE
  5
5E35B
330
1F
100
AcDbEntity
  8
freecads.com
100
AcDbLine
 10
104447.3762980705
 20
95264.22325983496
 30
0.0
 11
104447.3714435912
 21
95264.21970633998
 31
0.0
  0
LINE
  5
5E35C
330
1F
100
AcDbEntity
  8
freecads.com
100
AcDbLine
 10
104447.3714435912
 20
95264.21970633998
 30
0.0
 11
104447.366214097
 21
95264.21601725854
 31
0.0
  0
LINE
  5
5E35D
330
1F
100
AcDbEntity
  8
freecads.com
100
AcDbLine
 10
104447.366214097
 20
95264.21601725854
 30
0.0
 11
104447.3606881419
 21
95264.21235965251
 31
0.0
  0
LINE
  5
5E35E
330
1F
100
AcDbEntity
  8
freecads.com
100
AcDbLine
 10
104447.3606881419
 20
95264.21235965251
 30
0.0
 11
104447.354944549
 21
95264.20890085285
 31
0.0
  0
LINE
  5
5E35F
330
1F
100
AcDbEntity
  8
freecads.com
100
AcDbLine
 10
104447.354944549
 20
95264.20890085285
 30
0.0
 11
104447.3490624105
 21
95264.20580765234
 31
0.0
  0
LINE
  5
5E360
330
1F
100
AcDbEntity
  8
freecads.com
100
AcDbLine
 10
104447.3490624105
 20
95264.20580765234
 30
0.0
 11
104447.3431202804
 21
95264.20324711292
 31
0.0
  0
LINE
  5
5E361
330
1F
100
AcDbEntity
  8
freecads.com
100
AcDbLine
 10
104447.3431202804
 20
95264.20324711292
 30
0.0
 11
104447.3371969816
 21
95264.20138656547
 31
0.0
  0
LINE
  5
5E362
330
1F
100
AcDbEntity
  8
freecads.com
100
AcDbLine
 10
104447.3371969816
 20
95264.20138656547
 30
0.0
 11
104447.3313716065
 21
95264.20039307186
 31
0.0
  0
LINE
  5
5E363
330
1F
100
AcDbEntity
  8
freecads.com
100
AcDbLine
 10
104447.3313716065
 20
95264.20039307186
 30
0.0
 11
104447.3329757772
 21
95264.19326913359
 31
0.0
  0
LINE
  5
5E364
330
1F
100
AcDbEntity
  8
freecads.com
100
AcDbLine
 10
104447.3329757772
 20
95264.19326913359
 30
0.0
 11
104447.3388245571
 21
95264.18608520369
 31
0.0
  0
LINE
  5
5E365
330
1F
100
AcDbEntity
  8
freecads.com
100
AcDbLine
 10
104447.3388245571
 20
95264.18608520369
 30
0.0
 11
104447.3456297058
 21
95264.18075455767
 31
0.0
  0
LINE
  5
5E366
330
1F
100
AcDbEntity
  8
freecads.com
100
AcDbLine
 10
104447.3865208587
 20
95264.1465889234
 30
0.0
 11
104447.3893130249
 21
95264.15146196512
 31
0.0
  0
LINE
  5
5E367
330
1F
100
AcDbEntity
  8
freecads.com
100
AcDbLine
 10
104447.3893130249
 20
95264.15146196512
 30
0.0
 11
104447.3927650991
 21
95264.15605065192
 31
0.0
  0
LINE
  5
5E368
330
1F
100
AcDbEntity
  8
freecads.com
100
AcDbLine
 10
104447.3927650991
 20
95264.15605065192
 30
0.0
 11
104447.3967533316
 21
95264.16039533692
 31
0.0
  0
LINE
  5
5E369
330
1F
100
AcDbEntity
  8
freecads.com
100
AcDbLine
 10
104447.3967533316
 20
95264.16039533692
 30
0.0
 11
104447.401154511
 21
95264.16453664223
 31
0.0
  0
LINE
  5
5E36A
330
1F
100
AcDbEntity
  8
freecads.com
100
AcDbLine
 10
104447.401154511
 20
95264.16453664223
 30
0.0
 11
104447.4058451566
 21
95264.16851465194
 31
0.0
  0
LINE
  5
5E36B
330
1F
100
AcDbEntity
  8
freecads.com
100
AcDbLine
 10
104447.4058451566
 20
95264.16851465194
 30
0.0
 11
104447.4107017881
 21
95264.1723699882
 31
0.0
  0
LINE
  5
5E36C
330
1F
100
AcDbEntity
  8
freecads.com
100
AcDbLine
 10
104447.4107017881
 20
95264.1723699882
 30
0.0
 11
104447.4156011938
 21
95264.17614327312
 31
0.0
  0
LINE
  5
5E36D
330
1F
100
AcDbEntity
  8
freecads.com
100
AcDbLine
 10
104447.4156011938
 20
95264.17614327312
 30
0.0
 11
104447.4204196244
 21
95264.17987459083
 31
0.0
  0
LINE
  5
5E36E
330
1F
100
AcDbEntity
  8
freecads.com
100
AcDbLine
 10
104447.4204196244
 20
95264.17987459083
 30
0.0
 11
104447.4250338681
 21
95264.1836042944
 31
0.0
  0
LINE
  5
5E36F
330
1F
100
AcDbEntity
  8
freecads.com
100
AcDbLine
 10
104447.4250338681
 20
95264.1836042944
 30
0.0
 11
104447.4293204446
 21
95264.18737300597
 31
0.0
  0
LINE
  5
5E370
330
1F
100
AcDbEntity
  8
freecads.com
100
AcDbLine
 10
104447.4293204446
 20
95264.18737300597
 30
0.0
 11
104447.4331558734
 21
95264.19122107869
 31
0.0
  0
LINE
  5
5E371
330
1F
100
AcDbEntity
  8
freecads.com
100
AcDbLine
 10
104447.4331558734
 20
95264.19122107869
 30
0.0
 11
104447.4364169428
 21
95264.19518886561
 31
0.0
  0
LINE
  5
5E372
330
1F
100
AcDbEntity
  8
freecads.com
100
AcDbLine
 10
104447.4364169428
 20
95264.19518886561
 30
0.0
 11
104447.4389799034
 21
95264.19931698891
 31
0.0
  0
LINE
  5
5E373
330
1F
100
AcDbEntity
  8
freecads.com
100
AcDbLine
 10
104447.4389799034
 20
95264.19931698891
 30
0.0
 11
104447.4344014394
 21
95264.19647989614
 31
0.0
  0
LINE
  5
5E374
330
1F
100
AcDbEntity
  8
freecads.com
100
AcDbLine
 10
104447.4344014394
 20
95264.19647989614
 30
0.0
 11
104447.4298399237
 21
95264.19325783471
 31
0.0
  0
LINE
  5
5E375
330
1F
100
AcDbEntity
  8
freecads.com
100
AcDbLine
 10
104447.4298399237
 20
95264.19325783471
 30
0.0
 11
104447.4252738346
 21
95264.18976217918
 31
0.0
  0
LINE
  5
5E376
330
1F
100
AcDbEntity
  8
freecads.com
100
AcDbLine
 10
104447.4252738346
 20
95264.18976217918
 30
0.0
 11
104447.4206821886
 21
95264.18610511122
 31
0.0
  0
LINE
  5
5E377
330
1F
100
AcDbEntity
  8
freecads.com
100
AcDbLine
 10
104447.4206821886
 20
95264.18610511122
 30
0.0
 11
104447.4160434639
 21
95264.18239827441
 31
0.0
  0
LINE
  5
5E378
330
1F
100
AcDbEntity
  8
freecads.com
100
AcDbLine
 10
104447.4160434639
 20
95264.18239827441
 30
0.0
 11
104447.411336408
 21
95264.17875277433
 31
0.0
  0
LINE
  5
5E379
330
1F
100
AcDbEntity
  8
freecads.com
100
AcDbLine
 10
104447.411336408
 20
95264.17875277433
 30
0.0
 11
104447.4065394991
 21
95264.17528106167
 31
0.0
  0
LINE
  5
5E37A
330
1F
100
AcDbEntity
  8
freecads.com
100
AcDbLine
 10
104447.4065394991
 20
95264.17528106167
 30
0.0
 11
104447.4016320228
 21
95264.17209397292
 31
0.0
  0
LINE
  5
5E37B
330
1F
100
AcDbEntity
  8
freecads.com
100
AcDbLine
 10
104447.4016320228
 20
95264.17209397292
 30
0.0
 11
104447.3965921882
 21
95264.1693039588
 31
0.0
  0
LINE
  5
5E37C
330
1F
100
AcDbEntity
  8
freecads.com
100
AcDbLine
 10
104447.3965921882
 20
95264.1693039588
 30
0.0
 11
104447.3913987427
 21
95264.16702212486
 31
0.0
  0
LINE
  5
5E37D
330
1F
100
AcDbEntity
  8
freecads.com
100
AcDbLine
 10
104447.3913987427
 20
95264.16702212486
 30
0.0
 11
104447.3860304339
 21
95264.16536065276
 31
0.0
  0
LINE
  5
5E37E
330
1F
100
AcDbEntity
  8
freecads.com
100
AcDbLine
 10
104447.3860304339
 20
95264.16536065276
 30
0.0
 11
104447.3804657398
 21
95264.16443064805
 31
0.0
  0
LINE
  5
5E37F
330
1F
100
AcDbEntity
  8
freecads.com
100
AcDbLine
 10
104447.3804657398
 20
95264.16443064805
 30
0.0
 11
104447.374683946
 21
95264.1643442924
 31
0.0
  0
LINE
  5
5E380
330
1F
100
AcDbEntity
  8
freecads.com
100
AcDbLine
 10
104447.374683946
 20
95264.1643442924
 30
0.0
 11
104447.3791876223
 21
95264.15866499551
 31
0.0
  0
LINE
  5
5E381
330
1F
100
AcDbEntity
  8
freecads.com
100
AcDbLine
 10
104447.3791876223
 20
95264.15866499551
 30
0.0
 11
104447.3827346607
 21
95264.1517301788
 31
0.0
  0
LINE
  5
5E382
330
1F
100
AcDbEntity
  8
freecads.com
100
AcDbLine
 10
104447.3827346607
 20
95264.1517301788
 30
0.0
 11
104447.3865208587
 21
95264.1465889234
 31
0.0
  0
LINE
  5
5E383
330
1F
100
AcDbEntity
  8
freecads.com
100
AcDbLine
 10
104447.4231076796
 20
95264.12076293214
 30
0.0
 11
104447.4258368951
 21
95264.12643980785
 31
0.0
  0
LINE
  5
5E384
330
1F
100
AcDbEntity
  8
freecads.com
100
AcDbLine
 10
104447.4258368951
 20
95264.12643980785
 30
0.0
 11
104447.4293489608
 21
95264.13186165189
 31
0.0
  0
LINE
  5
5E385
330
1F
100
AcDbEntity
  8
freecads.com
100
AcDbLine
 10
104447.4293489608
 20
95264.13186165189
 30
0.0
 11
104447.433409829
 21
95264.13704783376
 31
0.0
  0
LINE
  5
5E386
330
1F
100
AcDbEntity
  8
freecads.com
100
AcDbLine
 10
104447.433409829
 20
95264.13704783376
 30
0.0
 11
104447.4377854513
 21
95264.14201772295
 31
0.0
  0
LINE
  5
5E387
330
1F
100
AcDbEntity
  8
freecads.com
100
AcDbLine
 10
104447.4377854513
 20
95264.14201772295
 30
0.0
 11
104447.4422417799
 21
95264.14679068896
 31
0.0
  0
LINE
  5
5E388
330
1F
100
AcDbEntity
  8
freecads.com
100
AcDbLine
 10
104447.4422417799
 20
95264.14679068896
 30
0.0
 11
104447.4465447667
 21
95264.15138610127
 31
0.0
  0
LINE
  5
5E389
330
1F
100
AcDbEntity
  8
freecads.com
100
AcDbLine
 10
104447.4465447667
 20
95264.15138610127
 30
0.0
 11
104447.4504603636
 21
95264.15582332941
 31
0.0
  0
LINE
  5
5E38A
330
1F
100
AcDbEntity
  8
freecads.com
100
AcDbLine
 10
104447.4504603636
 20
95264.15582332941
 30
0.0
 11
104447.4537545226
 21
95264.16012174282
 31
0.0
  0
LINE
  5
5E38B
330
1F
100
AcDbEntity
  8
freecads.com
100
AcDbLine
 10
104447.4537545226
 20
95264.16012174282
 30
0.0
 11
104447.4561931956
 21
95264.16430071105
 31
0.0
  0
LINE
  5
5E38C
330
1F
100
AcDbEntity
  8
freecads.com
100
AcDbLine
 10
104447.4561931956
 20
95264.16430071105
 30
0.0
 11
104447.4575423346
 21
95264.16837960354
 31
0.0
  0
LINE
  5
5E38D
330
1F
100
AcDbEntity
  8
freecads.com
100
AcDbLine
 10
104447.4575423346
 20
95264.16837960354
 30
0.0
 11
104447.4532466114
 21
95264.16501119483
 31
0.0
  0
LINE
  5
5E38E
330
1F
100
AcDbEntity
  8
freecads.com
100
AcDbLine
 10
104447.4532466114
 20
95264.16501119483
 30
0.0
 11
104447.4483240699
 21
95264.16147868346
 31
0.0
  0
LINE
  5
5E38F
330
1F
100
AcDbEntity
  8
freecads.com
100
AcDbLine
 10
104447.4483240699
 20
95264.16147868346
 30
0.0
 11
104447.4428858156
 21
95264.15795747096
 31
0.0
  0
LINE
  5
5E390
330
1F
100
AcDbEntity
  8
freecads.com
100
AcDbLine
 10
104447.4428858156
 20
95264.15795747096
 30
0.0
 11
104447.437042147
 21
95264.15462215179
 31
0.0
  0
LINE
  5
5E391
330
1F
100
AcDbEntity
  8
freecads.com
100
AcDbLine
 10
104447.437042147
 20
95264.15462215179
 30
0.0
 11
104447.4309041698
 21
95264.15164785847
 31
0.0
  0
LINE
  5
5E392
330
1F
100
AcDbEntity
  8
freecads.com
100
AcDbLine
 10
104447.4309041698
 20
95264.15164785847
 30
0.0
 11
104447.4245821823
 21
95264.14920945445
 31
0.0
  0
LINE
  5
5E393
330
1F
100
AcDbEntity
  8
freecads.com
100
AcDbLine
 10
104447.4245821823
 20
95264.14920945445
 30
0.0
 11
104447.4181875592
 21
95264.14748153424
 31
0.0
  0
LINE
  5
5E394
330
1F
100
AcDbEntity
  8
freecads.com
100
AcDbLine
 10
104447.4181875592
 20
95264.14748153424
 30
0.0
 11
104447.4118303301
 21
95264.1466394993
 31
0.0
  0
LINE
  5
5E395
330
1F
100
AcDbEntity
  8
freecads.com
100
AcDbLine
 10
104447.4118303301
 20
95264.1466394993
 30
0.0
 11
104447.4056213314
 21
95264.14685794414
 31
0.0
  0
LINE
  5
5E396
330
1F
100
AcDbEntity
  8
freecads.com
100
AcDbLine
 10
104447.4056213314
 20
95264.14685794414
 30
0.0
 11
104447.4089967346
 21
95264.13990537209
 31
0.0
  0
LINE
  5
5E397
330
1F
100
AcDbEntity
  8
freecads.com
100
AcDbLine
 10
104447.4089967346
 20
95264.13990537209
 30
0.0
 11
104447.4130530294
 21
95264.13280161037
 31
0.0
  0
LINE
  5
5E398
330
1F
100
AcDbEntity
  8
freecads.com
100
AcDbLine
 10
104447.4130530294
 20
95264.13280161037
 30
0.0
 11
104447.4177651967
 21
95264.12620226253
 31
0.0
  0
LINE
  5
5E399
330
1F
100
AcDbEntity
  8
freecads.com
100
AcDbLine
 10
104447.4177651967
 20
95264.12620226253
 30
0.0
 11
104447.4231076796
 21
95264.12076293214
 31
0.0
  0
LINE
  5
5E39A
330
1F
100
AcDbEntity
  8
freecads.com
100
AcDbLine
 10
104447.4752977036
 20
95264.0892875053
 30
0.0
 11
104447.4753854044
 21
95264.09527617603
 31
0.0
  0
LINE
  5
5E39B
330
1F
100
AcDbEntity
  8
freecads.com
100
AcDbLine
 10
104447.4753854044
 20
95264.09527617603
 30
0.0
 11
104447.4765185197
 21
95264.10136653664
 31
0.0
  0
LINE
  5
5E39C
330
1F
100
AcDbEntity
  8
freecads.com
100
AcDbLine
 10
104447.4765185197
 20
95264.10136653664
 30
0.0
 11
104447.4783863308
 21
95264.10750128563
 31
0.0
  0
LINE
  5
5E39D
330
1F
100
AcDbEntity
  8
freecads.com
100
AcDbLine
 10
104447.4783863308
 20
95264.10750128563
 30
0.0
 11
104447.4806794636
 21
95264.11362258361
 31
0.0
  0
LINE
  5
5E39E
330
1F
100
AcDbEntity
  8
freecads.com
100
AcDbLine
 10
104447.4806794636
 20
95264.11362258361
 30
0.0
 11
104447.4830877373
 21
95264.11967312911
 31
0.0
  0
LINE
  5
5E39F
330
1F
100
AcDbEntity
  8
freecads.com
100
AcDbLine
 10
104447.4830877373
 20
95264.11967312911
 30
0.0
 11
104447.4853012399
 21
95264.12559535174
 31
0.0
  0
LINE
  5
5E3A0
330
1F
100
AcDbEntity
  8
freecads.com
100
AcDbLine
 10
104447.4853012399
 20
95264.12559535174
 30
0.0
 11
104447.4870097907
 21
95264.131331412
 31
0.0
  0
LINE
  5
5E3A1
330
1F
100
AcDbEntity
  8
freecads.com
100
AcDbLine
 10
104447.4870097907
 20
95264.131331412
 30
0.0
 11
104447.4879037466
 21
95264.1368240085
 31
0.0
  0
LINE
  5
5E3A2
330
1F
100
AcDbEntity
  8
freecads.com
100
AcDbLine
 10
104447.4879037466
 20
95264.1368240085
 30
0.0
 11
104447.4876726578
 21
95264.14201557079
 31
0.0
  0
LINE
  5
5E3A3
330
1F
100
AcDbEntity
  8
freecads.com
100
AcDbLine
 10
104447.4876726578
 20
95264.14201557079
 30
0.0
 11
104447.4843798439
 21
95264.13803164262
 31
0.0
  0
LINE
  5
5E3A4
330
1F
100
AcDbEntity
  8
freecads.com
100
AcDbLine
 10
104447.4843798439
 20
95264.13803164262
 30
0.0
 11
104447.480749678
 21
95264.13354975705
 31
0.0
  0
LINE
  5
5E3A5
330
1F
100
AcDbEntity
  8
freecads.com
100
AcDbLine
 10
104447.480749678
 20
95264.13354975705
 30
0.0
 11
104447.4767724753
 21
95264.12887874991
 31
0.0
  0
LINE
  5
5E3A6
330
1F
100
AcDbEntity
  8
freecads.com
100
AcDbLine
 10
104447.4767724753
 20
95264.12887874991
 30
0.0
 11
104447.4724393582
 21
95264.12432745699
 31
0.0
  0
LINE
  5
5E3A7
330
1F
100
AcDbEntity
  8
freecads.com
100
AcDbLine
 10
104447.4724393582
 20
95264.12432745699
 30
0.0
 11
104447.4677403729
 21
95264.12020498314
 31
0.0
  0
LINE
  5
5E3A8
330
1F
100
AcDbEntity
  8
freecads.com
100
AcDbLine
 10
104447.4677403729
 20
95264.12020498314
 30
0.0
 11
104447.4626663727
 21
95264.11682016414
 31
0.0
  0
LINE
  5
5E3A9
330
1F
100
AcDbEntity
  8
freecads.com
100
AcDbLine
 10
104447.4626663727
 20
95264.11682016414
 30
0.0
 11
104447.4572076728
 21
95264.11448183585
 31
0.0
  0
LINE
  5
5E3AA
330
1F
100
AcDbEntity
  8
freecads.com
100
AcDbLine
 10
104447.4572076728
 20
95264.11448183585
 30
0.0
 11
104447.4513548576
 21
95264.11349937211
 31
0.0
  0
LINE
  5
5E3AB
330
1F
100
AcDbEntity
  8
freecads.com
100
AcDbLine
 10
104447.4513548576
 20
95264.11349937211
 30
0.0
 11
104447.4557043849
 21
95264.10863117275
 31
0.0
  0
LINE
  5
5E3AC
330
1F
100
AcDbEntity
  8
freecads.com
100
AcDbLine
 10
104447.4557043849
 20
95264.10863117275
 30
0.0
 11
104447.4603250852
 21
95264.10334975754
 31
0.0
  0
LINE
  5
5E3AD
330
1F
100
AcDbEntity
  8
freecads.com
100
AcDbLine
 10
104447.4603250852
 20
95264.10334975754
 30
0.0
 11
104447.4651653064
 21
95264.09808125531
 31
0.0
  0
LINE
  5
5E3AE
330
1F
100
AcDbEntity
  8
freecads.com
100
AcDbLine
 10
104447.4651653064
 20
95264.09808125531
 30
0.0
 11
104447.4701733965
 21
95264.09325179496
 31
0.0
  0
LINE
  5
5E3AF
330
1F
100
AcDbEntity
  8
freecads.com
100
AcDbLine
 10
104447.4701733965
 20
95264.09325179496
 30
0.0
 11
104447.4752977036
 21
95264.0892875053
 31
0.0
  0
LINE
  5
5E3B0
330
1F
100
AcDbEntity
  8
freecads.com
100
AcDbLine
 10
104447.5204931883
 20
95264.06238543106
 30
0.0
 11
104447.5190985848
 21
95264.06811503484
 31
0.0
  0
LINE
  5
5E3B1
330
1F
100
AcDbEntity
  8
freecads.com
100
AcDbLine
 10
104447.5190985848
 20
95264.06811503484
 30
0.0
 11
104447.5184739186
 21
95264.07397941799
 31
0.0
  0
LINE
  5
5E3B2
330
1F
100
AcDbEntity
  8
freecads.com
100
AcDbLine
 10
104447.5184739186
 20
95264.07397941799
 30
0.0
 11
104447.5184558943
 21
95264.07993957255
 31
0.0
  0
LINE
  5
5E3B3
330
1F
100
AcDbEntity
  8
freecads.com
100
AcDbLine
 10
104447.5184558943
 20
95264.07993957255
 30
0.0
 11
104447.518880409
 21
95264.08595649046
 31
0.0
  0
LINE
  5
5E3B4
330
1F
100
AcDbEntity
  8
freecads.com
100
AcDbLine
 10
104447.518880409
 20
95264.08595649046
 30
0.0
 11
104447.5195836292
 21
95264.09199197082
 31
0.0
  0
LINE
  5
5E3B5
330
1F
100
AcDbEntity
  8
freecads.com
100
AcDbLine
 10
104447.5195836292
 20
95264.09199197082
 30
0.0
 11
104447.5204022593
 21
95264.09800646755
 31
0.0
  0
LINE
  5
5E3B6
330
1F
100
AcDbEntity
  8
freecads.com
100
AcDbLine
 10
104447.5204022593
 20
95264.09800646755
 30
0.0
 11
104447.5211721967
 21
95264.10396177974
 31
0.0
  0
LINE
  5
5E3B7
330
1F
100
AcDbEntity
  8
freecads.com
100
AcDbLine
 10
104447.5211721967
 20
95264.10396177974
 30
0.0
 11
104447.5217301457
 21
95264.10981889933
 31
0.0
  0
LINE
  5
5E3B8
330
1F
100
AcDbEntity
  8
freecads.com
100
AcDbLine
 10
104447.5217301457
 20
95264.10981889933
 30
0.0
 11
104447.5219120037
 21
95264.11553881835
 31
0.0
  0
LINE
  5
5E3B9
330
1F
100
AcDbEntity
  8
freecads.com
100
AcDbLine
 10
104447.5219120037
 20
95264.11553881835
 30
0.0
 11
104447.5215542061
 21
95264.1210827978
 31
0.0
  0
LINE
  5
5E3BA
330
1F
100
AcDbEntity
  8
freecads.com
100
AcDbLine
 10
104447.5215542061
 20
95264.1210827978
 30
0.0
 11
104447.5204931883
 21
95264.12641236774
 31
0.0
  0
LINE
  5
5E3BB
330
1F
100
AcDbEntity
  8
freecads.com
100
AcDbLine
 10
104447.5204931883
 20
95264.12641236774
 30
0.0
 11
104447.5186178447
 21
95264.1203951808
 31
0.0
  0
LINE
  5
5E3BC
330
1F
100
AcDbEntity
  8
freecads.com
100
AcDbLine
 10
104447.5186178447
 20
95264.1203951808
 30
0.0
 11
104447.5163943883
 21
95264.11404844344
 31
0.0
  0
LINE
  5
5E3BD
330
1F
100
AcDbEntity
  8
freecads.com
100
AcDbLine
 10
104447.5163943883
 20
95264.11404844344
 30
0.0
 11
104447.5137378085
 21
95264.10763579601
 31
0.0
  0
LINE
  5
5E3BE
330
1F
100
AcDbEntity
  8
freecads.com
100
AcDbLine
 10
104447.5137378085
 20
95264.10763579601
 30
0.0
 11
104447.5105636327
 21
95264.10142087881
 31
0.0
  0
LINE
  5
5E3BF
330
1F
100
AcDbEntity
  8
freecads.com
100
AcDbLine
 10
104447.5105636327
 20
95264.10142087881
 30
0.0
 11
104447.5067871196
 21
95264.09566706318
 31
0.0
  0
LINE
  5
5E3C0
330
1F
100
AcDbEntity
  8
freecads.com
100
AcDbLine
 10
104447.5067871196
 20
95264.09566706318
 30
0.0
 11
104447.5023237964
 21
95264.09063798944
 31
0.0
  0
LINE
  5
5E3C1
330
1F
100
AcDbEntity
  8
freecads.com
100
AcDbLine
 10
104447.5023237964
 20
95264.09063798944
 30
0.0
 11
104447.4970883838
 21
95264.08659729789
 31
0.0
  0
LINE
  5
5E3C2
330
1F
100
AcDbEntity
  8
freecads.com
100
AcDbLine
 10
104447.4970883838
 20
95264.08659729789
 30
0.0
 11
104447.4970883838
 21
95264.08659729789
 31
0.0
  0
LINE
  5
5E3C3
330
1F
100
AcDbEntity
  8
freecads.com
100
AcDbLine
 10
104447.4970883838
 20
95264.08659729789
 30
0.0
 11
104447.4999615253
 21
95264.08041197298
 31
0.0
  0
LINE
  5
5E3C4
330
1F
100
AcDbEntity
  8
freecads.com
100
AcDbLine
 10
104447.4999615253
 20
95264.08041197298
 30
0.0
 11
104447.5039322714
 21
95264.074433256
 31
0.0
  0
LINE
  5
5E3C5
330
1F
100
AcDbEntity
  8
freecads.com
100
AcDbLine
 10
104447.5039322714
 20
95264.074433256
 30
0.0
 11
104447.5088069273
 21
95264.06912601478
 31
0.0
  0
LINE
  5
5E3C6
330
1F
100
AcDbEntity
  8
freecads.com
100
AcDbLine
 10
104447.5088069273
 20
95264.06912601478
 30
0.0
 11
104447.5143917979
 21
95264.0649551172
 31
0.0
  0
LINE
  5
5E3C7
330
1F
100
AcDbEntity
  8
freecads.com
100
AcDbLine
 10
104447.5143917979
 20
95264.0649551172
 30
0.0
 11
104447.5204931883
 21
95264.06238543106
 31
0.0
  0
LINE
  5
5E3C8
330
1F
100
AcDbEntity
  8
freecads.com
100
AcDbLine
 10
104447.5339442255
 20
95264.0715321363
 30
0.0
 11
104447.5403124845
 21
95264.07014506535
 31
0.0
  0
LINE
  5
5E3C9
330
1F
100
AcDbEntity
  8
freecads.com
100
AcDbLine
 10
104447.5403124845
 20
95264.07014506535
 30
0.0
 11
104447.5461510416
 21
95264.06689152851
 31
0.0
  0
LINE
  5
5E3CA
330
1F
100
AcDbEntity
  8
freecads.com
100
AcDbLine
 10
104447.5461510416
 20
95264.06689152851
 30
0.0
 11
104447.5515357608
 21
95264.06192298441
 31
0.0
  0
LINE
  5
5E3CB
330
1F
100
AcDbEntity
  8
freecads.com
100
AcDbLine
 10
104447.5515357608
 20
95264.06192298441
 30
0.0
 11
104447.5565419678
 21
95264.05539089177
 31
0.0
  0
LINE
  5
5E3CC
330
1F
100
AcDbEntity
  8
freecads.com
100
AcDbLine
 10
104447.5565419678
 20
95264.05539089177
 30
0.0
 11
104447.5547408739
 21
95264.0611355607
 31
0.0
  0
LINE
  5
5E3CD
330
1F
100
AcDbEntity
  8
freecads.com
100
AcDbLine
 10
104447.5547408739
 20
95264.0611355607
 30
0.0
 11
104447.5532453876
 21
95264.06717131008
 31
0.0
  0
LINE
  5
5E3CE
330
1F
100
AcDbEntity
  8
freecads.com
100
AcDbLine
 10
104447.5532453876
 20
95264.06717131008
 30
0.0
 11
104447.5519742646
 21
95264.07342873255
 31
0.0
  0
LINE
  5
5E3CF
330
1F
100
AcDbEntity
  8
freecads.com
100
AcDbLine
 10
104447.5519742646
 20
95264.07342873255
 30
0.0
 11
104447.5508462606
 21
95264.0798392278
 31
0.0
  0
LINE
  5
5E3D0
330
1F
100
AcDbEntity
  8
freecads.com
100
AcDbLine
 10
104447.5508462606
 20
95264.0798392278
 30
0.0
 11
104447.5497801315
 21
95264.08633338853
 31
0.0
  0
LINE
  5
5E3D1
330
1F
100
AcDbEntity
  8
freecads.com
100
AcDbLine
 10
104447.5497801315
 20
95264.08633338853
 30
0.0
 11
104447.5486943637
 21
95264.09284207637
 31
0.0
  0
LINE
  5
5E3D2
330
1F
100
AcDbEntity
  8
freecads.com
100
AcDbLine
 10
104447.5486943637
 20
95264.09284207637
 30
0.0
 11
104447.5475082513
 21
95264.09929615299
 31
0.0
  0
LINE
  5
5E3D3
330
1F
100
AcDbEntity
  8
freecads.com
100
AcDbLine
 10
104447.5475082513
 20
95264.09929615299
 30
0.0
 11
104447.5461400118
 21
95264.10562648008
 31
0.0
  0
LINE
  5
5E3D4
330
1F
100
AcDbEntity
  8
freecads.com
100
AcDbLine
 10
104447.5461400118
 20
95264.10562648008
 30
0.0
 11
104447.54450867
 21
95264.11176391929
 31
0.0
  0
LINE
  5
5E3D5
330
1F
100
AcDbEntity
  8
freecads.com
100
AcDbLine
 10
104447.54450867
 20
95264.11176391929
 30
0.0
 11
104447.5425329816
 21
95264.11763960133
 31
0.0
  0
LINE
  5
5E3D6
330
1F
100
AcDbEntity
  8
freecads.com
100
AcDbLine
 10
104447.5425329816
 20
95264.11763960133
 30
0.0
 11
104447.5401317025
 21
95264.12318411884
 31
0.0
  0
LINE
  5
5E3D7
330
1F
100
AcDbEntity
  8
freecads.com
100
AcDbLine
 10
104447.5401317025
 20
95264.12318411884
 30
0.0
 11
104447.5403732831
 21
95264.11704748667
 31
0.0
  0
LINE
  5
5E3D8
330
1F
100
AcDbEntity
  8
freecads.com
100
AcDbLine
 10
104447.5403732831
 20
95264.11704748667
 30
0.0
 11
104447.5406024888
 21
95264.11046024477
 31
0.0
  0
LINE
  5
5E3D9
330
1F
100
AcDbEntity
  8
freecads.com
100
AcDbLine
 10
104447.5406024888
 20
95264.11046024477
 30
0.0
 11
104447.5406802358
 21
95264.10360182998
 31
0.0
  0
LINE
  5
5E3DA
330
1F
100
AcDbEntity
  8
freecads.com
100
AcDbLine
 10
104447.5406802358
 20
95264.10360182998
 30
0.0
 11
104447.5404679785
 21
95264.09665194812
 31
0.0
  0
LINE
  5
5E3DB
330
1F
100
AcDbEntity
  8
freecads.com
100
AcDbLine
 10
104447.5404679785
 20
95264.09665194812
 30
0.0
 11
104447.539826902
 21
95264.08979030506
 31
0.0
  0
LINE
  5
5E3DC
330
1F
100
AcDbEntity
  8
freecads.com
100
AcDbLine
 10
104447.539826902
 20
95264.08979030506
 30
0.0
 11
104447.5386184609
 21
95264.08319660667
 31
0.0
  0
LINE
  5
5E3DD
330
1F
100
AcDbEntity
  8
freecads.com
100
AcDbLine
 10
104447.5386184609
 20
95264.08319660667
 30
0.0
 11
104447.5367038402
 21
95264.07705082782
 31
0.0
  0
LINE
  5
5E3DE
330
1F
100
AcDbEntity
  8
freecads.com
100
AcDbLine
 10
104447.5367038402
 20
95264.07705082782
 30
0.0
 11
104447.5339442255
 21
95264.0715321363
 31
0.0
  0
LINE
  5
5E3DF
330
1F
100
AcDbEntity
  8
freecads.com
100
AcDbLine
 10
104447.5737592953
 20
95264.06104032735
 30
0.0
 11
104447.5739067187
 21
95264.06554992206
 31
0.0
  0
LINE
  5
5E3E0
330
1F
100
AcDbEntity
  8
freecads.com
100
AcDbLine
 10
104447.5739067187
 20
95264.06554992206
 30
0.0
 11
104447.5733772858
 21
95264.07063818037
 31
0.0
  0
LINE
  5
5E3E1
330
1F
100
AcDbEntity
  8
freecads.com
100
AcDbLine
 10
104447.5733772858
 20
95264.07063818037
 30
0.0
 11
104447.5722549313
 21
95264.07618969242
 31
0.0
  0
LINE
  5
5E3E2
330
1F
100
AcDbEntity
  8
freecads.com
100
AcDbLine
 10
104447.5722549313
 20
95264.07618969242
 30
0.0
 11
104447.5706233205
 21
95264.08208904827
 31
0.0
  0
LINE
  5
5E3E3
330
1F
100
AcDbEntity
  8
freecads.com
100
AcDbLine
 10
104447.5706233205
 20
95264.08208904827
 30
0.0
 11
104447.5685658499
 21
95264.08822137609
 31
0.0
  0
LINE
  5
5E3E4
330
1F
100
AcDbEntity
  8
freecads.com
100
AcDbLine
 10
104447.5685658499
 20
95264.08822137609
 30
0.0
 11
104447.5661664539
 21
95264.09447126598
 31
0.0
  0
LINE
  5
5E3E5
330
1F
100
AcDbEntity
  8
freecads.com
100
AcDbLine
 10
104447.5661664539
 20
95264.09447126598
 30
0.0
 11
104447.563508798
 21
95264.10072357705
 31
0.0
  0
LINE
  5
5E3E6
330
1F
100
AcDbEntity
  8
freecads.com
100
AcDbLine
 10
104447.563508798
 20
95264.10072357705
 30
0.0
 11
104447.5606765476
 21
95264.10686316843
 31
0.0
  0
LINE
  5
5E3E7
330
1F
100
AcDbEntity
  8
freecads.com
100
AcDbLine
 10
104447.5606765476
 20
95264.10686316843
 30
0.0
 11
104447.5577533682
 21
95264.11277489925
 31
0.0
  0
LINE
  5
5E3E8
330
1F
100
AcDbEntity
  8
freecads.com
100
AcDbLine
 10
104447.5577533682
 20
95264.11277489925
 30
0.0
 11
104447.5548226562
 21
95264.11834309056
 31
0.0
  0
LINE
  5
5E3E9
330
1F
100
AcDbEntity
  8
freecads.com
100
AcDbLine
 10
104447.5548226562
 20
95264.11834309056
 30
0.0
 11
104447.5519686152
 21
95264.12345313957
 31
0.0
  0
LINE
  5
5E3EA
330
1F
100
AcDbEntity
  8
freecads.com
100
AcDbLine
 10
104447.5519686152
 20
95264.12345313957
 30
0.0
 11
104447.5556009333
 21
95264.11906998461
 31
0.0
  0
LINE
  5
5E3EB
330
1F
100
AcDbEntity
  8
freecads.com
100
AcDbLine
 10
104447.5556009333
 20
95264.11906998461
 30
0.0
 11
104447.5591638439
 21
95264.11428141541
 31
0.0
  0
LINE
  5
5E3EC
330
1F
100
AcDbEntity
  8
freecads.com
100
AcDbLine
 10
104447.5591638439
 20
95264.11428141541
 30
0.0
 11
104447.5626463175
 21
95264.10914984476
 31
0.0
  0
LINE
  5
5E3ED
330
1F
100
AcDbEntity
  8
freecads.com
100
AcDbLine
 10
104447.5626463175
 20
95264.10914984476
 30
0.0
 11
104447.5660359788
 21
95264.10373741644
 31
0.0
  0
LINE
  5
5E3EE
330
1F
100
AcDbEntity
  8
freecads.com
100
AcDbLine
 10
104447.5660359788
 20
95264.10373741644
 30
0.0
 11
104447.5693215291
 21
95264.09810681229
 31
0.0
  0
LINE
  5
5E3EF
330
1F
100
AcDbEntity
  8
freecads.com
100
AcDbLine
 10
104447.5693215291
 20
95264.09810681229
 30
0.0
 11
104447.5724908625
 21
95264.09232044516
 31
0.0
  0
LINE
  5
5E3F0
330
1F
100
AcDbEntity
  8
freecads.com
100
AcDbLine
 10
104447.5724908625
 20
95264.09232044516
 30
0.0
 11
104447.575532411
 21
95264.0864407278
 31
0.0
  0
LINE
  5
5E3F1
330
1F
100
AcDbEntity
  8
freecads.com
100
AcDbLine
 10
104447.575532411
 20
95264.0864407278
 30
0.0
 11
104447.5784343378
 21
95264.08053034209
 31
0.0
  0
LINE
  5
5E3F2
330
1F
100
AcDbEntity
  8
freecads.com
100
AcDbLine
 10
104447.5784343378
 20
95264.08053034209
 30
0.0
 11
104447.5811848058
 21
95264.07465143181
 31
0.0
  0
LINE
  5
5E3F3
330
1F
100
AcDbEntity
  8
freecads.com
100
AcDbLine
 10
104447.5811848058
 20
95264.07465143181
 30
0.0
 11
104447.5837722473
 21
95264.06886640977
 31
0.0
  0
LINE
  5
5E3F4
330
1F
100
AcDbEntity
  8
freecads.com
100
AcDbLine
 10
104447.5837722473
 20
95264.06886640977
 30
0.0
 11
104447.5861848254
 21
95264.06323822682
 31
0.0
  0
LINE
  5
5E3F5
330
1F
100
AcDbEntity
  8
freecads.com
100
AcDbLine
 10
104447.5861848254
 20
95264.06323822682
 30
0.0
 11
104447.588410972
 21
95264.05782875773
 31
0.0
  0
LINE
  5
5E3F6
330
1F
100
AcDbEntity
  8
freecads.com
100
AcDbLine
 10
104447.588410972
 20
95264.05782875773
 30
0.0
 11
104447.5904385813
 21
95264.05270068435
 31
0.0
  0
LINE
  5
5E3F7
330
1F
100
AcDbEntity
  8
freecads.com
100
AcDbLine
 10
104447.5904385813
 20
95264.05270068435
 30
0.0
 11
104447.5868318202
 21
95264.05390616631
 31
0.0
  0
LINE
  5
5E3F8
330
1F
100
AcDbEntity
  8
freecads.com
100
AcDbLine
 10
104447.5868318202
 20
95264.05390616631
 30
0.0
 11
104447.5840019911
 21
95264.05750324265
 31
0.0
  0
LINE
  5
5E3F9
330
1F
100
AcDbEntity
  8
freecads.com
100
AcDbLine
 10
104447.5840019911
 20
95264.05750324265
 30
0.0
 11
104447.5818299176
 21
95264.06104032735
 31
0.0
  0
LINE
  5
5E3FA
330
1F
100
AcDbEntity
  8
freecads.com
100
AcDbLine
 10
104447.5818299176
 20
95264.06104032735
 30
0.0
 11
104447.579020265
 21
95264.06104032735
 31
0.0
  0
LINE
  5
5E3FB
330
1F
100
AcDbEntity
  8
freecads.com
100
AcDbLine
 10
104447.579020265
 20
95264.06104032735
 30
0.0
 11
104447.5763897801
 21
95264.06086089052
 31
0.0
  0
LINE
  5
5E3FC
330
1F
100
AcDbEntity
  8
freecads.com
100
AcDbLine
 10
104447.5763897801
 20
95264.06086089052
 30
0.0
 11
104447.5737592953
 21
95264.06104032735
 31
0.0
  0
LINE
  5
5E3FD
330
1F
100
AcDbEntity
  8
freecads.com
100
AcDbLine
 10
104447.0505139515
 20
95264.54877493314
 30
0.0
 11
104447.0473666779
 21
95264.55273680161
 31
0.0
  0
LINE
  5
5E3FE
330
1F
100
AcDbEntity
  8
freecads.com
100
AcDbLine
 10
104447.0473666779
 20
95264.55273680161
 30
0.0
 11
104447.043270299
 21
95264.55688537048
 31
0.0
  0
LINE
  5
5E3FF
330
1F
100
AcDbEntity
  8
freecads.com
100
AcDbLine
 10
104447.043270299
 20
95264.55688537048
 30
0.0
 11
104447.0393832183
 21
95264.56091449412
 31
0.0
  0
LINE
  5
5E400
330
1F
100
AcDbEntity
  8
freecads.com
100
AcDbLine
 10
104447.0393832183
 20
95264.56091449412
 30
0.0
 11
104447.0368635701
 21
95264.56451775796
 31
0.0
  0
LINE
  5
5E401
330
1F
100
AcDbEntity
  8
freecads.com
100
AcDbLine
 10
104447.0368635701
 20
95264.56451775796
 30
0.0
 11
104447.0368697576
 21
95264.56738847828
 31
0.0
  0
LINE
  5
5E402
330
1F
100
AcDbEntity
  8
freecads.com
100
AcDbLine
 10
104447.0368697576
 20
95264.56738847828
 30
0.0
 11
104447.0405601841
 21
95264.56922050956
 31
0.0
  0
LINE
  5
5E403
330
1F
100
AcDbEntity
  8
freecads.com
100
AcDbLine
 10
104447.0405601841
 20
95264.56922050956
 30
0.0
 11
104447.0343877722
 21
95264.57259080141
 31
0.0
  0
LINE
  5
5E404
330
1F
100
AcDbEntity
  8
freecads.com
100
AcDbLine
 10
104447.0343877722
 20
95264.57259080141
 30
0.0
 11
104447.0283046751
 21
95264.5764542083
 31
0.0
  0
LINE
  5
5E405
330
1F
100
AcDbEntity
  8
freecads.com
100
AcDbLine
 10
104447.0283046751
 20
95264.5764542083
 30
0.0
 11
104447.0228048151
 21
95264.58072114628
 31
0.0
  0
LINE
  5
5E406
330
1F
100
AcDbEntity
  8
freecads.com
100
AcDbLine
 10
104447.0228048151
 20
95264.58072114628
 30
0.0
 11
104447.018381038
 21
95264.58530203148
 31
0.0
  0
LINE
  5
5E407
330
1F
100
AcDbEntity
  8
freecads.com
100
AcDbLine
 10
104447.018381038
 20
95264.58530203148
 30
0.0
 11
104447.0155261899
 21
95264.59010701096
 31
0.0
  0
LINE
  5
5E408
330
1F
100
AcDbEntity
  8
freecads.com
100
AcDbLine
 10
104447.0155261899
 20
95264.59010701096
 30
0.0
 11
104447.0147341928
 21
95264.5950465008
 31
0.0
  0
LINE
  5
5E409
330
1F
100
AcDbEntity
  8
freecads.com
100
AcDbLine
 10
104447.0147341928
 20
95264.5950465008
 30
0.0
 11
104447.0152025579
 21
95264.59871325352
 31
0.0
  0
LINE
  5
5E40A
330
1F
100
AcDbEntity
  8
freecads.com
100
AcDbLine
 10
104447.0152025579
 20
95264.59871325352
 30
0.0
 11
104447.0177630974
 21
95264.60160253629
 31
0.0
  0
LINE
  5
5E40B
330
1F
100
AcDbEntity
  8
freecads.com
100
AcDbLine
 10
104447.0177630974
 20
95264.60160253629
 30
0.0
 11
104447.0225357944
 21
95264.60365516456
 31
0.0
  0
LINE
  5
5E40C
330
1F
100
AcDbEntity
  8
freecads.com
100
AcDbLine
 10
104447.0225357944
 20
95264.60365516456
 30
0.0
 11
104447.0171430045
 21
95264.60876897985
 31
0.0
  0
LINE
  5
5E40D
330
1F
100
AcDbEntity
  8
freecads.com
100
AcDbLine
 10
104447.0171430045
 20
95264.60876897985
 30
0.0
 11
104447.011675427
 21
95264.61371842346
 31
0.0
  0
LINE
  5
5E40E
330
1F
100
AcDbEntity
  8
freecads.com
100
AcDbLine
 10
104447.011675427
 20
95264.61371842346
 30
0.0
 11
104447.006461805
 21
95264.61865307094
 31
0.0
  0
LINE
  5
5E40F
330
1F
100
AcDbEntity
  8
freecads.com
100
AcDbLine
 10
104447.006461805
 20
95264.61865307094
 30
0.0
 11
104447.001831151
 21
95264.62372222878
 31
0.0
  0
LINE
  5
5E410
330
1F
100
AcDbEntity
  8
freecads.com
100
AcDbLine
 10
104447.001831151
 20
95264.62372222878
 30
0.0
 11
104446.9981122082
 21
95264.62907520352
 31
0.0
  0
LINE
  5
5E411
330
1F
100
AcDbEntity
  8
freecads.com
100
AcDbLine
 10
104446.9981122082
 20
95264.62907520352
 30
0.0
 11
104446.9956337201
 21
95264.63486157066
 31
0.0
  0
LINE
  5
5E412
330
1F
100
AcDbEntity
  8
freecads.com
100
AcDbLine
 10
104446.9956337201
 20
95264.63486157066
 30
0.0
 11
104446.9966401267
 21
95264.63891678934
 31
0.0
  0
LINE
  5
5E413
330
1F
100
AcDbEntity
  8
freecads.com
100
AcDbLine
 10
104446.9966401267
 20
95264.63891678934
 30
0.0
 11
104446.9995595398
 21
95264.64165676559
 31
0.0
  0
LINE
  5
5E414
330
1F
100
AcDbEntity
  8
freecads.com
100
AcDbLine
 10
104446.9995595398
 20
95264.64165676559
 30
0.0
 11
104447.0034353216
 21
95264.64266317219
 31
0.0
  0
LINE
  5
5E415
330
1F
100
AcDbEntity
  8
freecads.com
100
AcDbLine
 10
104447.0034353216
 20
95264.64266317219
 30
0.0
 11
104446.9974902323
 21
95264.64574480479
 31
0.0
  0
LINE
  5
5E416
330
1F
100
AcDbEntity
  8
freecads.com
100
AcDbLine
 10
104446.9974902323
 20
95264.64574480479
 30
0.0
 11
104446.9918461771
 21
95264.6493956853
 31
0.0
  0
LINE
  5
5E417
330
1F
100
AcDbEntity
  8
freecads.com
100
AcDbLine
 10
104446.9918461771
 20
95264.6493956853
 30
0.0
 11
104446.9868047284
 21
95264.65352676781
 31
0.0
  0
LINE
  5
5E418
330
1F
100
AcDbEntity
  8
freecads.com
100
AcDbLine
 10
104446.9868047284
 20
95264.65352676781
 30
0.0
 11
104446.9826666513
 21
95264.65804846845
 31
0.0
  0
LINE
  5
5E419
330
1F
100
AcDbEntity
  8
freecads.com
100
AcDbLine
 10
104446.9826666513
 20
95264.65804846845
 30
0.0
 11
104446.9797332491
 21
95264.6628712033
 31
0.0
  0
LINE
  5
5E41A
330
1F
100
AcDbEntity
  8
freecads.com
100
AcDbLine
 10
104446.9797332491
 20
95264.6628712033
 30
0.0
 11
104446.9783058251
 21
95264.66790565747
 31
0.0
  0
LINE
  5
5E41B
330
1F
100
AcDbEntity
  8
freecads.com
100
AcDbLine
 10
104446.9783058251
 20
95264.66790565747
 30
0.0
 11
104446.9786854134
 21
95264.67306251607
 31
0.0
  0
LINE
  5
5E41C
330
1F
100
AcDbEntity
  8
freecads.com
100
AcDbLine
 10
104446.9786854134
 20
95264.67306251607
 30
0.0
 11
104446.9826303335
 21
95264.67469601001
 31
0.0
  0
LINE
  5
5E41D
330
1F
100
AcDbEntity
  8
freecads.com
100
AcDbLine
 10
104446.9826303335
 20
95264.67469601001
 30
0.0
 11
104446.9875824673
 21
95264.67373399185
 31
0.0
  0
LINE
  5
5E41E
330
1F
100
AcDbEntity
  8
freecads.com
100
AcDbLine
 10
104446.9875824673
 20
95264.67373399185
 30
0.0
 11
104446.9924183842
 21
95264.67203593291
 31
0.0
  0
LINE
  5
5E41F
330
1F
100
AcDbEntity
  8
freecads.com
100
AcDbLine
 10
104446.9924183842
 20
95264.67203593291
 30
0.0
 11
104446.9960146535
 21
95264.67146130462
 31
0.0
  0
LINE
  5
5E420
330
1F
100
AcDbEntity
  8
freecads.com
100
AcDbLine
 10
104446.9960146535
 20
95264.67146130462
 30
0.0
 11
104446.9972478446
 21
95264.67386957829
 31
0.0
  0
LINE
  5
5E421
330
1F
100
AcDbEntity
  8
freecads.com
100
AcDbLine
 10
104446.9972478446
 20
95264.67386957829
 30
0.0
 11
104446.9967983109
 21
95264.67819919812
 31
0.0
  0
LINE
  5
5E422
330
1F
100
AcDbEntity
  8
freecads.com
100
AcDbLine
 10
104446.9967983109
 20
95264.67819919812
 30
0.0
 11
104446.9952202352
 21
95264.68256917107
 31
0.0
  0
LINE
  5
5E423
330
1F
100
AcDbEntity
  8
freecads.com
100
AcDbLine
 10
104446.9952202352
 20
95264.68256917107
 30
0.0
 11
104446.9927753747
 21
95264.68696335587
 31
0.0
  0
LINE
  5
5E424
330
1F
100
AcDbEntity
  8
freecads.com
100
AcDbLine
 10
104446.9927753747
 20
95264.68696335587
 30
0.0
 11
104446.9897252175
 21
95264.69136588032
 31
0.0
  0
LINE
  5
5E425
330
1F
100
AcDbEntity
  8
freecads.com
100
AcDbLine
 10
104446.9897252175
 20
95264.69136588032
 30
0.0
 11
104446.9863312519
 21
95264.69576087219
 31
0.0
  0
LINE
  5
5E426
330
1F
100
AcDbEntity
  8
freecads.com
100
AcDbLine
 10
104446.9863312519
 20
95264.69576087219
 30
0.0
 11
104446.9828552349
 21
95264.70013272826
 31
0.0
  0
LINE
  5
5E427
330
1F
100
AcDbEntity
  8
freecads.com
100
AcDbLine
 10
104446.9828552349
 20
95264.70013272826
 30
0.0
 11
104446.9795583857
 21
95264.70446530732
 31
0.0
  0
LINE
  5
5E428
330
1F
100
AcDbEntity
  8
freecads.com
100
AcDbLine
 10
104446.9795583857
 20
95264.70446530732
 30
0.0
 11
104446.9767027305
 21
95264.70874273712
 31
0.0
  0
LINE
  5
5E429
330
1F
100
AcDbEntity
  8
freecads.com
100
AcDbLine
 10
104446.9767027305
 20
95264.70874273712
 30
0.0
 11
104446.9745492194
 21
95264.71294914545
 31
0.0
  0
LINE
  5
5E42A
330
1F
100
AcDbEntity
  8
freecads.com
100
AcDbLine
 10
104446.9745492194
 20
95264.71294914545
 30
0.0
 11
104446.9733598787
 21
95264.71706866008
 31
0.0
  0
LINE
  5
5E42B
330
1F
100
AcDbEntity
  8
freecads.com
100
AcDbLine
 10
104446.9733598787
 20
95264.71706866008
 30
0.0
 11
104446.9733959275
 21
95264.72108540877
 31
0.0
  0
LINE
  5
5E42C
330
1F
100
AcDbEntity
  8
freecads.com
100
AcDbLine
 10
104446.9733959275
 20
95264.72108540877
 30
0.0
 11
104446.974919123
 21
95264.72498351933
 31
0.0
  0
LINE
  5
5E42D
330
1F
100
AcDbEntity
  8
freecads.com
100
AcDbLine
 10
104446.974919123
 20
95264.72498351933
 30
0.0
 11
104446.9776760475
 21
95264.72684729505
 31
0.0
  0
LINE
  5
5E42E
330
1F
100
AcDbEntity
  8
freecads.com
100
AcDbLine
 10
104446.9776760475
 20
95264.72684729505
 30
0.0
 11
104446.9816909131
 21
95264.72667754294
 31
0.0
  0
LINE
  5
5E42F
330
1F
100
AcDbEntity
  8
freecads.com
100
AcDbLine
 10
104446.9816909131
 20
95264.72667754294
 30
0.0
 11
104446.9866325551
 21
95264.72491249785
 31
0.0
  0
LINE
  5
5E430
330
1F
100
AcDbEntity
  8
freecads.com
100
AcDbLine
 10
104446.9866325551
 20
95264.72491249785
 30
0.0
 11
104446.9921700781
 21
95264.72199066358
 31
0.0
  0
LINE
  5
5E431
330
1F
100
AcDbEntity
  8
freecads.com
100
AcDbLine
 10
104446.9921700781
 20
95264.72199066358
 30
0.0
 11
104446.9979723174
 21
95264.71835000588
 31
0.0
  0
LINE
  5
5E432
330
1F
100
AcDbEntity
  8
freecads.com
100
AcDbLine
 10
104446.9979723174
 20
95264.71835000588
 30
0.0
 11
104447.0037086467
 21
95264.71442875953
 31
0.0
  0
LINE
  5
5E433
330
1F
100
AcDbEntity
  8
freecads.com
100
AcDbLine
 10
104447.0037086467
 20
95264.71442875953
 30
0.0
 11
104447.0090473633
 21
95264.71066489033
 31
0.0
  0
LINE
  5
5E434
330
1F
100
AcDbEntity
  8
freecads.com
100
AcDbLine
 10
104447.0090473633
 20
95264.71066489033
 30
0.0
 11
104447.0136581099
 21
95264.70749717109
 31
0.0
  0
LINE
  5
5E435
330
1F
100
AcDbEntity
  8
freecads.com
100
AcDbLine
 10
104447.0136581099
 20
95264.70749717109
 30
0.0
 11
104447.0175040304
 21
95264.70779605313
 31
0.0
  0
LINE
  5
5E436
330
1F
100
AcDbEntity
  8
freecads.com
100
AcDbLine
 10
104447.0175040304
 20
95264.70779605313
 30
0.0
 11
104447.0187794577
 21
95264.70970905963
 31
0.0
  0
LINE
  5
5E437
330
1F
100
AcDbEntity
  8
freecads.com
100
AcDbLine
 10
104447.0187794577
 20
95264.70970905963
 30
0.0
 11
104447.0174244002
 21
95264.71233954445
 31
0.0
  0
LINE
  5
5E438
330
1F
100
AcDbEntity
  8
freecads.com
100
AcDbLine
 10
104447.0174244002
 20
95264.71233954445
 30
0.0
 11
104447.0110343505
 21
95264.716860169
 31
0.0
  0
LINE
  5
5E439
330
1F
100
AcDbEntity
  8
freecads.com
100
AcDbLine
 10
104447.0110343505
 20
95264.716860169
 30
0.0
 11
104447.0047056376
 21
95264.72184862063
 31
0.0
  0
LINE
  5
5E43A
330
1F
100
AcDbEntity
  8
freecads.com
100
AcDbLine
 10
104447.0047056376
 20
95264.72184862063
 30
0.0
 11
104446.9985340327
 21
95264.72715666889
 31
0.0
  0
LINE
  5
5E43B
330
1F
100
AcDbEntity
  8
freecads.com
100
AcDbLine
 10
104446.9985340327
 20
95264.72715666889
 30
0.0
 11
104446.9926147693
 21
95264.73263554533
 31
0.0
  0
LINE
  5
5E43C
330
1F
100
AcDbEntity
  8
freecads.com
100
AcDbLine
 10
104446.9926147693
 20
95264.73263554533
 30
0.0
 11
104446.9870428117
 21
95264.73813701951
 31
0.0
  0
LINE
  5
5E43D
330
1F
100
AcDbEntity
  8
freecads.com
100
AcDbLine
 10
104446.9870428117
 20
95264.73813701951
 30
0.0
 11
104446.9819136623
 21
95264.74351232296
 31
0.0
  0
LINE
  5
5E43E
330
1F
100
AcDbEntity
  8
freecads.com
100
AcDbLine
 10
104446.9819136623
 20
95264.74351232296
 30
0.0
 11
104446.9773225543
 21
95264.74861295623
 31
0.0
  0
LINE
  5
5E43F
330
1F
100
AcDbEntity
  8
freecads.com
100
AcDbLine
 10
104446.9773225543
 20
95264.74861295623
 30
0.0
 11
104446.9733647211
 21
95264.75329041987
 31
0.0
  0
LINE
  5
5E440
330
1F
100
AcDbEntity
  8
freecads.com
100
AcDbLine
 10
104446.9733647211
 20
95264.75329041987
 30
0.0
 11
104446.9701356651
 21
95264.75739621446
 31
0.0
  0
LINE
  5
5E441
330
1F
100
AcDbEntity
  8
freecads.com
100
AcDbLine
 10
104446.9701356651
 20
95264.75739621446
 30
0.0
 11
104446.9677303507
 21
95264.7607818405
 31
0.0
  0
LINE
  5
5E442
330
1F
100
AcDbEntity
  8
freecads.com
100
AcDbLine
 10
104446.9677303507
 20
95264.7607818405
 30
0.0
 11
104446.9662440111
 21
95264.76329879855
 31
0.0
  0
LINE
  5
5E443
330
1F
100
AcDbEntity
  8
freecads.com
100
AcDbLine
 10
104446.9662440111
 20
95264.76329879855
 30
0.0
 11
104446.9657724177
 21
95264.76479858919
 31
0.0
  0
LINE
  5
5E444
330
1F
100
AcDbEntity
  8
freecads.com
100
AcDbLine
 10
104446.9657724177
 20
95264.76479858919
 30
0.0
 11
104446.9675283161
 21
95264.76643046901
 31
0.0
  0
LINE
  5
5E445
330
1F
100
AcDbEntity
  8
freecads.com
100
AcDbLine
 10
104446.9675283161
 20
95264.76643046901
 30
0.0
 11
104446.9697151857
 21
95264.76705540419
 31
0.0
  0
LINE
  5
5E446
330
1F
100
AcDbEntity
  8
freecads.com
100
AcDbLine
 10
104446.9697151857
 20
95264.76705540419
 30
0.0
 11
104446.9722988609
 21
95264.7667662069
 31
0.0
  0
LINE
  5
5E447
330
1F
100
AcDbEntity
  8
freecads.com
100
AcDbLine
 10
104446.9722988609
 20
95264.7667662069
 30
0.0
 11
104446.9752451761
 21
95264.7656559583
 31
0.0
  0
LINE
  5
5E448
330
1F
100
AcDbEntity
  8
freecads.com
100
AcDbLine
 10
104446.9752451761
 20
95264.7656559583
 30
0.0
 11
104446.9785199656
 21
95264.76381773957
 31
0.0
  0
LINE
  5
5E449
330
1F
100
AcDbEntity
  8
freecads.com
100
AcDbLine
 10
104446.9785199656
 20
95264.76381773957
 30
0.0
 11
104446.9820893328
 21
95264.76134409385
 31
0.0
  0
LINE
  5
5E44A
330
1F
100
AcDbEntity
  8
freecads.com
100
AcDbLine
 10
104446.9820893328
 20
95264.76134409385
 30
0.0
 11
104446.985918574
 21
95264.75832864035
 31
0.0
  0
LINE
  5
5E44B
330
1F
100
AcDbEntity
  8
freecads.com
100
AcDbLine
 10
104446.985918574
 20
95264.75832864035
 30
0.0
 11
104446.9899743307
 21
95264.75486365319
 31
0.0
  0
LINE
  5
5E44C
330
1F
100
AcDbEntity
  8
freecads.com
100
AcDbLine
 10
104446.9899743307
 20
95264.75486365319
 30
0.0
 11
104446.9942218993
 21
95264.75104248255
 31
0.0
  0
LINE
  5
5E44D
330
1F
100
AcDbEntity
  8
freecads.com
100
AcDbLine
 10
104446.9942218993
 20
95264.75104248255
 30
0.0
 11
104446.998627652
 21
95264.74695794064
 31
0.0
  0
LINE
  5
5E44E
330
1F
100
AcDbEntity
  8
freecads.com
100
AcDbLine
 10
104446.998627652
 20
95264.74695794064
 30
0.0
 11
104447.0031568852
 21
95264.74270283955
 31
0.0
  0
LINE
  5
5E44F
330
1F
100
AcDbEntity
  8
freecads.com
100
AcDbLine
 10
104447.0031568852
 20
95264.74270283955
 30
0.0
 11
104447.0077759713
 21
95264.7383705295
 31
0.0
  0
LINE
  5
5E450
330
1F
100
AcDbEntity
  8
freecads.com
100
AcDbLine
 10
104447.0077759713
 20
95264.7383705295
 30
0.0
 11
104447.0124504757
 21
95264.73405382269
 31
0.0
  0
LINE
  5
5E451
330
1F
100
AcDbEntity
  8
freecads.com
100
AcDbLine
 10
104447.0124504757
 20
95264.73405382269
 30
0.0
 11
104447.0171465018
 21
95264.72984553121
 31
0.0
  0
LINE
  5
5E452
330
1F
100
AcDbEntity
  8
freecads.com
100
AcDbLine
 10
104447.0171465018
 20
95264.72984553121
 30
0.0
 11
104447.0218296149
 21
95264.72583873628
 31
0.0
  0
LINE
  5
5E453
330
1F
100
AcDbEntity
  8
freecads.com
100
AcDbLine
 10
104447.0218296149
 20
95264.72583873628
 30
0.0
 11
104447.0264661874
 21
95264.72212625003
 31
0.0
  0
LINE
  5
5E454
330
1F
100
AcDbEntity
  8
freecads.com
100
AcDbLine
 10
104447.0264661874
 20
95264.72212625003
 30
0.0
 11
104447.0310215156
 21
95264.71880115366
 31
0.0
  0
LINE
  5
5E455
330
1F
100
AcDbEntity
  8
freecads.com
100
AcDbLine
 10
104447.0310215156
 20
95264.71880115366
 30
0.0
 11
104447.035461972
 21
95264.71595625929
 31
0.0
  0
LINE
  5
5E456
330
1F
100
AcDbEntity
  8
freecads.com
100
AcDbLine
 10
104447.035461972
 20
95264.71595625929
 30
0.0
 11
104447.0397531219
 21
95264.71368464816
 31
0.0
  0
LINE
  5
5E457
330
1F
100
AcDbEntity
  8
freecads.com
100
AcDbLine
 10
104447.0397531219
 20
95264.71368464816
 30
0.0
 11
104447.0477540677
 21
95264.71310679161
 31
0.0
  0
LINE
  5
5E458
330
1F
100
AcDbEntity
  8
freecads.com
100
AcDbLine
 10
104447.0477540677
 20
95264.71310679161
 30
0.0
 11
104447.0485213149
 21
95264.71569719232
 31
0.0
  0
LINE
  5
5E459
330
1F
100
AcDbEntity
  8
freecads.com
100
AcDbLine
 10
104447.0485213149
 20
95264.71569719232
 30
0.0
 11
104447.0475547234
 21
95264.71745093855
 31
0.0
  0
LINE
  5
5E45A
330
1F
100
AcDbEntity
  8
freecads.com
100
AcDbLine
 10
104447.0475547234
 20
95264.71745093855
 30
0.0
 11
104447.0423085499
 21
95264.72134286162
 31
0.0
  0
LINE
  5
5E45B
330
1F
100
AcDbEntity
  8
freecads.com
100
AcDbLine
 10
104447.0423085499
 20
95264.72134286162
 30
0.0
 11
104447.0372614517
 21
95264.72534562126
 31
0.0
  0
LINE
  5
5E45C
330
1F
100
AcDbEntity
  8
freecads.com
100
AcDbLine
 10
104447.0372614517
 20
95264.72534562126
 30
0.0
 11
104447.0324115458
 21
95264.7294498017
 31
0.0
  0
LINE
  5
5E45D
330
1F
100
AcDbEntity
  8
freecads.com
100
AcDbLine
 10
104447.0324115458
 20
95264.7294498017
 30
0.0
 11
104447.0277564109
 21
95264.7336467943
 31
0.0
  0
LINE
  5
5E45E
330
1F
100
AcDbEntity
  8
freecads.com
100
AcDbLine
 10
104447.0277564109
 20
95264.7336467943
 30
0.0
 11
104447.0232936258
 21
95264.73792745235
 31
0.0
  0
LINE
  5
5E45F
330
1F
100
AcDbEntity
  8
freecads.com
100
AcDbLine
 10
104447.0232936258
 20
95264.73792745235
 30
0.0
 11
104447.0190207693
 21
95264.74228236013
 31
0.0
  0
LINE
  5
5E460
330
1F
100
AcDbEntity
  8
freecads.com
100
AcDbLine
 10
104447.0190207693
 20
95264.74228236013
 30
0.0
 11
104447.0149354203
 21
95264.74670263993
 31
0.0
  0
LINE
  5
5E461
330
1F
100
AcDbEntity
  8
freecads.com
100
AcDbLine
 10
104447.0149354203
 20
95264.74670263993
 30
0.0
 11
104447.0110351576
 21
95264.75117941412
 31
0.0
  0
LINE
  5
5E462
330
1F
100
AcDbEntity
  8
freecads.com
100
AcDbLine
 10
104447.0110351576
 20
95264.75117941412
 30
0.0
 11
104447.007317829
 21
95264.75570353593
 31
0.0
  0
LINE
  5
5E463
330
1F
100
AcDbEntity
  8
freecads.com
100
AcDbLine
 10
104447.007317829
 20
95264.75570353593
 30
0.0
 11
104447.0037810133
 21
95264.76026558968
 31
0.0
  0
LINE
  5
5E464
330
1F
100
AcDbEntity
  8
freecads.com
100
AcDbLine
 10
104447.0037810133
 20
95264.76026558968
 30
0.0
 11
104447.0004222893
 21
95264.76485723572
 31
0.0
  0
LINE
  5
5E465
330
1F
100
AcDbEntity
  8
freecads.com
100
AcDbLine
 10
104447.0004222893
 20
95264.76485723572
 30
0.0
 11
104446.9972395049
 21
95264.76946852026
 31
0.0
  0
LINE
  5
5E466
330
1F
100
AcDbEntity
  8
freecads.com
100
AcDbLine
 10
104446.9972395049
 20
95264.76946852026
 30
0.0
 11
104446.9942299699
 21
95264.77409110368
 31
0.0
  0
LINE
  5
5E467
330
1F
100
AcDbEntity
  8
freecads.com
100
AcDbLine
 10
104446.9942299699
 20
95264.77409110368
 30
0.0
 11
104446.991391263
 21
95264.77871557023
 31
0.0
  0
LINE
  5
5E468
330
1F
100
AcDbEntity
  8
freecads.com
100
AcDbLine
 10
104446.991391263
 20
95264.77871557023
 30
0.0
 11
104446.9887215011
 21
95264.78333304225
 31
0.0
  0
LINE
  5
5E469
330
1F
100
AcDbEntity
  8
freecads.com
100
AcDbLine
 10
104446.9887215011
 20
95264.78333304225
 30
0.0
 11
104446.9862179941
 21
95264.78793437304
 31
0.0
  0
LINE
  5
5E46A
330
1F
100
AcDbEntity
  8
freecads.com
100
AcDbLine
 10
104446.9862179941
 20
95264.78793437304
 30
0.0
 11
104446.9876596763
 21
95264.79394106818
 31
0.0
  0
LINE
  5
5E46B
330
1F
100
AcDbEntity
  8
freecads.com
100
AcDbLine
 10
104446.9876596763
 20
95264.79394106818
 30
0.0
 11
104446.9908922295
 21
95264.79644215401
 31
0.0
  0
LINE
  5
5E46C
330
1F
100
AcDbEntity
  8
freecads.com
100
AcDbLine
 10
104446.9908922295
 20
95264.79644215401
 30
0.0
 11
104446.9948812691
 21
95264.79516000115
 31
0.0
  0
LINE
  5
5E46D
330
1F
100
AcDbEntity
  8
freecads.com
100
AcDbLine
 10
104446.9948812691
 20
95264.79516000115
 30
0.0
 11
104446.9985929483
 21
95264.78981751823
 31
0.0
  0
LINE
  5
5E46E
330
1F
100
AcDbEntity
  8
freecads.com
100
AcDbLine
 10
104446.9985929483
 20
95264.78981751823
 30
0.0
 11
104447.0019123952
 21
95264.78548736037
 31
0.0
  0
LINE
  5
5E46F
330
1F
100
AcDbEntity
  8
freecads.com
100
AcDbLine
 10
104447.0019123952
 20
95264.78548736037
 30
0.0
 11
104447.0053130864
 21
95264.78107757235
 31
0.0
  0
LINE
  5
5E470
330
1F
100
AcDbEntity
  8
freecads.com
100
AcDbLine
 10
104447.0053130864
 20
95264.78107757235
 30
0.0
 11
104447.0087942148
 21
95264.77659676286
 31
0.0
  0
LINE
  5
5E471
330
1F
100
AcDbEntity
  8
freecads.com
100
AcDbLine
 10
104447.0087942148
 20
95264.77659676286
 30
0.0
 11
104447.0123549734
 21
95264.7720538096
 31
0.0
  0
LINE
  5
5E472
330
1F
100
AcDbEntity
  8
freecads.com
100
AcDbLine
 10
104447.0123549734
 20
95264.7720538096
 30
0.0
 11
104447.015994555
 21
95264.76745705217
 31
0.0
  0
LINE
  5
5E473
330
1F
100
AcDbEntity
  8
freecads.com
100
AcDbLine
 10
104447.015994555
 20
95264.76745705217
 30
0.0
 11
104447.0197121526
 21
95264.76281563731
 31
0.0
  0
LINE
  5
5E474
330
1F
100
AcDbEntity
  8
freecads.com
100
AcDbLine
 10
104447.0197121526
 20
95264.76281563731
 30
0.0
 11
104447.0235069592
 21
95264.75813790463
 31
0.0
  0
LINE
  5
5E475
330
1F
100
AcDbEntity
  8
freecads.com
100
AcDbLine
 10
104447.0235069592
 20
95264.75813790463
 30
0.0
 11
104447.0273781677
 21
95264.75343246284
 31
0.0
  0
LINE
  5
5E476
330
1F
100
AcDbEntity
  8
freecads.com
100
AcDbLine
 10
104447.0273781677
 20
95264.75343246284
 30
0.0
 11
104447.031324971
 21
95264.74870818958
 31
0.0
  0
LINE
  5
5E477
330
1F
100
AcDbEntity
  8
freecads.com
100
AcDbLine
 10
104447.031324971
 20
95264.74870818958
 30
0.0
 11
104447.0353468311
 21
95264.74397369353
 31
0.0
  0
LINE
  5
5E478
330
1F
100
AcDbEntity
  8
freecads.com
100
AcDbLine
 10
104447.0353468311
 20
95264.74397369353
 30
0.0
 11
104447.0394426719
 21
95264.73923758336
 31
0.0
  0
LINE
  5
5E479
330
1F
100
AcDbEntity
  8
freecads.com
100
AcDbLine
 10
104447.0394426719
 20
95264.73923758336
 30
0.0
 11
104447.0436119554
 21
95264.73450846774
 31
0.0
  0
LINE
  5
5E47A
330
1F
100
AcDbEntity
  8
freecads.com
100
AcDbLine
 10
104447.0436119554
 20
95264.73450846774
 30
0.0
 11
104447.0478536054
 21
95264.72979522434
 31
0.0
  0
LINE
  5
5E47B
330
1F
100
AcDbEntity
  8
freecads.com
100
AcDbLine
 10
104447.0478536054
 20
95264.72979522434
 30
0.0
 11
104447.052167084
 21
95264.72510646181
 31
0.0
  0
LINE
  5
5E47C
330
1F
100
AcDbEntity
  8
freecads.com
100
AcDbLine
 10
104447.052167084
 20
95264.72510646181
 30
0.0
 11
104447.056551315
 21
95264.72045078886
 31
0.0
  0
LINE
  5
5E47D
330
1F
100
AcDbEntity
  8
freecads.com
100
AcDbLine
 10
104447.056551315
 20
95264.72045078886
 30
0.0
 11
104447.0610057605
 21
95264.71583681409
 31
0.0
  0
LINE
  5
5E47E
330
1F
100
AcDbEntity
  8
freecads.com
100
AcDbLine
 10
104447.0610057605
 20
95264.71583681409
 30
0.0
 11
104447.068936761
 21
95264.71455143299
 31
0.0
  0
LINE
  5
5E47F
330
1F
100
AcDbEntity
  8
freecads.com
100
AcDbLine
 10
104447.068936761
 20
95264.71455143299
 30
0.0
 11
104447.0713681705
 21
95264.71792925743
 31
0.0
  0
LINE
  5
5E480
330
1F
100
AcDbEntity
  8
freecads.com
100
AcDbLine
 10
104447.0713681705
 20
95264.71792925743
 30
0.0
 11
104447.0685383413
 21
95264.72310037414
 31
0.0
  0
LINE
  5
5E481
330
1F
100
AcDbEntity
  8
freecads.com
100
AcDbLine
 10
104447.0685383413
 20
95264.72310037414
 30
0.0
 11
104447.0643131015
 21
95264.72734498343
 31
0.0
  0
LINE
  5
5E482
330
1F
100
AcDbEntity
  8
freecads.com
100
AcDbLine
 10
104447.0643131015
 20
95264.72734498343
 30
0.0
 11
104447.0601031959
 21
95264.7319672978
 31
0.0
  0
LINE
  5
5E483
330
1F
100
AcDbEntity
  8
freecads.com
100
AcDbLine
 10
104447.0601031959
 20
95264.7319672978
 30
0.0
 11
104447.0559430592
 21
95264.73690571156
 31
0.0
  0
LINE
  5
5E484
330
1F
100
AcDbEntity
  8
freecads.com
100
AcDbLine
 10
104447.0559430592
 20
95264.73690571156
 30
0.0
 11
104447.0518676639
 21
95264.74209808093
 31
0.0
  0
LINE
  5
5E485
330
1F
100
AcDbEntity
  8
freecads.com
100
AcDbLine
 10
104447.0518676639
 20
95264.74209808093
 30
0.0
 11
104447.0479111758
 21
95264.74748306911
 31
0.0
  0
LINE
  5
5E486
330
1F
100
AcDbEntity
  8
freecads.com
100
AcDbLine
 10
104447.0479111758
 20
95264.74748306911
 30
0.0
 11
104447.0441082987
 21
95264.75299880139
 31
0.0
  0
LINE
  5
5E487
330
1F
100
AcDbEntity
  8
freecads.com
100
AcDbLine
 10
104447.0441082987
 20
95264.75299880139
 30
0.0
 11
104447.0404934669
 21
95264.758583672
 31
0.0
  0
LINE
  5
5E488
330
1F
100
AcDbEntity
  8
freecads.com
100
AcDbLine
 10
104447.0404934669
 20
95264.758583672
 30
0.0
 11
104447.0371011154
 21
95264.76417580617
 31
0.0
  0
LINE
  5
5E489
330
1F
100
AcDbEntity
  8
freecads.com
100
AcDbLine
 10
104447.0371011154
 20
95264.76417580617
 30
0.0
 11
104447.0339662167
 21
95264.76971332913
 31
0.0
  0
LINE
  5
5E48A
330
1F
100
AcDbEntity
  8
freecads.com
100
AcDbLine
 10
104447.0339662167
 20
95264.76971332913
 30
0.0
 11
104447.0311226674
 21
95264.77513517317
 31
0.0
  0
LINE
  5
5E48B
330
1F
100
AcDbEntity
  8
freecads.com
100
AcDbLine
 10
104447.0311226674
 20
95264.77513517317
 30
0.0
 11
104447.0286057094
 21
95264.78037892548
 31
0.0
  0
LINE
  5
5E48C
330
1F
100
AcDbEntity
  8
freecads.com
100
AcDbLine
 10
104447.0286057094
 20
95264.78037892548
 30
0.0
 11
104447.0264492391
 21
95264.78538351835
 31
0.0
  0
LINE
  5
5E48D
330
1F
100
AcDbEntity
  8
freecads.com
100
AcDbLine
 10
104447.0264492391
 20
95264.78538351835
 30
0.0
 11
104447.0246879603
 21
95264.79008653897
 31
0.0
  0
LINE
  5
5E48E
330
1F
100
AcDbEntity
  8
freecads.com
100
AcDbLine
 10
104447.0246879603
 20
95264.79008653897
 30
0.0
 11
104447.0240116421
 21
95264.79358246351
 31
0.0
  0
LINE
  5
5E48F
330
1F
100
AcDbEntity
  8
freecads.com
100
AcDbLine
 10
104447.0240116421
 20
95264.79358246351
 30
0.0
 11
104447.0240304736
 21
95264.79832664431
 31
0.0
  0
LINE
  5
5E490
330
1F
100
AcDbEntity
  8
freecads.com
100
AcDbLine
 10
104447.0240304736
 20
95264.79832664431
 30
0.0
 11
104447.0249906086
 21
95264.80296590699
 31
0.0
  0
LINE
  5
5E491
330
1F
100
AcDbEntity
  8
freecads.com
100
AcDbLine
 10
104447.0249906086
 20
95264.80296590699
 30
0.0
 11
104447.0271390083
 21
95264.80614815337
 31
0.0
  0
LINE
  5
5E492
330
1F
100
AcDbEntity
  8
freecads.com
100
AcDbLine
 10
104447.0271390083
 20
95264.80614815337
 30
0.0
 11
104447.0307223646
 21
95264.80652047807
 31
0.0
  0
LINE
  5
5E493
330
1F
100
AcDbEntity
  8
freecads.com
100
AcDbLine
 10
104447.0307223646
 20
95264.80652047807
 30
0.0
 11
104447.0359868315
 21
95264.80273051385
 31
0.0
  0
LINE
  5
5E494
330
1F
100
AcDbEntity
  8
freecads.com
100
AcDbLine
 10
104447.0359868315
 20
95264.80273051385
 30
0.0
 11
104447.038211902
 21
95264.79866292023
 31
0.0
  0
LINE
  5
5E495
330
1F
100
AcDbEntity
  8
freecads.com
100
AcDbLine
 10
104447.038211902
 20
95264.79866292023
 30
0.0
 11
104447.0403086497
 21
95264.79438522141
 31
0.0
  0
LINE
  5
5E496
330
1F
100
AcDbEntity
  8
freecads.com
100
AcDbLine
 10
104447.0403086497
 20
95264.79438522141
 30
0.0
 11
104447.042310702
 21
95264.78992162926
 31
0.0
  0
LINE
  5
5E497
330
1F
100
AcDbEntity
  8
freecads.com
100
AcDbLine
 10
104447.042310702
 20
95264.78992162926
 30
0.0
 11
104447.0442511487
 21
95264.7852958176
 31
0.0
  0
LINE
  5
5E498
330
1F
100
AcDbEntity
  8
freecads.com
100
AcDbLine
 10
104447.0442511487
 20
95264.7852958176
 30
0.0
 11
104447.0461633481
 21
95264.78053199829
 31
0.0
  0
LINE
  5
5E499
330
1F
100
AcDbEntity
  8
freecads.com
100
AcDbLine
 10
104447.0461633481
 20
95264.78053199829
 30
0.0
 11
104447.0480806589
 21
95264.77565438321
 31
0.0
  0
LINE
  5
5E49A
330
1F
100
AcDbEntity
  8
freecads.com
100
AcDbLine
 10
104447.0480806589
 20
95264.77565438321
 30
0.0
 11
104447.0500361707
 21
95264.77068664618
 31
0.0
  0
LINE
  5
5E49B
330
1F
100
AcDbEntity
  8
freecads.com
100
AcDbLine
 10
104447.0500361707
 20
95264.77068664618
 30
0.0
 11
104447.052063511
 21
95264.76565299908
 31
0.0
  0
LINE
  5
5E49C
330
1F
100
AcDbEntity
  8
freecads.com
100
AcDbLine
 10
104447.052063511
 20
95264.76565299908
 30
0.0
 11
104447.0541957694
 21
95264.76057738474
 31
0.0
  0
LINE
  5
5E49D
330
1F
100
AcDbEntity
  8
freecads.com
100
AcDbLine
 10
104447.0541957694
 20
95264.76057738474
 30
0.0
 11
104447.0564660355
 21
95264.75548374598
 31
0.0
  0
LINE
  5
5E49E
330
1F
100
AcDbEntity
  8
freecads.com
100
AcDbLine
 10
104447.0564660355
 20
95264.75548374598
 30
0.0
 11
104447.0589079367
 21
95264.75039629474
 31
0.0
  0
LINE
  5
5E49F
330
1F
100
AcDbEntity
  8
freecads.com
100
AcDbLine
 10
104447.0589079367
 20
95264.75039629474
 30
0.0
 11
104447.0615545628
 21
95264.74533870478
 31
0.0
  0
LINE
  5
5E4A0
330
1F
100
AcDbEntity
  8
freecads.com
100
AcDbLine
 10
104447.0615545628
 20
95264.74533870478
 30
0.0
 11
104447.0644392722
 21
95264.74033518798
 31
0.0
  0
LINE
  5
5E4A1
330
1F
100
AcDbEntity
  8
freecads.com
100
AcDbLine
 10
104447.0644392722
 20
95264.74033518798
 30
0.0
 11
104447.0675954236
 21
95264.73540995626
 31
0.0
  0
LINE
  5
5E4A2
330
1F
100
AcDbEntity
  8
freecads.com
100
AcDbLine
 10
104447.0675954236
 20
95264.73540995626
 30
0.0
 11
104447.0710561064
 21
95264.73058668335
 31
0.0
  0
LINE
  5
5E4A3
330
1F
100
AcDbEntity
  8
freecads.com
100
AcDbLine
 10
104447.0710561064
 20
95264.73058668335
 30
0.0
 11
104447.0748549483
 21
95264.72588958119
 31
0.0
  0
LINE
  5
5E4A4
330
1F
100
AcDbEntity
  8
freecads.com
100
AcDbLine
 10
104447.0748549483
 20
95264.72588958119
 30
0.0
 11
104447.0790250388
 21
95264.72134259261
 31
0.0
  0
LINE
  5
5E4A5
330
1F
100
AcDbEntity
  8
freecads.com
100
AcDbLine
 10
104447.0790250388
 20
95264.72134259261
 30
0.0
 11
104447.0835994675
 21
95264.71696966044
 31
0.0
  0
LINE
  5
5E4A6
330
1F
100
AcDbEntity
  8
freecads.com
100
AcDbLine
 10
104447.0835994675
 20
95264.71696966044
 30
0.0
 11
104447.088611862
 21
95264.71279499656
 31
0.0
  0
LINE
  5
5E4A7
330
1F
100
AcDbEntity
  8
freecads.com
100
AcDbLine
 10
104447.088611862
 20
95264.71279499656
 30
0.0
 11
104447.0940953118
 21
95264.7088422748
 31
0.0
  0
LINE
  5
5E4A8
330
1F
100
AcDbEntity
  8
freecads.com
100
AcDbLine
 10
104447.0940953118
 20
95264.7088422748
 30
0.0
 11
104447.0940953118
 21
95264.7088422748
 31
0.0
  0
LINE
  5
5E4A9
330
1F
100
AcDbEntity
  8
freecads.com
100
AcDbLine
 10
104447.0940953118
 20
95264.7088422748
 30
0.0
 11
104447.0973633758
 21
95264.70841372475
 31
0.0
  0
LINE
  5
5E4AA
330
1F
100
AcDbEntity
  8
freecads.com
100
AcDbLine
 10
104447.0973633758
 20
95264.70841372475
 30
0.0
 11
104447.0996153484
 21
95264.7091809719
 31
0.0
  0
LINE
  5
5E4AB
330
1F
100
AcDbEntity
  8
freecads.com
100
AcDbLine
 10
104447.0996153484
 20
95264.7091809719
 30
0.0
 11
104447.1000137681
 21
95264.71180150297
 31
0.0
  0
LINE
  5
5E4AC
330
1F
100
AcDbEntity
  8
freecads.com
100
AcDbLine
 10
104447.1000137681
 20
95264.71180150297
 30
0.0
 11
104447.0959741527
 21
95264.7162882309
 31
0.0
  0
LINE
  5
5E4AD
330
1F
100
AcDbEntity
  8
freecads.com
100
AcDbLine
 10
104447.0959741527
 20
95264.7162882309
 30
0.0
 11
104447.0920652813
 21
95264.72121857405
 31
0.0
  0
LINE
  5
5E4AE
330
1F
100
AcDbEntity
  8
freecads.com
100
AcDbLine
 10
104447.0920652813
 20
95264.72121857405
 30
0.0
 11
104447.0882946866
 21
95264.72650940497
 31
0.0
  0
LINE
  5
5E4AF
330
1F
100
AcDbEntity
  8
freecads.com
100
AcDbLine
 10
104447.0882946866
 20
95264.72650940497
 30
0.0
 11
104447.084669632
 21
95264.73207759632
 31
0.0
  0
LINE
  5
5E4B0
330
1F
100
AcDbEntity
  8
freecads.com
100
AcDbLine
 10
104447.084669632
 20
95264.73207759632
 30
0.0
 11
104447.0811979194
 21
95264.73784028963
 31
0.0
  0
LINE
  5
5E4B1
330
1F
100
AcDbEntity
  8
freecads.com
100
AcDbLine
 10
104447.0811979194
 20
95264.73784028963
 30
0.0
 11
104447.0778868121
 21
95264.74371408852
 31
0.0
  0
LINE
  5
5E4B2
330
1F
100
AcDbEntity
  8
freecads.com
100
AcDbLine
 10
104447.0778868121
 20
95264.74371408852
 30
0.0
 11
104447.0747438428
 21
95264.74961586556
 31
0.0
  0
LINE
  5
5E4B3
330
1F
100
AcDbEntity
  8
freecads.com
100
AcDbLine
 10
104447.0747438428
 20
95264.74961586556
 30
0.0
 11
104447.071776544
 21
95264.75546249335
 31
0.0
  0
LINE
  5
5E4B4
330
1F
100
AcDbEntity
  8
freecads.com
100
AcDbLine
 10
104447.071776544
 20
95264.75546249335
 30
0.0
 11
104447.0689921793
 21
95264.76117111352
 31
0.0
  0
LINE
  5
5E4B5
330
1F
100
AcDbEntity
  8
freecads.com
100
AcDbLine
 10
104447.0689921793
 20
95264.76117111352
 30
0.0
 11
104447.0663985503
 21
95264.76665806056
 31
0.0
  0
LINE
  5
5E4B6
330
1F
100
AcDbEntity
  8
freecads.com
100
AcDbLine
 10
104447.0663985503
 20
95264.76665806056
 30
0.0
 11
104447.0640029206
 21
95264.77184074517
 31
0.0
  0
LINE
  5
5E4B7
330
1F
100
AcDbEntity
  8
freecads.com
100
AcDbLine
 10
104447.0640029206
 20
95264.77184074517
 30
0.0
 11
104447.0618128227
 21
95264.77663550185
 31
0.0
  0
LINE
  5
5E4B8
330
1F
100
AcDbEntity
  8
freecads.com
100
AcDbLine
 10
104447.0618128227
 20
95264.77663550185
 30
0.0
 11
104447.0606893921
 21
95264.78212191088
 31
0.0
  0
LINE
  5
5E4B9
330
1F
100
AcDbEntity
  8
freecads.com
100
AcDbLine
 10
104447.0606893921
 20
95264.78212191088
 30
0.0
 11
104447.0615238944
 21
95264.7879741881
 31
0.0
  0
LINE
  5
5E4BA
330
1F
100
AcDbEntity
  8
freecads.com
100
AcDbLine
 10
104447.0615238944
 20
95264.7879741881
 30
0.0
 11
104447.0637632231
 21
95264.7932139051
 31
0.0
  0
LINE
  5
5E4BB
330
1F
100
AcDbEntity
  8
freecads.com
100
AcDbLine
 10
104447.0637632231
 20
95264.7932139051
 30
0.0
 11
104447.0668545405
 21
95264.79686182637
 31
0.0
  0
LINE
  5
5E4BC
330
1F
100
AcDbEntity
  8
freecads.com
100
AcDbLine
 10
104447.0668545405
 20
95264.79686182637
 30
0.0
 11
104447.0702447398
 21
95264.79793925444
 31
0.0
  0
LINE
  5
5E4BD
330
1F
100
AcDbEntity
  8
freecads.com
100
AcDbLine
 10
104447.0702447398
 20
95264.79793925444
 30
0.0
 11
104447.0733807147
 21
95264.79546695382
 31
0.0
  0
LINE
  5
5E4BE
330
1F
100
AcDbEntity
  8
freecads.com
100
AcDbLine
 10
104447.0733807147
 20
95264.79546695382
 30
0.0
 11
104447.0747266254
 21
95264.79028749747
 31
0.0
  0
LINE
  5
5E4BF
330
1F
100
AcDbEntity
  8
freecads.com
100
AcDbLine
 10
104447.0747266254
 20
95264.79028749747
 30
0.0
 11
104447.0763985893
 21
95264.78483202584
 31
0.0
  0
LINE
  5
5E4C0
330
1F
100
AcDbEntity
  8
freecads.com
100
AcDbLine
 10
104447.0763985893
 20
95264.78483202584
 30
0.0
 11
104447.0783683592
 21
95264.77914869364
 31
0.0
  0
LINE
  5
5E4C1
330
1F
100
AcDbEntity
  8
freecads.com
100
AcDbLine
 10
104447.0783683592
 20
95264.77914869364
 30
0.0
 11
104447.0806084949
 21
95264.77328511752
 31
0.0
  0
LINE
  5
5E4C2
330
1F
100
AcDbEntity
  8
freecads.com
100
AcDbLine
 10
104447.0806084949
 20
95264.77328511752
 30
0.0
 11
104447.0830912874
 21
95264.76728918323
 31
0.0
  0
LINE
  5
5E4C3
330
1F
100
AcDbEntity
  8
freecads.com
100
AcDbLine
 10
104447.0830912874
 20
95264.76728918323
 30
0.0
 11
104447.0857884893
 21
95264.76120823836
 31
0.0
  0
LINE
  5
5E4C4
330
1F
100
AcDbEntity
  8
freecads.com
100
AcDbLine
 10
104447.0857884893
 20
95264.76120823836
 30
0.0
 11
104447.0886731987
 21
95264.75509070669
 31
0.0
  0
LINE
  5
5E4C5
330
1F
100
AcDbEntity
  8
freecads.com
100
AcDbLine
 10
104447.0886731987
 20
95264.75509070669
 30
0.0
 11
104447.0917168994
 21
95264.74898366682
 31
0.0
  0
LINE
  5
5E4C6
330
1F
100
AcDbEntity
  8
freecads.com
100
AcDbLine
 10
104447.0917168994
 20
95264.74898366682
 30
0.0
 11
104447.0948924203
 21
95264.74293500445
 31
0.0
  0
LINE
  5
5E4C7
330
1F
100
AcDbEntity
  8
freecads.com
100
AcDbLine
 10
104447.0948924203
 20
95264.74293500445
 30
0.0
 11
104447.0981717831
 21
95264.7369928743
 31
0.0
  0
LINE
  5
5E4C8
330
1F
100
AcDbEntity
  8
freecads.com
100
AcDbLine
 10
104447.0981717831
 20
95264.7369928743
 30
0.0
 11
104447.1015270098
 21
95264.731204624
 31
0.0
  0
LINE
  5
5E4C9
330
1F
100
AcDbEntity
  8
freecads.com
100
AcDbLine
 10
104447.1015270098
 20
95264.731204624
 30
0.0
 11
104447.1049306602
 21
95264.72561813926
 31
0.0
  0
LINE
  5
5E4CA
330
1F
100
AcDbEntity
  8
freecads.com
100
AcDbLine
 10
104447.1049306602
 20
95264.72561813926
 30
0.0
 11
104447.1083550253
 21
95264.72028130578
 31
0.0
  0
LINE
  5
5E4CB
330
1F
100
AcDbEntity
  8
freecads.com
100
AcDbLine
 10
104447.1083550253
 20
95264.72028130578
 30
0.0
 11
104447.1117721267
 21
95264.71524147119
 31
0.0
  0
LINE
  5
5E4CC
330
1F
100
AcDbEntity
  8
freecads.com
100
AcDbLine
 10
104447.1117721267
 20
95264.71524147119
 30
0.0
 11
104447.1151545245
 21
95264.71054679021
 31
0.0
  0
LINE
  5
5E4CD
330
1F
100
AcDbEntity
  8
freecads.com
100
AcDbLine
 10
104447.1151545245
 20
95264.71054679021
 30
0.0
 11
104447.1184742405
 21
95264.70624514855
 31
0.0
  0
LINE
  5
5E4CE
330
1F
100
AcDbEntity
  8
freecads.com
100
AcDbLine
 10
104447.1184742405
 20
95264.70624514855
 30
0.0
 11
104447.1217038345
 21
95264.70238362481
 31
0.0
  0
LINE
  5
5E4CF
330
1F
100
AcDbEntity
  8
freecads.com
100
AcDbLine
 10
104447.1217038345
 20
95264.70238362481
 30
0.0
 11
104447.1248150594
 21
95264.69901064276
 31
0.0
  0
LINE
  5
5E4D0
330
1F
100
AcDbEntity
  8
freecads.com
100
AcDbLine
 10
104447.1248150594
 20
95264.69901064276
 30
0.0
 11
104447.127780475
 21
95264.69617355001
 31
0.0
  0
LINE
  5
5E4D1
330
1F
100
AcDbEntity
  8
freecads.com
100
AcDbLine
 10
104447.127780475
 20
95264.69617355001
 30
0.0
 11
104447.1305723723
 21
95264.69392023226
 31
0.0
  0
LINE
  5
5E4D2
330
1F
100
AcDbEntity
  8
freecads.com
100
AcDbLine
 10
104447.1305723723
 20
95264.69392023226
 30
0.0
 11
104447.133163042
 21
95264.6922983062
 31
0.0
  0
LINE
  5
5E4D3
330
1F
100
AcDbEntity
  8
freecads.com
100
AcDbLine
 10
104447.133163042
 20
95264.6922983062
 30
0.0
 11
104447.1355245061
 21
95264.69135592655
 31
0.0
  0
LINE
  5
5E4D4
330
1F
100
AcDbEntity
  8
freecads.com
100
AcDbLine
 10
104447.1355245061
 20
95264.69135592655
 30
0.0
 11
104447.1347284737
 21
95264.69513701309
 31
0.0
  0
LINE
  5
5E4D5
330
1F
100
AcDbEntity
  8
freecads.com
100
AcDbLine
 10
104447.1347284737
 20
95264.69513701309
 30
0.0
 11
104447.1319228564
 21
95264.70052307736
 31
0.0
  0
LINE
  5
5E4D6
330
1F
100
AcDbEntity
  8
freecads.com
100
AcDbLine
 10
104447.1319228564
 20
95264.70052307736
 30
0.0
 11
104447.1278657546
 21
95264.70687842339
 31
0.0
  0
LINE
  5
5E4D7
330
1F
100
AcDbEntity
  8
freecads.com
100
AcDbLine
 10
104447.1278657546
 20
95264.70687842339
 30
0.0
 11
104447.1233141927
 21
95264.71356789315
 31
0.0
  0
LINE
  5
5E4D8
330
1F
100
AcDbEntity
  8
freecads.com
100
AcDbLine
 10
104447.1233141927
 20
95264.71356789315
 30
0.0
 11
104447.1190262711
 21
95264.71995605971
 31
0.0
  0
LINE
  5
5E4D9
330
1F
100
AcDbEntity
  8
freecads.com
100
AcDbLine
 10
104447.1190262711
 20
95264.71995605971
 30
0.0
 11
104447.1157598212
 21
95264.72540776504
 31
0.0
  0
LINE
  5
5E4DA
330
1F
100
AcDbEntity
  8
freecads.com
100
AcDbLine
 10
104447.1157598212
 20
95264.72540776504
 30
0.0
 11
104447.1142718675
 21
95264.72928785121
 31
0.0
  0
LINE
  5
5E4DB
330
1F
100
AcDbEntity
  8
freecads.com
100
AcDbLine
 10
104447.1142718675
 20
95264.72928785121
 30
0.0
 11
104447.1150590221
 21
95264.73388111137
 31
0.0
  0
LINE
  5
5E4DC
330
1F
100
AcDbEntity
  8
freecads.com
100
AcDbLine
 10
104447.1150590221
 20
95264.73388111137
 30
0.0
 11
104447.1175200239
 21
95264.73608304614
 31
0.0
  0
LINE
  5
5E4DD
330
1F
100
AcDbEntity
  8
freecads.com
100
AcDbLine
 10
104447.1175200239
 20
95264.73608304614
 30
0.0
 11
104447.120997386
 21
95264.73224707938
 31
0.0
  0
LINE
  5
5E4DE
330
1F
100
AcDbEntity
  8
freecads.com
100
AcDbLine
 10
104447.120997386
 20
95264.73224707938
 30
0.0
 11
104447.1253270058
 21
95264.7293303565
 31
0.0
  0
LINE
  5
5E4DF
330
1F
100
AcDbEntity
  8
freecads.com
100
AcDbLine
 10
104447.1253270058
 20
95264.7293303565
 30
0.0
 11
104447.1298078153
 21
95264.72599611341
 31
0.0
  0
LINE
  5
5E4E0
330
1F
100
AcDbEntity
  8
freecads.com
100
AcDbLine
 10
104447.1298078153
 20
95264.72599611341
 30
0.0
 11
104447.1343895076
 21
95264.72229761624
 31
0.0
  0
LINE
  5
5E4E1
330
1F
100
AcDbEntity
  8
freecads.com
100
AcDbLine
 10
104447.1343895076
 20
95264.72229761624
 30
0.0
 11
104447.1390217758
 21
95264.71828786208
 31
0.0
  0
LINE
  5
5E4E2
330
1F
100
AcDbEntity
  8
freecads.com
100
AcDbLine
 10
104447.1390217758
 20
95264.71828786208
 30
0.0
 11
104447.1436540439
 21
95264.71402038605
 31
0.0
  0
LINE
  5
5E4E3
330
1F
100
AcDbEntity
  8
freecads.com
100
AcDbLine
 10
104447.1436540439
 20
95264.71402038605
 30
0.0
 11
104447.1482357362
 21
95264.70954845425
 31
0.0
  0
LINE
  5
5E4E4
330
1F
100
AcDbEntity
  8
freecads.com
100
AcDbLine
 10
104447.1482357362
 20
95264.70954845425
 30
0.0
 11
104447.1527165456
 21
95264.70492506376
 31
0.0
  0
LINE
  5
5E4E5
330
1F
100
AcDbEntity
  8
freecads.com
100
AcDbLine
 10
104447.1527165456
 20
95264.70492506376
 30
0.0
 11
104447.1570461655
 21
95264.70020374974
 31
0.0
  0
LINE
  5
5E4E6
330
1F
100
AcDbEntity
  8
freecads.com
100
AcDbLine
 10
104447.1570461655
 20
95264.70020374974
 30
0.0
 11
104447.1611740198
 21
95264.69543750925
 31
0.0
  0
LINE
  5
5E4E7
330
1F
100
AcDbEntity
  8
freecads.com
100
AcDbLine
 10
104447.1611740198
 20
95264.69543750925
 30
0.0
 11
104447.1650495326
 21
95264.69067960841
 31
0.0
  0
LINE
  5
5E4E8
330
1F
100
AcDbEntity
  8
freecads.com
100
AcDbLine
 10
104447.1650495326
 20
95264.69067960841
 30
0.0
 11
104447.1686223971
 21
95264.68598358233
 31
0.0
  0
LINE
  5
5E4E9
330
1F
100
AcDbEntity
  8
freecads.com
100
AcDbLine
 10
104447.1686223971
 20
95264.68598358233
 30
0.0
 11
104447.1718423063
 21
95264.68140215909
 31
0.0
  0
LINE
  5
5E4EA
330
1F
100
AcDbEntity
  8
freecads.com
100
AcDbLine
 10
104447.1718423063
 20
95264.68140215909
 30
0.0
 11
104447.1743493106
 21
95264.67854596585
 31
0.0
  0
LINE
  5
5E4EB
330
1F
100
AcDbEntity
  8
freecads.com
100
AcDbLine
 10
104447.1743493106
 20
95264.67854596585
 30
0.0
 11
104447.1767239567
 21
95264.67562466962
 31
0.0
  0
LINE
  5
5E4EC
330
1F
100
AcDbEntity
  8
freecads.com
100
AcDbLine
 10
104447.1767239567
 20
95264.67562466962
 30
0.0
 11
104447.1789810407
 21
95264.67263558014
 31
0.0
  0
LINE
  5
5E4ED
330
1F
100
AcDbEntity
  8
freecads.com
100
AcDbLine
 10
104447.1789810407
 20
95264.67263558014
 30
0.0
 11
104447.1811348208
 21
95264.66957627627
 31
0.0
  0
LINE
  5
5E4EE
330
1F
100
AcDbEntity
  8
freecads.com
100
AcDbLine
 10
104447.1811348208
 20
95264.66957627627
 30
0.0
 11
104447.183200093
 21
95264.66644406777
 31
0.0
  0
LINE
  5
5E4EF
330
1F
100
AcDbEntity
  8
freecads.com
100
AcDbLine
 10
104447.183200093
 20
95264.66644406777
 30
0.0
 11
104447.1851911155
 21
95264.66323572639
 31
0.0
  0
LINE
  5
5E4F0
330
1F
100
AcDbEntity
  8
freecads.com
100
AcDbLine
 10
104447.1851911155
 20
95264.66323572639
 30
0.0
 11
104447.1871229535
 21
95264.65994909999
 31
0.0
  0
LINE
  5
5E4F1
330
1F
100
AcDbEntity
  8
freecads.com
100
AcDbLine
 10
104447.1871229535
 20
95264.65994909999
 30
0.0
 11
104447.189010134
 21
95264.65658149833
 31
0.0
  0
LINE
  5
5E4F2
330
1F
100
AcDbEntity
  8
freecads.com
100
AcDbLine
 10
104447.189010134
 20
95264.65658149833
 30
0.0
 11
104447.1908671842
 21
95264.65312969319
 31
0.0
  0
LINE
  5
5E4F3
330
1F
100
AcDbEntity
  8
freecads.com
100
AcDbLine
 10
104447.1908671842
 20
95264.65312969319
 30
0.0
 11
104447.1927083622
 21
95264.64959153239
 31
0.0
  0
LINE
  5
5E4F4
330
1F
100
AcDbEntity
  8
freecads.com
100
AcDbLine
 10
104447.1927083622
 20
95264.64959153239
 30
0.0
 11
104447.1945490021
 21
95264.6459640567
 31
0.0
  0
LINE
  5
5E4F5
330
1F
100
AcDbEntity
  8
freecads.com
100
AcDbLine
 10
104447.1945490021
 20
95264.6459640567
 30
0.0
 11
104447.196402824
 21
95264.64224457592
 31
0.0
  0
LINE
  5
5E4F6
330
1F
100
AcDbEntity
  8
freecads.com
100
AcDbLine
 10
104447.196402824
 20
95264.64224457592
 30
0.0
 11
104447.1982851622
 21
95264.63843066885
 31
0.0
  0
LINE
  5
5E4F7
330
1F
100
AcDbEntity
  8
freecads.com
100
AcDbLine
 10
104447.1982851622
 20
95264.63843066885
 30
0.0
 11
104447.2002102746
 21
95264.63451910727
 31
0.0
  0
LINE
  5
5E4F8
330
1F
100
AcDbEntity
  8
freecads.com
100
AcDbLine
 10
104447.2002102746
 20
95264.63451910727
 30
0.0
 11
104447.2021926884
 21
95264.63050773896
 31
0.0
  0
LINE
  5
5E4F9
330
1F
100
AcDbEntity
  8
freecads.com
100
AcDbLine
 10
104447.2021926884
 20
95264.63050773896
 30
0.0
 11
104447.2042471998
 21
95264.62639360476
 31
0.0
  0
LINE
  5
5E4FA
330
1F
100
AcDbEntity
  8
freecads.com
100
AcDbLine
 10
104447.2042471998
 20
95264.62639360476
 30
0.0
 11
104447.206388605
 21
95264.6221737454
 31
0.0
  0
LINE
  5
5E4FB
330
1F
100
AcDbEntity
  8
freecads.com
100
AcDbLine
 10
104447.206388605
 20
95264.6221737454
 30
0.0
 11
104447.2086308928
 21
95264.6178460087
 31
0.0
  0
LINE
  5
5E4FC
330
1F
100
AcDbEntity
  8
freecads.com
100
AcDbLine
 10
104447.2086308928
 20
95264.6178460087
 30
0.0
 11
104447.2109891287
 21
95264.6134074355
 31
0.0
  0
LINE
  5
5E4FD
330
1F
100
AcDbEntity
  8
freecads.com
100
AcDbLine
 10
104447.2109891287
 20
95264.6134074355
 30
0.0
 11
104447.2134778395
 21
95264.60885506649
 31
0.0
  0
LINE
  5
5E4FE
330
1F
100
AcDbEntity
  8
freecads.com
100
AcDbLine
 10
104447.2134778395
 20
95264.60885506649
 30
0.0
 11
104447.2161115526
 21
95264.60418674956
 31
0.0
  0
LINE
  5
5E4FF
330
1F
100
AcDbEntity
  8
freecads.com
100
AcDbLine
 10
104447.2161115526
 20
95264.60418674956
 30
0.0
 11
104447.218904795
 21
95264.59939925642
 31
0.0
  0
LINE
  5
5E500
330
1F
100
AcDbEntity
  8
freecads.com
100
AcDbLine
 10
104447.218904795
 20
95264.59939925642
 30
0.0
 11
104447.2218723628
 21
95264.59449016591
 31
0.0
  0
LINE
  5
5E501
330
1F
100
AcDbEntity
  8
freecads.com
100
AcDbLine
 10
104447.2218723628
 20
95264.59449016591
 30
0.0
 11
104447.2250287832
 21
95264.58945678783
 31
0.0
  0
LINE
  5
5E502
330
1F
100
AcDbEntity
  8
freecads.com
100
AcDbLine
 10
104447.2250287832
 20
95264.58945678783
 30
0.0
 11
104447.2283885832
 21
95264.58429643195
 31
0.0
  0
LINE
  5
5E503
330
1F
100
AcDbEntity
  8
freecads.com
100
AcDbLine
 10
104447.2283885832
 20
95264.58429643195
 30
0.0
 11
104447.2319662901
 21
95264.57900640806
 31
0.0
  0
LINE
  5
5E504
330
1F
100
AcDbEntity
  8
freecads.com
100
AcDbLine
 10
104447.2319662901
 20
95264.57900640806
 30
0.0
 11
104447.2357766998
 21
95264.57358375697
 31
0.0
  0
LINE
  5
5E505
330
1F
100
AcDbEntity
  8
freecads.com
100
AcDbLine
 10
104447.2357766998
 20
95264.57358375697
 30
0.0
 11
104447.2398343397
 21
95264.56802605746
 31
0.0
  0
LINE
  5
5E506
330
1F
100
AcDbEntity
  8
freecads.com
100
AcDbLine
 10
104447.2398343397
 20
95264.56802605746
 30
0.0
 11
104447.2441540058
 21
95264.56233035029
 31
0.0
  0
LINE
  5
5E507
330
1F
100
AcDbEntity
  8
freecads.com
100
AcDbLine
 10
104447.2441540058
 20
95264.56233035029
 30
0.0
 11
104447.2487499561
 21
95264.5564942143
 31
0.0
  0
LINE
  5
5E508
330
1F
100
AcDbEntity
  8
freecads.com
100
AcDbLine
 10
104447.2487499561
 20
95264.5564942143
 30
0.0
 11
104447.2536367179
 21
95264.55051495929
 31
0.0
  0
LINE
  5
5E509
330
1F
100
AcDbEntity
  8
freecads.com
100
AcDbLine
 10
104447.2536367179
 20
95264.55051495929
 30
0.0
 11
104447.2588293563
 21
95264.54438989503
 31
0.0
  0
LINE
  5
5E50A
330
1F
100
AcDbEntity
  8
freecads.com
100
AcDbLine
 10
104447.2588293563
 20
95264.54438989503
 30
0.0
 11
104447.2643421293
 21
95264.53811579328
 31
0.0
  0
LINE
  5
5E50B
330
1F
100
AcDbEntity
  8
freecads.com
100
AcDbLine
 10
104447.2643421293
 20
95264.53811579328
 30
0.0
 11
104447.2701898332
 21
95264.5316907709
 31
0.0
  0
LINE
  5
5E50C
330
1F
100
AcDbEntity
  8
freecads.com
100
AcDbLine
 10
104447.2701898332
 20
95264.5316907709
 30
0.0
 11
104447.276386726
 21
95264.52511159963
 31
0.0
  0
LINE
  5
5E50D
330
1F
100
AcDbEntity
  8
freecads.com
100
AcDbLine
 10
104447.276386726
 20
95264.52511159963
 30
0.0
 11
104447.2829478729
 21
95264.51837558925
 31
0.0
  0
LINE
  5
5E50E
330
1F
100
AcDbEntity
  8
freecads.com
100
AcDbLine
 10
104447.2829478729
 20
95264.51837558925
 30
0.0
 11
104447.2829478729
 21
95264.51837558925
 31
0.0
  0
LINE
  5
5E50F
330
1F
100
AcDbEntity
  8
freecads.com
100
AcDbLine
 10
104447.2829478729
 20
95264.51837558925
 30
0.0
 11
104447.2836938674
 21
95264.51734201156
 31
0.0
  0
LINE
  5
5E510
330
1F
100
AcDbEntity
  8
freecads.com
100
AcDbLine
 10
104447.2836938674
 20
95264.51734201156
 30
0.0
 11
104447.2849423927
 21
95264.51532166579
 31
0.0
  0
LINE
  5
5E511
330
1F
100
AcDbEntity
  8
freecads.com
100
AcDbLine
 10
104447.2849423927
 20
95264.51532166579
 30
0.0
 11
104447.2866990981
 21
95264.51244556504
 31
0.0
  0
LINE
  5
5E512
330
1F
100
AcDbEntity
  8
freecads.com
100
AcDbLine
 10
104447.2866990981
 20
95264.51244556504
 30
0.0
 11
104447.2889704402
 21
95264.50884418435
 31
0.0
  0
LINE
  5
5E513
330
1F
100
AcDbEntity
  8
freecads.com
100
AcDbLine
 10
104447.2889704402
 20
95264.50884418435
 30
0.0
 11
104447.2917617995
 21
95264.50464853686
 31
0.0
  0
LINE
  5
5E514
330
1F
100
AcDbEntity
  8
freecads.com
100
AcDbLine
 10
104447.2917617995
 20
95264.50464853686
 30
0.0
 11
104447.2950790942
 21
95264.49998909761
 31
0.0
  0
LINE
  5
5E515
330
1F
100
AcDbEntity
  8
freecads.com
100
AcDbLine
 10
104447.2950790942
 20
95264.49998909761
 30
0.0
 11
104447.2989285121
 21
95264.49499687968
 31
0.0
  0
LINE
  5
5E516
330
1F
100
AcDbEntity
  8
freecads.com
100
AcDbLine
 10
104447.2989285121
 20
95264.49499687968
 30
0.0
 11
104447.3033157023
 21
95264.48980289622
 31
0.0
  0
LINE
  5
5E517
330
1F
100
AcDbEntity
  8
freecads.com
100
AcDbLine
 10
104447.3033157023
 20
95264.48980289622
 30
0.0
 11
104447.3082463145
 21
95264.48453735323
 31
0.0
  0
LINE
  5
5E518
330
1F
100
AcDbEntity
  8
freecads.com
100
AcDbLine
 10
104447.3082463145
 20
95264.48453735323
 30
0.0
 11
104447.313726805
 21
95264.47933153285
 31
0.0
  0
LINE
  5
5E519
330
1F
100
AcDbEntity
  8
freecads.com
100
AcDbLine
 10
104447.313726805
 20
95264.47933153285
 30
0.0
 11
104447.3197625544
 21
95264.47431591012
 31
0.0
  0
LINE
  5
5E51A
330
1F
100
AcDbEntity
  8
freecads.com
100
AcDbLine
 10
104447.3197625544
 20
95264.47431591012
 30
0.0
 11
104447.326359481
 21
95264.46962122914
 31
0.0
  0
LINE
  5
5E51B
330
1F
100
AcDbEntity
  8
freecads.com
100
AcDbLine
 10
104447.326359481
 20
95264.46962122914
 30
0.0
 11
104447.3335237724
 21
95264.46537850302
 31
0.0
  0
LINE
  5
5E51C
330
1F
100
AcDbEntity
  8
freecads.com
100
AcDbLine
 10
104447.3335237724
 20
95264.46537850302
 30
0.0
 11
104447.3367797305
 21
95264.4659956366
 31
0.0
  0
LINE
  5
5E51D
330
1F
100
AcDbEntity
  8
freecads.com
100
AcDbLine
 10
104447.3367797305
 20
95264.4659956366
 30
0.0
 11
104447.3406692324
 21
95264.46673786482
 31
0.0
  0
LINE
  5
5E51E
330
1F
100
AcDbEntity
  8
freecads.com
100
AcDbLine
 10
104447.3406692324
 20
95264.46673786482
 30
0.0
 11
104447.3451191045
 21
95264.46755676397
 31
0.0
  0
LINE
  5
5E51F
330
1F
100
AcDbEntity
  8
freecads.com
100
AcDbLine
 10
104447.3451191045
 20
95264.46755676397
 30
0.0
 11
104447.3500553661
 21
95264.46840310322
 31
0.0
  0
LINE
  5
5E520
330
1F
100
AcDbEntity
  8
freecads.com
100
AcDbLine
 10
104447.3500553661
 20
95264.46840310322
 30
0.0
 11
104447.3554048435
 21
95264.46922765181
 31
0.0
  0
LINE
  5
5E521
330
1F
100
AcDbEntity
  8
freecads.com
100
AcDbLine
 10
104447.3554048435
 20
95264.46922765181
 30
0.0
 11
104447.3610932871
 21
95264.46998171694
 31
0.0
  0
LINE
  5
5E522
330
1F
100
AcDbEntity
  8
freecads.com
100
AcDbLine
 10
104447.3610932871
 20
95264.46998171694
 30
0.0
 11
104447.3670477922
 21
95264.47061633689
 31
0.0
  0
LINE
  5
5E523
330
1F
100
AcDbEntity
  8
freecads.com
100
AcDbLine
 10
104447.3670477922
 20
95264.47061633689
 30
0.0
 11
104447.3731941091
 21
95264.47108228079
 31
0.0
  0
LINE
  5
5E524
330
1F
100
AcDbEntity
  8
freecads.com
100
AcDbLine
 10
104447.3731941091
 20
95264.47108228079
 30
0.0
 11
104447.3794590642
 21
95264.47133058695
 31
0.0
  0
LINE
  5
5E525
330
1F
100
AcDbEntity
  8
freecads.com
100
AcDbLine
 10
104447.3794590642
 20
95264.47133058695
 30
0.0
 11
104447.3857686767
 21
95264.47131256256
 31
0.0
  0
LINE
  5
5E526
330
1F
100
AcDbEntity
  8
freecads.com
100
AcDbLine
 10
104447.3857686767
 20
95264.47131256256
 30
0.0
 11
104447.392049773
 21
95264.47097870782
 31
0.0
  0
LINE
  5
5E527
330
1F
100
AcDbEntity
  8
freecads.com
100
AcDbLine
 10
104447.392049773
 20
95264.47097870782
 30
0.0
 11
104447.3982283724
 21
95264.470280599
 31
0.0
  0
LINE
  5
5E528
330
1F
100
AcDbEntity
  8
freecads.com
100
AcDbLine
 10
104447.3982283724
 20
95264.470280599
 30
0.0
 11
104447.4042307632
 21
95264.46916900528
 31
0.0
  0
LINE
  5
5E529
330
1F
100
AcDbEntity
  8
freecads.com
100
AcDbLine
 10
104447.4042307632
 20
95264.46916900528
 30
0.0
 11
104447.4099835027
 21
95264.46759496492
 31
0.0
  0
LINE
  5
5E52A
330
1F
100
AcDbEntity
  8
freecads.com
100
AcDbLine
 10
104447.4099835027
 20
95264.46759496492
 30
0.0
 11
104447.4154131483
 21
95264.46550924712
 31
0.0
  0
LINE
  5
5E52B
330
1F
100
AcDbEntity
  8
freecads.com
100
AcDbLine
 10
104447.4154131483
 20
95264.46550924712
 30
0.0
 11
104447.4204459884
 21
95264.46286315909
 31
0.0
  0
LINE
  5
5E52C
330
1F
100
AcDbEntity
  8
freecads.com
100
AcDbLine
 10
104447.4204459884
 20
95264.46286315909
 30
0.0
 11
104447.4250080422
 21
95264.45960773907
 31
0.0
  0
LINE
  5
5E52D
330
1F
100
AcDbEntity
  8
freecads.com
100
AcDbLine
 10
104447.4250080422
 20
95264.45960773907
 30
0.0
 11
104447.4290261359
 21
95264.4556937563
 31
0.0
  0
LINE
  5
5E52E
330
1F
100
AcDbEntity
  8
freecads.com
100
AcDbLine
 10
104447.4290261359
 20
95264.4556937563
 30
0.0
 11
104447.4337730069
 21
95264.45472474359
 31
0.0
  0
LINE
  5
5E52F
330
1F
100
AcDbEntity
  8
freecads.com
100
AcDbLine
 10
104447.4337730069
 20
95264.45472474359
 30
0.0
 11
104447.4394942711
 21
95264.4533435911
 31
0.0
  0
LINE
  5
5E530
330
1F
100
AcDbEntity
  8
freecads.com
100
AcDbLine
 10
104447.4394942711
 20
95264.4533435911
 30
0.0
 11
104447.4459198315
 21
95264.45162051324
 31
0.0
  0
LINE
  5
5E531
330
1F
100
AcDbEntity
  8
freecads.com
100
AcDbLine
 10
104447.4459198315
 20
95264.45162051324
 30
0.0
 11
104447.4527795914
 21
95264.44962572442
 31
0.0
  0
LINE
  5
5E532
330
1F
100
AcDbEntity
  8
freecads.com
100
AcDbLine
 10
104447.4527795914
 20
95264.44962572442
 30
0.0
 11
104447.459803992
 21
95264.4474294391
 31
0.0
  0
LINE
  5
5E533
330
1F
100
AcDbEntity
  8
freecads.com
100
AcDbLine
 10
104447.459803992
 20
95264.4474294391
 30
0.0
 11
104447.4667226675
 21
95264.44510106458
 31
0.0
  0
LINE
  5
5E534
330
1F
100
AcDbEntity
  8
freecads.com
100
AcDbLine
 10
104447.4667226675
 20
95264.44510106458
 30
0.0
 11
104447.47326579
 21
95264.44271108429
 31
0.0
  0
LINE
  5
5E535
330
1F
100
AcDbEntity
  8
freecads.com
100
AcDbLine
 10
104447.47326579
 20
95264.44271108429
 30
0.0
 11
104447.4791635317
 21
95264.44032971268
 31
0.0
  0
LINE
  5
5E536
330
1F
100
AcDbEntity
  8
freecads.com
100
AcDbLine
 10
104447.4791635317
 20
95264.44032971268
 30
0.0
 11
104447.4841460649
 21
95264.43802662612
 31
0.0
  0
LINE
  5
5E537
330
1F
100
AcDbEntity
  8
freecads.com
100
AcDbLine
 10
104447.4841460649
 20
95264.43802662612
 30
0.0
 11
104447.4879430236
 21
95264.43587203898
 31
0.0
  0
LINE
  5
5E538
330
1F
100
AcDbEntity
  8
freecads.com
100
AcDbLine
 10
104447.4879430236
 20
95264.43587203898
 30
0.0
 11
104447.4902845802
 21
95264.43393616574
 31
0.0
  0
LINE
  5
5E539
330
1F
100
AcDbEntity
  8
freecads.com
100
AcDbLine
 10
104447.4902845802
 20
95264.43393616574
 30
0.0
 11
104447.4909009067
 21
95264.43228895171
 31
0.0
  0
LINE
  5
5E53A
330
1F
100
AcDbEntity
  8
freecads.com
100
AcDbLine
 10
104447.4909009067
 20
95264.43228895171
 30
0.0
 11
104447.4903744331
 21
95264.4312561811
 31
0.0
  0
LINE
  5
5E53B
330
1F
100
AcDbEntity
  8
freecads.com
100
AcDbLine
 10
104447.4903744331
 20
95264.4312561811
 30
0.0
 11
104447.4889402835
 21
95264.43057340646
 31
0.0
  0
LINE
  5
5E53C
330
1F
100
AcDbEntity
  8
freecads.com
100
AcDbLine
 10
104447.4889402835
 20
95264.43057340646
 30
0.0
 11
104447.4866735147
 21
95264.43016045961
 31
0.0
  0
LINE
  5
5E53D
330
1F
100
AcDbEntity
  8
freecads.com
100
AcDbLine
 10
104447.4866735147
 20
95264.43016045961
 30
0.0
 11
104447.4836494526
 21
95264.42993690336
 31
0.0
  0
LINE
  5
5E53E
330
1F
100
AcDbEntity
  8
freecads.com
100
AcDbLine
 10
104447.4836494526
 20
95264.42993690336
 30
0.0
 11
104447.4799434228
 21
95264.4298231076
 31
0.0
  0
LINE
  5
5E53F
330
1F
100
AcDbEntity
  8
freecads.com
100
AcDbLine
 10
104447.4799434228
 20
95264.4298231076
 30
0.0
 11
104447.4756307513
 21
95264.42973809704
 31
0.0
  0
LINE
  5
5E540
330
1F
100
AcDbEntity
  8
freecads.com
100
AcDbLine
 10
104447.4756307513
 20
95264.42973809704
 30
0.0
 11
104447.4707862258
 21
95264.42960251058
 31
0.0
  0
LINE
  5
5E541
330
1F
100
AcDbEntity
  8
freecads.com
100
AcDbLine
 10
104447.4707862258
 20
95264.42960251058
 30
0.0
 11
104447.4654854411
 21
95264.42933564201
 31
0.0
  0
LINE
  5
5E542
330
1F
100
AcDbEntity
  8
freecads.com
100
AcDbLine
 10
104447.4654854411
 20
95264.42933564201
 30
0.0
 11
104447.459803454
 21
95264.42885759216
 31
0.0
  0
LINE
  5
5E543
330
1F
100
AcDbEntity
  8
freecads.com
100
AcDbLine
 10
104447.459803454
 20
95264.42885759216
 30
0.0
 11
104447.4538155903
 21
95264.42808792381
 31
0.0
  0
LINE
  5
5E544
330
1F
100
AcDbEntity
  8
freecads.com
100
AcDbLine
 10
104447.4538155903
 20
95264.42808792381
 30
0.0
 11
104447.4475971758
 21
95264.42694700683
 31
0.0
  0
LINE
  5
5E545
330
1F
100
AcDbEntity
  8
freecads.com
100
AcDbLine
 10
104447.4475971758
 20
95264.42694700683
 30
0.0
 11
104447.4412235364
 21
95264.42535413503
 31
0.0
  0
LINE
  5
5E546
330
1F
100
AcDbEntity
  8
freecads.com
100
AcDbLine
 10
104447.4412235364
 20
95264.42535413503
 30
0.0
 11
104447.4347694598
 21
95264.42322940921
 31
0.0
  0
LINE
  5
5E547
330
1F
100
AcDbEntity
  8
freecads.com
100
AcDbLine
 10
104447.4347694598
 20
95264.42322940921
 30
0.0
 11
104447.4283105408
 21
95264.42049266119
 31
0.0
  0
LINE
  5
5E548
330
1F
100
AcDbEntity
  8
freecads.com
100
AcDbLine
 10
104447.4283105408
 20
95264.42049266119
 30
0.0
 11
104447.4219221052
 21
95264.41706345378
 31
0.0
  0
LINE
  5
5E549
330
1F
100
AcDbEntity
  8
freecads.com
100
AcDbLine
 10
104447.4219221052
 20
95264.41706345378
 30
0.0
 11
104447.4156789408
 21
95264.41286215685
 31
0.0
  0
LINE
  5
5E54A
330
1F
100
AcDbEntity
  8
freecads.com
100
AcDbLine
 10
104447.4156789408
 20
95264.41286215685
 30
0.0
 11
104447.4096566425
 21
95264.40780806417
 31
0.0
  0
LINE
  5
5E54B
330
1F
100
AcDbEntity
  8
freecads.com
100
AcDbLine
 10
104447.4096566425
 20
95264.40780806417
 30
0.0
 11
104447.406239003
 21
95264.40406114327
 31
0.0
  0
LINE
  5
5E54C
330
1F
100
AcDbEntity
  8
freecads.com
100
AcDbLine
 10
104447.406239003
 20
95264.40406114327
 30
0.0
 11
104447.4024597996
 21
95264.39901000982
 31
0.0
  0
LINE
  5
5E54D
330
1F
100
AcDbEntity
  8
freecads.com
100
AcDbLine
 10
104447.4024597996
 20
95264.39901000982
 30
0.0
 11
104447.399313333
 21
95264.39322283561
 31
0.0
  0
LINE
  5
5E54E
330
1F
100
AcDbEntity
  8
freecads.com
100
AcDbLine
 10
104447.399313333
 20
95264.39322283561
 30
0.0
 11
104447.3977939039
 21
95264.38726779245
 31
0.0
  0
LINE
  5
5E54F
330
1F
100
AcDbEntity
  8
freecads.com
100
AcDbLine
 10
104447.3977939039
 20
95264.38726779245
 30
0.0
 11
104447.3988958128
 21
95264.38171305215
 31
0.0
  0
LINE
  5
5E550
330
1F
100
AcDbEntity
  8
freecads.com
100
AcDbLine
 10
104447.3988958128
 20
95264.38171305215
 30
0.0
 11
104447.4012787985
 21
95264.37755210835
 31
0.0
  0
LINE
  5
5E551
330
1F
100
AcDbEntity
  8
freecads.com
100
AcDbLine
 10
104447.4012787985
 20
95264.37755210835
 30
0.0
 11
104447.4038622047
 21
95264.37337744447
 31
0.0
  0
LINE
  5
5E552
330
1F
100
AcDbEntity
  8
freecads.com
100
AcDbLine
 10
104447.4038622047
 20
95264.37337744447
 30
0.0
 11
104447.4066341945
 21
95264.36918959857
 31
0.0
  0
LINE
  5
5E553
330
1F
100
AcDbEntity
  8
freecads.com
100
AcDbLine
 10
104447.4066341945
 20
95264.36918959857
 30
0.0
 11
104447.4095834688
 21
95264.36498830165
 31
0.0
  0
LINE
  5
5E554
330
1F
100
AcDbEntity
  8
freecads.com
100
AcDbLine
 10
104447.4095834688
 20
95264.36498830165
 30
0.0
 11
104447.412697922
 21
95264.36077462975
 31
0.0
  0
LINE
  5
5E555
330
1F
100
AcDbEntity
  8
freecads.com
100
AcDbLine
 10
104447.412697922
 20
95264.36077462975
 30
0.0
 11
104447.415965717
 21
95264.35654804487
 31
0.0
  0
LINE
  5
5E556
330
1F
100
AcDbEntity
  8
freecads.com
100
AcDbLine
 10
104447.415965717
 20
95264.35654804487
 30
0.0
 11
104447.4193755549
 21
95264.35230935407
 31
0.0
  0
LINE
  5
5E557
330
1F
100
AcDbEntity
  8
freecads.com
100
AcDbLine
 10
104447.4193755549
 20
95264.35230935407
 30
0.0
 11
104447.4229153298
 21
95264.34805882633
 31
0.0
  0
LINE
  5
5E558
330
1F
100
AcDbEntity
  8
freecads.com
100
AcDbLine
 10
104447.4229153298
 20
95264.34805882633
 30
0.0
 11
104447.4265732048
 21
95264.34379646168
 31
0.0
  0
LINE
  5
5E559
330
1F
100
AcDbEntity
  8
freecads.com
100
AcDbLine
 10
104447.4265732048
 20
95264.34379646168
 30
0.0
 11
104447.4303378811
 21
95264.33952279818
 31
0.0
  0
LINE
  5
5E55A
330
1F
100
AcDbEntity
  8
freecads.com
100
AcDbLine
 10
104447.4303378811
 20
95264.33952279818
 30
0.0
 11
104447.4341969836
 21
95264.33523810482
 31
0.0
  0
LINE
  5
5E55B
330
1F
100
AcDbEntity
  8
freecads.com
100
AcDbLine
 10
104447.4341969836
 20
95264.33523810482
 30
0.0
 11
104447.4381394826
 21
95264.33094265062
 31
0.0
  0
LINE
  5
5E55C
330
1F
100
AcDbEntity
  8
freecads.com
100
AcDbLine
 10
104447.4381394826
 20
95264.33094265062
 30
0.0
 11
104447.4421530031
 21
95264.32663643559
 31
0.0
  0
LINE
  5
5E55D
330
1F
100
AcDbEntity
  8
freecads.com
100
AcDbLine
 10
104447.4421530031
 20
95264.32663643559
 30
0.0
 11
104447.4462262461
 21
95264.32232026682
 31
0.0
  0
LINE
  5
5E55E
330
1F
100
AcDbEntity
  8
freecads.com
100
AcDbLine
 10
104447.4462262461
 20
95264.32232026682
 30
0.0
 11
104447.4503473749
 21
95264.31799387523
 31
0.0
  0
LINE
  5
5E55F
330
1F
100
AcDbEntity
  8
freecads.com
100
AcDbLine
 10
104447.4503473749
 20
95264.31799387523
 30
0.0
 11
104447.4545042834
 21
95264.31365806793
 31
0.0
  0
LINE
  5
5E560
330
1F
100
AcDbEntity
  8
freecads.com
100
AcDbLine
 10
104447.4545042834
 20
95264.31365806793
 30
0.0
 11
104447.4586856728
 21
95264.3093128449
 31
0.0
  0
LINE
  5
5E561
330
1F
100
AcDbEntity
  8
freecads.com
100
AcDbLine
 10
104447.4586856728
 20
95264.3093128449
 30
0.0
 11
104447.4628797062
 21
95264.30495847517
 31
0.0
  0
LINE
  5
5E562
330
1F
100
AcDbEntity
  8
freecads.com
100
AcDbLine
 10
104447.4628797062
 20
95264.30495847517
 30
0.0
 11
104447.4670742776
 21
95264.30059549676
 31
0.0
  0
LINE
  5
5E563
330
1F
100
AcDbEntity
  8
freecads.com
100
AcDbLine
 10
104447.4670742776
 20
95264.30059549676
 30
0.0
 11
104447.4712580881
 21
95264.29622390971
 31
0.0
  0
LINE
  5
5E564
330
1F
100
AcDbEntity
  8
freecads.com
100
AcDbLine
 10
104447.4712580881
 20
95264.29622390971
 30
0.0
 11
104447.475419301
 21
95264.29184398299
 31
0.0
  0
LINE
  5
5E565
330
1F
100
AcDbEntity
  8
freecads.com
100
AcDbLine
 10
104447.475419301
 20
95264.29184398299
 30
0.0
 11
104447.4795460792
 21
95264.28745625469
 31
0.0
  0
LINE
  5
5E566
330
1F
100
AcDbEntity
  8
freecads.com
100
AcDbLine
 10
104447.4795460792
 20
95264.28745625469
 30
0.0
 11
104447.4836265858
 21
95264.28306072478
 31
0.0
  0
LINE
  5
5E567
330
1F
100
AcDbEntity
  8
freecads.com
100
AcDbLine
 10
104447.4836265858
 20
95264.28306072478
 30
0.0
 11
104447.487649253
 21
95264.27865820034
 31
0.0
  0
LINE
  5
5E568
330
1F
100
AcDbEntity
  8
freecads.com
100
AcDbLine
 10
104447.487649253
 20
95264.27865820034
 30
0.0
 11
104447.4916022438
 21
95264.27424841234
 31
0.0
  0
LINE
  5
5E569
330
1F
100
AcDbEntity
  8
freecads.com
100
AcDbLine
 10
104447.4916022438
 20
95264.27424841234
 30
0.0
 11
104447.4954739903
 21
95264.26983162979
 31
0.0
  0
LINE
  5
5E56A
330
1F
100
AcDbEntity
  8
freecads.com
100
AcDbLine
 10
104447.4954739903
 20
95264.26983162979
 30
0.0
 11
104447.4992523866
 21
95264.26540865976
 31
0.0
  0
LINE
  5
5E56B
330
1F
100
AcDbEntity
  8
freecads.com
100
AcDbLine
 10
104447.4992523866
 20
95264.26540865976
 30
0.0
 11
104447.5029261339
 21
95264.26097950226
 31
0.0
  0
LINE
  5
5E56C
330
1F
100
AcDbEntity
  8
freecads.com
100
AcDbLine
 10
104447.5029261339
 20
95264.26097950226
 30
0.0
 11
104447.5064831261
 21
95264.25654415728
 31
0.0
  0
LINE
  5
5E56D
330
1F
100
AcDbEntity
  8
freecads.com
100
AcDbLine
 10
104447.5064831261
 20
95264.25654415728
 30
0.0
 11
104447.5099115265
 21
95264.25210343189
 31
0.0
  0
LINE
  5
5E56E
330
1F
100
AcDbEntity
  8
freecads.com
100
AcDbLine
 10
104447.5099115265
 20
95264.25210343189
 30
0.0
 11
104447.513200036
 21
95264.24765732608
 31
0.0
  0
LINE
  5
5E56F
330
1F
100
AcDbEntity
  8
freecads.com
100
AcDbLine
 10
104447.513200036
 20
95264.24765732608
 30
0.0
 11
104447.5163368179
 21
95264.24320610887
 31
0.0
  0
LINE
  5
5E570
330
1F
100
AcDbEntity
  8
freecads.com
100
AcDbLine
 10
104447.5163368179
 20
95264.24320610887
 30
0.0
 11
104447.5193097661
 21
95264.23875004931
 31
0.0
  0
LINE
  5
5E571
330
1F
100
AcDbEntity
  8
freecads.com
100
AcDbLine
 10
104447.5193097661
 20
95264.23875004931
 30
0.0
 11
104447.5221073128
 21
95264.2342896854
 31
0.0
  0
LINE
  5
5E572
330
1F
100
AcDbEntity
  8
freecads.com
100
AcDbLine
 10
104447.5221073128
 20
95264.2342896854
 30
0.0
 11
104447.5257883236
 21
95264.22873386902
 31
0.0
  0
LINE
  5
5E573
330
1F
100
AcDbEntity
  8
freecads.com
100
AcDbLine
 10
104447.5257883236
 20
95264.22873386902
 30
0.0
 11
104447.5296519995
 21
95264.22345057067
 31
0.0
  0
LINE
  5
5E574
330
1F
100
AcDbEntity
  8
freecads.com
100
AcDbLine
 10
104447.5296519995
 20
95264.22345057067
 30
0.0
 11
104447.5336725145
 21
95264.21841530943
 31
0.0
  0
LINE
  5
5E575
330
1F
100
AcDbEntity
  8
freecads.com
100
AcDbLine
 10
104447.5336725145
 20
95264.21841530943
 30
0.0
 11
104447.5378240426
 21
95264.21360441151
 31
0.0
  0
LINE
  5
5E576
330
1F
100
AcDbEntity
  8
freecads.com
100
AcDbLine
 10
104447.5378240426
 20
95264.21360441151
 30
0.0
 11
104447.5420812958
 21
95264.20899366501
 31
0.0
  0
LINE
  5
5E577
330
1F
100
AcDbEntity
  8
freecads.com
100
AcDbLine
 10
104447.5420812958
 20
95264.20899366501
 30
0.0
 11
104447.5464184483
 21
95264.20455912708
 31
0.0
  0
LINE
  5
5E578
330
1F
100
AcDbEntity
  8
freecads.com
100
AcDbLine
 10
104447.5464184483
 20
95264.20455912708
 30
0.0
 11
104447.5508102119
 21
95264.20027685491
 31
0.0
  0
LINE
  5
5E579
330
1F
100
AcDbEntity
  8
freecads.com
100
AcDbLine
 10
104447.5508102119
 20
95264.20027685491
 30
0.0
 11
104447.5552304917
 21
95264.19612236757
 31
0.0
  0
LINE
  5
5E57A
330
1F
100
AcDbEntity
  8
freecads.com
100
AcDbLine
 10
104447.5552304917
 20
95264.19612236757
 30
0.0
 11
104447.5596539998
 21
95264.19207199129
 31
0.0
  0
LINE
  5
5E57B
330
1F
100
AcDbEntity
  8
freecads.com
100
AcDbLine
 10
104447.5596539998
 20
95264.19207199129
 30
0.0
 11
104447.5640551791
 21
95264.18810178318
 31
0.0
  0
LINE
  5
5E57C
330
1F
100
AcDbEntity
  8
freecads.com
100
AcDbLine
 10
104447.5640551791
 20
95264.18810178318
 30
0.0
 11
104447.5684082037
 21
95264.18418726235
 31
0.0
  0
LINE
  5
5E57D
330
1F
100
AcDbEntity
  8
freecads.com
100
AcDbLine
 10
104447.5684082037
 20
95264.18418726235
 30
0.0
 11
104447.5726875167
 21
95264.18030475499
 31
0.0
  0
LINE
  5
5E57E
330
1F
100
AcDbEntity
  8
freecads.com
100
AcDbLine
 10
104447.5726875167
 20
95264.18030475499
 30
0.0
 11
104447.576867292
 21
95264.17643031827
 31
0.0
  0
LINE
  5
5E57F
330
1F
100
AcDbEntity
  8
freecads.com
100
AcDbLine
 10
104447.576867292
 20
95264.17643031827
 30
0.0
 11
104447.5809225106
 21
95264.17253947126
 31
0.0
  0
LINE
  5
5E580
330
1F
100
AcDbEntity
  8
freecads.com
100
AcDbLine
 10
104447.5809225106
 20
95264.17253947126
 30
0.0
 11
104447.5848270777
 21
95264.16860854018
 31
0.0
  0
LINE
  5
5E581
330
1F
100
AcDbEntity
  8
freecads.com
100
AcDbLine
 10
104447.5848270777
 20
95264.16860854018
 30
0.0
 11
104447.5885554361
 21
95264.16461331315
 31
0.0
  0
LINE
  5
5E582
330
1F
100
AcDbEntity
  8
freecads.com
100
AcDbLine
 10
104447.5885554361
 20
95264.16461331315
 30
0.0
 11
104447.590901566
 21
95264.1616608105
 31
0.0
  0
LINE
  5
5E583
330
1F
100
AcDbEntity
  8
freecads.com
100
AcDbLine
 10
104447.590901566
 20
95264.1616608105
 30
0.0
 11
104447.5941249725
 21
95264.15842395293
 31
0.0
  0
LINE
  5
5E584
330
1F
100
AcDbEntity
  8
freecads.com
100
AcDbLine
 10
104447.5941249725
 20
95264.15842395293
 30
0.0
 11
104447.5980903383
 21
95264.15495277829
 31
0.0
  0
LINE
  5
5E585
330
1F
100
AcDbEntity
  8
freecads.com
100
AcDbLine
 10
104447.5980903383
 20
95264.15495277829
 30
0.0
 11
104447.6026626148
 21
95264.15129732443
 31
0.0
  0
LINE
  5
5E586
330
1F
100
AcDbEntity
  8
freecads.com
100
AcDbLine
 10
104447.6026626148
 20
95264.15129732443
 30
0.0
 11
104447.6077064847
 21
95264.1475070912
 31
0.0
  0
LINE
  5
5E587
330
1F
100
AcDbEntity
  8
freecads.com
100
AcDbLine
 10
104447.6077064847
 20
95264.1475070912
 30
0.0
 11
104447.6130868996
 21
95264.14363265446
 31
0.0
  0
LINE
  5
5E588
330
1F
100
AcDbEntity
  8
freecads.com
100
AcDbLine
 10
104447.6130868996
 20
95264.14363265446
 30
0.0
 11
104447.6186685419
 21
95264.13972351406
 31
0.0
  0
LINE
  5
5E589
330
1F
100
AcDbEntity
  8
freecads.com
100
AcDbLine
 10
104447.6186685419
 20
95264.13972351406
 30
0.0
 11
104447.6243163634
 21
95264.13582997687
 31
0.0
  0
LINE
  5
5E58A
330
1F
100
AcDbEntity
  8
freecads.com
100
AcDbLine
 10
104447.6243163634
 20
95264.13582997687
 30
0.0
 11
104447.6298953155
 21
95264.1320018117
 31
0.0
  0
LINE
  5
5E58B
330
1F
100
AcDbEntity
  8
freecads.com
100
AcDbLine
 10
104447.6298953155
 20
95264.1320018117
 30
0.0
 11
104447.635269812
 21
95264.12828878742
 31
0.0
  0
LINE
  5
5E58C
330
1F
100
AcDbEntity
  8
freecads.com
100
AcDbLine
 10
104447.635269812
 20
95264.12828878742
 30
0.0
 11
104447.6403048042
 21
95264.12474121087
 31
0.0
  0
LINE
  5
5E58D
330
1F
100
AcDbEntity
  8
freecads.com
100
AcDbLine
 10
104447.6403048042
 20
95264.12474121087
 30
0.0
 11
104447.6448655128
 21
95264.12140885094
 31
0.0
  0
LINE
  5
5E58E
330
1F
100
AcDbEntity
  8
freecads.com
100
AcDbLine
 10
104447.6448655128
 20
95264.12140885094
 30
0.0
 11
104447.6488160824
 21
95264.11834174545
 31
0.0
  0
LINE
  5
5E58F
330
1F
100
AcDbEntity
  8
freecads.com
100
AcDbLine
 10
104447.6488160824
 20
95264.11834174545
 30
0.0
 11
104447.6528766815
 21
95264.11518909139
 31
0.0
  0
LINE
  5
5E590
330
1F
100
AcDbEntity
  8
freecads.com
100
AcDbLine
 10
104447.6528766815
 20
95264.11518909139
 30
0.0
 11
104447.6516408002
 21
95264.11390290322
 31
0.0
  0
LINE
  5
5E591
330
1F
100
AcDbEntity
  8
freecads.com
100
AcDbLine
 10
104447.6516408002
 20
95264.11390290322
 30
0.0
 11
104447.6473784356
 21
95264.11402907394
 31
0.0
  0
LINE
  5
5E592
330
1F
100
AcDbEntity
  8
freecads.com
100
AcDbLine
 10
104447.6473784356
 20
95264.11402907394
 30
0.0
 11
104447.6423595846
 21
95264.11511349657
 31
0.0
  0
LINE
  5
5E593
330
1F
100
AcDbEntity
  8
freecads.com
100
AcDbLine
 10
104447.6423595846
 20
95264.11511349657
 30
0.0
 11
104447.6383137816
 21
95264.11707654093
 31
0.0
  0
LINE
  5
5E594
330
1F
100
AcDbEntity
  8
freecads.com
100
AcDbLine
 10
104447.6383137816
 20
95264.11707654093
 30
0.0
 11
104447.6330953173
 21
95264.1204266562
 31
0.0
  0
LINE
  5
5E595
330
1F
100
AcDbEntity
  8
freecads.com
100
AcDbLine
 10
104447.6330953173
 20
95264.1204266562
 30
0.0
 11
104447.6270948096
 21
95264.12468471653
 31
0.0
  0
LINE
  5
5E596
330
1F
100
AcDbEntity
  8
freecads.com
100
AcDbLine
 10
104447.6270948096
 20
95264.12468471653
 30
0.0
 11
104447.6207034148
 21
95264.12937159591
 31
0.0
  0
LINE
  5
5E597
330
1F
100
AcDbEntity
  8
freecads.com
100
AcDbLine
 10
104447.6207034148
 20
95264.12937159591
 30
0.0
 11
104447.61431202
 21
95264.13400789937
 31
0.0
  0
LINE
  5
5E598
330
1F
100
AcDbEntity
  8
freecads.com
100
AcDbLine
 10
104447.61431202
 20
95264.13400789937
 30
0.0
 11
104447.6083117814
 21
95264.13811477002
 31
0.0
  0
LINE
  5
5E599
330
1F
100
AcDbEntity
  8
freecads.com
100
AcDbLine
 10
104447.6083117814
 20
95264.13811477002
 30
0.0
 11
104447.603093048
 21
95264.14121281289
 31
0.0
  0
LINE
  5
5E59A
330
1F
100
AcDbEntity
  8
freecads.com
100
AcDbLine
 10
104447.603093048
 20
95264.14121281289
 30
0.0
 11
104447.5990472451
 21
95264.14282263301
 31
0.0
  0
LINE
  5
5E59B
330
1F
100
AcDbEntity
  8
freecads.com
100
AcDbLine
 10
104447.5990472451
 20
95264.14282263301
 30
0.0
 11
104447.5992710703
 21
95264.14130401091
 31
0.0
  0
LINE
  5
5E59C
330
1F
100
AcDbEntity
  8
freecads.com
100
AcDbLine
 10
104447.5992710703
 20
95264.14130401091
 30
0.0
 11
104447.6001061107
 21
95264.13949403936
 31
0.0
  0
LINE
  5
5E59D
330
1F
100
AcDbEntity
  8
freecads.com
100
AcDbLine
 10
104447.6001061107
 20
95264.13949403936
 30
0.0
 11
104447.6015198147
 21
95264.13741397099
 31
0.0
  0
LINE
  5
5E59E
330
1F
100
AcDbEntity
  8
freecads.com
100
AcDbLine
 10
104447.6015198147
 20
95264.13741397099
 30
0.0
 11
104447.6034785547
 21
95264.13508532744
 31
0.0
  0
LINE
  5
5E59F
330
1F
100
AcDbEntity
  8
freecads.com
100
AcDbLine
 10
104447.6034785547
 20
95264.13508532744
 30
0.0
 11
104447.6059495103
 21
95264.13252936137
 31
0.0
  0
LINE
  5
5E5A0
330
1F
100
AcDbEntity
  8
freecads.com
100
AcDbLine
 10
104447.6059495103
 20
95264.13252936137
 30
0.0
 11
104447.6088995917
 21
95264.12976786346
 31
0.0
  0
LINE
  5
5E5A1
330
1F
100
AcDbEntity
  8
freecads.com
100
AcDbLine
 10
104447.6088995917
 20
95264.12976786346
 30
0.0
 11
104447.6122951715
 21
95264.1268218173
 31
0.0
  0
LINE
  5
5E5A2
330
1F
100
AcDbEntity
  8
freecads.com
100
AcDbLine
 10
104447.6122951715
 20
95264.1268218173
 30
0.0
 11
104447.6161034292
 21
95264.1237127446
 31
0.0
  0
LINE
  5
5E5A3
330
1F
100
AcDbEntity
  8
freecads.com
100
AcDbLine
 10
104447.6161034292
 20
95264.1237127446
 30
0.0
 11
104447.6202912751
 21
95264.12046216696
 31
0.0
  0
LINE
  5
5E5A4
330
1F
100
AcDbEntity
  8
freecads.com
100
AcDbLine
 10
104447.6202912751
 20
95264.12046216696
 30
0.0
 11
104447.6248253507
 21
95264.11709106804
 31
0.0
  0
LINE
  5
5E5A5
330
1F
100
AcDbEntity
  8
freecads.com
100
AcDbLine
 10
104447.6248253507
 20
95264.11709106804
 30
0.0
 11
104447.6296725664
 21
95264.11362150753
 31
0.0
  0
LINE
  5
5E5A6
330
1F
100
AcDbEntity
  8
freecads.com
100
AcDbLine
 10
104447.6296725664
 20
95264.11362150753
 30
0.0
 11
104447.6347995637
 21
95264.11007446903
 31
0.0
  0
LINE
  5
5E5A7
330
1F
100
AcDbEntity
  8
freecads.com
100
AcDbLine
 10
104447.6347995637
 20
95264.11007446903
 30
0.0
 11
104447.6401737911
 21
95264.10647120522
 31
0.0
  0
LINE
  5
5E5A8
330
1F
100
AcDbEntity
  8
freecads.com
100
AcDbLine
 10
104447.6401737911
 20
95264.10647120522
 30
0.0
 11
104447.6457616209
 21
95264.10283350674
 31
0.0
  0
LINE
  5
5E5A9
330
1F
100
AcDbEntity
  8
freecads.com
100
AcDbLine
 10
104447.6457616209
 20
95264.10283350674
 30
0.0
 11
104447.6515299637
 21
95264.09918235723
 31
0.0
  0
LINE
  5
5E5AA
330
1F
100
AcDbEntity
  8
freecads.com
100
AcDbLine
 10
104447.6515299637
 20
95264.09918235723
 30
0.0
 11
104447.6574457298
 21
95264.09553954735
 31
0.0
  0
LINE
  5
5E5AB
330
1F
100
AcDbEntity
  8
freecads.com
100
AcDbLine
 10
104447.6574457298
 20
95264.09553954735
 30
0.0
 11
104447.6634755607
 21
95264.09192632975
 31
0.0
  0
LINE
  5
5E5AC
330
1F
100
AcDbEntity
  8
freecads.com
100
AcDbLine
 10
104447.6634755607
 20
95264.09192632975
 30
0.0
 11
104447.6695866359
 21
95264.08836422612
 31
0.0
  0
LINE
  5
5E5AD
330
1F
100
AcDbEntity
  8
freecads.com
100
AcDbLine
 10
104447.6695866359
 20
95264.08836422612
 30
0.0
 11
104447.6757458657
 21
95264.08487422001
 31
0.0
  0
LINE
  5
5E5AE
330
1F
100
AcDbEntity
  8
freecads.com
100
AcDbLine
 10
104447.6757458657
 20
95264.08487422001
 30
0.0
 11
104447.6819196228
 21
95264.08147810217
 31
0.0
  0
LINE
  5
5E5AF
330
1F
100
AcDbEntity
  8
freecads.com
100
AcDbLine
 10
104447.6819196228
 20
95264.08147810217
 30
0.0
 11
104447.6880750864
 21
95264.0781971252
 31
0.0
  0
LINE
  5
5E5B0
330
1F
100
AcDbEntity
  8
freecads.com
100
AcDbLine
 10
104447.6880750864
 20
95264.0781971252
 30
0.0
 11
104447.694178898
 21
95264.07505254173
 31
0.0
  0
LINE
  5
5E5B1
330
1F
100
AcDbEntity
  8
freecads.com
100
AcDbLine
 10
104447.694178898
 20
95264.07505254173
 30
0.0
 11
104447.7001982371
 21
95264.07206614248
 31
0.0
  0
LINE
  5
5E5B2
330
1F
100
AcDbEntity
  8
freecads.com
100
AcDbLine
 10
104447.7001982371
 20
95264.07206614248
 30
0.0
 11
104447.7060997452
 21
95264.06925918006
 31
0.0
  0
LINE
  5
5E5B3
330
1F
100
AcDbEntity
  8
freecads.com
100
AcDbLine
 10
104447.7060997452
 20
95264.06925918006
 30
0.0
 11
104447.7118500635
 21
95264.06665263808
 31
0.0
  0
LINE
  5
5E5B4
330
1F
100
AcDbEntity
  8
freecads.com
100
AcDbLine
 10
104447.7118500635
 20
95264.06665263808
 30
0.0
 11
104447.7174163717
 21
95264.06426857628
 31
0.0
  0
LINE
  5
5E5B5
330
1F
100
AcDbEntity
  8
freecads.com
100
AcDbLine
 10
104447.7174163717
 20
95264.06426857628
 30
0.0
 11
104447.7174163717
 21
95264.06426857628
 31
0.0
  0
LINE
  5
5E5B6
330
1F
100
AcDbEntity
  8
freecads.com
100
AcDbLine
 10
104447.7174163717
 20
95264.06426857628
 30
0.0
 11
104447.7196193825
 21
95264.06199562002
 31
0.0
  0
LINE
  5
5E5B7
330
1F
100
AcDbEntity
  8
freecads.com
100
AcDbLine
 10
104447.7196193825
 20
95264.06199562002
 30
0.0
 11
104447.7187994073
 21
95264.06040974274
 31
0.0
  0
LINE
  5
5E5B8
330
1F
100
AcDbEntity
  8
freecads.com
100
AcDbLine
 10
104447.7187994073
 20
95264.06040974274
 30
0.0
 11
104447.7156147398
 21
95264.05949238201
 31
0.0
  0
LINE
  5
5E5B9
330
1F
100
AcDbEntity
  8
freecads.com
100
AcDbLine
 10
104447.7156147398
 20
95264.05949238201
 30
0.0
 11
104447.7107244807
 21
95264.05922443736
 31
0.0
  0
LINE
  5
5E5BA
330
1F
100
AcDbEntity
  8
freecads.com
100
AcDbLine
 10
104447.7107244807
 20
95264.05922443736
 30
0.0
 11
104447.704787731
 21
95264.05958707732
 31
0.0
  0
LINE
  5
5E5BB
330
1F
100
AcDbEntity
  8
freecads.com
100
AcDbLine
 10
104447.704787731
 20
95264.05958707732
 30
0.0
 11
104447.6984630533
 21
95264.06056120142
 31
0.0
  0
LINE
  5
5E5BC
330
1F
100
AcDbEntity
  8
freecads.com
100
AcDbLine
 10
104447.6984630533
 20
95264.06056120142
 30
0.0
 11
104447.6924095486
 21
95264.06212797821
 31
0.0
  0
LINE
  5
5E5BD
330
1F
100
AcDbEntity
  8
freecads.com
100
AcDbLine
 10
104447.6924095486
 20
95264.06212797821
 30
0.0
 11
104447.6872860486
 21
95264.06426857628
 31
0.0
  0
LINE
  5
5E5BE
330
1F
100
AcDbEntity
  8
freecads.com
100
AcDbLine
 10
104447.6872860486
 20
95264.06426857628
 30
0.0
 11
104447.6825007076
 21
95264.06703948991
 31
0.0
  0
LINE
  5
5E5BF
330
1F
100
AcDbEntity
  8
freecads.com
100
AcDbLine
 10
104447.6825007076
 20
95264.06703948991
 30
0.0
 11
104447.6775149462
 21
95264.07003180763
 31
0.0
  0
LINE
  5
5E5C0
330
1F
100
AcDbEntity
  8
freecads.com
100
AcDbLine
 10
104447.6775149462
 20
95264.07003180763
 30
0.0
 11
104447.6723750359
 21
95264.07321916538
 31
0.0
  0
LINE
  5
5E5C1
330
1F
100
AcDbEntity
  8
freecads.com
100
AcDbLine
 10
104447.6723750359
 20
95264.07321916538
 30
0.0
 11
104447.6671275173
 21
95264.07657600621
 31
0.0
  0
LINE
  5
5E5C2
330
1F
100
AcDbEntity
  8
freecads.com
100
AcDbLine
 10
104447.6671275173
 20
95264.07657600621
 30
0.0
 11
104447.6618186619
 21
95264.08007650411
 31
0.0
  0
LINE
  5
5E5C3
330
1F
100
AcDbEntity
  8
freecads.com
100
AcDbLine
 10
104447.6618186619
 20
95264.08007650411
 30
0.0
 11
104447.6564952795
 21
95264.08369456406
 31
0.0
  0
LINE
  5
5E5C4
330
1F
100
AcDbEntity
  8
freecads.com
100
AcDbLine
 10
104447.6564952795
 20
95264.08369456406
 30
0.0
 11
104447.6512036415
 21
95264.08740436011
 31
0.0
  0
LINE
  5
5E5C5
330
1F
100
AcDbEntity
  8
freecads.com
100
AcDbLine
 10
104447.6512036415
 20
95264.08740436011
 30
0.0
 11
104447.6459902885
 21
95264.09118006622
 31
0.0
  0
LINE
  5
5E5C6
330
1F
100
AcDbEntity
  8
freecads.com
100
AcDbLine
 10
104447.6459902885
 20
95264.09118006622
 30
0.0
 11
104447.6409014922
 21
95264.09499585643
 31
0.0
  0
LINE
  5
5E5C7
330
1F
100
AcDbEntity
  8
freecads.com
100
AcDbLine
 10
104447.6409014922
 20
95264.09499585643
 30
0.0
 11
104447.635983793
 21
95264.09882563573
 31
0.0
  0
LINE
  5
5E5C8
330
1F
100
AcDbEntity
  8
freecads.com
100
AcDbLine
 10
104447.635983793
 20
95264.09882563573
 30
0.0
 11
104447.6312840006
 21
95264.1026435781
 31
0.0
  0
LINE
  5
5E5C9
330
1F
100
AcDbEntity
  8
freecads.com
100
AcDbLine
 10
104447.6312840006
 20
95264.1026435781
 30
0.0
 11
104447.6268481176
 21
95264.10642412658
 31
0.0
  0
LINE
  5
5E5CA
330
1F
100
AcDbEntity
  8
freecads.com
100
AcDbLine
 10
104447.6268481176
 20
95264.10642412658
 30
0.0
 11
104447.6227229536
 21
95264.11014091715
 31
0.0
  0
LINE
  5
5E5CB
330
1F
100
AcDbEntity
  8
freecads.com
100
AcDbLine
 10
104447.6227229536
 20
95264.11014091715
 30
0.0
 11
104447.61895478
 21
95264.11376839286
 31
0.0
  0
LINE
  5
5E5CC
330
1F
100
AcDbEntity
  8
freecads.com
100
AcDbLine
 10
104447.61895478
 20
95264.11376839286
 30
0.0
 11
104447.6151884896
 21
95264.11450577871
 31
0.0
  0
LINE
  5
5E5CD
330
1F
100
AcDbEntity
  8
freecads.com
100
AcDbLine
 10
104447.6151884896
 20
95264.11450577871
 30
0.0
 11
104447.6132157605
 21
95264.11338988065
 31
0.0
  0
LINE
  5
5E5CE
330
1F
100
AcDbEntity
  8
freecads.com
100
AcDbLine
 10
104447.6132157605
 20
95264.11338988065
 30
0.0
 11
104447.6124982822
 21
95264.11107818542
 31
0.0
  0
LINE
  5
5E5CF
330
1F
100
AcDbEntity
  8
freecads.com
100
AcDbLine
 10
104447.6124982822
 20
95264.11107818542
 30
0.0
 11
104447.6154650429
 21
95264.10661136502
 31
0.0
  0
LINE
  5
5E5D0
330
1F
100
AcDbEntity
  8
freecads.com
100
AcDbLine
 10
104447.6154650429
 20
95264.10661136502
 30
0.0
 11
104447.6187710388
 21
95264.10230407391
 31
0.0
  0
LINE
  5
5E5D1
330
1F
100
AcDbEntity
  8
freecads.com
100
AcDbLine
 10
104447.6187710388
 20
95264.10230407391
 30
0.0
 11
104447.6223882917
 21
95264.09814851051
 31
0.0
  0
LINE
  5
5E5D2
330
1F
100
AcDbEntity
  8
freecads.com
100
AcDbLine
 10
104447.6223882917
 20
95264.09814851051
 30
0.0
 11
104447.6262893615
 21
95264.09413741124
 31
0.0
  0
LINE
  5
5E5D3
330
1F
100
AcDbEntity
  8
freecads.com
100
AcDbLine
 10
104447.6262893615
 20
95264.09413741124
 30
0.0
 11
104447.630446001
 21
95264.09026324353
 31
0.0
  0
LINE
  5
5E5D4
330
1F
100
AcDbEntity
  8
freecads.com
100
AcDbLine
 10
104447.630446001
 20
95264.09026324353
 30
0.0
 11
104447.6348310391
 21
95264.08651874382
 31
0.0
  0
LINE
  5
5E5D5
330
1F
100
AcDbEntity
  8
freecads.com
100
AcDbLine
 10
104447.6348310391
 20
95264.08651874382
 30
0.0
 11
104447.6394164977
 21
95264.08289664853
 31
0.0
  0
LINE
  5
5E5D6
330
1F
100
AcDbEntity
  8
freecads.com
100
AcDbLine
 10
104447.6394164977
 20
95264.08289664853
 30
0.0
 11
104447.6441743985
 21
95264.0793891561
 31
0.0
  0
LINE
  5
5E5D7
330
1F
100
AcDbEntity
  8
freecads.com
100
AcDbLine
 10
104447.6441743985
 20
95264.0793891561
 30
0.0
 11
104447.6490773015
 21
95264.07598900295
 31
0.0
  0
LINE
  5
5E5D8
330
1F
100
AcDbEntity
  8
freecads.com
100
AcDbLine
 10
104447.6490773015
 20
95264.07598900295
 30
0.0
 11
104447.6540974976
 21
95264.07268865648
 31
0.0
  0
LINE
  5
5E5D9
330
1F
100
AcDbEntity
  8
freecads.com
100
AcDbLine
 10
104447.6540974976
 20
95264.07268865648
 30
0.0
 11
104447.6592070086
 21
95264.06948085314
 31
0.0
  0
LINE
  5
5E5DA
330
1F
100
AcDbEntity
  8
freecads.com
100
AcDbLine
 10
104447.6592070086
 20
95264.06948085314
 30
0.0
 11
104447.6643781253
 21
95264.06635806036
 31
0.0
  0
LINE
  5
5E5DB
330
1F
100
AcDbEntity
  8
freecads.com
100
AcDbLine
 10
104447.6643781253
 20
95264.06635806036
 30
0.0
 11
104447.6695834076
 21
95264.06331301458
 31
0.0
  0
LINE
  5
5E5DC
330
1F
100
AcDbEntity
  8
freecads.com
100
AcDbLine
 10
104447.6695834076
 20
95264.06331301458
 30
0.0
 11
104447.6747948774
 21
95264.0603379142
 31
0.0
  0
LINE
  5
5E5DD
330
1F
100
AcDbEntity
  8
freecads.com
100
AcDbLine
 10
104447.6747948774
 20
95264.0603379142
 30
0.0
 11
104447.6799848256
 21
95264.05742576466
 31
0.0
  0
LINE
  5
5E5DE
330
1F
100
AcDbEntity
  8
freecads.com
100
AcDbLine
 10
104447.6799848256
 20
95264.05742576466
 30
0.0
 11
104447.685125274
 21
95264.05456876437
 31
0.0
  0
LINE
  5
5E5DF
330
1F
100
AcDbEntity
  8
freecads.com
100
AcDbLine
 10
104447.685125274
 20
95264.05456876437
 30
0.0
 11
104447.6901890514
 21
95264.05175991882
 31
0.0
  0
LINE
  5
5E5E0
330
1F
100
AcDbEntity
  8
freecads.com
100
AcDbLine
 10
104447.6901890514
 20
95264.05175991882
 30
0.0
 11
104447.6951479107
 21
95264.04899142637
 31
0.0
  0
LINE
  5
5E5E1
330
1F
100
AcDbEntity
  8
freecads.com
100
AcDbLine
 10
104447.6951479107
 20
95264.04899142637
 30
0.0
 11
104447.6999741428
 21
95264.04625602344
 31
0.0
  0
LINE
  5
5E5E2
330
1F
100
AcDbEntity
  8
freecads.com
100
AcDbLine
 10
104447.6999741428
 20
95264.04625602344
 30
0.0
 11
104447.7046403076
 21
95264.04354617751
 31
0.0
  0
LINE
  5
5E5E3
330
1F
100
AcDbEntity
  8
freecads.com
100
AcDbLine
 10
104447.7046403076
 20
95264.04354617751
 30
0.0
 11
104447.7091186959
 21
95264.04085435595
 31
0.0
  0
LINE
  5
5E5E4
330
1F
100
AcDbEntity
  8
freecads.com
100
AcDbLine
 10
104447.7091186959
 20
95264.04085435595
 30
0.0
 11
104447.7133810606
 21
95264.03817356426
 31
0.0
  0
LINE
  5
5E5E5
330
1F
100
AcDbEntity
  8
freecads.com
100
AcDbLine
 10
104447.7133810606
 20
95264.03817356426
 30
0.0
 11
104447.7161638111
 21
95264.03431795898
 31
0.0
  0
LINE
  5
5E5E6
330
1F
100
AcDbEntity
  8
freecads.com
100
AcDbLine
 10
104447.7161638111
 20
95264.03431795898
 30
0.0
 11
104447.7159200783
 21
95264.03204500274
 31
0.0
  0
LINE
  5
5E5E7
330
1F
100
AcDbEntity
  8
freecads.com
100
AcDbLine
 10
104447.7159200783
 20
95264.03204500274
 30
0.0
 11
104447.7133810606
 21
95264.03107087862
 31
0.0
  0
LINE
  5
5E5E8
330
1F
100
AcDbEntity
  8
freecads.com
100
AcDbLine
 10
104447.7133810606
 20
95264.03107087862
 30
0.0
 11
104447.7092784942
 21
95264.03111176978
 31
0.0
  0
LINE
  5
5E5E9
330
1F
100
AcDbEntity
  8
freecads.com
100
AcDbLine
 10
104447.7092784942
 20
95264.03111176978
 30
0.0
 11
104447.7043435777
 21
95264.03188412833
 31
0.0
  0
LINE
  5
5E5EA
330
1F
100
AcDbEntity
  8
freecads.com
100
AcDbLine
 10
104447.7043435777
 20
95264.03188412833
 30
0.0
 11
104447.6993080475
 21
95264.03310413741
 31
0.0
  0
LINE
  5
5E5EB
330
1F
100
AcDbEntity
  8
freecads.com
100
AcDbLine
 10
104447.6993080475
 20
95264.03310413741
 30
0.0
 11
104447.6949028328
 21
95264.03448824911
 31
0.0
  0
LINE
  5
5E5EC
330
1F
100
AcDbEntity
  8
freecads.com
100
AcDbLine
 10
104447.6949028328
 20
95264.03448824911
 30
0.0
 11
104447.6918594012
 21
95264.03575237759
 31
0.0
  0
LINE
  5
5E5ED
330
1F
100
AcDbEntity
  8
freecads.com
100
AcDbLine
 10
104447.6918594012
 20
95264.03575237759
 30
0.0
 11
104447.686798583
 21
95264.03826556935
 31
0.0
  0
LINE
  5
5E5EE
330
1F
100
AcDbEntity
  8
freecads.com
100
AcDbLine
 10
104447.686798583
 20
95264.03826556935
 30
0.0
 11
104447.681546491
 21
95264.0410507411
 31
0.0
  0
LINE
  5
5E5EF
330
1F
100
AcDbEntity
  8
freecads.com
100
AcDbLine
 10
104447.681546491
 20
95264.0410507411
 30
0.0
 11
104447.6761485898
 21
95264.0440791076
 31
0.0
  0
LINE
  5
5E5F0
330
1F
100
AcDbEntity
  8
freecads.com
100
AcDbLine
 10
104447.6761485898
 20
95264.0440791076
 30
0.0
 11
104447.6706500749
 21
95264.04732107657
 31
0.0
  0
LINE
  5
5E5F1
330
1F
100
AcDbEntity
  8
freecads.com
100
AcDbLine
 10
104447.6706500749
 20
95264.04732107657
 30
0.0
 11
104447.6650969487
 21
95264.05074786278
 31
0.0
  0
LINE
  5
5E5F2
330
1F
100
AcDbEntity
  8
freecads.com
100
AcDbLine
 10
104447.6650969487
 20
95264.05074786278
 30
0.0
 11
104447.6595338688
 21
95264.05432987397
 31
0.0
  0
LINE
  5
5E5F3
330
1F
100
AcDbEntity
  8
freecads.com
100
AcDbLine
 10
104447.6595338688
 20
95264.05432987397
 30
0.0
 11
104447.6540068376
 21
95264.05803832489
 31
0.0
  0
LINE
  5
5E5F4
330
1F
100
AcDbEntity
  8
freecads.com
100
AcDbLine
 10
104447.6540068376
 20
95264.05803832489
 30
0.0
 11
104447.6485610507
 21
95264.06184362329
 31
0.0
  0
LINE
  5
5E5F5
330
1F
100
AcDbEntity
  8
freecads.com
100
AcDbLine
 10
104447.6485610507
 20
95264.06184362329
 30
0.0
 11
104447.6432419726
 21
95264.06571698394
 31
0.0
  0
LINE
  5
5E5F6
330
1F
100
AcDbEntity
  8
freecads.com
100
AcDbLine
 10
104447.6432419726
 20
95264.06571698394
 30
0.0
 11
104447.6380950678
 21
95264.06962908358
 31
0.0
  0
LINE
  5
5E5F7
330
1F
100
AcDbEntity
  8
freecads.com
100
AcDbLine
 10
104447.6380950678
 20
95264.06962908358
 30
0.0
 11
104447.6331658007
 21
95264.07355059895
 31
0.0
  0
LINE
  5
5E5F8
330
1F
100
AcDbEntity
  8
freecads.com
100
AcDbLine
 10
104447.6331658007
 20
95264.07355059895
 30
0.0
 11
104447.628499636
 21
95264.07745274481
 31
0.0
  0
LINE
  5
5E5F9
330
1F
100
AcDbEntity
  8
freecads.com
100
AcDbLine
 10
104447.628499636
 20
95264.07745274481
 30
0.0
 11
104447.6241417689
 21
95264.08130592889
 31
0.0
  0
LINE
  5
5E5FA
330
1F
100
AcDbEntity
  8
freecads.com
100
AcDbLine
 10
104447.6241417689
 20
95264.08130592889
 30
0.0
 11
104447.6201382023
 21
95264.08508136599
 31
0.0
  0
LINE
  5
5E5FB
330
1F
100
AcDbEntity
  8
freecads.com
100
AcDbLine
 10
104447.6201382023
 20
95264.08508136599
 30
0.0
 11
104447.6165335933
 21
95264.08874946381
 31
0.0
  0
LINE
  5
5E5FC
330
1F
100
AcDbEntity
  8
freecads.com
100
AcDbLine
 10
104447.6165335933
 20
95264.08874946381
 30
0.0
 11
104447.6106250908
 21
95264.09250580044
 31
0.0
  0
LINE
  5
5E5FD
330
1F
100
AcDbEntity
  8
freecads.com
100
AcDbLine
 10
104447.6106250908
 20
95264.09250580044
 30
0.0
 11
104447.6051351845
 21
95264.09225668723
 31
0.0
  0
LINE
  5
5E5FE
330
1F
100
AcDbEntity
  8
freecads.com
100
AcDbLine
 10
104447.6051351845
 20
95264.09225668723
 30
0.0
 11
104447.6038896184
 21
95264.08686631862
 31
0.0
  0
LINE
  5
5E5FF
330
1F
100
AcDbEntity
  8
freecads.com
100
AcDbLine
 10
104447.6038896184
 20
95264.08686631862
 30
0.0
 11
104447.6082052492
 21
95264.08256064163
 31
0.0
  0
LINE
  5
5E600
330
1F
100
AcDbEntity
  8
freecads.com
100
AcDbLine
 10
104447.6082052492
 20
95264.08256064163
 30
0.0
 11
104447.6126005101
 21
95264.07828536399
 31
0.0
  0
LINE
  5
5E601
330
1F
100
AcDbEntity
  8
freecads.com
100
AcDbLine
 10
104447.6126005101
 20
95264.07828536399
 30
0.0
 11
104447.6170654473
 21
95264.07404344494
 31
0.0
  0
LINE
  5
5E602
330
1F
100
AcDbEntity
  8
freecads.com
100
AcDbLine
 10
104447.6170654473
 20
95264.07404344494
 30
0.0
 11
104447.6215901072
 21
95264.06983703662
 31
0.0
  0
LINE
  5
5E603
330
1F
100
AcDbEntity
  8
freecads.com
100
AcDbLine
 10
104447.6215901072
 20
95264.06983703662
 30
0.0
 11
104447.6261648049
 21
95264.06566936726
 31
0.0
  0
LINE
  5
5E604
330
1F
100
AcDbEntity
  8
freecads.com
100
AcDbLine
 10
104447.6261648049
 20
95264.06566936726
 30
0.0
 11
104447.6307793177
 21
95264.06154258909
 31
0.0
  0
LINE
  5
5E605
330
1F
100
AcDbEntity
  8
freecads.com
100
AcDbLine
 10
104447.6307793177
 20
95264.06154258909
 30
0.0
 11
104447.6354242299
 21
95264.05745966128
 31
0.0
  0
LINE
  5
5E606
330
1F
100
AcDbEntity
  8
freecads.com
100
AcDbLine
 10
104447.6354242299
 20
95264.05745966128
 30
0.0
 11
104447.6400895876
 21
95264.05342300504
 31
0.0
  0
LINE
  5
5E607
330
1F
100
AcDbEntity
  8
freecads.com
100
AcDbLine
 10
104447.6400895876
 20
95264.05342300504
 30
0.0
 11
104447.6447654371
 21
95264.04943531057
 31
0.0
  0
LINE
  5
5E608
330
1F
100
AcDbEntity
  8
freecads.com
100
AcDbLine
 10
104447.6447654371
 20
95264.04943531057
 30
0.0
 11
104447.6494418247
 21
95264.04549899908
 31
0.0
  0
LINE
  5
5E609
330
1F
100
AcDbEntity
  8
freecads.com
100
AcDbLine
 10
104447.6494418247
 20
95264.04549899908
 30
0.0
 11
104447.6541090655
 21
95264.04161729878
 31
0.0
  0
LINE
  5
5E60A
330
1F
100
AcDbEntity
  8
freecads.com
100
AcDbLine
 10
104447.6541090655
 20
95264.04161729878
 30
0.0
 11
104447.6587574749
 21
95264.03779209285
 31
0.0
  0
LINE
  5
5E60B
330
1F
100
AcDbEntity
  8
freecads.com
100
AcDbLine
 10
104447.6587574749
 20
95264.03779209285
 30
0.0
 11
104447.6633765611
 21
95264.0340263405
 31
0.0
  0
LINE
  5
5E60C
330
1F
100
AcDbEntity
  8
freecads.com
100
AcDbLine
 10
104447.6633765611
 20
95264.0340263405
 30
0.0
 11
104447.6679571772
 21
95264.03032300096
 31
0.0
  0
LINE
  5
5E60D
330
1F
100
AcDbEntity
  8
freecads.com
100
AcDbLine
 10
104447.6679571772
 20
95264.03032300096
 30
0.0
 11
104447.6724891007
 21
95264.02668395737
 31
0.0
  0
LINE
  5
5E60E
330
1F
100
AcDbEntity
  8
freecads.com
100
AcDbLine
 10
104447.6724891007
 20
95264.02668395737
 30
0.0
 11
104447.6769623776
 21
95264.02311270702
 31
0.0
  0
LINE
  5
5E60F
330
1F
100
AcDbEntity
  8
freecads.com
100
AcDbLine
 10
104447.6769623776
 20
95264.02311270702
 30
0.0
 11
104447.6813675922
 21
95264.01961113304
 31
0.0
  0
LINE
  5
5E610
330
1F
100
AcDbEntity
  8
freecads.com
100
AcDbLine
 10
104447.6813675922
 20
95264.01961113304
 30
0.0
 11
104447.6864983558
 21
95264.01604284192
 31
0.0
  0
LINE
  5
5E611
330
1F
100
AcDbEntity
  8
freecads.com
100
AcDbLine
 10
104447.6864983558
 20
95264.01604284192
 30
0.0
 11
104447.6879360026
 21
95264.01327515653
 31
0.0
  0
LINE
  5
5E612
330
1F
100
AcDbEntity
  8
freecads.com
100
AcDbLine
 10
104447.6879360026
 20
95264.01327515653
 30
0.0
 11
104447.6860550096
 21
95264.01159216275
 31
0.0
  0
LINE
  5
5E613
330
1F
100
AcDbEntity
  8
freecads.com
100
AcDbLine
 10
104447.6860550096
 20
95264.01159216275
 30
0.0
 11
104447.6812298536
 21
95264.01127794652
 31
0.0
  0
LINE
  5
5E614
330
1F
100
AcDbEntity
  8
freecads.com
100
AcDbLine
 10
104447.6812298536
 20
95264.01127794652
 30
0.0
 11
104447.6738350114
 21
95264.01261659374
 31
0.0
  0
LINE
  5
5E615
330
1F
100
AcDbEntity
  8
freecads.com
100
AcDbLine
 10
104447.6738350114
 20
95264.01261659374
 30
0.0
 11
104447.6688605489
 21
95264.01574960932
 31
0.0
  0
LINE
  5
5E616
330
1F
100
AcDbEntity
  8
freecads.com
100
AcDbLine
 10
104447.6688605489
 20
95264.01574960932
 30
0.0
 11
104447.6639143335
 21
95264.01897651311
 31
0.0
  0
LINE
  5
5E617
330
1F
100
AcDbEntity
  8
freecads.com
100
AcDbLine
 10
104447.6639143335
 20
95264.01897651311
 30
0.0
 11
104447.6590076642
 21
95264.02229542201
 31
0.0
  0
LINE
  5
5E618
330
1F
100
AcDbEntity
  8
freecads.com
100
AcDbLine
 10
104447.6590076642
 20
95264.02229542201
 30
0.0
 11
104447.6541526469
 21
95264.02570552894
 31
0.0
  0
LINE
  5
5E619
330
1F
100
AcDbEntity
  8
freecads.com
100
AcDbLine
 10
104447.6541526469
 20
95264.02570552894
 30
0.0
 11
104447.6493600424
 21
95264.02920521977
 31
0.0
  0
LINE
  5
5E61A
330
1F
100
AcDbEntity
  8
freecads.com
100
AcDbLine
 10
104447.6493600424
 20
95264.02920521977
 30
0.0
 11
104447.6446416876
 21
95264.03279341844
 31
0.0
  0
LINE
  5
5E61B
330
1F
100
AcDbEntity
  8
freecads.com
100
AcDbLine
 10
104447.6446416876
 20
95264.03279341844
 30
0.0
 11
104447.6400094194
 21
95264.03646851079
 31
0.0
  0
LINE
  5
5E61C
330
1F
100
AcDbEntity
  8
freecads.com
100
AcDbLine
 10
104447.6400094194
 20
95264.03646851079
 30
0.0
 11
104447.6354739987
 21
95264.04022942077
 31
0.0
  0
LINE
  5
5E61D
330
1F
100
AcDbEntity
  8
freecads.com
100
AcDbLine
 10
104447.6354739987
 20
95264.04022942077
 30
0.0
 11
104447.6310475314
 21
95264.04407480328
 31
0.0
  0
LINE
  5
5E61E
330
1F
100
AcDbEntity
  8
freecads.com
100
AcDbLine
 10
104447.6310475314
 20
95264.04407480328
 30
0.0
 11
104447.6267413164
 21
95264.04800331317
 31
0.0
  0
LINE
  5
5E61F
330
1F
100
AcDbEntity
  8
freecads.com
100
AcDbLine
 10
104447.6267413164
 20
95264.04800331317
 30
0.0
 11
104447.6225669215
 21
95264.05201360537
 31
0.0
  0
LINE
  5
5E620
330
1F
100
AcDbEntity
  8
freecads.com
100
AcDbLine
 10
104447.6225669215
 20
95264.05201360537
 30
0.0
 11
104447.6185356457
 21
95264.05610433478
 31
0.0
  0
LINE
  5
5E621
330
1F
100
AcDbEntity
  8
freecads.com
100
AcDbLine
 10
104447.6185356457
 20
95264.05610433478
 30
0.0
 11
104447.6146590568
 21
95264.0602741563
 31
0.0
  0
LINE
  5
5E622
330
1F
100
AcDbEntity
  8
freecads.com
100
AcDbLine
 10
104447.6146590568
 20
95264.0602741563
 30
0.0
 11
104447.6109487227
 21
95264.06452199379
 31
0.0
  0
LINE
  5
5E623
330
1F
100
AcDbEntity
  8
freecads.com
100
AcDbLine
 10
104447.6109487227
 20
95264.06452199379
 30
0.0
 11
104447.6074162113
 21
95264.06884650224
 31
0.0
  0
LINE
  5
5E624
330
1F
100
AcDbEntity
  8
freecads.com
100
AcDbLine
 10
104447.6074162113
 20
95264.06884650224
 30
0.0
 11
104447.6040728216
 21
95264.07324606747
 31
0.0
  0
LINE
  5
5E625
330
1F
100
AcDbEntity
  8
freecads.com
100
AcDbLine
 10
104447.6040728216
 20
95264.07324606747
 30
0.0
 11
104447.6009303903
 21
95264.07771961338
 31
0.0
  0
LINE
  5
5E626
330
1F
100
AcDbEntity
  8
freecads.com
100
AcDbLine
 10
104447.6009303903
 20
95264.07771961338
 30
0.0
 11
104447.5988976695
 21
95264.07896517941
 31
0.0
  0
LINE
  5
5E627
330
1F
100
AcDbEntity
  8
freecads.com
100
AcDbLine
 10
104447.5988976695
 20
95264.07896517941
 30
0.0
 11
104447.5950716566
 21
95264.0794332755
 31
0.0
  0
LINE
  5
5E628
330
1F
100
AcDbEntity
  8
freecads.com
100
AcDbLine
 10
104447.5950716566
 20
95264.0794332755
 30
0.0
 11
104447.592859768
 21
95264.07422234372
 31
0.0
  0
LINE
  5
5E629
330
1F
100
AcDbEntity
  8
freecads.com
100
AcDbLine
 10
104447.592859768
 20
95264.07422234372
 30
0.0
 11
104447.5942680916
 21
95264.07087518766
 31
0.0
  0
LINE
  5
5E62A
330
1F
100
AcDbEntity
  8
freecads.com
100
AcDbLine
 10
104447.5942680916
 20
95264.07087518766
 30
0.0
 11
104447.5963301356
 21
95264.06724152449
 31
0.0
  0
LINE
  5
5E62B
330
1F
100
AcDbEntity
  8
freecads.com
100
AcDbLine
 10
104447.5963301356
 20
95264.06724152449
 30
0.0
 11
104447.5989490525
 21
95264.06337031602
 31
0.0
  0
LINE
  5
5E62C
330
1F
100
AcDbEntity
  8
freecads.com
100
AcDbLine
 10
104447.5989490525
 20
95264.06337031602
 30
0.0
 11
104447.6020279949
 21
95264.05930998594
 31
0.0
  0
LINE
  5
5E62D
330
1F
100
AcDbEntity
  8
freecads.com
100
AcDbLine
 10
104447.6020279949
 20
95264.05930998594
 30
0.0
 11
104447.6054701153
 21
95264.05510922705
 31
0.0
  0
LINE
  5
5E62E
330
1F
100
AcDbEntity
  8
freecads.com
100
AcDbLine
 10
104447.6054701153
 20
95264.05510922705
 30
0.0
 11
104447.6091785663
 21
95264.05081673209
 31
0.0
  0
LINE
  5
5E62F
330
1F
100
AcDbEntity
  8
freecads.com
100
AcDbLine
 10
104447.6091785663
 20
95264.05081673209
 30
0.0
 11
104447.6130565002
 21
95264.04648092478
 31
0.0
  0
LINE
  5
5E630
330
1F
100
AcDbEntity
  8
freecads.com
100
AcDbLine
 10
104447.6130565002
 20
95264.04648092478
 30
0.0
 11
104447.6170070698
 21
95264.04215076693
 31
0.0
  0
LINE
  5
5E631
330
1F
100
AcDbEntity
  8
freecads.com
100
AcDbLine
 10
104447.6170070698
 20
95264.04215076693
 30
0.0
 11
104447.6209334276
 21
95264.03787468222
 31
0.0
  0
LINE
  5
5E632
330
1F
100
AcDbEntity
  8
freecads.com
100
AcDbLine
 10
104447.6209334276
 20
95264.03787468222
 30
0.0
 11
104447.624738726
 21
95264.03370109441
 31
0.0
  0
LINE
  5
5E633
330
1F
100
AcDbEntity
  8
freecads.com
100
AcDbLine
 10
104447.624738726
 20
95264.03370109441
 30
0.0
 11
104447.6283261176
 21
95264.02967896531
 31
0.0
  0
LINE
  5
5E634
330
1F
100
AcDbEntity
  8
freecads.com
100
AcDbLine
 10
104447.6283261176
 20
95264.02967896531
 30
0.0
 11
104447.6315987549
 21
95264.0258567186
 31
0.0
  0
LINE
  5
5E635
330
1F
100
AcDbEntity
  8
freecads.com
100
AcDbLine
 10
104447.6315987549
 20
95264.0258567186
 30
0.0
 11
104447.6344597905
 21
95264.02228304705
 31
0.0
  0
LINE
  5
5E636
330
1F
100
AcDbEntity
  8
freecads.com
100
AcDbLine
 10
104447.6344597905
 20
95264.02228304705
 30
0.0
 11
104447.6368123769
 21
95264.01900664344
 31
0.0
  0
LINE
  5
5E637
330
1F
100
AcDbEntity
  8
freecads.com
100
AcDbLine
 10
104447.6368123769
 20
95264.01900664344
 30
0.0
 11
104447.6385596666
 21
95264.01607593147
 31
0.0
  0
LINE
  5
5E638
330
1F
100
AcDbEntity
  8
freecads.com
100
AcDbLine
 10
104447.6385596666
 20
95264.01607593147
 30
0.0
 11
104447.6396048122
 21
95264.01353987294
 31
0.0
  0
LINE
  5
5E639
330
1F
100
AcDbEntity
  8
freecads.com
100
AcDbLine
 10
104447.6396048122
 20
95264.01353987294
 30
0.0
 11
104447.6398509662
 21
95264.01144689156
 31
0.0
  0
LINE
  5
5E63A
330
1F
100
AcDbEntity
  8
freecads.com
100
AcDbLine
 10
104447.6398509662
 20
95264.01144689156
 30
0.0
 11
104447.6392012811
 21
95264.00984541108
 31
0.0
  0
LINE
  5
5E63B
330
1F
100
AcDbEntity
  8
freecads.com
100
AcDbLine
 10
104447.6392012811
 20
95264.00984541108
 30
0.0
 11
104447.6375589095
 21
95264.00878439327
 31
0.0
  0
LINE
  5
5E63C
330
1F
100
AcDbEntity
  8
freecads.com
100
AcDbLine
 10
104447.6375589095
 20
95264.00878439327
 30
0.0
 11
104447.6348270038
 21
95264.00831226187
 31
0.0
  0
LINE
  5
5E63D
330
1F
100
AcDbEntity
  8
freecads.com
100
AcDbLine
 10
104447.6348270038
 20
95264.00831226187
 30
0.0
 11
104447.6329217989
 21
95264.00925706271
 31
0.0
  0
LINE
  5
5E63E
330
1F
100
AcDbEntity
  8
freecads.com
100
AcDbLine
 10
104447.6329217989
 20
95264.00925706271
 30
0.0
 11
104447.6300096494
 21
95264.01120800114
 31
0.0
  0
LINE
  5
5E63F
330
1F
100
AcDbEntity
  8
freecads.com
100
AcDbLine
 10
104447.6300096494
 20
95264.01120800114
 30
0.0
 11
104447.6262603073
 21
95264.01404993626
 31
0.0
  0
LINE
  5
5E640
330
1F
100
AcDbEntity
  8
freecads.com
100
AcDbLine
 10
104447.6262603073
 20
95264.01404993626
 30
0.0
 11
104447.6218443318
 21
95264.01766826523
 31
0.0
  0
LINE
  5
5E641
330
1F
100
AcDbEntity
  8
freecads.com
100
AcDbLine
 10
104447.6218443318
 20
95264.01766826523
 30
0.0
 11
104447.616931206
 21
95264.02194784722
 31
0.0
  0
LINE
  5
5E642
330
1F
100
AcDbEntity
  8
freecads.com
100
AcDbLine
 10
104447.616931206
 20
95264.02194784722
 30
0.0
 11
104447.61169122
 21
95264.02677381032
 31
0.0
  0
LINE
  5
5E643
330
1F
100
AcDbEntity
  8
freecads.com
100
AcDbLine
 10
104447.61169122
 20
95264.02677381032
 30
0.0
 11
104447.6062943949
 21
95264.03203128268
 31
0.0
  0
LINE
  5
5E644
330
1F
100
AcDbEntity
  8
freecads.com
100
AcDbLine
 10
104447.6062943949
 20
95264.03203128268
 30
0.0
 11
104447.6009104827
 21
95264.03760566148
 31
0.0
  0
LINE
  5
5E645
330
1F
100
AcDbEntity
  8
freecads.com
100
AcDbLine
 10
104447.6009104827
 20
95264.03760566148
 30
0.0
 11
104447.5957097737
 21
95264.04338153682
 31
0.0
  0
LINE
  5
5E646
330
1F
100
AcDbEntity
  8
freecads.com
100
AcDbLine
 10
104447.5957097737
 20
95264.04338153682
 30
0.0
 11
104447.59086202
 21
95264.04924457487
 31
0.0
  0
LINE
  5
5E647
330
1F
100
AcDbEntity
  8
freecads.com
100
AcDbLine
 10
104447.59086202
 20
95264.04924457487
 30
0.0
 11
104447.5865375115
 21
95264.05507936575
 31
0.0
  0
LINE
  5
5E648
330
1F
100
AcDbEntity
  8
freecads.com
100
AcDbLine
 10
104447.5865375115
 20
95264.05507936575
 30
0.0
 11
104447.5829060005
 21
95264.06077130662
 31
0.0
  0
LINE
  5
5E649
330
1F
100
AcDbEntity
  8
freecads.com
100
AcDbLine
 10
104447.5829060005
 20
95264.06077130662
 30
0.0
 11
104447.5802755157
 21
95264.06116972633
 31
0.0
  0
LINE
  5
5E64A
330
1F
100
AcDbEntity
  8
freecads.com
100
AcDbLine
 10
104447.5802755157
 20
95264.06116972633
 30
0.0
 11
104447.5776450309
 21
95264.06109009618
 31
0.0
  0
LINE
  5
5E64B
330
1F
100
AcDbEntity
  8
freecads.com
100
AcDbLine
 10
104447.5776450309
 20
95264.06109009618
 30
0.0
 11
104447.5748353783
 21
95264.06023326513
 31
0.0
  0
LINE
  5
5E64C
330
1F
100
AcDbEntity
  8
freecads.com
100
AcDbLine
 10
104447.5748353783
 20
95264.06023326513
 30
0.0
 11
104447.5773340429
 21
95264.05412326603
 31
0.0
  0
LINE
  5
5E64D
330
1F
100
AcDbEntity
  8
freecads.com
100
AcDbLine
 10
104447.5773340429
 20
95264.05412326603
 30
0.0
 11
104447.5807495303
 21
95264.04744509513
 31
0.0
  0
LINE
  5
5E64E
330
1F
100
AcDbEntity
  8
freecads.com
100
AcDbLine
 10
104447.5807495303
 20
95264.04744509513
 30
0.0
 11
104447.5838034538
 21
95264.04072818523
 31
0.0
  0
LINE
  5
5E64F
330
1F
100
AcDbEntity
  8
freecads.com
100
AcDbLine
 10
104447.5838034538
 20
95264.04072818523
 30
0.0
 11
104447.5852174268
 21
95264.03450196918
 31
0.0
  0
LINE
  5
5E650
330
1F
100
AcDbEntity
  8
freecads.com
100
AcDbLine
 10
104447.5852174268
 20
95264.03450196918
 30
0.0
 11
104447.5837130628
 21
95264.02929587977
 31
0.0
  0
LINE
  5
5E651
330
1F
100
AcDbEntity
  8
freecads.com
100
AcDbLine
 10
104447.5837130628
 20
95264.02929587977
 30
0.0
 11
104447.5791079657
 21
95264.02989687211
 31
0.0
  0
LINE
  5
5E652
330
1F
100
AcDbEntity
  8
freecads.com
100
AcDbLine
 10
104447.5791079657
 20
95264.02989687211
 30
0.0
 11
104447.5751425999
 21
95264.03158121098
 31
0.0
  0
LINE
  5
5E653
330
1F
100
AcDbEntity
  8
freecads.com
100
AcDbLine
 10
104447.5751425999
 20
95264.03158121098
 30
0.0
 11
104447.571693216
 21
95264.03417241876
 31
0.0
  0
LINE
  5
5E654
330
1F
100
AcDbEntity
  8
freecads.com
100
AcDbLine
 10
104447.571693216
 20
95264.03417241876
 30
0.0
 11
104447.5686352572
 21
95264.03749321081
 31
0.0
  0
LINE
  5
5E655
330
1F
100
AcDbEntity
  8
freecads.com
100
AcDbLine
 10
104447.5686352572
 20
95264.03749321081
 30
0.0
 11
104447.5658447051
 21
95264.04136630244
 31
0.0
  0
LINE
  5
5E656
330
1F
100
AcDbEntity
  8
freecads.com
100
AcDbLine
 10
104447.5658447051
 20
95264.04136630244
 30
0.0
 11
104447.563197541
 21
95264.045614947
 31
0.0
  0
LINE
  5
5E657
330
1F
100
AcDbEntity
  8
freecads.com
100
AcDbLine
 10
104447.563197541
 20
95264.045614947
 30
0.0
 11
104447.5605692083
 21
95264.05006185989
 31
0.0
  0
LINE
  5
5E658
330
1F
100
AcDbEntity
  8
freecads.com
100
AcDbLine
 10
104447.5605692083
 20
95264.05006185989
 30
0.0
 11
104447.5578362266
 21
95264.05453029441
 31
0.0
  0
LINE
  5
5E659
330
1F
100
AcDbEntity
  8
freecads.com
100
AcDbLine
 10
104447.5578362266
 20
95264.05453029441
 30
0.0
 11
104447.5548737702
 21
95264.05884269692
 31
0.0
  0
LINE
  5
5E65A
330
1F
100
AcDbEntity
  8
freecads.com
100
AcDbLine
 10
104447.5548737702
 20
95264.05884269692
 30
0.0
 11
104447.5515578205
 21
95264.06282232075
 31
0.0
  0
LINE
  5
5E65B
330
1F
100
AcDbEntity
  8
freecads.com
100
AcDbLine
 10
104447.5515578205
 20
95264.06282232075
 30
0.0
 11
104447.5477646281
 21
95264.06629241932
 31
0.0
  0
LINE
  5
5E65C
330
1F
100
AcDbEntity
  8
freecads.com
100
AcDbLine
 10
104447.5477646281
 20
95264.06629241932
 30
0.0
 11
104447.5433696362
 21
95264.06907516987
 31
0.0
  0
LINE
  5
5E65D
330
1F
100
AcDbEntity
  8
freecads.com
100
AcDbLine
 10
104447.5433696362
 20
95264.06907516987
 30
0.0
 11
104447.5382485573
 21
95264.07099409484
 31
0.0
  0
LINE
  5
5E65E
330
1F
100
AcDbEntity
  8
freecads.com
100
AcDbLine
 10
104447.5382485573
 20
95264.07099409484
 30
0.0
 11
104447.5347924479
 21
95264.07133413703
 31
0.0
  0
LINE
  5
5E65F
330
1F
100
AcDbEntity
  8
freecads.com
100
AcDbLine
 10
104447.5347924479
 20
95264.07133413703
 30
0.0
 11
104447.5338247802
 21
95264.06967885241
 31
0.0
  0
LINE
  5
5E660
330
1F
100
AcDbEntity
  8
freecads.com
100
AcDbLine
 10
104447.5338247802
 20
95264.06967885241
 30
0.0
 11
104447.5341123634
 21
95264.06685790091
 31
0.0
  0
LINE
  5
5E661
330
1F
100
AcDbEntity
  8
freecads.com
100
AcDbLine
 10
104447.5341123634
 20
95264.06685790091
 30
0.0
 11
104447.5344225443
 21
95264.06370067348
 31
0.0
  0
LINE
  5
5E662
330
1F
100
AcDbEntity
  8
freecads.com
100
AcDbLine
 10
104447.5344225443
 20
95264.06370067348
 30
0.0
 11
104447.5335221319
 21
95264.06103656107
 31
0.0
  0
LINE
  5
5E663
330
1F
100
AcDbEntity
  8
freecads.com
100
AcDbLine
 10
104447.5335221319
 20
95264.06103656107
 30
0.0
 11
104447.5301779351
 21
95264.05969522365
 31
0.0
  0
LINE
  5
5E664
330
1F
100
AcDbEntity
  8
freecads.com
100
AcDbLine
 10
104447.5301779351
 20
95264.05969522365
 30
0.0
 11
104447.5229975024
 21
95264.06145354323
 31
0.0
  0
LINE
  5
5E665
330
1F
100
AcDbEntity
  8
freecads.com
100
AcDbLine
 10
104447.5229975024
 20
95264.06145354323
 30
0.0
 11
104447.5166782052
 21
95264.06427557081
 31
0.0
  0
LINE
  5
5E666
330
1F
100
AcDbEntity
  8
freecads.com
100
AcDbLine
 10
104447.5166782052
 20
95264.06427557081
 30
0.0
 11
104447.5112248857
 21
95264.06793990233
 31
0.0
  0
LINE
  5
5E667
330
1F
100
AcDbEntity
  8
freecads.com
100
AcDbLine
 10
104447.5112248857
 20
95264.06793990233
 30
0.0
 11
104447.5066421174
 21
95264.07222540276
 31
0.0
  0
LINE
  5
5E668
330
1F
100
AcDbEntity
  8
freecads.com
100
AcDbLine
 10
104447.5066421174
 20
95264.07222540276
 30
0.0
 11
104447.5029347425
 21
95264.07691093703
 31
0.0
  0
LINE
  5
5E669
330
1F
100
AcDbEntity
  8
freecads.com
100
AcDbLine
 10
104447.5029347425
 20
95264.07691093703
 30
0.0
 11
104447.5001073345
 21
95264.0817753701
 31
0.0
  0
LINE
  5
5E66A
330
1F
100
AcDbEntity
  8
freecads.com
100
AcDbLine
 10
104447.5001073345
 20
95264.0817753701
 30
0.0
 11
104447.4981644667
 21
95264.08659729789
 31
0.0
  0
LINE
  5
5E66B
330
1F
100
AcDbEntity
  8
freecads.com
100
AcDbLine
 10
104447.4981644667
 20
95264.08659729789
 30
0.0
 11
104447.4952052386
 21
95264.084614615
 31
0.0
  0
LINE
  5
5E66C
330
1F
100
AcDbEntity
  8
freecads.com
100
AcDbLine
 10
104447.4952052386
 20
95264.084614615
 30
0.0
 11
104447.4902732813
 21
95264.08382746032
 31
0.0
  0
LINE
  5
5E66D
330
1F
100
AcDbEntity
  8
freecads.com
100
AcDbLine
 10
104447.4902732813
 20
95264.08382746032
 30
0.0
 11
104447.4844444089
 21
95264.08471415267
 31
0.0
  0
LINE
  5
5E66E
330
1F
100
AcDbEntity
  8
freecads.com
100
AcDbLine
 10
104447.4844444089
 20
95264.08471415267
 30
0.0
 11
104447.478363733
 21
95264.08787568446
 31
0.0
  0
LINE
  5
5E66F
330
1F
100
AcDbEntity
  8
freecads.com
100
AcDbLine
 10
104447.478363733
 20
95264.08787568446
 30
0.0
 11
104447.4731205188
 21
95264.09152683395
 31
0.0
  0
LINE
  5
5E670
330
1F
100
AcDbEntity
  8
freecads.com
100
AcDbLine
 10
104447.4731205188
 20
95264.09152683395
 30
0.0
 11
104447.4684984734
 21
95264.09556349019
 31
0.0
  0
LINE
  5
5E671
330
1F
100
AcDbEntity
  8
freecads.com
100
AcDbLine
 10
104447.4684984734
 20
95264.09556349019
 30
0.0
 11
104447.4642813042
 21
95264.09988288724
 31
0.0
  0
LINE
  5
5E672
330
1F
100
AcDbEntity
  8
freecads.com
100
AcDbLine
 10
104447.4642813042
 20
95264.09988288724
 30
0.0
 11
104447.4602521806
 21
95264.10438091405
 31
0.0
  0
LINE
  5
5E673
330
1F
100
AcDbEntity
  8
freecads.com
100
AcDbLine
 10
104447.4602521806
 20
95264.10438091405
 30
0.0
 11
104447.4561948097
 21
95264.10895426666
 31
0.0
  0
LINE
  5
5E674
330
1F
100
AcDbEntity
  8
freecads.com
100
AcDbLine
 10
104447.4561948097
 20
95264.10895426666
 30
0.0
 11
104447.451892899
 21
95264.11349937211
 31
0.0
  0
LINE
  5
5E675
330
1F
100
AcDbEntity
  8
freecads.com
100
AcDbLine
 10
104447.451892899
 20
95264.11349937211
 30
0.0
 11
104447.4473494077
 21
95264.11122776096
 31
0.0
  0
LINE
  5
5E676
330
1F
100
AcDbEntity
  8
freecads.com
100
AcDbLine
 10
104447.4473494077
 20
95264.11122776096
 30
0.0
 11
104447.4424473118
 21
95264.11074944206
 31
0.0
  0
LINE
  5
5E677
330
1F
100
AcDbEntity
  8
freecads.com
100
AcDbLine
 10
104447.4424473118
 20
95264.11074944206
 30
0.0
 11
104447.437365779
 21
95264.11188524765
 31
0.0
  0
LINE
  5
5E678
330
1F
100
AcDbEntity
  8
freecads.com
100
AcDbLine
 10
104447.437365779
 20
95264.11188524765
 30
0.0
 11
104447.4320978148
 21
95264.11392980529
 31
0.0
  0
LINE
  5
5E679
330
1F
100
AcDbEntity
  8
freecads.com
100
AcDbLine
 10
104447.4320978148
 20
95264.11392980529
 30
0.0
 11
104447.4270504476
 21
95264.11739586855
 31
0.0
  0
LINE
  5
5E67A
330
1F
100
AcDbEntity
  8
freecads.com
100
AcDbLine
 10
104447.4270504476
 20
95264.11739586855
 30
0.0
 11
104447.4223183728
 21
95264.12191514799
 31
0.0
  0
LINE
  5
5E67B
330
1F
100
AcDbEntity
  8
freecads.com
100
AcDbLine
 10
104447.4223183728
 20
95264.12191514799
 30
0.0
 11
104447.4179962855
 21
95264.12711854719
 31
0.0
  0
LINE
  5
5E67C
330
1F
100
AcDbEntity
  8
freecads.com
100
AcDbLine
 10
104447.4179962855
 20
95264.12711854719
 30
0.0
 11
104447.4141786122
 21
95264.1326372387
 31
0.0
  0
LINE
  5
5E67D
330
1F
100
AcDbEntity
  8
freecads.com
100
AcDbLine
 10
104447.4141786122
 20
95264.1326372387
 30
0.0
 11
104447.410959779
 21
95264.13810212604
 31
0.0
  0
LINE
  5
5E67E
330
1F
100
AcDbEntity
  8
freecads.com
100
AcDbLine
 10
104447.410959779
 20
95264.13810212604
 30
0.0
 11
104447.4084344813
 21
95264.14314465085
 31
0.0
  0
LINE
  5
5E67F
330
1F
100
AcDbEntity
  8
freecads.com
100
AcDbLine
 10
104447.4084344813
 20
95264.14314465085
 30
0.0
 11
104447.4066974143
 21
95264.14739598564
 31
0.0
  0
LINE
  5
5E680
330
1F
100
AcDbEntity
  8
freecads.com
100
AcDbLine
 10
104447.4066974143
 20
95264.14739598564
 30
0.0
 11
104447.4003603617
 21
95264.14423741311
 31
0.0
  0
LINE
  5
5E681
330
1F
100
AcDbEntity
  8
freecads.com
100
AcDbLine
 10
104447.4003603617
 20
95264.14423741311
 30
0.0
 11
104447.3927680583
 21
95264.14364960277
 31
0.0
  0
LINE
  5
5E682
330
1F
100
AcDbEntity
  8
freecads.com
100
AcDbLine
 10
104447.3927680583
 20
95264.14364960277
 30
0.0
 11
104447.3873279209
 21
95264.14605088193
 31
0.0
  0
LINE
  5
5E683
330
1F
100
AcDbEntity
  8
freecads.com
100
AcDbLine
 10
104447.3873279209
 20
95264.14605088193
 30
0.0
 11
104447.3830472628
 21
95264.1524083801
 31
0.0
  0
LINE
  5
5E684
330
1F
100
AcDbEntity
  8
freecads.com
100
AcDbLine
 10
104447.3830472628
 20
95264.1524083801
 30
0.0
 11
104447.3800062524
 21
95264.15810731551
 31
0.0
  0
LINE
  5
5E685
330
1F
100
AcDbEntity
  8
freecads.com
100
AcDbLine
 10
104447.3800062524
 20
95264.15810731551
 30
0.0
 11
104447.3769265029
 21
95264.1629410802
 31
0.0
  0
LINE
  5
5E686
330
1F
100
AcDbEntity
  8
freecads.com
100
AcDbLine
 10
104447.3769265029
 20
95264.1629410802
 30
0.0
 11
104447.3725296279
 21
95264.16670306627
 31
0.0
  0
LINE
  5
5E687
330
1F
100
AcDbEntity
  8
freecads.com
100
AcDbLine
 10
104447.3725296279
 20
95264.16670306627
 30
0.0
 11
104447.3655372408
 21
95264.16918666576
 31
0.0
  0
LINE
  5
5E688
330
1F
100
AcDbEntity
  8
freecads.com
100
AcDbLine
 10
104447.3655372408
 20
95264.16918666576
 30
0.0
 11
104447.3594137906
 21
95264.17199551133
 31
0.0
  0
LINE
  5
5E689
330
1F
100
AcDbEntity
  8
freecads.com
100
AcDbLine
 10
104447.3594137906
 20
95264.17199551133
 30
0.0
 11
104447.3531706263
 21
95264.17561787562
 31
0.0
  0
LINE
  5
5E68A
330
1F
100
AcDbEntity
  8
freecads.com
100
AcDbLine
 10
104447.3531706263
 20
95264.17561787562
 30
0.0
 11
104447.3471418714
 21
95264.17980760466
 31
0.0
  0
LINE
  5
5E68B
330
1F
100
AcDbEntity
  8
freecads.com
100
AcDbLine
 10
104447.3471418714
 20
95264.17980760466
 30
0.0
 11
104447.3416616499
 21
95264.18431908252
 31
0.0
  0
LINE
  5
5E68C
330
1F
100
AcDbEntity
  8
freecads.com
100
AcDbLine
 10
104447.3416616499
 20
95264.18431908252
 30
0.0
 11
104447.3370640854
 21
95264.1889061552
 31
0.0
  0
LINE
  5
5E68D
330
1F
100
AcDbEntity
  8
freecads.com
100
AcDbLine
 10
104447.3370640854
 20
95264.1889061552
 30
0.0
 11
104447.3336835707
 21
95264.19332293773
 31
0.0
  0
LINE
  5
5E68E
330
1F
100
AcDbEntity
  8
freecads.com
100
AcDbLine
 10
104447.3336835707
 20
95264.19332293773
 30
0.0
 11
104447.3318539607
 21
95264.1973235452
 31
0.0
  0
LINE
  5
5E68F
330
1F
100
AcDbEntity
  8
freecads.com
100
AcDbLine
 10
104447.3318539607
 20
95264.1973235452
 30
0.0
 11
104447.331909648
 21
95264.20066209261
 31
0.0
  0
LINE
  5
5E690
330
1F
100
AcDbEntity
  8
freecads.com
100
AcDbLine
 10
104447.331909648
 20
95264.20066209261
 30
0.0
 11
104447.3265685102
 21
95264.20249412387
 31
0.0
  0
LINE
  5
5E691
330
1F
100
AcDbEntity
  8
freecads.com
100
AcDbLine
 10
104447.3265685102
 20
95264.20249412387
 30
0.0
 11
104447.3210013949
 21
95264.20599704296
 31
0.0
  0
LINE
  5
5E692
330
1F
100
AcDbEntity
  8
freecads.com
100
AcDbLine
 10
104447.3210013949
 20
95264.20599704296
 30
0.0
 11
104447.3156742462
 21
95264.21060106393
 31
0.0
  0
LINE
  5
5E693
330
1F
100
AcDbEntity
  8
freecads.com
100
AcDbLine
 10
104447.3156742462
 20
95264.21060106393
 30
0.0
 11
104447.3110530079
 21
95264.2157366699
 31
0.0
  0
LINE
  5
5E694
330
1F
100
AcDbEntity
  8
freecads.com
100
AcDbLine
 10
104447.3110530079
 20
95264.2157366699
 30
0.0
 11
104447.3076036239
 21
95264.22083461296
 31
0.0
  0
LINE
  5
5E695
330
1F
100
AcDbEntity
  8
freecads.com
100
AcDbLine
 10
104447.3076036239
 20
95264.22083461296
 30
0.0
 11
104447.3057917692
 21
95264.22532564524
 31
0.0
  0
LINE
  5
5E696
330
1F
100
AcDbEntity
  8
freecads.com
100
AcDbLine
 10
104447.3057917692
 20
95264.22532564524
 30
0.0
 11
104447.3060836567
 21
95264.22864024979
 31
0.0
  0
LINE
  5
5E697
330
1F
100
AcDbEntity
  8
freecads.com
100
AcDbLine
 10
104447.3060836567
 20
95264.22864024979
 30
0.0
 11
104447.3012189546
 21
95264.22955680347
 31
0.0
  0
LINE
  5
5E698
330
1F
100
AcDbEntity
  8
freecads.com
100
AcDbLine
 10
104447.3012189546
 20
95264.22955680347
 30
0.0
 11
104447.2961298892
 21
95264.23346271563
 31
0.0
  0
LINE
  5
5E699
330
1F
100
AcDbEntity
  8
freecads.com
100
AcDbLine
 10
104447.2961298892
 20
95264.23346271563
 30
0.0
 11
104447.2913547711
 21
95264.23926656914
 31
0.0
  0
LINE
  5
5E69A
330
1F
100
AcDbEntity
  8
freecads.com
100
AcDbLine
 10
104447.2913547711
 20
95264.23926656914
 30
0.0
 11
104447.2874316416
 21
95264.24587748484
 31
0.0
  0
LINE
  5
5E69B
330
1F
100
AcDbEntity
  8
freecads.com
100
AcDbLine
 10
104447.2874316416
 20
95264.24587748484
 30
0.0
 11
104447.2848982733
 21
95264.25220458367
 31
0.0
  0
LINE
  5
5E69C
330
1F
100
AcDbEntity
  8
freecads.com
100
AcDbLine
 10
104447.2848982733
 20
95264.25220458367
 30
0.0
 11
104447.2842929766
 21
95264.25715644847
 31
0.0
  0
LINE
  5
5E69D
330
1F
100
AcDbEntity
  8
freecads.com
100
AcDbLine
 10
104447.2842929766
 20
95264.25715644847
 30
0.0
 11
104447.2802278042
 21
95264.25745371641
 31
0.0
  0
LINE
  5
5E69E
330
1F
100
AcDbEntity
  8
freecads.com
100
AcDbLine
 10
104447.2802278042
 20
95264.25745371641
 30
0.0
 11
104447.2756875411
 21
95264.25953459185
 31
0.0
  0
LINE
  5
5E69F
330
1F
100
AcDbEntity
  8
freecads.com
100
AcDbLine
 10
104447.2756875411
 20
95264.25953459185
 30
0.0
 11
104447.2710859413
 21
95264.26310718731
 31
0.0
  0
LINE
  5
5E6A0
330
1F
100
AcDbEntity
  8
freecads.com
100
AcDbLine
 10
104447.2710859413
 20
95264.26310718731
 30
0.0
 11
104447.2668372967
 21
95264.26787961527
 31
0.0
  0
LINE
  5
5E6A1
330
1F
100
AcDbEntity
  8
freecads.com
100
AcDbLine
 10
104447.2668372967
 20
95264.26787961527
 30
0.0
 11
104447.2633556303
 21
95264.27356052629
 31
0.0
  0
LINE
  5
5E6A2
330
1F
100
AcDbEntity
  8
freecads.com
100
AcDbLine
 10
104447.2633556303
 20
95264.27356052629
 30
0.0
 11
104447.2610552339
 21
95264.27985776383
 31
0.0
  0
LINE
  5
5E6A3
330
1F
100
AcDbEntity
  8
freecads.com
100
AcDbLine
 10
104447.2610552339
 20
95264.27985776383
 30
0.0
 11
104447.2603501305
 21
95264.2864797094
 31
0.0
  0
LINE
  5
5E6A4
330
1F
100
AcDbEntity
  8
freecads.com
100
AcDbLine
 10
104447.2603501305
 20
95264.2864797094
 30
0.0
 11
104447.2548556509
 21
95264.28747616222
 31
0.0
  0
LINE
  5
5E6A5
330
1F
100
AcDbEntity
  8
freecads.com
100
AcDbLine
 10
104447.2548556509
 20
95264.28747616222
 30
0.0
 11
104447.250226342
 21
95264.2907065633
 31
0.0
  0
LINE
  5
5E6A6
330
1F
100
AcDbEntity
  8
freecads.com
100
AcDbLine
 10
104447.250226342
 20
95264.2907065633
 30
0.0
 11
104447.2468108546
 21
95264.29556400183
 31
0.0
  0
LINE
  5
5E6A7
330
1F
100
AcDbEntity
  8
freecads.com
100
AcDbLine
 10
104447.2468108546
 20
95264.29556400183
 30
0.0
 11
104447.2449578397
 21
95264.301441567
 31
0.0
  0
LINE
  5
5E6A8
330
1F
100
AcDbEntity
  8
freecads.com
100
AcDbLine
 10
104447.2449578397
 20
95264.301441567
 30
0.0
 11
104447.2450159482
 21
95264.30773234803
 31
0.0
  0
LINE
  5
5E6A9
330
1F
100
AcDbEntity
  8
freecads.com
100
AcDbLine
 10
104447.2450159482
 20
95264.30773234803
 30
0.0
 11
104447.244598428
 21
95264.31546938459
 31
0.0
  0
LINE
  5
5E6AA
330
1F
100
AcDbEntity
  8
freecads.com
100
AcDbLine
 10
104447.244598428
 20
95264.31546938459
 30
0.0
 11
104447.2427733913
 21
95264.32172142664
 31
0.0
  0
LINE
  5
5E6AB
330
1F
100
AcDbEntity
  8
freecads.com
100
AcDbLine
 10
104447.2427733913
 20
95264.32172142664
 30
0.0
 11
104447.2401348359
 21
95264.32719868896
 31
0.0
  0
LINE
  5
5E6AC
330
1F
100
AcDbEntity
  8
freecads.com
100
AcDbLine
 10
104447.2401348359
 20
95264.32719868896
 30
0.0
 11
104447.2372767595
 21
95264.33261138629
 31
0.0
  0
LINE
  5
5E6AD
330
1F
100
AcDbEntity
  8
freecads.com
100
AcDbLine
 10
104447.2372767595
 20
95264.33261138629
 30
0.0
 11
104447.23479316
 21
95264.33866973341
 31
0.0
  0
LINE
  5
5E6AE
330
1F
100
AcDbEntity
  8
freecads.com
100
AcDbLine
 10
104447.23479316
 20
95264.33866973341
 30
0.0
 11
104447.2304925944
 21
95264.34379726875
 31
0.0
  0
LINE
  5
5E6AF
330
1F
100
AcDbEntity
  8
freecads.com
100
AcDbLine
 10
104447.2304925944
 20
95264.34379726875
 30
0.0
 11
104447.2256763161
 21
95264.34767681688
 31
0.0
  0
LINE
  5
5E6B0
330
1F
100
AcDbEntity
  8
freecads.com
100
AcDbLine
 10
104447.2256763161
 20
95264.34767681688
 30
0.0
 11
104447.2203669227
 21
95264.35040576329
 31
0.0
  0
LINE
  5
5E6B1
330
1F
100
AcDbEntity
  8
freecads.com
100
AcDbLine
 10
104447.2203669227
 20
95264.35040576329
 30
0.0
 11
104447.214586743
 21
95264.35208095545
 31
0.0
  0
LINE
  5
5E6B2
330
1F
100
AcDbEntity
  8
freecads.com
100
AcDbLine
 10
104447.214586743
 20
95264.35208095545
 30
0.0
 11
104447.2083581058
 21
95264.35279950986
 31
0.0
  0
LINE
  5
5E6B3
330
1F
100
AcDbEntity
  8
freecads.com
100
AcDbLine
 10
104447.2083581058
 20
95264.35279950986
 30
0.0
 11
104447.2017036087
 21
95264.352658812
 31
0.0
  0
LINE
  5
5E6B4
330
1F
100
AcDbEntity
  8
freecads.com
100
AcDbLine
 10
104447.2017036087
 20
95264.352658812
 30
0.0
 11
104447.2017036087
 21
95264.352658812
 31
0.0
  0
LINE
  5
5E6B5
330
1F
100
AcDbEntity
  8
freecads.com
100
AcDbLine
 10
104447.2017036087
 20
95264.352658812
 30
0.0
 11
104447.1975814039
 21
95264.35054403995
 31
0.0
  0
LINE
  5
5E6B6
330
1F
100
AcDbEntity
  8
freecads.com
100
AcDbLine
 10
104447.1975814039
 20
95264.35054403995
 30
0.0
 11
104447.1937126166
 21
95264.34749146158
 31
0.0
  0
LINE
  5
5E6B7
330
1F
100
AcDbEntity
  8
freecads.com
100
AcDbLine
 10
104447.1937126166
 20
95264.34749146158
 30
0.0
 11
104447.1900116982
 21
95264.34383842891
 31
0.0
  0
LINE
  5
5E6B8
330
1F
100
AcDbEntity
  8
freecads.com
100
AcDbLine
 10
104447.1900116982
 20
95264.34383842891
 30
0.0
 11
104447.1863931002
 21
95264.33992229398
 31
0.0
  0
LINE
  5
5E6B9
330
1F
100
AcDbEntity
  8
freecads.com
100
AcDbLine
 10
104447.1863931002
 20
95264.33992229398
 30
0.0
 11
104447.182771274
 21
95264.33608040875
 31
0.0
  0
LINE
  5
5E6BA
330
1F
100
AcDbEntity
  8
freecads.com
100
AcDbLine
 10
104447.182771274
 20
95264.33608040875
 30
0.0
 11
104447.1790606709
 21
95264.33265012528
 31
0.0
  0
LINE
  5
5E6BB
330
1F
100
AcDbEntity
  8
freecads.com
100
AcDbLine
 10
104447.1790606709
 20
95264.33265012528
 30
0.0
 11
104447.1751757424
 21
95264.32996879552
 31
0.0
  0
LINE
  5
5E6BC
330
1F
100
AcDbEntity
  8
freecads.com
100
AcDbLine
 10
104447.1751757424
 20
95264.32996879552
 30
0.0
 11
104447.1710309398
 21
95264.32837377155
 31
0.0
  0
LINE
  5
5E6BD
330
1F
100
AcDbEntity
  8
freecads.com
100
AcDbLine
 10
104447.1710309398
 20
95264.32837377155
 30
0.0
 11
104447.1665407145
 21
95264.32820240534
 31
0.0
  0
LINE
  5
5E6BE
330
1F
100
AcDbEntity
  8
freecads.com
100
AcDbLine
 10
104447.1665407145
 20
95264.32820240534
 30
0.0
 11
104447.1616195181
 21
95264.32979204891
 31
0.0
  0
LINE
  5
5E6BF
330
1F
100
AcDbEntity
  8
freecads.com
100
AcDbLine
 10
104447.1616195181
 20
95264.32979204891
 30
0.0
 11
104447.1584671331
 21
95264.32699907557
 31
0.0
  0
LINE
  5
5E6C0
330
1F
100
AcDbEntity
  8
freecads.com
100
AcDbLine
 10
104447.1584671331
 20
95264.32699907557
 30
0.0
 11
104447.1549413472
 21
95264.32370168832
 31
0.0
  0
LINE
  5
5E6C1
330
1F
100
AcDbEntity
  8
freecads.com
100
AcDbLine
 10
104447.1549413472
 20
95264.32370168832
 30
0.0
 11
104447.151060454
 21
95264.32005672628
 31
0.0
  0
LINE
  5
5E6C2
330
1F
100
AcDbEntity
  8
freecads.com
100
AcDbLine
 10
104447.151060454
 20
95264.32005672628
 30
0.0
 11
104447.1468432848
 21
95264.31622156659
 31
0.0
  0
LINE
  5
5E6C3
330
1F
100
AcDbEntity
  8
freecads.com
100
AcDbLine
 10
104447.1468432848
 20
95264.31622156659
 30
0.0
 11
104447.1423086712
 21
95264.31235251028
 31
0.0
  0
LINE
  5
5E6C4
330
1F
100
AcDbEntity
  8
freecads.com
100
AcDbLine
 10
104447.1423086712
 20
95264.31235251028
 30
0.0
 11
104447.1374749065
 21
95264.30860666545
 31
0.0
  0
LINE
  5
5E6C5
330
1F
100
AcDbEntity
  8
freecads.com
100
AcDbLine
 10
104447.1374749065
 20
95264.30860666545
 30
0.0
 11
104447.1323610912
 21
95264.30514114025
 31
0.0
  0
LINE
  5
5E6C6
330
1F
100
AcDbEntity
  8
freecads.com
100
AcDbLine
 10
104447.1323610912
 20
95264.30514114025
 30
0.0
 11
104447.1269855187
 21
95264.30211277375
 31
0.0
  0
LINE
  5
5E6C7
330
1F
100
AcDbEntity
  8
freecads.com
100
AcDbLine
 10
104447.1269855187
 20
95264.30211277375
 30
0.0
 11
104447.1213672895
 21
95264.29967840506
 31
0.0
  0
LINE
  5
5E6C8
330
1F
100
AcDbEntity
  8
freecads.com
100
AcDbLine
 10
104447.1213672895
 20
95264.29967840506
 30
0.0
 11
104447.1155246971
 21
95264.2979954113
 31
0.0
  0
LINE
  5
5E6C9
330
1F
100
AcDbEntity
  8
freecads.com
100
AcDbLine
 10
104447.1155246971
 20
95264.2979954113
 30
0.0
 11
104447.1094768418
 21
95264.29722009352
 31
0.0
  0
LINE
  5
5E6CA
330
1F
100
AcDbEntity
  8
freecads.com
100
AcDbLine
 10
104447.1094768418
 20
95264.29722009352
 30
0.0
 11
104447.103242017
 21
95264.29750955983
 31
0.0
  0
LINE
  5
5E6CB
330
1F
100
AcDbEntity
  8
freecads.com
100
AcDbLine
 10
104447.103242017
 20
95264.29750955983
 30
0.0
 11
104447.0977948851
 21
95264.29929585756
 31
0.0
  0
LINE
  5
5E6CC
330
1F
100
AcDbEntity
  8
freecads.com
100
AcDbLine
 10
104447.0977948851
 20
95264.29929585756
 30
0.0
 11
104447.0930450548
 21
95264.30230888987
 31
0.0
  0
LINE
  5
5E6CD
330
1F
100
AcDbEntity
  8
freecads.com
100
AcDbLine
 10
104447.0930450548
 20
95264.30230888987
 30
0.0
 11
104447.0884630936
 21
95264.30545105215
 31
0.0
  0
LINE
  5
5E6CE
330
1F
100
AcDbEntity
  8
freecads.com
100
AcDbLine
 10
104447.0884630936
 20
95264.30545105215
 30
0.0
 11
104447.0835195684
 21
95264.30762473975
 31
0.0
  0
LINE
  5
5E6CF
330
1F
100
AcDbEntity
  8
freecads.com
100
AcDbLine
 10
104447.0835195684
 20
95264.30762473975
 30
0.0
 11
104447.0776850465
 21
95264.30773234803
 31
0.0
  0
LINE
  5
5E6D0
330
1F
100
AcDbEntity
  8
freecads.com
100
AcDbLine
 10
104447.0776850465
 20
95264.30773234803
 30
0.0
 11
104447.072490256
 21
95264.30731213764
 31
0.0
  0
LINE
  5
5E6D1
330
1F
100
AcDbEntity
  8
freecads.com
100
AcDbLine
 10
104447.072490256
 20
95264.30731213764
 30
0.0
 11
104447.0670210643
 21
95264.30792173863
 31
0.0
  0
LINE
  5
5E6D2
330
1F
100
AcDbEntity
  8
freecads.com
100
AcDbLine
 10
104447.0670210643
 20
95264.30792173863
 30
0.0
 11
104447.0614388839
 21
95264.30946107533
 31
0.0
  0
LINE
  5
5E6D3
330
1F
100
AcDbEntity
  8
freecads.com
100
AcDbLine
 10
104447.0614388839
 20
95264.30946107533
 30
0.0
 11
104447.0559051272
 21
95264.31183007199
 31
0.0
  0
LINE
  5
5E6D4
330
1F
100
AcDbEntity
  8
freecads.com
100
AcDbLine
 10
104447.0559051272
 20
95264.31183007199
 30
0.0
 11
104447.0505812067
 21
95264.3149286529
 31
0.0
  0
LINE
  5
5E6D5
330
1F
100
AcDbEntity
  8
freecads.com
100
AcDbLine
 10
104447.0505812067
 20
95264.3149286529
 30
0.0
 11
104447.0456285349
 21
95264.31865674235
 31
0.0
  0
LINE
  5
5E6D6
330
1F
100
AcDbEntity
  8
freecads.com
100
AcDbLine
 10
104447.0456285349
 20
95264.31865674235
 30
0.0
 11
104447.0412085241
 21
95264.32291426461
 31
0.0
  0
LINE
  5
5E6D7
330
1F
100
AcDbEntity
  8
freecads.com
100
AcDbLine
 10
104447.0412085241
 20
95264.32291426461
 30
0.0
 11
104447.0374825868
 21
95264.32760114399
 31
0.0
  0
LINE
  5
5E6D8
330
1F
100
AcDbEntity
  8
freecads.com
100
AcDbLine
 10
104447.0374825868
 20
95264.32760114399
 30
0.0
 11
104447.0346121355
 21
95264.33261730474
 31
0.0
  0
LINE
  5
5E6D9
330
1F
100
AcDbEntity
  8
freecads.com
100
AcDbLine
 10
104447.0346121355
 20
95264.33261730474
 30
0.0
 11
104447.0327585826
 21
95264.33786267118
 31
0.0
  0
LINE
  5
5E6DA
330
1F
100
AcDbEntity
  8
freecads.com
100
AcDbLine
 10
104447.0327585826
 20
95264.33786267118
 30
0.0
 11
104447.0324080485
 21
95264.33745080042
 31
0.0
  0
LINE
  5
5E6DB
330
1F
100
AcDbEntity
  8
freecads.com
100
AcDbLine
 10
104447.0324080485
 20
95264.33745080042
 30
0.0
 11
104447.0297027759
 21
95264.33845101955
 31
0.0
  0
LINE
  5
5E6DC
330
1F
100
AcDbEntity
  8
freecads.com
100
AcDbLine
 10
104447.0297027759
 20
95264.33845101955
 30
0.0
 11
104447.0254901801
 21
95264.3405865062
 31
0.0
  0
LINE
  5
5E6DD
330
1F
100
AcDbEntity
  8
freecads.com
100
AcDbLine
 10
104447.0254901801
 20
95264.3405865062
 30
0.0
 11
104447.0206190216
 21
95264.34357936196
 31
0.0
  0
LINE
  5
5E6DE
330
1F
100
AcDbEntity
  8
freecads.com
100
AcDbLine
 10
104447.0206190216
 20
95264.34357936196
 30
0.0
 11
104447.0159369845
 21
95264.34715222643
 31
0.0
  0
LINE
  5
5E6DF
330
1F
100
AcDbEntity
  8
freecads.com
100
AcDbLine
 10
104447.0159369845
 20
95264.34715222643
 30
0.0
 11
104447.0122920225
 21
95264.35102773925
 31
0.0
  0
LINE
  5
5E6E0
330
1F
100
AcDbEntity
  8
freecads.com
100
AcDbLine
 10
104447.0122920225
 20
95264.35102773925
 30
0.0
 11
104447.0105323578
 21
95264.35492854
 31
0.0
  0
LINE
  5
5E6E1
330
1F
100
AcDbEntity
  8
freecads.com
100
AcDbLine
 10
104447.0105323578
 20
95264.35492854
 30
0.0
 11
104447.0115059439
 21
95264.35857726832
 31
0.0
  0
LINE
  5
5E6E2
330
1F
100
AcDbEntity
  8
freecads.com
100
AcDbLine
 10
104447.0115059439
 20
95264.35857726832
 30
0.0
 11
104447.0114451452
 21
95264.36190935925
 31
0.0
  0
LINE
  5
5E6E3
330
1F
100
AcDbEntity
  8
freecads.com
100
AcDbLine
 10
104447.0114451452
 20
95264.36190935925
 30
0.0
 11
104447.0101156447
 21
95264.3655416773
 31
0.0
  0
LINE
  5
5E6E4
330
1F
100
AcDbEntity
  8
freecads.com
100
AcDbLine
 10
104447.0101156447
 20
95264.3655416773
 30
0.0
 11
104447.0079758537
 21
95264.36937091856
 31
0.0
  0
LINE
  5
5E6E5
330
1F
100
AcDbEntity
  8
freecads.com
100
AcDbLine
 10
104447.0079758537
 20
95264.36937091856
 30
0.0
 11
104447.0054841836
 21
95264.37329377902
 31
0.0
  0
LINE
  5
5E6E6
330
1F
100
AcDbEntity
  8
freecads.com
100
AcDbLine
 10
104447.0054841836
 20
95264.37329377902
 30
0.0
 11
104447.0030990457
 21
95264.37720695474
 31
0.0
  0
LINE
  5
5E6E7
330
1F
100
AcDbEntity
  8
freecads.com
100
AcDbLine
 10
104447.0030990457
 20
95264.37720695474
 30
0.0
 11
104447.0012788514
 21
95264.38100714173
 31
0.0
  0
LINE
  5
5E6E8
330
1F
100
AcDbEntity
  8
freecads.com
100
AcDbLine
 10
104447.0012788514
 20
95264.38100714173
 30
0.0
 11
104447.0004820119
 21
95264.38459103607
 31
0.0
  0
LINE
  5
5E6E9
330
1F
100
AcDbEntity
  8
freecads.com
100
AcDbLine
 10
104447.0004820119
 20
95264.38459103607
 30
0.0
 11
104447.0011669387
 21
95264.38785533375
 31
0.0
  0
LINE
  5
5E6EA
330
1F
100
AcDbEntity
  8
freecads.com
100
AcDbLine
 10
104447.0011669387
 20
95264.38785533375
 30
0.0
 11
104447.0037920431
 21
95264.39069673084
 31
0.0
  0
LINE
  5
5E6EB
330
1F
100
AcDbEntity
  8
freecads.com
100
AcDbLine
 10
104447.0037920431
 20
95264.39069673084
 30
0.0
 11
104447.0088157365
 21
95264.39301192334
 31
0.0
  0
LINE
  5
5E6EC
330
1F
100
AcDbEntity
  8
freecads.com
100
AcDbLine
 10
104447.0088157365
 20
95264.39301192334
 30
0.0
 11
104447.0091245723
 21
95264.39393708567
 31
0.0
  0
LINE
  5
5E6ED
330
1F
100
AcDbEntity
  8
freecads.com
100
AcDbLine
 10
104447.0091245723
 20
95264.39393708567
 30
0.0
 11
104447.0077563328
 21
95264.39577369028
 31
0.0
  0
LINE
  5
5E6EE
330
1F
100
AcDbEntity
  8
freecads.com
100
AcDbLine
 10
104447.0077563328
 20
95264.39577369028
 30
0.0
 11
104447.0055054363
 21
95264.3983223928
 31
0.0
  0
LINE
  5
5E6EF
330
1F
100
AcDbEntity
  8
freecads.com
100
AcDbLine
 10
104447.0055054363
 20
95264.3983223928
 30
0.0
 11
104447.0031663009
 21
95264.40138519395
 31
0.0
  0
LINE
  5
5E6F0
330
1F
100
AcDbEntity
  8
freecads.com
100
AcDbLine
 10
104447.0031663009
 20
95264.40138519395
 30
0.0
 11
104447.001533345
 21
95264.40476328742
 31
0.0
  0
LINE
  5
5E6F1
330
1F
100
AcDbEntity
  8
freecads.com
100
AcDbLine
 10
104447.001533345
 20
95264.40476328742
 30
0.0
 11
104447.0014009868
 21
95264.40825786686
 31
0.0
  0
LINE
  5
5E6F2
330
1F
100
AcDbEntity
  8
freecads.com
100
AcDbLine
 10
104447.0014009868
 20
95264.40825786686
 30
0.0
 11
104447.0035636445
 21
95264.41167039497
 31
0.0
  0
LINE
  5
5E6F3
330
1F
100
AcDbEntity
  8
freecads.com
100
AcDbLine
 10
104447.0035636445
 20
95264.41167039497
 30
0.0
 11
104447.0088157365
 21
95264.41480260347
 31
0.0
  0
LINE
  5
5E6F4
330
1F
100
AcDbEntity
  8
freecads.com
100
AcDbLine
 10
104447.0088157365
 20
95264.41480260347
 30
0.0
 11
104447.0115113243
 21
95264.41554402463
 31
0.0
  0
LINE
  5
5E6F5
330
1F
100
AcDbEntity
  8
freecads.com
100
AcDbLine
 10
104447.0115113243
 20
95264.41554402463
 30
0.0
 11
104447.0151495608
 21
95264.41616142724
 31
0.0
  0
LINE
  5
5E6F6
330
1F
100
AcDbEntity
  8
freecads.com
100
AcDbLine
 10
104447.0151495608
 20
95264.41616142724
 30
0.0
 11
104447.0196306394
 21
95264.41666691722
 31
0.0
  0
LINE
  5
5E6F7
330
1F
100
AcDbEntity
  8
freecads.com
100
AcDbLine
 10
104447.0196306394
 20
95264.41666691722
 30
0.0
 11
104447.0248542151
 21
95264.41707206245
 31
0.0
  0
LINE
  5
5E6F8
330
1F
100
AcDbEntity
  8
freecads.com
100
AcDbLine
 10
104447.0248542151
 20
95264.41707206245
 30
0.0
 11
104447.0307202124
 21
95264.41738843086
 31
0.0
  0
LINE
  5
5E6F9
330
1F
100
AcDbEntity
  8
freecads.com
100
AcDbLine
 10
104447.0307202124
 20
95264.41738843086
 30
0.0
 11
104447.0371280175
 21
95264.41762759029
 31
0.0
  0
LINE
  5
5E6FA
330
1F
100
AcDbEntity
  8
freecads.com
100
AcDbLine
 10
104447.0371280175
 20
95264.41762759029
 30
0.0
 11
104447.0439778236
 21
95264.4178016467
 31
0.0
  0
LINE
  5
5E6FB
330
1F
100
AcDbEntity
  8
freecads.com
100
AcDbLine
 10
104447.0439778236
 20
95264.4178016467
 30
0.0
 11
104447.051169017
 21
95264.41792189897
 31
0.0
  0
LINE
  5
5E6FC
330
1F
100
AcDbEntity
  8
freecads.com
100
AcDbLine
 10
104447.051169017
 20
95264.41792189897
 30
0.0
 11
104447.0586017911
 21
95264.41800018401
 31
0.0
  0
LINE
  5
5E6FD
330
1F
100
AcDbEntity
  8
freecads.com
100
AcDbLine
 10
104447.0586017911
 20
95264.41800018401
 30
0.0
 11
104447.0661758011
 21
95264.41804833874
 31
0.0
  0
LINE
  5
5E6FE
330
1F
100
AcDbEntity
  8
freecads.com
100
AcDbLine
 10
104447.0661758011
 20
95264.41804833874
 30
0.0
 11
104447.0737907023
 21
95264.41807766198
 31
0.0
  0
LINE
  5
5E6FF
330
1F
100
AcDbEntity
  8
freecads.com
100
AcDbLine
 10
104447.0737907023
 20
95264.41807766198
 30
0.0
 11
104447.0813461498
 21
95264.41809999072
 31
0.0
  0
LINE
  5
5E700
330
1F
100
AcDbEntity
  8
freecads.com
100
AcDbLine
 10
104447.0813461498
 20
95264.41809999072
 30
0.0
 11
104447.0887423371
 21
95264.41812689277
 31
0.0
  0
LINE
  5
5E701
330
1F
100
AcDbEntity
  8
freecads.com
100
AcDbLine
 10
104447.0887423371
 20
95264.41812689277
 30
0.0
 11
104447.0958789193
 21
95264.41817047414
 31
0.0
  0
LINE
  5
5E702
330
1F
100
AcDbEntity
  8
freecads.com
100
AcDbLine
 10
104447.0958789193
 20
95264.41817047414
 30
0.0
 11
104447.1026552828
 21
95264.41824176464
 31
0.0
  0
LINE
  5
5E703
330
1F
100
AcDbEntity
  8
freecads.com
100
AcDbLine
 10
104447.1026552828
 20
95264.41824176464
 30
0.0
 11
104447.1089716208
 21
95264.41835313923
 31
0.0
  0
LINE
  5
5E704
330
1F
100
AcDbEntity
  8
freecads.com
100
AcDbLine
 10
104447.1089716208
 20
95264.41835313923
 30
0.0
 11
104447.1147278576
 21
95264.41851562776
 31
0.0
  0
LINE
  5
5E705
330
1F
100
AcDbEntity
  8
freecads.com
100
AcDbLine
 10
104447.1147278576
 20
95264.41851562776
 30
0.0
 11
104447.1198233795
 21
95264.41874133617
 31
0.0
  0
LINE
  5
5E706
330
1F
100
AcDbEntity
  8
freecads.com
100
AcDbLine
 10
104447.1198233795
 20
95264.41874133617
 30
0.0
 11
104447.1241578417
 21
95264.41904183233
 31
0.0
  0
LINE
  5
5E707
330
1F
100
AcDbEntity
  8
freecads.com
100
AcDbLine
 10
104447.1241578417
 20
95264.41904183233
 30
0.0
 11
104447.1276317065
 21
95264.41942895317
 31
0.0
  0
LINE
  5
5E708
330
1F
100
AcDbEntity
  8
freecads.com
100
AcDbLine
 10
104447.1276317065
 20
95264.41942895317
 30
0.0
 11
104447.1301440913
 21
95264.41991399758
 31
0.0
  0
LINE
  5
5E709
330
1F
100
AcDbEntity
  8
freecads.com
100
AcDbLine
 10
104447.1301440913
 20
95264.41991399758
 30
0.0
 11
104447.1301440913
 21
95264.41991399758
 31
0.0
  0
LINE
  5
5E70A
330
1F
100
AcDbEntity
  8
freecads.com
100
AcDbLine
 10
104447.1301440913
 20
95264.41991399758
 30
0.0
 11
104447.1297106988
 21
95264.42369266293
 31
0.0
  0
LINE
  5
5E70B
330
1F
100
AcDbEntity
  8
freecads.com
100
AcDbLine
 10
104447.1297106988
 20
95264.42369266293
 30
0.0
 11
104447.1325055553
 21
95264.42611142842
 31
0.0
  0
LINE
  5
5E70C
330
1F
100
AcDbEntity
  8
freecads.com
100
AcDbLine
 10
104447.1325055553
 20
95264.42611142842
 30
0.0
 11
104447.1374076513
 21
95264.42751383354
 31
0.0
  0
LINE
  5
5E70D
330
1F
100
AcDbEntity
  8
freecads.com
100
AcDbLine
 10
104447.1374076513
 20
95264.42751383354
 30
0.0
 11
104447.1432962463
 21
95264.42824368682
 31
0.0
  0
LINE
  5
5E70E
330
1F
100
AcDbEntity
  8
freecads.com
100
AcDbLine
 10
104447.1432962463
 20
95264.42824368682
 30
0.0
 11
104447.149050331
 21
95264.42864479674
 31
0.0
  0
LINE
  5
5E70F
330
1F
100
AcDbEntity
  8
freecads.com
100
AcDbLine
 10
104447.149050331
 20
95264.42864479674
 30
0.0
 11
104447.1535488958
 21
95264.42906070281
 31
0.0
  0
LINE
  5
5E710
330
1F
100
AcDbEntity
  8
freecads.com
100
AcDbLine
 10
104447.1535488958
 20
95264.42906070281
 30
0.0
 11
104447.1487065225
 21
95264.44089761548
 31
0.0
  0
LINE
  5
5E711
330
1F
100
AcDbEntity
  8
freecads.com
100
AcDbLine
 10
104447.1487065225
 20
95264.44089761548
 30
0.0
 11
104447.1423347662
 21
95264.44205924704
 31
0.0
  0
LINE
  5
5E712
330
1F
100
AcDbEntity
  8
freecads.com
100
AcDbLine
 10
104447.1423347662
 20
95264.44205924704
 30
0.0
 11
104447.1363393699
 21
95264.44373363215
 31
0.0
  0
LINE
  5
5E713
330
1F
100
AcDbEntity
  8
freecads.com
100
AcDbLine
 10
104447.1363393699
 20
95264.44373363215
 30
0.0
 11
104447.1310310527
 21
95264.44597296078
 31
0.0
  0
LINE
  5
5E714
330
1F
100
AcDbEntity
  8
freecads.com
100
AcDbLine
 10
104447.1310310527
 20
95264.44597296078
 30
0.0
 11
104447.1267205333
 21
95264.44882861598
 31
0.0
  0
LINE
  5
5E715
330
1F
100
AcDbEntity
  8
freecads.com
100
AcDbLine
 10
104447.1267205333
 20
95264.44882861598
 30
0.0
 11
104447.1237182618
 21
95264.45235251868
 31
0.0
  0
LINE
  5
5E716
330
1F
100
AcDbEntity
  8
freecads.com
100
AcDbLine
 10
104447.1237182618
 20
95264.45235251868
 30
0.0
 11
104447.1223346882
 21
95264.45659658991
 31
0.0
  0
LINE
  5
5E717
330
1F
100
AcDbEntity
  8
freecads.com
100
AcDbLine
 10
104447.1223346882
 20
95264.45659658991
 30
0.0
 11
104447.1228805312
 21
95264.46161221263
 31
0.0
  0
LINE
  5
5E718
330
1F
100
AcDbEntity
  8
freecads.com
100
AcDbLine
 10
104447.1228805312
 20
95264.46161221263
 30
0.0
 11
104447.1193146613
 21
95264.46615678004
 31
0.0
  0
LINE
  5
5E719
330
1F
100
AcDbEntity
  8
freecads.com
100
AcDbLine
 10
104447.1193146613
 20
95264.46615678004
 30
0.0
 11
104447.1149175173
 21
95264.46975385638
 31
0.0
  0
LINE
  5
5E71A
330
1F
100
AcDbEntity
  8
freecads.com
100
AcDbLine
 10
104447.1149175173
 20
95264.46975385638
 30
0.0
 11
104447.1099392884
 21
95264.47260197898
 31
0.0
  0
LINE
  5
5E71B
330
1F
100
AcDbEntity
  8
freecads.com
100
AcDbLine
 10
104447.1099392884
 20
95264.47260197898
 30
0.0
 11
104447.1046301641
 21
95264.47489968514
 31
0.0
  0
LINE
  5
5E71C
330
1F
100
AcDbEntity
  8
freecads.com
100
AcDbLine
 10
104447.1046301641
 20
95264.47489968514
 30
0.0
 11
104447.0992403335
 21
95264.47684551216
 31
0.0
  0
LINE
  5
5E71D
330
1F
100
AcDbEntity
  8
freecads.com
100
AcDbLine
 10
104447.0992403335
 20
95264.47684551216
 30
0.0
 11
104447.094019986
 21
95264.47863799736
 31
0.0
  0
LINE
  5
5E71E
330
1F
100
AcDbEntity
  8
freecads.com
100
AcDbLine
 10
104447.094019986
 20
95264.47863799736
 30
0.0
 11
104447.0892193108
 21
95264.48047567807
 31
0.0
  0
LINE
  5
5E71F
330
1F
100
AcDbEntity
  8
freecads.com
100
AcDbLine
 10
104447.0892193108
 20
95264.48047567807
 30
0.0
 11
104447.0850884973
 21
95264.48255709155
 31
0.0
  0
LINE
  5
5E720
330
1F
100
AcDbEntity
  8
freecads.com
100
AcDbLine
 10
104447.0850884973
 20
95264.48255709155
 30
0.0
 11
104447.0818777348
 21
95264.48508077512
 31
0.0
  0
LINE
  5
5E721
330
1F
100
AcDbEntity
  8
freecads.com
100
AcDbLine
 10
104447.0818777348
 20
95264.48508077512
 30
0.0
 11
104447.0798372125
 21
95264.4882452661
 31
0.0
  0
LINE
  5
5E722
330
1F
100
AcDbEntity
  8
freecads.com
100
AcDbLine
 10
104447.0798372125
 20
95264.4882452661
 30
0.0
 11
104447.0803453926
 21
95264.49275889612
 31
0.0
  0
LINE
  5
5E723
330
1F
100
AcDbEntity
  8
freecads.com
100
AcDbLine
 10
104447.0803453926
 20
95264.49275889612
 30
0.0
 11
104447.0844404264
 21
95264.496375611
 31
0.0
  0
LINE
  5
5E724
330
1F
100
AcDbEntity
  8
freecads.com
100
AcDbLine
 10
104447.0844404264
 20
95264.496375611
 30
0.0
 11
104447.0903290214
 21
95264.49873707505
 31
0.0
  0
LINE
  5
5E725
330
1F
100
AcDbEntity
  8
freecads.com
100
AcDbLine
 10
104447.0903290214
 20
95264.49873707505
 30
0.0
 11
104447.0871239083
 21
95264.50096402877
 31
0.0
  0
LINE
  5
5E726
330
1F
100
AcDbEntity
  8
freecads.com
100
AcDbLine
 10
104447.0871239083
 20
95264.50096402877
 30
0.0
 11
104447.0831206106
 21
95264.50395419432
 31
0.0
  0
LINE
  5
5E727
330
1F
100
AcDbEntity
  8
freecads.com
100
AcDbLine
 10
104447.0831206106
 20
95264.50395419432
 30
0.0
 11
104447.0785437607
 21
95264.50757333037
 31
0.0
  0
LINE
  5
5E728
330
1F
100
AcDbEntity
  8
freecads.com
100
AcDbLine
 10
104447.0785437607
 20
95264.50757333037
 30
0.0
 11
104447.0736171839
 21
95264.51168692654
 31
0.0
  0
LINE
  5
5E729
330
1F
100
AcDbEntity
  8
freecads.com
100
AcDbLine
 10
104447.0736171839
 20
95264.51168692654
 30
0.0
 11
104447.0685649743
 21
95264.51616047246
 31
0.0
  0
LINE
  5
5E72A
330
1F
100
AcDbEntity
  8
freecads.com
100
AcDbLine
 10
104447.0685649743
 20
95264.51616047246
 30
0.0
 11
104447.0636112264
 21
95264.52085945777
 31
0.0
  0
LINE
  5
5E72B
330
1F
100
AcDbEntity
  8
freecads.com
100
AcDbLine
 10
104447.0636112264
 20
95264.52085945777
 30
0.0
 11
104447.0589797653
 21
95264.5256496411
 31
0.0
  0
LINE
  5
5E72C
330
1F
100
AcDbEntity
  8
freecads.com
100
AcDbLine
 10
104447.0589797653
 20
95264.5256496411
 30
0.0
 11
104447.0548952234
 21
95264.5303965121
 31
0.0
  0
LINE
  5
5E72D
330
1F
100
AcDbEntity
  8
freecads.com
100
AcDbLine
 10
104447.0548952234
 20
95264.5303965121
 30
0.0
 11
104447.0515811568
 21
95264.53496556039
 31
0.0
  0
LINE
  5
5E72E
330
1F
100
AcDbEntity
  8
freecads.com
100
AcDbLine
 10
104447.0515811568
 20
95264.53496556039
 30
0.0
 11
104447.049261929
 21
95264.53922254461
 31
0.0
  0
LINE
  5
5E72F
330
1F
100
AcDbEntity
  8
freecads.com
100
AcDbLine
 10
104447.049261929
 20
95264.53922254461
 30
0.0
 11
104447.0481616342
 21
95264.5430326854
 31
0.0
  0
LINE
  5
5E730
330
1F
100
AcDbEntity
  8
freecads.com
100
AcDbLine
 10
104447.0481616342
 20
95264.5430326854
 30
0.0
 11
104447.0485043666
 21
95264.54626147234
 31
0.0
  0
LINE
  5
5E731
330
1F
100
AcDbEntity
  8
freecads.com
100
AcDbLine
 10
104447.0485043666
 20
95264.54626147234
 30
0.0
 11
104447.0505139515
 21
95264.54877493314
 31
0.0
  0
ENDSEC
  0
SECTION
  2
OBJECTS
  0
DICTIONARY
  5
C
330
0
100
AcDbDictionary
281
     1
  3
ACAD_ASSOCPERSSUBENTMANAGER
350
2C1D4
  3
ACAD_CIP_PREVIOUS_PRODUCT_INFO
350
1A5
  3
ACAD_COLOR
350
73
  3
ACAD_DETAILVIEWSTYLE
350
1AB
  3
ACAD_GROUP
350
D
  3
ACAD_LAYOUT
350
1A
  3
ACAD_MATERIAL
350
72
  3
ACAD_MLEADERSTYLE
350
D7
  3
ACAD_MLINESTYLE
350
17
  3
ACAD_PLOTSETTINGS
350
19
  3
ACAD_PLOTSTYLENAME
350
E
  3
ACAD_SCALELIST
350
B6
  3
ACAD_SECTIONVIEWSTYLE
350
1A8
  3
ACAD_TABLESTYLE
350
86
  3
ACAD_VISUALSTYLE
350
99
  3
ACDB_RECOMPOSE_DATA
350
6B281
  3
ACDBVARIABLEDICTIONARY
350
4A0D5
  3
AEC_PROPERTY_SET_DEFS
350
22D1
  0
DICTIONARY
  5
18E
330
2
100
AcDbDictionary
280
     1
281
     1
  3
ACAD_LAYERSTATES
360
18F
  0
DICTIONARY
  5
E6
330
10
100
AcDbDictionary
280
     1
281
     1
  0
DICTIONARY
  5
15D
330
1F
100
AcDbDictionary
280
     1
281
     1
  3
ACAD_SORTENTS
360
28E
  0
ACDBASSOCPERSSUBENTMANAGER
  5
2C1D4
102
{ACAD_REACTORS
330
C
102
}
330
C
100
AcDbAssocPersSubentManager
 90
        2
 90
        3
 90
        0
 90
        2
 90
     1260
 90
        0
 90
     1260
 90
        1
 90
        2
 90
        3
 90
        4
 90
        5
 90
        6
 90
        7
 90
        8
 90
        9
 90
       10
 90
       11
 90
       12
 90
       13
 90
       14
 90
       15
 90
       16
 90
       17
 90
       18
 90
       19
 90
       20
 90
       21
 90
       22
 90
       23
 90
       24
 90
       25
 90
       26
 90
       27
 90
       28
 90
       29
 90
       30
 90
       31
 90
       32
 90
       33
 90
       34
 90
       35
 90
       36
 90
       37
 90
       38
 90
       39
 90
       40
 90
       41
 90
       42
 90
       43
 90
       44
 90
       45
 90
       46
 90
       47
 90
       48
 90
       49
 90
       50
 90
       51
 90
       52
 90
       53
 90
       54
 90
       55
 90
       56
 90
       57
 90
       58
 90
       59
 90
       60
 90
       61
 90
       62
 90
       63
 90
       64
 90
       65
 90
       66
 90
       67
 90
       68
 90
       69
 90
       70
 90
       71
 90
       72
 90
       73
 90
       74
 90
       75
 90
       76
 90
       77
 90
       78
 90
       79
 90
       80
 90
       81
 90
       82
 90
       83
 90
       84
 90
       85
 90
       86
 90
       87
 90
       88
 90
       89
 90
       90
 90
       91
 90
       92
 90
       93
 90
       94
 90
       95
 90
       96
 90
       97
 90
       98
 90
       99
 90
      100
 90
      101
 90
      102
 90
      103
 90
      104
 90
      105
 90
      106
 90
      107
 90
      108
 90
      109
 90
      110
 90
      111
 90
      112
 90
      113
 90
      114
 90
      115
 90
      116
 90
      117
 90
      118
 90
      119
 90
      120
 90
      121
 90
      122
 90
      123
 90
      124
 90
      125
 90
      126
 90
      127
 90
      128
 90
      129
 90
      130
 90
      131
 90
      132
 90
      133
 90
      134
 90
      135
 90
      136
 90
      137
 90
      138
 90
      139
 90
      140
 90
      141
 90
      142
 90
      143
 90
      144
 90
      145
 90
      146
 90
      147
 90
      148
 90
      149
 90
      150
 90
      151
 90
      152
 90
      153
 90
      154
 90
      155
 90
      156
 90
      157
 90
      158
 90
      159
 90
      160
 90
      161
 90
      162
 90
      163
 90
      164
 90
      165
 90
      166
 90
      167
 90
      168
 90
      169
 90
      170
 90
      171
 90
      172
 90
      173
 90
      174
 90
      175
 90
      176
 90
      177
 90
      178
 90
      179
 90
      180
 90
      181
 90
      182
 90
      183
 90
      184
 90
      185
 90
      186
 90
      187
 90
      188
 90
      189
 90
      190
 90
      191
 90
      192
 90
      193
 90
      194
 90
      195
 90
      196
 90
      197
 90
      198
 90
      199
 90
      200
 90
      201
 90
      202
 90
      203
 90
      204
 90
      205
 90
      206
 90
      207
 90
      208
 90
      209
 90
      210
 90
      211
 90
      212
 90
      213
 90
      214
 90
      215
 90
      216
 90
      217
 90
      218
 90
      219
 90
      220
 90
      221
 90
      222
 90
      223
 90
      224
 90
      225
 90
      226
 90
      227
 90
      228
 90
      229
 90
      230
 90
      231
 90
      232
 90
      233
 90
      234
 90
      235
 90
      236
 90
      237
 90
      238
 90
      239
 90
      240
 90
      241
 90
      242
 90
      243
 90
      244
 90
      245
 90
      246
 90
      247
 90
      248
 90
      249
 90
      250
 90
      251
 90
      252
 90
      253
 90
      254
 90
      255
 90
      256
 90
      257
 90
      258
 90
      259
 90
      260
 90
      261
 90
      262
 90
      263
 90
      264
 90
      265
 90
      266
 90
      267
 90
      268
 90
      269
 90
      270
 90
      271
 90
      272
 90
      273
 90
      274
 90
      275
 90
      276
 90
      277
 90
      278
 90
      279
 90
      280
 90
      281
 90
      282
 90
      283
 90
      284
 90
      285
 90
      286
 90
      287
 90
      288
 90
      289
 90
      290
 90
      291
 90
      292
 90
      293
 90
      294
 90
      295
 90
      296
 90
      297
 90
      298
 90
      299
 90
      300
 90
      301
 90
      302
 90
      303
 90
      304
 90
      305
 90
      306
 90
      307
 90
      308
 90
      309
 90
      310
 90
      311
 90
      312
 90
      313
 90
      314
 90
      315
 90
      316
 90
      317
 90
      318
 90
      319
 90
      320
 90
      321
 90
      322
 90
      323
 90
      324
 90
      325
 90
      326
 90
      327
 90
      328
 90
      329
 90
      330
 90
      331
 90
      332
 90
      333
 90
      334
 90
      335
 90
      336
 90
      337
 90
      338
 90
      339
 90
      340
 90
      341
 90
      342
 90
      343
 90
      344
 90
      345
 90
      346
 90
      347
 90
      348
 90
      349
 90
      350
 90
      351
 90
      352
 90
      353
 90
      354
 90
      355
 90
      356
 90
      357
 90
      358
 90
      359
 90
      360
 90
      361
 90
      362
 90
      363
 90
      364
 90
      365
 90
      366
 90
      367
 90
      368
 90
      369
 90
      370
 90
      371
 90
      372
 90
      373
 90
      374
 90
      375
 90
      376
 90
      377
 90
      378
 90
      379
 90
      380
 90
      381
 90
      382
 90
      383
 90
      384
 90
      385
 90
      386
 90
      387
 90
      388
 90
      389
 90
      390
 90
      391
 90
      392
 90
      393
 90
      394
 90
      395
 90
      396
 90
      397
 90
      398
 90
      399
 90
      400
 90
      401
 90
      402
 90
      403
 90
      404
 90
      405
 90
      406
 90
      407
 90
      408
 90
      409
 90
      410
 90
      411
 90
      412
 90
      413
 90
      414
 90
      415
 90
      416
 90
      417
 90
      418
 90
      419
 90
      420
 90
      421
 90
      422
 90
      423
 90
      424
 90
      425
 90
      426
 90
      427
 90
      428
 90
      429
 90
      430
 90
      431
 90
      432
 90
      433
 90
      434
 90
      435
 90
      436
 90
      437
 90
      438
 90
      439
 90
      440
 90
      441
 90
      442
 90
      443
 90
      444
 90
      445
 90
      446
 90
      447
 90
      448
 90
      449
 90
      450
 90
      451
 90
      452
 90
      453
 90
      454
 90
      455
 90
      456
 90
      457
 90
      458
 90
      459
 90
      460
 90
      461
 90
      462
 90
      463
 90
      464
 90
      465
 90
      466
 90
      467
 90
      468
 90
      469
 90
      470
 90
      471
 90
      472
 90
      473
 90
      474
 90
      475
 90
      476
 90
      477
 90
      478
 90
      479
 90
      480
 90
      481
 90
      482
 90
      483
 90
      484
 90
      485
 90
      486
 90
      487
 90
      488
 90
      489
 90
      490
 90
      491
 90
      492
 90
      493
 90
      494
 90
      495
 90
      496
 90
      497
 90
      498
 90
      499
 90
      500
 90
      501
 90
      502
 90
      503
 90
      504
 90
      505
 90
      506
 90
      507
 90
      508
 90
      509
 90
      510
 90
      511
 90
      512
 90
      513
 90
      514
 90
      515
 90
      516
 90
      517
 90
      518
 90
      519
 90
      520
 90
      521
 90
      522
 90
      523
 90
      524
 90
      525
 90
      526
 90
      527
 90
      528
 90
      529
 90
      530
 90
      531
 90
      532
 90
      533
 90
      534
 90
      535
 90
      536
 90
      537
 90
      538
 90
      539
 90
      540
 90
      541
 90
      542
 90
      543
 90
      544
 90
      545
 90
      546
 90
      547
 90
      548
 90
      549
 90
      550
 90
      551
 90
      552
 90
      553
 90
      554
 90
      555
 90
      556
 90
      557
 90
      558
 90
      559
 90
      560
 90
      561
 90
      562
 90
      563
 90
      564
 90
      565
 90
      566
 90
      567
 90
      568
 90
      569
 90
      570
 90
      571
 90
      572
 90
      573
 90
      574
 90
      575
 90
      576
 90
      577
 90
      578
 90
      579
 90
      580
 90
      581
 90
      582
 90
      583
 90
      584
 90
      585
 90
      586
 90
      587
 90
      588
 90
      589
 90
      590
 90
      591
 90
      592
 90
      593
 90
      594
 90
      595
 90
      596
 90
      597
 90
      598
 90
      599
 90
      600
 90
      601
 90
      602
 90
      603
 90
      604
 90
      605
 90
      606
 90
      607
 90
      608
 90
      609
 90
      610
 90
      611
 90
      612
 90
      613
 90
      614
 90
      615
 90
      616
 90
      617
 90
      618
 90
      619
 90
      620
 90
      621
 90
      622
 90
      623
 90
      624
 90
      625
 90
      626
 90
      627
 90
      628
 90
      629
 90
      630
 90
      631
 90
      632
 90
      633
 90
      634
 90
      635
 90
      636
 90
      637
 90
      638
 90
      639
 90
      640
 90
      641
 90
      642
 90
      643
 90
      644
 90
      645
 90
      646
 90
      647
 90
      648
 90
      649
 90
      650
 90
      651
 90
      652
 90
      653
 90
      654
 90
      655
 90
      656
 90
      657
 90
      658
 90
      659
 90
      660
 90
      661
 90
      662
 90
      663
 90
      664
 90
      665
 90
      666
 90
      667
 90
      668
 90
      669
 90
      670
 90
      671
 90
      672
 90
      673
 90
      674
 90
      675
 90
      676
 90
      677
 90
      678
 90
      679
 90
      680
 90
      681
 90
      682
 90
      683
 90
      684
 90
      685
 90
      686
 90
      687
 90
      688
 90
      689
 90
      690
 90
      691
 90
      692
 90
      693
 90
      694
 90
      695
 90
      696
 90
      697
 90
      698
 90
      699
 90
      700
 90
      701
 90
      702
 90
      703
 90
      704
 90
      705
 90
      706
 90
      707
 90
      708
 90
      709
 90
      710
 90
      711
 90
      712
 90
      713
 90
      714
 90
      715
 90
      716
 90
      717
 90
      718
 90
      719
 90
      720
 90
      721
 90
      722
 90
      723
 90
      724
 90
      725
 90
      726
 90
      727
 90
      728
 90
      729
 90
      730
 90
      731
 90
      732
 90
      733
 90
      734
 90
      735
 90
      736
 90
      737
 90
      738
 90
      739
 90
      740
 90
      741
 90
      742
 90
      743
 90
      744
 90
      745
 90
      746
 90
      747
 90
      748
 90
      749
 90
      750
 90
      751
 90
      752
 90
      753
 90
      754
 90
      755
 90
      756
 90
      757
 90
      758
 90
      759
 90
      760
 90
      761
 90
      762
 90
      763
 90
      764
 90
      765
 90
      766
 90
      767
 90
      768
 90
      769
 90
      770
 90
      771
 90
      772
 90
      773
 90
      774
 90
      775
 90
      776
 90
      777
 90
      778
 90
      779
 90
      780
 90
      781
 90
      782
 90
      783
 90
      784
 90
      785
 90
      786
 90
      787
 90
      788
 90
      789
 90
      790
 90
      791
 90
      792
 90
      793
 90
      794
 90
      795
 90
      796
 90
      797
 90
      798
 90
      799
 90
      800
 90
      801
 90
      802
 90
      803
 90
      804
 90
      805
 90
      806
 90
      807
 90
      808
 90
      809
 90
      810
 90
      811
 90
      812
 90
      813
 90
      814
 90
      815
 90
      816
 90
      817
 90
      818
 90
      819
 90
      820
 90
      821
 90
      822
 90
      823
 90
      824
 90
      825
 90
      826
 90
      827
 90
      828
 90
      829
 90
      830
 90
      831
 90
      832
 90
      833
 90
      834
 90
      835
 90
      836
 90
      837
 90
      838
 90
      839
 90
      840
 90
      841
 90
      842
 90
      843
 90
      844
 90
      845
 90
      846
 90
      847
 90
      848
 90
      849
 90
      850
 90
      851
 90
      852
 90
      853
 90
      854
 90
      855
 90
      856
 90
      857
 90
      858
 90
      859
 90
      860
 90
      861
 90
      862
 90
      863
 90
      864
 90
      865
 90
      866
 90
      867
 90
      868
 90
      869
 90
      870
 90
      871
 90
      872
 90
      873
 90
      874
 90
      875
 90
      876
 90
      877
 90
      878
 90
      879
 90
      880
 90
      881
 90
      882
 90
      883
 90
      884
 90
      885
 90
      886
 90
      887
 90
      888
 90
      889
 90
      890
 90
      891
 90
      892
 90
      893
 90
      894
 90
      895
 90
      896
 90
      897
 90
      898
 90
      899
 90
      900
 90
      901
 90
      902
 90
      903
 90
      904
 90
      905
 90
      906
 90
      907
 90
      908
 90
      909
 90
      910
 90
      911
 90
      912
 90
      913
 90
      914
 90
      915
 90
      916
 90
      917
 90
      918
 90
      919
 90
      920
 90
      921
 90
      922
 90
      923
 90
      924
 90
      925
 90
      926
 90
      927
 90
      928
 90
      929
 90
      930
 90
      931
 90
      932
 90
      933
 90
      934
 90
      935
 90
      936
 90
      937
 90
      938
 90
      939
 90
      940
 90
      941
 90
      942
 90
      943
 90
      944
 90
      945
 90
      946
 90
      947
 90
      948
 90
      949
 90
      950
 90
      951
 90
      952
 90
      953
 90
      954
 90
      955
 90
      956
 90
      957
 90
      958
 90
      959
 90
      960
 90
      961
 90
      962
 90
      963
 90
      964
 90
      965
 90
      966
 90
      967
 90
      968
 90
      969
 90
      970
 90
      971
 90
      972
 90
      973
 90
      974
 90
      975
 90
      976
 90
      977
 90
      978
 90
      979
 90
      980
 90
      981
 90
      982
 90
      983
 90
      984
 90
      985
 90
      986
 90
      987
 90
      988
 90
      989
 90
      990
 90
      991
 90
      992
 90
      993
 90
      994
 90
      995
 90
      996
 90
      997
 90
      998
 90
      999
 90
     1000
 90
     1001
 90
     1002
 90
     1003
 90
     1004
 90
     1005
 90
     1006
 90
     1007
 90
     1008
 90
     1009
 90
     1010
 90
     1011
 90
     1012
 90
     1013
 90
     1014
 90
     1015
 90
     1016
 90
     1017
 90
     1018
 90
     1019
 90
     1020
 90
     1021
 90
     1022
 90
     1023
 90
     1024
 90
     1025
 90
     1026
 90
     1027
 90
     1028
 90
     1029
 90
     1030
 90
     1031
 90
     1032
 90
     1033
 90
     1034
 90
     1035
 90
     1036
 90
     1037
 90
     1038
 90
     1039
 90
     1040
 90
     1041
 90
     1042
 90
     1043
 90
     1044
 90
     1045
 90
     1046
 90
     1047
 90
     1048
 90
     1049
 90
     1050
 90
     1051
 90
     1052
 90
     1053
 90
     1054
 90
     1055
 90
     1056
 90
     1057
 90
     1058
 90
     1059
 90
     1060
 90
     1061
 90
     1062
 90
     1063
 90
     1064
 90
     1065
 90
     1066
 90
     1067
 90
     1068
 90
     1069
 90
     1070
 90
     1071
 90
     1072
 90
     1073
 90
     1074
 90
     1075
 90
     1076
 90
     1077
 90
     1078
 90
     1079
 90
     1080
 90
     1081
 90
     1082
 90
     1083
 90
     1084
 90
     1085
 90
     1086
 90
     1087
 90
     1088
 90
     1089
 90
     1090
 90
     1091
 90
     1092
 90
     1093
 90
     1094
 90
     1095
 90
     1096
 90
     1097
 90
     1098
 90
     1099
 90
     1100
 90
     1101
 90
     1102
 90
     1103
 90
     1104
 90
     1105
 90
     1106
 90
     1107
 90
     1108
 90
     1109
 90
     1110
 90
     1111
 90
     1112
 90
     1113
 90
     1114
 90
     1115
 90
     1116
 90
     1117
 90
     1118
 90
     1119
 90
     1120
 90
     1121
 90
     1122
 90
     1123
 90
     1124
 90
     1125
 90
     1126
 90
     1127
 90
     1128
 90
     1129
 90
     1130
 90
     1131
 90
     1132
 90
     1133
 90
     1134
 90
     1135
 90
     1136
 90
     1137
 90
     1138
 90
     1139
 90
     1140
 90
     1141
 90
     1142
 90
     1143
 90
     1144
 90
     1145
 90
     1146
 90
     1147
 90
     1148
 90
     1149
 90
     1150
 90
     1151
 90
     1152
 90
     1153
 90
     1154
 90
     1155
 90
     1156
 90
     1157
 90
     1158
 90
     1159
 90
     1160
 90
     1161
 90
     1162
 90
     1163
 90
     1164
 90
     1165
 90
     1166
 90
     1167
 90
     1168
 90
     1169
 90
     1170
 90
     1171
 90
     1172
 90
     1173
 90
     1174
 90
     1175
 90
     1176
 90
     1177
 90
     1178
 90
     1179
 90
     1180
 90
     1181
 90
     1182
 90
     1183
 90
     1184
 90
     1185
 90
     1186
 90
     1187
 90
     1188
 90
     1189
 90
     1190
 90
     1191
 90
     1192
 90
     1193
 90
     1194
 90
     1195
 90
     1196
 90
     1197
 90
     1198
 90
     1199
 90
     1200
 90
     1201
 90
     1202
 90
     1203
 90
     1204
 90
     1205
 90
     1206
 90
     1207
 90
     1208
 90
     1209
 90
     1210
 90
     1211
 90
     1212
 90
     1213
 90
     1214
 90
     1215
 90
     1216
 90
     1217
 90
     1218
 90
     1219
 90
     1220
 90
     1221
 90
     1222
 90
     1223
 90
     1224
 90
     1225
 90
     1226
 90
     1227
 90
     1228
 90
     1229
 90
     1230
 90
     1231
 90
     1232
 90
     1233
 90
     1234
 90
     1235
 90
     1236
 90
     1237
 90
     1238
 90
     1239
 90
     1240
 90
     1241
 90
     1242
 90
     1243
 90
     1244
 90
     1245
 90
     1246
 90
     1247
 90
     1248
 90
     1249
 90
     1250
 90
     1251
 90
     1252
 90
     1253
 90
     1254
 90
     1255
 90
     1256
 90
     1257
 90
     1258
 90
     1259
 90
     1260
 90
        0
 90
        0
290
     0
  0
XRECORD
  5
1A5
102
{ACAD_REACTORS
330
C
102
}
330
C
100
AcDbXrecord
280
     1
300
ACD
300
2022
300

  0
DICTIONARY
  5
73
102
{ACAD_REACTORS
330
C
102
}
330
C
100
AcDbDictionary
281
     1
  0
DICTIONARY
  5
1AB
102
{ACAD_REACTORS
330
C
102
}
330
C
100
AcDbDictionary
281
     1
  3
Imperial24
350
1AC
  3
Metric50
350
224
  0
DICTIONARY
  5
D
102
{ACAD_REACTORS
330
C
102
}
330
C
100
AcDbDictionary
281
     1
  0
DICTIONARY
  5
1A
102
{ACAD_REACTORS
330
C
102
}
330
C
100
AcDbDictionary
281
     1
  3
Layout1
350
59
  3
Layout2
350
5E
  3
Model
350
22
  0
DICTIONARY
  5
72
102
{ACAD_REACTORS
330
C
102
}
330
C
100
AcDbDictionary
281
     1
  3
ByBlock
350
97
  3
ByLayer
350
96
  3
Global
350
98
  0
DICTIONARY
  5
D7
102
{ACAD_REACTORS
330
C
102
}
330
C
100
AcDbDictionary
281
     1
  3
Standard
350
D8
  0
DICTIONARY
  5
17
102
{ACAD_REACTORS
330
C
102
}
330
C
100
AcDbDictionary
281
     1
  3
Standard
350
18
  0
DICTIONARY
  5
19
102
{ACAD_REACTORS
330
C
102
}
330
C
100
AcDbDictionary
281
     1
  0
ACDBDICTIONARYWDFLT
  5
E
102
{ACAD_REACTORS
330
C
102
}
330
C
100
AcDbDictionary
281
     1
  3
Normal
350
F
100
AcDbDictionaryWithDefault
340
F
  0
DICTIONARY
  5
B6
102
{ACAD_REACTORS
330
C
102
}
330
C
100
AcDbDictionary
281
     1
  3
*A1
350
2283
  3
A0
350
B7
  3
A1
350
124
  3
A2
350
125
  3
A3
350
126
  3
A4
350
127
  3
A5
350
128
  3
A6
350
129
  3
A7
350
12A
  3
A8
350
12B
  3
A9
350
12C
  3
B0
350
12D
  3
B1
350
12E
  3
B2
350
12F
  3
B3
350
130
  3
B4
350
131
  3
B5
350
132
  3
B6
350
133
  3
B7
350
134
  3
B8
350
135
  3
B9
350
136
  3
C0
350
137
  3
C1
350
138
  3
C2
350
139
  3
C3
350
13A
  3
C4
350
13B
  3
C5
350
13C
  3
C6
350
13D
  3
C7
350
13E
  3
C8
350
13F
  3
C9
350
140
  3
D0
350
141
  3
D1
350
142
  3
D2
350
143
  0
DICTIONARY
  5
1A8
102
{ACAD_REACTORS
330
C
102
}
330
C
100
AcDbDictionary
281
     1
  3
Imperial24
350
1AA
  3
Metric50
350
223
  0
DICTIONARY
  5
86
102
{ACAD_REACTORS
330
C
102
}
330
C
100
AcDbDictionary
281
     1
  3
Standard
350
87
  0
DICTIONARY
  5
99
102
{ACAD_REACTORS
330
C
102
}
330
C
100
AcDbDictionary
281
     1
  3
2dWireframe
350
9F
  3
3dWireframe
350
22946
  3
Basic
350
9E
  3
Brighten
350
A5
  3
ColorChange
350
A9
  3
Conceptual
350
A2
  3
Dim
350
A4
  3
EdgeColorOff
350
175
  3
Facepattern
350
A8
  3
Flat
350
9A
  3
FlatWithEdges
350
9B
  3
Gouraud
350
9C
  3
GouraudWithEdges
350
9D
  3
Hidden
350
A1
  3
JitterOff
350
173
  3
Linepattern
350
A7
  3
OverhangOff
350
174
  3
Realistic
350
A3
  3
Shaded
350
182
  3
Shaded with edges
350
181
  3
Shades of Gray
350
17E
  3
Sketchy
350
17F
  3
Thicken
350
A6
  3
Wireframe
350
A0
  3
X-Ray
350
180
  0
XRECORD
  5
6B281
102
{ACAD_REACTORS
330
C
102
}
330
C
100
AcDbXrecord
280
     1
 90
        1
330
87
  0
DICTIONARY
  5
4A0D5
102
{ACAD_REACTORS
330
C
102
}
330
C
100
AcDbDictionary
281
     2
  3
#COMPAREDIFFTOTAL
350
4A0D6
  3
#REVCLOUDAPPROXARCLEN
350
4A0D7
  3
ANNOALLVISIBLE
350
4A0D8
  3
CANNOSCALE
350
4A0D9
  3
CMLEADERSTYLE
350
4A0DA
  3
CTABLESTYLE
350
4A0DB
  3
CVIEWDETAILSTYLE
350
4A0DC
  3
CVIEWSECTIONSTYLE
350
4A0DD
  3
DIMADEC
350
4A0DE
  3
DIMASSOC
350
4A0DF
  3
DWFFRAME
350
4A0E0
  3
HIDETEXT
350
4A0E1
  3
HPCOLOR
350
4A0E2
  3
HPLAYER
350
4A0E3
  3
HPTRANSPARENCY
350
4A0E4
  3
INDEXCTL
350
4A0E5
  3
LAYEREVAL
350
4A0E6
  3
LAYERNOTIFY
350
4A0E7
  3
LIGHTINGUNITS
350
4A0E8
  3
MLEADERSCALE
350
4A0E9
  3
MSLTSCALE
350
4A0EA
  3
MSOLESCALE
350
4A0EB
  3
PDFFRAME
350
4A0EC
  3
POINTCLOUDCLIPFRAME
350
4A0ED
  3
PROJECTNAME
350
4A0EE
  3
SOLIDHIST
350
4A0EF
  3
SORTENTS
350
4A0F0
  0
DICTIONARY
  5
22D1
102
{ACAD_REACTORS
330
C
102
}
330
C
100
AcDbDictionary
281
     1
  0
DICTIONARY
  5
18F
102
{ACAD_REACTORS
330
18E
102
}
330
18E
100
AcDbDictionary
281
     1
  0
SORTENTSTABLE
  5
28E
102
{ACAD_REACTORS
330
15D
102
}
330
15D
100
AcDbSortentsTable
330
1F
  0
ACDBDETAILVIEWSTYLE
  5
1AC
102
{ACAD_REACTORS
330
1AB
102
}
330
1AB
100
AcDbModelDocViewStyle
 70
     0
  3
Imperial24
290
     0
300
Imperial24
 90
        0
100
AcDbDetailViewStyle
 70
     0
 71
     0
 90
        3
 71
     1
340
11
 62
   256
 40
0.24
340
0
 62
   256
 40
0.24
300

 40
0.36
280
     3
 71
     2
340
16
 90
       25
 62
   256
 71
     3
340
11
 62
   256
 40
0.24
 90
        1
 40
0.75
 90
        1
300
%<\AcVar ViewType \f "%tc1">% %<\AcVar ViewDetailId>%\PSCALE %<\AcVar ViewScale \f "%sn">%
 71
     4
340
16
 90
       25
 62
   256
340
16
 90
       25
 62
   256
280
     0
  0
ACDBDETAILVIEWSTYLE
  5
224
102
{ACAD_REACTORS
330
1AB
102
}
330
1AB
100
AcDbModelDocViewStyle
 70
     0
  3
Metric50
290
     0
300
Metric50
 90
        0
100
AcDbDetailViewStyle
 70
     0
 71
     0
 90
        3
 71
     1
340
11
 62
   256
 40
5.0
340
0
 62
   256
 40
5.0
300

 40
0.0
280
     1
 71
     2
340
16
 90
       25
 62
   256
 71
     3
340
11
 62
   256
 40
5.0
 90
        0
 40
15.0
 90
        1
300
%<\AcVar ViewDetailId>% (%<\AcVar ViewScale \f "%sn">%)
 71
     4
340
16
 90
       25
 62
   256
340
16
 90
       25
 62
   256
280
     0
  0
LAYOUT
  5
59
102
{ACAD_REACTORS
330
1A
102
}
330
1A
100
AcDbPlotSettings
  1

  2
None
  4

  6

 40
0.0
 41
0.0
 42
0.0
 43
0.0
 44
0.0
 45
0.0
 46
0.0
 47
0.0
 48
0.0
 49
0.0
140
0.0
141
0.0
142
1.0
143
1.0
 70
   688
 72
     0
 73
     0
 74
     5
  7

 75
    16
147
1.0
 76
     0
 77
     2
 78
   300
148
0.0
149
0.0
100
AcDbLayout
  1
Layout1
 70
     1
 71
     1
 10
0.0
 20
0.0
 11
12.0
 21
9.0
 12
0.0
 22
0.0
 32
0.0
 14
0.0
 24
0.0
 34
0.0
 15
0.0
 25
0.0
 35
0.0
146
0.0
 13
0.0
 23
0.0
 33
0.0
 16
1.0
 26
0.0
 36
0.0
 17
0.0
 27
1.0
 37
0.0
 76
     0
330
58
  0
LAYOUT
  5
5E
102
{ACAD_REACTORS
330
1A
102
}
330
1A
100
AcDbPlotSettings
  1

  2
None
  4

  6

 40
0.0
 41
0.0
 42
0.0
 43
0.0
 44
0.0
 45
0.0
 46
0.0
 47
0.0
 48
0.0
 49
0.0
140
0.0
141
0.0
142
1.0
143
1.0
 70
   688
 72
     0
 73
     0
 74
     5
  7

 75
    16
147
1.0
 76
     0
 77
     2
 78
   300
148
0.0
149
0.0
100
AcDbLayout
  1
Layout2
 70
     1
 71
     2
 10
0.0
 20
0.0
 11
12.0
 21
9.0
 12
0.0
 22
0.0
 32
0.0
 14
0.0
 24
0.0
 34
0.0
 15
0.0
 25
0.0
 35
0.0
146
0.0
 13
0.0
 23
0.0
 33
0.0
 16
1.0
 26
0.0
 36
0.0
 17
0.0
 27
1.0
 37
0.0
 76
     0
330
5D
  0
LAYOUT
  5
22
102
{ACAD_XDICTIONARY
360
194
102
}
102
{ACAD_REACTORS
330
1A
102
}
330
1A
100
AcDbPlotSettings
  1

  2
none_device
  4
ANSI_A_(8.50_x_11.00_Inches)
  6

 40
6.349999904632568
 41
19.04999923706055
 42
6.350006103515625
 43
19.04998779296875
 44
215.8999938964844
 45
279.3999938964844
 46
0.0
 47
0.0
 48
0.0
 49
0.0
140
0.0
141
0.0
142
1.0
143
2.584895464708373
 70
 11952
 72
     0
 73
     1
 74
     0
  7

 75
     0
147
0.3868628397755418
 76
     0
 77
     2
 78
   300
148
0.0
149
0.0
100
AcDbLayout
  1
Model
 70
     1
 71
     0
 10
0.0
 20
0.0
 11
12.0
 21
9.0
 12
0.0
 22
0.0
 32
0.0
 14
0.0
 24
0.0
 34
0.0
 15
0.0
 25
0.0
 35
0.0
146
0.0
 13
0.0
 23
0.0
 33
0.0
 16
1.0
 26
0.0
 36
0.0
 17
0.0
 27
1.0
 37
0.0
 76
     0
330
1F
331
94
  0
MATERIAL
  5
97
102
{ACAD_XDICTIONARY
360
188
102
}
102
{ACAD_REACTORS
330
72
102
}
330
72
100
AcDbMaterial
  1
ByBlock
 94
       63
  0
MATERIAL
  5
96
102
{ACAD_XDICTIONARY
360
186
102
}
102
{ACAD_REACTORS
330
72
102
}
330
72
100
AcDbMaterial
  1
ByLayer
 94
       63
  0
MATERIAL
  5
98
102
{ACAD_XDICTIONARY
360
110
102
}
102
{ACAD_REACTORS
330
72
102
}
330
72
100
AcDbMaterial
  1
Global
 43
0.0208000000566244
 43
0.0
 43
0.0
 43
0.0
 43
0.0
 43
0.0208000000566244
 43
0.0
 43
0.0
 43
0.0
 43
0.0
 43
1.0
 43
0.0
 43
0.0
 43
0.0
 43
0.0
 43
1.0
 49
0.0208000000566244
 49
0.0
 49
0.0
 49
0.0
 49
0.0
 49
0.0208000000566244
 49
0.0
 49
0.0
 49
0.0
 49
0.0
 49
1.0
 49
0.0
 49
0.0
 49
0.0
 49
0.0
 49
1.0
142
0.0208000000566244
142
0.0
142
0.0
142
0.0
142
0.0
142
0.0208000000566244
142
0.0
142
0.0
142
0.0
142
0.0
142
1.0
142
0.0
142
0.0
142
0.0
142
0.0
142
1.0
144
0.0208000000566244
144
0.0
144
0.0
144
0.0
144
0.0
144
0.0208000000566244
144
0.0
144
0.0
144
0.0
144
0.0
144
1.0
144
0.0
144
0.0
144
0.0
144
0.0
144
1.0
 94
       63
1001
ACAD
1070
    -1
1070
     3
1070
     0
1000

1071
        0
1070
     0
  0
MLEADERSTYLE
  5
D8
102
{ACAD_REACTORS
330
D7
102
}
330
D7
100
AcDbMLeaderStyle
179
     2
170
     2
171
     1
172
     0
 90
        2
 40
0.0
 41
0.0
173
     1
 91
-1056964608
340
14
 92
       -2
290
     1
 42
0.09
291
     1
 43
0.36
  3
Standard
 44
0.18
300

342
11
174
     1
178
     1
175
     1
176
     0
 93
-1056964608
 45
0.18
292
     0
297
     0
 46
0.18
 94
-1056964608
 47
1.0
 49
1.0
140
1.0
293
     1
141
0.0
294
     1
177
     0
142
1.0
295
     0
296
     0
143
0.125
271
     0
272
     9
273
     9
298
     0
  0
MLINESTYLE
  5
18
102
{ACAD_REACTORS
330
17
102
}
330
17
100
AcDbMlineStyle
  2
STANDARD
 70
     0
  3

 62
   256
 51
90.0
 52
90.0
 71
     2
 49
0.5
 62
   256
  6
BYLAYER
 49
-0.5
 62
   256
  6
BYLAYER
  0
ACDBPLACEHOLDER
  5
F
102
{ACAD_REACTORS
330
E
102
}
330
E
  0
SCALE
  5
2283
102
{ACAD_REACTORS
330
B6
102
}
330
B6
100
AcDbScale
 70
     0
300
1:75
140
1.0
141
75.0
290
     0
  0
SCALE
  5
B7
102
{ACAD_REACTORS
330
B6
102
}
330
B6
100
AcDbScale
 70
     0
300
1:1
140
1.0
141
1.0
290
     1
  0
SCALE
  5
124
102
{ACAD_REACTORS
330
B6
102
}
330
B6
100
AcDbScale
 70
     0
300
1:2
140
1.0
141
2.0
290
     0
  0
SCALE
  5
125
102
{ACAD_REACTORS
330
B6
102
}
330
B6
100
AcDbScale
 70
     0
300
1:4
140
1.0
141
4.0
290
     0
  0
SCALE
  5
126
102
{ACAD_REACTORS
330
B6
102
}
330
B6
100
AcDbScale
 70
     0
300
1:5
140
1.0
141
5.0
290
     0
  0
SCALE
  5
127
102
{ACAD_REACTORS
330
B6
102
}
330
B6
100
AcDbScale
 70
     0
300
1:8
140
1.0
141
8.0
290
     0
  0
SCALE
  5
128
102
{ACAD_REACTORS
330
B6
102
}
330
B6
100
AcDbScale
 70
     0
300
1:10
140
1.0
141
10.0
290
     0
  0
SCALE
  5
129
102
{ACAD_REACTORS
330
B6
102
}
330
B6
100
AcDbScale
 70
     0
300
1:16
140
1.0
141
16.0
290
     0
  0
SCALE
  5
12A
102
{ACAD_REACTORS
330
B6
102
}
330
B6
100
AcDbScale
 70
     0
300
1:20
140
1.0
141
20.0
290
     0
  0
SCALE
  5
12B
102
{ACAD_REACTORS
330
B6
102
}
330
B6
100
AcDbScale
 70
     0
300
1:30
140
1.0
141
30.0
290
     0
  0
SCALE
  5
12C
102
{ACAD_REACTORS
330
B6
102
}
330
B6
100
AcDbScale
 70
     0
300
1:40
140
1.0
141
40.0
290
     0
  0
SCALE
  5
12D
102
{ACAD_REACTORS
330
B6
102
}
330
B6
100
AcDbScale
 70
     0
300
1:50
140
1.0
141
50.0
290
     0
  0
SCALE
  5
12E
102
{ACAD_REACTORS
330
B6
102
}
330
B6
100
AcDbScale
 70
     0
300
1:100
140
1.0
141
100.0
290
     0
  0
SCALE
  5
12F
102
{ACAD_REACTORS
330
B6
102
}
330
B6
100
AcDbScale
 70
     0
300
2:1
140
2.0
141
1.0
290
     0
  0
SCALE
  5
130
102
{ACAD_REACTORS
330
B6
102
}
330
B6
100
AcDbScale
 70
     0
300
4:1
140
4.0
141
1.0
290
     0
  0
SCALE
  5
131
102
{ACAD_REACTORS
330
B6
102
}
330
B6
100
AcDbScale
 70
     0
300
8:1
140
8.0
141
1.0
290
     0
  0
SCALE
  5
132
102
{ACAD_REACTORS
330
B6
102
}
330
B6
100
AcDbScale
 70
     0
300
10:1
140
10.0
141
1.0
290
     0
  0
SCALE
  5
133
102
{ACAD_REACTORS
330
B6
102
}
330
B6
100
AcDbScale
 70
     0
300
100:1
140
100.0
141
1.0
290
     0
  0
SCALE
  5
134
102
{ACAD_REACTORS
330
B6
102
}
330
B6
100
AcDbScale
 70
     0
300
1/128" = 1'-0"
140
0.0078125
141
12.0
290
     0
  0
SCALE
  5
135
102
{ACAD_REACTORS
330
B6
102
}
330
B6
100
AcDbScale
 70
     0
300
1/64" = 1'-0"
140
0.015625
141
12.0
290
     0
  0
SCALE
  5
136
102
{ACAD_REACTORS
330
B6
102
}
330
B6
100
AcDbScale
 70
     0
300
1/32" = 1'-0"
140
0.03125
141
12.0
290
     0
  0
SCALE
  5
137
102
{ACAD_REACTORS
330
B6
102
}
330
B6
100
AcDbScale
 70
     0
300
1/16" = 1'-0"
140
0.0625
141
12.0
290
     0
  0
SCALE
  5
138
102
{ACAD_REACTORS
330
B6
102
}
330
B6
100
AcDbScale
 70
     0
300
3/32" = 1'-0"
140
0.09375
141
12.0
290
     0
  0
SCALE
  5
139
102
{ACAD_REACTORS
330
B6
102
}
330
B6
100
AcDbScale
 70
     0
300
1/8" = 1'-0"
140
0.125
141
12.0
290
     0
  0
SCALE
  5
13A
102
{ACAD_REACTORS
330
B6
102
}
330
B6
100
AcDbScale
 70
     0
300
3/16" = 1'-0"
140
0.1875
141
12.0
290
     0
  0
SCALE
  5
13B
102
{ACAD_REACTORS
330
B6
102
}
330
B6
100
AcDbScale
 70
     0
300
1/4" = 1'-0"
140
0.25
141
12.0
290
     0
  0
SCALE
  5
13C
102
{ACAD_REACTORS
330
B6
102
}
330
B6
100
AcDbScale
 70
     0
300
3/8" = 1'-0"
140
0.375
141
12.0
290
     0
  0
SCALE
  5
13D
102
{ACAD_REACTORS
330
B6
102
}
330
B6
100
AcDbScale
 70
     0
300
1/2" = 1'-0"
140
0.5
141
12.0
290
     0
  0
SCALE
  5
13E
102
{ACAD_REACTORS
330
B6
102
}
330
B6
100
AcDbScale
 70
     0
300
3/4" = 1'-0"
140
0.75
141
12.0
290
     0
  0
SCALE
  5
13F
102
{ACAD_REACTORS
330
B6
102
}
330
B6
100
AcDbScale
 70
     0
300
1" = 1'-0"
140
1.0
141
12.0
290
     0
  0
SCALE
  5
140
102
{ACAD_REACTORS
330
B6
102
}
330
B6
100
AcDbScale
 70
     0
300
1-1/2" = 1'-0"
140
1.5
141
12.0
290
     0
  0
SCALE
  5
141
102
{ACAD_REACTORS
330
B6
102
}
330
B6
100
AcDbScale
 70
     0
300
3" = 1'-0"
140
3.0
141
12.0
290
     0
  0
SCALE
  5
142
102
{ACAD_REACTORS
330
B6
102
}
330
B6
100
AcDbScale
 70
     0
300
6" = 1'-0"
140
6.0
141
12.0
290
     0
  0
SCALE
  5
143
102
{ACAD_REACTORS
330
B6
102
}
330
B6
100
AcDbScale
 70
     0
300
1'-0" = 1'-0"
140
12.0
141
12.0
290
     0
  0
ACDBSECTIONVIEWSTYLE
  5
1AA
102
{ACAD_REACTORS
330
1A8
102
}
330
1A8
100
AcDbModelDocViewStyle
 70
     0
  3
Imperial24
290
     0
300
Imperial24
 90
        0
100
AcDbSectionViewStyle
 70
     0
 71
     0
 90
       78
 71
     1
340
11
 62
   256
 40
0.24
340
0
340
0
 62
   256
 40
0.24
300
I, O, Q, S, X, Z
 40
0.48
 90
        3
 40
0.18
 90
        1
 71
     2
340
16
 90
       25
 62
   256
340
16
 90
       50
 62
   256
 40
0.24
 40
0.0
 40
0.24
 71
     3
340
11
 62
   256
 40
0.24
 90
        1
 40
0.75
 90
        1
300
%<\AcVar ViewType \f "%tc1">% %<\AcVar ViewSectionStartId>%-%<\AcVar ViewSectionEndId>%\PSCALE %<\AcVar ViewScale \f "%sn">%
 71
     4
 62
   256
 62
   257
300
ANSI31
 40
1.0
 90
        0
290
     0
290
     0
 90
        6
 40
0.0
 40
1.570796326794896
 40
0.2617993877991494
 40
1.308996938995747
 40
-0.2617993877991494
 40
1.832595714594046
  0
ACDBSECTIONVIEWSTYLE
  5
223
102
{ACAD_REACTORS
330
1A8
102
}
330
1A8
100
AcDbModelDocViewStyle
 70
     0
  3
Metric50
290
     0
300
Metric50
 90
        0
100
AcDbSectionViewStyle
 70
     0
 71
     0
 90
      102
 71
     1
340
11
 62
   256
 40
5.0
340
0
340
0
 62
   256
 40
5.0
300
I, O, Q, S, X, Z
 40
10.0
 90
        0
 40
2.5
 90
        0
 71
     2
340
16
 90
       25
 62
   256
340
16
 90
       50
 62
   256
 40
5.0
 40
2.5
 40
5.0
 71
     3
340
11
 62
   256
 40
5.0
 90
        0
 40
15.0
 90
        1
300
%<\AcVar ViewSectionStartId>%-%<\AcVar ViewSectionEndId>% (%<\AcVar ViewScale \f "%sn">%)
 71
     4
 62
   256
 62
   257
300
ANSI31
 40
1.0
 90
        0
290
     0
290
     0
 90
        6
 40
0.0
 40
1.570796326794896
 40
0.2617993877991494
 40
1.308996938995747
 40
-0.2617993877991494
 40
1.832595714594046
  0
TABLESTYLE
  5
87
102
{ACAD_XDICTIONARY
360
104
102
}
102
{ACAD_REACTORS
330
86
102
}
330
86
100
AcDbTableStyle
280
     0
  3
Standard
 70
     0
 71
     0
 40
0.06
 41
0.06
280
     0
281
     0
  7
Standard
140
0.18
170
     2
 62
     0
 63
     7
283
     0
 90
      512
 91
        0
  1

274
    -2
284
     1
 64
     0
275
    -2
285
     1
 65
     0
276
    -2
286
     1
 66
     0
277
    -2
287
     1
 67
     0
278
    -2
288
     1
 68
     0
279
    -2
289
     1
 69
     0
  7
Standard
140
0.25
170
     5
 62
     0
 63
     7
283
     0
 90
      512
 91
        0
  1

274
    -2
284
     1
 64
     0
275
    -2
285
     1
 65
     0
276
    -2
286
     1
 66
     0
277
    -2
287
     1
 67
     0
278
    -2
288
     1
 68
     0
279
    -2
289
     1
 69
     0
  7
Standard
140
0.18
170
     5
 62
     0
 63
     7
283
     0
 90
      512
 91
        0
  1

274
    -2
284
     1
 64
     0
275
    -2
285
     1
 65
     0
276
    -2
286
     1
 66
     0
277
    -2
287
     1
 67
     0
278
    -2
288
     1
 68
     0
279
    -2
289
     1
 69
     0
  0
VISUALSTYLE
  5
9F
102
{ACAD_REACTORS
330
99
102
}
330
99
100
AcDbVisualStyle
  2
2dWireframe
 70
     4
177
     3
291
     0
 70
    58
 90
        0
176
     1
 90
        2
176
     1
 90
        1
176
     1
 90
        0
176
     1
 40
0.6
176
     1
 40
30.0
176
     1
 62
     7
420
 16777215
176
     1
 90
        1
176
     1
 90
        4
176
     1
 62
     7
176
     1
 62
   257
176
     1
 90
        1
176
     1
 90
        1
176
     1
 40
1.0
176
     1
 90
        0
176
     1
 62
   257
176
     1
 40
1.0
176
     1
 90
        1
176
     1
 90
        6
176
     1
 90
        2
176
     1
 62
     7
176
     1
 90
        5
176
     1
 90
        0
176
     1
 90
        0
176
     1
290
     0
176
     1
 90
        1
176
     1
 40
0.0
176
     1
 90
        0
176
     1
290
     1
176
     1
290
     1
176
     1
290
     0
176
     1
290
     0
176
     1
290
     0
176
     1
290
     0
176
     1
290
     0
176
     1
290
     0
176
     1
290
     0
176
     1
 90
       50
176
     1
 40
0.0
176
     1
 40
1.0
176
     1
 90
        0
176
     1
 62
    18
420
        0
176
     1
 90
       50
176
     1
 90
        3
176
     1
 62
     5
420
      255
176
     1
290
     0
176
     1
 90
       50
176
     1
 90
       50
176
     1
 90
       50
176
     1
290
     0
176
     1
 90
       50
176
     1
 62
   256
176
     0
 40
1.0
176
     0
 90
        2
176
     1
  1
strokes_ogs.tif
176
     1
290
     0
176
     1
 40
1.0
176
     1
 40
1.0
176
     1
  0
VISUALSTYLE
  5
22946
102
{ACAD_REACTORS
330
99
102
}
330
99
100
AcDbVisualStyle
  2
3dWireframe
 70
     5
177
     3
291
     0
 70
    58
 90
        0
176
     1
 90
        2
176
     1
 90
        0
176
     1
 90
        0
176
     1
 40
0.6
176
     1
 40
30.0
176
     1
 62
     7
176
     1
 90
        1
176
     1
 90
        4
176
     1
 62
     7
176
     1
 62
   257
176
     1
 90
        1
176
     1
 90
        1
176
     1
 40
1.0
176
     1
 90
        0
176
     1
 62
   257
176
     1
 40
1.0
176
     1
 90
        1
176
     1
 90
        6
176
     1
 90
        2
176
     1
 62
     7
176
     1
 90
        5
176
     1
 90
        0
176
     1
 90
        0
176
     1
290
     0
176
     1
 90
        1
176
     1
 40
0.0
176
     1
 90
        0
176
     1
290
     0
176
     1
290
     1
176
     1
290
     1
176
     1
290
     0
176
     1
290
     0
176
     1
290
     0
176
     1
290
     0
176
     1
290
     0
176
     1
290
     0
176
     1
 90
       50
176
     1
 40
0.0
176
     1
 40
1.0
176
     1
 90
        0
176
     1
 62
    18
420
        0
176
     1
 90
       50
176
     1
 90
        3
176
     1
 62
     5
420
      255
176
     1
290
     0
176
     1
 90
       50
176
     1
 90
       50
176
     1
 90
       50
176
     1
290
     0
176
     1
 90
       50
176
     1
 62
   256
176
     0
 40
1.0
176
     0
 90
        2
176
     1
  1
strokes_ogs.tif
176
     1
290
     0
176
     1
 40
1.0
176
     1
 40
1.0
176
     1
  0
VISUALSTYLE
  5
9E
102
{ACAD_REACTORS
330
99
102
}
330
99
100
AcDbVisualStyle
  2
Basic
 70
     7
177
     3
291
     1
 70
    58
 90
        1
176
     1
 90
        0
176
     1
 90
        1
176
     1
 90
        0
176
     1
 40
0.6
176
     1
 40
30.0
176
     1
 62
     7
420
 16777215
176
     1
 90
        0
176
     1
 90
        4
176
     1
 62
     7
176
     1
 62
   257
176
     1
 90
        1
176
     1
 90
        1
176
     1
 40
1.0
176
     1
 90
        8
176
     1
 62
     7
176
     1
 40
1.0
176
     1
 90
        1
176
     1
 90
        6
176
     1
 90
        2
176
     1
 62
     7
176
     1
 90
        5
176
     1
 90
        0
176
     1
 90
        0
176
     1
290
     0
176
     1
 90
        1
176
     1
 40
0.0
176
     1
 90
        0
176
     1
290
     0
176
     1
290
     1
176
     1
290
     1
176
     1
290
     0
176
     1
290
     0
176
     1
290
     0
176
     1
290
     0
176
     1
290
     0
176
     1
290
     0
176
     1
 90
       50
176
     1
 40
0.0
176
     1
 40
1.0
176
     1
 90
        0
176
     1
 62
    18
420
        0
176
     1
 90
       50
176
     1
 90
        3
176
     1
 62
     5
420
      255
176
     1
290
     0
176
     1
 90
       50
176
     1
 90
       50
176
     1
 90
       50
176
     1
290
     0
176
     1
 90
       50
176
     1
 62
   256
176
     0
 40
1.0
176
     0
 90
        2
176
     1
  1
strokes_ogs.tif
176
     1
290
     0
176
     1
 40
1.0
176
     1
 40
1.0
176
     1
  0
VISUALSTYLE
  5
A5
102
{ACAD_REACTORS
330
99
102
}
330
99
100
AcDbVisualStyle
  2
Brighten
 70
    12
177
     3
291
     1
 70
    58
 90
        2
176
     1
 90
        2
176
     1
 90
        1
176
     1
 90
        0
176
     1
 40
0.6
176
     1
 40
30.0
176
     1
 62
     7
420
 16777215
176
     1
 90
        1
176
     1
 90
        4
176
     1
 62
     7
176
     1
 62
   257
176
     1
 90
        1
176
     1
 90
        1
176
     1
 40
1.0
176
     1
 90
        8
176
     1
 62
     7
176
     1
 40
1.0
176
     1
 90
        1
176
     1
 90
        6
176
     1
 90
        2
176
     1
 62
     7
176
     1
 90
        5
176
     1
 90
        0
176
     1
 90
        0
176
     1
290
     0
176
     1
 90
        1
176
     1
 40
50.0
176
     1
 90
        0
176
     1
290
     0
176
     1
290
     1
176
     1
290
     1
176
     1
290
     0
176
     1
290
     0
176
     1
290
     0
176
     1
290
     0
176
     1
290
     0
176
     1
290
     0
176
     1
 90
       50
176
     1
 40
0.0
176
     1
 40
1.0
176
     1
 90
        0
176
     1
 62
    18
420
        0
176
     1
 90
       50
176
     1
 90
        3
176
     1
 62
     5
420
      255
176
     1
290
     0
176
     1
 90
       50
176
     1
 90
       50
176
     1
 90
       50
176
     1
290
     0
176
     1
 90
       50
176
     1
 62
   256
176
     0
 40
1.0
176
     0
 90
        2
176
     1
  1
strokes_ogs.tif
176
     1
290
     0
176
     1
 40
1.0
176
     1
 40
1.0
176
     1
  0
VISUALSTYLE
  5
A9
102
{ACAD_REACTORS
330
99
102
}
330
99
100
AcDbVisualStyle
  2
ColorChange
 70
    16
177
     3
291
     1
 70
    58
 90
        2
176
     1
 90
        2
176
     1
 90
        3
176
     1
 90
        0
176
     1
 40
0.6
176
     1
 40
30.0
176
     1
 62
     8
420
  8421504
176
     1
 90
        1
176
     1
 90
        4
176
     1
 62
     7
176
     1
 62
   257
176
     1
 90
        1
176
     1
 90
        1
176
     1
 40
1.0
176
     1
 90
        8
176
     1
 62
     8
420
  8421504
176
     1
 40
1.0
176
     1
 90
        1
176
     1
 90
        6
176
     1
 90
        2
176
     1
 62
     7
176
     1
 90
        5
176
     1
 90
        0
176
     1
 90
        0
176
     1
290
     0
176
     1
 90
        1
176
     1
 40
0.0
176
     1
 90
        0
176
     1
290
     0
176
     1
290
     1
176
     1
290
     1
176
     1
290
     0
176
     1
290
     0
176
     1
290
     0
176
     1
290
     0
176
     1
290
     0
176
     1
290
     0
176
     1
 90
       50
176
     1
 40
0.0
176
     1
 40
1.0
176
     1
 90
        0
176
     1
 62
    18
420
        0
176
     1
 90
       50
176
     1
 90
        3
176
     1
 62
     5
420
      255
176
     1
290
     0
176
     1
 90
       50
176
     1
 90
       50
176
     1
 90
       50
176
     1
290
     0
176
     1
 90
       50
176
     1
 62
   256
176
     0
 40
1.0
176
     0
 90
        2
176
     1
  1
strokes_ogs.tif
176
     1
290
     0
176
     1
 40
1.0
176
     1
 40
1.0
176
     1
  0
VISUALSTYLE
  5
A2
102
{ACAD_REACTORS
330
99
102
}
330
99
100
AcDbVisualStyle
  2
Conceptual
 70
     9
177
     3
291
     0
 70
    58
 90
        3
176
     1
 90
        2
176
     1
 90
        1
176
     1
 90
        0
176
     1
 40
0.6
176
     1
 40
30.0
176
     1
 62
     7
420
 16777215
176
     1
 90
        2
176
     1
 90
        2
176
     1
 62
     7
176
     1
 62
   257
176
     1
 90
        1
176
     1
 90
        1
176
     1
 40
40.0
176
     1
 90
        8
176
     1
 62
     7
176
     1
 40
1.0
176
     1
 90
        1
176
     1
 90
        6
176
     1
 90
        2
176
     1
 62
     7
176
     1
 90
        3
176
     1
 90
        0
176
     1
 90
        0
176
     1
290
     0
176
     1
 90
        1
176
     1
 40
0.0
176
     1
 90
        0
176
     1
290
     0
176
     1
290
     1
176
     1
290
     1
176
     1
290
     0
176
     1
290
     0
176
     1
290
     0
176
     1
290
     0
176
     1
290
     0
176
     1
290
     0
176
     1
 90
       50
176
     1
 40
0.0
176
     1
 40
1.0
176
     1
 90
        0
176
     1
 62
    18
420
        0
176
     1
 90
       50
176
     1
 90
        3
176
     1
 62
     5
420
      255
176
     1
290
     0
176
     1
 90
       50
176
     1
 90
       50
176
     1
 90
       50
176
     1
290
     0
176
     1
 90
       50
176
     1
 62
   256
176
     0
 40
1.0
176
     0
 90
        2
176
     1
  1
strokes_ogs.tif
176
     1
290
     0
176
     1
 40
1.0
176
     1
 40
1.0
176
     1
  0
VISUALSTYLE
  5
A4
102
{ACAD_REACTORS
330
99
102
}
330
99
100
AcDbVisualStyle
  2
Dim
 70
    11
177
     3
291
     1
 70
    58
 90
        2
176
     1
 90
        2
176
     1
 90
        1
176
     1
 90
        0
176
     1
 40
0.6
176
     1
 40
30.0
176
     1
 62
     7
420
 16777215
176
     1
 90
        1
176
     1
 90
        4
176
     1
 62
     7
176
     1
 62
   257
176
     1
 90
        1
176
     1
 90
        1
176
     1
 40
1.0
176
     1
 90
        8
176
     1
 62
     7
176
     1
 40
1.0
176
     1
 90
        1
176
     1
 90
        6
176
     1
 90
        2
176
     1
 62
     7
176
     1
 90
        5
176
     1
 90
        0
176
     1
 90
        0
176
     1
290
     0
176
     1
 90
        1
176
     1
 40
-50.0
176
     1
 90
        0
176
     1
290
     0
176
     1
290
     1
176
     1
290
     1
176
     1
290
     0
176
     1
290
     0
176
     1
290
     0
176
     1
290
     0
176
     1
290
     0
176
     1
290
     0
176
     1
 90
       50
176
     1
 40
0.0
176
     1
 40
1.0
176
     1
 90
        0
176
     1
 62
    18
420
        0
176
     1
 90
       50
176
     1
 90
        3
176
     1
 62
     5
420
      255
176
     1
290
     0
176
     1
 90
       50
176
     1
 90
       50
176
     1
 90
       50
176
     1
290
     0
176
     1
 90
       50
176
     1
 62
   256
176
     0
 40
1.0
176
     0
 90
        2
176
     1
  1
strokes_ogs.tif
176
     1
290
     0
176
     1
 40
1.0
176
     1
 40
1.0
176
     1
  0
VISUALSTYLE
  5
175
102
{ACAD_REACTORS
330
99
102
}
330
99
100
AcDbVisualStyle
  2
EdgeColorOff
 70
    22
177
     3
291
     1
 70
    58
 90
        2
176
     0
 90
        2
176
     0
 90
        0
176
     0
 90
        0
176
     0
 40
0.6
176
     0
 40
30.0
176
     0
 62
     7
420
 16777215
176
     0
 90
        1
176
     0
 90
        4
176
     0
 62
     7
176
     0
 62
   257
176
     0
 90
        1
176
     0
 90
        1
176
     0
 40
1.0
176
     0
 90
        8
176
     2
 62
     7
176
     0
 40
1.0
176
     0
 90
        1
176
     0
 90
        6
176
     0
 90
        2
176
     0
 62
     7
176
     0
 90
        5
176
     0
 90
        0
176
     0
 90
        0
176
     0
290
     0
176
     0
 90
        1
176
     0
 40
0.0
176
     0
 90
        0
176
     0
290
     0
176
     1
290
     1
176
     1
290
     1
176
     1
290
     0
176
     1
290
     0
176
     1
290
     0
176
     1
290
     0
176
     1
290
     0
176
     1
290
     0
176
     1
 90
       50
176
     1
 40
0.0
176
     1
 40
1.0
176
     1
 90
        0
176
     1
 62
    18
420
        0
176
     1
 90
       50
176
     1
 90
        3
176
     1
 62
     5
420
      255
176
     1
290
     0
176
     1
 90
       50
176
     1
 90
       50
176
     1
 90
       50
176
     1
290
     0
176
     1
 90
       50
176
     1
 62
   256
176
     0
 40
1.0
176
     0
 90
        2
176
     1
  1
strokes_ogs.tif
176
     1
290
     0
176
     1
 40
1.0
176
     1
 40
1.0
176
     1
  0
VISUALSTYLE
  5
A8
102
{ACAD_REACTORS
330
99
102
}
330
99
100
AcDbVisualStyle
  2
Facepattern
 70
    15
177
     3
291
     1
 70
    58
 90
        2
176
     1
 90
        2
176
     1
 90
        1
176
     1
 90
        0
176
     1
 40
0.6
176
     1
 40
30.0
176
     1
 62
     7
420
 16777215
176
     1
 90
        1
176
     1
 90
        4
176
     1
 62
     7
176
     1
 62
   257
176
     1
 90
        1
176
     1
 90
        1
176
     1
 40
1.0
176
     1
 90
        8
176
     1
 62
     7
176
     1
 40
1.0
176
     1
 90
        1
176
     1
 90
        6
176
     1
 90
        2
176
     1
 62
     7
176
     1
 90
        5
176
     1
 90
        0
176
     1
 90
        0
176
     1
290
     0
176
     1
 90
        1
176
     1
 40
0.0
176
     1
 90
        0
176
     1
290
     0
176
     1
290
     1
176
     1
290
     1
176
     1
290
     0
176
     1
290
     0
176
     1
290
     0
176
     1
290
     0
176
     1
290
     0
176
     1
290
     0
176
     1
 90
       50
176
     1
 40
0.0
176
     1
 40
1.0
176
     1
 90
        0
176
     1
 62
    18
420
        0
176
     1
 90
       50
176
     1
 90
        3
176
     1
 62
     5
420
      255
176
     1
290
     0
176
     1
 90
       50
176
     1
 90
       50
176
     1
 90
       50
176
     1
290
     0
176
     1
 90
       50
176
     1
 62
   256
176
     0
 40
1.0
176
     0
 90
        2
176
     1
  1
strokes_ogs.tif
176
     1
290
     0
176
     1
 40
1.0
176
     1
 40
1.0
176
     1
  0
VISUALSTYLE
  5
9A
102
{ACAD_REACTORS
330
99
102
}
330
99
100
AcDbVisualStyle
  2
Flat
 70
     0
177
     3
291
     1
 70
    58
 90
        2
176
     1
 90
        1
176
     1
 90
        1
176
     1
 90
        2
176
     1
 40
0.6
176
     1
 40
30.0
176
     1
 62
     7
420
 16777215
176
     1
 90
        0
176
     1
 90
        0
176
     1
 62
     7
176
     1
 62
   257
176
     1
 90
        1
176
     1
 90
        1
176
     1
 40
1.0
176
     1
 90
        8
176
     1
 62
     7
176
     1
 40
1.0
176
     1
 90
        1
176
     1
 90
        6
176
     1
 90
        2
176
     1
 62
     7
176
     1
 90
        5
176
     1
 90
        0
176
     1
 90
        0
176
     1
290
     0
176
     1
 90
       13
176
     1
 40
0.0
176
     1
 90
        0
176
     1
290
     0
176
     1
290
     1
176
     1
290
     1
176
     1
290
     0
176
     1
290
     0
176
     1
290
     0
176
     1
290
     0
176
     1
290
     0
176
     1
290
     0
176
     1
 90
       50
176
     1
 40
0.0
176
     1
 40
1.0
176
     1
 90
        0
176
     1
 62
    18
420
        0
176
     1
 90
       50
176
     1
 90
        3
176
     1
 62
     5
420
      255
176
     1
290
     0
176
     1
 90
       50
176
     1
 90
       50
176
     1
 90
       50
176
     1
290
     0
176
     1
 90
       50
176
     1
 62
   256
176
     0
 40
1.0
176
     0
 90
        2
176
     1
  1
strokes_ogs.tif
176
     1
290
     0
176
     1
 40
1.0
176
     1
 40
1.0
176
     1
  0
VISUALSTYLE
  5
9B
102
{ACAD_REACTORS
330
99
102
}
330
99
100
AcDbVisualStyle
  2
FlatWithEdges
 70
     1
177
     3
291
     1
 70
    58
 90
        2
176
     1
 90
        1
176
     1
 90
        1
176
     1
 90
        2
176
     1
 40
0.6
176
     1
 40
30.0
176
     1
 62
     7
420
 16777215
176
     1
 90
        1
176
     1
 90
        0
176
     1
 62
     7
176
     1
 62
   257
176
     1
 90
        1
176
     1
 90
        1
176
     1
 40
1.0
176
     1
 90
        0
176
     1
 62
   257
176
     1
 40
1.0
176
     1
 90
        1
176
     1
 90
        6
176
     1
 90
        2
176
     1
 62
     7
176
     1
 90
        5
176
     1
 90
        0
176
     1
 90
        0
176
     1
290
     0
176
     1
 90
       13
176
     1
 40
0.0
176
     1
 90
        0
176
     1
290
     0
176
     1
290
     1
176
     1
290
     1
176
     1
290
     0
176
     1
290
     0
176
     1
290
     0
176
     1
290
     0
176
     1
290
     0
176
     1
290
     0
176
     1
 90
       50
176
     1
 40
0.0
176
     1
 40
1.0
176
     1
 90
        0
176
     1
 62
    18
420
        0
176
     1
 90
       50
176
     1
 90
        3
176
     1
 62
     5
420
      255
176
     1
290
     0
176
     1
 90
       50
176
     1
 90
       50
176
     1
 90
       50
176
     1
290
     0
176
     1
 90
       50
176
     1
 62
   256
176
     0
 40
1.0
176
     0
 90
        2
176
     1
  1
strokes_ogs.tif
176
     1
290
     0
176
     1
 40
1.0
176
     1
 40
1.0
176
     1
  0
VISUALSTYLE
  5
9C
102
{ACAD_REACTORS
330
99
102
}
330
99
100
AcDbVisualStyle
  2
Gouraud
 70
     2
177
     3
291
     1
 70
    58
 90
        2
176
     1
 90
        2
176
     1
 90
        1
176
     1
 90
        2
176
     1
 40
0.6
176
     1
 40
30.0
176
     1
 62
     7
420
 16777215
176
     1
 90
        0
176
     1
 90
        0
176
     1
 62
     7
176
     1
 62
   257
176
     1
 90
        1
176
     1
 90
        1
176
     1
 40
1.0
176
     1
 90
        0
176
     1
 62
     7
176
     1
 40
1.0
176
     1
 90
        1
176
     1
 90
        6
176
     1
 90
        2
176
     1
 62
     7
176
     1
 90
        5
176
     1
 90
        0
176
     1
 90
        0
176
     1
290
     0
176
     1
 90
       13
176
     1
 40
0.0
176
     1
 90
        0
176
     1
290
     0
176
     1
290
     1
176
     1
290
     1
176
     1
290
     0
176
     1
290
     0
176
     1
290
     0
176
     1
290
     0
176
     1
290
     0
176
     1
290
     0
176
     1
 90
       50
176
     1
 40
0.0
176
     1
 40
1.0
176
     1
 90
        0
176
     1
 62
    18
420
        0
176
     1
 90
       50
176
     1
 90
        3
176
     1
 62
     5
420
      255
176
     1
290
     0
176
     1
 90
       50
176
     1
 90
       50
176
     1
 90
       50
176
     1
290
     0
176
     1
 90
       50
176
     1
 62
   256
176
     0
 40
1.0
176
     0
 90
        2
176
     1
  1
strokes_ogs.tif
176
     1
290
     0
176
     1
 40
1.0
176
     1
 40
1.0
176
     1
  0
VISUALSTYLE
  5
9D
102
{ACAD_REACTORS
330
99
102
}
330
99
100
AcDbVisualStyle
  2
GouraudWithEdges
 70
     3
177
     3
291
     1
 70
    58
 90
        2
176
     1
 90
        2
176
     1
 90
        1
176
     1
 90
        2
176
     1
 40
0.6
176
     1
 40
30.0
176
     1
 62
     7
420
 16777215
176
     1
 90
        1
176
     1
 90
        0
176
     1
 62
     7
176
     1
 62
   257
176
     1
 90
        1
176
     1
 90
        1
176
     1
 40
1.0
176
     1
 90
        0
176
     1
 62
   257
176
     1
 40
1.0
176
     1
 90
        1
176
     1
 90
        6
176
     1
 90
        2
176
     1
 62
     7
176
     1
 90
        5
176
     1
 90
        0
176
     1
 90
        0
176
     1
290
     0
176
     1
 90
       13
176
     1
 40
0.0
176
     1
 90
        0
176
     1
290
     0
176
     1
290
     1
176
     1
290
     1
176
     1
290
     0
176
     1
290
     0
176
     1
290
     0
176
     1
290
     0
176
     1
290
     0
176
     1
290
     0
176
     1
 90
       50
176
     1
 40
0.0
176
     1
 40
1.0
176
     1
 90
        0
176
     1
 62
    18
420
        0
176
     1
 90
       50
176
     1
 90
        3
176
     1
 62
     5
420
      255
176
     1
290
     0
176
     1
 90
       50
176
     1
 90
       50
176
     1
 90
       50
176
     1
290
     0
176
     1
 90
       50
176
     1
 62
   256
176
     0
 40
1.0
176
     0
 90
        2
176
     1
  1
strokes_ogs.tif
176
     1
290
     0
176
     1
 40
1.0
176
     1
 40
1.0
176
     1
  0
VISUALSTYLE
  5
A1
102
{ACAD_REACTORS
330
99
102
}
330
99
100
AcDbVisualStyle
  2
Hidden
 70
     6
177
     3
291
     0
 70
    58
 90
        1
176
     1
 90
        2
176
     1
 90
        2
176
     1
 90
        0
176
     1
 40
0.6
176
     1
 40
30.0
176
     1
 62
     7
420
 16777215
176
     1
 90
        2
176
     1
 90
        2
176
     1
 62
     7
176
     1
 62
   257
176
     1
 90
        2
176
     1
 90
        1
176
     1
 40
40.0
176
     1
 90
        0
176
     1
 62
   257
176
     1
 40
1.0
176
     1
 90
        1
176
     1
 90
        6
176
     1
 90
        2
176
     1
 62
     7
176
     1
 90
        3
176
     1
 90
        0
176
     1
 90
        0
176
     1
290
     0
176
     1
 90
        1
176
     1
 40
0.0
176
     1
 90
        0
176
     1
290
     0
176
     1
290
     1
176
     1
290
     1
176
     1
290
     0
176
     1
290
     0
176
     1
290
     0
176
     1
290
     0
176
     1
290
     0
176
     1
290
     0
176
     1
 90
       50
176
     1
 40
0.0
176
     1
 40
1.0
176
     1
 90
        0
176
     1
 62
    18
420
        0
176
     1
 90
       50
176
     1
 90
        3
176
     1
 62
     5
420
      255
176
     1
290
     0
176
     1
 90
       50
176
     1
 90
       50
176
     1
 90
       50
176
     1
290
     0
176
     1
 90
       50
176
     1
 62
   256
176
     0
 40
1.0
176
     0
 90
        2
176
     1
  1
strokes_ogs.tif
176
     1
290
     0
176
     1
 40
1.0
176
     1
 40
1.0
176
     1
  0
VISUALSTYLE
  5
173
102
{ACAD_REACTORS
330
99
102
}
330
99
100
AcDbVisualStyle
  2
JitterOff
 70
    20
177
     3
291
     1
 70
    58
 90
        2
176
     0
 90
        2
176
     0
 90
        0
176
     0
 90
        0
176
     0
 40
0.6
176
     0
 40
30.0
176
     0
 62
     7
420
 16777215
176
     0
 90
        1
176
     0
 90
        4
176
     0
 62
     7
176
     0
 62
   257
176
     0
 90
        1
176
     0
 90
        1
176
     0
 40
1.0
176
     0
 90
       10
176
     2
 62
     7
176
     0
 40
1.0
176
     0
 90
        1
176
     0
 90
        6
176
     0
 90
        2
176
     0
 62
     7
176
     0
 90
        5
176
     0
 90
        0
176
     0
 90
        0
176
     0
290
     0
176
     0
 90
        1
176
     0
 40
0.0
176
     0
 90
        0
176
     0
290
     0
176
     1
290
     1
176
     1
290
     1
176
     1
290
     0
176
     1
290
     0
176
     1
290
     0
176
     1
290
     0
176
     1
290
     0
176
     1
290
     0
176
     1
 90
       50
176
     1
 40
0.0
176
     1
 40
1.0
176
     1
 90
        0
176
     1
 62
    18
420
        0
176
     1
 90
       50
176
     1
 90
        3
176
     1
 62
     5
420
      255
176
     1
290
     0
176
     1
 90
       50
176
     1
 90
       50
176
     1
 90
       50
176
     1
290
     0
176
     1
 90
       50
176
     1
 62
   256
176
     0
 40
1.0
176
     0
 90
        2
176
     1
  1
strokes_ogs.tif
176
     1
290
     0
176
     1
 40
1.0
176
     1
 40
1.0
176
     1
  0
VISUALSTYLE
  5
A7
102
{ACAD_REACTORS
330
99
102
}
330
99
100
AcDbVisualStyle
  2
Linepattern
 70
    14
177
     3
291
     1
 70
    58
 90
        2
176
     1
 90
        2
176
     1
 90
        1
176
     1
 90
        0
176
     1
 40
0.6
176
     1
 40
30.0
176
     1
 62
     7
420
 16777215
176
     1
 90
        1
176
     1
 90
        4
176
     1
 62
     7
176
     1
 62
   257
176
     1
 90
        7
176
     1
 90
        7
176
     1
 40
1.0
176
     1
 90
        8
176
     1
 62
     7
176
     1
 40
1.0
176
     1
 90
        1
176
     1
 90
        6
176
     1
 90
        2
176
     1
 62
     7
176
     1
 90
        5
176
     1
 90
        0
176
     1
 90
        0
176
     1
290
     0
176
     1
 90
        1
176
     1
 40
0.0
176
     1
 90
        0
176
     1
290
     0
176
     1
290
     1
176
     1
290
     1
176
     1
290
     0
176
     1
290
     0
176
     1
290
     0
176
     1
290
     0
176
     1
290
     0
176
     1
290
     0
176
     1
 90
       50
176
     1
 40
0.0
176
     1
 40
1.0
176
     1
 90
        0
176
     1
 62
    18
420
        0
176
     1
 90
       50
176
     1
 90
        3
176
     1
 62
     5
420
      255
176
     1
290
     0
176
     1
 90
       50
176
     1
 90
       50
176
     1
 90
       50
176
     1
290
     0
176
     1
 90
       50
176
     1
 62
   256
176
     0
 40
1.0
176
     0
 90
        2
176
     1
  1
strokes_ogs.tif
176
     1
290
     0
176
     1
 40
1.0
176
     1
 40
1.0
176
     1
  0
VISUALSTYLE
  5
174
102
{ACAD_REACTORS
330
99
102
}
330
99
100
AcDbVisualStyle
  2
OverhangOff
 70
    21
177
     3
291
     1
 70
    58
 90
        2
176
     0
 90
        2
176
     0
 90
        0
176
     0
 90
        0
176
     0
 40
0.6
176
     0
 40
30.0
176
     0
 62
     7
420
 16777215
176
     0
 90
        1
176
     0
 90
        4
176
     0
 62
     7
176
     0
 62
   257
176
     0
 90
        1
176
     0
 90
        1
176
     0
 40
1.0
176
     0
 90
        9
176
     2
 62
     7
176
     0
 40
1.0
176
     0
 90
        1
176
     0
 90
        6
176
     0
 90
        2
176
     0
 62
     7
176
     0
 90
        5
176
     0
 90
        0
176
     0
 90
        0
176
     0
290
     0
176
     0
 90
        1
176
     0
 40
0.0
176
     0
 90
        0
176
     0
290
     0
176
     1
290
     1
176
     1
290
     1
176
     1
290
     0
176
     1
290
     0
176
     1
290
     0
176
     1
290
     0
176
     1
290
     0
176
     1
290
     0
176
     1
 90
       50
176
     1
 40
0.0
176
     1
 40
1.0
176
     1
 90
        0
176
     1
 62
    18
420
        0
176
     1
 90
       50
176
     1
 90
        3
176
     1
 62
     5
420
      255
176
     1
290
     0
176
     1
 90
       50
176
     1
 90
       50
176
     1
 90
       50
176
     1
290
     0
176
     1
 90
       50
176
     1
 62
   256
176
     0
 40
1.0
176
     0
 90
        2
176
     1
  1
strokes_ogs.tif
176
     1
290
     0
176
     1
 40
1.0
176
     1
 40
1.0
176
     1
  0
VISUALSTYLE
  5
A3
102
{ACAD_REACTORS
330
99
102
}
330
99
100
AcDbVisualStyle
  2
Realistic
 70
     8
177
     3
291
     0
 70
    58
 90
        2
176
     1
 90
        2
176
     1
 90
        0
176
     1
 90
        2
176
     1
 40
0.6
176
     1
 40
30.0
176
     1
 62
     7
420
 16777215
176
     1
 90
        0
176
     1
 90
        0
176
     1
 62
     7
176
     1
 62
   257
176
     1
 90
        1
176
     1
 90
        1
176
     1
 40
1.0
176
     1
 90
        8
176
     1
 62
   257
176
     1
 40
1.0
176
     1
 90
        1
176
     1
 90
        6
176
     1
 90
        2
176
     1
 62
     7
176
     1
 90
        3
176
     1
 90
        0
176
     1
 90
        0
176
     1
290
     0
176
     1
 90
       13
176
     1
 40
0.0
176
     1
 90
        0
176
     1
290
     0
176
     1
290
     1
176
     1
290
     1
176
     1
290
     0
176
     1
290
     0
176
     1
290
     0
176
     1
290
     0
176
     1
290
     0
176
     1
290
     0
176
     1
 90
       50
176
     1
 40
0.0
176
     1
 40
1.0
176
     1
 90
        0
176
     1
 62
    18
420
        0
176
     1
 90
       50
176
     1
 90
        3
176
     1
 62
     5
420
      255
176
     1
290
     0
176
     1
 90
       50
176
     1
 90
       50
176
     1
 90
       50
176
     1
290
     0
176
     1
 90
       50
176
     1
 62
   256
176
     0
 40
1.0
176
     0
 90
        2
176
     1
  1
strokes_ogs.tif
176
     1
290
     0
176
     1
 40
1.0
176
     1
 40
1.0
176
     1
  0
VISUALSTYLE
  5
182
102
{ACAD_REACTORS
330
99
102
}
330
99
100
AcDbVisualStyle
  2
Shaded
 70
    27
177
     3
291
     0
 70
    58
 90
        2
176
     1
 90
        2
176
     1
 90
        1
176
     1
 90
        2
176
     1
 40
0.6
176
     1
 40
30.0
176
     1
 62
     7
420
 16777215
176
     1
 90
        0
176
     1
 90
        4
176
     1
 62
     7
176
     1
 62
   257
176
     1
 90
        1
176
     1
 90
        1
176
     1
 40
1.0
176
     1
 90
        8
176
     1
 62
   257
176
     1
 40
1.0
176
     1
 90
        1
176
     1
 90
        6
176
     1
 90
        2
176
     1
 62
     8
420
  7895160
176
     1
 90
        3
176
     1
 90
        0
176
     1
 90
        0
176
     1
290
     0
176
     1
 90
        5
176
     1
 40
0.0
176
     1
 90
        0
176
     1
290
     0
176
     1
290
     1
176
     1
290
     1
176
     1
290
     0
176
     1
290
     0
176
     1
290
     0
176
     1
290
     0
176
     1
290
     0
176
     1
290
     0
176
     1
 90
       50
176
     1
 40
0.0
176
     1
 40
1.0
176
     1
 90
        0
176
     1
 62
    18
420
        0
176
     1
 90
       50
176
     1
 90
        3
176
     1
 62
     5
420
      255
176
     1
290
     0
176
     1
 90
       50
176
     1
 90
       50
176
     1
 90
       50
176
     1
290
     0
176
     1
 90
       50
176
     1
 62
   256
176
     0
 40
1.0
176
     0
 90
        2
176
     1
  1
strokes_ogs.tif
176
     1
290
     0
176
     1
 40
1.0
176
     1
 40
1.0
176
     1
  0
VISUALSTYLE
  5
181
102
{ACAD_REACTORS
330
99
102
}
330
99
100
AcDbVisualStyle
  2
Shaded with edges
 70
    26
177
     3
291
     0
 70
    58
 90
        2
176
     1
 90
        2
176
     1
 90
        1
176
     1
 90
        2
176
     1
 40
0.6
176
     1
 40
30.0
176
     1
 62
     7
420
 16777215
176
     1
 90
        1
176
     1
 90
        2
176
     1
 62
     7
176
     1
 62
   257
176
     1
 90
        2
176
     1
 90
        1
176
     1
 40
1.0
176
     1
 90
        8
176
     1
 62
   257
176
     1
 40
1.0
176
     1
 90
        1
176
     1
 90
        6
176
     1
 90
        2
176
     1
 62
     7
176
     1
 90
        3
176
     1
 90
        0
176
     1
 90
        0
176
     1
290
     0
176
     1
 90
        5
176
     1
 40
0.0
176
     1
 90
        0
176
     1
290
     0
176
     1
290
     1
176
     1
290
     1
176
     1
290
     0
176
     1
290
     0
176
     1
290
     0
176
     1
290
     0
176
     1
290
     0
176
     1
290
     0
176
     1
 90
       50
176
     1
 40
0.0
176
     1
 40
1.0
176
     1
 90
        0
176
     1
 62
    18
420
        0
176
     1
 90
       50
176
     1
 90
        3
176
     1
 62
     5
420
      255
176
     1
290
     0
176
     1
 90
       50
176
     1
 90
       50
176
     1
 90
       50
176
     1
290
     0
176
     1
 90
       50
176
     1
 62
   256
176
     0
 40
1.0
176
     0
 90
        2
176
     1
  1
strokes_ogs.tif
176
     1
290
     0
176
     1
 40
1.0
176
     1
 40
1.0
176
     1
  0
VISUALSTYLE
  5
17E
102
{ACAD_REACTORS
330
99
102
}
330
99
100
AcDbVisualStyle
  2
Shades of Gray
 70
    23
177
     3
291
     0
 70
    58
 90
        2
176
     1
 90
        2
176
     1
 90
        3
176
     1
 90
        0
176
     1
 40
0.6
176
     1
 40
30.0
176
     1
 62
     7
420
 16777215
176
     1
 90
        2
176
     1
 90
        2
176
     1
 62
     7
176
     1
 62
     7
176
     1
 90
        1
176
     1
 90
        1
176
     1
 40
40.0
176
     1
 90
        8
176
     1
 62
     7
176
     1
 40
1.0
176
     1
 90
        1
176
     1
 90
        6
176
     1
 90
        2
176
     1
 62
     7
176
     1
 90
        3
176
     1
 90
        0
176
     1
 90
        0
176
     1
290
     0
176
     1
 90
        1
176
     1
 40
0.0
176
     1
 90
        0
176
     1
290
     0
176
     1
290
     1
176
     1
290
     1
176
     1
290
     0
176
     1
290
     0
176
     1
290
     0
176
     1
290
     0
176
     1
290
     0
176
     1
290
     0
176
     1
 90
       50
176
     1
 40
0.0
176
     1
 40
1.0
176
     1
 90
        0
176
     1
 62
    18
420
        0
176
     1
 90
       50
176
     1
 90
        3
176
     1
 62
     5
420
      255
176
     1
290
     0
176
     1
 90
       50
176
     1
 90
       50
176
     1
 90
       50
176
     1
290
     0
176
     1
 90
       50
176
     1
 62
   256
176
     0
 40
1.0
176
     0
 90
        2
176
     1
  1
strokes_ogs.tif
176
     1
290
     0
176
     1
 40
1.0
176
     1
 40
1.0
176
     1
  0
VISUALSTYLE
  5
17F
102
{ACAD_REACTORS
330
99
102
}
330
99
100
AcDbVisualStyle
  2
Sketchy
 70
    24
177
     3
291
     0
 70
    58
 90
        1
176
     1
 90
        2
176
     1
 90
        2
176
     1
 90
        0
176
     1
 40
0.6
176
     1
 40
30.0
176
     1
 62
     7
420
 16777215
176
     1
 90
        2
176
     1
 90
        2
176
     1
 62
     7
176
     1
 62
     7
176
     1
 90
        1
176
     1
 90
        1
176
     1
 40
40.0
176
     1
 90
       11
176
     1
 62
     7
176
     1
 40
1.0
176
     1
 90
        1
176
     1
 90
        6
176
     1
 90
        2
176
     1
 62
     7
176
     1
 90
        6
176
     1
 90
        0
176
     1
 90
        0
176
     1
290
     0
176
     1
 90
        1
176
     1
 40
0.0
176
     1
 90
        0
176
     1
290
     0
176
     1
290
     1
176
     1
290
     1
176
     1
290
     0
176
     1
290
     0
176
     1
290
     0
176
     1
290
     0
176
     1
290
     0
176
     1
290
     0
176
     1
 90
       50
176
     1
 40
0.0
176
     1
 40
1.0
176
     1
 90
        0
176
     1
 62
    18
420
        0
176
     1
 90
       50
176
     1
 90
        3
176
     1
 62
     5
420
      255
176
     1
290
     0
176
     1
 90
       50
176
     1
 90
       50
176
     1
 90
       50
176
     1
290
     0
176
     1
 90
       50
176
     1
 62
   256
176
     0
 40
1.0
176
     0
 90
        2
176
     1
  1
strokes_ogs.tif
176
     1
290
     0
176
     1
 40
1.0
176
     1
 40
1.0
176
     1
  0
VISUALSTYLE
  5
A6
102
{ACAD_REACTORS
330
99
102
}
330
99
100
AcDbVisualStyle
  2
Thicken
 70
    13
177
     3
291
     1
 70
    58
 90
        2
176
     1
 90
        2
176
     1
 90
        1
176
     1
 90
        0
176
     1
 40
0.6
176
     1
 40
30.0
176
     1
 62
     7
420
 16777215
176
     1
 90
        1
176
     1
 90
        4
176
     1
 62
     7
176
     1
 62
   257
176
     1
 90
        1
176
     1
 90
        1
176
     1
 40
1.0
176
     1
 90
       12
176
     1
 62
     7
176
     1
 40
1.0
176
     1
 90
        1
176
     1
 90
        6
176
     1
 90
        2
176
     1
 62
     7
176
     1
 90
        5
176
     1
 90
        0
176
     1
 90
        0
176
     1
290
     0
176
     1
 90
        1
176
     1
 40
0.0
176
     1
 90
        0
176
     1
290
     0
176
     1
290
     1
176
     1
290
     1
176
     1
290
     0
176
     1
290
     0
176
     1
290
     0
176
     1
290
     0
176
     1
290
     0
176
     1
290
     0
176
     1
 90
       50
176
     1
 40
0.0
176
     1
 40
1.0
176
     1
 90
        0
176
     1
 62
    18
420
        0
176
     1
 90
       50
176
     1
 90
        3
176
     1
 62
     5
420
      255
176
     1
290
     0
176
     1
 90
       50
176
     1
 90
       50
176
     1
 90
       50
176
     1
290
     0
176
     1
 90
       50
176
     1
 62
   256
176
     0
 40
1.0
176
     0
 90
        2
176
     1
  1
strokes_ogs.tif
176
     1
290
     0
176
     1
 40
1.0
176
     1
 40
1.0
176
     1
  0
VISUALSTYLE
  5
A0
102
{ACAD_REACTORS
330
99
102
}
330
99
100
AcDbVisualStyle
  2
Wireframe
 70
     5
177
     3
291
     0
 70
    58
 90
        0
176
     1
 90
        2
176
     1
 90
        0
176
     1
 90
        0
176
     1
 40
0.6
176
     1
 40
30.0
176
     1
 62
     7
420
 16777215
176
     1
 90
        1
176
     1
 90
        4
176
     1
 62
     7
176
     1
 62
   257
176
     1
 90
        1
176
     1
 90
        1
176
     1
 40
1.0
176
     1
 90
        0
176
     1
 62
   257
176
     1
 40
1.0
176
     1
 90
        1
176
     1
 90
        6
176
     1
 90
        2
176
     1
 62
     7
176
     1
 90
        3
176
     1
 90
        0
176
     1
 90
        0
176
     1
290
     0
176
     1
 90
        1
176
     1
 40
0.0
176
     1
 90
        0
176
     1
290
     0
176
     1
290
     1
176
     1
290
     1
176
     1
290
     0
176
     1
290
     0
176
     1
290
     0
176
     1
290
     0
176
     1
290
     0
176
     1
290
     0
176
     1
 90
       50
176
     1
 40
0.0
176
     1
 40
1.0
176
     1
 90
        0
176
     1
 62
    18
420
        0
176
     1
 90
       50
176
     1
 90
        3
176
     1
 62
     5
420
      255
176
     1
290
     0
176
     1
 90
       50
176
     1
 90
       50
176
     1
 90
       50
176
     1
290
     0
176
     1
 90
       50
176
     1
 62
   256
176
     0
 40
1.0
176
     0
 90
        2
176
     1
  1
strokes_ogs.tif
176
     1
290
     0
176
     1
 40
1.0
176
     1
 40
1.0
176
     1
  0
VISUALSTYLE
  5
180
102
{ACAD_REACTORS
330
99
102
}
330
99
100
AcDbVisualStyle
  2
X-Ray
 70
    25
177
     3
291
     0
 70
    58
 90
        2
176
     1
 90
        2
176
     1
 90
        1
176
     1
 90
        1
176
     1
 40
0.5
176
     1
 40
30.0
176
     1
 62
     7
420
 16777215
176
     1
 90
        1
176
     1
 90
        0
176
     1
 62
     7
176
     1
 62
   257
176
     1
 90
        1
176
     1
 90
        1
176
     1
 40
1.0
176
     1
 90
        8
176
     1
 62
     7
176
     1
 40
1.0
176
     1
 90
        1
176
     1
 90
        6
176
     1
 90
        2
176
     1
 62
     7
176
     1
 90
        3
176
     1
 90
        0
176
     1
 90
        0
176
     1
290
     0
176
     1
 90
       13
176
     1
 40
0.0
176
     1
 90
        0
176
     1
290
     0
176
     1
290
     1
176
     1
290
     1
176
     1
290
     0
176
     1
290
     0
176
     1
290
     0
176
     1
290
     0
176
     1
290
     0
176
     1
290
     0
176
     1
 90
       50
176
     1
 40
0.0
176
     1
 40
1.0
176
     1
 90
        0
176
     1
 62
    18
420
        0
176
     1
 90
       50
176
     1
 90
        3
176
     1
 62
     5
420
      255
176
     1
290
     0
176
     1
 90
       50
176
     1
 90
       50
176
     1
 90
       50
176
     1
290
     0
176
     1
 90
       50
176
     1
 62
   256
176
     0
 40
1.0
176
     0
 90
        2
176
     1
  1
strokes_ogs.tif
176
     1
290
     0
176
     1
 40
1.0
176
     1
 40
1.0
176
     1
  0
DICTIONARYVAR
  5
4A0D6
102
{ACAD_REACTORS
330
4A0D5
102
}
330
4A0D5
100
DictionaryVariables
280
     0
  1
2
  0
DICTIONARYVAR
  5
4A0D7
102
{ACAD_REACTORS
330
4A0D5
102
}
330
4A0D5
100
DictionaryVariables
280
     0
  1
400.000000
  0
DICTIONARYVAR
  5
4A0D8
102
{ACAD_REACTORS
330
4A0D5
102
}
330
4A0D5
100
DictionaryVariables
280
     0
  1
1
  0
DICTIONARYVAR
  5
4A0D9
102
{ACAD_REACTORS
330
4A0D5
102
}
330
4A0D5
100
DictionaryVariables
280
     0
  1
1:1
  0
DICTIONARYVAR
  5
4A0DA
102
{ACAD_REACTORS
330
4A0D5
102
}
330
4A0D5
100
DictionaryVariables
280
     0
  1
STANDARD
  0
DICTIONARYVAR
  5
4A0DB
102
{ACAD_REACTORS
330
4A0D5
102
}
330
4A0D5
100
DictionaryVariables
280
     0
  1
STANDARD
  0
DICTIONARYVAR
  5
4A0DC
102
{ACAD_REACTORS
330
4A0D5
102
}
330
4A0D5
100
DictionaryVariables
280
     0
  1
Imperial24
  0
DICTIONARYVAR
  5
4A0DD
102
{ACAD_REACTORS
330
4A0D5
102
}
330
4A0D5
100
DictionaryVariables
280
     0
  1
Imperial24
  0
DICTIONARYVAR
  5
4A0DE
102
{ACAD_REACTORS
330
4A0D5
102
}
330
4A0D5
100
DictionaryVariables
280
     0
  1
-1
  0
DICTIONARYVAR
  5
4A0DF
102
{ACAD_REACTORS
330
4A0D5
102
}
330
4A0D5
100
DictionaryVariables
280
     0
  1
1
  0
DICTIONARYVAR
  5
4A0E0
102
{ACAD_REACTORS
330
4A0D5
102
}
330
4A0D5
100
DictionaryVariables
280
     0
  1
2
  0
DICTIONARYVAR
  5
4A0E1
102
{ACAD_REACTORS
330
4A0D5
102
}
330
4A0D5
100
DictionaryVariables
280
     0
  1
0
  0
DICTIONARYVAR
  5
4A0E2
102
{ACAD_REACTORS
330
4A0D5
102
}
330
4A0D5
100
DictionaryVariables
280
     0
  1
4
  0
DICTIONARYVAR
  5
4A0E3
102
{ACAD_REACTORS
330
4A0D5
102
}
330
4A0D5
100
DictionaryVariables
280
     0
  1
V-Construction
  0
DICTIONARYVAR
  5
4A0E4
102
{ACAD_REACTORS
330
4A0D5
102
}
330
4A0D5
100
DictionaryVariables
280
     0
  1
ByLayer
  0
DICTIONARYVAR
  5
4A0E5
102
{ACAD_REACTORS
330
4A0D5
102
}
330
4A0D5
100
DictionaryVariables
280
     0
  1
0
  0
DICTIONARYVAR
  5
4A0E6
102
{ACAD_REACTORS
330
4A0D5
102
}
330
4A0D5
100
DictionaryVariables
280
     0
  1
0
  0
DICTIONARYVAR
  5
4A0E7
102
{ACAD_REACTORS
330
4A0D5
102
}
330
4A0D5
100
DictionaryVariables
280
     0
  1
0
  0
DICTIONARYVAR
  5
4A0E8
102
{ACAD_REACTORS
330
4A0D5
102
}
330
4A0D5
100
DictionaryVariables
280
     0
  1
2
  0
DICTIONARYVAR
  5
4A0E9
102
{ACAD_REACTORS
330
4A0D5
102
}
330
4A0D5
100
DictionaryVariables
280
     0
  1
1.000000
  0
DICTIONARYVAR
  5
4A0EA
102
{ACAD_REACTORS
330
4A0D5
102
}
330
4A0D5
100
DictionaryVariables
280
     0
  1
1
  0
DICTIONARYVAR
  5
4A0EB
102
{ACAD_REACTORS
330
4A0D5
102
}
330
4A0D5
100
DictionaryVariables
280
     0
  1
1.000000
  0
DICTIONARYVAR
  5
4A0EC
102
{ACAD_REACTORS
330
4A0D5
102
}
330
4A0D5
100
DictionaryVariables
280
     0
  1
1
  0
DICTIONARYVAR
  5
4A0ED
102
{ACAD_REACTORS
330
4A0D5
102
}
330
4A0D5
100
DictionaryVariables
280
     0
  1
0
  0
DICTIONARYVAR
  5
4A0EE
102
{ACAD_REACTORS
330
4A0D5
102
}
330
4A0D5
100
DictionaryVariables
280
     0
  1

  0
DICTIONARYVAR
  5
4A0EF
102
{ACAD_REACTORS
330
4A0D5
102
}
330
4A0D5
100
DictionaryVariables
280
     0
  1
0
  0
DICTIONARYVAR
  5
4A0F0
102
{ACAD_REACTORS
330
4A0D5
102
}
330
4A0D5
100
DictionaryVariables
280
     0
  1
127
  0
DICTIONARY
  5
194
330
22
100
AcDbDictionary
280
     1
281
     1
  0
DICTIONARY
  5
188
330
97
100
AcDbDictionary
280
     1
281
     1
  3
FBXASSET
360
189
  0
DICTIONARY
  5
186
330
96
100
AcDbDictionary
280
     1
281
     1
  3
FBXASSET
360
187
  0
DICTIONARY
  5
110
330
98
100
AcDbDictionary
280
     1
281
     1
  3
BUMPTILE
360
112
  3
DIFFUSETILE
360
111
  3
FBXASSET
360
18A
  3
OPACITYTILE
360
113
  3
REFLECTIONTILE
360
114
  0
DICTIONARY
  5
104
330
87
100
AcDbDictionary
280
     1
281
     1
  3
ACAD_ROUNDTRIP_2008_TABLESTYLE_CELLSTYLEMAP
360
6B280
  0
XRECORD
  5
189
102
{ACAD_REACTORS
330
188
102
}
330
188
100
AcDbXrecord
280
     1
 70
     1
 90
429727718
  1
508B35C9-AEE7-456F-BE74-D52651303AC6
310
504B03040A0000080000B670623B3DEE336E79000000790000001B0000006175746F6465736B2D64657369676E2D7061636B6167652E786D6C3C3F786D6C2076657273696F6E3D22312E302220656E636F64696E673D227574662D3822203F3E3C666F726D6174733E3C666F726D61743E687474703A2F2F736368656D612E
310
6175746F6465736B2E636F6D2F64657369676E2D7061636B6167652F323030393C2F666F726D61743E3C2F666F726D6174733E504B0304140006080800B670623BD486FD9CA0000000F4000000130000005B436F6E74656E745F54797065735D2E786D6C7D8EC10E82300C865F65E91D8A1E8C310C0EEA1BF002731658846E
310
D98AC1B77784ABF1D8FE5FBFBF75BBCE937A534CCEB38643598122B6FEE978D0B0485F9C41B54DDD7D022595594E1A469170414C76A4D9A4D207E29CF43ECE46F218070CC6BECC4078ACAA135ACF422C856C0E68EA1BF5669944DDD7BCDE7B1F8E415D77AECB980613C2E4AC91FC167A2B244592486606FC29C8FD7F045B9A
310
EF7053A7E60B504B0304140006080800B670623B28ED286BEB0000007C01000008000000636F72652E786D6C8D90416EC3201045AF82665B6183218D6D61A254764FD00B204C5C94182C03558F5F9C3852BBEB6A467FFE9B197D71FA9E6FE8CBACC17AD7012D0820E3B41FAD9B3A48F1826B40272956EFE32F1B20A766D3C1
310
268314D3EAD3B24BDABB685CCCAAF3A3D94515828980F42D371D04FD696655A814B3235C8B45E9AB9A4C419F5D8653B2237A1CB163DE672FD6AC209BF3C08E0D1B30EB19C3FC9D72FCC6EB231EFA33EDE96BDD341517E5064B11EDFCBCAF57A3A2194156843498524CAA0FCA5B7268F9E185D42D21A2DCEC7FA0B48CFF8492
310
759155FBBB0F2C80A4F991FB408A72CB22977B50B96EB9C91F504B0304140006080800B670623B55019EA25F0000007C00000007000000636E782E786D6C4DCB3B0E80201045D1AD90E915ED2CF8AC45050C11660C8261F98AB1B07AC9C97D42D718D865D3E909258CFD00CCE24AC6E326A164D74DC0B4128928FF32603847
310
2BA13128B1252AC747C6BAB984FC68F0B87FE8960A5C09FE86CFB69FBA01504B0304140006080800B670623B7BC41AC871010000D40300000C0000006662782F636F72652E786D6CC553ED6E8320147D15C2DF4501B56B6D90A64BBB27D80B50A5CE54C120983EFEAE1F4DD7A56BBA5FF3879273EEE59E7310BE393735EA95
310
ED2AA333CC428A91D2B9292A5D66D8BB63B0C26823B835C67D2BC348CB46657880B1E0A535BE9DA1DC68A7B403549B42CDA0EC3AE530CA6B5864B8CB3F552343E91D5474A7B095F949962A6421D0502778E72C0840D390E18DC5F170E664C205F7BE2A66B62A605A75AC94C522DDEEE3651AEF837817C741F2CE92E02D592D
310
83FD6ECB76EC7595A651C2C9D02CB8AB9A8BBADC2AE954814544691A3016D0E883256BBA58278B17BA5A53CAC9507ED3E4DBE2C9265F691747B3DCA9ADC382819091F8E1162272A8933DE82182932144F88C09DF060D8140C84E1EEA8B8F1340BDCA9DB1093085F157AA97B557309586747CD0EF0B4EA64E983A6E0EAEEFCE
310
889E9EF17847386AA94B30211D2C0FDE0D3AF9A4610EAD5536E8DD1969631B593F67E381C33F5157F17725E5A636F6BF1491F980C8FC7B90E13E8A2F504B0304140006080800B670623B70102A487D0000009D0000000B0000006662782F636E782E786D6C4DCCD10A83201886E15B91FFDC95A5C30335ACCDFB886521330D
310
A76397BF1A1DECE883878F57749FD5A3B74D2F17830472A901D9F088930B8B849267CC01754AA418F3DF0D5018572BE160506249B16C274D761E8BCFBB7A179E27F65CB39A0F14D396184C9921B81F34C3ACA1B4B99ABB6E6F062A25AA5F69DF23ACBE504B0304140006080800B670623B3610CA3329010000120200003100
310
00006662782F42384135303843342D343331462D343546312D424341352D3532343432364645413344462F636F72652E786D6C8D515B6EC32010BC0AE22B55850D0E446E848992B43E412FE000495162B07854397EA176A4F62F3F2C9A9D991D58BEBB8F37F0AD7D30CE76905418026DA553C65E3A98E219B510EC04F7CEC5
310
3F3408EC30EA0E16180A7EF12E4D0B249D8DDAC68C5AA7F4020E21E80881BCE54B0783FCD2E3500D296646B856D320AFC34557A4CAEDCC133C449F0380794839A138B47B86DB2345744D7A44594FD0E1B867883594369BFE63BF7EEF793D0B054FC9A8456E548E63CE46FB674D8A58F068C6477CE9F510B582A2C1F80D1182
310
70F349E816B32D65AFB8DD62CCEB42FF274A937A52948C8DEB66893BCB021484D7734370E5D2E9F608A3EF93F3119479ABA0E50B14B8C298119A43CCC4FCFCECB8A18B6388CEE7EF5D5D4F994BD86CBBA182D76543B9FCAE2FD7B24DF103504B0304140006080800B670623B1B8617914E0100003303000030000000666278
310
2F42384135303843342D343331462D343546312D424341352D3532343432364645413344462F636E782E786D6CD593C16EC32010447F0571AD6CE3D489D20813A9877E410FBD62D82434182CC055F3F75D1292E692438FBD206B7698593D61BEFD1E2DF982108D773D6D6B460938E5B571FB9ECE6957AD29D90A1EBC4F7736
310
4A9C1CA1A759A682EF839FA72269D8C9D92654AD71C72206887E0E0A22CAF926B15E498B01E0AA19451807D01A34B919F16B070157417138917400F2F6FA41FCF0092A45DEE414C19BDC21783E4BD39D891265658C3D8DEA00A3ACE59CBC8678ACB54CB26EEB6BD7839D7E9348BE70AD9C8321B9BCA7F9A4A26C542347DEE0
310
50F09802D22BA6749A800A394DD62899107273365E3C82CFC6A55557BC06C10774B7ABE7AEC3B0F34CF06446280E154026D0542C187BA9DAB6628BF7B6DBB0E5A65B3EB1F58631DE64BBE083F7B65CC218087E22CABB042E51D1F2268F1FE12B3EA24D40D63E9CFE00120194D60B9D5BC67FE6D39CDF37E20AF817881F504B
310
0304140006080800B670623BBFEF2E3B690500003C100000340000006662782F42384135303843342D343331462D343546312D424341352D3532343432364645413344462F6F626A656374732E786D6CAD575D739B3814FD2B0CFB0C98D84E931D4227B6938EA793B6534F3BFB90198F0099B001899144EAECAFDF231018B0
310
D37A3FFC609090EEE7B94757C1FB7D915B2F54C88CB31BDB7727B64559CC938CA53776A576CE956DBD0F03C1B9EA2DB32D460A7A63EB693B0C52C1ABD24C257447AA5C8D66EF177F5832A68CDA569C13296F6C193FD182B8A4523CA1F2D94D88226EBADBBBBEDB2C1C8A4D05299F46424B222853B014F30C52ACC6287F389C
310
D85E1878FA7B18E87FB36AFAF62AAFF667A83F635211161F291B8999FAB3D5DDC5FCDA99CF6653677679E13B8BFBC5CAF1DF4D27CBCBE5F2FAF6EE1A8AA51290642C117467871F101B91C581D77CEA2C36869F3229E68CD1B8F61F1ED6361B89092D294B90C78C4A68EB793D190E7D1D9BDEE7A91E1B95FDE9F3BCEAEFE809
310
6A6D6F9F7D4B79F4275C90E7A04248AA51D5C4C738DAE06F72885AC4796EBE65D22A88A22223B995679120E2D50EB1542F098381188D4EA111AE3DB043FF20AF6F2B4AE3D7D83D65E5AECA730D4D3BAC91BD05FEA992B565D95F549CD6069B90AB2A63EACA38A45E4B6A87D781574F86817E4C2FCCC72690D62E2729520E37
310
9BAF234797BAF6D62B3BFC781FED37BA1E4F2B2F052FA9501A3E80569BB8F6A9A364D4FA67654E6F803383981F82F21591FF84F23D9882BC896C3FDBCF8C162508933B2E0AE4C69DD43F6BD2BE38DDDBF10BF86CB4FA784D37F3AF16075E67EC9030DECA1FC0A55373F5DFF3378C591FA9BDF485C10B0A8C8BA909E5262639
310
A8E72163488806A595734C81CB77D1DE0ED7604A303B76913CEC0272F412782FF88EFF4636D8AA56DF7B322474C4B767303F625997056C7B032C473C592B36CEBD15F3F9FF5233B7ABCDC74D257624A60F8658567497B14CE1EC3C80B76FD02011038F9EE9EB0F2E12387A9C844D3F09855125116D1D731DF8B43D2CF4E0A0
310
79A020C6BE946BCE0B7EA1E1219331CD73C228AF5A2DDD31A4B1DA918CE91350854D40A71723140BFA92E94E62B0626016CEFA5864A50E5977E8753CEDBEE1CBB7F52780D20E17AF0BA0F5F9B02A3AD07DCC732EB6D1EBB661421BE0C39E21BABF0FE16D22EA6929407C8DE596724C88B749B6DB5512BC7B228ADFD7CB7EA6
310
3A22397E690BA8D5D8D4E40CEC8CDA23C2C0B7D5898640101CEC9C6D331CE328CB93CAFBBAC70A642DF70DF95155945B52F08AA973C23469FD69ADEF84F7BB18F983A8F8C90E37F5D35980B2139A1C523540813E824EF83448CF7C72B598CE97D7CEEDDDDD3B6736BFBC771677EF66CE6A7E7139F7A793E9EDF2B2B3A8B624
310
0CDA13AA5F8388264EC4A0129909F3B7F5A16CEDF08128E97D680ACA4B9BE7B7B58BB638F0B00700EF36AE8B32A705658A68F83EE897FC2B41573190D1CCAF0B92D233A47CFEB019D9809933F67DD1A5467F8CF69AD9A5AE859342D45355448C64F968A371DC2D596ADC6E43D93D1B466F877A64E2893E54F23C4B40388995
310
525E5005DA3983ED45412510D3EFCA13737B3863F74BD30F2A12E5B4B5E489A025CE25500DB855B11ACE5BBFA185D35DD48D8DC3CE7DC69F2944DB42AA6F6CF09BCA622ADD08C7A36E7C6AE18000BAB08E040135C2D21C9D75B3A91B77BB746C403F38018DFE6EC939DD92F16B40BC05294B9CDA035AAD6D330AE27FE4786B
310
8E45145EA34A75BE1C263A676A35A8ACC6297337400BF16C54EF515F3F77CB77EB3583889C754FFA29081AA98E2222ADEF05DA3E63D2EDEA8B8756C05A7FB6CABC4A91CBF325398202CC952E70A008A830324BA200D5E5EF8F5F04C75DB4B0EE3340E071C98B823333B83577596BF3849B69F2085AA0FAFA212F26BEFF5877
310
FDE622B28D88A42E49E43326DA82D31E8CB006401E1DA726059ECEC168F97A6599036306A135688F9AD2E61A6EA178F4CD51974A9F2CCB9F36FE5EBD14601068D9C3BF01504B0304140006080000B670623B000000000000000000000000350000006662782F42384135303843342D343331462D343546312D424341352D35
310
32343432364645413344462F76657274696365732E62696E504B0304140006080800B670623BF270F1330600000004000000360000006662782F42384135303843342D343331462D343546312D424341352D3532343432364645413344462F747269616E676C65732E62696E636660600000504B0304140006080000B67062
310
3B000000000000000000000000370000006662782F42384135303843342D343331462D343546312D424341352D3532343432364645413344462F617474726962757465732E62696E504B0304140006080800B670623B08DA0BD19000000041010000360000006662782F42384135303843342D343331462D343546312D4243
310
41352D3532343432364645413344462F6469726563746F72792E786D6C858F410AC3201045AF22B36F53E9A60B35CBEEBAE80D244E44489C6234F4F835464A48035D0DF398FF9F8AF63D0E6CC63039F212F8F9020C7D47C6792B21C5FE7403D62A1188E2E60C98D7234A5830286103A55745067B9D86B8A3CF9C7F90C11DE6
310
07FB144396D7B6A82D282E9A152AD114D5EF2CB866EEE831B8EEA07A7BB5A8D7D61A2BAAEB7FD5F70921FF497D00504B0304140006080800B670623B3B4606F3FE000000A00100003B0000006662782F42384135303843342D343331462D343546312D424341352D3532343432364645413344462F7265736F75726365732F
310
636F72652E786D6C8D504B6E833010BD0A9A6D65B08134808CA354A427E8052C332156828DFCA97AFC9A40A576D7CDCCE87D344F8F9FBEE647F689CE6B6B7A6039850C8DB2A336530F315C4903D94970676DF82583CCC8197B5861107C72362E3BA4AC096842428D1D7107A5F71820538F74F4E0D50D6799CB1892C2DFF345
310
AABB9C306779A2934E701F5C0A906D4FD609C2A1B7D129F4BCD858C163D4E3AED163FAA9AF1A1D88F67CA98E6D35906AA82A52BFB39ABCD5CD915C86331BD86BD3B665CD8BD52C78D0F34F46E550061C419494B6843142CB0F5677F4D0D58717DA7494F26295FF31C565FCA7296A13AA728FBBD93C0896823C09C18BB5AFB4
310
9E65A6BD762BBE01504B010214000A0000080000B670623B3DEE336E79000000790000001B00000000000000000000000000000000006175746F6465736B2D64657369676E2D7061636B6167652E786D6C504B01021400140006080800B670623BD486FD9CA0000000F40000001300000000000000000000000000B2000000
310
5B436F6E74656E745F54797065735D2E786D6C504B01021400140006080800B670623B28ED286BEB0000007C010000080000000000000000000000000083010000636F72652E786D6C504B01021400140006080800B670623B55019EA25F0000007C000000070000000000000000000000000094020000636E782E786D6C50
310
4B01021400140006080800B670623B7BC41AC871010000D40300000C00000000000000000000000000180300006662782F636F72652E786D6C504B01021400140006080800B670623B70102A487D0000009D0000000B00000000000000000000000000B30400006662782F636E782E786D6C504B01021400140006080800B6
310
70623B3610CA3329010000120200003100000000000000000000000000590500006662782F42384135303843342D343331462D343546312D424341352D3532343432364645413344462F636F72652E786D6C504B01021400140006080800B670623B1B8617914E010000330300003000000000000000000000000000D10600
310
006662782F42384135303843342D343331462D343546312D424341352D3532343432364645413344462F636E782E786D6C504B01021400140006080800B670623BBFEF2E3B690500003C10000034000000000000000000000000006D0800006662782F42384135303843342D343331462D343546312D424341352D35323434
310
32364645413344462F6F626A656374732E786D6C504B01021400140006080000B670623B0000000000000000000000003500000000000000000000000000280E00006662782F42384135303843342D343331462D343546312D424341352D3532343432364645413344462F76657274696365732E62696E504B010214001400
310
06080800B670623BF270F133060000000400000036000000000000000000000000007B0E00006662782F42384135303843342D343331462D343546312D424341352D3532343432364645413344462F747269616E676C65732E62696E504B01021400140006080000B670623B00000000000000000000000037000000000000
310
00000000000000D50E00006662782F42384135303843342D343331462D343546312D424341352D3532343432364645413344462F617474726962757465732E62696E504B01021400140006080800B670623B08DA0BD1900000004101000036000000000000000000000000002A0F00006662782F42384135303843342D3433
310
31462D343546312D424341352D3532343432364645413344462F6469726563746F72792E786D6C504B01021400140006080800B670623B3B4606F3FE000000A00100003B000000000000000000000000000E1000006662782F42384135303843342D343331462D343546312D424341352D3532343432364645413344462F72
310
65736F75726365732F636F72652E786D6C504B0506000000000E000E0080040000651100000000
  0
XRECORD
  5
187
102
{ACAD_REACTORS
330
186
102
}
330
186
100
AcDbXrecord
280
     1
 70
     1
 90
429727718
  1
887D55A9-D0DD-414E-B741-A7DCD4DA2B4C
310
504B03040A0000080000B670623B3DEE336E79000000790000001B0000006175746F6465736B2D64657369676E2D7061636B6167652E786D6C3C3F786D6C2076657273696F6E3D22312E302220656E636F64696E673D227574662D3822203F3E3C666F726D6174733E3C666F726D61743E687474703A2F2F736368656D612E
310
6175746F6465736B2E636F6D2F64657369676E2D7061636B6167652F323030393C2F666F726D61743E3C2F666F726D6174733E504B0304140006080800B670623BD486FD9CA0000000F4000000130000005B436F6E74656E745F54797065735D2E786D6C7D8EC10E82300C865F65E91D8A1E8C310C0EEA1BF002731658846E
310
D98AC1B77784ABF1D8FE5FBFBF75BBCE937A534CCEB38643598122B6FEE978D0B0485F9C41B54DDD7D022595594E1A469170414C76A4D9A4D207E29CF43ECE46F218070CC6BECC4078ACAA135ACF422C856C0E68EA1BF5669944DDD7BCDE7B1F8E415D77AECB980613C2E4AC91FC167A2B244592486606FC29C8FD7F045B9A
310
EF7053A7E60B504B0304140006080800B670623BBC1638F5EC0000007C01000008000000636F72652E786D6C8D90416EC3201045AF82665B61836BE2D8C24471DB9CA01740401C94182C03558F5F9C3852BBEB6A467FFE9B197D7EF89E6EE8CB2CC17AD7032D0820E394D7D68D3DA478C67B4007C117EFE32F1B202727D3C3
310
2A83E0E3E2D3BC49CABB685CCCAAF3DA6CA20CC14440EA969B1E82BA98491632C5EC08D76296EA2A4753D06797E194AC468F2356E77DF66CCD02825543D50CACC62D39ED70FDC68EB8FD68F6F8787A6784342D1DDA1D2F5758F068A7E77DB518198D065111D2624A31A93E69DD11D6D5EC85EC3B4278B9DAFF4069D6FF8492
310
75F1B5DADE7D600104CD8FDC0782976B16B9DC83CA75CD4DFC00504B0304140006080800B670623B55019EA25F0000007C00000007000000636E782E786D6C4DCB3B0E80201045D1AD90E915ED2CF8AC45050C11660C8261F98AB1B07AC9C97D42D718D865D3E909258CFD00CCE24AC6E326A164D74DC0B4128928FF326038
310
472BA13128B1252AC747C6BAB984FC68F0B87FE8960A5C09FE86CFB69FBA01504B0304140006080800B670623B3586FFB671010000D40300000C0000006662782F636F72652E786D6CC553ED6E8320147D15C2DF4541A76D6D90A6DDD627D80B50A4CE54C120983EFEAE1F4DD7A55BBA5FF3879273EEE59E7310B6393735EA
310
95ED2AA3731C851423A5A5292A5DE6D8BB63B0C268C39935C67D29C3488B46E578803167A535BE9D2169B453DA01AA4DA16650749D7218C91A1639EEE4876A4428BC838AEE14B6429E44A9C228041AEA38EB9C0501681A32BC313F1ECE8C4C3867DE57C5CC56054CAB8E95B298A7F12E5EEED224C8E87E11242FE936C8DE96
310
AB60BB7F4D295D66D12E5B30323473E6AAE6A24E5A259C2A308F29CD82280A68FC1E256B9AAE93F489AED694323294DF34F9B678B0C957DA3DC7B3DCA9ADC33C022123F1CD2D44E450277AD04338234388F01913BE0D1A0281909D38D4171F27807A259DB1093085F157AA17B557309586747CD0CF0B46A64E983A6E0EAEEF
310
CE881F9EF1FB8E70D44297604238581EBC1B74B249C31C5AAB6CD0BB33D2C636A27ECCC62F0EFF445DC5DF95244D6DEC7F2922F30191F9F720C37DE49F504B0304140006080800B670623B4220A0FF7D0000009D0000000B0000006662782F636E782E786D6C4DCCD10A83201886E15B91FFDCE542CB0335D0EC3E6259C84A
310
C3E9D8E5AF46073BFAE0E1E315DD675BD1DBA5978F41C2FD4600B9F088930F8B849267CC01754AA418F3DF0D50183727E164506249B1EC174D6E1ECB9A0F5D7D785E68DB8151CD286E5A5363CA6B8A39E90D36D40E96B086F55A43A544F52B1D7B86D517504B0304140006080800B670623B2FA3FEDE290100001202000031
310
0000006662782F45374635344235342D363743322D343832342D383044432D4334454645303536354442422F636F72652E786D6C8D515B6EC32010BC0AE22B55850D2E386E848994D7097A0117488A1283C5A3CAF10BB523B57FF961D1ECCCECC0F2ED7DBC816FED8371B687A4C210682B9D32F6D2C314CFA883602BB8772E
310
FEA141608751F7B0C050F08B77695A20E96CD43666D43AA5177008414708E42D5F7A18E4971E876A483133C2B59A06791D2EBA22556E679EE021FA1C00CC43CA09C5717D6274C7286AD7FB06D1AEA1A8C3873DDAD3E3E98859CB0EBB1DAF67A1E02919B5C88DCA71CCD968FFAC49110B1ECDF8882FBD1EA256503418BF2342
310
106E3E08DD60B6A1EC15771B8C795DE8FF4469524F8A92B1F1AD59E2CEB20005E1F5DC105CB9F4797B84D1F7C9F908CABC55D0F2050A5C61CC1AD2F27A26E6E767C7962E8E213A9FBF7775FDCC5CC266DB960A5E970DE5F2BBBE5CCB36C50F504B0304140006080800B670623B1B8617914E01000033030000300000006662
310
782F45374635344235342D363743322D343832342D383044432D4334454645303536354442422F636E782E786D6CD593C16EC32010447F0571AD6CE3D489D20813A9877E410FBD62D82434182CC055F3F75D1292E692438FBD206B7698593D61BEFD1E2DF982108D773D6D6B460938E5B571FB9ECE6957AD29D90A1EBC4F77
310
364A9C1CA1A759A682EF839FA72269D8C9D92654AD71C72206887E0E0A22CAF926B15E498B01E0AA19451807D01A34B919F16B070157417138917400F2F6FA41FCF0092A45DEE414C19BDC21783E4BD39D891265658C3D8DEA00A3ACE59CBC8678ACB54CB26EEB6BD7839D7E9348BE70AD9C8321B9BCA7F9A4A26C542347DE
310
E050F09802D22BA6749A800A394DD62899107273365E3C82CFC6A55557BC06C10774B7ABE7AEC3B0F34CF06446280E154026D0542C187BA9DAB6628BF7B6DBB0E5A65B3EB1F58631DE64BBE083F7B65CC218087E22CABB042E51D1F2268F1FE12B3EA24D40D63E9CFE00120194D60B9D5BC67FE6D39CDF37E20AF817881F50
310
4B0304140006080800B670623B29652116630500003C100000340000006662782F45374635344235342D363743322D343832342D383044432D4334454645303536354442422F6F626A656374732E786D6CAD575D739B3814FD2B0CFB0C989834C90EA1639B24E3E9A6EDD4D3CE3E64C623834CD8006224913AFDF57B040203
310
B65BEF871F0C12D2FD3CF7E8CA7FBFCB33E3957291B2E2D674ED8969D02262715A24B76625B7D6B569BC0F7CCE98EC2D338D82E4F4D654D366E0279C55A59E8AE99654991CCDDECFFF3444440B6A1A514684B83545F44C7362934AB2988A173B2692D8C97667BB76B3702836E1A47C1E092D09A78584A5982F20C5688C7287
310
C389E904BEA3BE07BEFAD7ABA6A75739B53F43FD69212429A20365233153D70BEF2E2E6FAC4BCF9B5ADEBB0BD79ADFCF43CBBD9A4E16EF168B9BD9DD0D140BC921495BC2E9D60C1E101B9E46BED37CEA2CD6861F3329624541A3DA7F7858DBAC25C6B4A4458C3CA654405BCFEBC970E8AAD8F43E4FD558ABEC4F9FE7557F47
310
4F506B7BFBEC5BCA367FC105710E2AB8A00A554D7CB4A30DFE26FBA86D18CBF4B75418399194A72433B274C3097F33032C554B027F2046A1932B842B0FCCC0DDCBEBDB8AD2F835768F59B9ADB24C41D30C6A64AF817F2A456D59FA83F2E3DA60137255A585BCD60EC9B7929AC18DEFD49381AF1ED30BFDB109A4B1CD488294
310
C3CDE6EBC8D185AABD6568061FEE37BB95AAC7E3CA4BCE4ACAA5820FA0D526AE7DAA2869B5EE5999531BE0CC20E6FBA07C41E43FA27CF7A6206F3CDD793B4F6B919C1462CB788EDCD893FA674CDA17AB7B3B7C019F8D561FAEE966FED562DFE98C1D12C6A9FC015C2A35D7FF3D7FC398F591DA4B5FE0BFA2C0189FEA50AE22
310
92817A1ED3020951A03432862970F976B33383259812CC8E5D240BBA801CBCF8CE2BBEE3BF910DB6AAD5F79E05123AE2DB33981FB1ACCB02B69D00CB014FD68AB573A7627EF9BFD4CC2C5C7D58557C4B22FAA88925A4DBB44825CECE3D78FB060D1231F0E885BE7D673C86A3874958F593906B5502D1563157814FDAC3420D
310
F69A070A22EC4B98E23CFF171A1E5311D12C23056555ABA53B8614563B92D17D02AAB009E8F46284624E5F53D5490C560CCCC2591FF1B45421EB0EBD8EA7ED13BE7C5D7E0428CD60FEF60779EB13E6664FF711CB185F6FDED60D139A001FF60CD1FD6D086F1D51474901E26B2CB794A343BC8ED3EDB612E0DD2351FCB65CF4
310
33D511C9E14B5B40ADC6A6263DB0336A8F700DDF56271A024E70B0B3629DE21847591E55DED73D56206AB927E46FAABC5C939C55853C274C93D69FD6FA4E78BF8B11DF898C9ECD60553FAD39283BA6F18984AA23E8884F83F45C5F5F859797B31B2B9C84A1E5B9DE9D35BFF25C6B76152E422F9C5DCC3D847F5801ED09D5AF
310
41441327A25FF15487F9EB725FB666F048A4701E9A827292E6F97569A32DF61DEC01C0BB8DCBBCCC684E0B49147C1FD54BF685A0AB18C868E6973949E819523E3DAC463660E68C7D9F55A9D1EFA3BD7A76A16AE1A810F95CE59B82A4D968A376DC2E8B44BBDD86B27B368CDE0ED548C7137DA860591A83706223A12CA712B4
310
7306DBF39C0A20A6DF95C7FAF670C6EED7A61F946493D1D6926782963813403548A78AE470DEF80D2D9CEAA26E4D1C76F60BFE74219A06527D6B82DF641A51616F703CAAC6A7160E08A00BEB4810A0274592A1B36E3675E36E978A0DE80727A0D6DF2D39A75BD27E0D8837276589537B40ABB56D5A41F48F1C6FCD3188C4EB
310
A6929D2FFB89CE995A4D00AE813BDD032DC48B56BD437DFDDC2DD7AED70C2272D63DE9A72068A45A92F0A4BE17A8A06B9366E16707AD80B1FC649459952097E74BB23805982B55E0401150A165964402AA8BDF9F3E7386BB686EDCA780C0D382E5392BF460A6EFB2C6EA1937D3F809B440D5F5435C4C5CF7A9EEFAF54564BD
310
2182DA24162F98680B4E7930C21A0079709CEAEB99A372305ABE0C0D7D6078105A83F6A0296DAEE1068A47DD1C55A9F4C9B2FC69E3EFD44B81028E963DF81B504B0304140006080000B670623B000000000000000000000000350000006662782F45374635344235342D363743322D343832342D383044432D433445464530
310
3536354442422F76657274696365732E62696E504B0304140006080800B670623BF270F1330600000004000000360000006662782F45374635344235342D363743322D343832342D383044432D4334454645303536354442422F747269616E676C65732E62696E636660600000504B0304140006080000B670623B00000000
310
0000000000000000370000006662782F45374635344235342D363743322D343832342D383044432D4334454645303536354442422F617474726962757465732E62696E504B0304140006080800B670623B08DA0BD19000000041010000360000006662782F45374635344235342D363743322D343832342D383044432D4334
310
454645303536354442422F6469726563746F72792E786D6C858F410AC3201045AF22B36F53E9A60B35CBEEBAE80D244E44489C6234F4F835464A48035D0DF398FF9F8AF63D0E6CC63039F212F8F9020C7D47C6792B21C5FE7403D62A1188E2E60C98D7234A5830286103A55745067B9D86B8A3CF9C7F90C11DE607FB144396
310
D7B6A82D282E9A152AD114D5EF2CB866EEE831B8EEA07A7BB5A8D7D61A2BAAEB7FD5F70921FF497D00504B0304140006080800B670623B6378F24DFF000000A00100003B0000006662782F45374635344235342D363743322D343832342D383044432D4334454645303536354442422F7265736F75726365732F636F72652E
310
786D6C8D504B6E833010BD0A9A6D65B0094E42641C85B639412F6099496225D8C89FAAC7AF09546A77DDCC8CDE47F3F4C4F16B7C149FE88371B603565228D06A37187BED20C50BD9437194C23B177FC9A0B06AC40E6618A4B87A97A615D2CE46B431A3D60DB8822A048C50E8473E3A08FA86A32A558A5911EEE5A4F45D5DB1
310
6465A6B34E8A107D0E502C4FE609D26370C96B0CA25A58295232C3AA3143FE692E063D485EF7F5AEE71BD2D2F39634AFFC44DAF7DD9E9CCE6F9CD25DCBFA762BAAD92C4534E34F46ED51451C40D694B6843142EB0FD61C283F34FC85EE0F948A6A96FF31A569F8A729191B37F51A77B105902C0779125254735F793DCBCC7B
310
EE567E03504B010214000A0000080000B670623B3DEE336E79000000790000001B00000000000000000000000000000000006175746F6465736B2D64657369676E2D7061636B6167652E786D6C504B01021400140006080800B670623BD486FD9CA0000000F40000001300000000000000000000000000B20000005B436F6E
310
74656E745F54797065735D2E786D6C504B01021400140006080800B670623BBC1638F5EC0000007C010000080000000000000000000000000083010000636F72652E786D6C504B01021400140006080800B670623B55019EA25F0000007C000000070000000000000000000000000095020000636E782E786D6C504B010214
310
00140006080800B670623B3586FFB671010000D40300000C00000000000000000000000000190300006662782F636F72652E786D6C504B01021400140006080800B670623B4220A0FF7D0000009D0000000B00000000000000000000000000B40400006662782F636E782E786D6C504B01021400140006080800B670623B2F
310
A3FEDE290100001202000031000000000000000000000000005A0500006662782F45374635344235342D363743322D343832342D383044432D4334454645303536354442422F636F72652E786D6C504B01021400140006080800B670623B1B8617914E010000330300003000000000000000000000000000D2060000666278
310
2F45374635344235342D363743322D343832342D383044432D4334454645303536354442422F636E782E786D6C504B01021400140006080800B670623B29652116630500003C10000034000000000000000000000000006E0800006662782F45374635344235342D363743322D343832342D383044432D4334454645303536
310
354442422F6F626A656374732E786D6C504B01021400140006080000B670623B0000000000000000000000003500000000000000000000000000230E00006662782F45374635344235342D363743322D343832342D383044432D4334454645303536354442422F76657274696365732E62696E504B01021400140006080800
310
B670623BF270F13306000000040000003600000000000000000000000000760E00006662782F45374635344235342D363743322D343832342D383044432D4334454645303536354442422F747269616E676C65732E62696E504B01021400140006080000B670623B0000000000000000000000003700000000000000000000
310
000000D00E00006662782F45374635344235342D363743322D343832342D383044432D4334454645303536354442422F617474726962757465732E62696E504B01021400140006080800B670623B08DA0BD190000000410100003600000000000000000000000000250F00006662782F45374635344235342D363743322D34
310
3832342D383044432D4334454645303536354442422F6469726563746F72792E786D6C504B01021400140006080800B670623B6378F24DFF000000A00100003B00000000000000000000000000091000006662782F45374635344235342D363743322D343832342D383044432D4334454645303536354442422F7265736F75
310
726365732F636F72652E786D6C504B0506000000000E000E0080040000611100000000
  0
XRECORD
  5
112
102
{ACAD_REACTORS
330
110
102
}
330
110
100
AcDbXrecord
280
     1
270
     1
271
     1
  0
XRECORD
  5
111
102
{ACAD_REACTORS
330
110
102
}
330
110
100
AcDbXrecord
280
     1
270
     1
271
     1
  0
XRECORD
  5
18A
102
{ACAD_REACTORS
330
110
102
}
330
110
100
AcDbXrecord
280
     1
 70
     0
 90
1778669749
  1
9BF507EE-FAF7-4A99-A33D-4EE51894BC40
310
504B03040A0000080000B670623B3DEE336E79000000790000001B0000006175746F6465736B2D64657369676E2D7061636B6167652E786D6C3C3F786D6C2076657273696F6E3D22312E302220656E636F64696E673D227574662D3822203F3E3C666F726D6174733E3C666F726D61743E687474703A2F2F736368656D612E
310
6175746F6465736B2E636F6D2F64657369676E2D7061636B6167652F323030393C2F666F726D61743E3C2F666F726D6174733E504B0304140006080800B670623BD486FD9CA0000000F4000000130000005B436F6E74656E745F54797065735D2E786D6C7D8EC10E82300C865F65E91D8A1E8C310C0EEA1BF002731658846E
310
D98AC1B77784ABF1D8FE5FBFBF75BBCE937A534CCEB38643598122B6FEE978D0B0485F9C41B54DDD7D022595594E1A469170414C76A4D9A4D207E29CF43ECE46F218070CC6BECC4078ACAA135ACF422C856C0E68EA1BF5669944DDD7BCDE7B1F8E415D77AECB980613C2E4AC91FC167A2B244592486606FC29C8FD7F045B9A
310
EF7053A7E60B504B0304140006080800B670623BCA089DFFEC0000007C01000008000000636F72652E786D6C8D90416E83301045AF62CDB632D8402020E32882F604BD80653BC44AB011B6AB1EBF262152BBEB6A467FFE9B197D76FA9EEFE84BAFDE38DB03CD08206DA553C64E3DC470C1474027CE56E7C22F1B202B66DDC3
310
260367D3EAE2B24BD2D9A06D48AA754AEFA2F05E0740F29E9A1EBCBCEA59642286E4F0B76C11F226269DD15797E0188D42CF2346A57DE662F40ABCAEC77628C6120F654571D50C04B7F5B9C1E3997CD4F550BE3745C3F20DE62C98F9755FAE5A04AD801784B498524C8A4F5A75E4D055873772EC0861F966FF03C545FD138A
310
C686B2D8DF7D621E384D8F3C069CE55B16A93C824A75CB8DFF00504B0304140006080800B670623B55019EA25F0000007C00000007000000636E782E786D6C4DCB3B0E80201045D1AD90E915ED2CF8AC45050C11660C8261F98AB1B07AC9C97D42D718D865D3E909258CFD00CCE24AC6E326A164D74DC0B4128928FF326038
310
472BA13128B1252AC747C6BAB984FC68F0B87FE8960A5C09FE86CFB69FBA01504B0304140006080800B670623B68FC0B7272010000D40300000C0000006662782F636F72652E786D6CC5535B6E833010BC8AE5DF0A6C1E8124328E22D29EA01770C0A128602363A31CBFCB234A53A555FA553EC09AD9F5CE8C31DB5DDA060D
310
D2F4B556190E7C8A9154852E6B5565D8D993B7C668C799D1DA7E29C3488956667884316795D1AE5BA0422B2B950554E9522EA0E87B69312A1A5864B82F3E642B7CE12C54F467BF13C55954D20F7CA0A18EB3DE1A1080E621E31BF3D3F1C2C88C73E65C5D2E6C5DC2B4FA544B8379921C36797888BC3C8A032F4E73EA6D927D
310
EA1DF6F42D49F2E8350D5346C666CE6CDD5ED515460A2B4BCC434A375E1078347C0FE22D5D6DE3D50B5D6F2965642CBF6B725DF96493AB958DC245EEDCD6631E809089F8E61622B2A81703E8219C913144F84C09DF070D8140C8561C9BAB8F3340832CAC363130A576376A108D933095FA747AD0CF0B46E64E983A6D0EAE1F
310
CE089F9EF1FB8E70D44255604258581E9D1D75B259C3125A278D37D80B52DAB4A279CEC62F0EFF44DDC43F9454E8469BFF5244960322CBEF41C6FBC83F01504B0304140006080800B670623B0F71DDB67E0000009D0000000B0000006662782F636E782E786D6C4DCCD10A83201886E15B91FFDCA54DB73F502386BB8F5816
310
32D3703976F9ABD1C18E3E78F87855FB990379BBFCF2296AE02706C4C5471A7C9C349475A408A4352AA7B4FEDD80C47E761A7606A3A69CCA72D0E0C6BE8475D3E0E3F3409428EA6B27A84079A782899AA2EC1A7AE3ECCC2FD858CB2D544655BFD2B67BD87C01504B0304140006080800B670623BE134B4FB28010000120200
310
00310000006662782F38353834323741342D343835462D343034322D383541392D4331303331363839454531452F636F72652E786D6C8D515B6EC32010BC0AE22B55850D0EA424C24451959EA0172086A42831583CAA1CBF503B52FB971F16CDCECC0EACD8DFC71BF836215AEF7A481A0C817183D7D65D7A98D3197108F652
310
04EFD31F1A044E8DA6871586525C82CFD3020DDE25E352419DD76601558C264130DCCAA58771F832A36A544E8511AFCDA486ABBA988634A55D7852C4144A00300FA927949C71DABD1D28A29C7D208A6987383B6CD13BC16BB2E1DBE3911C453B0BA5C8D9EA456E758963CFD684674DAA588A64C747FC2118958C86B2C3788B
310
0841B8FB247487D98EB257CC77188BB6D2FF89F2A49F1465EBD2BA5BE2CEB2082511EDDC9042FB7CBA3DC298FBE4430275DE2A9AE1054ADC60CC08E3A29D89E5F9C5714317C7987C28DFBBBA9E0A97B0D97643A568EB864AF95D5FA9759BF207504B0304140006080800B670623B1B8617914E010000330300003000000066
310
62782F38353834323741342D343835462D343034322D383541392D4331303331363839454531452F636E782E786D6CD593C16EC32010447F0571AD6CE3D489D20813A9877E410FBD62D82434182CC055F3F75D1292E692438FBD206B7698593D61BEFD1E2DF982108D773D6D6B460938E5B571FB9ECE6957AD29D90A1EBC4F
310
77364A9C1CA1A759A682EF839FA72269D8C9D92654AD71C72206887E0E0A22CAF926B15E498B01E0AA19451807D01A34B919F16B070157417138917400F2F6FA41FCF0092A45DEE414C19BDC21783E4BD39D891265658C3D8DEA00A3ACE59CBC8678ACB54CB26EEB6BD7839D7E9348BE70AD9C8321B9BCA7F9A4A26C542347
310
DEE050F09802D22BA6749A800A394DD62899107273365E3C82CFC6A55557BC06C10774B7ABE7AEC3B0F34CF06446280E154026D0542C187BA9DAB6628BF7B6DBB0E5A65B3EB1F58631DE64BBE083F7B65CC218087E22CABB042E51D1F2268F1FE12B3EA24D40D63E9CFE00120194D60B9D5BC67FE6D39CDF37E20AF817881F
310
504B0304140006080800B670623B5933D422630500003B100000340000006662782F38353834323741342D343835462D343034322D383541392D4331303331363839454531452F6F626A656374732E786D6CAD575B6FA33814FE2B887D0642934E9B156594264D158D3A534DD4D13E548A0C38942D60649B4EBABF7E3F8321
310
40924EF6928780CDF1B97EE762EFF32E4B8D37CA45C2F21BD3B547A641F39045491EDF98A5DC5AD7A6F1D9F73863B243661A39C9E88DA9B64DDF8B392B0BBD15D12D295339D85DDEFE618890E6D434C2940871638AF08566C426A5641115AF764424B1E3EDCE76ED9AB0CF36E6A47819302D08A7B984A6D8CFC1C5A89572FB
310
CB91E9F89EA3BEFB9EFAD754E3D3544E654F5F7E920B49F2F040D880CDD89D2CEE2E2EA7D6E56432B6269F2E5CEB7679BBB0DCABF168FE693E9FCEEEA6102C240727AD09A75BD3BF876F78127A4EFDA9D5582B7E4CA590E5390D2BFB6161A5B3E618D182E611E2985001691DAB47FDA5AB7CD3F93C566B2DB2BB7D9E55DD13
310
1D468DEECDB3AB290BFE8409E21C54704115AA6AFF68436BFC8DF65E0B184BF5B74418199194272435D224E084BF9B3E481589EFF5D828747285706581E9BB7B7E5D5D911ABFC6EE312DB7659A2A689A7E85EC0DF04FA5A8344BFEA2FCB834E8845895492EAFB541F2BDA0A63FF59C6AD3F7D4637CA13FD68E34B629891172
310
98597F1D183A57B9B75A98FE9765B05BAB7C3C2EBCE0ACA05C2AF8005A4DE09AA7F29216EB9E15397500C6F47CBE77CA7778FE2BD277AF0AE2C693DD6437D1522427B9D8329E2136F6A8FA19A3E6C56ADF0E5F50CF06D48734EDCEBF22F69C56D97EC138153F804B85E6FABFC7AFEFB32E523BE1F3BD372418E363EDCA7548
310
52949E8724474014288D94610BB57C1BEC4C7F854A89CA8E5324F55B871CBC78CE1BBEE3BFE68D6A5589EF3C730474506FCFA8FCF0659516D0ED04580EEA6425581B77CAE797FF4BCECC16EB2FEB926F49481F746159D06D922712BD730FDEAE42BD40F42C7AA5EF3F198F60E86110D6DD20645A9480B795CF95E3E3A659A8
310
C55E724F408873315335CFFB8584874484344D494E59D94869DB90C26A5B64F49C802CAC1D3ABE18A098D3B7444D123D8A9E5AE8F5214F0AE5B2B6E9B575DA3E61CBD3EA2B4009FA940524DD1305FB6A1FB294F14DF0BEA90BA109ECE1481FDC3FFAE8D60E75141700BE82725371B4873751B2DD960265F788137FACE6DD40
310
B575E4F0A5C99F46629D92131467A41EE11ABD8D4CCC039CA0AFB37C93A08B232B8F0AEFCA1E0A1015DF13FC83322B362463652ECF71D3A8B1A7D1BE65DE1D62C44F22C317D35F574FEB16153BA2D13E543D10A80E74C4A65E78A6B7CBCBD1D5DD9DB59C2DAFACC96C3AB566E3F1C29ADCDD5DBAD7D3C9ED7C822ED74F80A6
310
41755310DE4443F44A9E68373FADF6596BFA0F440AE7BECE2727AE9F4F2B1B53B1E7E00CF0DD1E5C65454A339A4BA2D0FBA05ED2EF0443458F47BDBFCA484CCFE0F2ED7E3DD0013B679C7B5499467F0ECEEADDB9CA85A34CE44B99053949D2C1416DB85DE4B136BB7165FBAC0B7AB3542BED4F8CA182A549847A1319316519
310
95A83A67147B9E5101C47487F2485F1ECE38FD568F839204296D3479219888530154036E6528FBFBC66F98E0D4107563A2D7D9AFF8D389681A08F58D89F22693900A3B407754734FC51C10C010D6D640809EE4718AC1BA3ED4AEDB53CA37283F68805A7E4B72CEB0A4EDEAD5DD8C14059A76AFAA56BA6901E13F32BC51C720
310
12AF41295B5BF61BAD3195181FB506E6B40F4C10AF5AF40EF9F5B159AE5DD1F43C72D635E94310D45C2D49785C5D0B94D3B54AB3C5A38349C0587D338AB48C11CBF339599C02CCA54A70A008A8D03C0B2201D5F9EFCF8F9CE12A9A19CB0410789EB32C63B95ECCF455D658BFE0621A3DA32C5075FB101723D77DAE867E7D0F
310
D90444509B44E2151B4DC2290B065803200FBAA9BE9D392A0603F2D5C2D00D6302A615680F66D2FA166E2079D4C551A54AB758161FCEFD4E450A14704CECFEDF504B0304140006080000B670623B000000000000000000000000350000006662782F38353834323741342D343835462D343034322D383541392D4331303331
310
363839454531452F76657274696365732E62696E504B0304140006080800B670623BF270F1330600000004000000360000006662782F38353834323741342D343835462D343034322D383541392D4331303331363839454531452F747269616E676C65732E62696E636660600000504B0304140006080000B670623B000000
310
000000000000000000370000006662782F38353834323741342D343835462D343034322D383541392D4331303331363839454531452F617474726962757465732E62696E504B0304140006080800B670623B08DA0BD19000000041010000360000006662782F38353834323741342D343835462D343034322D383541392D43
310
31303331363839454531452F6469726563746F72792E786D6C858F410AC3201045AF22B36F53E9A60B35CBEEBAE80D244E44489C6234F4F835464A48035D0DF398FF9F8AF63D0E6CC63039F212F8F9020C7D47C6792B21C5FE7403D62A1188E2E60C98D7234A5830286103A55745067B9D86B8A3CF9C7F90C11DE607FB1443
310
96D7B6A82D282E9A152AD114D5EF2CB866EEE831B8EEA07A7BB5A8D7D61A2BAAEB7FD5F70921FF497D00504B0304140006080800B670623BD9A3B367FE000000A00100003B0000006662782F38353834323741342D343835462D343034322D383541392D4331303331363839454531452F7265736F75726365732F636F7265
310
2E786D6C8D504B6E833010BD0A9A6D65B01D0201194711694FD00B586642AD043BF2A7EAF16B122AB5BB6E6646EFA3797AE2F8B5DC8A4FF4C1383B002B291468B59B8C9D0748F1420E501CA5F0CEC55F3228AC5A708015062966EFD27D83B4B3116DCCA875136EA00A012314FA968F0182FEC045952AC5AC08D7F2AEF455CD
310
58B232D3592745883E07289E4FD609D26370C96B0CA27AB252A464A64D63A6FCD35C0C7A904D73EE467EE664DCD58CD4ED4849D79C5A723ED1B7A61977AF2D6F45B59AA58866F9C9A83DAA8813484E6947182394BFB3BAA7FBBEDEBFD0434FA9A856F91F53BA4FFF342563E38E6F719FB60092E5200F428A6AED2BAF479979
310
AFDDCA6F504B010214000A0000080000B670623B3DEE336E79000000790000001B00000000000000000000000000000000006175746F6465736B2D64657369676E2D7061636B6167652E786D6C504B01021400140006080800B670623BD486FD9CA0000000F40000001300000000000000000000000000B20000005B436F6E
310
74656E745F54797065735D2E786D6C504B01021400140006080800B670623BCA089DFFEC0000007C010000080000000000000000000000000083010000636F72652E786D6C504B01021400140006080800B670623B55019EA25F0000007C000000070000000000000000000000000095020000636E782E786D6C504B010214
310
00140006080800B670623B68FC0B7272010000D40300000C00000000000000000000000000190300006662782F636F72652E786D6C504B01021400140006080800B670623B0F71DDB67E0000009D0000000B00000000000000000000000000B50400006662782F636E782E786D6C504B01021400140006080800B670623BE1
310
34B4FB280100001202000031000000000000000000000000005C0500006662782F38353834323741342D343835462D343034322D383541392D4331303331363839454531452F636F72652E786D6C504B01021400140006080800B670623B1B8617914E010000330300003000000000000000000000000000D3060000666278
310
2F38353834323741342D343835462D343034322D383541392D4331303331363839454531452F636E782E786D6C504B01021400140006080800B670623B5933D422630500003B10000034000000000000000000000000006F0800006662782F38353834323741342D343835462D343034322D383541392D4331303331363839
310
454531452F6F626A656374732E786D6C504B01021400140006080000B670623B0000000000000000000000003500000000000000000000000000240E00006662782F38353834323741342D343835462D343034322D383541392D4331303331363839454531452F76657274696365732E62696E504B01021400140006080800
310
B670623BF270F13306000000040000003600000000000000000000000000770E00006662782F38353834323741342D343835462D343034322D383541392D4331303331363839454531452F747269616E676C65732E62696E504B01021400140006080000B670623B0000000000000000000000003700000000000000000000
310
000000D10E00006662782F38353834323741342D343835462D343034322D383541392D4331303331363839454531452F617474726962757465732E62696E504B01021400140006080800B670623B08DA0BD190000000410100003600000000000000000000000000260F00006662782F38353834323741342D343835462D34
310
3034322D383541392D4331303331363839454531452F6469726563746F72792E786D6C504B01021400140006080800B670623BD9A3B367FE000000A00100003B000000000000000000000000000A1000006662782F38353834323741342D343835462D343034322D383541392D4331303331363839454531452F7265736F75
310
726365732F636F72652E786D6C504B0506000000000E000E0080040000611100000000
  0
XRECORD
  5
113
102
{ACAD_REACTORS
330
110
102
}
330
110
100
AcDbXrecord
280
     1
270
     1
271
     1
  0
XRECORD
  5
114
102
{ACAD_REACTORS
330
110
102
}
330
110
100
AcDbXrecord
280
     1
270
     1
271
     1
  0
CELLSTYLEMAP
  5
6B280
102
{ACAD_REACTORS
330
104
102
}
330
104
100
AcDbCellStyleMap
 90
        3
300
CELLSTYLE
  1
TABLEFORMAT_BEGIN
 90
        5
170
     1
 91
        0
 92
    32768
 62
   257
 93
        1
300
CONTENTFORMAT
  1
CONTENTFORMAT_BEGIN
 90
        0
 91
        0
 92
      512
 93
        0
300

 40
0.0
140
1.0
 94
        5
 62
     0
340
11
144
0.25
309
CONTENTFORMAT_END
171
     1
301
MARGIN
  1
CELLMARGIN_BEGIN
 40
0.06
 40
0.06
 40
0.06
 40
0.06
 40
0.18
 40
0.18
309
CELLMARGIN_END
 94
        6
 95
        1
302
GRIDFORMAT
  1
GRIDFORMAT_BEGIN
 90
        0
 91
        1
 62
     0
 92
       -2
340
0
 93
        0
 40
0.045
309
GRIDFORMAT_END
 95
        2
302
GRIDFORMAT
  1
GRIDFORMAT_BEGIN
 90
        0
 91
        1
 62
     0
 92
       -2
340
0
 93
        0
 40
0.045
309
GRIDFORMAT_END
 95
        4
302
GRIDFORMAT
  1
GRIDFORMAT_BEGIN
 90
        0
 91
        1
 62
     0
 92
       -2
340
0
 93
        0
 40
0.045
309
GRIDFORMAT_END
 95
        8
302
GRIDFORMAT
  1
GRIDFORMAT_BEGIN
 90
        0
 91
        1
 62
     0
 92
       -2
340
0
 93
        0
 40
0.045
309
GRIDFORMAT_END
 95
       16
302
GRIDFORMAT
  1
GRIDFORMAT_BEGIN
 90
        0
 91
        1
 62
     0
 92
       -2
340
0
 93
        0
 40
0.045
309
GRIDFORMAT_END
 95
       32
302
GRIDFORMAT
  1
GRIDFORMAT_BEGIN
 90
        0
 91
        1
 62
     0
 92
       -2
340
0
 93
        0
 40
0.045
309
GRIDFORMAT_END
309
TABLEFORMAT_END
  1
CELLSTYLE_BEGIN
 90
        1
 91
        1
300
_TITLE
309
CELLSTYLE_END
300
CELLSTYLE
  1
TABLEFORMAT_BEGIN
 90
        5
170
     1
 91
        0
 92
        0
 62
   257
 93
        1
300
CONTENTFORMAT
  1
CONTENTFORMAT_BEGIN
 90
        0
 91
        0
 92
      512
 93
        0
300

 40
0.0
140
1.0
 94
        5
 62
     0
340
11
144
0.18
309
CONTENTFORMAT_END
171
     1
301
MARGIN
  1
CELLMARGIN_BEGIN
 40
0.06
 40
0.06
 40
0.06
 40
0.06
 40
0.18
 40
0.18
309
CELLMARGIN_END
 94
        6
 95
        1
302
GRIDFORMAT
  1
GRIDFORMAT_BEGIN
 90
        0
 91
        1
 62
     0
 92
       -2
340
0
 93
        0
 40
0.045
309
GRIDFORMAT_END
 95
        2
302
GRIDFORMAT
  1
GRIDFORMAT_BEGIN
 90
        0
 91
        1
 62
     0
 92
       -2
340
0
 93
        0
 40
0.045
309
GRIDFORMAT_END
 95
        4
302
GRIDFORMAT
  1
GRIDFORMAT_BEGIN
 90
        0
 91
        1
 62
     0
 92
       -2
340
0
 93
        0
 40
0.045
309
GRIDFORMAT_END
 95
        8
302
GRIDFORMAT
  1
GRIDFORMAT_BEGIN
 90
        0
 91
        1
 62
     0
 92
       -2
340
0
 93
        0
 40
0.045
309
GRIDFORMAT_END
 95
       16
302
GRIDFORMAT
  1
GRIDFORMAT_BEGIN
 90
        0
 91
        1
 62
     0
 92
       -2
340
0
 93
        0
 40
0.045
309
GRIDFORMAT_END
 95
       32
302
GRIDFORMAT
  1
GRIDFORMAT_BEGIN
 90
        0
 91
        1
 62
     0
 92
       -2
340
0
 93
        0
 40
0.045
309
GRIDFORMAT_END
309
TABLEFORMAT_END
  1
CELLSTYLE_BEGIN
 90
        2
 91
        1
300
_HEADER
309
CELLSTYLE_END
300
CELLSTYLE
  1
TABLEFORMAT_BEGIN
 90
        5
170
     1
 91
        0
 92
        0
 62
   257
 93
        1
300
CONTENTFORMAT
  1
CONTENTFORMAT_BEGIN
 90
        0
 91
        0
 92
      512
 93
        0
300

 40
0.0
140
1.0
 94
        2
 62
     0
340
11
144
0.18
309
CONTENTFORMAT_END
171
     1
301
MARGIN
  1
CELLMARGIN_BEGIN
 40
0.06
 40
0.06
 40
0.06
 40
0.06
 40
0.18
 40
0.18
309
CELLMARGIN_END
 94
        6
 95
        1
302
GRIDFORMAT
  1
GRIDFORMAT_BEGIN
 90
        0
 91
        1
 62
     0
 92
       -2
340
0
 93
        0
 40
0.045
309
GRIDFORMAT_END
 95
        2
302
GRIDFORMAT
  1
GRIDFORMAT_BEGIN
 90
        0
 91
        1
 62
     0
 92
       -2
340
0
 93
        0
 40
0.045
309
GRIDFORMAT_END
 95
        4
302
GRIDFORMAT
  1
GRIDFORMAT_BEGIN
 90
        0
 91
        1
 62
     0
 92
       -2
340
0
 93
        0
 40
0.045
309
GRIDFORMAT_END
 95
        8
302
GRIDFORMAT
  1
GRIDFORMAT_BEGIN
 90
        0
 91
        1
 62
     0
 92
       -2
340
0
 93
        0
 40
0.045
309
GRIDFORMAT_END
 95
       16
302
GRIDFORMAT
  1
GRIDFORMAT_BEGIN
 90
        0
 91
        1
 62
     0
 92
       -2
340
0
 93
        0
 40
0.045
309
GRIDFORMAT_END
 95
       32
302
GRIDFORMAT
  1
GRIDFORMAT_BEGIN
 90
        0
 91
        1
 62
     0
 92
       -2
340
0
 93
        0
 40
0.045
309
GRIDFORMAT_END
309
TABLEFORMAT_END
  1
CELLSTYLE_BEGIN
 90
        3
 91
        2
300
_DATA
309
CELLSTYLE_END
  0
ENDSEC
  0
SECTION
  2
ACDSDATA
 70
     2
 71
     8
  0
ACDSSCHEMA
 90
        0
  1
AcDb_Thumbnail_Schema
  2
AcDbDs::ID
280
    10
 91
        8
  2
Thumbnail_Data
280
    15
 91
        0
101
ACDSRECORD
 95
        0
 90
        1
  2
AcDbDs::TreatedAsObjectData
280
     1
291
     1
101
ACDSRECORD
 95
        0
 90
        2
  2
AcDbDs::Legacy
280
     1
291
     1
101
ACDSRECORD
  1
AcDbDs::ID
 90
        3
  2
AcDs:Indexable
280
     1
291
     1
101
ACDSRECORD
  1
AcDbDs::ID
 90
        4
  2
AcDbDs::HandleAttribute
280
     7
282
     1
  0
ACDSSCHEMA
 90
        1
  1
AcDbDs::TreatedAsObjectDataSchema
  2
AcDbDs::TreatedAsObjectData
280
     1
 91
        0
  0
ACDSSCHEMA
 90
        2
  1
AcDbDs::LegacySchema
  2
AcDbDs::Legacy
280
     1
 91
        0
  0
ACDSSCHEMA
 90
        3
  1
AcDbDs::IndexedPropertySchema
  2
AcDs:Indexable
280
     1
 91
        0
  0
ACDSSCHEMA
 90
        4
  1
AcDbDs::HandleAttributeSchema
  2
AcDbDs::HandleAttribute
280
     7
 91
        1
284
     1
  0
ACDSSCHEMA
 90
        5
  1
AcDb3DSolid_ASM_Data
  2
AcDbDs::ID
280
    10
 91
        8
  2
ASM_Data
280
    15
 91
        0
101
ACDSRECORD
 95
        5
 90
        1
  2
AcDbDs::TreatedAsObjectData
280
     1
291
     1
101
ACDSRECORD
 95
        5
 90
        2
  2
AcDbDs::Legacy
280
     1
291
     1
101
ACDSRECORD
  1
AcDbDs::ID
 90
        3
  2
AcDs:Indexable
280
     1
291
     1
101
ACDSRECORD
  1
AcDbDs::ID
 90
        4
  2
AcDbDs::HandleAttribute
280
     7
282
     1
  0
ACDSRECORD
 90
        0
  2
AcDbDs::ID
280
    10
320
22
  2
Thumbnail_Data
280
    15
 94
     1666
310
89504E470D0A1A0A0000000D49484452000001000000006C0803000000B2ED9CC100000300504C5445212830FFFFFF2128300000000000000000000000000000000000000000000000000000330000660000990000CC0000FF0033000033330033660033990033CC0033FF0066000066330066660066990066CC0066FF0099
310
000099330099660099990099CC0099FF00CC0000CC3300CC6600CC9900CCCC00CCFF00FF0000FF3300FF6600FF9900FFCC00FFFF3300003300333300663300993300CC3300FF3333003333333333663333993333CC3333FF3366003366333366663366993366CC3366FF3399003399333399663399993399CC3399FF33CC00
310
33CC3333CC6633CC9933CCCC33CCFF33FF0033FF3333FF6633FF9933FFCC33FFFF6600006600336600666600996600CC6600FF6633006633336633666633996633CC6633FF6666006666336666666666996666CC6666FF6699006699336699666699996699CC6699FF66CC0066CC3366CC6666CC9966CCCC66CCFF66FF0066
310
FF3366FF6666FF9966FFCC66FFFF9900009900339900669900999900CC9900FF9933009933339933669933999933CC9933FF9966009966339966669966999966CC9966FF9999009999339999669999999999CC9999FF99CC0099CC3399CC6699CC9999CCCC99CCFF99FF0099FF3399FF6699FF9999FFCC99FFFFCC0000CC00
310
33CC0066CC0099CC00CCCC00FFCC3300CC3333CC3366CC3399CC33CCCC33FFCC6600CC6633CC6666CC6699CC66CCCC66FFCC9900CC9933CC9966CC9999CC99CCCC99FFCCCC00CCCC33CCCC66CCCC99CCCCCCCCCCFFCCFF00CCFF33CCFF66CCFF99CCFFCCCCFFFFFF0000FF0033FF0066FF0099FF00CCFF00FFFF3300FF3333
310
FF3366FF3399FF33CCFF33FFFF6600FF6633FF6666FF6699FF66CCFF66FFFF9900FF9933FF9966FF9999FF99CCFF99FFFFCC00FFCC33FFCC66FFCC99FFCCCCFFCCFFFFFF00FFFF33FFFF66FFFF99FFFFCCFFFFFF0000000D0D0D1A1A1A2828283535354343435050505D5D5D6B6B6B787878868686939393A1A1A1AEAEAEBB
310
BBBBC9C9C9D6D6D6E4E4E4F1F1F1FFFFFF0000000000000000000000000000000000000000000000000000000000002E4550F1000000CD4944415478DAEDD8CB0E8320100550FFFF7F67DFA6A63E2A4981B48903E7AC5CB8702E3080CB0200000000000000000000DC44444C5BF8CBA4197C961C338CF5D1E59D19C67A7B2A
310
553B6C02F1F31705906BF1B7758A31977CF50C18218075183B47337B0071A8FEF9D05E4EEA000E67BA6B0015132292F780F5DBDF95C71E42755DD9A77FF1D0F78FEDF2DECDBFBF09E40FE074B99B6F06942F3E1306B0B5C3D65D6DA000BE9F8563B823506520FB7DF814CCE83F84A2B045F6B6CADC9D710100000000000000
310
0000003A3D00DEC2F9CA2C8DFA270000000049454E44AE42608271075D0C0A01A03BC4DCEE7D5C4F3801D015C44C5864438B6974A576F4984356F0920613A82600D18B5A7817757455EFE14E828099EA5006923A6E2A63B9B897960044EC54055317D4F453114D5B4FD910C1975C0250074070A4660280E0452C011801F812
310
D1CB77CA0940D614C15ECA16C0434C378F952400715B044BA104E000C04D542D9D04E00300C1462601B80150C4D55149009E009C02AB882400670008AA1A09C01F803DB482842B007804B0C60D91CF2F9E2F7FB1C23DC1579225015C3F890CE05202B8F9242E001C5FF3827301006B5440D9FC87A325E680CBB4BF3A80E341
310
024800126BCED8DCCAFE0BC89323148B0004169DB1773E315BC236EF7D16429C74C0FC8810FAB822E4686C54F4D26BA9A9E2DD7790D975BD451A1FD53D220800A0797E05CB04E203000DE41FA502A8BD05F61574D1160836078CE58FF12DE253CECF072C2F70EA6F011040B1F60060AF8009C658FE140940F746886607B0F5
310
F2D84660BD1618B88A08D2027100640B8C5D0B2DBC0AC45A06BBF6C2581840B855A0358D18E98F251203406F1A612A80B202BAD38891FF580B500000D49D4988F37FAC813E72214627000A3582A5C338FE00598ED82311F33F3A0000000049454E44AE4260820F467818FD4AC64A010000000049454E44AE42608200187F52
310
539FF6AC0FF2D01229B97F7B56AE64E8787DBF9E93B283504D4929EEDB336DE133B927D0B706F146D8FDD54728002424931276690CDE5FFA471401522320E6FA719CDCC9E90D234F422DA512220CD4066298BF969A4028B717C4D481E25C1BC6C59A99842240E2F24B1F92F8AC20F021F00EFE737AFD0FDF7E00E9E9886BC5
310
1247A50000000049454E44AE426082
  0
ENDSEC
  0
EOF
