  0
SECTION
  2
HEADER
  9
$ACADVER
  1
AC1032
  9
$ACADMAINTVER
 90
      197
  9
$DWGCODEPAGE
  3
ANSI_1252
  9
$LASTSAVEDBY
  1
gregb
  9
$REQUIREDVERSIONS
160
                 0
  9
$INSBASE
 10
0.0
 20
0.0
 30
0.0
  9
$EXTMIN
 10
107033.3471217281
 20
97455.60317667932
 30
0.0
  9
$EXTMAX
 10
107033.9774068844
 20
97457.44471769492
 30
0.0
  9
$LIMMIN
 10
0.0
 20
0.0
  9
$LIMMAX
 10
12.0
 20
9.0
  9
$ORTHOMODE
 70
     1
  9
$REGENMODE
 70
     1
  9
$FILLMODE
 70
     1
  9
$QTEXTMODE
 70
     0
  9
$MIRRTEXT
 70
     0
  9
$LTSCALE
 40
1.0
  9
$ATTMODE
 70
     1
  9
$TEXTSIZE
 40
0.2
  9
$TRACEWID
 40
0.05
  9
$TEXTSTYLE
  7
Standard
  9
$CLAYER
  8
freecads.com
  9
$CELTYPE
  6
ByLayer
  9
$CECOLOR
 62
   256
  9
$CELTSCALE
 40
1.0
  9
$DISPSILH
 70
     1
  9
$DIMSCALE
 40
1.0
  9
$DIMASZ
 40
0.18
  9
$DIMEXO
 40
0.0625
  9
$DIMDLI
 40
0.38
  9
$DIMRND
 40
0.0
  9
$DIMDLE
 40
0.0
  9
$DIMEXE
 40
0.18
  9
$DIMTP
 40
0.0
  9
$DIMTM
 40
0.0
  9
$DIMTXT
 40
0.18
  9
$DIMCEN
 40
0.09
  9
$DIMTSZ
 40
0.0
  9
$DIMTOL
 70
     0
  9
$DIMLIM
 70
     0
  9
$DIMTIH
 70
     1
  9
$DIMTOH
 70
     1
  9
$DIMSE1
 70
     0
  9
$DIMSE2
 70
     0
  9
$DIMTAD
 70
     0
  9
$DIMZIN
 70
     0
  9
$DIMBLK
  1

  9
$DIMASO
 70
     1
  9
$DIMSHO
 70
     1
  9
$DIMPOST
  1

  9
$DIMAPOST
  1

  9
$DIMALT
 70
     0
  9
$DIMALTD
 70
     2
  9
$DIMALTF
 40
25.4
  9
$DIMLFAC
 40
1.0
  9
$DIMTOFL
 70
     0
  9
$DIMTVP
 40
0.0
  9
$DIMTIX
 70
     0
  9
$DIMSOXD
 70
     0
  9
$DIMSAH
 70
     0
  9
$DIMBLK1
  1

  9
$DIMBLK2
  1

  9
$DIMSTYLE
  2
Standard
  9
$DIMCLRD
 70
     0
  9
$DIMCLRE
 70
     0
  9
$DIMCLRT
 70
     0
  9
$DIMTFAC
 40
1.0
  9
$DIMGAP
 40
0.09
  9
$DIMJUST
 70
     0
  9
$DIMSD1
 70
     0
  9
$DIMSD2
 70
     0
  9
$DIMTOLJ
 70
     1
  9
$DIMTZIN
 70
     0
  9
$DIMALTZ
 70
     0
  9
$DIMALTTZ
 70
     0
  9
$DIMUPT
 70
     0
  9
$DIMDEC
 70
     4
  9
$DIMTDEC
 70
     4
  9
$DIMALTU
 70
     2
  9
$DIMALTTD
 70
     2
  9
$DIMTXSTY
  7
Standard
  9
$DIMAUNIT
 70
     0
  9
$DIMADEC
 70
     0
  9
$DIMALTRND
 40
0.0
  9
$DIMAZIN
 70
     0
  9
$DIMDSEP
 70
    46
  9
$DIMATFIT
 70
     3
  9
$DIMFRAC
 70
     0
  9
$DIMLDRBLK
  1

  9
$DIMLUNIT
 70
     2
  9
$DIMLWD
 70
    -2
  9
$DIMLWE
 70
    -2
  9
$DIMTMOVE
 70
     0
  9
$DIMFXL
 40
1.0
  9
$DIMFXLON
 70
     0
  9
$DIMJOGANG
 40
0.7853981633974483
  9
$DIMTFILL
 70
     0
  9
$DIMTFILLCLR
 70
     0
  9
$DIMARCSYM
 70
     0
  9
$DIMLTYPE
  6

  9
$DIMLTEX1
  6

  9
$DIMLTEX2
  6

  9
$DIMTXTDIRECTION
 70
     0
  9
$LUNITS
 70
     2
  9
$LUPREC
 70
     4
  9
$SKETCHINC
 40
0.1
  9
$FILLETRAD
 40
0.0
  9
$AUNITS
 70
     0
  9
$AUPREC
 70
     0
  9
$MENU
  1
.
  9
$ELEVATION
 40
0.0
  9
$PELEVATION
 40
0.0
  9
$THICKNESS
 40
0.0
  9
$LIMCHECK
 70
     0
  9
$CHAMFERA
 40
0.0
  9
$CHAMFERB
 40
0.0
  9
$CHAMFERC
 40
0.0
  9
$CHAMFERD
 40
0.0
  9
$SKPOLY
 70
     0
  9
$TDCREATE
 40
2458157.454583334
  9
$TDUCREATE
 40
2458157.287916667
  9
$TDUPDATE
 40
2460670.657731482
  9
$TDUUPDATE
 40
2460670.491064815
  9
$TDINDWG
 40
0.2583912037
  9
$TDUSRTIMER
 40
0.2583912037
  9
$USRTIMER
 70
     1
  9
$ANGBASE
 50
0.0
  9
$ANGDIR
 70
     0
  9
$PDMODE
 70
     0
  9
$PDSIZE
 40
0.0
  9
$PLINEWID
 40
0.0
  9
$SPLFRAME
 70
     0
  9
$SPLINETYPE
 70
     6
  9
$SPLINESEGS
 70
     8
  9
$HANDSEED
  5
F86E8
  9
$SURFTAB1
 70
     6
  9
$SURFTAB2
 70
     6
  9
$SURFTYPE
 70
     6
  9
$SURFU
 70
     6
  9
$SURFV
 70
     6
  9
$UCSBASE
  2

  9
$UCSNAME
  2

  9
$UCSORG
 10
0.0
 20
0.0
 30
0.0
  9
$UCSXDIR
 10
1.0
 20
0.0
 30
0.0
  9
$UCSYDIR
 10
0.0
 20
1.0
 30
0.0
  9
$UCSORTHOREF
  2

  9
$UCSORTHOVIEW
 70
     0
  9
$UCSORGTOP
 10
0.0
 20
0.0
 30
0.0
  9
$UCSORGBOTTOM
 10
0.0
 20
0.0
 30
0.0
  9
$UCSORGLEFT
 10
0.0
 20
0.0
 30
0.0
  9
$UCSORGRIGHT
 10
0.0
 20
0.0
 30
0.0
  9
$UCSORGFRONT
 10
0.0
 20
0.0
 30
0.0
  9
$UCSORGBACK
 10
0.0
 20
0.0
 30
0.0
  9
$PUCSBASE
  2

  9
$PUCSNAME
  2

  9
$PUCSORG
 10
0.0
 20
0.0
 30
0.0
  9
$PUCSXDIR
 10
1.0
 20
0.0
 30
0.0
  9
$PUCSYDIR
 10
0.0
 20
1.0
 30
0.0
  9
$PUCSORTHOREF
  2

  9
$PUCSORTHOVIEW
 70
     0
  9
$PUCSORGTOP
 10
0.0
 20
0.0
 30
0.0
  9
$PUCSORGBOTTOM
 10
0.0
 20
0.0
 30
0.0
  9
$PUCSORGLEFT
 10
0.0
 20
0.0
 30
0.0
  9
$PUCSORGRIGHT
 10
0.0
 20
0.0
 30
0.0
  9
$PUCSORGFRONT
 10
0.0
 20
0.0
 30
0.0
  9
$PUCSORGBACK
 10
0.0
 20
0.0
 30
0.0
  9
$USERI1
 70
     0
  9
$USERI2
 70
     0
  9
$USERI3
 70
     0
  9
$USERI4
 70
     0
  9
$USERI5
 70
     0
  9
$USERR1
 40
0.0
  9
$USERR2
 40
0.0
  9
$USERR3
 40
0.0
  9
$USERR4
 40
0.0
  9
$USERR5
 40
0.0
  9
$WORLDVIEW
 70
     1
  9
$SHADEDGE
 70
     3
  9
$SHADEDIF
 70
    70
  9
$TILEMODE
 70
     1
  9
$MAXACTVP
 70
    64
  9
$PINSBASE
 10
0.0
 20
0.0
 30
0.0
  9
$PLIMCHECK
 70
     0
  9
$PEXTMIN
 10
0.0
 20
0.0
 30
0.0
  9
$PEXTMAX
 10
0.0
 20
0.0
 30
0.0
  9
$PLIMMIN
 10
0.0
 20
0.0
  9
$PLIMMAX
 10
12.0
 20
9.0
  9
$UNITMODE
 70
     0
  9
$VISRETAIN
 70
     1
  9
$PLINEGEN
 70
     0
  9
$PSLTSCALE
 70
     1
  9
$TREEDEPTH
 70
  3020
  9
$CMLSTYLE
  2
Standard
  9
$CMLJUST
 70
     0
  9
$CMLSCALE
 40
1.0
  9
$PROXYGRAPHICS
 70
     1
  9
$MEASUREMENT
 70
     0
  9
$CELWEIGHT
370
    -1
  9
$ENDCAPS
280
     0
  9
$JOINSTYLE
280
     0
  9
$LWDISPLAY
290
     0
  9
$INSUNITS
 70
     1
  9
$HYPERLINKBASE
  1

  9
$STYLESHEET
  1
monochrome.ctb
  9
$XEDIT
290
     1
  9
$CEPSNTYPE
380
     0
  9
$PSTYLEMODE
290
     1
  9
$FINGERPRINTGUID
  2
{358EB121-6EE0-9143-8A3E-6E8E8869FDA6}
  9
$VERSIONGUID
  2
{BE41535C-3731-B04D-9C02-84C076D3C4FB}
  9
$EXTNAMES
290
     1
  9
$PSVPSCALE
 40
0.0
  9
$OLESTARTUP
290
     0
  9
$SORTENTS
280
   127
  9
$INDEXCTL
280
     0
  9
$HIDETEXT
280
     1
  9
$XCLIPFRAME
280
     2
  9
$HALOGAP
280
     0
  9
$OBSCOLOR
 70
   257
  9
$OBSLTYPE
280
     0
  9
$INTERSECTIONDISPLAY
280
     0
  9
$INTERSECTIONCOLOR
 70
   257
  9
$DIMASSOC
280
     2
  9
$PROJECTNAME
  1

  9
$CAMERADISPLAY
290
     0
  9
$LENSLENGTH
 40
50.0
  9
$CAMERAHEIGHT
 40
0.0
  9
$STEPSPERSEC
 40
2.0
  9
$STEPSIZE
 40
6.0
  9
$3DDWFPREC
 40
2.0
  9
$PSOLWIDTH
 40
0.25
  9
$PSOLHEIGHT
 40
4.0
  9
$LOFTANG1
 40
1.570796326794896
  9
$LOFTANG2
 40
1.570796326794896
  9
$LOFTMAG1
 40
0.0
  9
$LOFTMAG2
 40
0.0
  9
$LOFTPARAM
 70
     7
  9
$LOFTNORMALS
280
     1
  9
$LATITUDE
 40
37.795
  9
$LONGITUDE
 40
-122.394
  9
$NORTHDIRECTION
 40
0.0
  9
$TIMEZONE
 70
 -8000
  9
$LIGHTGLYPHDISPLAY
280
     1
  9
$TILEMODELIGHTSYNCH
280
     1
  9
$CMATERIAL
347
96
  9
$SOLIDHIST
280
     0
  9
$SHOWHIST
280
     1
  9
$DWFFRAME
280
     2
  9
$DGNFRAME
280
     0
  9
$REALWORLDSCALE
290
     1
  9
$INTERFERECOLOR
 62
     1
  9
$INTERFEREOBJVS
345
A3
  9
$INTERFEREVPVS
346
A0
  9
$CSHADOW
280
     0
  9
$SHADOWPLANELOCATION
 40
0.0
  0
ENDSEC
  0
SECTION
  2
CLASSES
  0
CLASS
  1
ACDBDICTIONARYWDFLT
  2
AcDbDictionaryWithDefault
  3
ObjectDBX Classes
 90
        0
 91
        1
280
     0
281
     0
  0
CLASS
  1
DICTIONARYVAR
  2
AcDbDictionaryVar
  3
ObjectDBX Classes
 90
        0
 91
       27
280
     0
281
     0
  0
CLASS
  1
TABLESTYLE
  2
AcDbTableStyle
  3
ObjectDBX Classes
 90
     4095
 91
        1
280
     0
281
     0
  0
CLASS
  1
MATERIAL
  2
AcDbMaterial
  3
ObjectDBX Classes
 90
     1153
 91
        3
280
     0
281
     0
  0
CLASS
  1
VISUALSTYLE
  2
AcDbVisualStyle
  3
ObjectDBX Classes
 90
     4095
 91
       25
280
     0
281
     0
  0
CLASS
  1
SCALE
  2
AcDbScale
  3
ObjectDBX Classes
 90
     1153
 91
       34
280
     0
281
     0
  0
CLASS
  1
MLEADERSTYLE
  2
AcDbMLeaderStyle
  3
ACDB_MLEADERSTYLE_CLASS
 90
     4095
 91
        1
280
     0
281
     0
  0
CLASS
  1
CELLSTYLEMAP
  2
AcDbCellStyleMap
  3
ObjectDBX Classes
 90
     1152
 91
        1
280
     0
281
     0
  0
CLASS
  1
EXACXREFPANELOBJECT
  2
ExAcXREFPanelObject
  3
EXAC_ESW
 90
     1025
 91
        1
280
     0
281
     0
  0
CLASS
  1
NPOCOLLECTION
  2
AcDbImpNonPersistentObjectsCollection
  3
ObjectDBX Classes
 90
     1153
 91
        1
280
     0
281
     0
  0
CLASS
  1
LAYER_INDEX
  2
AcDbLayerIndex
  3
ObjectDBX Classes
 90
        0
 91
        0
280
     0
281
     0
  0
CLASS
  1
SPATIAL_INDEX
  2
AcDbSpatialIndex
  3
ObjectDBX Classes
 90
        0
 91
        0
280
     0
281
     0
  0
CLASS
  1
IDBUFFER
  2
AcDbIdBuffer
  3
ObjectDBX Classes
 90
        0
 91
        0
280
     0
281
     0
  0
CLASS
  1
ACDBSECTIONVIEWSTYLE
  2
AcDbSectionViewStyle
  3
ObjectDBX Classes
 90
     1025
 91
        2
280
     0
281
     0
  0
CLASS
  1
ACDBDETAILVIEWSTYLE
  2
AcDbDetailViewStyle
  3
ObjectDBX Classes
 90
     1025
 91
        2
280
     0
281
     0
  0
CLASS
  1
SORTENTSTABLE
  2
AcDbSortentsTable
  3
ObjectDBX Classes
 90
        0
 91
        1
280
     0
281
     0
  0
CLASS
  1
ACAD_EVALUATION_GRAPH
  2
AcDbEvalGraph
  3
ObjectDBX Classes
 90
     1153
 91
        0
280
     0
281
     0
  0
CLASS
  1
BLOCKLINEARPARAMETER
  2
AcDbBlockLinearParameter
  3
ObjectDBX Classes
 90
     1153
 91
        0
280
     0
281
     0
  0
CLASS
  1
BLOCKLINEARGRIP
  2
AcDbBlockLinearGrip
  3
ObjectDBX Classes
 90
     1153
 91
        0
280
     0
281
     0
  0
CLASS
  1
BLOCKGRIPLOCATIONCOMPONENT
  2
AcDbBlockGripExpr
  3
ObjectDBX Classes
 90
     1153
 91
        0
280
     0
281
     0
  0
CLASS
  1
BLOCKSTRETCHACTION
  2
AcDbBlockStretchAction
  3
ObjectDBX Classes
 90
     1153
 91
        0
280
     0
281
     0
  0
CLASS
  1
ACDB_DYNAMICBLOCKPURGEPREVENTER_VERSION
  2
AcDbDynamicBlockPurgePreventer
  3
ObjectDBX Classes
 90
     1153
 91
        0
280
     0
281
     0
  0
CLASS
  1
BLOCKVISIBILITYPARAMETER
  2
AcDbBlockVisibilityParameter
  3
ObjectDBX Classes
 90
     1153
 91
        0
280
     0
281
     0
  0
CLASS
  1
BLOCKVISIBILITYGRIP
  2
AcDbBlockVisibilityGrip
  3
ObjectDBX Classes
 90
     1153
 91
        0
280
     0
281
     0
  0
CLASS
  1
ACDB_BLOCKREPRESENTATION_DATA
  2
AcDbBlockRepresentationData
  3
ObjectDBX Classes
 90
     1153
 91
        0
280
     0
281
     0
  0
CLASS
  1
SURFACE
  2
AcDbSurface
  3
ObjectDBX Classes
 90
     4095
 91
        0
280
     0
281
     1
  0
CLASS
  1
ACDBASSOCPERSSUBENTMANAGER
  2
AcDbAssocPersSubentManager
  3
ObjectDBX Classes
 90
     1024
 91
        1
280
     0
281
     0
  0
CLASS
  1
BLOCKARRAYACTION
  2
AcDbBlockArrayAction
  3
ObjectDBX Classes
 90
     1153
 91
        0
280
     0
281
     0
  0
CLASS
  1
BLOCKLOOKUPPARAMETER
  2
AcDbBlockLookupParameter
  3
ObjectDBX Classes
 90
     1153
 91
        0
280
     0
281
     0
  0
CLASS
  1
BLOCKLOOKUPGRIP
  2
AcDbBlockLookupGrip
  3
ObjectDBX Classes
 90
     1153
 91
        0
280
     0
281
     0
  0
CLASS
  1
BLOCKLOOKUPACTION
  2
AcDbBlockLookupAction
  3
ObjectDBX Classes
 90
     1153
 91
        0
280
     0
281
     0
  0
ENDSEC
  0
SECTION
  2
TABLES
  0
TABLE
  2
VPORT
  5
8
330
0
100
AcDbSymbolTable
 70
     1
  0
VPORT
  5
94
330
8
100
AcDbSymbolTableRecord
100
AcDbViewportTableRecord
  2
*Active
 70
     0
 10
0.0
 20
0.0
 11
1.0
 21
1.0
 12
107034.1620945627
 22
97456.67092081964
 13
0.0
 23
0.0
 14
0.5
 24
0.5
 15
0.5
 25
0.5
 16
0.0
 26
0.0
 36
1.0
 17
0.0
 27
0.0
 37
0.0
 40
2.802078846399589
 41
2.246195165622202
 42
50.0
 43
0.0
 44
0.0
 50
0.0
 51
0.0
 71
     0
 72
  1000
 73
     1
 74
     3
 75
     0
 76
     0
 77
     0
 78
     0
281
     0
 65
     1
110
0.0
120
0.0
130
0.0
111
1.0
121
0.0
131
0.0
112
0.0
122
1.0
132
0.0
 79
     0
146
0.0
348
9F
 60
     3
 61
     5
292
     1
282
     1
141
0.0
142
0.0
 63
   250
421
  3355443
1001
ACAD_NAV_VCDISPLAY
1070
     3
  0
ENDTAB
  0
TABLE
  2
LTYPE
  5
5
330
0
100
AcDbSymbolTable
 70
     1
  0
LTYPE
  5
14
330
5
100
AcDbSymbolTableRecord
100
AcDbLinetypeTableRecord
  2
ByBlock
 70
     0
  3

 72
    65
 73
     0
 40
0.0
  0
LTYPE
  5
15
330
5
100
AcDbSymbolTableRecord
100
AcDbLinetypeTableRecord
  2
ByLayer
 70
     0
  3

 72
    65
 73
     0
 40
0.0
  0
LTYPE
  5
16
330
5
100
AcDbSymbolTableRecord
100
AcDbLinetypeTableRecord
  2
Continuous
 70
     0
  3
Solid line
 72
    65
 73
     0
 40
0.0
  0
ENDTAB
  0
TABLE
  2
LAYER
  5
2
102
{ACAD_XDICTIONARY
360
18E
102
}
330
0
100
AcDbSymbolTable
 70
     2
  0
LAYER
  5
10
102
{ACAD_XDICTIONARY
360
E6
102
}
330
2
100
AcDbSymbolTableRecord
100
AcDbLayerTableRecord
  2
0
 70
     0
 62
     7
  6
Continuous
370
    -3
390
F
347
98
348
0
  0
LAYER
  5
204
330
2
100
AcDbSymbolTableRecord
100
AcDbLayerTableRecord
  2
freecads.com
 70
     0
 62
     7
  6
Continuous
370
    -3
390
F
347
98
348
0
1001
AcAecLayerStandard
1000

1000

1001
AcCmTransparency
1071
        0
  0
ENDTAB
  0
TABLE
  2
STYLE
  5
3
330
0
100
AcDbSymbolTable
 70
     2
  0
STYLE
  5
11
330
3
100
AcDbSymbolTableRecord
100
AcDbTextStyleTableRecord
  2
Standard
 70
     0
 40
0.0
 41
1.0
 50
0.0
 71
     0
 42
0.2
  3
arial.ttf
  4

1001
ACAD
1000
Arial
1071
       34
  0
ENDTAB
  0
TABLE
  2
VIEW
  5
6
330
0
100
AcDbSymbolTable
 70
     0
  0
ENDTAB
  0
TABLE
  2
UCS
  5
7
330
0
100
AcDbSymbolTable
 70
     0
  0
ENDTAB
  0
TABLE
  2
APPID
  5
9
330
0
100
AcDbSymbolTable
 70
    32
  0
APPID
  5
12
330
9
100
AcDbSymbolTableRecord
100
AcDbRegAppTableRecord
  2
ACAD
 70
     0
  0
APPID
  5
DD
330
9
100
AcDbSymbolTableRecord
100
AcDbRegAppTableRecord
  2
AcadAnnoPO
 70
     0
  0
APPID
  5
DE
330
9
100
AcDbSymbolTableRecord
100
AcDbRegAppTableRecord
  2
AcadAnnotative
 70
     0
  0
APPID
  5
DF
330
9
100
AcDbSymbolTableRecord
100
AcDbRegAppTableRecord
  2
ACAD_DSTYLE_DIMJAG
 70
     0
  0
APPID
  5
E0
330
9
100
AcDbSymbolTableRecord
100
AcDbRegAppTableRecord
  2
ACAD_DSTYLE_DIMTALN
 70
     0
  0
APPID
  5
107
330
9
100
AcDbSymbolTableRecord
100
AcDbRegAppTableRecord
  2
ACAD_MLEADERVER
 70
     0
  0
APPID
  5
1A6
330
9
100
AcDbSymbolTableRecord
100
AcDbRegAppTableRecord
  2
ACAD_NAV_VCDISPLAY
 70
     0
  0
APPID
  5
205
330
9
100
AcDbSymbolTableRecord
100
AcDbRegAppTableRecord
  2
AcAecLayerStandard
 70
     0
  0
APPID
  5
206
330
9
100
AcDbSymbolTableRecord
100
AcDbRegAppTableRecord
  2
AcCmTransparency
 70
     0
  0
APPID
  5
222
330
9
100
AcDbSymbolTableRecord
100
AcDbRegAppTableRecord
  2
ACAD_PSEXT
 70
     0
  0
APPID
  5
2DA
330
9
100
AcDbSymbolTableRecord
100
AcDbRegAppTableRecord
  2
GradientColor1ACI
 70
     0
  0
APPID
  5
2DB
330
9
100
AcDbSymbolTableRecord
100
AcDbRegAppTableRecord
  2
GradientColor2ACI
 70
     0
  0
APPID
  5
2F3
330
9
100
AcDbSymbolTableRecord
100
AcDbRegAppTableRecord
  2
ACAD_EXEMPT_FROM_CAD_STANDARDS
 70
     0
  0
APPID
  5
A1A
330
9
100
AcDbSymbolTableRecord
100
AcDbRegAppTableRecord
  2
AcDbBlockRepETag
 70
     0
  0
APPID
  5
2282
330
9
100
AcDbSymbolTableRecord
100
AcDbRegAppTableRecord
  2
RAK
 70
     0
  0
APPID
  5
39F4
330
9
100
AcDbSymbolTableRecord
100
AcDbRegAppTableRecord
  2
ACAD_DSTYLE_DIMJOGGED_JOGANGLE_SYMBOL
 70
     0
  0
APPID
  5
39F5
330
9
100
AcDbSymbolTableRecord
100
AcDbRegAppTableRecord
  2
AcDbDynamicBlockGUID
 70
     0
  0
APPID
  5
39F6
330
9
100
AcDbSymbolTableRecord
100
AcDbRegAppTableRecord
  2
ACAD_DSTYLE_DIMBREAK
 70
     0
  0
APPID
  5
3B59
330
9
100
AcDbSymbolTableRecord
100
AcDbRegAppTableRecord
  2
AEC_XDATA_BOUND_SPACE
 70
     0
  0
APPID
  5
75C5
330
9
100
AcDbSymbolTableRecord
100
AcDbRegAppTableRecord
  2
AcDbDynamicBlockTrueName
 70
     0
  0
APPID
  5
75C6
330
9
100
AcDbSymbolTableRecord
100
AcDbRegAppTableRecord
  2
AcDbBlockRepBTag
 70
     0
  0
APPID
  5
75C7
330
9
100
AcDbSymbolTableRecord
100
AcDbRegAppTableRecord
  2
ACAUTHENVIRON
 70
     0
  0
APPID
  5
AA90
330
9
100
AcDbSymbolTableRecord
100
AcDbRegAppTableRecord
  2
Acad_TC
 70
     0
  0
APPID
  5
AA9C
330
9
100
AcDbSymbolTableRecord
100
AcDbRegAppTableRecord
  2
AcDbBlockArrayActionTag
 70
     0
  0
APPID
  5
BEE4
330
9
100
AcDbSymbolTableRecord
100
AcDbRegAppTableRecord
  2
ACAD_DSTYLE_DIMTEXT_FILL
 70
     0
  0
APPID
  5
219E5
330
9
100
AcDbSymbolTableRecord
100
AcDbRegAppTableRecord
  2
AECLAY
 70
     0
  0
APPID
  5
26B46
330
9
100
AcDbSymbolTableRecord
100
AcDbRegAppTableRecord
  2
REVIT
 70
     0
  0
APPID
  5
280A5
330
9
100
AcDbSymbolTableRecord
100
AcDbRegAppTableRecord
  2
HATCHBACKGROUNDCOLOR
 70
     0
  0
APPID
  5
29EE0
330
9
100
AcDbSymbolTableRecord
100
AcDbRegAppTableRecord
  2
ACAD_STEPID
 70
     0
  0
APPID
  5
29EE1
330
9
100
AcDbSymbolTableRecord
100
AcDbRegAppTableRecord
  2
AcLayerTools
 70
     0
  0
APPID
  5
4D86C
330
9
100
AcDbSymbolTableRecord
100
AcDbRegAppTableRecord
  2
PE_URL
 70
     0
  0
APPID
  5
502C4
330
9
100
AcDbSymbolTableRecord
100
AcDbRegAppTableRecord
  2
_KTI_ARE
 70
     0
  0
ENDTAB
  0
TABLE
  2
DIMSTYLE
  5
A
330
0
100
AcDbSymbolTable
 70
     2
100
AcDbDimStyleTable
 71
     1
340
27
  0
DIMSTYLE
105
27
330
A
100
AcDbSymbolTableRecord
100
AcDbDimStyleTableRecord
  2
Standard
 70
     0
340
11
  0
ENDTAB
  0
TABLE
  2
BLOCK_RECORD
  5
1
330
0
100
AcDbSymbolTable
 70
     2
  0
BLOCK_RECORD
  5
1F
102
{ACAD_XDICTIONARY
360
15D
102
}
330
1
100
AcDbSymbolTableRecord
100
AcDbBlockTableRecord
  2
*Model_Space
340
22
 70
     0
280
     1
281
     0
  0
BLOCK_RECORD
  5
58
330
1
100
AcDbSymbolTableRecord
100
AcDbBlockTableRecord
  2
*Paper_Space
340
59
 70
     0
280
     1
281
     0
  0
BLOCK_RECORD
  5
5D
330
1
100
AcDbSymbolTableRecord
100
AcDbBlockTableRecord
  2
*Paper_Space0
340
5E
 70
     0
280
     1
281
     0
  0
ENDTAB
  0
ENDSEC
  0
SECTION
  2
BLOCKS
  0
BLOCK
  5
20
330
1F
100
AcDbEntity
  8
0
100
AcDbBlockBegin
  2
*Model_Space
 70
     0
 10
0.0
 20
0.0
 30
0.0
  3
*Model_Space
  1

  0
ENDBLK
  5
21
330
1F
100
AcDbEntity
  8
0
100
AcDbBlockEnd
  0
BLOCK
  5
5A
330
58
100
AcDbEntity
 67
     1
  8
0
100
AcDbBlockBegin
  2
*Paper_Space
 70
     0
 10
0.0
 20
0.0
 30
0.0
  3
*Paper_Space
  1

  0
ENDBLK
  5
5B
330
58
100
AcDbEntity
 67
     1
  8
0
100
AcDbBlockEnd
  0
BLOCK
  5
5F
330
5D
100
AcDbEntity
 67
     1
  8
0
100
AcDbBlockBegin
  2
*Paper_Space0
 70
     0
 10
0.0
 20
0.0
 30
0.0
  3
*Paper_Space0
  1

  0
ENDBLK
  5
60
330
5D
100
AcDbEntity
 67
     1
  8
0
100
AcDbBlockEnd
  0
ENDSEC
  0
SECTION
  2
ENTITIES
  0
LINE
  5
DA145
330
1F
100
AcDbEntity
  8
freecads.com
100
AcDbLine
 10
107033.6967154781
 20
97456.77526456994
 30
0.0
 11
107033.7075943843
 21
97456.77381339806
 31
0.0
  0
LINE
  5
DA146
330
1F
100
AcDbEntity
  8
freecads.com
100
AcDbLine
 10
107033.7075943843
 20
97456.77381339806
 30
0.0
 11
107033.7184771969
 21
97456.76873722619
 31
0.0
  0
LINE
  5
DA147
330
1F
100
AcDbEntity
  8
freecads.com
100
AcDbLine
 10
107033.7184771969
 20
97456.76873722619
 30
0.0
 11
107033.7293561031
 21
97456.76003312462
 31
0.0
  0
LINE
  5
DA148
330
1F
100
AcDbEntity
  8
freecads.com
100
AcDbLine
 10
107033.7293561031
 20
97456.76003312462
 30
0.0
 11
107033.7424107906
 21
97456.76946183555
 31
0.0
  0
LINE
  5
DA149
330
1F
100
AcDbEntity
  8
freecads.com
100
AcDbLine
 10
107033.7424107906
 20
97456.76946183555
 30
0.0
 11
107033.7561920406
 21
97456.77671476524
 31
0.0
  0
LINE
  5
DA14A
330
1F
100
AcDbEntity
  8
freecads.com
100
AcDbLine
 10
107033.7561920406
 20
97456.77671476524
 30
0.0
 11
107033.7721490719
 21
97456.78686906213
 31
0.0
  0
LINE
  5
DA14B
330
1F
100
AcDbEntity
  8
freecads.com
100
AcDbLine
 10
107033.7721490719
 20
97456.78686906213
 30
0.0
 11
107033.7823014156
 21
97456.79774894494
 31
0.0
  0
LINE
  5
DA14C
330
1F
100
AcDbEntity
  8
freecads.com
100
AcDbLine
 10
107033.7823014156
 20
97456.79774894494
 30
0.0
 11
107033.7997076656
 21
97456.82023331992
 31
0.0
  0
LINE
  5
DA14D
330
1F
100
AcDbEntity
  8
freecads.com
100
AcDbLine
 10
107033.7997076656
 20
97456.82023331992
 30
0.0
 11
107033.8098639156
 21
97456.8347391793
 31
0.0
  0
LINE
  5
DA14E
330
1F
100
AcDbEntity
  8
freecads.com
100
AcDbLine
 10
107033.8098639156
 20
97456.8347391793
 30
0.0
 11
107033.8192936031
 21
97456.84706925743
 31
0.0
  0
LINE
  5
DA14F
330
1F
100
AcDbEntity
  8
freecads.com
100
AcDbLine
 10
107033.8192936031
 20
97456.84706925743
 30
0.0
 11
107033.8192936031
 21
97456.85722355432
 31
0.0
  0
LINE
  5
DA150
330
1F
100
AcDbEntity
  8
freecads.com
100
AcDbLine
 10
107033.8192936031
 20
97456.85722355432
 30
0.0
 11
107033.8149381343
 21
97456.86810246056
 31
0.0
  0
LINE
  5
DA151
330
1F
100
AcDbEntity
  8
freecads.com
100
AcDbLine
 10
107033.8149381343
 20
97456.86810246056
 30
0.0
 11
107033.8062350093
 21
97456.87898234338
 31
0.0
  0
LINE
  5
DA152
330
1F
100
AcDbEntity
  8
freecads.com
100
AcDbLine
 10
107033.8062350093
 20
97456.87898234338
 30
0.0
 11
107033.7989850093
 21
97456.89203800743
 31
0.0
  0
LINE
  5
DA153
330
1F
100
AcDbEntity
  8
freecads.com
100
AcDbLine
 10
107033.7989850093
 20
97456.89203800743
 30
0.0
 11
107033.7924537593
 21
97456.90364249963
 31
0.0
  0
LINE
  5
DA154
330
1F
100
AcDbEntity
  8
freecads.com
100
AcDbLine
 10
107033.7924537593
 20
97456.90364249963
 30
0.0
 11
107033.7830279781
 21
97456.91959855431
 31
0.0
  0
LINE
  5
DA155
330
1F
100
AcDbEntity
  8
freecads.com
100
AcDbLine
 10
107033.7830279781
 20
97456.91959855431
 30
0.0
 11
107033.7735982906
 21
97456.93555558556
 31
0.0
  0
LINE
  5
DA156
330
1F
100
AcDbEntity
  8
freecads.com
100
AcDbLine
 10
107033.7735982906
 20
97456.93555558556
 30
0.0
 11
107033.7605436031
 21
97456.94861124963
 31
0.0
  0
LINE
  5
DA157
330
1F
100
AcDbEntity
  8
freecads.com
100
AcDbLine
 10
107033.7605436031
 20
97456.94861124963
 30
0.0
 11
107033.7467623531
 21
97456.96021574181
 31
0.0
  0
LINE
  5
DA158
330
1F
100
AcDbEntity
  8
freecads.com
100
AcDbLine
 10
107033.7467623531
 20
97456.96021574181
 30
0.0
 11
107033.7366061031
 21
97456.96239249962
 31
0.0
  0
LINE
  5
DA159
330
1F
100
AcDbEntity
  8
freecads.com
100
AcDbLine
 10
107033.7366061031
 20
97456.96239249962
 30
0.0
 11
107033.7177506344
 21
97456.95078800745
 31
0.0
  0
LINE
  5
DA15A
330
1F
100
AcDbEntity
  8
freecads.com
100
AcDbLine
 10
107033.7177506344
 20
97456.95078800745
 30
0.0
 11
107033.7068717281
 21
97456.94063273399
 31
0.0
  0
LINE
  5
DA15B
330
1F
100
AcDbEntity
  8
freecads.com
100
AcDbLine
 10
107033.7068717281
 20
97456.94063273399
 30
0.0
 11
107033.6974420406
 21
97456.92540128867
 31
0.0
  0
LINE
  5
DA15C
330
1F
100
AcDbEntity
  8
freecads.com
100
AcDbLine
 10
107033.6974420406
 20
97456.92540128867
 30
0.0
 11
107033.6923639156
 21
97456.90799503869
 31
0.0
  0
LINE
  5
DA15D
330
1F
100
AcDbEntity
  8
freecads.com
100
AcDbLine
 10
107033.6923639156
 20
97456.90799503869
 30
0.0
 11
107033.6901881344
 21
97456.89638956994
 31
0.0
  0
LINE
  5
DA15E
330
1F
100
AcDbEntity
  8
freecads.com
100
AcDbLine
 10
107033.6901881344
 20
97456.89638956994
 30
0.0
 11
107033.6858365719
 21
97456.87898234338
 31
0.0
  0
LINE
  5
DA15F
330
1F
100
AcDbEntity
  8
freecads.com
100
AcDbLine
 10
107033.6858365719
 20
97456.87898234338
 30
0.0
 11
107033.6836607906
 21
97456.86810246056
 31
0.0
  0
LINE
  5
DA160
330
1F
100
AcDbEntity
  8
freecads.com
100
AcDbLine
 10
107033.6836607906
 20
97456.86810246056
 30
0.0
 11
107033.6800357906
 21
97456.85214640587
 31
0.0
  0
LINE
  5
DA161
330
1F
100
AcDbEntity
  8
freecads.com
100
AcDbLine
 10
107033.6800357906
 20
97456.85214640587
 30
0.0
 11
107033.6771334468
 21
97456.8390907418
 31
0.0
  0
LINE
  5
DA162
330
1F
100
AcDbEntity
  8
freecads.com
100
AcDbLine
 10
107033.6771334468
 20
97456.8390907418
 30
0.0
 11
107033.6756803219
 21
97456.82821183555
 31
0.0
  0
LINE
  5
DA163
330
1F
100
AcDbEntity
  8
freecads.com
100
AcDbLine
 10
107033.6756803219
 20
97456.82821183555
 30
0.0
 11
107033.6735084469
 21
97456.80790324181
 31
0.0
  0
LINE
  5
DA164
330
1F
100
AcDbEntity
  8
freecads.com
100
AcDbLine
 10
107033.6735084469
 20
97456.80790324181
 30
0.0
 11
107033.6727818844
 21
97456.79267081994
 31
0.0
  0
LINE
  5
DA165
330
1F
100
AcDbEntity
  8
freecads.com
100
AcDbLine
 10
107033.6727818844
 20
97456.79267081994
 30
0.0
 11
107033.6727818844
 21
97456.78034074181
 31
0.0
  0
LINE
  5
DA166
330
1F
100
AcDbEntity
  8
freecads.com
100
AcDbLine
 10
107033.6727818844
 20
97456.78034074181
 30
0.0
 11
107033.6967154781
 21
97456.77526456994
 31
0.0
  0
LINE
  5
DA167
330
1F
100
AcDbEntity
  8
freecads.com
100
AcDbLine
 10
107033.5336178219
 20
97457.23425968712
 30
0.0
 11
107033.5719654781
 21
97457.20826945275
 31
0.0
  0
LINE
  5
DA168
330
1F
100
AcDbEntity
  8
freecads.com
100
AcDbLine
 10
107033.5719654781
 20
97457.20826945275
 30
0.0
 11
107033.5567350094
 21
97457.19738956994
 31
0.0
  0
LINE
  5
DA169
330
1F
100
AcDbEntity
  8
freecads.com
100
AcDbLine
 10
107033.5567350094
 20
97457.19738956994
 30
0.0
 11
107033.5473053219
 21
97457.18215910118
 31
0.0
  0
LINE
  5
DA16A
330
1F
100
AcDbEntity
  8
freecads.com
100
AcDbLine
 10
107033.5473053219
 20
97457.18215910118
 30
0.0
 11
107033.5378756344
 21
97457.17127921837
 31
0.0
  0
LINE
  5
DA16B
330
1F
100
AcDbEntity
  8
freecads.com
100
AcDbLine
 10
107033.5378756344
 20
97457.17127921837
 30
0.0
 11
107033.5248209469
 21
97457.16185050742
 31
0.0
  0
LINE
  5
DA16C
330
1F
100
AcDbEntity
  8
freecads.com
100
AcDbLine
 10
107033.5248209469
 20
97457.16185050742
 30
0.0
 11
107033.5139381344
 21
97457.1545966012
 31
0.0
  0
LINE
  5
DA16D
330
1F
100
AcDbEntity
  8
freecads.com
100
AcDbLine
 10
107033.5139381344
 20
97457.1545966012
 30
0.0
 11
107033.5023365718
 21
97457.14589347619
 31
0.0
  0
LINE
  5
DA16E
330
1F
100
AcDbEntity
  8
freecads.com
100
AcDbLine
 10
107033.5023365718
 20
97457.14589347619
 30
0.0
 11
107033.4907311031
 21
97457.14009074182
 31
0.0
  0
LINE
  5
DA16F
330
1F
100
AcDbEntity
  8
freecads.com
100
AcDbLine
 10
107033.4907311031
 20
97457.14009074182
 30
0.0
 11
107033.4805748531
 21
97457.13719035119
 31
0.0
  0
LINE
  5
DA170
330
1F
100
AcDbEntity
  8
freecads.com
100
AcDbLine
 10
107033.4805748531
 20
97457.13719035119
 30
0.0
 11
107033.4682467281
 21
97457.13283878869
 31
0.0
  0
LINE
  5
DA171
330
1F
100
AcDbEntity
  8
freecads.com
100
AcDbLine
 10
107033.4682467281
 20
97457.13283878869
 30
0.0
 11
107033.4566412594
 21
97457.1299374215
 31
0.0
  0
LINE
  5
DA172
330
1F
100
AcDbEntity
  8
freecads.com
100
AcDbLine
 10
107033.4566412594
 20
97457.1299374215
 30
0.0
 11
107033.4464850094
 21
97457.12776066369
 31
0.0
  0
LINE
  5
DA173
330
1F
100
AcDbEntity
  8
freecads.com
100
AcDbLine
 10
107033.4464850094
 20
97457.12776066369
 30
0.0
 11
107033.4406842281
 21
97457.1161561715
 31
0.0
  0
LINE
  5
DA174
330
1F
100
AcDbEntity
  8
freecads.com
100
AcDbLine
 10
107033.4406842281
 20
97457.1161561715
 30
0.0
 11
107033.4377818843
 21
97457.10527628869
 31
0.0
  0
LINE
  5
DA175
330
1F
100
AcDbEntity
  8
freecads.com
100
AcDbLine
 10
107033.4377818843
 20
97457.10527628869
 30
0.0
 11
107033.4348834468
 21
97457.09367179649
 31
0.0
  0
LINE
  5
DA176
330
1F
100
AcDbEntity
  8
freecads.com
100
AcDbLine
 10
107033.4348834468
 20
97457.09367179649
 30
0.0
 11
107033.4319811031
 21
97457.0820673043
 31
0.0
  0
LINE
  5
DA177
330
1F
100
AcDbEntity
  8
freecads.com
100
AcDbLine
 10
107033.4319811031
 20
97457.0820673043
 30
0.0
 11
107033.4261803219
 21
97457.06973722619
 31
0.0
  0
LINE
  5
DA178
330
1F
100
AcDbEntity
  8
freecads.com
100
AcDbLine
 10
107033.4261803219
 20
97457.06973722619
 30
0.0
 11
107033.4196490719
 21
97457.05378019493
 31
0.0
  0
LINE
  5
DA179
330
1F
100
AcDbEntity
  8
freecads.com
100
AcDbLine
 10
107033.4196490719
 20
97457.05378019493
 30
0.0
 11
107033.4152975094
 21
97457.03854972619
 31
0.0
  0
LINE
  5
DA17A
330
1F
100
AcDbEntity
  8
freecads.com
100
AcDbLine
 10
107033.4152975094
 20
97457.03854972619
 30
0.0
 11
107033.4116725094
 21
97457.02114152306
 31
0.0
  0
LINE
  5
DA17B
330
1F
100
AcDbEntity
  8
freecads.com
100
AcDbLine
 10
107033.4116725094
 20
97457.02114152306
 30
0.0
 11
107033.4094967281
 21
97457.00736124963
 31
0.0
  0
LINE
  5
DA17C
330
1F
100
AcDbEntity
  8
freecads.com
100
AcDbLine
 10
107033.4094967281
 20
97457.00736124963
 30
0.0
 11
107033.4065943844
 21
97456.99430558556
 31
0.0
  0
LINE
  5
DA17D
330
1F
100
AcDbEntity
  8
freecads.com
100
AcDbLine
 10
107033.4065943844
 20
97456.99430558556
 30
0.0
 11
107033.4029693844
 21
97456.976898359
 31
0.0
  0
LINE
  5
DA17E
330
1F
100
AcDbEntity
  8
freecads.com
100
AcDbLine
 10
107033.4029693844
 20
97456.976898359
 30
0.0
 11
107033.4007936031
 21
97456.96384269495
 31
0.0
  0
LINE
  5
DA17F
330
1F
100
AcDbEntity
  8
freecads.com
100
AcDbLine
 10
107033.4007936031
 20
97456.96384269495
 30
0.0
 11
107033.3971686031
 21
97456.94716105431
 31
0.0
  0
LINE
  5
DA180
330
1F
100
AcDbEntity
  8
freecads.com
100
AcDbLine
 10
107033.3971686031
 20
97456.94716105431
 30
0.0
 11
107033.3928170406
 21
97456.93192960899
 31
0.0
  0
LINE
  5
DA181
330
1F
100
AcDbEntity
  8
freecads.com
100
AcDbLine
 10
107033.3928170406
 20
97456.93192960899
 30
0.0
 11
107033.3906373531
 21
97456.91887394492
 31
0.0
  0
LINE
  5
DA182
330
1F
100
AcDbEntity
  8
freecads.com
100
AcDbLine
 10
107033.3906373531
 20
97456.91887394492
 30
0.0
 11
107033.3877389156
 21
97456.90364347618
 31
0.0
  0
LINE
  5
DA183
330
1F
100
AcDbEntity
  8
freecads.com
100
AcDbLine
 10
107033.3877389156
 20
97456.90364347618
 30
0.0
 11
107033.3848365718
 21
97456.88986222619
 31
0.0
  0
LINE
  5
DA184
330
1F
100
AcDbEntity
  8
freecads.com
100
AcDbLine
 10
107033.3848365718
 20
97456.88986222619
 30
0.0
 11
107033.3833873531
 21
97456.878257734
 31
0.0
  0
LINE
  5
DA185
330
1F
100
AcDbEntity
  8
freecads.com
100
AcDbLine
 10
107033.3833873531
 20
97456.878257734
 30
0.0
 11
107033.3826607906
 21
97456.86737785119
 31
0.0
  0
LINE
  5
DA186
330
1F
100
AcDbEntity
  8
freecads.com
100
AcDbLine
 10
107033.3826607906
 20
97456.86737785119
 30
0.0
 11
107033.3819342281
 21
97456.85359660118
 31
0.0
  0
LINE
  5
DA187
330
1F
100
AcDbEntity
  8
freecads.com
100
AcDbLine
 10
107033.3819342281
 20
97456.85359660118
 30
0.0
 11
107033.3812076656
 21
97456.83981632774
 31
0.0
  0
LINE
  5
DA188
330
1F
100
AcDbEntity
  8
freecads.com
100
AcDbLine
 10
107033.3812076656
 20
97456.83981632774
 30
0.0
 11
107033.3804850093
 21
97456.82386027306
 31
0.0
  0
LINE
  5
DA189
330
1F
100
AcDbEntity
  8
freecads.com
100
AcDbLine
 10
107033.3804850093
 20
97456.82386027306
 30
0.0
 11
107033.3790357906
 21
97456.81225480431
 31
0.0
  0
LINE
  5
DA18A
330
1F
100
AcDbEntity
  8
freecads.com
100
AcDbLine
 10
107033.3790357906
 20
97456.81225480431
 30
0.0
 11
107033.3783092281
 21
97456.79992472618
 31
0.0
  0
LINE
  5
DA18B
330
1F
100
AcDbEntity
  8
freecads.com
100
AcDbLine
 10
107033.3783092281
 20
97456.79992472618
 30
0.0
 11
107033.3783092281
 21
97456.78904581994
 31
0.0
  0
LINE
  5
DA18C
330
1F
100
AcDbEntity
  8
freecads.com
100
AcDbLine
 10
107033.3783092281
 20
97456.78904581994
 30
0.0
 11
107033.3768561031
 21
97456.77308878869
 31
0.0
  0
LINE
  5
DA18D
330
1F
100
AcDbEntity
  8
freecads.com
100
AcDbLine
 10
107033.3768561031
 20
97456.77308878869
 30
0.0
 11
107033.3746842281
 21
97456.76148331993
 31
0.0
  0
LINE
  5
DA18E
330
1F
100
AcDbEntity
  8
freecads.com
100
AcDbLine
 10
107033.3746842281
 20
97456.76148331993
 30
0.0
 11
107033.3725045406
 21
97456.74987882775
 31
0.0
  0
LINE
  5
DA18F
330
1F
100
AcDbEntity
  8
freecads.com
100
AcDbLine
 10
107033.3725045406
 20
97456.74987882775
 30
0.0
 11
107033.3710553218
 21
97456.73972453086
 31
0.0
  0
LINE
  5
DA190
330
1F
100
AcDbEntity
  8
freecads.com
100
AcDbLine
 10
107033.3710553218
 20
97456.73972453086
 30
0.0
 11
107033.3703326656
 21
97456.72666886681
 31
0.0
  0
LINE
  5
DA191
330
1F
100
AcDbEntity
  8
freecads.com
100
AcDbLine
 10
107033.3703326656
 20
97456.72666886681
 30
0.0
 11
107033.3703326656
 21
97456.70926261681
 31
0.0
  0
LINE
  5
DA192
330
1F
100
AcDbEntity
  8
freecads.com
100
AcDbLine
 10
107033.3703326656
 20
97456.70926261681
 30
0.0
 11
107033.3703326656
 21
97456.698382734
 31
0.0
  0
LINE
  5
DA193
330
1F
100
AcDbEntity
  8
freecads.com
100
AcDbLine
 10
107033.3703326656
 20
97456.698382734
 30
0.0
 11
107033.3703326656
 21
97456.68532706993
 31
0.0
  0
LINE
  5
DA194
330
1F
100
AcDbEntity
  8
freecads.com
100
AcDbLine
 10
107033.3703326656
 20
97456.68532706993
 30
0.0
 11
107033.3674303219
 21
97456.66791984337
 31
0.0
  0
LINE
  5
DA195
330
1F
100
AcDbEntity
  8
freecads.com
100
AcDbLine
 10
107033.3674303219
 20
97456.66791984337
 30
0.0
 11
107033.3652545406
 21
97456.6577655465
 31
0.0
  0
LINE
  5
DA196
330
1F
100
AcDbEntity
  8
freecads.com
100
AcDbLine
 10
107033.3652545406
 20
97456.6577655465
 30
0.0
 11
107033.3623521968
 21
97456.6381825387
 31
0.0
  0
LINE
  5
DA197
330
1F
100
AcDbEntity
  8
freecads.com
100
AcDbLine
 10
107033.3623521968
 20
97456.6381825387
 30
0.0
 11
107033.3572740719
 21
97456.62004972619
 31
0.0
  0
LINE
  5
DA198
330
1F
100
AcDbEntity
  8
freecads.com
100
AcDbLine
 10
107033.3572740719
 20
97456.62004972619
 30
0.0
 11
107033.3543717281
 21
97456.60554386681
 31
0.0
  0
LINE
  5
DA199
330
1F
100
AcDbEntity
  8
freecads.com
100
AcDbLine
 10
107033.3543717281
 20
97456.60554386681
 30
0.0
 11
107033.3521998531
 21
97456.5903124215
 31
0.0
  0
LINE
  5
DA19A
330
1F
100
AcDbEntity
  8
freecads.com
100
AcDbLine
 10
107033.3521998531
 20
97456.5903124215
 30
0.0
 11
107033.3500201656
 21
97456.57943253869
 31
0.0
  0
LINE
  5
DA19B
330
1F
100
AcDbEntity
  8
freecads.com
100
AcDbLine
 10
107033.3500201656
 20
97456.57943253869
 30
0.0
 11
107033.3485709468
 21
97456.5692782418
 31
0.0
  0
LINE
  5
DA19C
330
1F
100
AcDbEntity
  8
freecads.com
100
AcDbLine
 10
107033.3485709468
 20
97456.5692782418
 30
0.0
 11
107033.3471217281
 21
97456.55694816369
 31
0.0
  0
LINE
  5
DA19D
330
1F
100
AcDbEntity
  8
freecads.com
100
AcDbLine
 10
107033.3471217281
 20
97456.55694816369
 30
0.0
 11
107033.3550982906
 21
97456.54606925745
 31
0.0
  0
LINE
  5
DA19E
330
1F
100
AcDbEntity
  8
freecads.com
100
AcDbLine
 10
107033.3550982906
 20
97456.54606925745
 30
0.0
 11
107033.3558248531
 21
97456.53591496056
 31
0.0
  0
LINE
  5
DA19F
330
1F
100
AcDbEntity
  8
freecads.com
100
AcDbLine
 10
107033.3558248531
 20
97456.53591496056
 30
0.0
 11
107033.3492975094
 21
97456.52358488245
 31
0.0
  0
LINE
  5
DA1A0
330
1F
100
AcDbEntity
  8
freecads.com
100
AcDbLine
 10
107033.3492975094
 20
97456.52358488245
 30
0.0
 11
107033.3492975094
 21
97456.51125480431
 31
0.0
  0
LINE
  5
DA1A1
330
1F
100
AcDbEntity
  8
freecads.com
100
AcDbLine
 10
107033.3492975094
 20
97456.51125480431
 30
0.0
 11
107033.3507467281
 21
97456.49892472618
 31
0.0
  0
LINE
  5
DA1A2
330
1F
100
AcDbEntity
  8
freecads.com
100
AcDbLine
 10
107033.3507467281
 20
97456.49892472618
 30
0.0
 11
107033.3594498531
 21
97456.48731925744
 31
0.0
  0
LINE
  5
DA1A3
330
1F
100
AcDbEntity
  8
freecads.com
100
AcDbLine
 10
107033.3594498531
 20
97456.48731925744
 30
0.0
 11
107033.3688795406
 21
97456.473538984
 31
0.0
  0
LINE
  5
DA1A4
330
1F
100
AcDbEntity
  8
freecads.com
100
AcDbLine
 10
107033.3688795406
 20
97456.473538984
 30
0.0
 11
107033.3696061031
 21
97456.46193449182
 31
0.0
  0
LINE
  5
DA1A5
330
1F
100
AcDbEntity
  8
freecads.com
100
AcDbLine
 10
107033.3696061031
 20
97456.46193449182
 30
0.0
 11
107033.3703326656
 21
97456.451054609
 31
0.0
  0
LINE
  5
DA1A6
330
1F
100
AcDbEntity
  8
freecads.com
100
AcDbLine
 10
107033.3703326656
 20
97456.451054609
 30
0.0
 11
107033.3812076656
 21
97456.44090031213
 31
0.0
  0
LINE
  5
DA1A7
330
1F
100
AcDbEntity
  8
freecads.com
100
AcDbLine
 10
107033.3812076656
 20
97456.44090031213
 30
0.0
 11
107033.3928170406
 21
97456.44017472619
 31
0.0
  0
LINE
  5
DA1A8
330
1F
100
AcDbEntity
  8
freecads.com
100
AcDbLine
 10
107033.3928170406
 20
97456.44017472619
 30
0.0
 11
107033.4029693844
 21
97456.43582316368
 31
0.0
  0
LINE
  5
DA1A9
330
1F
100
AcDbEntity
  8
freecads.com
100
AcDbLine
 10
107033.4029693844
 20
97456.43582316368
 30
0.0
 11
107033.4029693844
 21
97456.42276749963
 31
0.0
  0
LINE
  5
DA1AA
330
1F
100
AcDbEntity
  8
freecads.com
100
AcDbLine
 10
107033.4029693844
 20
97456.42276749963
 30
0.0
 11
107033.4029693844
 21
97456.40898722617
 31
0.0
  0
LINE
  5
DA1AB
330
1F
100
AcDbEntity
  8
freecads.com
100
AcDbLine
 10
107033.4029693844
 20
97456.40898722617
 30
0.0
 11
107033.4029693844
 21
97456.39810734337
 31
0.0
  0
LINE
  5
DA1AC
330
1F
100
AcDbEntity
  8
freecads.com
100
AcDbLine
 10
107033.4029693844
 20
97456.39810734337
 30
0.0
 11
107033.4029693844
 21
97456.38360148401
 31
0.0
  0
LINE
  5
DA1AD
330
1F
100
AcDbEntity
  8
freecads.com
100
AcDbLine
 10
107033.4029693844
 20
97456.38360148401
 30
0.0
 11
107033.4029693844
 21
97456.37344718712
 31
0.0
  0
LINE
  5
DA1AE
330
1F
100
AcDbEntity
  8
freecads.com
100
AcDbLine
 10
107033.4029693844
 20
97456.37344718712
 30
0.0
 11
107033.4029693844
 21
97456.36256730431
 31
0.0
  0
LINE
  5
DA1AF
330
1F
100
AcDbEntity
  8
freecads.com
100
AcDbLine
 10
107033.4029693844
 20
97456.36256730431
 30
0.0
 11
107033.4029693844
 21
97456.34733683557
 31
0.0
  0
LINE
  5
DA1B0
330
1F
100
AcDbEntity
  8
freecads.com
100
AcDbLine
 10
107033.4029693844
 20
97456.34733683557
 30
0.0
 11
107033.4029693844
 21
97456.33718253868
 31
0.0
  0
LINE
  5
DA1B1
330
1F
100
AcDbEntity
  8
freecads.com
100
AcDbLine
 10
107033.4029693844
 20
97456.33718253868
 30
0.0
 11
107033.4029693844
 21
97456.32340128869
 31
0.0
  0
LINE
  5
DA1B2
330
1F
100
AcDbEntity
  8
freecads.com
100
AcDbLine
 10
107033.4029693844
 20
97456.32340128869
 30
0.0
 11
107033.4029693844
 21
97456.3117967965
 31
0.0
  0
LINE
  5
DA1B3
330
1F
100
AcDbEntity
  8
freecads.com
100
AcDbLine
 10
107033.4029693844
 20
97456.3117967965
 30
0.0
 11
107033.4036920406
 21
97456.29511515586
 31
0.0
  0
LINE
  5
DA1B4
330
1F
100
AcDbEntity
  8
freecads.com
100
AcDbLine
 10
107033.4036920406
 20
97456.29511515586
 30
0.0
 11
107033.4036920406
 21
97456.27988273399
 31
0.0
  0
LINE
  5
DA1B5
330
1F
100
AcDbEntity
  8
freecads.com
100
AcDbLine
 10
107033.4036920406
 20
97456.27988273399
 30
0.0
 11
107033.4029693844
 21
97456.26900382776
 31
0.0
  0
LINE
  5
DA1B6
330
1F
100
AcDbEntity
  8
freecads.com
100
AcDbLine
 10
107033.4029693844
 20
97456.26900382776
 30
0.0
 11
107033.4015201656
 21
97456.25594816369
 31
0.0
  0
LINE
  5
DA1B7
330
1F
100
AcDbEntity
  8
freecads.com
100
AcDbLine
 10
107033.4015201656
 20
97456.25594816369
 30
0.0
 11
107033.3986178219
 21
97456.23854093713
 31
0.0
  0
LINE
  5
DA1B8
330
1F
100
AcDbEntity
  8
freecads.com
100
AcDbLine
 10
107033.3986178219
 20
97456.23854093713
 30
0.0
 11
107033.3957154781
 21
97456.22258390586
 31
0.0
  0
LINE
  5
DA1B9
330
1F
100
AcDbEntity
  8
freecads.com
100
AcDbLine
 10
107033.3957154781
 20
97456.22258390586
 30
0.0
 11
107033.3935396968
 21
97456.20590226526
 31
0.0
  0
LINE
  5
DA1BA
330
1F
100
AcDbEntity
  8
freecads.com
100
AcDbLine
 10
107033.3935396968
 20
97456.20590226526
 30
0.0
 11
107033.3913639156
 21
97456.19284757776
 31
0.0
  0
LINE
  5
DA1BB
330
1F
100
AcDbEntity
  8
freecads.com
100
AcDbLine
 10
107033.3913639156
 20
97456.19284757776
 30
0.0
 11
107033.3891881344
 21
97456.17326359337
 31
0.0
  0
LINE
  5
DA1BC
330
1F
100
AcDbEntity
  8
freecads.com
100
AcDbLine
 10
107033.3891881344
 20
97456.17326359337
 30
0.0
 11
107033.3884654781
 21
97456.16165910119
 31
0.0
  0
LINE
  5
DA1BD
330
1F
100
AcDbEntity
  8
freecads.com
100
AcDbLine
 10
107033.3884654781
 20
97456.16165910119
 30
0.0
 11
107033.3862857906
 21
97456.14497746055
 31
0.0
  0
LINE
  5
DA1BE
330
1F
100
AcDbEntity
  8
freecads.com
100
AcDbLine
 10
107033.3862857906
 20
97456.14497746055
 30
0.0
 11
107033.3841100093
 21
97456.13047062462
 31
0.0
  0
LINE
  5
DA1BF
330
1F
100
AcDbEntity
  8
freecads.com
100
AcDbLine
 10
107033.3841100093
 20
97456.13047062462
 30
0.0
 11
107033.3804850093
 21
97456.11306437464
 31
0.0
  0
LINE
  5
DA1C0
330
1F
100
AcDbEntity
  8
freecads.com
100
AcDbLine
 10
107033.3804850093
 20
97456.11306437464
 30
0.0
 11
107033.3797584469
 21
97456.09638175743
 31
0.0
  0
LINE
  5
DA1C1
330
1F
100
AcDbEntity
  8
freecads.com
100
AcDbLine
 10
107033.3797584469
 20
97456.09638175743
 30
0.0
 11
107033.3790357906
 21
97456.07752433556
 31
0.0
  0
LINE
  5
DA1C2
330
1F
100
AcDbEntity
  8
freecads.com
100
AcDbLine
 10
107033.3790357906
 20
97456.07752433556
 30
0.0
 11
107033.3783092281
 21
97456.06301749962
 31
0.0
  0
LINE
  5
DA1C3
330
1F
100
AcDbEntity
  8
freecads.com
100
AcDbLine
 10
107033.3783092281
 20
97456.06301749962
 30
0.0
 11
107033.3768561031
 21
97456.04706144494
 31
0.0
  0
LINE
  5
DA1C4
330
1F
100
AcDbEntity
  8
freecads.com
100
AcDbLine
 10
107033.3768561031
 20
97456.04706144494
 30
0.0
 11
107033.3768561031
 21
97456.03690714807
 31
0.0
  0
LINE
  5
DA1C5
330
1F
100
AcDbEntity
  8
freecads.com
100
AcDbLine
 10
107033.3768561031
 20
97456.03690714807
 30
0.0
 11
107033.3761334469
 21
97456.02312687463
 31
0.0
  0
LINE
  5
DA1C6
330
1F
100
AcDbEntity
  8
freecads.com
100
AcDbLine
 10
107033.3761334469
 20
97456.02312687463
 30
0.0
 11
107033.3725045406
 21
97456.0107967965
 31
0.0
  0
LINE
  5
DA1C7
330
1F
100
AcDbEntity
  8
freecads.com
100
AcDbLine
 10
107033.3725045406
 20
97456.0107967965
 30
0.0
 11
107033.3710553218
 21
97455.99991691369
 31
0.0
  0
LINE
  5
DA1C8
330
1F
100
AcDbEntity
  8
freecads.com
100
AcDbLine
 10
107033.3710553218
 20
97455.99991691369
 30
0.0
 11
107033.3696061031
 21
97455.98250968711
 31
0.0
  0
LINE
  5
DA1C9
330
1F
100
AcDbEntity
  8
freecads.com
100
AcDbLine
 10
107033.3696061031
 20
97455.98250968711
 30
0.0
 11
107033.3696061031
 21
97455.97090421837
 31
0.0
  0
LINE
  5
DA1CA
330
1F
100
AcDbEntity
  8
freecads.com
100
AcDbLine
 10
107033.3696061031
 20
97455.97090421837
 30
0.0
 11
107033.3710553218
 21
97455.95567374962
 31
0.0
  0
LINE
  5
DA1CB
330
1F
100
AcDbEntity
  8
freecads.com
100
AcDbLine
 10
107033.3710553218
 20
97455.95567374962
 30
0.0
 11
107033.3710553218
 21
97455.93681632776
 31
0.0
  0
LINE
  5
DA1CC
330
1F
100
AcDbEntity
  8
freecads.com
100
AcDbLine
 10
107033.3710553218
 20
97455.93681632776
 30
0.0
 11
107033.3696061031
 21
97455.92303507775
 31
0.0
  0
LINE
  5
DA1CD
330
1F
100
AcDbEntity
  8
freecads.com
100
AcDbLine
 10
107033.3696061031
 20
97455.92303507775
 30
0.0
 11
107033.3681529781
 21
97455.90345109338
 31
0.0
  0
LINE
  5
DA1CE
330
1F
100
AcDbEntity
  8
freecads.com
100
AcDbLine
 10
107033.3681529781
 20
97455.90345109338
 30
0.0
 11
107033.3674303219
 21
97455.88894523399
 31
0.0
  0
LINE
  5
DA1CF
330
1F
100
AcDbEntity
  8
freecads.com
100
AcDbLine
 10
107033.3674303219
 20
97455.88894523399
 30
0.0
 11
107033.3674303219
 21
97455.87443937461
 31
0.0
  0
LINE
  5
DA1D0
330
1F
100
AcDbEntity
  8
freecads.com
100
AcDbLine
 10
107033.3674303219
 20
97455.87443937461
 30
0.0
 11
107033.3674303219
 21
97455.85993351525
 31
0.0
  0
LINE
  5
DA1D1
330
1F
100
AcDbEntity
  8
freecads.com
100
AcDbLine
 10
107033.3674303219
 20
97455.85993351525
 30
0.0
 11
107033.3674303219
 21
97455.84035050743
 31
0.0
  0
LINE
  5
DA1D2
330
1F
100
AcDbEntity
  8
freecads.com
100
AcDbLine
 10
107033.3674303219
 20
97455.84035050743
 30
0.0
 11
107033.3681529781
 21
97455.82729484338
 31
0.0
  0
LINE
  5
DA1D3
330
1F
100
AcDbEntity
  8
freecads.com
100
AcDbLine
 10
107033.3681529781
 20
97455.82729484338
 30
0.0
 11
107033.3688795406
 21
97455.81424015588
 31
0.0
  0
LINE
  5
DA1D4
330
1F
100
AcDbEntity
  8
freecads.com
100
AcDbLine
 10
107033.3688795406
 20
97455.81424015588
 30
0.0
 11
107033.3703326656
 21
97455.79683195273
 31
0.0
  0
LINE
  5
DA1D5
330
1F
100
AcDbEntity
  8
freecads.com
100
AcDbLine
 10
107033.3703326656
 20
97455.79683195273
 30
0.0
 11
107033.3703326656
 21
97455.78377726523
 31
0.0
  0
LINE
  5
DA1D6
330
1F
100
AcDbEntity
  8
freecads.com
100
AcDbLine
 10
107033.3703326656
 20
97455.78377726523
 30
0.0
 11
107033.3732311031
 21
97455.76419328088
 31
0.0
  0
LINE
  5
DA1D7
330
1F
100
AcDbEntity
  8
freecads.com
100
AcDbLine
 10
107033.3732311031
 20
97455.76419328088
 30
0.0
 11
107033.3746842281
 21
97455.74388468712
 31
0.0
  0
LINE
  5
DA1D8
330
1F
100
AcDbEntity
  8
freecads.com
100
AcDbLine
 10
107033.3746842281
 20
97455.74388468712
 30
0.0
 11
107033.3761334469
 21
97455.73373039025
 31
0.0
  0
LINE
  5
DA1D9
330
1F
100
AcDbEntity
  8
freecads.com
100
AcDbLine
 10
107033.3761334469
 20
97455.73373039025
 30
0.0
 11
107033.3768561031
 21
97455.722851484
 31
0.0
  0
LINE
  5
DA1DA
330
1F
100
AcDbEntity
  8
freecads.com
100
AcDbLine
 10
107033.3768561031
 20
97455.722851484
 30
0.0
 11
107033.3783092281
 21
97455.70399406211
 31
0.0
  0
LINE
  5
DA1DB
330
1F
100
AcDbEntity
  8
freecads.com
100
AcDbLine
 10
107033.3783092281
 20
97455.70399406211
 30
0.0
 11
107033.3783092281
 21
97455.69383976526
 31
0.0
  0
LINE
  5
DA1DC
330
1F
100
AcDbEntity
  8
freecads.com
100
AcDbLine
 10
107033.3783092281
 20
97455.69383976526
 30
0.0
 11
107033.3899146969
 21
97455.68513664025
 31
0.0
  0
LINE
  5
DA1DD
330
1F
100
AcDbEntity
  8
freecads.com
100
AcDbLine
 10
107033.3899146969
 20
97455.68513664025
 30
0.0
 11
107033.4000670406
 21
97455.68078410119
 31
0.0
  0
LINE
  5
DA1DE
330
1F
100
AcDbEntity
  8
freecads.com
100
AcDbLine
 10
107033.4000670406
 20
97455.68078410119
 30
0.0
 11
107033.4138482906
 21
97455.67788273401
 31
0.0
  0
LINE
  5
DA1DF
330
1F
100
AcDbEntity
  8
freecads.com
100
AcDbLine
 10
107033.4138482906
 20
97455.67788273401
 30
0.0
 11
107033.4298053219
 21
97455.67570695275
 31
0.0
  0
LINE
  5
DA1E0
330
1F
100
AcDbEntity
  8
freecads.com
100
AcDbLine
 10
107033.4298053219
 20
97455.67570695275
 30
0.0
 11
107033.4443131343
 21
97455.67425578087
 31
0.0
  0
LINE
  5
DA1E1
330
1F
100
AcDbEntity
  8
freecads.com
100
AcDbLine
 10
107033.4443131343
 20
97455.67425578087
 30
0.0
 11
107033.4566412594
 21
97455.67207999963
 31
0.0
  0
LINE
  5
DA1E2
330
1F
100
AcDbEntity
  8
freecads.com
100
AcDbLine
 10
107033.4566412594
 20
97455.67207999963
 30
0.0
 11
107033.4675201656
 21
97455.66990421837
 31
0.0
  0
LINE
  5
DA1E3
330
1F
100
AcDbEntity
  8
freecads.com
100
AcDbLine
 10
107033.4675201656
 20
97455.66990421837
 30
0.0
 11
107033.4798521969
 21
97455.669179609
 31
0.0
  0
LINE
  5
DA1E4
330
1F
100
AcDbEntity
  8
freecads.com
100
AcDbLine
 10
107033.4798521969
 20
97455.669179609
 30
0.0
 11
107033.4907311031
 21
97455.66555265588
 31
0.0
  0
LINE
  5
DA1E5
330
1F
100
AcDbEntity
  8
freecads.com
100
AcDbLine
 10
107033.4907311031
 20
97455.66555265588
 30
0.0
 11
107033.5008834469
 21
97455.66265128868
 31
0.0
  0
LINE
  5
DA1E6
330
1F
100
AcDbEntity
  8
freecads.com
100
AcDbLine
 10
107033.5008834469
 20
97455.66265128868
 30
0.0
 11
107033.5074107906
 21
97455.64959562463
 31
0.0
  0
LINE
  5
DA1E7
330
1F
100
AcDbEntity
  8
freecads.com
100
AcDbLine
 10
107033.5074107906
 20
97455.64959562463
 30
0.0
 11
107033.5117662593
 21
97455.63581535119
 31
0.0
  0
LINE
  5
DA1E8
330
1F
100
AcDbEntity
  8
freecads.com
100
AcDbLine
 10
107033.5117662593
 20
97455.63581535119
 30
0.0
 11
107033.5190162593
 21
97455.62058390587
 31
0.0
  0
LINE
  5
DA1E9
330
1F
100
AcDbEntity
  8
freecads.com
100
AcDbLine
 10
107033.5190162593
 20
97455.62058390587
 30
0.0
 11
107033.5291725093
 21
97455.60970499962
 31
0.0
  0
LINE
  5
DA1EA
330
1F
100
AcDbEntity
  8
freecads.com
100
AcDbLine
 10
107033.5291725093
 20
97455.60970499962
 30
0.0
 11
107033.5393248531
 21
97455.60390226525
 31
0.0
  0
LINE
  5
DA1EB
330
1F
100
AcDbEntity
  8
freecads.com
100
AcDbLine
 10
107033.5393248531
 20
97455.60390226525
 30
0.0
 11
107033.5494811031
 21
97455.60317667932
 31
0.0
  0
LINE
  5
DA1EC
330
1F
100
AcDbEntity
  8
freecads.com
100
AcDbLine
 10
107033.5494811031
 20
97455.60317667932
 30
0.0
 11
107033.5618092281
 21
97455.6060780465
 31
0.0
  0
LINE
  5
DA1ED
330
1F
100
AcDbEntity
  8
freecads.com
100
AcDbLine
 10
107033.5618092281
 20
97455.6060780465
 30
0.0
 11
107033.5654381344
 21
97455.61840812461
 31
0.0
  0
LINE
  5
DA1EE
330
1F
100
AcDbEntity
  8
freecads.com
100
AcDbLine
 10
107033.5654381344
 20
97455.61840812461
 30
0.0
 11
107033.5654381344
 21
97455.63001359338
 31
0.0
  0
LINE
  5
DA1EF
330
1F
100
AcDbEntity
  8
freecads.com
100
AcDbLine
 10
107033.5654381344
 20
97455.63001359338
 30
0.0
 11
107033.5610865718
 21
97455.64379386681
 31
0.0
  0
LINE
  5
DA1F0
330
1F
100
AcDbEntity
  8
freecads.com
100
AcDbLine
 10
107033.5610865718
 20
97455.64379386681
 30
0.0
 11
107033.5589068843
 21
97455.65684953087
 31
0.0
  0
LINE
  5
DA1F1
330
1F
100
AcDbEntity
  8
freecads.com
100
AcDbLine
 10
107033.5589068843
 20
97455.65684953087
 30
0.0
 11
107033.5589068843
 21
97455.66845402306
 31
0.0
  0
LINE
  5
DA1F2
330
1F
100
AcDbEntity
  8
freecads.com
100
AcDbLine
 10
107033.5589068843
 20
97455.66845402306
 30
0.0
 11
107033.5610865718
 21
97455.69093839806
 31
0.0
  0
LINE
  5
DA1F3
330
1F
100
AcDbEntity
  8
freecads.com
100
AcDbLine
 10
107033.5610865718
 20
97455.69093839806
 30
0.0
 11
107033.5625357906
 21
97455.70109269493
 31
0.0
  0
LINE
  5
DA1F4
330
1F
100
AcDbEntity
  8
freecads.com
100
AcDbLine
 10
107033.5625357906
 20
97455.70109269493
 30
0.0
 11
107033.5632584469
 21
97455.71559855431
 31
0.0
  0
LINE
  5
DA1F5
330
1F
100
AcDbEntity
  8
freecads.com
100
AcDbLine
 10
107033.5632584469
 20
97455.71559855431
 30
0.0
 11
107033.5632584469
 21
97455.73155460899
 31
0.0
  0
LINE
  5
DA1F6
330
1F
100
AcDbEntity
  8
freecads.com
100
AcDbLine
 10
107033.5632584469
 20
97455.73155460899
 30
0.0
 11
107033.5632584469
 21
97455.74170890588
 31
0.0
  0
LINE
  5
DA1F7
330
1F
100
AcDbEntity
  8
freecads.com
100
AcDbLine
 10
107033.5632584469
 20
97455.74170890588
 30
0.0
 11
107033.5632584469
 21
97455.75331437462
 31
0.0
  0
LINE
  5
DA1F8
330
1F
100
AcDbEntity
  8
freecads.com
100
AcDbLine
 10
107033.5632584469
 20
97455.75331437462
 30
0.0
 11
107033.5625357906
 21
97455.76564445276
 31
0.0
  0
LINE
  5
DA1F9
330
1F
100
AcDbEntity
  8
freecads.com
100
AcDbLine
 10
107033.5625357906
 20
97455.76564445276
 30
0.0
 11
107033.5625357906
 21
97455.77797453089
 31
0.0
  0
LINE
  5
DA1FA
330
1F
100
AcDbEntity
  8
freecads.com
100
AcDbLine
 10
107033.5625357906
 20
97455.77797453089
 30
0.0
 11
107033.5545553219
 21
97455.79030460898
 31
0.0
  0
LINE
  5
DA1FB
330
1F
100
AcDbEntity
  8
freecads.com
100
AcDbLine
 10
107033.5545553219
 20
97455.79030460898
 30
0.0
 11
107033.5487545406
 21
97455.80118351524
 31
0.0
  0
LINE
  5
DA1FC
330
1F
100
AcDbEntity
  8
freecads.com
100
AcDbLine
 10
107033.5487545406
 20
97455.80118351524
 30
0.0
 11
107033.5458521968
 21
97455.81641593712
 31
0.0
  0
LINE
  5
DA1FD
330
1F
100
AcDbEntity
  8
freecads.com
100
AcDbLine
 10
107033.5458521968
 20
97455.81641593712
 30
0.0
 11
107033.5458521968
 21
97455.83019621056
 31
0.0
  0
LINE
  5
DA1FE
330
1F
100
AcDbEntity
  8
freecads.com
100
AcDbLine
 10
107033.5458521968
 20
97455.83019621056
 30
0.0
 11
107033.5458521968
 21
97455.84542765588
 31
0.0
  0
LINE
  5
DA1FF
330
1F
100
AcDbEntity
  8
freecads.com
100
AcDbLine
 10
107033.5458521968
 20
97455.84542765588
 30
0.0
 11
107033.5458521968
 21
97455.85703214807
 31
0.0
  0
LINE
  5
DA200
330
1F
100
AcDbEntity
  8
freecads.com
100
AcDbLine
 10
107033.5458521968
 20
97455.85703214807
 30
0.0
 11
107033.5458521968
 21
97455.8729891793
 31
0.0
  0
LINE
  5
DA201
330
1F
100
AcDbEntity
  8
freecads.com
100
AcDbLine
 10
107033.5458521968
 20
97455.8729891793
 30
0.0
 11
107033.5451256344
 21
97455.89112101525
 31
0.0
  0
LINE
  5
DA202
330
1F
100
AcDbEntity
  8
freecads.com
100
AcDbLine
 10
107033.5451256344
 20
97455.89112101525
 30
0.0
 11
107033.5451256344
 21
97455.90417765587
 31
0.0
  0
LINE
  5
DA203
330
1F
100
AcDbEntity
  8
freecads.com
100
AcDbLine
 10
107033.5451256344
 20
97455.90417765587
 30
0.0
 11
107033.5458521968
 21
97455.91940812463
 31
0.0
  0
LINE
  5
DA204
330
1F
100
AcDbEntity
  8
freecads.com
100
AcDbLine
 10
107033.5458521968
 20
97455.91940812463
 30
0.0
 11
107033.5451256344
 21
97455.93536515588
 31
0.0
  0
LINE
  5
DA205
330
1F
100
AcDbEntity
  8
freecads.com
100
AcDbLine
 10
107033.5451256344
 20
97455.93536515588
 30
0.0
 11
107033.5436764156
 21
97455.94696964806
 31
0.0
  0
LINE
  5
DA206
330
1F
100
AcDbEntity
  8
freecads.com
100
AcDbLine
 10
107033.5436764156
 20
97455.94696964806
 30
0.0
 11
107033.5429537593
 21
97455.95929972617
 31
0.0
  0
LINE
  5
DA207
330
1F
100
AcDbEntity
  8
freecads.com
100
AcDbLine
 10
107033.5429537593
 20
97455.95929972617
 30
0.0
 11
107033.5422271968
 21
97455.97598234336
 31
0.0
  0
LINE
  5
DA208
330
1F
100
AcDbEntity
  8
freecads.com
100
AcDbLine
 10
107033.5422271968
 20
97455.97598234336
 30
0.0
 11
107033.5400514156
 21
97455.98613664025
 31
0.0
  0
LINE
  5
DA209
330
1F
100
AcDbEntity
  8
freecads.com
100
AcDbLine
 10
107033.5400514156
 20
97455.98613664025
 30
0.0
 11
107033.5393248531
 21
97455.99991691369
 31
0.0
  0
LINE
  5
DA20A
330
1F
100
AcDbEntity
  8
freecads.com
100
AcDbLine
 10
107033.5393248531
 20
97455.99991691369
 30
0.0
 11
107033.5393248531
 21
97456.01732414025
 31
0.0
  0
LINE
  5
DA20B
330
1F
100
AcDbEntity
  8
freecads.com
100
AcDbLine
 10
107033.5393248531
 20
97456.01732414025
 30
0.0
 11
107033.5386021969
 21
97456.03110539025
 31
0.0
  0
LINE
  5
DA20C
330
1F
100
AcDbEntity
  8
freecads.com
100
AcDbLine
 10
107033.5386021969
 20
97456.03110539025
 30
0.0
 11
107033.5378756344
 21
97456.04125968712
 31
0.0
  0
LINE
  5
DA20D
330
1F
100
AcDbEntity
  8
freecads.com
100
AcDbLine
 10
107033.5378756344
 20
97456.04125968712
 30
0.0
 11
107033.5378756344
 21
97456.05721574181
 31
0.0
  0
LINE
  5
DA20E
330
1F
100
AcDbEntity
  8
freecads.com
100
AcDbLine
 10
107033.5378756344
 20
97456.05721574181
 30
0.0
 11
107033.5386021969
 21
97456.07027140588
 31
0.0
  0
LINE
  5
DA20F
330
1F
100
AcDbEntity
  8
freecads.com
100
AcDbLine
 10
107033.5386021969
 20
97456.07027140588
 30
0.0
 11
107033.5378756344
 21
97456.08477726525
 31
0.0
  0
LINE
  5
DA210
330
1F
100
AcDbEntity
  8
freecads.com
100
AcDbLine
 10
107033.5378756344
 20
97456.08477726525
 30
0.0
 11
107033.5371490719
 21
97456.09638175743
 31
0.0
  0
LINE
  5
DA211
330
1F
100
AcDbEntity
  8
freecads.com
100
AcDbLine
 10
107033.5371490719
 20
97456.09638175743
 30
0.0
 11
107033.5349732906
 21
97456.10653605432
 31
0.0
  0
LINE
  5
DA212
330
1F
100
AcDbEntity
  8
freecads.com
100
AcDbLine
 10
107033.5349732906
 20
97456.10653605432
 30
0.0
 11
107033.5320709468
 21
97456.11814054651
 31
0.0
  0
LINE
  5
DA213
330
1F
100
AcDbEntity
  8
freecads.com
100
AcDbLine
 10
107033.5320709468
 20
97456.11814054651
 30
0.0
 11
107033.5291725093
 21
97456.13047062462
 31
0.0
  0
LINE
  5
DA214
330
1F
100
AcDbEntity
  8
freecads.com
100
AcDbLine
 10
107033.5291725093
 20
97456.13047062462
 30
0.0
 11
107033.5255436031
 21
97456.14352726525
 31
0.0
  0
LINE
  5
DA215
330
1F
100
AcDbEntity
  8
freecads.com
100
AcDbLine
 10
107033.5255436031
 20
97456.14352726525
 30
0.0
 11
107033.5255436031
 21
97456.16093351525
 31
0.0
  0
LINE
  5
DA216
330
1F
100
AcDbEntity
  8
freecads.com
100
AcDbLine
 10
107033.5255436031
 20
97456.16093351525
 30
0.0
 11
107033.5248209469
 21
97456.17181339806
 31
0.0
  0
LINE
  5
DA217
330
1F
100
AcDbEntity
  8
freecads.com
100
AcDbLine
 10
107033.5248209469
 20
97456.17181339806
 30
0.0
 11
107033.5240943844
 21
97456.18414347619
 31
0.0
  0
LINE
  5
DA218
330
1F
100
AcDbEntity
  8
freecads.com
100
AcDbLine
 10
107033.5240943844
 20
97456.18414347619
 30
0.0
 11
107033.5233678219
 21
97456.20155070275
 31
0.0
  0
LINE
  5
DA219
330
1F
100
AcDbEntity
  8
freecads.com
100
AcDbLine
 10
107033.5233678219
 20
97456.20155070275
 30
0.0
 11
107033.5233678219
 21
97456.21242960901
 31
0.0
  0
LINE
  5
DA21A
330
1F
100
AcDbEntity
  8
freecads.com
100
AcDbLine
 10
107033.5233678219
 20
97456.21242960901
 30
0.0
 11
107033.5219186031
 21
97456.22693644493
 31
0.0
  0
LINE
  5
DA21B
330
1F
100
AcDbEntity
  8
freecads.com
100
AcDbLine
 10
107033.5219186031
 20
97456.22693644493
 30
0.0
 11
107033.5204693844
 21
97456.24144230431
 31
0.0
  0
LINE
  5
DA21C
330
1F
100
AcDbEntity
  8
freecads.com
100
AcDbLine
 10
107033.5204693844
 20
97456.24144230431
 30
0.0
 11
107033.5190162593
 21
97456.25884953087
 31
0.0
  0
LINE
  5
DA21D
330
1F
100
AcDbEntity
  8
freecads.com
100
AcDbLine
 10
107033.5190162593
 20
97456.25884953087
 30
0.0
 11
107033.5182936031
 21
97456.27408097618
 31
0.0
  0
LINE
  5
DA21E
330
1F
100
AcDbEntity
  8
freecads.com
100
AcDbLine
 10
107033.5182936031
 20
97456.27408097618
 30
0.0
 11
107033.5175670406
 21
97456.28496085901
 31
0.0
  0
LINE
  5
DA21F
330
1F
100
AcDbEntity
  8
freecads.com
100
AcDbLine
 10
107033.5175670406
 20
97456.28496085901
 30
0.0
 11
107033.5168404781
 21
97456.30164249961
 31
0.0
  0
LINE
  5
DA220
330
1F
100
AcDbEntity
  8
freecads.com
100
AcDbLine
 10
107033.5168404781
 20
97456.30164249961
 30
0.0
 11
107033.5168404781
 21
97456.31614835899
 31
0.0
  0
LINE
  5
DA221
330
1F
100
AcDbEntity
  8
freecads.com
100
AcDbLine
 10
107033.5168404781
 20
97456.31614835899
 30
0.0
 11
107033.5175670406
 21
97456.33137980432
 31
0.0
  0
LINE
  5
DA222
330
1F
100
AcDbEntity
  8
freecads.com
100
AcDbLine
 10
107033.5175670406
 20
97456.33137980432
 30
0.0
 11
107033.5182936031
 21
97456.34516105431
 31
0.0
  0
LINE
  5
DA223
330
1F
100
AcDbEntity
  8
freecads.com
100
AcDbLine
 10
107033.5182936031
 20
97456.34516105431
 30
0.0
 11
107033.5190162593
 21
97456.36111710901
 31
0.0
  0
LINE
  5
DA224
330
1F
100
AcDbEntity
  8
freecads.com
100
AcDbLine
 10
107033.5190162593
 20
97456.36111710901
 30
0.0
 11
107033.5190162593
 21
97456.37852433556
 31
0.0
  0
LINE
  5
DA225
330
1F
100
AcDbEntity
  8
freecads.com
100
AcDbLine
 10
107033.5190162593
 20
97456.37852433556
 30
0.0
 11
107033.5190162593
 21
97456.39230558555
 31
0.0
  0
LINE
  5
DA226
330
1F
100
AcDbEntity
  8
freecads.com
100
AcDbLine
 10
107033.5190162593
 20
97456.39230558555
 30
0.0
 11
107033.5204693844
 21
97456.4075360543
 31
0.0
  0
LINE
  5
DA227
330
1F
100
AcDbEntity
  8
freecads.com
100
AcDbLine
 10
107033.5204693844
 20
97456.4075360543
 30
0.0
 11
107033.5211920406
 21
97456.41841593712
 31
0.0
  0
LINE
  5
DA228
330
1F
100
AcDbEntity
  8
freecads.com
100
AcDbLine
 10
107033.5211920406
 20
97456.41841593712
 30
0.0
 11
107033.5219186031
 21
97456.43002042932
 31
0.0
  0
LINE
  5
DA229
330
1F
100
AcDbEntity
  8
freecads.com
100
AcDbLine
 10
107033.5219186031
 20
97456.43002042932
 30
0.0
 11
107033.5240943844
 21
97456.44815324181
 31
0.0
  0
LINE
  5
DA22A
330
1F
100
AcDbEntity
  8
freecads.com
100
AcDbLine
 10
107033.5240943844
 20
97456.44815324181
 30
0.0
 11
107033.5269967281
 21
97456.46338468713
 31
0.0
  0
LINE
  5
DA22B
330
1F
100
AcDbEntity
  8
freecads.com
100
AcDbLine
 10
107033.5269967281
 20
97456.46338468713
 30
0.0
 11
107033.5298990719
 21
97456.47789054649
 31
0.0
  0
LINE
  5
DA22C
330
1F
100
AcDbEntity
  8
freecads.com
100
AcDbLine
 10
107033.5298990719
 20
97456.47789054649
 30
0.0
 11
107033.5313482906
 21
97456.4931219918
 31
0.0
  0
LINE
  5
DA22D
330
1F
100
AcDbEntity
  8
freecads.com
100
AcDbLine
 10
107033.5313482906
 20
97456.4931219918
 30
0.0
 11
107033.5342506344
 21
97456.50907902305
 31
0.0
  0
LINE
  5
DA22E
330
1F
100
AcDbEntity
  8
freecads.com
100
AcDbLine
 10
107033.5342506344
 20
97456.50907902305
 30
0.0
 11
107033.5371490719
 21
97456.52213371057
 31
0.0
  0
LINE
  5
DA22F
330
1F
100
AcDbEntity
  8
freecads.com
100
AcDbLine
 10
107033.5371490719
 20
97456.52213371057
 30
0.0
 11
107033.5458521968
 21
97456.53518937462
 31
0.0
  0
LINE
  5
DA230
330
1F
100
AcDbEntity
  8
freecads.com
100
AcDbLine
 10
107033.5458521968
 20
97456.53518937462
 30
0.0
 11
107033.5581842281
 21
97456.53446378868
 31
0.0
  0
LINE
  5
DA231
330
1F
100
AcDbEntity
  8
freecads.com
100
AcDbLine
 10
107033.5581842281
 20
97456.53446378868
 30
0.0
 11
107033.5647115719
 21
97456.52358488245
 31
0.0
  0
LINE
  5
DA232
330
1F
100
AcDbEntity
  8
freecads.com
100
AcDbLine
 10
107033.5647115719
 20
97456.52358488245
 30
0.0
 11
107033.5697896969
 21
97456.51197941368
 31
0.0
  0
LINE
  5
DA233
330
1F
100
AcDbEntity
  8
freecads.com
100
AcDbLine
 10
107033.5697896969
 20
97456.51197941368
 30
0.0
 11
107033.5763170406
 21
97456.50182511681
 31
0.0
  0
LINE
  5
DA234
330
1F
100
AcDbEntity
  8
freecads.com
100
AcDbLine
 10
107033.5763170406
 20
97456.50182511681
 30
0.0
 11
107033.5806686031
 21
97456.49167081992
 31
0.0
  0
LINE
  5
DA235
330
1F
100
AcDbEntity
  8
freecads.com
100
AcDbLine
 10
107033.5806686031
 20
97456.49167081992
 30
0.0
 11
107033.5835709468
 21
97456.48079191369
 31
0.0
  0
LINE
  5
DA236
330
1F
100
AcDbEntity
  8
freecads.com
100
AcDbLine
 10
107033.5835709468
 20
97456.48079191369
 30
0.0
 11
107033.5879225093
 21
97456.46556046837
 31
0.0
  0
LINE
  5
DA237
330
1F
100
AcDbEntity
  8
freecads.com
100
AcDbLine
 10
107033.5879225093
 20
97456.46556046837
 30
0.0
 11
107033.5951725094
 21
97456.451054609
 31
0.0
  0
LINE
  5
DA238
330
1F
100
AcDbEntity
  8
freecads.com
100
AcDbLine
 10
107033.5951725094
 20
97456.451054609
 30
0.0
 11
107033.6031529781
 21
97456.43582316368
 31
0.0
  0
LINE
  5
DA239
330
1F
100
AcDbEntity
  8
freecads.com
100
AcDbLine
 10
107033.6031529781
 20
97456.43582316368
 30
0.0
 11
107033.6111295406
 21
97456.42131730431
 31
0.0
  0
LINE
  5
DA23A
330
1F
100
AcDbEntity
  8
freecads.com
100
AcDbLine
 10
107033.6111295406
 20
97456.42131730431
 30
0.0
 11
107033.6191100094
 21
97456.40608585899
 31
0.0
  0
LINE
  5
DA23B
330
1F
100
AcDbEntity
  8
freecads.com
100
AcDbLine
 10
107033.6191100094
 20
97456.40608585899
 30
0.0
 11
107033.6234615719
 21
97456.39593156212
 31
0.0
  0
LINE
  5
DA23C
330
1F
100
AcDbEntity
  8
freecads.com
100
AcDbLine
 10
107033.6234615719
 20
97456.39593156212
 30
0.0
 11
107033.6292623531
 21
97456.38505167931
 31
0.0
  0
LINE
  5
DA23D
330
1F
100
AcDbEntity
  8
freecads.com
100
AcDbLine
 10
107033.6292623531
 20
97456.38505167931
 30
0.0
 11
107033.6350670406
 21
97456.37199699181
 31
0.0
  0
LINE
  5
DA23E
330
1F
100
AcDbEntity
  8
freecads.com
100
AcDbLine
 10
107033.6350670406
 20
97456.37199699181
 30
0.0
 11
107033.6423170406
 21
97456.35821574181
 31
0.0
  0
LINE
  5
DA23F
330
1F
100
AcDbEntity
  8
freecads.com
100
AcDbLine
 10
107033.6423170406
 20
97456.35821574181
 30
0.0
 11
107033.6481217281
 21
97456.34733683557
 31
0.0
  0
LINE
  5
DA240
330
1F
100
AcDbEntity
  8
freecads.com
100
AcDbLine
 10
107033.6481217281
 20
97456.34733683557
 30
0.0
 11
107033.6539225094
 21
97456.33718253868
 31
0.0
  0
LINE
  5
DA241
330
1F
100
AcDbEntity
  8
freecads.com
100
AcDbLine
 10
107033.6539225094
 20
97456.33718253868
 30
0.0
 11
107033.6626256344
 21
97456.32412687463
 31
0.0
  0
LINE
  5
DA242
330
1F
100
AcDbEntity
  8
freecads.com
100
AcDbLine
 10
107033.6626256344
 20
97456.32412687463
 30
0.0
 11
107033.6727818844
 21
97456.3088954293
 31
0.0
  0
LINE
  5
DA243
330
1F
100
AcDbEntity
  8
freecads.com
100
AcDbLine
 10
107033.6727818844
 20
97456.3088954293
 30
0.0
 11
107033.6785826656
 21
97456.29874113244
 31
0.0
  0
LINE
  5
DA244
330
1F
100
AcDbEntity
  8
freecads.com
100
AcDbLine
 10
107033.6785826656
 20
97456.29874113244
 30
0.0
 11
107033.6865631343
 21
97456.28133390587
 31
0.0
  0
LINE
  5
DA245
330
1F
100
AcDbEntity
  8
freecads.com
100
AcDbLine
 10
107033.6865631343
 20
97456.28133390587
 30
0.0
 11
107033.6916412593
 21
97456.27045499963
 31
0.0
  0
LINE
  5
DA246
330
1F
100
AcDbEntity
  8
freecads.com
100
AcDbLine
 10
107033.6916412593
 20
97456.27045499963
 30
0.0
 11
107033.7003443843
 21
97456.25667374962
 31
0.0
  0
LINE
  5
DA247
330
1F
100
AcDbEntity
  8
freecads.com
100
AcDbLine
 10
107033.7003443843
 20
97456.25667374962
 30
0.0
 11
107033.7090475093
 21
97456.24579386682
 31
0.0
  0
LINE
  5
DA248
330
1F
100
AcDbEntity
  8
freecads.com
100
AcDbLine
 10
107033.7090475093
 20
97456.24579386682
 30
0.0
 11
107033.7162975093
 21
97456.2356405465
 31
0.0
  0
LINE
  5
DA249
330
1F
100
AcDbEntity
  8
freecads.com
100
AcDbLine
 10
107033.7162975093
 20
97456.2356405465
 30
0.0
 11
107033.7250006343
 21
97456.22258390586
 31
0.0
  0
LINE
  5
DA24A
330
1F
100
AcDbEntity
  8
freecads.com
100
AcDbLine
 10
107033.7250006343
 20
97456.22258390586
 30
0.0
 11
107033.7257271968
 21
97456.21025382776
 31
0.0
  0
LINE
  5
DA24B
330
1F
100
AcDbEntity
  8
freecads.com
100
AcDbLine
 10
107033.7257271968
 20
97456.21025382776
 30
0.0
 11
107033.7235514156
 21
97456.19357218712
 31
0.0
  0
LINE
  5
DA24C
330
1F
100
AcDbEntity
  8
freecads.com
100
AcDbLine
 10
107033.7235514156
 20
97456.19357218712
 30
0.0
 11
107033.7213756344
 21
97456.18341789025
 31
0.0
  0
LINE
  5
DA24D
330
1F
100
AcDbEntity
  8
freecads.com
100
AcDbLine
 10
107033.7213756344
 20
97456.18341789025
 30
0.0
 11
107033.7191998531
 21
97456.17326359337
 31
0.0
  0
LINE
  5
DA24E
330
1F
100
AcDbEntity
  8
freecads.com
100
AcDbLine
 10
107033.7191998531
 20
97456.17326359337
 30
0.0
 11
107033.7184771969
 21
97456.15730753868
 31
0.0
  0
LINE
  5
DA24F
330
1F
100
AcDbEntity
  8
freecads.com
100
AcDbLine
 10
107033.7184771969
 20
97456.15730753868
 30
0.0
 11
107033.7177506344
 21
97456.14715324181
 31
0.0
  0
LINE
  5
DA250
330
1F
100
AcDbEntity
  8
freecads.com
100
AcDbLine
 10
107033.7177506344
 20
97456.14715324181
 30
0.0
 11
107033.7177506344
 21
97456.13554874962
 31
0.0
  0
LINE
  5
DA251
330
1F
100
AcDbEntity
  8
freecads.com
100
AcDbLine
 10
107033.7177506344
 20
97456.13554874962
 30
0.0
 11
107033.7221021969
 21
97456.12176749963
 31
0.0
  0
LINE
  5
DA252
330
1F
100
AcDbEntity
  8
freecads.com
100
AcDbLine
 10
107033.7221021969
 20
97456.12176749963
 30
0.0
 11
107033.7264537593
 21
97456.10653605432
 31
0.0
  0
LINE
  5
DA253
330
1F
100
AcDbEntity
  8
freecads.com
100
AcDbLine
 10
107033.7264537593
 20
97456.10653605432
 30
0.0
 11
107033.7308053219
 21
97456.08985441368
 31
0.0
  0
LINE
  5
DA254
330
1F
100
AcDbEntity
  8
freecads.com
100
AcDbLine
 10
107033.7308053219
 20
97456.08985441368
 30
0.0
 11
107033.7337076656
 21
97456.0753485543
 31
0.0
  0
LINE
  5
DA255
330
1F
100
AcDbEntity
  8
freecads.com
100
AcDbLine
 10
107033.7337076656
 20
97456.0753485543
 30
0.0
 11
107033.7351568844
 21
97456.06156730431
 31
0.0
  0
LINE
  5
DA256
330
1F
100
AcDbEntity
  8
freecads.com
100
AcDbLine
 10
107033.7351568844
 20
97456.06156730431
 30
0.0
 11
107033.7366061031
 21
97456.04923722618
 31
0.0
  0
LINE
  5
DA257
330
1F
100
AcDbEntity
  8
freecads.com
100
AcDbLine
 10
107033.7366061031
 20
97456.04923722618
 30
0.0
 11
107033.7366061031
 21
97456.03908292931
 31
0.0
  0
LINE
  5
DA258
330
1F
100
AcDbEntity
  8
freecads.com
100
AcDbLine
 10
107033.7366061031
 20
97456.03908292931
 30
0.0
 11
107033.7387818844
 21
97456.01949992151
 31
0.0
  0
LINE
  5
DA259
330
1F
100
AcDbEntity
  8
freecads.com
100
AcDbLine
 10
107033.7387818844
 20
97456.01949992151
 30
0.0
 11
107033.7424107906
 21
97456.00064249963
 31
0.0
  0
LINE
  5
DA25A
330
1F
100
AcDbEntity
  8
freecads.com
100
AcDbLine
 10
107033.7424107906
 20
97456.00064249963
 30
0.0
 11
107033.7445865719
 21
97455.99048820274
 31
0.0
  0
LINE
  5
DA25B
330
1F
100
AcDbEntity
  8
freecads.com
100
AcDbLine
 10
107033.7445865719
 20
97455.99048820274
 30
0.0
 11
107033.7482115719
 21
97455.97453117149
 31
0.0
  0
LINE
  5
DA25C
330
1F
100
AcDbEntity
  8
freecads.com
100
AcDbLine
 10
107033.7482115719
 20
97455.97453117149
 30
0.0
 11
107033.7503873531
 21
97455.95929972617
 31
0.0
  0
LINE
  5
DA25D
330
1F
100
AcDbEntity
  8
freecads.com
100
AcDbLine
 10
107033.7503873531
 20
97455.95929972617
 30
0.0
 11
107033.7511139156
 21
97455.94696964806
 31
0.0
  0
LINE
  5
DA25E
330
1F
100
AcDbEntity
  8
freecads.com
100
AcDbLine
 10
107033.7511139156
 20
97455.94696964806
 30
0.0
 11
107033.7547389156
 21
97455.93246378868
 31
0.0
  0
LINE
  5
DA25F
330
1F
100
AcDbEntity
  8
freecads.com
100
AcDbLine
 10
107033.7547389156
 20
97455.93246378868
 30
0.0
 11
107033.7569146968
 21
97455.91723234337
 31
0.0
  0
LINE
  5
DA260
330
1F
100
AcDbEntity
  8
freecads.com
100
AcDbLine
 10
107033.7569146968
 20
97455.91723234337
 30
0.0
 11
107033.7598170406
 21
97455.89619914024
 31
0.0
  0
LINE
  5
DA261
330
1F
100
AcDbEntity
  8
freecads.com
100
AcDbLine
 10
107033.7598170406
 20
97455.89619914024
 30
0.0
 11
107033.7627193843
 21
97455.88169328087
 31
0.0
  0
LINE
  5
DA262
330
1F
100
AcDbEntity
  8
freecads.com
100
AcDbLine
 10
107033.7627193843
 20
97455.88169328087
 30
0.0
 11
107033.7663443844
 21
97455.86356046837
 31
0.0
  0
LINE
  5
DA263
330
1F
100
AcDbEntity
  8
freecads.com
100
AcDbLine
 10
107033.7663443844
 20
97455.86356046837
 30
0.0
 11
107033.7699693844
 21
97455.84542765588
 31
0.0
  0
LINE
  5
DA264
330
1F
100
AcDbEntity
  8
freecads.com
100
AcDbLine
 10
107033.7699693844
 20
97455.84542765588
 30
0.0
 11
107033.7728717281
 21
97455.82729484338
 31
0.0
  0
LINE
  5
DA265
330
1F
100
AcDbEntity
  8
freecads.com
100
AcDbLine
 10
107033.7728717281
 20
97455.82729484338
 30
0.0
 11
107033.7735982906
 21
97455.81641593712
 31
0.0
  0
LINE
  5
DA266
330
1F
100
AcDbEntity
  8
freecads.com
100
AcDbLine
 10
107033.7735982906
 20
97455.81641593712
 30
0.0
 11
107033.7757740718
 21
97455.79538175743
 31
0.0
  0
LINE
  5
DA267
330
1F
100
AcDbEntity
  8
freecads.com
100
AcDbLine
 10
107033.7757740718
 20
97455.79538175743
 30
0.0
 11
107033.7779498531
 21
97455.78522746056
 31
0.0
  0
LINE
  5
DA268
330
1F
100
AcDbEntity
  8
freecads.com
100
AcDbLine
 10
107033.7779498531
 20
97455.78522746056
 30
0.0
 11
107033.7815748531
 21
97455.76636906212
 31
0.0
  0
LINE
  5
DA269
330
1F
100
AcDbEntity
  8
freecads.com
100
AcDbLine
 10
107033.7815748531
 20
97455.76636906212
 30
0.0
 11
107033.7844771969
 21
97455.75041300744
 31
0.0
  0
LINE
  5
DA26A
330
1F
100
AcDbEntity
  8
freecads.com
100
AcDbLine
 10
107033.7844771969
 20
97455.75041300744
 30
0.0
 11
107033.7873795406
 21
97455.73445695274
 31
0.0
  0
LINE
  5
DA26B
330
1F
100
AcDbEntity
  8
freecads.com
100
AcDbLine
 10
107033.7873795406
 20
97455.73445695274
 30
0.0
 11
107033.7881021969
 21
97455.72357706993
 31
0.0
  0
LINE
  5
DA26C
330
1F
100
AcDbEntity
  8
freecads.com
100
AcDbLine
 10
107033.7881021969
 20
97455.72357706993
 30
0.0
 11
107033.7888287594
 21
97455.7097967965
 31
0.0
  0
LINE
  5
DA26D
330
1F
100
AcDbEntity
  8
freecads.com
100
AcDbLine
 10
107033.7888287594
 20
97455.7097967965
 30
0.0
 11
107033.7895553219
 21
97455.69456437463
 31
0.0
  0
LINE
  5
DA26E
330
1F
100
AcDbEntity
  8
freecads.com
100
AcDbLine
 10
107033.7895553219
 20
97455.69456437463
 30
0.0
 11
107033.7895553219
 21
97455.68368546837
 31
0.0
  0
LINE
  5
DA26F
330
1F
100
AcDbEntity
  8
freecads.com
100
AcDbLine
 10
107033.7895553219
 20
97455.68368546837
 30
0.0
 11
107033.7910045406
 21
97455.6735311715
 31
0.0
  0
LINE
  5
DA270
330
1F
100
AcDbEntity
  8
freecads.com
100
AcDbLine
 10
107033.7910045406
 20
97455.6735311715
 30
0.0
 11
107033.7931803218
 21
97455.6597499215
 31
0.0
  0
LINE
  5
DA271
330
1F
100
AcDbEntity
  8
freecads.com
100
AcDbLine
 10
107033.7931803218
 20
97455.6597499215
 30
0.0
 11
107033.7960826656
 21
97455.64959562463
 31
0.0
  0
LINE
  5
DA272
330
1F
100
AcDbEntity
  8
freecads.com
100
AcDbLine
 10
107033.7960826656
 20
97455.64959562463
 30
0.0
 11
107033.8018834468
 21
97455.63871671837
 31
0.0
  0
LINE
  5
DA273
330
1F
100
AcDbEntity
  8
freecads.com
100
AcDbLine
 10
107033.8018834468
 20
97455.63871671837
 30
0.0
 11
107033.8127662594
 21
97455.63291398399
 31
0.0
  0
LINE
  5
DA274
330
1F
100
AcDbEntity
  8
freecads.com
100
AcDbLine
 10
107033.8127662594
 20
97455.63291398399
 30
0.0
 11
107033.8258209469
 21
97455.646695234
 31
0.0
  0
LINE
  5
DA275
330
1F
100
AcDbEntity
  8
freecads.com
100
AcDbLine
 10
107033.8258209469
 20
97455.646695234
 30
0.0
 11
107033.8287193844
 21
97455.66120109337
 31
0.0
  0
LINE
  5
DA276
330
1F
100
AcDbEntity
  8
freecads.com
100
AcDbLine
 10
107033.8287193844
 20
97455.66120109337
 30
0.0
 11
107033.8301725094
 21
97455.6735311715
 31
0.0
  0
LINE
  5
DA277
330
1F
100
AcDbEntity
  8
freecads.com
100
AcDbLine
 10
107033.8301725094
 20
97455.6735311715
 30
0.0
 11
107033.8425006344
 21
97455.67643253869
 31
0.0
  0
LINE
  5
DA278
330
1F
100
AcDbEntity
  8
freecads.com
100
AcDbLine
 10
107033.8425006344
 20
97455.67643253869
 30
0.0
 11
107033.8541061031
 21
97455.67715812462
 31
0.0
  0
LINE
  5
DA279
330
1F
100
AcDbEntity
  8
freecads.com
100
AcDbLine
 10
107033.8541061031
 20
97455.67715812462
 30
0.0
 11
107033.8642623531
 21
97455.67715812462
 31
0.0
  0
LINE
  5
DA27A
330
1F
100
AcDbEntity
  8
freecads.com
100
AcDbLine
 10
107033.8642623531
 20
97455.67715812462
 30
0.0
 11
107033.8693365719
 21
97455.66555265588
 31
0.0
  0
LINE
  5
DA27B
330
1F
100
AcDbEntity
  8
freecads.com
100
AcDbLine
 10
107033.8693365719
 20
97455.66555265588
 30
0.0
 11
107033.8751412593
 21
97455.65177140587
 31
0.0
  0
LINE
  5
DA27C
330
1F
100
AcDbEntity
  8
freecads.com
100
AcDbLine
 10
107033.8751412593
 20
97455.65177140587
 30
0.0
 11
107033.8823912593
 21
97455.63944132774
 31
0.0
  0
LINE
  5
DA27D
330
1F
100
AcDbEntity
  8
freecads.com
100
AcDbLine
 10
107033.8823912593
 20
97455.63944132774
 30
0.0
 11
107033.8939967281
 21
97455.63363956993
 31
0.0
  0
LINE
  5
DA27E
330
1F
100
AcDbEntity
  8
freecads.com
100
AcDbLine
 10
107033.8939967281
 20
97455.63363956993
 30
0.0
 11
107033.9063287593
 21
97455.63218937462
 31
0.0
  0
LINE
  5
DA27F
330
1F
100
AcDbEntity
  8
freecads.com
100
AcDbLine
 10
107033.9063287593
 20
97455.63218937462
 30
0.0
 11
107033.9193834469
 21
97455.63001359338
 31
0.0
  0
LINE
  5
DA280
330
1F
100
AcDbEntity
  8
freecads.com
100
AcDbLine
 10
107033.9193834469
 20
97455.63001359338
 30
0.0
 11
107033.9317115719
 21
97455.62928703087
 31
0.0
  0
LINE
  5
DA281
330
1F
100
AcDbEntity
  8
freecads.com
100
AcDbLine
 10
107033.9317115719
 20
97455.62928703087
 30
0.0
 11
107033.9418678218
 21
97455.62928703087
 31
0.0
  0
LINE
  5
DA282
330
1F
100
AcDbEntity
  8
freecads.com
100
AcDbLine
 10
107033.9418678218
 20
97455.62928703087
 30
0.0
 11
107033.9527467281
 21
97455.63218937462
 31
0.0
  0
LINE
  5
DA283
330
1F
100
AcDbEntity
  8
freecads.com
100
AcDbLine
 10
107033.9527467281
 20
97455.63218937462
 30
0.0
 11
107033.9643521968
 21
97455.63726554649
 31
0.0
  0
LINE
  5
DA284
330
1F
100
AcDbEntity
  8
freecads.com
100
AcDbLine
 10
107033.9643521968
 20
97455.63726554649
 30
0.0
 11
107033.9766803218
 21
97455.64089249961
 31
0.0
  0
LINE
  5
DA285
330
1F
100
AcDbEntity
  8
freecads.com
100
AcDbLine
 10
107033.9766803218
 20
97455.64089249961
 30
0.0
 11
107033.9774068844
 21
97455.65322257775
 31
0.0
  0
LINE
  5
DA286
330
1F
100
AcDbEntity
  8
freecads.com
100
AcDbLine
 10
107033.9774068844
 20
97455.65322257775
 30
0.0
 11
107033.9737818843
 21
97455.66482804649
 31
0.0
  0
LINE
  5
DA287
330
1F
100
AcDbEntity
  8
freecads.com
100
AcDbLine
 10
107033.9737818843
 20
97455.66482804649
 30
0.0
 11
107033.9629029781
 21
97455.6706298043
 31
0.0
  0
LINE
  5
DA288
330
1F
100
AcDbEntity
  8
freecads.com
100
AcDbLine
 10
107033.9629029781
 20
97455.6706298043
 30
0.0
 11
107033.9505709468
 21
97455.67570695275
 31
0.0
  0
LINE
  5
DA289
330
1F
100
AcDbEntity
  8
freecads.com
100
AcDbLine
 10
107033.9505709468
 20
97455.67570695275
 30
0.0
 11
107033.9360670406
 21
97455.67933390589
 31
0.0
  0
LINE
  5
DA28A
330
1F
100
AcDbEntity
  8
freecads.com
100
AcDbLine
 10
107033.9360670406
 20
97455.67933390589
 30
0.0
 11
107033.9244615719
 21
97455.68368546837
 31
0.0
  0
LINE
  5
DA28B
330
1F
100
AcDbEntity
  8
freecads.com
100
AcDbLine
 10
107033.9244615719
 20
97455.68368546837
 30
0.0
 11
107033.9186568844
 21
97455.69383976526
 31
0.0
  0
LINE
  5
DA28C
330
1F
100
AcDbEntity
  8
freecads.com
100
AcDbLine
 10
107033.9186568844
 20
97455.69383976526
 30
0.0
 11
107033.9317115719
 21
97455.70326847618
 31
0.0
  0
LINE
  5
DA28D
330
1F
100
AcDbEntity
  8
freecads.com
100
AcDbLine
 10
107033.9317115719
 20
97455.70326847618
 30
0.0
 11
107033.9418678218
 21
97455.70544425744
 31
0.0
  0
LINE
  5
DA28E
330
1F
100
AcDbEntity
  8
freecads.com
100
AcDbLine
 10
107033.9418678218
 20
97455.70544425744
 30
0.0
 11
107033.9527467281
 21
97455.714148359
 31
0.0
  0
LINE
  5
DA28F
330
1F
100
AcDbEntity
  8
freecads.com
100
AcDbLine
 10
107033.9527467281
 20
97455.714148359
 30
0.0
 11
107033.9629029781
 21
97455.71922453088
 31
0.0
  0
LINE
  5
DA290
330
1F
100
AcDbEntity
  8
freecads.com
100
AcDbLine
 10
107033.9629029781
 20
97455.71922453088
 30
0.0
 11
107033.9737818843
 21
97455.73300578087
 31
0.0
  0
LINE
  5
DA291
330
1F
100
AcDbEntity
  8
freecads.com
100
AcDbLine
 10
107033.9737818843
 20
97455.73300578087
 30
0.0
 11
107033.9766803218
 21
97455.74388468712
 31
0.0
  0
LINE
  5
DA292
330
1F
100
AcDbEntity
  8
freecads.com
100
AcDbLine
 10
107033.9766803218
 20
97455.74388468712
 30
0.0
 11
107033.9774068844
 21
97455.75549015587
 31
0.0
  0
LINE
  5
DA293
330
1F
100
AcDbEntity
  8
freecads.com
100
AcDbLine
 10
107033.9774068844
 20
97455.75549015587
 30
0.0
 11
107033.9759576656
 21
97455.76854484337
 31
0.0
  0
LINE
  5
DA294
330
1F
100
AcDbEntity
  8
freecads.com
100
AcDbLine
 10
107033.9759576656
 20
97455.76854484337
 30
0.0
 11
107033.9701568844
 21
97455.77870011683
 31
0.0
  0
LINE
  5
DA295
330
1F
100
AcDbEntity
  8
freecads.com
100
AcDbLine
 10
107033.9701568844
 20
97455.77870011683
 30
0.0
 11
107033.9650787594
 21
97455.79102921839
 31
0.0
  0
LINE
  5
DA296
330
1F
100
AcDbEntity
  8
freecads.com
100
AcDbLine
 10
107033.9650787594
 20
97455.79102921839
 30
0.0
 11
107033.9614498531
 21
97455.80336027305
 31
0.0
  0
LINE
  5
DA297
330
1F
100
AcDbEntity
  8
freecads.com
100
AcDbLine
 10
107033.9614498531
 20
97455.80336027305
 30
0.0
 11
107033.9570982906
 21
97455.81859171837
 31
0.0
  0
LINE
  5
DA298
330
1F
100
AcDbEntity
  8
freecads.com
100
AcDbLine
 10
107033.9570982906
 20
97455.81859171837
 30
0.0
 11
107033.9534732906
 21
97455.83382218713
 31
0.0
  0
LINE
  5
DA299
330
1F
100
AcDbEntity
  8
freecads.com
100
AcDbLine
 10
107033.9534732906
 20
97455.83382218713
 30
0.0
 11
107033.9512975094
 21
97455.843976484
 31
0.0
  0
LINE
  5
DA29A
330
1F
100
AcDbEntity
  8
freecads.com
100
AcDbLine
 10
107033.9512975094
 20
97455.843976484
 30
0.0
 11
107033.9462193843
 21
97455.86138468713
 31
0.0
  0
LINE
  5
DA29B
330
1F
100
AcDbEntity
  8
freecads.com
100
AcDbLine
 10
107033.9462193843
 20
97455.86138468713
 30
0.0
 11
107033.9440436031
 21
97455.87734074181
 31
0.0
  0
LINE
  5
DA29C
330
1F
100
AcDbEntity
  8
freecads.com
100
AcDbLine
 10
107033.9440436031
 20
97455.87734074181
 30
0.0
 11
107033.9411412594
 21
97455.88967081992
 31
0.0
  0
LINE
  5
DA29D
330
1F
100
AcDbEntity
  8
freecads.com
100
AcDbLine
 10
107033.9411412594
 20
97455.88967081992
 30
0.0
 11
107033.9389654781
 21
97455.90852921838
 31
0.0
  0
LINE
  5
DA29E
330
1F
100
AcDbEntity
  8
freecads.com
100
AcDbLine
 10
107033.9389654781
 20
97455.90852921838
 30
0.0
 11
107033.9375162594
 21
97455.92013371057
 31
0.0
  0
LINE
  5
DA29F
330
1F
100
AcDbEntity
  8
freecads.com
100
AcDbLine
 10
107033.9375162594
 20
97455.92013371057
 30
0.0
 11
107033.9346139156
 21
97455.93028800744
 31
0.0
  0
LINE
  5
DA2A0
330
1F
100
AcDbEntity
  8
freecads.com
100
AcDbLine
 10
107033.9346139156
 20
97455.93028800744
 30
0.0
 11
107033.9331646968
 21
97455.94116789025
 31
0.0
  0
LINE
  5
DA2A1
330
1F
100
AcDbEntity
  8
freecads.com
100
AcDbLine
 10
107033.9331646968
 20
97455.94116789025
 30
0.0
 11
107033.9302623531
 21
97455.95422257775
 31
0.0
  0
LINE
  5
DA2A2
330
1F
100
AcDbEntity
  8
freecads.com
100
AcDbLine
 10
107033.9302623531
 20
97455.95422257775
 30
0.0
 11
107033.9266373531
 21
97455.9672782418
 31
0.0
  0
LINE
  5
DA2A3
330
1F
100
AcDbEntity
  8
freecads.com
100
AcDbLine
 10
107033.9266373531
 20
97455.9672782418
 30
0.0
 11
107033.9215592281
 21
97455.98105851524
 31
0.0
  0
LINE
  5
DA2A4
330
1F
100
AcDbEntity
  8
freecads.com
100
AcDbLine
 10
107033.9215592281
 20
97455.98105851524
 30
0.0
 11
107033.9143053218
 21
97456.00281828087
 31
0.0
  0
LINE
  5
DA2A5
330
1F
100
AcDbEntity
  8
freecads.com
100
AcDbLine
 10
107033.9143053218
 20
97456.00281828087
 30
0.0
 11
107033.9121295406
 21
97456.01369718713
 31
0.0
  0
LINE
  5
DA2A6
330
1F
100
AcDbEntity
  8
freecads.com
100
AcDbLine
 10
107033.9121295406
 20
97456.01369718713
 30
0.0
 11
107033.9056021968
 21
97456.0332811715
 31
0.0
  0
LINE
  5
DA2A7
330
1F
100
AcDbEntity
  8
freecads.com
100
AcDbLine
 10
107033.9056021968
 20
97456.0332811715
 30
0.0
 11
107033.8998014156
 21
97456.04851164024
 31
0.0
  0
LINE
  5
DA2A8
330
1F
100
AcDbEntity
  8
freecads.com
100
AcDbLine
 10
107033.8998014156
 20
97456.04851164024
 30
0.0
 11
107033.8947232906
 21
97456.06229289025
 31
0.0
  0
LINE
  5
DA2A9
330
1F
100
AcDbEntity
  8
freecads.com
100
AcDbLine
 10
107033.8947232906
 20
97456.06229289025
 30
0.0
 11
107033.8896451656
 21
97456.07897453087
 31
0.0
  0
LINE
  5
DA2AA
330
1F
100
AcDbEntity
  8
freecads.com
100
AcDbLine
 10
107033.8896451656
 20
97456.07897453087
 30
0.0
 11
107033.8852936031
 21
97456.09275578088
 31
0.0
  0
LINE
  5
DA2AB
330
1F
100
AcDbEntity
  8
freecads.com
100
AcDbLine
 10
107033.8852936031
 20
97456.09275578088
 30
0.0
 11
107033.8823912593
 21
97456.10581046838
 31
0.0
  0
LINE
  5
DA2AC
330
1F
100
AcDbEntity
  8
freecads.com
100
AcDbLine
 10
107033.8823912593
 20
97456.10581046838
 30
0.0
 11
107033.8802193844
 21
97456.11669035119
 31
0.0
  0
LINE
  5
DA2AD
330
1F
100
AcDbEntity
  8
freecads.com
100
AcDbLine
 10
107033.8802193844
 20
97456.11669035119
 30
0.0
 11
107033.8787662594
 21
97456.13337296838
 31
0.0
  0
LINE
  5
DA2AE
330
1F
100
AcDbEntity
  8
freecads.com
100
AcDbLine
 10
107033.8787662594
 20
97456.13337296838
 30
0.0
 11
107033.8765904781
 21
97456.14642765588
 31
0.0
  0
LINE
  5
DA2AF
330
1F
100
AcDbEntity
  8
freecads.com
100
AcDbLine
 10
107033.8765904781
 20
97456.14642765588
 30
0.0
 11
107033.8729654781
 21
97456.16238468713
 31
0.0
  0
LINE
  5
DA2B0
330
1F
100
AcDbEntity
  8
freecads.com
100
AcDbLine
 10
107033.8729654781
 20
97456.16238468713
 30
0.0
 11
107033.8671607906
 21
97456.17761613244
 31
0.0
  0
LINE
  5
DA2B1
330
1F
100
AcDbEntity
  8
freecads.com
100
AcDbLine
 10
107033.8671607906
 20
97456.17761613244
 30
0.0
 11
107033.8613600093
 21
97456.19792374963
 31
0.0
  0
LINE
  5
DA2B2
330
1F
100
AcDbEntity
  8
freecads.com
100
AcDbLine
 10
107033.8613600093
 20
97456.19792374963
 30
0.0
 11
107033.8555553218
 21
97456.2146063668
 31
0.0
  0
LINE
  5
DA2B3
330
1F
100
AcDbEntity
  8
freecads.com
100
AcDbLine
 10
107033.8555553218
 20
97456.2146063668
 30
0.0
 11
107033.8490279781
 21
97456.22693644493
 31
0.0
  0
LINE
  5
DA2B4
330
1F
100
AcDbEntity
  8
freecads.com
100
AcDbLine
 10
107033.8490279781
 20
97456.22693644493
 30
0.0
 11
107033.8439537593
 21
97456.23781632774
 31
0.0
  0
LINE
  5
DA2B5
330
1F
100
AcDbEntity
  8
freecads.com
100
AcDbLine
 10
107033.8439537593
 20
97456.23781632774
 30
0.0
 11
107033.8381490719
 21
97456.24942081994
 31
0.0
  0
LINE
  5
DA2B6
330
1F
100
AcDbEntity
  8
freecads.com
100
AcDbLine
 10
107033.8381490719
 20
97456.24942081994
 30
0.0
 11
107033.8308951656
 21
97456.26610246056
 31
0.0
  0
LINE
  5
DA2B7
330
1F
100
AcDbEntity
  8
freecads.com
100
AcDbLine
 10
107033.8308951656
 20
97456.26610246056
 30
0.0
 11
107033.8265436031
 21
97456.27698234338
 31
0.0
  0
LINE
  5
DA2B8
330
1F
100
AcDbEntity
  8
freecads.com
100
AcDbLine
 10
107033.8265436031
 20
97456.27698234338
 30
0.0
 11
107033.8192936031
 21
97456.29583976526
 31
0.0
  0
LINE
  5
DA2B9
330
1F
100
AcDbEntity
  8
freecads.com
100
AcDbLine
 10
107033.8192936031
 20
97456.29583976526
 30
0.0
 11
107033.8156646968
 21
97456.30671964805
 31
0.0
  0
LINE
  5
DA2BA
330
1F
100
AcDbEntity
  8
freecads.com
100
AcDbLine
 10
107033.8156646968
 20
97456.30671964805
 30
0.0
 11
107033.8113131343
 21
97456.31977433555
 31
0.0
  0
LINE
  5
DA2BB
330
1F
100
AcDbEntity
  8
freecads.com
100
AcDbLine
 10
107033.8113131343
 20
97456.31977433555
 30
0.0
 11
107033.8062350093
 21
97456.33283097619
 31
0.0
  0
LINE
  5
DA2BC
330
1F
100
AcDbEntity
  8
freecads.com
100
AcDbLine
 10
107033.8062350093
 20
97456.33283097619
 30
0.0
 11
107033.7997076656
 21
97456.35241300744
 31
0.0
  0
LINE
  5
DA2BD
330
1F
100
AcDbEntity
  8
freecads.com
100
AcDbLine
 10
107033.7997076656
 20
97456.35241300744
 30
0.0
 11
107033.7931803218
 21
97456.36837003869
 31
0.0
  0
LINE
  5
DA2BE
330
1F
100
AcDbEntity
  8
freecads.com
100
AcDbLine
 10
107033.7931803218
 20
97456.36837003869
 30
0.0
 11
107033.7859303219
 21
97456.38505167931
 31
0.0
  0
LINE
  5
DA2BF
330
1F
100
AcDbEntity
  8
freecads.com
100
AcDbLine
 10
107033.7859303219
 20
97456.38505167931
 30
0.0
 11
107033.7808521969
 21
97456.40028312461
 31
0.0
  0
LINE
  5
DA2C0
330
1F
100
AcDbEntity
  8
freecads.com
100
AcDbLine
 10
107033.7808521969
 20
97456.40028312461
 30
0.0
 11
107033.7757740718
 21
97456.41406437462
 31
0.0
  0
LINE
  5
DA2C1
330
1F
100
AcDbEntity
  8
freecads.com
100
AcDbLine
 10
107033.7757740718
 20
97456.41406437462
 30
0.0
 11
107033.7677975094
 21
97456.42784464806
 31
0.0
  0
LINE
  5
DA2C2
330
1F
100
AcDbEntity
  8
freecads.com
100
AcDbLine
 10
107033.7677975094
 20
97456.42784464806
 30
0.0
 11
107033.7612662594
 21
97456.43945011682
 31
0.0
  0
LINE
  5
DA2C3
330
1F
100
AcDbEntity
  8
freecads.com
100
AcDbLine
 10
107033.7612662594
 20
97456.43945011682
 30
0.0
 11
107033.7525631344
 21
97456.45178019493
 31
0.0
  0
LINE
  5
DA2C4
330
1F
100
AcDbEntity
  8
freecads.com
100
AcDbLine
 10
107033.7525631344
 20
97456.45178019493
 30
0.0
 11
107033.7453131343
 21
97456.46411027307
 31
0.0
  0
LINE
  5
DA2C5
330
1F
100
AcDbEntity
  8
freecads.com
100
AcDbLine
 10
107033.7453131343
 20
97456.46411027307
 30
0.0
 11
107033.7337076656
 21
97456.48296769493
 31
0.0
  0
LINE
  5
DA2C6
330
1F
100
AcDbEntity
  8
freecads.com
100
AcDbLine
 10
107033.7337076656
 20
97456.48296769493
 30
0.0
 11
107033.7264537593
 21
97456.49457316368
 31
0.0
  0
LINE
  5
DA2C7
330
1F
100
AcDbEntity
  8
freecads.com
100
AcDbLine
 10
107033.7264537593
 20
97456.49457316368
 30
0.0
 11
107033.7221021969
 21
97456.50617765587
 31
0.0
  0
LINE
  5
DA2C8
330
1F
100
AcDbEntity
  8
freecads.com
100
AcDbLine
 10
107033.7221021969
 20
97456.50617765587
 30
0.0
 11
107033.7155748531
 21
97456.52285929651
 31
0.0
  0
LINE
  5
DA2C9
330
1F
100
AcDbEntity
  8
freecads.com
100
AcDbLine
 10
107033.7155748531
 20
97456.52285929651
 30
0.0
 11
107033.7148482906
 21
97456.53881632776
 31
0.0
  0
LINE
  5
DA2CA
330
1F
100
AcDbEntity
  8
freecads.com
100
AcDbLine
 10
107033.7148482906
 20
97456.53881632776
 30
0.0
 11
107033.7155748531
 21
97456.55187199181
 31
0.0
  0
LINE
  5
DA2CB
330
1F
100
AcDbEntity
  8
freecads.com
100
AcDbLine
 10
107033.7155748531
 20
97456.55187199181
 30
0.0
 11
107033.7126725093
 21
97456.56782804649
 31
0.0
  0
LINE
  5
DA2CC
330
1F
100
AcDbEntity
  8
freecads.com
100
AcDbLine
 10
107033.7126725093
 20
97456.56782804649
 30
0.0
 11
107033.7075943843
 21
97456.58088371056
 31
0.0
  0
LINE
  5
DA2CD
330
1F
100
AcDbEntity
  8
freecads.com
100
AcDbLine
 10
107033.7075943843
 20
97456.58088371056
 30
0.0
 11
107033.7032428218
 21
97456.59248820274
 31
0.0
  0
LINE
  5
DA2CE
330
1F
100
AcDbEntity
  8
freecads.com
100
AcDbLine
 10
107033.7032428218
 20
97456.59248820274
 30
0.0
 11
107033.6996178218
 21
97456.60481925744
 31
0.0
  0
LINE
  5
DA2CF
330
1F
100
AcDbEntity
  8
freecads.com
100
AcDbLine
 10
107033.6996178218
 20
97456.60481925744
 30
0.0
 11
107033.6974420406
 21
97456.61642374964
 31
0.0
  0
LINE
  5
DA2D0
330
1F
100
AcDbEntity
  8
freecads.com
100
AcDbLine
 10
107033.6974420406
 20
97456.61642374964
 30
0.0
 11
107033.6974420406
 21
97456.62730265587
 31
0.0
  0
LINE
  5
DA2D1
330
1F
100
AcDbEntity
  8
freecads.com
100
AcDbLine
 10
107033.6974420406
 20
97456.62730265587
 30
0.0
 11
107033.6959928218
 21
97456.63890812464
 31
0.0
  0
LINE
  5
DA2D2
330
1F
100
AcDbEntity
  8
freecads.com
100
AcDbLine
 10
107033.6959928218
 20
97456.63890812464
 30
0.0
 11
107033.6945396968
 21
97456.64978703088
 31
0.0
  0
LINE
  5
DA2D3
330
1F
100
AcDbEntity
  8
freecads.com
100
AcDbLine
 10
107033.6945396968
 20
97456.64978703088
 30
0.0
 11
107033.6930904781
 21
97456.66356730431
 31
0.0
  0
LINE
  5
DA2D4
330
1F
100
AcDbEntity
  8
freecads.com
100
AcDbLine
 10
107033.6930904781
 20
97456.66356730431
 30
0.0
 11
107033.6916412593
 21
97456.67517277306
 31
0.0
  0
LINE
  5
DA2D5
330
1F
100
AcDbEntity
  8
freecads.com
100
AcDbLine
 10
107033.6916412593
 20
97456.67517277306
 30
0.0
 11
107033.6901881344
 21
97456.68532706993
 31
0.0
  0
LINE
  5
DA2D6
330
1F
100
AcDbEntity
  8
freecads.com
100
AcDbLine
 10
107033.6901881344
 20
97456.68532706993
 30
0.0
 11
107033.6887389156
 21
97456.69620695275
 31
0.0
  0
LINE
  5
DA2D7
330
1F
100
AcDbEntity
  8
freecads.com
100
AcDbLine
 10
107033.6887389156
 20
97456.69620695275
 30
0.0
 11
107033.7017936031
 21
97456.70491007775
 31
0.0
  0
LINE
  5
DA2D8
330
1F
100
AcDbEntity
  8
freecads.com
100
AcDbLine
 10
107033.7017936031
 20
97456.70491007775
 30
0.0
 11
107033.7119459469
 21
97456.70781144493
 31
0.0
  0
LINE
  5
DA2D9
330
1F
100
AcDbEntity
  8
freecads.com
100
AcDbLine
 10
107033.7119459469
 20
97456.70781144493
 30
0.0
 11
107033.7221021969
 21
97456.70998722619
 31
0.0
  0
LINE
  5
DA2DA
330
1F
100
AcDbEntity
  8
freecads.com
100
AcDbLine
 10
107033.7221021969
 20
97456.70998722619
 30
0.0
 11
107033.7358834469
 21
97456.71506437464
 31
0.0
  0
LINE
  5
DA2DB
330
1F
100
AcDbEntity
  8
freecads.com
100
AcDbLine
 10
107033.7358834469
 20
97456.71506437464
 30
0.0
 11
107033.7467623531
 21
97456.72304289026
 31
0.0
  0
LINE
  5
DA2DC
330
1F
100
AcDbEntity
  8
freecads.com
100
AcDbLine
 10
107033.7467623531
 20
97456.72304289026
 30
0.0
 11
107033.7569146968
 21
97456.72884464807
 31
0.0
  0
LINE
  5
DA2DD
330
1F
100
AcDbEntity
  8
freecads.com
100
AcDbLine
 10
107033.7569146968
 20
97456.72884464807
 30
0.0
 11
107033.7677975094
 21
97456.72884464807
 31
0.0
  0
LINE
  5
DA2DE
330
1F
100
AcDbEntity
  8
freecads.com
100
AcDbLine
 10
107033.7677975094
 20
97456.72884464807
 30
0.0
 11
107033.7793990718
 21
97456.72159269494
 31
0.0
  0
LINE
  5
DA2DF
330
1F
100
AcDbEntity
  8
freecads.com
100
AcDbLine
 10
107033.7793990718
 20
97456.72159269494
 30
0.0
 11
107033.7895553219
 21
97456.71724015588
 31
0.0
  0
LINE
  5
DA2E0
330
1F
100
AcDbEntity
  8
freecads.com
100
AcDbLine
 10
107033.7895553219
 20
97456.71724015588
 30
0.0
 11
107033.8026100094
 21
97456.72594425744
 31
0.0
  0
LINE
  5
DA2E1
330
1F
100
AcDbEntity
  8
freecads.com
100
AcDbLine
 10
107033.8026100094
 20
97456.72594425744
 30
0.0
 11
107033.8127662594
 21
97456.73537296836
 31
0.0
  0
LINE
  5
DA2E2
330
1F
100
AcDbEntity
  8
freecads.com
100
AcDbLine
 10
107033.8127662594
 20
97456.73537296836
 30
0.0
 11
107033.8236451656
 21
97456.74987882775
 31
0.0
  0
LINE
  5
DA2E3
330
1F
100
AcDbEntity
  8
freecads.com
100
AcDbLine
 10
107033.8236451656
 20
97456.74987882775
 30
0.0
 11
107033.8323482906
 21
97456.76220890587
 31
0.0
  0
LINE
  5
DA2E4
330
1F
100
AcDbEntity
  8
freecads.com
100
AcDbLine
 10
107033.8323482906
 20
97456.76220890587
 30
0.0
 11
107033.8425006344
 21
97456.77308878869
 31
0.0
  0
LINE
  5
DA2E5
330
1F
100
AcDbEntity
  8
freecads.com
100
AcDbLine
 10
107033.8425006344
 20
97456.77308878869
 30
0.0
 11
107033.8497545406
 21
97456.78541886681
 31
0.0
  0
LINE
  5
DA2E6
330
1F
100
AcDbEntity
  8
freecads.com
100
AcDbLine
 10
107033.8497545406
 20
97456.78541886681
 30
0.0
 11
107033.8548326656
 21
97456.79702433557
 31
0.0
  0
LINE
  5
DA2E7
330
1F
100
AcDbEntity
  8
freecads.com
100
AcDbLine
 10
107033.8548326656
 20
97456.79702433557
 30
0.0
 11
107033.8620865719
 21
97456.80862785119
 31
0.0
  0
LINE
  5
DA2E8
330
1F
100
AcDbEntity
  8
freecads.com
100
AcDbLine
 10
107033.8620865719
 20
97456.80862785119
 30
0.0
 11
107033.8700631344
 21
97456.82313468712
 31
0.0
  0
LINE
  5
DA2E9
330
1F
100
AcDbEntity
  8
freecads.com
100
AcDbLine
 10
107033.8700631344
 20
97456.82313468712
 30
0.0
 11
107033.8780396968
 21
97456.83546476524
 31
0.0
  0
LINE
  5
DA2EA
330
1F
100
AcDbEntity
  8
freecads.com
100
AcDbLine
 10
107033.8780396968
 20
97456.83546476524
 30
0.0
 11
107033.8860201656
 21
97456.84634464806
 31
0.0
  0
LINE
  5
DA2EB
330
1F
100
AcDbEntity
  8
freecads.com
100
AcDbLine
 10
107033.8860201656
 20
97456.84634464806
 30
0.0
 11
107033.8903717281
 21
97456.8601249215
 31
0.0
  0
LINE
  5
DA2EC
330
1F
100
AcDbEntity
  8
freecads.com
100
AcDbLine
 10
107033.8903717281
 20
97456.8601249215
 30
0.0
 11
107033.8889225094
 21
97456.87027921837
 31
0.0
  0
LINE
  5
DA2ED
330
1F
100
AcDbEntity
  8
freecads.com
100
AcDbLine
 10
107033.8889225094
 20
97456.87027921837
 30
0.0
 11
107033.8823912593
 21
97456.8811591012
 31
0.0
  0
LINE
  5
DA2EE
330
1F
100
AcDbEntity
  8
freecads.com
100
AcDbLine
 10
107033.8823912593
 20
97456.8811591012
 30
0.0
 11
107033.8736881343
 21
97456.89784074182
 31
0.0
  0
LINE
  5
DA2EF
330
1F
100
AcDbEntity
  8
freecads.com
100
AcDbLine
 10
107033.8736881343
 20
97456.89784074182
 30
0.0
 11
107033.8678873531
 21
97456.9108954293
 31
0.0
  0
LINE
  5
DA2F0
330
1F
100
AcDbEntity
  8
freecads.com
100
AcDbLine
 10
107033.8678873531
 20
97456.9108954293
 30
0.0
 11
107033.8599068844
 21
97456.92540226524
 31
0.0
  0
LINE
  5
DA2F1
330
1F
100
AcDbEntity
  8
freecads.com
100
AcDbLine
 10
107033.8599068844
 20
97456.92540226524
 30
0.0
 11
107033.8533834469
 21
97456.93700675744
 31
0.0
  0
LINE
  5
DA2F2
330
1F
100
AcDbEntity
  8
freecads.com
100
AcDbLine
 10
107033.8533834469
 20
97456.93700675744
 30
0.0
 11
107033.8446764156
 21
97456.94933683557
 31
0.0
  0
LINE
  5
DA2F3
330
1F
100
AcDbEntity
  8
freecads.com
100
AcDbLine
 10
107033.8446764156
 20
97456.94933683557
 30
0.0
 11
107033.8345240719
 21
97456.96166691368
 31
0.0
  0
LINE
  5
DA2F4
330
1F
100
AcDbEntity
  8
freecads.com
100
AcDbLine
 10
107033.8345240719
 20
97456.96166691368
 30
0.0
 11
107033.8229186031
 21
97456.97327238245
 31
0.0
  0
LINE
  5
DA2F5
330
1F
100
AcDbEntity
  8
freecads.com
100
AcDbLine
 10
107033.8229186031
 20
97456.97327238245
 30
0.0
 11
107033.8120396969
 21
97456.98487687462
 31
0.0
  0
LINE
  5
DA2F6
330
1F
100
AcDbEntity
  8
freecads.com
100
AcDbLine
 10
107033.8120396969
 20
97456.98487687462
 30
0.0
 11
107033.7982584468
 21
97456.99793253868
 31
0.0
  0
LINE
  5
DA2F7
330
1F
100
AcDbEntity
  8
freecads.com
100
AcDbLine
 10
107033.7982584468
 20
97456.99793253868
 30
0.0
 11
107033.7881021969
 21
97457.00808683556
 31
0.0
  0
LINE
  5
DA2F8
330
1F
100
AcDbEntity
  8
freecads.com
100
AcDbLine
 10
107033.7881021969
 20
97457.00808683556
 30
0.0
 11
107033.7793990718
 21
97457.01969132774
 31
0.0
  0
LINE
  5
DA2F9
330
1F
100
AcDbEntity
  8
freecads.com
100
AcDbLine
 10
107033.7793990718
 20
97457.01969132774
 30
0.0
 11
107033.7786764156
 21
97457.03057121057
 31
0.0
  0
LINE
  5
DA2FA
330
1F
100
AcDbEntity
  8
freecads.com
100
AcDbLine
 10
107033.7786764156
 20
97457.03057121057
 30
0.0
 11
107033.7735982906
 21
97457.04072453087
 31
0.0
  0
LINE
  5
DA2FB
330
1F
100
AcDbEntity
  8
freecads.com
100
AcDbLine
 10
107033.7735982906
 20
97457.04072453087
 30
0.0
 11
107033.7663443844
 21
97457.05087980432
 31
0.0
  0
LINE
  5
DA2FC
330
1F
100
AcDbEntity
  8
freecads.com
100
AcDbLine
 10
107033.7663443844
 20
97457.05087980432
 30
0.0
 11
107033.7619928219
 21
97457.06175871056
 31
0.0
  0
LINE
  5
DA2FD
330
1F
100
AcDbEntity
  8
freecads.com
100
AcDbLine
 10
107033.7619928219
 20
97457.06175871056
 30
0.0
 11
107033.7583678218
 21
97457.07481437461
 31
0.0
  0
LINE
  5
DA2FE
330
1F
100
AcDbEntity
  8
freecads.com
100
AcDbLine
 10
107033.7583678218
 20
97457.07481437461
 30
0.0
 11
107033.7547389156
 21
97457.08714445274
 31
0.0
  0
LINE
  5
DA2FF
330
1F
100
AcDbEntity
  8
freecads.com
100
AcDbLine
 10
107033.7547389156
 20
97457.08714445274
 30
0.0
 11
107033.7525631344
 21
97457.09729777306
 31
0.0
  0
LINE
  5
DA300
330
1F
100
AcDbEntity
  8
freecads.com
100
AcDbLine
 10
107033.7525631344
 20
97457.09729777306
 30
0.0
 11
107033.7445865719
 21
97457.10745206993
 31
0.0
  0
LINE
  5
DA301
330
1F
100
AcDbEntity
  8
freecads.com
100
AcDbLine
 10
107033.7445865719
 20
97457.10745206993
 30
0.0
 11
107033.7300787594
 21
97457.11688175743
 31
0.0
  0
LINE
  5
DA302
330
1F
100
AcDbEntity
  8
freecads.com
100
AcDbLine
 10
107033.7300787594
 20
97457.11688175743
 30
0.0
 11
107033.7191998531
 21
97457.12413468712
 31
0.0
  0
LINE
  5
DA303
330
1F
100
AcDbEntity
  8
freecads.com
100
AcDbLine
 10
107033.7191998531
 20
97457.12413468712
 30
0.0
 11
107033.7075943843
 21
97457.13501456995
 31
0.0
  0
LINE
  5
DA304
330
1F
100
AcDbEntity
  8
freecads.com
100
AcDbLine
 10
107033.7075943843
 20
97457.13501456995
 30
0.0
 11
107033.6967154781
 21
97457.14444328088
 31
0.0
  0
LINE
  5
DA305
330
1F
100
AcDbEntity
  8
freecads.com
100
AcDbLine
 10
107033.6967154781
 20
97457.14444328088
 30
0.0
 11
107033.6851100094
 21
97457.15749894493
 31
0.0
  0
LINE
  5
DA306
330
1F
100
AcDbEntity
  8
freecads.com
100
AcDbLine
 10
107033.6851100094
 20
97457.15749894493
 30
0.0
 11
107033.6764068843
 21
97457.16910343713
 31
0.0
  0
LINE
  5
DA307
330
1F
100
AcDbEntity
  8
freecads.com
100
AcDbLine
 10
107033.6764068843
 20
97457.16910343713
 30
0.0
 11
107033.6720553219
 21
97457.1807079293
 31
0.0
  0
LINE
  5
DA308
330
1F
100
AcDbEntity
  8
freecads.com
100
AcDbLine
 10
107033.6720553219
 20
97457.1807079293
 30
0.0
 11
107033.6713287594
 21
97457.19158781213
 31
0.0
  0
LINE
  5
DA309
330
1F
100
AcDbEntity
  8
freecads.com
100
AcDbLine
 10
107033.6713287594
 20
97457.19158781213
 30
0.0
 11
107033.6735084469
 21
97457.201742109
 31
0.0
  0
LINE
  5
DA30A
330
1F
100
AcDbEntity
  8
freecads.com
100
AcDbLine
 10
107033.6735084469
 20
97457.201742109
 30
0.0
 11
107033.6836607906
 21
97457.20972062462
 31
0.0
  0
LINE
  5
DA30B
330
1F
100
AcDbEntity
  8
freecads.com
100
AcDbLine
 10
107033.6836607906
 20
97457.20972062462
 30
0.0
 11
107033.6938131344
 21
97457.21044621056
 31
0.0
  0
LINE
  5
DA30C
330
1F
100
AcDbEntity
  8
freecads.com
100
AcDbLine
 10
107033.6938131344
 20
97457.21044621056
 30
0.0
 11
107033.7097701656
 21
97457.21262199181
 31
0.0
  0
LINE
  5
DA30D
330
1F
100
AcDbEntity
  8
freecads.com
100
AcDbLine
 10
107033.7097701656
 20
97457.21262199181
 30
0.0
 11
107033.7206490719
 21
97457.21552238244
 31
0.0
  0
LINE
  5
DA30E
330
1F
100
AcDbEntity
  8
freecads.com
100
AcDbLine
 10
107033.7206490719
 20
97457.21552238244
 30
0.0
 11
107033.7329811031
 21
97457.21697355431
 31
0.0
  0
LINE
  5
DA30F
330
1F
100
AcDbEntity
  8
freecads.com
100
AcDbLine
 10
107033.7329811031
 20
97457.21697355431
 30
0.0
 11
107033.7438600094
 21
97457.21987394494
 31
0.0
  0
LINE
  5
DA310
330
1F
100
AcDbEntity
  8
freecads.com
100
AcDbLine
 10
107033.7438600094
 20
97457.21987394494
 30
0.0
 11
107033.7576412594
 21
97457.23220402306
 31
0.0
  0
LINE
  5
DA311
330
1F
100
AcDbEntity
  8
freecads.com
100
AcDbLine
 10
107033.7576412594
 20
97457.23220402306
 30
0.0
 11
107033.7641686031
 21
97457.24235831994
 31
0.0
  0
LINE
  5
DA312
330
1F
100
AcDbEntity
  8
freecads.com
100
AcDbLine
 10
107033.7641686031
 20
97457.24235831994
 30
0.0
 11
107033.7569146968
 21
97457.25759074181
 31
0.0
  0
LINE
  5
DA313
330
1F
100
AcDbEntity
  8
freecads.com
100
AcDbLine
 10
107033.7569146968
 20
97457.25759074181
 30
0.0
 11
107033.7576412594
 21
97457.27354679649
 31
0.0
  0
LINE
  5
DA314
330
1F
100
AcDbEntity
  8
freecads.com
100
AcDbLine
 10
107033.7576412594
 20
97457.27354679649
 30
0.0
 11
107033.7598170406
 21
97457.29095402307
 31
0.0
  0
LINE
  5
DA315
330
1F
100
AcDbEntity
  8
freecads.com
100
AcDbLine
 10
107033.7598170406
 20
97457.29095402307
 30
0.0
 11
107033.7598170406
 21
97457.30110831994
 31
0.0
  0
LINE
  5
DA316
330
1F
100
AcDbEntity
  8
freecads.com
100
AcDbLine
 10
107033.7598170406
 20
97457.30110831994
 30
0.0
 11
107033.7590904781
 21
97457.31126261681
 31
0.0
  0
LINE
  5
DA317
330
1F
100
AcDbEntity
  8
freecads.com
100
AcDbLine
 10
107033.7590904781
 20
97457.31126261681
 30
0.0
 11
107033.7525631344
 21
97457.32721964806
 31
0.0
  0
LINE
  5
DA318
330
1F
100
AcDbEntity
  8
freecads.com
100
AcDbLine
 10
107033.7525631344
 20
97457.32721964806
 30
0.0
 11
107033.7445865719
 21
97457.34172550744
 31
0.0
  0
LINE
  5
DA319
330
1F
100
AcDbEntity
  8
freecads.com
100
AcDbLine
 10
107033.7445865719
 20
97457.34172550744
 30
0.0
 11
107033.7344303219
 21
97457.35478019494
 31
0.0
  0
LINE
  5
DA31A
330
1F
100
AcDbEntity
  8
freecads.com
100
AcDbLine
 10
107033.7344303219
 20
97457.35478019494
 30
0.0
 11
107033.7213756344
 21
97457.37363859337
 31
0.0
  0
LINE
  5
DA31B
330
1F
100
AcDbEntity
  8
freecads.com
100
AcDbLine
 10
107033.7213756344
 20
97457.37363859337
 30
0.0
 11
107033.7126725093
 21
97457.38524308556
 31
0.0
  0
LINE
  5
DA31C
330
1F
100
AcDbEntity
  8
freecads.com
100
AcDbLine
 10
107033.7126725093
 20
97457.38524308556
 30
0.0
 11
107033.7068717281
 21
97457.39612296837
 31
0.0
  0
LINE
  5
DA31D
330
1F
100
AcDbEntity
  8
freecads.com
100
AcDbLine
 10
107033.7068717281
 20
97457.39612296837
 30
0.0
 11
107033.7017936031
 21
97457.4070028512
 31
0.0
  0
LINE
  5
DA31E
330
1F
100
AcDbEntity
  8
freecads.com
100
AcDbLine
 10
107033.7017936031
 20
97457.4070028512
 30
0.0
 11
107033.6952662594
 21
97457.41715714805
 31
0.0
  0
LINE
  5
DA31F
330
1F
100
AcDbEntity
  8
freecads.com
100
AcDbLine
 10
107033.6952662594
 20
97457.41715714805
 30
0.0
 11
107033.6836607906
 21
97457.43166300742
 31
0.0
  0
LINE
  5
DA320
330
1F
100
AcDbEntity
  8
freecads.com
100
AcDbLine
 10
107033.6836607906
 20
97457.43166300742
 30
0.0
 11
107033.6706061031
 21
97457.44109171837
 31
0.0
  0
LINE
  5
DA321
330
1F
100
AcDbEntity
  8
freecads.com
100
AcDbLine
 10
107033.6706061031
 20
97457.44109171837
 30
0.0
 11
107033.6575514156
 21
97457.44326749962
 31
0.0
  0
LINE
  5
DA322
330
1F
100
AcDbEntity
  8
freecads.com
100
AcDbLine
 10
107033.6575514156
 20
97457.44326749962
 30
0.0
 11
107033.6430436031
 21
97457.44471769492
 31
0.0
  0
LINE
  5
DA323
330
1F
100
AcDbEntity
  8
freecads.com
100
AcDbLine
 10
107033.6430436031
 20
97457.44471769492
 30
0.0
 11
107033.6285396969
 21
97457.44471769492
 31
0.0
  0
LINE
  5
DA324
330
1F
100
AcDbEntity
  8
freecads.com
100
AcDbLine
 10
107033.6285396969
 20
97457.44471769492
 30
0.0
 11
107033.6176568843
 21
97457.44326749962
 31
0.0
  0
LINE
  5
DA325
330
1F
100
AcDbEntity
  8
freecads.com
100
AcDbLine
 10
107033.6176568843
 20
97457.44326749962
 30
0.0
 11
107033.6024264156
 21
97457.43528898399
 31
0.0
  0
LINE
  5
DA326
330
1F
100
AcDbEntity
  8
freecads.com
100
AcDbLine
 10
107033.6024264156
 20
97457.43528898399
 30
0.0
 11
107033.5922740718
 21
97457.42731046837
 31
0.0
  0
LINE
  5
DA327
330
1F
100
AcDbEntity
  8
freecads.com
100
AcDbLine
 10
107033.5922740718
 20
97457.42731046837
 30
0.0
 11
107033.5813912594
 21
97457.41788175743
 31
0.0
  0
LINE
  5
DA328
330
1F
100
AcDbEntity
  8
freecads.com
100
AcDbLine
 10
107033.5813912594
 20
97457.41788175743
 30
0.0
 11
107033.5705123531
 21
97457.40627726526
 31
0.0
  0
LINE
  5
DA329
330
1F
100
AcDbEntity
  8
freecads.com
100
AcDbLine
 10
107033.5705123531
 20
97457.40627726526
 30
0.0
 11
107033.5603600094
 21
97457.39467277306
 31
0.0
  0
LINE
  5
DA32A
330
1F
100
AcDbEntity
  8
freecads.com
100
AcDbLine
 10
107033.5603600094
 20
97457.39467277306
 30
0.0
 11
107033.5523834469
 21
97457.381617109
 31
0.0
  0
LINE
  5
DA32B
330
1F
100
AcDbEntity
  8
freecads.com
100
AcDbLine
 10
107033.5523834469
 20
97457.381617109
 30
0.0
 11
107033.5458521968
 21
97457.36711027307
 31
0.0
  0
LINE
  5
DA32C
330
1F
100
AcDbEntity
  8
freecads.com
100
AcDbLine
 10
107033.5458521968
 20
97457.36711027307
 30
0.0
 11
107033.5407779781
 21
97457.35695597618
 31
0.0
  0
LINE
  5
DA32D
330
1F
100
AcDbEntity
  8
freecads.com
100
AcDbLine
 10
107033.5407779781
 20
97457.35695597618
 30
0.0
 11
107033.5356998531
 21
97457.34172550744
 31
0.0
  0
LINE
  5
DA32E
330
1F
100
AcDbEntity
  8
freecads.com
100
AcDbLine
 10
107033.5356998531
 20
97457.34172550744
 30
0.0
 11
107033.5313482906
 21
97457.33084562463
 31
0.0
  0
LINE
  5
DA32F
330
1F
100
AcDbEntity
  8
freecads.com
100
AcDbLine
 10
107033.5313482906
 20
97457.33084562463
 30
0.0
 11
107033.5255436031
 21
97457.31561417931
 31
0.0
  0
LINE
  5
DA330
330
1F
100
AcDbEntity
  8
freecads.com
100
AcDbLine
 10
107033.5255436031
 20
97457.31561417931
 30
0.0
 11
107033.5211920406
 21
97457.300382734
 31
0.0
  0
LINE
  5
DA331
330
1F
100
AcDbEntity
  8
freecads.com
100
AcDbLine
 10
107033.5211920406
 20
97457.300382734
 30
0.0
 11
107033.5146646969
 21
97457.28297550744
 31
0.0
  0
LINE
  5
DA332
330
1F
100
AcDbEntity
  8
freecads.com
100
AcDbLine
 10
107033.5146646969
 20
97457.28297550744
 30
0.0
 11
107033.5124889156
 21
97457.27282121055
 31
0.0
  0
LINE
  5
DA333
330
1F
100
AcDbEntity
  8
freecads.com
100
AcDbLine
 10
107033.5124889156
 20
97457.27282121055
 30
0.0
 11
107033.5146646969
 21
97457.26121671836
 31
0.0
  0
LINE
  5
DA334
330
1F
100
AcDbEntity
  8
freecads.com
100
AcDbLine
 10
107033.5146646969
 20
97457.26121671836
 30
0.0
 11
107033.5226451656
 21
97457.25106242149
 31
0.0
  0
LINE
  5
DA335
330
1F
100
AcDbEntity
  8
freecads.com
100
AcDbLine
 10
107033.5226451656
 20
97457.25106242149
 30
0.0
 11
107033.5313482906
 21
97457.2401825387
 31
0.0
  0
ENDSEC
  0
SECTION
  2
OBJECTS
  0
DICTIONARY
  5
C
330
0
100
AcDbDictionary
281
     1
  3
ACAD_ASSOCPERSSUBENTMANAGER
350
2C1D4
  3
ACAD_CIP_PREVIOUS_PRODUCT_INFO
350
1A5
  3
ACAD_COLOR
350
73
  3
ACAD_DETAILVIEWSTYLE
350
1AB
  3
ACAD_GROUP
350
D
  3
ACAD_LAYOUT
350
1A
  3
ACAD_MATERIAL
350
72
  3
ACAD_MLEADERSTYLE
350
D7
  3
ACAD_MLINESTYLE
350
17
  3
ACAD_PLOTSETTINGS
350
19
  3
ACAD_PLOTSTYLENAME
350
E
  3
ACAD_SCALELIST
350
B6
  3
ACAD_SECTIONVIEWSTYLE
350
1A8
  3
ACAD_TABLESTYLE
350
86
  3
ACAD_VISUALSTYLE
350
99
  3
ACDB_RECOMPOSE_DATA
350
F86E7
  3
ACDBVARIABLEDICTIONARY
350
502C5
  3
AEC_PROPERTY_SET_DEFS
350
22D1
  0
DICTIONARY
  5
18E
330
2
100
AcDbDictionary
280
     1
281
     1
  3
ACAD_LAYERSTATES
360
18F
  0
DICTIONARY
  5
E6
330
10
100
AcDbDictionary
280
     1
281
     1
  0
DICTIONARY
  5
15D
330
1F
100
AcDbDictionary
280
     1
281
     1
  3
ACAD_SORTENTS
360
28E
  0
ACDBASSOCPERSSUBENTMANAGER
  5
2C1D4
102
{ACAD_REACTORS
330
C
102
}
330
C
100
AcDbAssocPersSubentManager
 90
        2
 90
        3
 90
        0
 90
        2
 90
     1260
 90
        0
 90
     1260
 90
        1
 90
        2
 90
        3
 90
        4
 90
        5
 90
        6
 90
        7
 90
        8
 90
        9
 90
       10
 90
       11
 90
       12
 90
       13
 90
       14
 90
       15
 90
       16
 90
       17
 90
       18
 90
       19
 90
       20
 90
       21
 90
       22
 90
       23
 90
       24
 90
       25
 90
       26
 90
       27
 90
       28
 90
       29
 90
       30
 90
       31
 90
       32
 90
       33
 90
       34
 90
       35
 90
       36
 90
       37
 90
       38
 90
       39
 90
       40
 90
       41
 90
       42
 90
       43
 90
       44
 90
       45
 90
       46
 90
       47
 90
       48
 90
       49
 90
       50
 90
       51
 90
       52
 90
       53
 90
       54
 90
       55
 90
       56
 90
       57
 90
       58
 90
       59
 90
       60
 90
       61
 90
       62
 90
       63
 90
       64
 90
       65
 90
       66
 90
       67
 90
       68
 90
       69
 90
       70
 90
       71
 90
       72
 90
       73
 90
       74
 90
       75
 90
       76
 90
       77
 90
       78
 90
       79
 90
       80
 90
       81
 90
       82
 90
       83
 90
       84
 90
       85
 90
       86
 90
       87
 90
       88
 90
       89
 90
       90
 90
       91
 90
       92
 90
       93
 90
       94
 90
       95
 90
       96
 90
       97
 90
       98
 90
       99
 90
      100
 90
      101
 90
      102
 90
      103
 90
      104
 90
      105
 90
      106
 90
      107
 90
      108
 90
      109
 90
      110
 90
      111
 90
      112
 90
      113
 90
      114
 90
      115
 90
      116
 90
      117
 90
      118
 90
      119
 90
      120
 90
      121
 90
      122
 90
      123
 90
      124
 90
      125
 90
      126
 90
      127
 90
      128
 90
      129
 90
      130
 90
      131
 90
      132
 90
      133
 90
      134
 90
      135
 90
      136
 90
      137
 90
      138
 90
      139
 90
      140
 90
      141
 90
      142
 90
      143
 90
      144
 90
      145
 90
      146
 90
      147
 90
      148
 90
      149
 90
      150
 90
      151
 90
      152
 90
      153
 90
      154
 90
      155
 90
      156
 90
      157
 90
      158
 90
      159
 90
      160
 90
      161
 90
      162
 90
      163
 90
      164
 90
      165
 90
      166
 90
      167
 90
      168
 90
      169
 90
      170
 90
      171
 90
      172
 90
      173
 90
      174
 90
      175
 90
      176
 90
      177
 90
      178
 90
      179
 90
      180
 90
      181
 90
      182
 90
      183
 90
      184
 90
      185
 90
      186
 90
      187
 90
      188
 90
      189
 90
      190
 90
      191
 90
      192
 90
      193
 90
      194
 90
      195
 90
      196
 90
      197
 90
      198
 90
      199
 90
      200
 90
      201
 90
      202
 90
      203
 90
      204
 90
      205
 90
      206
 90
      207
 90
      208
 90
      209
 90
      210
 90
      211
 90
      212
 90
      213
 90
      214
 90
      215
 90
      216
 90
      217
 90
      218
 90
      219
 90
      220
 90
      221
 90
      222
 90
      223
 90
      224
 90
      225
 90
      226
 90
      227
 90
      228
 90
      229
 90
      230
 90
      231
 90
      232
 90
      233
 90
      234
 90
      235
 90
      236
 90
      237
 90
      238
 90
      239
 90
      240
 90
      241
 90
      242
 90
      243
 90
      244
 90
      245
 90
      246
 90
      247
 90
      248
 90
      249
 90
      250
 90
      251
 90
      252
 90
      253
 90
      254
 90
      255
 90
      256
 90
      257
 90
      258
 90
      259
 90
      260
 90
      261
 90
      262
 90
      263
 90
      264
 90
      265
 90
      266
 90
      267
 90
      268
 90
      269
 90
      270
 90
      271
 90
      272
 90
      273
 90
      274
 90
      275
 90
      276
 90
      277
 90
      278
 90
      279
 90
      280
 90
      281
 90
      282
 90
      283
 90
      284
 90
      285
 90
      286
 90
      287
 90
      288
 90
      289
 90
      290
 90
      291
 90
      292
 90
      293
 90
      294
 90
      295
 90
      296
 90
      297
 90
      298
 90
      299
 90
      300
 90
      301
 90
      302
 90
      303
 90
      304
 90
      305
 90
      306
 90
      307
 90
      308
 90
      309
 90
      310
 90
      311
 90
      312
 90
      313
 90
      314
 90
      315
 90
      316
 90
      317
 90
      318
 90
      319
 90
      320
 90
      321
 90
      322
 90
      323
 90
      324
 90
      325
 90
      326
 90
      327
 90
      328
 90
      329
 90
      330
 90
      331
 90
      332
 90
      333
 90
      334
 90
      335
 90
      336
 90
      337
 90
      338
 90
      339
 90
      340
 90
      341
 90
      342
 90
      343
 90
      344
 90
      345
 90
      346
 90
      347
 90
      348
 90
      349
 90
      350
 90
      351
 90
      352
 90
      353
 90
      354
 90
      355
 90
      356
 90
      357
 90
      358
 90
      359
 90
      360
 90
      361
 90
      362
 90
      363
 90
      364
 90
      365
 90
      366
 90
      367
 90
      368
 90
      369
 90
      370
 90
      371
 90
      372
 90
      373
 90
      374
 90
      375
 90
      376
 90
      377
 90
      378
 90
      379
 90
      380
 90
      381
 90
      382
 90
      383
 90
      384
 90
      385
 90
      386
 90
      387
 90
      388
 90
      389
 90
      390
 90
      391
 90
      392
 90
      393
 90
      394
 90
      395
 90
      396
 90
      397
 90
      398
 90
      399
 90
      400
 90
      401
 90
      402
 90
      403
 90
      404
 90
      405
 90
      406
 90
      407
 90
      408
 90
      409
 90
      410
 90
      411
 90
      412
 90
      413
 90
      414
 90
      415
 90
      416
 90
      417
 90
      418
 90
      419
 90
      420
 90
      421
 90
      422
 90
      423
 90
      424
 90
      425
 90
      426
 90
      427
 90
      428
 90
      429
 90
      430
 90
      431
 90
      432
 90
      433
 90
      434
 90
      435
 90
      436
 90
      437
 90
      438
 90
      439
 90
      440
 90
      441
 90
      442
 90
      443
 90
      444
 90
      445
 90
      446
 90
      447
 90
      448
 90
      449
 90
      450
 90
      451
 90
      452
 90
      453
 90
      454
 90
      455
 90
      456
 90
      457
 90
      458
 90
      459
 90
      460
 90
      461
 90
      462
 90
      463
 90
      464
 90
      465
 90
      466
 90
      467
 90
      468
 90
      469
 90
      470
 90
      471
 90
      472
 90
      473
 90
      474
 90
      475
 90
      476
 90
      477
 90
      478
 90
      479
 90
      480
 90
      481
 90
      482
 90
      483
 90
      484
 90
      485
 90
      486
 90
      487
 90
      488
 90
      489
 90
      490
 90
      491
 90
      492
 90
      493
 90
      494
 90
      495
 90
      496
 90
      497
 90
      498
 90
      499
 90
      500
 90
      501
 90
      502
 90
      503
 90
      504
 90
      505
 90
      506
 90
      507
 90
      508
 90
      509
 90
      510
 90
      511
 90
      512
 90
      513
 90
      514
 90
      515
 90
      516
 90
      517
 90
      518
 90
      519
 90
      520
 90
      521
 90
      522
 90
      523
 90
      524
 90
      525
 90
      526
 90
      527
 90
      528
 90
      529
 90
      530
 90
      531
 90
      532
 90
      533
 90
      534
 90
      535
 90
      536
 90
      537
 90
      538
 90
      539
 90
      540
 90
      541
 90
      542
 90
      543
 90
      544
 90
      545
 90
      546
 90
      547
 90
      548
 90
      549
 90
      550
 90
      551
 90
      552
 90
      553
 90
      554
 90
      555
 90
      556
 90
      557
 90
      558
 90
      559
 90
      560
 90
      561
 90
      562
 90
      563
 90
      564
 90
      565
 90
      566
 90
      567
 90
      568
 90
      569
 90
      570
 90
      571
 90
      572
 90
      573
 90
      574
 90
      575
 90
      576
 90
      577
 90
      578
 90
      579
 90
      580
 90
      581
 90
      582
 90
      583
 90
      584
 90
      585
 90
      586
 90
      587
 90
      588
 90
      589
 90
      590
 90
      591
 90
      592
 90
      593
 90
      594
 90
      595
 90
      596
 90
      597
 90
      598
 90
      599
 90
      600
 90
      601
 90
      602
 90
      603
 90
      604
 90
      605
 90
      606
 90
      607
 90
      608
 90
      609
 90
      610
 90
      611
 90
      612
 90
      613
 90
      614
 90
      615
 90
      616
 90
      617
 90
      618
 90
      619
 90
      620
 90
      621
 90
      622
 90
      623
 90
      624
 90
      625
 90
      626
 90
      627
 90
      628
 90
      629
 90
      630
 90
      631
 90
      632
 90
      633
 90
      634
 90
      635
 90
      636
 90
      637
 90
      638
 90
      639
 90
      640
 90
      641
 90
      642
 90
      643
 90
      644
 90
      645
 90
      646
 90
      647
 90
      648
 90
      649
 90
      650
 90
      651
 90
      652
 90
      653
 90
      654
 90
      655
 90
      656
 90
      657
 90
      658
 90
      659
 90
      660
 90
      661
 90
      662
 90
      663
 90
      664
 90
      665
 90
      666
 90
      667
 90
      668
 90
      669
 90
      670
 90
      671
 90
      672
 90
      673
 90
      674
 90
      675
 90
      676
 90
      677
 90
      678
 90
      679
 90
      680
 90
      681
 90
      682
 90
      683
 90
      684
 90
      685
 90
      686
 90
      687
 90
      688
 90
      689
 90
      690
 90
      691
 90
      692
 90
      693
 90
      694
 90
      695
 90
      696
 90
      697
 90
      698
 90
      699
 90
      700
 90
      701
 90
      702
 90
      703
 90
      704
 90
      705
 90
      706
 90
      707
 90
      708
 90
      709
 90
      710
 90
      711
 90
      712
 90
      713
 90
      714
 90
      715
 90
      716
 90
      717
 90
      718
 90
      719
 90
      720
 90
      721
 90
      722
 90
      723
 90
      724
 90
      725
 90
      726
 90
      727
 90
      728
 90
      729
 90
      730
 90
      731
 90
      732
 90
      733
 90
      734
 90
      735
 90
      736
 90
      737
 90
      738
 90
      739
 90
      740
 90
      741
 90
      742
 90
      743
 90
      744
 90
      745
 90
      746
 90
      747
 90
      748
 90
      749
 90
      750
 90
      751
 90
      752
 90
      753
 90
      754
 90
      755
 90
      756
 90
      757
 90
      758
 90
      759
 90
      760
 90
      761
 90
      762
 90
      763
 90
      764
 90
      765
 90
      766
 90
      767
 90
      768
 90
      769
 90
      770
 90
      771
 90
      772
 90
      773
 90
      774
 90
      775
 90
      776
 90
      777
 90
      778
 90
      779
 90
      780
 90
      781
 90
      782
 90
      783
 90
      784
 90
      785
 90
      786
 90
      787
 90
      788
 90
      789
 90
      790
 90
      791
 90
      792
 90
      793
 90
      794
 90
      795
 90
      796
 90
      797
 90
      798
 90
      799
 90
      800
 90
      801
 90
      802
 90
      803
 90
      804
 90
      805
 90
      806
 90
      807
 90
      808
 90
      809
 90
      810
 90
      811
 90
      812
 90
      813
 90
      814
 90
      815
 90
      816
 90
      817
 90
      818
 90
      819
 90
      820
 90
      821
 90
      822
 90
      823
 90
      824
 90
      825
 90
      826
 90
      827
 90
      828
 90
      829
 90
      830
 90
      831
 90
      832
 90
      833
 90
      834
 90
      835
 90
      836
 90
      837
 90
      838
 90
      839
 90
      840
 90
      841
 90
      842
 90
      843
 90
      844
 90
      845
 90
      846
 90
      847
 90
      848
 90
      849
 90
      850
 90
      851
 90
      852
 90
      853
 90
      854
 90
      855
 90
      856
 90
      857
 90
      858
 90
      859
 90
      860
 90
      861
 90
      862
 90
      863
 90
      864
 90
      865
 90
      866
 90
      867
 90
      868
 90
      869
 90
      870
 90
      871
 90
      872
 90
      873
 90
      874
 90
      875
 90
      876
 90
      877
 90
      878
 90
      879
 90
      880
 90
      881
 90
      882
 90
      883
 90
      884
 90
      885
 90
      886
 90
      887
 90
      888
 90
      889
 90
      890
 90
      891
 90
      892
 90
      893
 90
      894
 90
      895
 90
      896
 90
      897
 90
      898
 90
      899
 90
      900
 90
      901
 90
      902
 90
      903
 90
      904
 90
      905
 90
      906
 90
      907
 90
      908
 90
      909
 90
      910
 90
      911
 90
      912
 90
      913
 90
      914
 90
      915
 90
      916
 90
      917
 90
      918
 90
      919
 90
      920
 90
      921
 90
      922
 90
      923
 90
      924
 90
      925
 90
      926
 90
      927
 90
      928
 90
      929
 90
      930
 90
      931
 90
      932
 90
      933
 90
      934
 90
      935
 90
      936
 90
      937
 90
      938
 90
      939
 90
      940
 90
      941
 90
      942
 90
      943
 90
      944
 90
      945
 90
      946
 90
      947
 90
      948
 90
      949
 90
      950
 90
      951
 90
      952
 90
      953
 90
      954
 90
      955
 90
      956
 90
      957
 90
      958
 90
      959
 90
      960
 90
      961
 90
      962
 90
      963
 90
      964
 90
      965
 90
      966
 90
      967
 90
      968
 90
      969
 90
      970
 90
      971
 90
      972
 90
      973
 90
      974
 90
      975
 90
      976
 90
      977
 90
      978
 90
      979
 90
      980
 90
      981
 90
      982
 90
      983
 90
      984
 90
      985
 90
      986
 90
      987
 90
      988
 90
      989
 90
      990
 90
      991
 90
      992
 90
      993
 90
      994
 90
      995
 90
      996
 90
      997
 90
      998
 90
      999
 90
     1000
 90
     1001
 90
     1002
 90
     1003
 90
     1004
 90
     1005
 90
     1006
 90
     1007
 90
     1008
 90
     1009
 90
     1010
 90
     1011
 90
     1012
 90
     1013
 90
     1014
 90
     1015
 90
     1016
 90
     1017
 90
     1018
 90
     1019
 90
     1020
 90
     1021
 90
     1022
 90
     1023
 90
     1024
 90
     1025
 90
     1026
 90
     1027
 90
     1028
 90
     1029
 90
     1030
 90
     1031
 90
     1032
 90
     1033
 90
     1034
 90
     1035
 90
     1036
 90
     1037
 90
     1038
 90
     1039
 90
     1040
 90
     1041
 90
     1042
 90
     1043
 90
     1044
 90
     1045
 90
     1046
 90
     1047
 90
     1048
 90
     1049
 90
     1050
 90
     1051
 90
     1052
 90
     1053
 90
     1054
 90
     1055
 90
     1056
 90
     1057
 90
     1058
 90
     1059
 90
     1060
 90
     1061
 90
     1062
 90
     1063
 90
     1064
 90
     1065
 90
     1066
 90
     1067
 90
     1068
 90
     1069
 90
     1070
 90
     1071
 90
     1072
 90
     1073
 90
     1074
 90
     1075
 90
     1076
 90
     1077
 90
     1078
 90
     1079
 90
     1080
 90
     1081
 90
     1082
 90
     1083
 90
     1084
 90
     1085
 90
     1086
 90
     1087
 90
     1088
 90
     1089
 90
     1090
 90
     1091
 90
     1092
 90
     1093
 90
     1094
 90
     1095
 90
     1096
 90
     1097
 90
     1098
 90
     1099
 90
     1100
 90
     1101
 90
     1102
 90
     1103
 90
     1104
 90
     1105
 90
     1106
 90
     1107
 90
     1108
 90
     1109
 90
     1110
 90
     1111
 90
     1112
 90
     1113
 90
     1114
 90
     1115
 90
     1116
 90
     1117
 90
     1118
 90
     1119
 90
     1120
 90
     1121
 90
     1122
 90
     1123
 90
     1124
 90
     1125
 90
     1126
 90
     1127
 90
     1128
 90
     1129
 90
     1130
 90
     1131
 90
     1132
 90
     1133
 90
     1134
 90
     1135
 90
     1136
 90
     1137
 90
     1138
 90
     1139
 90
     1140
 90
     1141
 90
     1142
 90
     1143
 90
     1144
 90
     1145
 90
     1146
 90
     1147
 90
     1148
 90
     1149
 90
     1150
 90
     1151
 90
     1152
 90
     1153
 90
     1154
 90
     1155
 90
     1156
 90
     1157
 90
     1158
 90
     1159
 90
     1160
 90
     1161
 90
     1162
 90
     1163
 90
     1164
 90
     1165
 90
     1166
 90
     1167
 90
     1168
 90
     1169
 90
     1170
 90
     1171
 90
     1172
 90
     1173
 90
     1174
 90
     1175
 90
     1176
 90
     1177
 90
     1178
 90
     1179
 90
     1180
 90
     1181
 90
     1182
 90
     1183
 90
     1184
 90
     1185
 90
     1186
 90
     1187
 90
     1188
 90
     1189
 90
     1190
 90
     1191
 90
     1192
 90
     1193
 90
     1194
 90
     1195
 90
     1196
 90
     1197
 90
     1198
 90
     1199
 90
     1200
 90
     1201
 90
     1202
 90
     1203
 90
     1204
 90
     1205
 90
     1206
 90
     1207
 90
     1208
 90
     1209
 90
     1210
 90
     1211
 90
     1212
 90
     1213
 90
     1214
 90
     1215
 90
     1216
 90
     1217
 90
     1218
 90
     1219
 90
     1220
 90
     1221
 90
     1222
 90
     1223
 90
     1224
 90
     1225
 90
     1226
 90
     1227
 90
     1228
 90
     1229
 90
     1230
 90
     1231
 90
     1232
 90
     1233
 90
     1234
 90
     1235
 90
     1236
 90
     1237
 90
     1238
 90
     1239
 90
     1240
 90
     1241
 90
     1242
 90
     1243
 90
     1244
 90
     1245
 90
     1246
 90
     1247
 90
     1248
 90
     1249
 90
     1250
 90
     1251
 90
     1252
 90
     1253
 90
     1254
 90
     1255
 90
     1256
 90
     1257
 90
     1258
 90
     1259
 90
     1260
 90
        0
 90
        0
290
     0
  0
XRECORD
  5
1A5
102
{ACAD_REACTORS
330
C
102
}
330
C
100
AcDbXrecord
280
     1
300
ACD
300
2022
300

  0
DICTIONARY
  5
73
102
{ACAD_REACTORS
330
C
102
}
330
C
100
AcDbDictionary
281
     1
  0
DICTIONARY
  5
1AB
102
{ACAD_REACTORS
330
C
102
}
330
C
100
AcDbDictionary
281
     1
  3
Imperial24
350
1AC
  3
Metric50
350
224
  0
DICTIONARY
  5
D
102
{ACAD_REACTORS
330
C
102
}
330
C
100
AcDbDictionary
281
     1
  0
DICTIONARY
  5
1A
102
{ACAD_REACTORS
330
C
102
}
330
C
100
AcDbDictionary
281
     1
  3
Layout1
350
59
  3
Layout2
350
5E
  3
Model
350
22
  0
DICTIONARY
  5
72
102
{ACAD_REACTORS
330
C
102
}
330
C
100
AcDbDictionary
281
     1
  3
ByBlock
350
97
  3
ByLayer
350
96
  3
Global
350
98
  0
DICTIONARY
  5
D7
102
{ACAD_REACTORS
330
C
102
}
330
C
100
AcDbDictionary
281
     1
  3
Standard
350
D8
  0
DICTIONARY
  5
17
102
{ACAD_REACTORS
330
C
102
}
330
C
100
AcDbDictionary
281
     1
  3
Standard
350
18
  0
DICTIONARY
  5
19
102
{ACAD_REACTORS
330
C
102
}
330
C
100
AcDbDictionary
281
     1
  0
ACDBDICTIONARYWDFLT
  5
E
102
{ACAD_REACTORS
330
C
102
}
330
C
100
AcDbDictionary
281
     1
  3
Normal
350
F
100
AcDbDictionaryWithDefault
340
F
  0
DICTIONARY
  5
B6
102
{ACAD_REACTORS
330
C
102
}
330
C
100
AcDbDictionary
281
     1
  3
*A1
350
2283
  3
A0
350
B7
  3
A1
350
124
  3
A2
350
125
  3
A3
350
126
  3
A4
350
127
  3
A5
350
128
  3
A6
350
129
  3
A7
350
12A
  3
A8
350
12B
  3
A9
350
12C
  3
B0
350
12D
  3
B1
350
12E
  3
B2
350
12F
  3
B3
350
130
  3
B4
350
131
  3
B5
350
132
  3
B6
350
133
  3
B7
350
134
  3
B8
350
135
  3
B9
350
136
  3
C0
350
137
  3
C1
350
138
  3
C2
350
139
  3
C3
350
13A
  3
C4
350
13B
  3
C5
350
13C
  3
C6
350
13D
  3
C7
350
13E
  3
C8
350
13F
  3
C9
350
140
  3
D0
350
141
  3
D1
350
142
  3
D2
350
143
  0
DICTIONARY
  5
1A8
102
{ACAD_REACTORS
330
C
102
}
330
C
100
AcDbDictionary
281
     1
  3
Imperial24
350
1AA
  3
Metric50
350
223
  0
DICTIONARY
  5
86
102
{ACAD_REACTORS
330
C
102
}
330
C
100
AcDbDictionary
281
     1
  3
Standard
350
87
  0
DICTIONARY
  5
99
102
{ACAD_REACTORS
330
C
102
}
330
C
100
AcDbDictionary
281
     1
  3
2dWireframe
350
9F
  3
3dWireframe
350
22946
  3
Basic
350
9E
  3
Brighten
350
A5
  3
ColorChange
350
A9
  3
Conceptual
350
A2
  3
Dim
350
A4
  3
EdgeColorOff
350
175
  3
Facepattern
350
A8
  3
Flat
350
9A
  3
FlatWithEdges
350
9B
  3
Gouraud
350
9C
  3
GouraudWithEdges
350
9D
  3
Hidden
350
A1
  3
JitterOff
350
173
  3
Linepattern
350
A7
  3
OverhangOff
350
174
  3
Realistic
350
A3
  3
Shaded
350
182
  3
Shaded with edges
350
181
  3
Shades of Gray
350
17E
  3
Sketchy
350
17F
  3
Thicken
350
A6
  3
Wireframe
350
A0
  3
X-Ray
350
180
  0
XRECORD
  5
F86E7
102
{ACAD_REACTORS
330
C
102
}
330
C
100
AcDbXrecord
280
     1
 90
        1
330
87
  0
DICTIONARY
  5
502C5
102
{ACAD_REACTORS
330
C
102
}
330
C
100
AcDbDictionary
281
     2
  3
#COMPAREDIFFTOTAL
350
502C6
  3
#REVCLOUDAPPROXARCLEN
350
502C7
  3
ANNOALLVISIBLE
350
502C8
  3
CANNOSCALE
350
502C9
  3
CMLEADERSTYLE
350
502CA
  3
CTABLESTYLE
350
502CB
  3
CVIEWDETAILSTYLE
350
502CC
  3
CVIEWSECTIONSTYLE
350
502CD
  3
DIMADEC
350
502CE
  3
DIMASSOC
350
502CF
  3
DWFFRAME
350
502D0
  3
HIDETEXT
350
502D1
  3
HPCOLOR
350
502D2
  3
HPLAYER
350
502D3
  3
HPTRANSPARENCY
350
502D4
  3
INDEXCTL
350
502D5
  3
LAYEREVAL
350
502D6
  3
LAYERNOTIFY
350
502D7
  3
LIGHTINGUNITS
350
502D8
  3
MLEADERSCALE
350
502D9
  3
MSLTSCALE
350
502DA
  3
MSOLESCALE
350
502DB
  3
PDFFRAME
350
502DC
  3
POINTCLOUDCLIPFRAME
350
502DD
  3
PROJECTNAME
350
502DE
  3
SOLIDHIST
350
502DF
  3
SORTENTS
350
502E0
  0
DICTIONARY
  5
22D1
102
{ACAD_REACTORS
330
C
102
}
330
C
100
AcDbDictionary
281
     1
  0
DICTIONARY
  5
18F
102
{ACAD_REACTORS
330
18E
102
}
330
18E
100
AcDbDictionary
281
     1
  0
SORTENTSTABLE
  5
28E
102
{ACAD_REACTORS
330
15D
102
}
330
15D
100
AcDbSortentsTable
330
1F
  0
ACDBDETAILVIEWSTYLE
  5
1AC
102
{ACAD_REACTORS
330
1AB
102
}
330
1AB
100
AcDbModelDocViewStyle
 70
     0
  3
Imperial24
290
     0
300
Imperial24
 90
        0
100
AcDbDetailViewStyle
 70
     0
 71
     0
 90
        3
 71
     1
340
11
 62
   256
 40
0.24
340
0
 62
   256
 40
0.24
300

 40
0.36
280
     3
 71
     2
340
16
 90
       25
 62
   256
 71
     3
340
11
 62
   256
 40
0.24
 90
        1
 40
0.75
 90
        1
300
%<\AcVar ViewType \f "%tc1">% %<\AcVar ViewDetailId>%\PSCALE %<\AcVar ViewScale \f "%sn">%
 71
     4
340
16
 90
       25
 62
   256
340
16
 90
       25
 62
   256
280
     0
  0
ACDBDETAILVIEWSTYLE
  5
224
102
{ACAD_REACTORS
330
1AB
102
}
330
1AB
100
AcDbModelDocViewStyle
 70
     0
  3
Metric50
290
     0
300
Metric50
 90
        0
100
AcDbDetailViewStyle
 70
     0
 71
     0
 90
        3
 71
     1
340
11
 62
   256
 40
5.0
340
0
 62
   256
 40
5.0
300

 40
0.0
280
     1
 71
     2
340
16
 90
       25
 62
   256
 71
     3
340
11
 62
   256
 40
5.0
 90
        0
 40
15.0
 90
        1
300
%<\AcVar ViewDetailId>% (%<\AcVar ViewScale \f "%sn">%)
 71
     4
340
16
 90
       25
 62
   256
340
16
 90
       25
 62
   256
280
     0
  0
LAYOUT
  5
59
102
{ACAD_REACTORS
330
1A
102
}
330
1A
100
AcDbPlotSettings
  1

  2
None
  4

  6

 40
0.0
 41
0.0
 42
0.0
 43
0.0
 44
0.0
 45
0.0
 46
0.0
 47
0.0
 48
0.0
 49
0.0
140
0.0
141
0.0
142
1.0
143
1.0
 70
   688
 72
     0
 73
     0
 74
     5
  7

 75
    16
147
1.0
 76
     0
 77
     2
 78
   300
148
0.0
149
0.0
100
AcDbLayout
  1
Layout1
 70
     1
 71
     1
 10
0.0
 20
0.0
 11
12.0
 21
9.0
 12
0.0
 22
0.0
 32
0.0
 14
0.0
 24
0.0
 34
0.0
 15
0.0
 25
0.0
 35
0.0
146
0.0
 13
0.0
 23
0.0
 33
0.0
 16
1.0
 26
0.0
 36
0.0
 17
0.0
 27
1.0
 37
0.0
 76
     0
330
58
  0
LAYOUT
  5
5E
102
{ACAD_REACTORS
330
1A
102
}
330
1A
100
AcDbPlotSettings
  1

  2
None
  4

  6

 40
0.0
 41
0.0
 42
0.0
 43
0.0
 44
0.0
 45
0.0
 46
0.0
 47
0.0
 48
0.0
 49
0.0
140
0.0
141
0.0
142
1.0
143
1.0
 70
   688
 72
     0
 73
     0
 74
     5
  7

 75
    16
147
1.0
 76
     0
 77
     2
 78
   300
148
0.0
149
0.0
100
AcDbLayout
  1
Layout2
 70
     1
 71
     2
 10
0.0
 20
0.0
 11
12.0
 21
9.0
 12
0.0
 22
0.0
 32
0.0
 14
0.0
 24
0.0
 34
0.0
 15
0.0
 25
0.0
 35
0.0
146
0.0
 13
0.0
 23
0.0
 33
0.0
 16
1.0
 26
0.0
 36
0.0
 17
0.0
 27
1.0
 37
0.0
 76
     0
330
5D
  0
LAYOUT
  5
22
102
{ACAD_XDICTIONARY
360
194
102
}
102
{ACAD_REACTORS
330
1A
102
}
330
1A
100
AcDbPlotSettings
  1

  2
none_device
  4
ANSI_A_(8.50_x_11.00_Inches)
  6

 40
6.349999904632568
 41
19.04999923706055
 42
6.350006103515625
 43
19.04998779296875
 44
215.8999938964844
 45
279.3999938964844
 46
0.0
 47
0.0
 48
0.0
 49
0.0
140
0.0
141
0.0
142
1.0
143
2.584895464708373
 70
 11952
 72
     0
 73
     1
 74
     0
  7

 75
     0
147
0.3868628397755418
 76
     0
 77
     2
 78
   300
148
0.0
149
0.0
100
AcDbLayout
  1
Model
 70
     1
 71
     0
 10
0.0
 20
0.0
 11
12.0
 21
9.0
 12
0.0
 22
0.0
 32
0.0
 14
0.0
 24
0.0
 34
0.0
 15
0.0
 25
0.0
 35
0.0
146
0.0
 13
0.0
 23
0.0
 33
0.0
 16
1.0
 26
0.0
 36
0.0
 17
0.0
 27
1.0
 37
0.0
 76
     0
330
1F
331
94
  0
MATERIAL
  5
97
102
{ACAD_XDICTIONARY
360
188
102
}
102
{ACAD_REACTORS
330
72
102
}
330
72
100
AcDbMaterial
  1
ByBlock
 94
       63
  0
MATERIAL
  5
96
102
{ACAD_XDICTIONARY
360
186
102
}
102
{ACAD_REACTORS
330
72
102
}
330
72
100
AcDbMaterial
  1
ByLayer
 94
       63
  0
MATERIAL
  5
98
102
{ACAD_XDICTIONARY
360
110
102
}
102
{ACAD_REACTORS
330
72
102
}
330
72
100
AcDbMaterial
  1
Global
 43
0.0208000000566244
 43
0.0
 43
0.0
 43
0.0
 43
0.0
 43
0.0208000000566244
 43
0.0
 43
0.0
 43
0.0
 43
0.0
 43
1.0
 43
0.0
 43
0.0
 43
0.0
 43
0.0
 43
1.0
 49
0.0208000000566244
 49
0.0
 49
0.0
 49
0.0
 49
0.0
 49
0.0208000000566244
 49
0.0
 49
0.0
 49
0.0
 49
0.0
 49
1.0
 49
0.0
 49
0.0
 49
0.0
 49
0.0
 49
1.0
142
0.0208000000566244
142
0.0
142
0.0
142
0.0
142
0.0
142
0.0208000000566244
142
0.0
142
0.0
142
0.0
142
0.0
142
1.0
142
0.0
142
0.0
142
0.0
142
0.0
142
1.0
144
0.0208000000566244
144
0.0
144
0.0
144
0.0
144
0.0
144
0.0208000000566244
144
0.0
144
0.0
144
0.0
144
0.0
144
1.0
144
0.0
144
0.0
144
0.0
144
0.0
144
1.0
 94
       63
1001
ACAD
1070
    -1
1070
     3
1070
     0
1000

1071
        0
1070
     0
  0
MLEADERSTYLE
  5
D8
102
{ACAD_REACTORS
330
D7
102
}
330
D7
100
AcDbMLeaderStyle
179
     2
170
     2
171
     1
172
     0
 90
        2
 40
0.0
 41
0.0
173
     1
 91
-1056964608
340
14
 92
       -2
290
     1
 42
0.09
291
     1
 43
0.36
  3
Standard
 44
0.18
300

342
11
174
     1
178
     1
175
     1
176
     0
 93
-1056964608
 45
0.18
292
     0
297
     0
 46
0.18
 94
-1056964608
 47
1.0
 49
1.0
140
1.0
293
     1
141
0.0
294
     1
177
     0
142
1.0
295
     0
296
     0
143
0.125
271
     0
272
     9
273
     9
298
     0
  0
MLINESTYLE
  5
18
102
{ACAD_REACTORS
330
17
102
}
330
17
100
AcDbMlineStyle
  2
STANDARD
 70
     0
  3

 62
   256
 51
90.0
 52
90.0
 71
     2
 49
0.5
 62
   256
  6
BYLAYER
 49
-0.5
 62
   256
  6
BYLAYER
  0
ACDBPLACEHOLDER
  5
F
102
{ACAD_REACTORS
330
E
102
}
330
E
  0
SCALE
  5
2283
102
{ACAD_REACTORS
330
B6
102
}
330
B6
100
AcDbScale
 70
     0
300
1:75
140
1.0
141
75.0
290
     0
  0
SCALE
  5
B7
102
{ACAD_REACTORS
330
B6
102
}
330
B6
100
AcDbScale
 70
     0
300
1:1
140
1.0
141
1.0
290
     1
  0
SCALE
  5
124
102
{ACAD_REACTORS
330
B6
102
}
330
B6
100
AcDbScale
 70
     0
300
1:2
140
1.0
141
2.0
290
     0
  0
SCALE
  5
125
102
{ACAD_REACTORS
330
B6
102
}
330
B6
100
AcDbScale
 70
     0
300
1:4
140
1.0
141
4.0
290
     0
  0
SCALE
  5
126
102
{ACAD_REACTORS
330
B6
102
}
330
B6
100
AcDbScale
 70
     0
300
1:5
140
1.0
141
5.0
290
     0
  0
SCALE
  5
127
102
{ACAD_REACTORS
330
B6
102
}
330
B6
100
AcDbScale
 70
     0
300
1:8
140
1.0
141
8.0
290
     0
  0
SCALE
  5
128
102
{ACAD_REACTORS
330
B6
102
}
330
B6
100
AcDbScale
 70
     0
300
1:10
140
1.0
141
10.0
290
     0
  0
SCALE
  5
129
102
{ACAD_REACTORS
330
B6
102
}
330
B6
100
AcDbScale
 70
     0
300
1:16
140
1.0
141
16.0
290
     0
  0
SCALE
  5
12A
102
{ACAD_REACTORS
330
B6
102
}
330
B6
100
AcDbScale
 70
     0
300
1:20
140
1.0
141
20.0
290
     0
  0
SCALE
  5
12B
102
{ACAD_REACTORS
330
B6
102
}
330
B6
100
AcDbScale
 70
     0
300
1:30
140
1.0
141
30.0
290
     0
  0
SCALE
  5
12C
102
{ACAD_REACTORS
330
B6
102
}
330
B6
100
AcDbScale
 70
     0
300
1:40
140
1.0
141
40.0
290
     0
  0
SCALE
  5
12D
102
{ACAD_REACTORS
330
B6
102
}
330
B6
100
AcDbScale
 70
     0
300
1:50
140
1.0
141
50.0
290
     0
  0
SCALE
  5
12E
102
{ACAD_REACTORS
330
B6
102
}
330
B6
100
AcDbScale
 70
     0
300
1:100
140
1.0
141
100.0
290
     0
  0
SCALE
  5
12F
102
{ACAD_REACTORS
330
B6
102
}
330
B6
100
AcDbScale
 70
     0
300
2:1
140
2.0
141
1.0
290
     0
  0
SCALE
  5
130
102
{ACAD_REACTORS
330
B6
102
}
330
B6
100
AcDbScale
 70
     0
300
4:1
140
4.0
141
1.0
290
     0
  0
SCALE
  5
131
102
{ACAD_REACTORS
330
B6
102
}
330
B6
100
AcDbScale
 70
     0
300
8:1
140
8.0
141
1.0
290
     0
  0
SCALE
  5
132
102
{ACAD_REACTORS
330
B6
102
}
330
B6
100
AcDbScale
 70
     0
300
10:1
140
10.0
141
1.0
290
     0
  0
SCALE
  5
133
102
{ACAD_REACTORS
330
B6
102
}
330
B6
100
AcDbScale
 70
     0
300
100:1
140
100.0
141
1.0
290
     0
  0
SCALE
  5
134
102
{ACAD_REACTORS
330
B6
102
}
330
B6
100
AcDbScale
 70
     0
300
1/128" = 1'-0"
140
0.0078125
141
12.0
290
     0
  0
SCALE
  5
135
102
{ACAD_REACTORS
330
B6
102
}
330
B6
100
AcDbScale
 70
     0
300
1/64" = 1'-0"
140
0.015625
141
12.0
290
     0
  0
SCALE
  5
136
102
{ACAD_REACTORS
330
B6
102
}
330
B6
100
AcDbScale
 70
     0
300
1/32" = 1'-0"
140
0.03125
141
12.0
290
     0
  0
SCALE
  5
137
102
{ACAD_REACTORS
330
B6
102
}
330
B6
100
AcDbScale
 70
     0
300
1/16" = 1'-0"
140
0.0625
141
12.0
290
     0
  0
SCALE
  5
138
102
{ACAD_REACTORS
330
B6
102
}
330
B6
100
AcDbScale
 70
     0
300
3/32" = 1'-0"
140
0.09375
141
12.0
290
     0
  0
SCALE
  5
139
102
{ACAD_REACTORS
330
B6
102
}
330
B6
100
AcDbScale
 70
     0
300
1/8" = 1'-0"
140
0.125
141
12.0
290
     0
  0
SCALE
  5
13A
102
{ACAD_REACTORS
330
B6
102
}
330
B6
100
AcDbScale
 70
     0
300
3/16" = 1'-0"
140
0.1875
141
12.0
290
     0
  0
SCALE
  5
13B
102
{ACAD_REACTORS
330
B6
102
}
330
B6
100
AcDbScale
 70
     0
300
1/4" = 1'-0"
140
0.25
141
12.0
290
     0
  0
SCALE
  5
13C
102
{ACAD_REACTORS
330
B6
102
}
330
B6
100
AcDbScale
 70
     0
300
3/8" = 1'-0"
140
0.375
141
12.0
290
     0
  0
SCALE
  5
13D
102
{ACAD_REACTORS
330
B6
102
}
330
B6
100
AcDbScale
 70
     0
300
1/2" = 1'-0"
140
0.5
141
12.0
290
     0
  0
SCALE
  5
13E
102
{ACAD_REACTORS
330
B6
102
}
330
B6
100
AcDbScale
 70
     0
300
3/4" = 1'-0"
140
0.75
141
12.0
290
     0
  0
SCALE
  5
13F
102
{ACAD_REACTORS
330
B6
102
}
330
B6
100
AcDbScale
 70
     0
300
1" = 1'-0"
140
1.0
141
12.0
290
     0
  0
SCALE
  5
140
102
{ACAD_REACTORS
330
B6
102
}
330
B6
100
AcDbScale
 70
     0
300
1-1/2" = 1'-0"
140
1.5
141
12.0
290
     0
  0
SCALE
  5
141
102
{ACAD_REACTORS
330
B6
102
}
330
B6
100
AcDbScale
 70
     0
300
3" = 1'-0"
140
3.0
141
12.0
290
     0
  0
SCALE
  5
142
102
{ACAD_REACTORS
330
B6
102
}
330
B6
100
AcDbScale
 70
     0
300
6" = 1'-0"
140
6.0
141
12.0
290
     0
  0
SCALE
  5
143
102
{ACAD_REACTORS
330
B6
102
}
330
B6
100
AcDbScale
 70
     0
300
1'-0" = 1'-0"
140
12.0
141
12.0
290
     0
  0
ACDBSECTIONVIEWSTYLE
  5
1AA
102
{ACAD_REACTORS
330
1A8
102
}
330
1A8
100
AcDbModelDocViewStyle
 70
     0
  3
Imperial24
290
     0
300
Imperial24
 90
        0
100
AcDbSectionViewStyle
 70
     0
 71
     0
 90
       78
 71
     1
340
11
 62
   256
 40
0.24
340
0
340
0
 62
   256
 40
0.24
300
I, O, Q, S, X, Z
 40
0.48
 90
        3
 40
0.18
 90
        1
 71
     2
340
16
 90
       25
 62
   256
340
16
 90
       50
 62
   256
 40
0.24
 40
0.0
 40
0.24
 71
     3
340
11
 62
   256
 40
0.24
 90
        1
 40
0.75
 90
        1
300
%<\AcVar ViewType \f "%tc1">% %<\AcVar ViewSectionStartId>%-%<\AcVar ViewSectionEndId>%\PSCALE %<\AcVar ViewScale \f "%sn">%
 71
     4
 62
   256
 62
   257
300
ANSI31
 40
1.0
 90
        0
290
     0
290
     0
 90
        6
 40
0.0
 40
1.570796326794896
 40
0.2617993877991494
 40
1.308996938995747
 40
-0.2617993877991494
 40
1.832595714594046
  0
ACDBSECTIONVIEWSTYLE
  5
223
102
{ACAD_REACTORS
330
1A8
102
}
330
1A8
100
AcDbModelDocViewStyle
 70
     0
  3
Metric50
290
     0
300
Metric50
 90
        0
100
AcDbSectionViewStyle
 70
     0
 71
     0
 90
      102
 71
     1
340
11
 62
   256
 40
5.0
340
0
340
0
 62
   256
 40
5.0
300
I, O, Q, S, X, Z
 40
10.0
 90
        0
 40
2.5
 90
        0
 71
     2
340
16
 90
       25
 62
   256
340
16
 90
       50
 62
   256
 40
5.0
 40
2.5
 40
5.0
 71
     3
340
11
 62
   256
 40
5.0
 90
        0
 40
15.0
 90
        1
300
%<\AcVar ViewSectionStartId>%-%<\AcVar ViewSectionEndId>% (%<\AcVar ViewScale \f "%sn">%)
 71
     4
 62
   256
 62
   257
300
ANSI31
 40
1.0
 90
        0
290
     0
290
     0
 90
        6
 40
0.0
 40
1.570796326794896
 40
0.2617993877991494
 40
1.308996938995747
 40
-0.2617993877991494
 40
1.832595714594046
  0
TABLESTYLE
  5
87
102
{ACAD_XDICTIONARY
360
104
102
}
102
{ACAD_REACTORS
330
86
102
}
330
86
100
AcDbTableStyle
280
     0
  3
Standard
 70
     0
 71
     0
 40
0.06
 41
0.06
280
     0
281
     0
  7
Standard
140
0.18
170
     2
 62
     0
 63
     7
283
     0
 90
      512
 91
        0
  1

274
    -2
284
     1
 64
     0
275
    -2
285
     1
 65
     0
276
    -2
286
     1
 66
     0
277
    -2
287
     1
 67
     0
278
    -2
288
     1
 68
     0
279
    -2
289
     1
 69
     0
  7
Standard
140
0.25
170
     5
 62
     0
 63
     7
283
     0
 90
      512
 91
        0
  1

274
    -2
284
     1
 64
     0
275
    -2
285
     1
 65
     0
276
    -2
286
     1
 66
     0
277
    -2
287
     1
 67
     0
278
    -2
288
     1
 68
     0
279
    -2
289
     1
 69
     0
  7
Standard
140
0.18
170
     5
 62
     0
 63
     7
283
     0
 90
      512
 91
        0
  1

274
    -2
284
     1
 64
     0
275
    -2
285
     1
 65
     0
276
    -2
286
     1
 66
     0
277
    -2
287
     1
 67
     0
278
    -2
288
     1
 68
     0
279
    -2
289
     1
 69
     0
  0
VISUALSTYLE
  5
9F
102
{ACAD_REACTORS
330
99
102
}
330
99
100
AcDbVisualStyle
  2
2dWireframe
 70
     4
177
     3
291
     0
 70
    58
 90
        0
176
     1
 90
        2
176
     1
 90
        1
176
     1
 90
        0
176
     1
 40
0.6
176
     1
 40
30.0
176
     1
 62
     7
420
 16777215
176
     1
 90
        1
176
     1
 90
        4
176
     1
 62
     7
176
     1
 62
   257
176
     1
 90
        1
176
     1
 90
        1
176
     1
 40
1.0
176
     1
 90
        0
176
     1
 62
   257
176
     1
 40
1.0
176
     1
 90
        1
176
     1
 90
        6
176
     1
 90
        2
176
     1
 62
     7
176
     1
 90
        5
176
     1
 90
        0
176
     1
 90
        0
176
     1
290
     0
176
     1
 90
        1
176
     1
 40
0.0
176
     1
 90
        0
176
     1
290
     1
176
     1
290
     1
176
     1
290
     0
176
     1
290
     0
176
     1
290
     0
176
     1
290
     0
176
     1
290
     0
176
     1
290
     0
176
     1
290
     0
176
     1
 90
       50
176
     1
 40
0.0
176
     1
 40
1.0
176
     1
 90
        0
176
     1
 62
    18
420
        0
176
     1
 90
       50
176
     1
 90
        3
176
     1
 62
     5
420
      255
176
     1
290
     0
176
     1
 90
       50
176
     1
 90
       50
176
     1
 90
       50
176
     1
290
     0
176
     1
 90
       50
176
     1
 62
   256
176
     0
 40
1.0
176
     0
 90
        2
176
     1
  1
strokes_ogs.tif
176
     1
290
     0
176
     1
 40
1.0
176
     1
 40
1.0
176
     1
  0
VISUALSTYLE
  5
22946
102
{ACAD_REACTORS
330
99
102
}
330
99
100
AcDbVisualStyle
  2
3dWireframe
 70
     5
177
     3
291
     0
 70
    58
 90
        0
176
     1
 90
        2
176
     1
 90
        0
176
     1
 90
        0
176
     1
 40
0.6
176
     1
 40
30.0
176
     1
 62
     7
176
     1
 90
        1
176
     1
 90
        4
176
     1
 62
     7
176
     1
 62
   257
176
     1
 90
        1
176
     1
 90
        1
176
     1
 40
1.0
176
     1
 90
        0
176
     1
 62
   257
176
     1
 40
1.0
176
     1
 90
        1
176
     1
 90
        6
176
     1
 90
        2
176
     1
 62
     7
176
     1
 90
        5
176
     1
 90
        0
176
     1
 90
        0
176
     1
290
     0
176
     1
 90
        1
176
     1
 40
0.0
176
     1
 90
        0
176
     1
290
     0
176
     1
290
     1
176
     1
290
     1
176
     1
290
     0
176
     1
290
     0
176
     1
290
     0
176
     1
290
     0
176
     1
290
     0
176
     1
290
     0
176
     1
 90
       50
176
     1
 40
0.0
176
     1
 40
1.0
176
     1
 90
        0
176
     1
 62
    18
420
        0
176
     1
 90
       50
176
     1
 90
        3
176
     1
 62
     5
420
      255
176
     1
290
     0
176
     1
 90
       50
176
     1
 90
       50
176
     1
 90
       50
176
     1
290
     0
176
     1
 90
       50
176
     1
 62
   256
176
     0
 40
1.0
176
     0
 90
        2
176
     1
  1
strokes_ogs.tif
176
     1
290
     0
176
     1
 40
1.0
176
     1
 40
1.0
176
     1
  0
VISUALSTYLE
  5
9E
102
{ACAD_REACTORS
330
99
102
}
330
99
100
AcDbVisualStyle
  2
Basic
 70
     7
177
     3
291
     1
 70
    58
 90
        1
176
     1
 90
        0
176
     1
 90
        1
176
     1
 90
        0
176
     1
 40
0.6
176
     1
 40
30.0
176
     1
 62
     7
420
 16777215
176
     1
 90
        0
176
     1
 90
        4
176
     1
 62
     7
176
     1
 62
   257
176
     1
 90
        1
176
     1
 90
        1
176
     1
 40
1.0
176
     1
 90
        8
176
     1
 62
     7
176
     1
 40
1.0
176
     1
 90
        1
176
     1
 90
        6
176
     1
 90
        2
176
     1
 62
     7
176
     1
 90
        5
176
     1
 90
        0
176
     1
 90
        0
176
     1
290
     0
176
     1
 90
        1
176
     1
 40
0.0
176
     1
 90
        0
176
     1
290
     0
176
     1
290
     1
176
     1
290
     1
176
     1
290
     0
176
     1
290
     0
176
     1
290
     0
176
     1
290
     0
176
     1
290
     0
176
     1
290
     0
176
     1
 90
       50
176
     1
 40
0.0
176
     1
 40
1.0
176
     1
 90
        0
176
     1
 62
    18
420
        0
176
     1
 90
       50
176
     1
 90
        3
176
     1
 62
     5
420
      255
176
     1
290
     0
176
     1
 90
       50
176
     1
 90
       50
176
     1
 90
       50
176
     1
290
     0
176
     1
 90
       50
176
     1
 62
   256
176
     0
 40
1.0
176
     0
 90
        2
176
     1
  1
strokes_ogs.tif
176
     1
290
     0
176
     1
 40
1.0
176
     1
 40
1.0
176
     1
  0
VISUALSTYLE
  5
A5
102
{ACAD_REACTORS
330
99
102
}
330
99
100
AcDbVisualStyle
  2
Brighten
 70
    12
177
     3
291
     1
 70
    58
 90
        2
176
     1
 90
        2
176
     1
 90
        1
176
     1
 90
        0
176
     1
 40
0.6
176
     1
 40
30.0
176
     1
 62
     7
420
 16777215
176
     1
 90
        1
176
     1
 90
        4
176
     1
 62
     7
176
     1
 62
   257
176
     1
 90
        1
176
     1
 90
        1
176
     1
 40
1.0
176
     1
 90
        8
176
     1
 62
     7
176
     1
 40
1.0
176
     1
 90
        1
176
     1
 90
        6
176
     1
 90
        2
176
     1
 62
     7
176
     1
 90
        5
176
     1
 90
        0
176
     1
 90
        0
176
     1
290
     0
176
     1
 90
        1
176
     1
 40
50.0
176
     1
 90
        0
176
     1
290
     0
176
     1
290
     1
176
     1
290
     1
176
     1
290
     0
176
     1
290
     0
176
     1
290
     0
176
     1
290
     0
176
     1
290
     0
176
     1
290
     0
176
     1
 90
       50
176
     1
 40
0.0
176
     1
 40
1.0
176
     1
 90
        0
176
     1
 62
    18
420
        0
176
     1
 90
       50
176
     1
 90
        3
176
     1
 62
     5
420
      255
176
     1
290
     0
176
     1
 90
       50
176
     1
 90
       50
176
     1
 90
       50
176
     1
290
     0
176
     1
 90
       50
176
     1
 62
   256
176
     0
 40
1.0
176
     0
 90
        2
176
     1
  1
strokes_ogs.tif
176
     1
290
     0
176
     1
 40
1.0
176
     1
 40
1.0
176
     1
  0
VISUALSTYLE
  5
A9
102
{ACAD_REACTORS
330
99
102
}
330
99
100
AcDbVisualStyle
  2
ColorChange
 70
    16
177
     3
291
     1
 70
    58
 90
        2
176
     1
 90
        2
176
     1
 90
        3
176
     1
 90
        0
176
     1
 40
0.6
176
     1
 40
30.0
176
     1
 62
     8
420
  8421504
176
     1
 90
        1
176
     1
 90
        4
176
     1
 62
     7
176
     1
 62
   257
176
     1
 90
        1
176
     1
 90
        1
176
     1
 40
1.0
176
     1
 90
        8
176
     1
 62
     8
420
  8421504
176
     1
 40
1.0
176
     1
 90
        1
176
     1
 90
        6
176
     1
 90
        2
176
     1
 62
     7
176
     1
 90
        5
176
     1
 90
        0
176
     1
 90
        0
176
     1
290
     0
176
     1
 90
        1
176
     1
 40
0.0
176
     1
 90
        0
176
     1
290
     0
176
     1
290
     1
176
     1
290
     1
176
     1
290
     0
176
     1
290
     0
176
     1
290
     0
176
     1
290
     0
176
     1
290
     0
176
     1
290
     0
176
     1
 90
       50
176
     1
 40
0.0
176
     1
 40
1.0
176
     1
 90
        0
176
     1
 62
    18
420
        0
176
     1
 90
       50
176
     1
 90
        3
176
     1
 62
     5
420
      255
176
     1
290
     0
176
     1
 90
       50
176
     1
 90
       50
176
     1
 90
       50
176
     1
290
     0
176
     1
 90
       50
176
     1
 62
   256
176
     0
 40
1.0
176
     0
 90
        2
176
     1
  1
strokes_ogs.tif
176
     1
290
     0
176
     1
 40
1.0
176
     1
 40
1.0
176
     1
  0
VISUALSTYLE
  5
A2
102
{ACAD_REACTORS
330
99
102
}
330
99
100
AcDbVisualStyle
  2
Conceptual
 70
     9
177
     3
291
     0
 70
    58
 90
        3
176
     1
 90
        2
176
     1
 90
        1
176
     1
 90
        0
176
     1
 40
0.6
176
     1
 40
30.0
176
     1
 62
     7
420
 16777215
176
     1
 90
        2
176
     1
 90
        2
176
     1
 62
     7
176
     1
 62
   257
176
     1
 90
        1
176
     1
 90
        1
176
     1
 40
40.0
176
     1
 90
        8
176
     1
 62
     7
176
     1
 40
1.0
176
     1
 90
        1
176
     1
 90
        6
176
     1
 90
        2
176
     1
 62
     7
176
     1
 90
        3
176
     1
 90
        0
176
     1
 90
        0
176
     1
290
     0
176
     1
 90
        1
176
     1
 40
0.0
176
     1
 90
        0
176
     1
290
     0
176
     1
290
     1
176
     1
290
     1
176
     1
290
     0
176
     1
290
     0
176
     1
290
     0
176
     1
290
     0
176
     1
290
     0
176
     1
290
     0
176
     1
 90
       50
176
     1
 40
0.0
176
     1
 40
1.0
176
     1
 90
        0
176
     1
 62
    18
420
        0
176
     1
 90
       50
176
     1
 90
        3
176
     1
 62
     5
420
      255
176
     1
290
     0
176
     1
 90
       50
176
     1
 90
       50
176
     1
 90
       50
176
     1
290
     0
176
     1
 90
       50
176
     1
 62
   256
176
     0
 40
1.0
176
     0
 90
        2
176
     1
  1
strokes_ogs.tif
176
     1
290
     0
176
     1
 40
1.0
176
     1
 40
1.0
176
     1
  0
VISUALSTYLE
  5
A4
102
{ACAD_REACTORS
330
99
102
}
330
99
100
AcDbVisualStyle
  2
Dim
 70
    11
177
     3
291
     1
 70
    58
 90
        2
176
     1
 90
        2
176
     1
 90
        1
176
     1
 90
        0
176
     1
 40
0.6
176
     1
 40
30.0
176
     1
 62
     7
420
 16777215
176
     1
 90
        1
176
     1
 90
        4
176
     1
 62
     7
176
     1
 62
   257
176
     1
 90
        1
176
     1
 90
        1
176
     1
 40
1.0
176
     1
 90
        8
176
     1
 62
     7
176
     1
 40
1.0
176
     1
 90
        1
176
     1
 90
        6
176
     1
 90
        2
176
     1
 62
     7
176
     1
 90
        5
176
     1
 90
        0
176
     1
 90
        0
176
     1
290
     0
176
     1
 90
        1
176
     1
 40
-50.0
176
     1
 90
        0
176
     1
290
     0
176
     1
290
     1
176
     1
290
     1
176
     1
290
     0
176
     1
290
     0
176
     1
290
     0
176
     1
290
     0
176
     1
290
     0
176
     1
290
     0
176
     1
 90
       50
176
     1
 40
0.0
176
     1
 40
1.0
176
     1
 90
        0
176
     1
 62
    18
420
        0
176
     1
 90
       50
176
     1
 90
        3
176
     1
 62
     5
420
      255
176
     1
290
     0
176
     1
 90
       50
176
     1
 90
       50
176
     1
 90
       50
176
     1
290
     0
176
     1
 90
       50
176
     1
 62
   256
176
     0
 40
1.0
176
     0
 90
        2
176
     1
  1
strokes_ogs.tif
176
     1
290
     0
176
     1
 40
1.0
176
     1
 40
1.0
176
     1
  0
VISUALSTYLE
  5
175
102
{ACAD_REACTORS
330
99
102
}
330
99
100
AcDbVisualStyle
  2
EdgeColorOff
 70
    22
177
     3
291
     1
 70
    58
 90
        2
176
     0
 90
        2
176
     0
 90
        0
176
     0
 90
        0
176
     0
 40
0.6
176
     0
 40
30.0
176
     0
 62
     7
420
 16777215
176
     0
 90
        1
176
     0
 90
        4
176
     0
 62
     7
176
     0
 62
   257
176
     0
 90
        1
176
     0
 90
        1
176
     0
 40
1.0
176
     0
 90
        8
176
     2
 62
     7
176
     0
 40
1.0
176
     0
 90
        1
176
     0
 90
        6
176
     0
 90
        2
176
     0
 62
     7
176
     0
 90
        5
176
     0
 90
        0
176
     0
 90
        0
176
     0
290
     0
176
     0
 90
        1
176
     0
 40
0.0
176
     0
 90
        0
176
     0
290
     0
176
     1
290
     1
176
     1
290
     1
176
     1
290
     0
176
     1
290
     0
176
     1
290
     0
176
     1
290
     0
176
     1
290
     0
176
     1
290
     0
176
     1
 90
       50
176
     1
 40
0.0
176
     1
 40
1.0
176
     1
 90
        0
176
     1
 62
    18
420
        0
176
     1
 90
       50
176
     1
 90
        3
176
     1
 62
     5
420
      255
176
     1
290
     0
176
     1
 90
       50
176
     1
 90
       50
176
     1
 90
       50
176
     1
290
     0
176
     1
 90
       50
176
     1
 62
   256
176
     0
 40
1.0
176
     0
 90
        2
176
     1
  1
strokes_ogs.tif
176
     1
290
     0
176
     1
 40
1.0
176
     1
 40
1.0
176
     1
  0
VISUALSTYLE
  5
A8
102
{ACAD_REACTORS
330
99
102
}
330
99
100
AcDbVisualStyle
  2
Facepattern
 70
    15
177
     3
291
     1
 70
    58
 90
        2
176
     1
 90
        2
176
     1
 90
        1
176
     1
 90
        0
176
     1
 40
0.6
176
     1
 40
30.0
176
     1
 62
     7
420
 16777215
176
     1
 90
        1
176
     1
 90
        4
176
     1
 62
     7
176
     1
 62
   257
176
     1
 90
        1
176
     1
 90
        1
176
     1
 40
1.0
176
     1
 90
        8
176
     1
 62
     7
176
     1
 40
1.0
176
     1
 90
        1
176
     1
 90
        6
176
     1
 90
        2
176
     1
 62
     7
176
     1
 90
        5
176
     1
 90
        0
176
     1
 90
        0
176
     1
290
     0
176
     1
 90
        1
176
     1
 40
0.0
176
     1
 90
        0
176
     1
290
     0
176
     1
290
     1
176
     1
290
     1
176
     1
290
     0
176
     1
290
     0
176
     1
290
     0
176
     1
290
     0
176
     1
290
     0
176
     1
290
     0
176
     1
 90
       50
176
     1
 40
0.0
176
     1
 40
1.0
176
     1
 90
        0
176
     1
 62
    18
420
        0
176
     1
 90
       50
176
     1
 90
        3
176
     1
 62
     5
420
      255
176
     1
290
     0
176
     1
 90
       50
176
     1
 90
       50
176
     1
 90
       50
176
     1
290
     0
176
     1
 90
       50
176
     1
 62
   256
176
     0
 40
1.0
176
     0
 90
        2
176
     1
  1
strokes_ogs.tif
176
     1
290
     0
176
     1
 40
1.0
176
     1
 40
1.0
176
     1
  0
VISUALSTYLE
  5
9A
102
{ACAD_REACTORS
330
99
102
}
330
99
100
AcDbVisualStyle
  2
Flat
 70
     0
177
     3
291
     1
 70
    58
 90
        2
176
     1
 90
        1
176
     1
 90
        1
176
     1
 90
        2
176
     1
 40
0.6
176
     1
 40
30.0
176
     1
 62
     7
420
 16777215
176
     1
 90
        0
176
     1
 90
        0
176
     1
 62
     7
176
     1
 62
   257
176
     1
 90
        1
176
     1
 90
        1
176
     1
 40
1.0
176
     1
 90
        8
176
     1
 62
     7
176
     1
 40
1.0
176
     1
 90
        1
176
     1
 90
        6
176
     1
 90
        2
176
     1
 62
     7
176
     1
 90
        5
176
     1
 90
        0
176
     1
 90
        0
176
     1
290
     0
176
     1
 90
       13
176
     1
 40
0.0
176
     1
 90
        0
176
     1
290
     0
176
     1
290
     1
176
     1
290
     1
176
     1
290
     0
176
     1
290
     0
176
     1
290
     0
176
     1
290
     0
176
     1
290
     0
176
     1
290
     0
176
     1
 90
       50
176
     1
 40
0.0
176
     1
 40
1.0
176
     1
 90
        0
176
     1
 62
    18
420
        0
176
     1
 90
       50
176
     1
 90
        3
176
     1
 62
     5
420
      255
176
     1
290
     0
176
     1
 90
       50
176
     1
 90
       50
176
     1
 90
       50
176
     1
290
     0
176
     1
 90
       50
176
     1
 62
   256
176
     0
 40
1.0
176
     0
 90
        2
176
     1
  1
strokes_ogs.tif
176
     1
290
     0
176
     1
 40
1.0
176
     1
 40
1.0
176
     1
  0
VISUALSTYLE
  5
9B
102
{ACAD_REACTORS
330
99
102
}
330
99
100
AcDbVisualStyle
  2
FlatWithEdges
 70
     1
177
     3
291
     1
 70
    58
 90
        2
176
     1
 90
        1
176
     1
 90
        1
176
     1
 90
        2
176
     1
 40
0.6
176
     1
 40
30.0
176
     1
 62
     7
420
 16777215
176
     1
 90
        1
176
     1
 90
        0
176
     1
 62
     7
176
     1
 62
   257
176
     1
 90
        1
176
     1
 90
        1
176
     1
 40
1.0
176
     1
 90
        0
176
     1
 62
   257
176
     1
 40
1.0
176
     1
 90
        1
176
     1
 90
        6
176
     1
 90
        2
176
     1
 62
     7
176
     1
 90
        5
176
     1
 90
        0
176
     1
 90
        0
176
     1
290
     0
176
     1
 90
       13
176
     1
 40
0.0
176
     1
 90
        0
176
     1
290
     0
176
     1
290
     1
176
     1
290
     1
176
     1
290
     0
176
     1
290
     0
176
     1
290
     0
176
     1
290
     0
176
     1
290
     0
176
     1
290
     0
176
     1
 90
       50
176
     1
 40
0.0
176
     1
 40
1.0
176
     1
 90
        0
176
     1
 62
    18
420
        0
176
     1
 90
       50
176
     1
 90
        3
176
     1
 62
     5
420
      255
176
     1
290
     0
176
     1
 90
       50
176
     1
 90
       50
176
     1
 90
       50
176
     1
290
     0
176
     1
 90
       50
176
     1
 62
   256
176
     0
 40
1.0
176
     0
 90
        2
176
     1
  1
strokes_ogs.tif
176
     1
290
     0
176
     1
 40
1.0
176
     1
 40
1.0
176
     1
  0
VISUALSTYLE
  5
9C
102
{ACAD_REACTORS
330
99
102
}
330
99
100
AcDbVisualStyle
  2
Gouraud
 70
     2
177
     3
291
     1
 70
    58
 90
        2
176
     1
 90
        2
176
     1
 90
        1
176
     1
 90
        2
176
     1
 40
0.6
176
     1
 40
30.0
176
     1
 62
     7
420
 16777215
176
     1
 90
        0
176
     1
 90
        0
176
     1
 62
     7
176
     1
 62
   257
176
     1
 90
        1
176
     1
 90
        1
176
     1
 40
1.0
176
     1
 90
        0
176
     1
 62
     7
176
     1
 40
1.0
176
     1
 90
        1
176
     1
 90
        6
176
     1
 90
        2
176
     1
 62
     7
176
     1
 90
        5
176
     1
 90
        0
176
     1
 90
        0
176
     1
290
     0
176
     1
 90
       13
176
     1
 40
0.0
176
     1
 90
        0
176
     1
290
     0
176
     1
290
     1
176
     1
290
     1
176
     1
290
     0
176
     1
290
     0
176
     1
290
     0
176
     1
290
     0
176
     1
290
     0
176
     1
290
     0
176
     1
 90
       50
176
     1
 40
0.0
176
     1
 40
1.0
176
     1
 90
        0
176
     1
 62
    18
420
        0
176
     1
 90
       50
176
     1
 90
        3
176
     1
 62
     5
420
      255
176
     1
290
     0
176
     1
 90
       50
176
     1
 90
       50
176
     1
 90
       50
176
     1
290
     0
176
     1
 90
       50
176
     1
 62
   256
176
     0
 40
1.0
176
     0
 90
        2
176
     1
  1
strokes_ogs.tif
176
     1
290
     0
176
     1
 40
1.0
176
     1
 40
1.0
176
     1
  0
VISUALSTYLE
  5
9D
102
{ACAD_REACTORS
330
99
102
}
330
99
100
AcDbVisualStyle
  2
GouraudWithEdges
 70
     3
177
     3
291
     1
 70
    58
 90
        2
176
     1
 90
        2
176
     1
 90
        1
176
     1
 90
        2
176
     1
 40
0.6
176
     1
 40
30.0
176
     1
 62
     7
420
 16777215
176
     1
 90
        1
176
     1
 90
        0
176
     1
 62
     7
176
     1
 62
   257
176
     1
 90
        1
176
     1
 90
        1
176
     1
 40
1.0
176
     1
 90
        0
176
     1
 62
   257
176
     1
 40
1.0
176
     1
 90
        1
176
     1
 90
        6
176
     1
 90
        2
176
     1
 62
     7
176
     1
 90
        5
176
     1
 90
        0
176
     1
 90
        0
176
     1
290
     0
176
     1
 90
       13
176
     1
 40
0.0
176
     1
 90
        0
176
     1
290
     0
176
     1
290
     1
176
     1
290
     1
176
     1
290
     0
176
     1
290
     0
176
     1
290
     0
176
     1
290
     0
176
     1
290
     0
176
     1
290
     0
176
     1
 90
       50
176
     1
 40
0.0
176
     1
 40
1.0
176
     1
 90
        0
176
     1
 62
    18
420
        0
176
     1
 90
       50
176
     1
 90
        3
176
     1
 62
     5
420
      255
176
     1
290
     0
176
     1
 90
       50
176
     1
 90
       50
176
     1
 90
       50
176
     1
290
     0
176
     1
 90
       50
176
     1
 62
   256
176
     0
 40
1.0
176
     0
 90
        2
176
     1
  1
strokes_ogs.tif
176
     1
290
     0
176
     1
 40
1.0
176
     1
 40
1.0
176
     1
  0
VISUALSTYLE
  5
A1
102
{ACAD_REACTORS
330
99
102
}
330
99
100
AcDbVisualStyle
  2
Hidden
 70
     6
177
     3
291
     0
 70
    58
 90
        1
176
     1
 90
        2
176
     1
 90
        2
176
     1
 90
        0
176
     1
 40
0.6
176
     1
 40
30.0
176
     1
 62
     7
420
 16777215
176
     1
 90
        2
176
     1
 90
        2
176
     1
 62
     7
176
     1
 62
   257
176
     1
 90
        2
176
     1
 90
        1
176
     1
 40
40.0
176
     1
 90
        0
176
     1
 62
   257
176
     1
 40
1.0
176
     1
 90
        1
176
     1
 90
        6
176
     1
 90
        2
176
     1
 62
     7
176
     1
 90
        3
176
     1
 90
        0
176
     1
 90
        0
176
     1
290
     0
176
     1
 90
        1
176
     1
 40
0.0
176
     1
 90
        0
176
     1
290
     0
176
     1
290
     1
176
     1
290
     1
176
     1
290
     0
176
     1
290
     0
176
     1
290
     0
176
     1
290
     0
176
     1
290
     0
176
     1
290
     0
176
     1
 90
       50
176
     1
 40
0.0
176
     1
 40
1.0
176
     1
 90
        0
176
     1
 62
    18
420
        0
176
     1
 90
       50
176
     1
 90
        3
176
     1
 62
     5
420
      255
176
     1
290
     0
176
     1
 90
       50
176
     1
 90
       50
176
     1
 90
       50
176
     1
290
     0
176
     1
 90
       50
176
     1
 62
   256
176
     0
 40
1.0
176
     0
 90
        2
176
     1
  1
strokes_ogs.tif
176
     1
290
     0
176
     1
 40
1.0
176
     1
 40
1.0
176
     1
  0
VISUALSTYLE
  5
173
102
{ACAD_REACTORS
330
99
102
}
330
99
100
AcDbVisualStyle
  2
JitterOff
 70
    20
177
     3
291
     1
 70
    58
 90
        2
176
     0
 90
        2
176
     0
 90
        0
176
     0
 90
        0
176
     0
 40
0.6
176
     0
 40
30.0
176
     0
 62
     7
420
 16777215
176
     0
 90
        1
176
     0
 90
        4
176
     0
 62
     7
176
     0
 62
   257
176
     0
 90
        1
176
     0
 90
        1
176
     0
 40
1.0
176
     0
 90
       10
176
     2
 62
     7
176
     0
 40
1.0
176
     0
 90
        1
176
     0
 90
        6
176
     0
 90
        2
176
     0
 62
     7
176
     0
 90
        5
176
     0
 90
        0
176
     0
 90
        0
176
     0
290
     0
176
     0
 90
        1
176
     0
 40
0.0
176
     0
 90
        0
176
     0
290
     0
176
     1
290
     1
176
     1
290
     1
176
     1
290
     0
176
     1
290
     0
176
     1
290
     0
176
     1
290
     0
176
     1
290
     0
176
     1
290
     0
176
     1
 90
       50
176
     1
 40
0.0
176
     1
 40
1.0
176
     1
 90
        0
176
     1
 62
    18
420
        0
176
     1
 90
       50
176
     1
 90
        3
176
     1
 62
     5
420
      255
176
     1
290
     0
176
     1
 90
       50
176
     1
 90
       50
176
     1
 90
       50
176
     1
290
     0
176
     1
 90
       50
176
     1
 62
   256
176
     0
 40
1.0
176
     0
 90
        2
176
     1
  1
strokes_ogs.tif
176
     1
290
     0
176
     1
 40
1.0
176
     1
 40
1.0
176
     1
  0
VISUALSTYLE
  5
A7
102
{ACAD_REACTORS
330
99
102
}
330
99
100
AcDbVisualStyle
  2
Linepattern
 70
    14
177
     3
291
     1
 70
    58
 90
        2
176
     1
 90
        2
176
     1
 90
        1
176
     1
 90
        0
176
     1
 40
0.6
176
     1
 40
30.0
176
     1
 62
     7
420
 16777215
176
     1
 90
        1
176
     1
 90
        4
176
     1
 62
     7
176
     1
 62
   257
176
     1
 90
        7
176
     1
 90
        7
176
     1
 40
1.0
176
     1
 90
        8
176
     1
 62
     7
176
     1
 40
1.0
176
     1
 90
        1
176
     1
 90
        6
176
     1
 90
        2
176
     1
 62
     7
176
     1
 90
        5
176
     1
 90
        0
176
     1
 90
        0
176
     1
290
     0
176
     1
 90
        1
176
     1
 40
0.0
176
     1
 90
        0
176
     1
290
     0
176
     1
290
     1
176
     1
290
     1
176
     1
290
     0
176
     1
290
     0
176
     1
290
     0
176
     1
290
     0
176
     1
290
     0
176
     1
290
     0
176
     1
 90
       50
176
     1
 40
0.0
176
     1
 40
1.0
176
     1
 90
        0
176
     1
 62
    18
420
        0
176
     1
 90
       50
176
     1
 90
        3
176
     1
 62
     5
420
      255
176
     1
290
     0
176
     1
 90
       50
176
     1
 90
       50
176
     1
 90
       50
176
     1
290
     0
176
     1
 90
       50
176
     1
 62
   256
176
     0
 40
1.0
176
     0
 90
        2
176
     1
  1
strokes_ogs.tif
176
     1
290
     0
176
     1
 40
1.0
176
     1
 40
1.0
176
     1
  0
VISUALSTYLE
  5
174
102
{ACAD_REACTORS
330
99
102
}
330
99
100
AcDbVisualStyle
  2
OverhangOff
 70
    21
177
     3
291
     1
 70
    58
 90
        2
176
     0
 90
        2
176
     0
 90
        0
176
     0
 90
        0
176
     0
 40
0.6
176
     0
 40
30.0
176
     0
 62
     7
420
 16777215
176
     0
 90
        1
176
     0
 90
        4
176
     0
 62
     7
176
     0
 62
   257
176
     0
 90
        1
176
     0
 90
        1
176
     0
 40
1.0
176
     0
 90
        9
176
     2
 62
     7
176
     0
 40
1.0
176
     0
 90
        1
176
     0
 90
        6
176
     0
 90
        2
176
     0
 62
     7
176
     0
 90
        5
176
     0
 90
        0
176
     0
 90
        0
176
     0
290
     0
176
     0
 90
        1
176
     0
 40
0.0
176
     0
 90
        0
176
     0
290
     0
176
     1
290
     1
176
     1
290
     1
176
     1
290
     0
176
     1
290
     0
176
     1
290
     0
176
     1
290
     0
176
     1
290
     0
176
     1
290
     0
176
     1
 90
       50
176
     1
 40
0.0
176
     1
 40
1.0
176
     1
 90
        0
176
     1
 62
    18
420
        0
176
     1
 90
       50
176
     1
 90
        3
176
     1
 62
     5
420
      255
176
     1
290
     0
176
     1
 90
       50
176
     1
 90
       50
176
     1
 90
       50
176
     1
290
     0
176
     1
 90
       50
176
     1
 62
   256
176
     0
 40
1.0
176
     0
 90
        2
176
     1
  1
strokes_ogs.tif
176
     1
290
     0
176
     1
 40
1.0
176
     1
 40
1.0
176
     1
  0
VISUALSTYLE
  5
A3
102
{ACAD_REACTORS
330
99
102
}
330
99
100
AcDbVisualStyle
  2
Realistic
 70
     8
177
     3
291
     0
 70
    58
 90
        2
176
     1
 90
        2
176
     1
 90
        0
176
     1
 90
        2
176
     1
 40
0.6
176
     1
 40
30.0
176
     1
 62
     7
420
 16777215
176
     1
 90
        0
176
     1
 90
        0
176
     1
 62
     7
176
     1
 62
   257
176
     1
 90
        1
176
     1
 90
        1
176
     1
 40
1.0
176
     1
 90
        8
176
     1
 62
   257
176
     1
 40
1.0
176
     1
 90
        1
176
     1
 90
        6
176
     1
 90
        2
176
     1
 62
     7
176
     1
 90
        3
176
     1
 90
        0
176
     1
 90
        0
176
     1
290
     0
176
     1
 90
       13
176
     1
 40
0.0
176
     1
 90
        0
176
     1
290
     0
176
     1
290
     1
176
     1
290
     1
176
     1
290
     0
176
     1
290
     0
176
     1
290
     0
176
     1
290
     0
176
     1
290
     0
176
     1
290
     0
176
     1
 90
       50
176
     1
 40
0.0
176
     1
 40
1.0
176
     1
 90
        0
176
     1
 62
    18
420
        0
176
     1
 90
       50
176
     1
 90
        3
176
     1
 62
     5
420
      255
176
     1
290
     0
176
     1
 90
       50
176
     1
 90
       50
176
     1
 90
       50
176
     1
290
     0
176
     1
 90
       50
176
     1
 62
   256
176
     0
 40
1.0
176
     0
 90
        2
176
     1
  1
strokes_ogs.tif
176
     1
290
     0
176
     1
 40
1.0
176
     1
 40
1.0
176
     1
  0
VISUALSTYLE
  5
182
102
{ACAD_REACTORS
330
99
102
}
330
99
100
AcDbVisualStyle
  2
Shaded
 70
    27
177
     3
291
     0
 70
    58
 90
        2
176
     1
 90
        2
176
     1
 90
        1
176
     1
 90
        2
176
     1
 40
0.6
176
     1
 40
30.0
176
     1
 62
     7
420
 16777215
176
     1
 90
        0
176
     1
 90
        4
176
     1
 62
     7
176
     1
 62
   257
176
     1
 90
        1
176
     1
 90
        1
176
     1
 40
1.0
176
     1
 90
        8
176
     1
 62
   257
176
     1
 40
1.0
176
     1
 90
        1
176
     1
 90
        6
176
     1
 90
        2
176
     1
 62
     8
420
  7895160
176
     1
 90
        3
176
     1
 90
        0
176
     1
 90
        0
176
     1
290
     0
176
     1
 90
        5
176
     1
 40
0.0
176
     1
 90
        0
176
     1
290
     0
176
     1
290
     1
176
     1
290
     1
176
     1
290
     0
176
     1
290
     0
176
     1
290
     0
176
     1
290
     0
176
     1
290
     0
176
     1
290
     0
176
     1
 90
       50
176
     1
 40
0.0
176
     1
 40
1.0
176
     1
 90
        0
176
     1
 62
    18
420
        0
176
     1
 90
       50
176
     1
 90
        3
176
     1
 62
     5
420
      255
176
     1
290
     0
176
     1
 90
       50
176
     1
 90
       50
176
     1
 90
       50
176
     1
290
     0
176
     1
 90
       50
176
     1
 62
   256
176
     0
 40
1.0
176
     0
 90
        2
176
     1
  1
strokes_ogs.tif
176
     1
290
     0
176
     1
 40
1.0
176
     1
 40
1.0
176
     1
  0
VISUALSTYLE
  5
181
102
{ACAD_REACTORS
330
99
102
}
330
99
100
AcDbVisualStyle
  2
Shaded with edges
 70
    26
177
     3
291
     0
 70
    58
 90
        2
176
     1
 90
        2
176
     1
 90
        1
176
     1
 90
        2
176
     1
 40
0.6
176
     1
 40
30.0
176
     1
 62
     7
420
 16777215
176
     1
 90
        1
176
     1
 90
        2
176
     1
 62
     7
176
     1
 62
   257
176
     1
 90
        2
176
     1
 90
        1
176
     1
 40
1.0
176
     1
 90
        8
176
     1
 62
   257
176
     1
 40
1.0
176
     1
 90
        1
176
     1
 90
        6
176
     1
 90
        2
176
     1
 62
     7
176
     1
 90
        3
176
     1
 90
        0
176
     1
 90
        0
176
     1
290
     0
176
     1
 90
        5
176
     1
 40
0.0
176
     1
 90
        0
176
     1
290
     0
176
     1
290
     1
176
     1
290
     1
176
     1
290
     0
176
     1
290
     0
176
     1
290
     0
176
     1
290
     0
176
     1
290
     0
176
     1
290
     0
176
     1
 90
       50
176
     1
 40
0.0
176
     1
 40
1.0
176
     1
 90
        0
176
     1
 62
    18
420
        0
176
     1
 90
       50
176
     1
 90
        3
176
     1
 62
     5
420
      255
176
     1
290
     0
176
     1
 90
       50
176
     1
 90
       50
176
     1
 90
       50
176
     1
290
     0
176
     1
 90
       50
176
     1
 62
   256
176
     0
 40
1.0
176
     0
 90
        2
176
     1
  1
strokes_ogs.tif
176
     1
290
     0
176
     1
 40
1.0
176
     1
 40
1.0
176
     1
  0
VISUALSTYLE
  5
17E
102
{ACAD_REACTORS
330
99
102
}
330
99
100
AcDbVisualStyle
  2
Shades of Gray
 70
    23
177
     3
291
     0
 70
    58
 90
        2
176
     1
 90
        2
176
     1
 90
        3
176
     1
 90
        0
176
     1
 40
0.6
176
     1
 40
30.0
176
     1
 62
     7
420
 16777215
176
     1
 90
        2
176
     1
 90
        2
176
     1
 62
     7
176
     1
 62
     7
176
     1
 90
        1
176
     1
 90
        1
176
     1
 40
40.0
176
     1
 90
        8
176
     1
 62
     7
176
     1
 40
1.0
176
     1
 90
        1
176
     1
 90
        6
176
     1
 90
        2
176
     1
 62
     7
176
     1
 90
        3
176
     1
 90
        0
176
     1
 90
        0
176
     1
290
     0
176
     1
 90
        1
176
     1
 40
0.0
176
     1
 90
        0
176
     1
290
     0
176
     1
290
     1
176
     1
290
     1
176
     1
290
     0
176
     1
290
     0
176
     1
290
     0
176
     1
290
     0
176
     1
290
     0
176
     1
290
     0
176
     1
 90
       50
176
     1
 40
0.0
176
     1
 40
1.0
176
     1
 90
        0
176
     1
 62
    18
420
        0
176
     1
 90
       50
176
     1
 90
        3
176
     1
 62
     5
420
      255
176
     1
290
     0
176
     1
 90
       50
176
     1
 90
       50
176
     1
 90
       50
176
     1
290
     0
176
     1
 90
       50
176
     1
 62
   256
176
     0
 40
1.0
176
     0
 90
        2
176
     1
  1
strokes_ogs.tif
176
     1
290
     0
176
     1
 40
1.0
176
     1
 40
1.0
176
     1
  0
VISUALSTYLE
  5
17F
102
{ACAD_REACTORS
330
99
102
}
330
99
100
AcDbVisualStyle
  2
Sketchy
 70
    24
177
     3
291
     0
 70
    58
 90
        1
176
     1
 90
        2
176
     1
 90
        2
176
     1
 90
        0
176
     1
 40
0.6
176
     1
 40
30.0
176
     1
 62
     7
420
 16777215
176
     1
 90
        2
176
     1
 90
        2
176
     1
 62
     7
176
     1
 62
     7
176
     1
 90
        1
176
     1
 90
        1
176
     1
 40
40.0
176
     1
 90
       11
176
     1
 62
     7
176
     1
 40
1.0
176
     1
 90
        1
176
     1
 90
        6
176
     1
 90
        2
176
     1
 62
     7
176
     1
 90
        6
176
     1
 90
        0
176
     1
 90
        0
176
     1
290
     0
176
     1
 90
        1
176
     1
 40
0.0
176
     1
 90
        0
176
     1
290
     0
176
     1
290
     1
176
     1
290
     1
176
     1
290
     0
176
     1
290
     0
176
     1
290
     0
176
     1
290
     0
176
     1
290
     0
176
     1
290
     0
176
     1
 90
       50
176
     1
 40
0.0
176
     1
 40
1.0
176
     1
 90
        0
176
     1
 62
    18
420
        0
176
     1
 90
       50
176
     1
 90
        3
176
     1
 62
     5
420
      255
176
     1
290
     0
176
     1
 90
       50
176
     1
 90
       50
176
     1
 90
       50
176
     1
290
     0
176
     1
 90
       50
176
     1
 62
   256
176
     0
 40
1.0
176
     0
 90
        2
176
     1
  1
strokes_ogs.tif
176
     1
290
     0
176
     1
 40
1.0
176
     1
 40
1.0
176
     1
  0
VISUALSTYLE
  5
A6
102
{ACAD_REACTORS
330
99
102
}
330
99
100
AcDbVisualStyle
  2
Thicken
 70
    13
177
     3
291
     1
 70
    58
 90
        2
176
     1
 90
        2
176
     1
 90
        1
176
     1
 90
        0
176
     1
 40
0.6
176
     1
 40
30.0
176
     1
 62
     7
420
 16777215
176
     1
 90
        1
176
     1
 90
        4
176
     1
 62
     7
176
     1
 62
   257
176
     1
 90
        1
176
     1
 90
        1
176
     1
 40
1.0
176
     1
 90
       12
176
     1
 62
     7
176
     1
 40
1.0
176
     1
 90
        1
176
     1
 90
        6
176
     1
 90
        2
176
     1
 62
     7
176
     1
 90
        5
176
     1
 90
        0
176
     1
 90
        0
176
     1
290
     0
176
     1
 90
        1
176
     1
 40
0.0
176
     1
 90
        0
176
     1
290
     0
176
     1
290
     1
176
     1
290
     1
176
     1
290
     0
176
     1
290
     0
176
     1
290
     0
176
     1
290
     0
176
     1
290
     0
176
     1
290
     0
176
     1
 90
       50
176
     1
 40
0.0
176
     1
 40
1.0
176
     1
 90
        0
176
     1
 62
    18
420
        0
176
     1
 90
       50
176
     1
 90
        3
176
     1
 62
     5
420
      255
176
     1
290
     0
176
     1
 90
       50
176
     1
 90
       50
176
     1
 90
       50
176
     1
290
     0
176
     1
 90
       50
176
     1
 62
   256
176
     0
 40
1.0
176
     0
 90
        2
176
     1
  1
strokes_ogs.tif
176
     1
290
     0
176
     1
 40
1.0
176
     1
 40
1.0
176
     1
  0
VISUALSTYLE
  5
A0
102
{ACAD_REACTORS
330
99
102
}
330
99
100
AcDbVisualStyle
  2
Wireframe
 70
     5
177
     3
291
     0
 70
    58
 90
        0
176
     1
 90
        2
176
     1
 90
        0
176
     1
 90
        0
176
     1
 40
0.6
176
     1
 40
30.0
176
     1
 62
     7
420
 16777215
176
     1
 90
        1
176
     1
 90
        4
176
     1
 62
     7
176
     1
 62
   257
176
     1
 90
        1
176
     1
 90
        1
176
     1
 40
1.0
176
     1
 90
        0
176
     1
 62
   257
176
     1
 40
1.0
176
     1
 90
        1
176
     1
 90
        6
176
     1
 90
        2
176
     1
 62
     7
176
     1
 90
        3
176
     1
 90
        0
176
     1
 90
        0
176
     1
290
     0
176
     1
 90
        1
176
     1
 40
0.0
176
     1
 90
        0
176
     1
290
     0
176
     1
290
     1
176
     1
290
     1
176
     1
290
     0
176
     1
290
     0
176
     1
290
     0
176
     1
290
     0
176
     1
290
     0
176
     1
290
     0
176
     1
 90
       50
176
     1
 40
0.0
176
     1
 40
1.0
176
     1
 90
        0
176
     1
 62
    18
420
        0
176
     1
 90
       50
176
     1
 90
        3
176
     1
 62
     5
420
      255
176
     1
290
     0
176
     1
 90
       50
176
     1
 90
       50
176
     1
 90
       50
176
     1
290
     0
176
     1
 90
       50
176
     1
 62
   256
176
     0
 40
1.0
176
     0
 90
        2
176
     1
  1
strokes_ogs.tif
176
     1
290
     0
176
     1
 40
1.0
176
     1
 40
1.0
176
     1
  0
VISUALSTYLE
  5
180
102
{ACAD_REACTORS
330
99
102
}
330
99
100
AcDbVisualStyle
  2
X-Ray
 70
    25
177
     3
291
     0
 70
    58
 90
        2
176
     1
 90
        2
176
     1
 90
        1
176
     1
 90
        1
176
     1
 40
0.5
176
     1
 40
30.0
176
     1
 62
     7
420
 16777215
176
     1
 90
        1
176
     1
 90
        0
176
     1
 62
     7
176
     1
 62
   257
176
     1
 90
        1
176
     1
 90
        1
176
     1
 40
1.0
176
     1
 90
        8
176
     1
 62
     7
176
     1
 40
1.0
176
     1
 90
        1
176
     1
 90
        6
176
     1
 90
        2
176
     1
 62
     7
176
     1
 90
        3
176
     1
 90
        0
176
     1
 90
        0
176
     1
290
     0
176
     1
 90
       13
176
     1
 40
0.0
176
     1
 90
        0
176
     1
290
     0
176
     1
290
     1
176
     1
290
     1
176
     1
290
     0
176
     1
290
     0
176
     1
290
     0
176
     1
290
     0
176
     1
290
     0
176
     1
290
     0
176
     1
 90
       50
176
     1
 40
0.0
176
     1
 40
1.0
176
     1
 90
        0
176
     1
 62
    18
420
        0
176
     1
 90
       50
176
     1
 90
        3
176
     1
 62
     5
420
      255
176
     1
290
     0
176
     1
 90
       50
176
     1
 90
       50
176
     1
 90
       50
176
     1
290
     0
176
     1
 90
       50
176
     1
 62
   256
176
     0
 40
1.0
176
     0
 90
        2
176
     1
  1
strokes_ogs.tif
176
     1
290
     0
176
     1
 40
1.0
176
     1
 40
1.0
176
     1
  0
DICTIONARYVAR
  5
502C6
102
{ACAD_REACTORS
330
502C5
102
}
330
502C5
100
DictionaryVariables
280
     0
  1
2
  0
DICTIONARYVAR
  5
502C7
102
{ACAD_REACTORS
330
502C5
102
}
330
502C5
100
DictionaryVariables
280
     0
  1
400.000000
  0
DICTIONARYVAR
  5
502C8
102
{ACAD_REACTORS
330
502C5
102
}
330
502C5
100
DictionaryVariables
280
     0
  1
1
  0
DICTIONARYVAR
  5
502C9
102
{ACAD_REACTORS
330
502C5
102
}
330
502C5
100
DictionaryVariables
280
     0
  1
1:1
  0
DICTIONARYVAR
  5
502CA
102
{ACAD_REACTORS
330
502C5
102
}
330
502C5
100
DictionaryVariables
280
     0
  1
STANDARD
  0
DICTIONARYVAR
  5
502CB
102
{ACAD_REACTORS
330
502C5
102
}
330
502C5
100
DictionaryVariables
280
     0
  1
STANDARD
  0
DICTIONARYVAR
  5
502CC
102
{ACAD_REACTORS
330
502C5
102
}
330
502C5
100
DictionaryVariables
280
     0
  1
Imperial24
  0
DICTIONARYVAR
  5
502CD
102
{ACAD_REACTORS
330
502C5
102
}
330
502C5
100
DictionaryVariables
280
     0
  1
Imperial24
  0
DICTIONARYVAR
  5
502CE
102
{ACAD_REACTORS
330
502C5
102
}
330
502C5
100
DictionaryVariables
280
     0
  1
-1
  0
DICTIONARYVAR
  5
502CF
102
{ACAD_REACTORS
330
502C5
102
}
330
502C5
100
DictionaryVariables
280
     0
  1
1
  0
DICTIONARYVAR
  5
502D0
102
{ACAD_REACTORS
330
502C5
102
}
330
502C5
100
DictionaryVariables
280
     0
  1
2
  0
DICTIONARYVAR
  5
502D1
102
{ACAD_REACTORS
330
502C5
102
}
330
502C5
100
DictionaryVariables
280
     0
  1
0
  0
DICTIONARYVAR
  5
502D2
102
{ACAD_REACTORS
330
502C5
102
}
330
502C5
100
DictionaryVariables
280
     0
  1
4
  0
DICTIONARYVAR
  5
502D3
102
{ACAD_REACTORS
330
502C5
102
}
330
502C5
100
DictionaryVariables
280
     0
  1
V-Construction
  0
DICTIONARYVAR
  5
502D4
102
{ACAD_REACTORS
330
502C5
102
}
330
502C5
100
DictionaryVariables
280
     0
  1
ByLayer
  0
DICTIONARYVAR
  5
502D5
102
{ACAD_REACTORS
330
502C5
102
}
330
502C5
100
DictionaryVariables
280
     0
  1
0
  0
DICTIONARYVAR
  5
502D6
102
{ACAD_REACTORS
330
502C5
102
}
330
502C5
100
DictionaryVariables
280
     0
  1
0
  0
DICTIONARYVAR
  5
502D7
102
{ACAD_REACTORS
330
502C5
102
}
330
502C5
100
DictionaryVariables
280
     0
  1
0
  0
DICTIONARYVAR
  5
502D8
102
{ACAD_REACTORS
330
502C5
102
}
330
502C5
100
DictionaryVariables
280
     0
  1
2
  0
DICTIONARYVAR
  5
502D9
102
{ACAD_REACTORS
330
502C5
102
}
330
502C5
100
DictionaryVariables
280
     0
  1
1.000000
  0
DICTIONARYVAR
  5
502DA
102
{ACAD_REACTORS
330
502C5
102
}
330
502C5
100
DictionaryVariables
280
     0
  1
1
  0
DICTIONARYVAR
  5
502DB
102
{ACAD_REACTORS
330
502C5
102
}
330
502C5
100
DictionaryVariables
280
     0
  1
1.000000
  0
DICTIONARYVAR
  5
502DC
102
{ACAD_REACTORS
330
502C5
102
}
330
502C5
100
DictionaryVariables
280
     0
  1
1
  0
DICTIONARYVAR
  5
502DD
102
{ACAD_REACTORS
330
502C5
102
}
330
502C5
100
DictionaryVariables
280
     0
  1
0
  0
DICTIONARYVAR
  5
502DE
102
{ACAD_REACTORS
330
502C5
102
}
330
502C5
100
DictionaryVariables
280
     0
  1

  0
DICTIONARYVAR
  5
502DF
102
{ACAD_REACTORS
330
502C5
102
}
330
502C5
100
DictionaryVariables
280
     0
  1
0
  0
DICTIONARYVAR
  5
502E0
102
{ACAD_REACTORS
330
502C5
102
}
330
502C5
100
DictionaryVariables
280
     0
  1
127
  0
DICTIONARY
  5
194
330
22
100
AcDbDictionary
280
     1
281
     1
  0
DICTIONARY
  5
188
330
97
100
AcDbDictionary
280
     1
281
     1
  3
FBXASSET
360
189
  0
DICTIONARY
  5
186
330
96
100
AcDbDictionary
280
     1
281
     1
  3
FBXASSET
360
187
  0
DICTIONARY
  5
110
330
98
100
AcDbDictionary
280
     1
281
     1
  3
BUMPTILE
360
112
  3
DIFFUSETILE
360
111
  3
FBXASSET
360
18A
  3
OPACITYTILE
360
113
  3
REFLECTIONTILE
360
114
  0
DICTIONARY
  5
104
330
87
100
AcDbDictionary
280
     1
281
     1
  3
ACAD_ROUNDTRIP_2008_TABLESTYLE_CELLSTYLEMAP
360
F86E6
  0
XRECORD
  5
189
102
{ACAD_REACTORS
330
188
102
}
330
188
100
AcDbXrecord
280
     1
 70
     1
 90
429727718
  1
508B35C9-AEE7-456F-BE74-D52651303AC6
310
504B03040A0000080000B670623B3DEE336E79000000790000001B0000006175746F6465736B2D64657369676E2D7061636B6167652E786D6C3C3F786D6C2076657273696F6E3D22312E302220656E636F64696E673D227574662D3822203F3E3C666F726D6174733E3C666F726D61743E687474703A2F2F736368656D612E
310
6175746F6465736B2E636F6D2F64657369676E2D7061636B6167652F323030393C2F666F726D61743E3C2F666F726D6174733E504B0304140006080800B670623BD486FD9CA0000000F4000000130000005B436F6E74656E745F54797065735D2E786D6C7D8EC10E82300C865F65E91D8A1E8C310C0EEA1BF002731658846E
310
D98AC1B77784ABF1D8FE5FBFBF75BBCE937A534CCEB38643598122B6FEE978D0B0485F9C41B54DDD7D022595594E1A469170414C76A4D9A4D207E29CF43ECE46F218070CC6BECC4078ACAA135ACF422C856C0E68EA1BF5669944DDD7BCDE7B1F8E415D77AECB980613C2E4AC91FC167A2B244592486606FC29C8FD7F045B9A
310
EF7053A7E60B504B0304140006080800B670623B28ED286BEB0000007C01000008000000636F72652E786D6C8D90416EC3201045AF82665B6183218D6D61A254764FD00B204C5C94182C03558F5F9C3852BBEB6A467FFE9B197D71FA9E6FE8CBACC17AD7012D0820E3B41FAD9B3A48F1826B40272956EFE32F1B20A766D3C1
310
268314D3EAD3B24BDABB685CCCAAF3A3D94515828980F42D371D04FD696655A814B3235C8B45E9AB9A4C419F5D8653B2237A1CB163DE672FD6AC209BF3C08E0D1B30EB19C3FC9D72FCC6EB231EFA33EDE96BDD341517E5064B11EDFCBCAF57A3A2194156843498524CAA0FCA5B7268F9E185D42D21A2DCEC7FA0B48CFF8492
310
759155FBBB0F2C80A4F991FB408A72CB22977B50B96EB9C91F504B0304140006080800B670623B55019EA25F0000007C00000007000000636E782E786D6C4DCB3B0E80201045D1AD90E915ED2CF8AC45050C11660C8261F98AB1B07AC9C97D42D718D865D3E909258CFD00CCE24AC6E326A164D74DC0B4128928FF32603847
310
2BA13128B1252AC747C6BAB984FC68F0B87FE8960A5C09FE86CFB69FBA01504B0304140006080800B670623B7BC41AC871010000D40300000C0000006662782F636F72652E786D6CC553ED6E8320147D15C2DF4501B56B6D90A64BBB27D80B50A5CE54C120983EFEAE1F4DD7A56BBA5FF3879273EEE59E7310BE393735EA95
310
ED2AA333CC428A91D2B9292A5D66D8BB63B0C26823B835C67D2BC348CB46657880B1E0A535BE9DA1DC68A7B403549B42CDA0EC3AE530CA6B5864B8CB3F552343E91D5474A7B095F949962A6421D0502778E72C0840D390E18DC5F170E664C205F7BE2A66B62A605A75AC94C522DDEEE3651AEF837817C741F2CE92E02D592D
310
83FD6ECB76EC7595A651C2C9D02CB8AB9A8BBADC2AE954814544691A3016D0E883256BBA58278B17BA5A53CAC9507ED3E4DBE2C9265F691747B3DCA9ADC382819091F8E1162272A8933DE82182932144F88C09DF060D8140C84E1EEA8B8F1340BDCA9DB1093085F157AA97B557309586747CD0EF0B4EA64E983A6E0EAEEFCE
310
889E9EF17847386AA94B30211D2C0FDE0D3AF9A4610EAD5536E8DD1969631B593F67E381C33F5157F17725E5A636F6BF1491F980C8FC7B90E13E8A2F504B0304140006080800B670623B70102A487D0000009D0000000B0000006662782F636E782E786D6C4DCCD10A83201886E15B91FFDC95A5C30335ACCDFB886521330D
310
A76397BF1A1DECE883878F57749FD5A3B74D2F17830472A901D9F088930B8B849267CC01754AA418F3DF0D5018572BE160506249B16C274D761E8BCFBB7A179E27F65CB39A0F14D396184C9921B81F34C3ACA1B4B99ABB6E6F062A25AA5F69DF23ACBE504B0304140006080800B670623B3610CA3329010000120200003100
310
00006662782F42384135303843342D343331462D343546312D424341352D3532343432364645413344462F636F72652E786D6C8D515B6EC32010BC0AE22B55850D0E446E848992B43E412FE000495162B07854397EA176A4F62F3F2C9A9D991D58BEBB8F37F0AD7D30CE76905418026DA553C65E3A98E219B510EC04F7CEC5
310
3F3408EC30EA0E16180A7EF12E4D0B249D8DDAC68C5AA7F4020E21E80881BCE54B0783FCD2E3500D296646B856D320AFC34557A4CAEDCC133C449F0380794839A138B47B86DB2345744D7A44594FD0E1B867883594369BFE63BF7EEF793D0B054FC9A8456E548E63CE46FB674D8A58F068C6477CE9F510B582A2C1F80D1182
310
70F349E816B32D65AFB8DD62CCEB42FF274A937A52948C8DEB66893BCB021484D7734370E5D2E9F608A3EF93F3119479ABA0E50B14B8C298119A43CCC4FCFCECB8A18B6388CEE7EF5D5D4F994BD86CBBA182D76543B9FCAE2FD7B24DF103504B0304140006080800B670623B1B8617914E0100003303000030000000666278
310
2F42384135303843342D343331462D343546312D424341352D3532343432364645413344462F636E782E786D6CD593C16EC32010447F0571AD6CE3D489D20813A9877E410FBD62D82434182CC055F3F75D1292E692438FBD206B7698593D61BEFD1E2DF982108D773D6D6B460938E5B571FB9ECE6957AD29D90A1EBC4F7736
310
4A9C1CA1A759A682EF839FA72269D8C9D92654AD71C72206887E0E0A22CAF926B15E498B01E0AA19451807D01A34B919F16B070157417138917400F2F6FA41FCF0092A45DEE414C19BDC21783E4BD39D891265658C3D8DEA00A3ACE59CBC8678ACB54CB26EEB6BD7839D7E9348BE70AD9C8321B9BCA7F9A4A26C542347DEE0
310
50F09802D22BA6749A800A394DD62899107273365E3C82CFC6A55557BC06C10774B7ABE7AEC3B0F34CF06446280E154026D0542C187BA9DAB6628BF7B6DBB0E5A65B3EB1F58631DE64BBE083F7B65CC218087E22CABB042E51D1F2268F1FE12B3EA24D40D63E9CFE00120194D60B9D5BC67FE6D39CDF37E20AF817881F504B
310
0304140006080800B670623BBFEF2E3B690500003C100000340000006662782F42384135303843342D343331462D343546312D424341352D3532343432364645413344462F6F626A656374732E786D6CAD575D739B3814FD2B0CFB0C98D84E931D4227B6938EA793B6534F3BFB90198F0099B001899144EAECAFDF231018B0
310
D37A3FFC609090EEE7B94757C1FB7D915B2F54C88CB31BDB7727B64559CC938CA53776A576CE956DBD0F03C1B9EA2DB32D460A7A63EB693B0C52C1ABD24C257447AA5C8D66EF177F5832A68CDA569C13296F6C193FD182B8A4523CA1F2D94D88226EBADBBBBEDB2C1C8A4D05299F46424B222853B014F30C52ACC6287F389C
310
D85E1878FA7B18E87FB36AFAF62AAFF667A83F635211161F291B8999FAB3D5DDC5FCDA99CF6653677679E13B8BFBC5CAF1DF4D27CBCBE5F2FAF6EE1A8AA51290642C117467871F101B91C581D77CEA2C36869F3229E68CD1B8F61F1ED6361B89092D294B90C78C4A68EB793D190E7D1D9BDEE7A91E1B95FDE9F3BCEAEFE809
310
6A6D6F9F7D4B79F4275C90E7A04248AA51D5C4C738DAE06F72885AC4796EBE65D22A88A22223B995679120E2D50EB1542F098381188D4EA111AE3DB043FF20AF6F2B4AE3D7D83D65E5AECA730D4D3BAC91BD05FEA992B565D95F549CD6069B90AB2A63EACA38A45E4B6A87D781574F86817E4C2FCCC72690D62E2729520E37
310
9BAF234797BAF6D62B3BFC781FED37BA1E4F2B2F052FA9501A3E80569BB8F6A9A364D4FA67654E6F803383981F82F21591FF84F23D9882BC896C3FDBCF8C162508933B2E0AE4C69DD43F6BD2BE38DDDBF10BF86CB4FA784D37F3AF16075E67EC9030DECA1FC0A55373F5DFF3378C591FA9BDF485C10B0A8C8BA909E5262639
310
A8E72163488806A595734C81CB77D1DE0ED7604A303B76913CEC0272F412782FF88EFF4636D8AA56DF7B322474C4B767303F625997056C7B032C473C592B36CEBD15F3F9FF5233B7ABCDC74D257624A60F8658567497B14CE1EC3C80B76FD02011038F9EE9EB0F2E12387A9C844D3F09855125116D1D731DF8B43D2CF4E0A0
310
79A020C6BE946BCE0B7EA1E1219331CD73C228AF5A2DDD31A4B1DA918CE91350854D40A71723140BFA92E94E62B0626016CEFA5864A50E5977E8753CEDBEE1CBB7F52780D20E17AF0BA0F5F9B02A3AD07DCC732EB6D1EBB661421BE0C39E21BABF0FE16D22EA6929407C8DE596724C88B749B6DB5512BC7B228ADFD7CB7EA6
310
3A22397E690BA8D5D8D4E40CEC8CDA23C2C0B7D5898640101CEC9C6D331CE328CB93CAFBBAC70A642DF70DF95155945B52F08AA973C23469FD69ADEF84F7BB18F983A8F8C90E37F5D35980B2139A1C523540813E824EF83448CF7C72B598CE97D7CEEDDDDD3B6736BFBC771677EF66CE6A7E7139F7A793E9EDF2B2B3A8B624
310
0CDA13AA5F8388264EC4A0129909F3B7F5A16CEDF08128E97D680ACA4B9BE7B7B58BB638F0B00700EF36AE8B32A705658A68F83EE897FC2B41573190D1CCAF0B92D233A47CFEB019D9809933F67DD1A5467F8CF69AD9A5AE859342D45355448C64F968A371DC2D596ADC6E43D93D1B466F877A64E2893E54F23C4B40388995
310
525E5005DA3983ED45412510D3EFCA13737B3863F74BD30F2A12E5B4B5E489A025CE25500DB855B11ACE5BBFA185D35DD48D8DC3CE7DC69F2944DB42AA6F6CF09BCA622ADD08C7A36E7C6AE18000BAB08E040135C2D21C9D75B3A91B77BB746C403F38018DFE6EC939DD92F16B40BC05294B9CDA035AAD6D330AE27FE4786B
310
8E45145EA34A75BE1C263A676A35A8ACC6297337400BF16C54EF515F3F77CB77EB3583889C754FFA29081AA98E2222ADEF05DA3E63D2EDEA8B8756C05A7FB6CABC4A91CBF325398202CC952E70A008A830324BA200D5E5EF8F5F04C75DB4B0EE3340E071C98B823333B83577596BF3849B69F2085AA0FAFA212F26BEFF5877
310
FDE622B28D88A42E49E43326DA82D31E8CB006401E1DA726059ECEC168F97A6599036306A135688F9AD2E61A6EA178F4CD51974A9F2CCB9F36FE5EBD14601068D9C3BF01504B0304140006080000B670623B000000000000000000000000350000006662782F42384135303843342D343331462D343546312D424341352D35
310
32343432364645413344462F76657274696365732E62696E504B0304140006080800B670623BF270F1330600000004000000360000006662782F42384135303843342D343331462D343546312D424341352D3532343432364645413344462F747269616E676C65732E62696E636660600000504B0304140006080000B67062
310
3B000000000000000000000000370000006662782F42384135303843342D343331462D343546312D424341352D3532343432364645413344462F617474726962757465732E62696E504B0304140006080800B670623B08DA0BD19000000041010000360000006662782F42384135303843342D343331462D343546312D4243
310
41352D3532343432364645413344462F6469726563746F72792E786D6C858F410AC3201045AF22B36F53E9A60B35CBEEBAE80D244E44489C6234F4F835464A48035D0DF398FF9F8AF63D0E6CC63039F212F8F9020C7D47C6792B21C5FE7403D62A1188E2E60C98D7234A5830286103A55745067B9D86B8A3CF9C7F90C11DE6
310
07FB144396D7B6A82D282E9A152AD114D5EF2CB866EEE831B8EEA07A7BB5A8D7D61A2BAAEB7FD5F70921FF497D00504B0304140006080800B670623B3B4606F3FE000000A00100003B0000006662782F42384135303843342D343331462D343546312D424341352D3532343432364645413344462F7265736F75726365732F
310
636F72652E786D6C8D504B6E833010BD0A9A6D65B08134808CA354A427E8052C332156828DFCA97AFC9A40A576D7CDCCE87D344F8F9FBEE647F689CE6B6B7A6039850C8DB2A336530F315C4903D94970676DF82583CCC8197B5861107C72362E3BA4AC096842428D1D7107A5F71820538F74F4E0D50D6799CB1892C2DFF345
310
AABB9C306779A2934E701F5C0A906D4FD609C2A1B7D129F4BCD858C163D4E3AED163FAA9AF1A1D88F67CA98E6D35906AA82A52BFB39ABCD5CD915C86331BD86BD3B665CD8BD52C78D0F34F46E550061C419494B6843142CB0F5677F4D0D58717DA7494F26295FF31C565FCA7296A13AA728FBBD93C0896823C09C18BB5AFB4
310
9E65A6BD762BBE01504B010214000A0000080000B670623B3DEE336E79000000790000001B00000000000000000000000000000000006175746F6465736B2D64657369676E2D7061636B6167652E786D6C504B01021400140006080800B670623BD486FD9CA0000000F40000001300000000000000000000000000B2000000
310
5B436F6E74656E745F54797065735D2E786D6C504B01021400140006080800B670623B28ED286BEB0000007C010000080000000000000000000000000083010000636F72652E786D6C504B01021400140006080800B670623B55019EA25F0000007C000000070000000000000000000000000094020000636E782E786D6C50
310
4B01021400140006080800B670623B7BC41AC871010000D40300000C00000000000000000000000000180300006662782F636F72652E786D6C504B01021400140006080800B670623B70102A487D0000009D0000000B00000000000000000000000000B30400006662782F636E782E786D6C504B01021400140006080800B6
310
70623B3610CA3329010000120200003100000000000000000000000000590500006662782F42384135303843342D343331462D343546312D424341352D3532343432364645413344462F636F72652E786D6C504B01021400140006080800B670623B1B8617914E010000330300003000000000000000000000000000D10600
310
006662782F42384135303843342D343331462D343546312D424341352D3532343432364645413344462F636E782E786D6C504B01021400140006080800B670623BBFEF2E3B690500003C10000034000000000000000000000000006D0800006662782F42384135303843342D343331462D343546312D424341352D35323434
310
32364645413344462F6F626A656374732E786D6C504B01021400140006080000B670623B0000000000000000000000003500000000000000000000000000280E00006662782F42384135303843342D343331462D343546312D424341352D3532343432364645413344462F76657274696365732E62696E504B010214001400
310
06080800B670623BF270F133060000000400000036000000000000000000000000007B0E00006662782F42384135303843342D343331462D343546312D424341352D3532343432364645413344462F747269616E676C65732E62696E504B01021400140006080000B670623B00000000000000000000000037000000000000
310
00000000000000D50E00006662782F42384135303843342D343331462D343546312D424341352D3532343432364645413344462F617474726962757465732E62696E504B01021400140006080800B670623B08DA0BD1900000004101000036000000000000000000000000002A0F00006662782F42384135303843342D3433
310
31462D343546312D424341352D3532343432364645413344462F6469726563746F72792E786D6C504B01021400140006080800B670623B3B4606F3FE000000A00100003B000000000000000000000000000E1000006662782F42384135303843342D343331462D343546312D424341352D3532343432364645413344462F72
310
65736F75726365732F636F72652E786D6C504B0506000000000E000E0080040000651100000000
  0
XRECORD
  5
187
102
{ACAD_REACTORS
330
186
102
}
330
186
100
AcDbXrecord
280
     1
 70
     1
 90
429727718
  1
887D55A9-D0DD-414E-B741-A7DCD4DA2B4C
310
504B03040A0000080000B670623B3DEE336E79000000790000001B0000006175746F6465736B2D64657369676E2D7061636B6167652E786D6C3C3F786D6C2076657273696F6E3D22312E302220656E636F64696E673D227574662D3822203F3E3C666F726D6174733E3C666F726D61743E687474703A2F2F736368656D612E
310
6175746F6465736B2E636F6D2F64657369676E2D7061636B6167652F323030393C2F666F726D61743E3C2F666F726D6174733E504B0304140006080800B670623BD486FD9CA0000000F4000000130000005B436F6E74656E745F54797065735D2E786D6C7D8EC10E82300C865F65E91D8A1E8C310C0EEA1BF002731658846E
310
D98AC1B77784ABF1D8FE5FBFBF75BBCE937A534CCEB38643598122B6FEE978D0B0485F9C41B54DDD7D022595594E1A469170414C76A4D9A4D207E29CF43ECE46F218070CC6BECC4078ACAA135ACF422C856C0E68EA1BF5669944DDD7BCDE7B1F8E415D77AECB980613C2E4AC91FC167A2B244592486606FC29C8FD7F045B9A
310
EF7053A7E60B504B0304140006080800B670623BBC1638F5EC0000007C01000008000000636F72652E786D6C8D90416EC3201045AF82665B61836BE2D8C24471DB9CA01740401C94182C03558F5F9C3852BBEB6A467FFE9B197D7EF89E6EE8CB2CC17AD7032D0820E394D7D68D3DA478C67B4007C117EFE32F1B202727D3C3
310
2A83E0E3E2D3BC49CABB685CCCAAF3DA6CA20CC14440EA969B1E82BA98491632C5EC08D76296EA2A4753D06797E194AC468F2356E77DF66CCD02825543D50CACC62D39ED70FDC68EB8FD68F6F8787A6784342D1DDA1D2F5758F068A7E77DB518198D065111D2624A31A93E69DD11D6D5EC85EC3B4278B9DAFF4069D6FF8492
310
75F1B5DADE7D600104CD8FDC0782976B16B9DC83CA75CD4DFC00504B0304140006080800B670623B55019EA25F0000007C00000007000000636E782E786D6C4DCB3B0E80201045D1AD90E915ED2CF8AC45050C11660C8261F98AB1B07AC9C97D42D718D865D3E909258CFD00CCE24AC6E326A164D74DC0B4128928FF326038
310
472BA13128B1252AC747C6BAB984FC68F0B87FE8960A5C09FE86CFB69FBA01504B0304140006080800B670623B3586FFB671010000D40300000C0000006662782F636F72652E786D6CC553ED6E8320147D15C2DF4541A76D6D90A6DDD627D80B50A4CE54C120983EFEAE1F4DD7A55BBA5FF3879273EEE59E7310B6393735EA
310
95ED2AA3731C851423A5A5292A5DE6D8BB63B0C268C39935C67D29C3488B46E578803167A535BE9D2169B453DA01AA4DA16650749D7218C91A1639EEE4876A4428BC838AEE14B6429E44A9C228041AEA38EB9C0501681A32BC313F1ECE8C4C3867DE57C5CC56054CAB8E95B298A7F12E5EEED224C8E87E11242FE936C8DE96
310
AB60BB7F4D295D66D12E5B30323473E6AAE6A24E5A259C2A308F29CD82280A68FC1E256B9AAE93F489AED694323294DF34F9B678B0C957DA3DC7B3DCA9ADC33C022123F1CD2D44E450277AD04338234388F01913BE0D1A0281909D38D4171F27807A259DB1093085F157AA17B557309586747CD0CF0B46A64E983A6E0EAEEF
310
CE881F9EF1FB8E70D44297604238581EBC1B74B249C31C5AAB6CD0BB33D2C636A27ECCC62F0EFF445DC5DF95244D6DEC7F2922F30191F9F720C37DE49F504B0304140006080800B670623B4220A0FF7D0000009D0000000B0000006662782F636E782E786D6C4DCCD10A83201886E15B91FFDCE542CB0335D0EC3E6259C84A
310
C3E9D8E5AF46073BFAE0E1E315DD675BD1DBA5978F41C2FD4600B9F088930F8B849267CC01754AA418F3DF0D50183727E164506249B1EC174D6E1ECB9A0F5D7D785E68DB8151CD286E5A5363CA6B8A39E90D36D40E96B086F55A43A544F52B1D7B86D517504B0304140006080800B670623B2FA3FEDE290100001202000031
310
0000006662782F45374635344235342D363743322D343832342D383044432D4334454645303536354442422F636F72652E786D6C8D515B6EC32010BC0AE22B55850D2E386E848994D7097A0117488A1283C5A3CAF10BB523B57FF961D1ECCCECC0F2ED7DBC816FED8371B687A4C210682B9D32F6D2C314CFA883602BB8772E
310
FEA141608751F7B0C050F08B77695A20E96CD43666D43AA5177008414708E42D5F7A18E4971E876A483133C2B59A06791D2EBA22556E679EE021FA1C00CC43CA09C5717D6274C7286AD7FB06D1AEA1A8C3873DDAD3E3E98859CB0EBB1DAF67A1E02919B5C88DCA71CCD968FFAC49110B1ECDF8882FBD1EA256503418BF2342
310
106E3E08DD60B6A1EC15771B8C795DE8FF4469524F8A92B1F1AD59E2CEB20005E1F5DC105CB9F4797B84D1F7C9F908CABC55D0F2050A5C61CC1AD2F27A26E6E767C7962E8E213A9FBF7775FDCC5CC266DB960A5E970DE5F2BBBE5CCB36C50F504B0304140006080800B670623B1B8617914E01000033030000300000006662
310
782F45374635344235342D363743322D343832342D383044432D4334454645303536354442422F636E782E786D6CD593C16EC32010447F0571AD6CE3D489D20813A9877E410FBD62D82434182CC055F3F75D1292E692438FBD206B7698593D61BEFD1E2DF982108D773D6D6B460938E5B571FB9ECE6957AD29D90A1EBC4F77
310
364A9C1CA1A759A682EF839FA72269D8C9D92654AD71C72206887E0E0A22CAF926B15E498B01E0AA19451807D01A34B919F16B070157417138917400F2F6FA41FCF0092A45DEE414C19BDC21783E4BD39D891265658C3D8DEA00A3ACE59CBC8678ACB54CB26EEB6BD7839D7E9348BE70AD9C8321B9BCA7F9A4A26C542347DE
310
E050F09802D22BA6749A800A394DD62899107273365E3C82CFC6A55557BC06C10774B7ABE7AEC3B0F34CF06446280E154026D0542C187BA9DAB6628BF7B6DBB0E5A65B3EB1F58631DE64BBE083F7B65CC218087E22CABB042E51D1F2268F1FE12B3EA24D40D63E9CFE00120194D60B9D5BC67FE6D39CDF37E20AF817881F50
310
4B0304140006080800B670623B29652116630500003C100000340000006662782F45374635344235342D363743322D343832342D383044432D4334454645303536354442422F6F626A656374732E786D6CAD575D739B3814FD2B0CFB0C989834C90EA1639B24E3E9A6EDD4D3CE3E64C623834CD8006224913AFDF57B040203
310
B65BEF871F0C12D2FD3CF7E8CA7FBFCB33E3957291B2E2D674ED8969D02262715A24B76625B7D6B569BC0F7CCE98EC2D338D82E4F4D654D366E0279C55A59E8AE99654991CCDDECFFF3444440B6A1A514684B83545F44C7362934AB2988A173B2692D8C97667BB76B3702836E1A47C1E092D09A78584A5982F20C5688C7287
310
C389E904BEA3BE07BEFAD7ABA6A75739B53F43FD69212429A20365233153D70BEF2E2E6FAC4BCF9B5ADEBB0BD79ADFCF43CBBD9A4E16EF168B9BD9DD0D140BC921495BC2E9D60C1E101B9E46BED37CEA2CD6861F3329624541A3DA7F7858DBAC25C6B4A4458C3CA654405BCFEBC970E8AAD8F43E4FD558ABEC4F9FE7557F47
310
4F506B7BFBEC5BCA367FC105710E2AB8A00A554D7CB4A30DFE26FBA86D18CBF4B75418399194A72433B274C3097F33032C554B027F2046A1932B842B0FCCC0DDCBEBDB8AD2F835768F59B9ADB24C41D30C6A64AF817F2A456D59FA83F2E3DA60137255A585BCD60EC9B7929AC18DEFD49381AF1ED30BFDB109A4B1CD488294
310
C3CDE6EBC8D185AABD6568061FEE37BB95AAC7E3CA4BCE4ACAA5820FA0D526AE7DAA2869B5EE5999531BE0CC20E6FBA07C41E43FA27CF7A6206F3CDD793B4F6B919C1462CB788EDCD893FA674CDA17AB7B3B7C019F8D561FAEE966FED562DFE98C1D12C6A9FC015C2A35D7FF3D7FC398F591DA4B5FE0BFA2C0189FEA50AE22
310
92817A1ED3020951A03432862970F976B33383259812CC8E5D240BBA801CBCF8CE2BBEE3BF910DB6AAD5F79E05123AE2DB33981FB1ACCB02B69D00CB014FD68AB573A7627EF9BFD4CC2C5C7D58557C4B22FAA88925A4DBB44825CECE3D78FB060D1231F0E885BE7D673C86A3874958F593906B5502D1563157814FDAC3420D
310
F69A070A22EC4B98E23CFF171A1E5311D12C23056555ABA53B8614563B92D17D02AAB009E8F46284624E5F53D5490C560CCCC2591FF1B45421EB0EBD8EA7ED13BE7C5D7E0428CD60FEF60779EB13E6664FF711CB185F6FDED60D139A001FF60CD1FD6D086F1D51474901E26B2CB794A343BC8ED3EDB612E0DD2351FCB65CF4
310
33D511C9E14B5B40ADC6A6263DB0336A8F700DDF56271A024E70B0B3629DE21847591E55DED73D56206AB927E46FAABC5C939C55853C274C93D69FD6FA4E78BF8B11DF898C9ECD60553FAD39283BA6F18984AA23E8884F83F45C5F5F859797B31B2B9C84A1E5B9DE9D35BFF25C6B76152E422F9C5DCC3D847F5801ED09D5AF
310
41441327A25FF15487F9EB725FB666F048A4701E9A827292E6F97569A32DF61DEC01C0BB8DCBBCCC684E0B49147C1FD54BF685A0AB18C868E6973949E819523E3DAC463660E68C7D9F55A9D1EFA3BD7A76A16AE1A810F95CE59B82A4D968A376DC2E8B44BBDD86B27B368CDE0ED548C7137DA860591A83706223A12CA712B4
310
7306DBF39C0A20A6DF95C7FAF670C6EED7A61F946493D1D6926782963813403548A78AE470DEF80D2D9CEAA26E4D1C76F60BFE74219A06527D6B82DF641A51616F703CAAC6A7160E08A00BEB4810A0274592A1B36E3675E36E978A0DE80727A0D6DF2D39A75BD27E0D8837276589537B40ABB56D5A41F48F1C6FCD3188C4EB
310
A6929D2FFB89CE995A4D00AE813BDD032DC48B56BD437DFDDC2DD7AED70C2272D63DE9A72068A45A92F0A4BE17A8A06B9366E16707AD80B1FC649459952097E74BB23805982B55E0401150A165964402AA8BDF9F3E7386BB686EDCA780C0D382E5392BF460A6EFB2C6EA1937D3F809B440D5F5435C4C5CF7A9EEFAF54564BD
310
2182DA24162F98680B4E7930C21A0079709CEAEB99A372305ABE0C0D7D6078105A83F6A0296DAEE1068A47DD1C55A9F4C9B2FC69E3EFD44B81028E963DF81B504B0304140006080000B670623B000000000000000000000000350000006662782F45374635344235342D363743322D343832342D383044432D433445464530
310
3536354442422F76657274696365732E62696E504B0304140006080800B670623BF270F1330600000004000000360000006662782F45374635344235342D363743322D343832342D383044432D4334454645303536354442422F747269616E676C65732E62696E636660600000504B0304140006080000B670623B00000000
310
0000000000000000370000006662782F45374635344235342D363743322D343832342D383044432D4334454645303536354442422F617474726962757465732E62696E504B0304140006080800B670623B08DA0BD19000000041010000360000006662782F45374635344235342D363743322D343832342D383044432D4334
310
454645303536354442422F6469726563746F72792E786D6C858F410AC3201045AF22B36F53E9A60B35CBEEBAE80D244E44489C6234F4F835464A48035D0DF398FF9F8AF63D0E6CC63039F212F8F9020C7D47C6792B21C5FE7403D62A1188E2E60C98D7234A5830286103A55745067B9D86B8A3CF9C7F90C11DE607FB144396
310
D7B6A82D282E9A152AD114D5EF2CB866EEE831B8EEA07A7BB5A8D7D61A2BAAEB7FD5F70921FF497D00504B0304140006080800B670623B6378F24DFF000000A00100003B0000006662782F45374635344235342D363743322D343832342D383044432D4334454645303536354442422F7265736F75726365732F636F72652E
310
786D6C8D504B6E833010BD0A9A6D65B0094E42641C85B639412F6099496225D8C89FAAC7AF09546A77DDCC8CDE47F3F4C4F16B7C149FE88371B603565228D06A37187BED20C50BD9437194C23B177FC9A0B06AC40E6618A4B87A97A615D2CE46B431A3D60DB8822A048C50E8473E3A08FA86A32A558A5911EEE5A4F45D5DB1
310
6465A6B34E8A107D0E502C4FE609D26370C96B0CA25A58295232C3AA3143FE692E063D485EF7F5AEE71BD2D2F39634AFFC44DAF7DD9E9CCE6F9CD25DCBFA762BAAD92C4534E34F46ED51451C40D694B6843142EB0FD61C283F34FC85EE0F948A6A96FF31A569F8A729191B37F51A77B105902C0779125254735F793DCBCC7B
310
EE567E03504B010214000A0000080000B670623B3DEE336E79000000790000001B00000000000000000000000000000000006175746F6465736B2D64657369676E2D7061636B6167652E786D6C504B01021400140006080800B670623BD486FD9CA0000000F40000001300000000000000000000000000B20000005B436F6E
310
74656E745F54797065735D2E786D6C504B01021400140006080800B670623BBC1638F5EC0000007C010000080000000000000000000000000083010000636F72652E786D6C504B01021400140006080800B670623B55019EA25F0000007C000000070000000000000000000000000095020000636E782E786D6C504B010214
310
00140006080800B670623B3586FFB671010000D40300000C00000000000000000000000000190300006662782F636F72652E786D6C504B01021400140006080800B670623B4220A0FF7D0000009D0000000B00000000000000000000000000B40400006662782F636E782E786D6C504B01021400140006080800B670623B2F
310
A3FEDE290100001202000031000000000000000000000000005A0500006662782F45374635344235342D363743322D343832342D383044432D4334454645303536354442422F636F72652E786D6C504B01021400140006080800B670623B1B8617914E010000330300003000000000000000000000000000D2060000666278
310
2F45374635344235342D363743322D343832342D383044432D4334454645303536354442422F636E782E786D6C504B01021400140006080800B670623B29652116630500003C10000034000000000000000000000000006E0800006662782F45374635344235342D363743322D343832342D383044432D4334454645303536
310
354442422F6F626A656374732E786D6C504B01021400140006080000B670623B0000000000000000000000003500000000000000000000000000230E00006662782F45374635344235342D363743322D343832342D383044432D4334454645303536354442422F76657274696365732E62696E504B01021400140006080800
310
B670623BF270F13306000000040000003600000000000000000000000000760E00006662782F45374635344235342D363743322D343832342D383044432D4334454645303536354442422F747269616E676C65732E62696E504B01021400140006080000B670623B0000000000000000000000003700000000000000000000
310
000000D00E00006662782F45374635344235342D363743322D343832342D383044432D4334454645303536354442422F617474726962757465732E62696E504B01021400140006080800B670623B08DA0BD190000000410100003600000000000000000000000000250F00006662782F45374635344235342D363743322D34
310
3832342D383044432D4334454645303536354442422F6469726563746F72792E786D6C504B01021400140006080800B670623B6378F24DFF000000A00100003B00000000000000000000000000091000006662782F45374635344235342D363743322D343832342D383044432D4334454645303536354442422F7265736F75
310
726365732F636F72652E786D6C504B0506000000000E000E0080040000611100000000
  0
XRECORD
  5
112
102
{ACAD_REACTORS
330
110
102
}
330
110
100
AcDbXrecord
280
     1
270
     1
271
     1
  0
XRECORD
  5
111
102
{ACAD_REACTORS
330
110
102
}
330
110
100
AcDbXrecord
280
     1
270
     1
271
     1
  0
XRECORD
  5
18A
102
{ACAD_REACTORS
330
110
102
}
330
110
100
AcDbXrecord
280
     1
 70
     0
 90
1778669749
  1
9BF507EE-FAF7-4A99-A33D-4EE51894BC40
310
504B03040A0000080000B670623B3DEE336E79000000790000001B0000006175746F6465736B2D64657369676E2D7061636B6167652E786D6C3C3F786D6C2076657273696F6E3D22312E302220656E636F64696E673D227574662D3822203F3E3C666F726D6174733E3C666F726D61743E687474703A2F2F736368656D612E
310
6175746F6465736B2E636F6D2F64657369676E2D7061636B6167652F323030393C2F666F726D61743E3C2F666F726D6174733E504B0304140006080800B670623BD486FD9CA0000000F4000000130000005B436F6E74656E745F54797065735D2E786D6C7D8EC10E82300C865F65E91D8A1E8C310C0EEA1BF002731658846E
310
D98AC1B77784ABF1D8FE5FBFBF75BBCE937A534CCEB38643598122B6FEE978D0B0485F9C41B54DDD7D022595594E1A469170414C76A4D9A4D207E29CF43ECE46F218070CC6BECC4078ACAA135ACF422C856C0E68EA1BF5669944DDD7BCDE7B1F8E415D77AECB980613C2E4AC91FC167A2B244592486606FC29C8FD7F045B9A
310
EF7053A7E60B504B0304140006080800B670623BCA089DFFEC0000007C01000008000000636F72652E786D6C8D90416E83301045AF62CDB632D8402020E32882F604BD80653BC44AB011B6AB1EBF262152BBEB6A467FFE9B197D76FA9EEFE84BAFDE38DB03CD08206DA553C64E3DC470C1474027CE56E7C22F1B202B66DDC3
310
260367D3EAE2B24BD2D9A06D48AA754AEFA2F05E0740F29E9A1EBCBCEA59642286E4F0B76C11F226269DD15797E0188D42CF2346A57DE662F40ABCAEC77628C6120F654571D50C04B7F5B9C1E3997CD4F550BE3745C3F20DE62C98F9755FAE5A04AD801784B498524C8A4F5A75E4D055873772EC0861F966FF03C545FD138A
310
C686B2D8DF7D621E384D8F3C069CE55B16A93C824A75CB8DFF00504B0304140006080800B670623B55019EA25F0000007C00000007000000636E782E786D6C4DCB3B0E80201045D1AD90E915ED2CF8AC45050C11660C8261F98AB1B07AC9C97D42D718D865D3E909258CFD00CCE24AC6E326A164D74DC0B4128928FF326038
310
472BA13128B1252AC747C6BAB984FC68F0B87FE8960A5C09FE86CFB69FBA01504B0304140006080800B670623B68FC0B7272010000D40300000C0000006662782F636F72652E786D6CC5535B6E833010BC8AE5DF0A6C1E8124328E22D29EA01770C0A128602363A31CBFCB234A53A555FA553EC09AD9F5CE8C31DB5DDA060D
310
D2F4B556190E7C8A9154852E6B5565D8D993B7C668C799D1DA7E29C3488956667884316795D1AE5BA0422B2B950554E9522EA0E87B69312A1A5864B82F3E642B7CE12C54F467BF13C55954D20F7CA0A18EB3DE1A1080E621E31BF3D3F1C2C88C73E65C5D2E6C5DC2B4FA544B8379921C36797888BC3C8A032F4E73EA6D927D
310
EA1DF6F42D49F2E8350D5346C666CE6CDD5ED515460A2B4BCC434A375E1078347C0FE22D5D6DE3D50B5D6F2965642CBF6B725DF96493AB958DC245EEDCD6631E809089F8E61622B2A81703E8219C913144F84C09DF070D8140C8561C9BAB8F3340832CAC363130A576376A108D933095FA747AD0CF0B46E64E983A6D0EAE1F
310
CE089F9EF1FB8E70D44255604258581E9D1D75B259C3125A278D37D80B52DAB4A279CEC62F0EFF44DDC43F9454E8469BFF5244960322CBEF41C6FBC83F01504B0304140006080800B670623B0F71DDB67E0000009D0000000B0000006662782F636E782E786D6C4DCCD10A83201886E15B91FFDCA54DB73F502386BB8F5816
310
32D3703976F9ABD1C18E3E78F87855FB990379BBFCF2296AE02706C4C5471A7C9C349475A408A4352AA7B4FEDD80C47E761A7606A3A69CCA72D0E0C6BE8475D3E0E3F3409428EA6B27A84079A782899AA2EC1A7AE3ECCC2FD858CB2D544655BFD2B67BD87C01504B0304140006080800B670623BE134B4FB28010000120200
310
00310000006662782F38353834323741342D343835462D343034322D383541392D4331303331363839454531452F636F72652E786D6C8D515B6EC32010BC0AE22B55850D0EA424C24451959EA0172086A42831583CAA1CBF503B52FB971F16CDCECC0EACD8DFC71BF836215AEF7A481A0C817183D7D65D7A98D3197108F652
310
04EFD31F1A044E8DA6871586525C82CFD3020DDE25E352419DD76601558C264130DCCAA58771F832A36A544E8511AFCDA486ABBA988634A55D7852C4144A00300FA927949C71DABD1D28A29C7D208A6987383B6CD13BC16BB2E1DBE3911C453B0BA5C8D9EA456E758963CFD684674DAA588A64C747FC2118958C86B2C3788B
310
0841B8FB247487D98EB257CC77188BB6D2FF89F2A49F1465EBD2BA5BE2CEB2082511EDDC9042FB7CBA3DC298FBE4430275DE2A9AE1054ADC60CC08E3A29D89E5F9C5714317C7987C28DFBBBA9E0A97B0D97643A568EB864AF95D5FA9759BF207504B0304140006080800B670623B1B8617914E010000330300003000000066
310
62782F38353834323741342D343835462D343034322D383541392D4331303331363839454531452F636E782E786D6CD593C16EC32010447F0571AD6CE3D489D20813A9877E410FBD62D82434182CC055F3F75D1292E692438FBD206B7698593D61BEFD1E2DF982108D773D6D6B460938E5B571FB9ECE6957AD29D90A1EBC4F
310
77364A9C1CA1A759A682EF839FA72269D8C9D92654AD71C72206887E0E0A22CAF926B15E498B01E0AA19451807D01A34B919F16B070157417138917400F2F6FA41FCF0092A45DEE414C19BDC21783E4BD39D891265658C3D8DEA00A3ACE59CBC8678ACB54CB26EEB6BD7839D7E9348BE70AD9C8321B9BCA7F9A4A26C542347
310
DEE050F09802D22BA6749A800A394DD62899107273365E3C82CFC6A55557BC06C10774B7ABE7AEC3B0F34CF06446280E154026D0542C187BA9DAB6628BF7B6DBB0E5A65B3EB1F58631DE64BBE083F7B65CC218087E22CABB042E51D1F2268F1FE12B3EA24D40D63E9CFE00120194D60B9D5BC67FE6D39CDF37E20AF817881F
310
504B0304140006080800B670623B5933D422630500003B100000340000006662782F38353834323741342D343835462D343034322D383541392D4331303331363839454531452F6F626A656374732E786D6CAD575B6FA33814FE2B887D0642934E9B156594264D158D3A534DD4D13E548A0C38942D60649B4EBABF7E3F8321
310
40924EF6928780CDF1B97EE762EFF32E4B8D37CA45C2F21BD3B547A641F39045491EDF98A5DC5AD7A6F1D9F73863B243661A39C9E88DA9B64DDF8B392B0BBD15D12D295339D85DDEFE618890E6D434C2940871638AF08566C426A5641115AF764424B1E3EDCE76ED9AB0CF36E6A47819302D08A7B984A6D8CFC1C5A89572FB
310
CB91E9F89EA3BEFB9EFAD754E3D3544E654F5F7E920B49F2F040D880CDD89D2CEE2E2EA7D6E56432B6269F2E5CEB7679BBB0DCABF168FE693E9FCEEEA6102C240727AD09A75BD3BF876F78127A4EFDA9D5582B7E4CA590E5390D2BFB6161A5B3E618D182E611E2985001691DAB47FDA5AB7CD3F93C566B2DB2BB7D9E55DD13
310
1D468DEECDB3AB290BFE8409E21C54704115AA6AFF68436BFC8DF65E0B184BF5B74418199194272435D224E084BF9B3E481589EFF5D828747285706581E9BB7B7E5D5D911ABFC6EE312DB7659A2A689A7E85EC0DF04FA5A8344BFEA2FCB834E8845895492EAFB541F2BDA0A63FF59C6AD3F7D4637CA13FD68E34B629891172
310
98597F1D183A57B9B75A98FE9765B05BAB7C3C2EBCE0ACA05C2AF8005A4DE09AA7F29216EB9E15397500C6F47CBE77CA7778FE2BD277AF0AE2C693DD6437D1522427B9D8329E2136F6A8FA19A3E6C56ADF0E5F50CF06D48734EDCEBF22F69C56D97EC138153F804B85E6FABFC7AFEFB32E523BE1F3BD372418E363EDCA7548
310
52949E8724474014288D94610BB57C1BEC4C7F854A89CA8E5324F55B871CBC78CE1BBEE3BFE68D6A5589EF3C730474506FCFA8FCF0659516D0ED04580EEA6425581B77CAE797FF4BCECC16EB2FEB926F49481F746159D06D922712BD730FDEAE42BD40F42C7AA5EF3F198F60E86110D6DD20645A9480B795CF95E3E3A659A8
310
C55E724F408873315335CFFB8584874484344D494E59D94869DB90C26A5B64F49C802CAC1D3ABE18A098D3B7444D123D8A9E5AE8F5214F0AE5B2B6E9B575DA3E61CBD3EA2B4009FA940524DD1305FB6A1FB294F14DF0BEA90BA109ECE1481FDC3FFAE8D60E75141700BE82725371B4873751B2DD960265F788137FACE6DD40
310
B575E4F0A5C99F46629D92131467A41EE11ABD8D4CCC039CA0AFB37C93A08B232B8F0AEFCA1E0A1015DF13FC83322B362463652ECF71D3A8B1A7D1BE65DE1D62C44F22C317D35F574FEB16153BA2D13E543D10A80E74C4A65E78A6B7CBCBD1D5DD9DB59C2DAFACC96C3AB566E3F1C29ADCDD5DBAD7D3C9ED7C822ED74F80A6
310
41755310DE4443F44A9E68373FADF6596BFA0F440AE7BECE2727AE9F4F2B1B53B1E7E00CF0DD1E5C65454A339A4BA2D0FBA05ED2EF0443458F47BDBFCA484CCFE0F2ED7E3DD0013B679C7B5499467F0ECEEADDB9CA85A34CE44B99053949D2C1416DB85DE4B136BB7165FBAC0B7AB3542BED4F8CA182A549847A1319316519
310
95A83A67147B9E5101C47487F2485F1ECE38FD568F839204296D3479219888530154036E6528FBFBC66F98E0D4107563A2D7D9AFF8D389681A08F58D89F22693900A3B407754734FC51C10C010D6D640809EE4718AC1BA3ED4AEDB53CA37283F68805A7E4B72CEB0A4EDEAD5DD8C14059A76AFAA56BA6901E13F32BC51C720
310
12AF41295B5BF61BAD3195181FB506E6B40F4C10AF5AF40EF9F5B159AE5DD1F43C72D635E94310D45C2D49785C5D0B94D3B54AB3C5A38349C0587D338AB48C11CBF339599C02CCA54A70A008A8D03C0B2201D5F9EFCF8F9CE12A9A19CB0410789EB32C63B95ECCF455D658BFE0621A3DA32C5075FB101723D77DAE867E7D0F
310
D90444509B44E2151B4DC2290B065803200FBAA9BE9D392A0603F2D5C2D00D6302A615680F66D2FA166E2079D4C551A54AB758161FCEFD4E450A14704CECFEDF504B0304140006080000B670623B000000000000000000000000350000006662782F38353834323741342D343835462D343034322D383541392D4331303331
310
363839454531452F76657274696365732E62696E504B0304140006080800B670623BF270F1330600000004000000360000006662782F38353834323741342D343835462D343034322D383541392D4331303331363839454531452F747269616E676C65732E62696E636660600000504B0304140006080000B670623B000000
310
000000000000000000370000006662782F38353834323741342D343835462D343034322D383541392D4331303331363839454531452F617474726962757465732E62696E504B0304140006080800B670623B08DA0BD19000000041010000360000006662782F38353834323741342D343835462D343034322D383541392D43
310
31303331363839454531452F6469726563746F72792E786D6C858F410AC3201045AF22B36F53E9A60B35CBEEBAE80D244E44489C6234F4F835464A48035D0DF398FF9F8AF63D0E6CC63039F212F8F9020C7D47C6792B21C5FE7403D62A1188E2E60C98D7234A5830286103A55745067B9D86B8A3CF9C7F90C11DE607FB1443
310
96D7B6A82D282E9A152AD114D5EF2CB866EEE831B8EEA07A7BB5A8D7D61A2BAAEB7FD5F70921FF497D00504B0304140006080800B670623BD9A3B367FE000000A00100003B0000006662782F38353834323741342D343835462D343034322D383541392D4331303331363839454531452F7265736F75726365732F636F7265
310
2E786D6C8D504B6E833010BD0A9A6D65B01D0201194711694FD00B586642AD043BF2A7EAF16B122AB5BB6E6646EFA3797AE2F8B5DC8A4FF4C1383B002B291468B59B8C9D0748F1420E501CA5F0CEC55F3228AC5A708015062966EFD27D83B4B3116DCCA875136EA00A012314FA968F0182FEC045952AC5AC08D7F2AEF455CD
310
58B232D3592745883E07289E4FD609D26370C96B0CA27AB252A464A64D63A6FCD35C0C7A904D73EE467EE664DCD58CD4ED4849D79C5A723ED1B7A61977AF2D6F45B59AA58866F9C9A83DAA8813484E6947182394BFB3BAA7FBBEDEBFD0434FA9A856F91F53BA4FFF342563E38E6F719FB60092E5200F428A6AED2BAF479979
310
AFDDCA6F504B010214000A0000080000B670623B3DEE336E79000000790000001B00000000000000000000000000000000006175746F6465736B2D64657369676E2D7061636B6167652E786D6C504B01021400140006080800B670623BD486FD9CA0000000F40000001300000000000000000000000000B20000005B436F6E
310
74656E745F54797065735D2E786D6C504B01021400140006080800B670623BCA089DFFEC0000007C010000080000000000000000000000000083010000636F72652E786D6C504B01021400140006080800B670623B55019EA25F0000007C000000070000000000000000000000000095020000636E782E786D6C504B010214
310
00140006080800B670623B68FC0B7272010000D40300000C00000000000000000000000000190300006662782F636F72652E786D6C504B01021400140006080800B670623B0F71DDB67E0000009D0000000B00000000000000000000000000B50400006662782F636E782E786D6C504B01021400140006080800B670623BE1
310
34B4FB280100001202000031000000000000000000000000005C0500006662782F38353834323741342D343835462D343034322D383541392D4331303331363839454531452F636F72652E786D6C504B01021400140006080800B670623B1B8617914E010000330300003000000000000000000000000000D3060000666278
310
2F38353834323741342D343835462D343034322D383541392D4331303331363839454531452F636E782E786D6C504B01021400140006080800B670623B5933D422630500003B10000034000000000000000000000000006F0800006662782F38353834323741342D343835462D343034322D383541392D4331303331363839
310
454531452F6F626A656374732E786D6C504B01021400140006080000B670623B0000000000000000000000003500000000000000000000000000240E00006662782F38353834323741342D343835462D343034322D383541392D4331303331363839454531452F76657274696365732E62696E504B01021400140006080800
310
B670623BF270F13306000000040000003600000000000000000000000000770E00006662782F38353834323741342D343835462D343034322D383541392D4331303331363839454531452F747269616E676C65732E62696E504B01021400140006080000B670623B0000000000000000000000003700000000000000000000
310
000000D10E00006662782F38353834323741342D343835462D343034322D383541392D4331303331363839454531452F617474726962757465732E62696E504B01021400140006080800B670623B08DA0BD190000000410100003600000000000000000000000000260F00006662782F38353834323741342D343835462D34
310
3034322D383541392D4331303331363839454531452F6469726563746F72792E786D6C504B01021400140006080800B670623BD9A3B367FE000000A00100003B000000000000000000000000000A1000006662782F38353834323741342D343835462D343034322D383541392D4331303331363839454531452F7265736F75
310
726365732F636F72652E786D6C504B0506000000000E000E0080040000611100000000
  0
XRECORD
  5
113
102
{ACAD_REACTORS
330
110
102
}
330
110
100
AcDbXrecord
280
     1
270
     1
271
     1
  0
XRECORD
  5
114
102
{ACAD_REACTORS
330
110
102
}
330
110
100
AcDbXrecord
280
     1
270
     1
271
     1
  0
CELLSTYLEMAP
  5
F86E6
102
{ACAD_REACTORS
330
104
102
}
330
104
100
AcDbCellStyleMap
 90
        3
300
CELLSTYLE
  1
TABLEFORMAT_BEGIN
 90
        5
170
     1
 91
        0
 92
    32768
 62
   257
 93
        1
300
CONTENTFORMAT
  1
CONTENTFORMAT_BEGIN
 90
        0
 91
        0
 92
      512
 93
        0
300

 40
0.0
140
1.0
 94
        5
 62
     0
340
11
144
0.25
309
CONTENTFORMAT_END
171
     1
301
MARGIN
  1
CELLMARGIN_BEGIN
 40
0.06
 40
0.06
 40
0.06
 40
0.06
 40
0.18
 40
0.18
309
CELLMARGIN_END
 94
        6
 95
        1
302
GRIDFORMAT
  1
GRIDFORMAT_BEGIN
 90
        0
 91
        1
 62
     0
 92
       -2
340
0
 93
        0
 40
0.045
309
GRIDFORMAT_END
 95
        2
302
GRIDFORMAT
  1
GRIDFORMAT_BEGIN
 90
        0
 91
        1
 62
     0
 92
       -2
340
0
 93
        0
 40
0.045
309
GRIDFORMAT_END
 95
        4
302
GRIDFORMAT
  1
GRIDFORMAT_BEGIN
 90
        0
 91
        1
 62
     0
 92
       -2
340
0
 93
        0
 40
0.045
309
GRIDFORMAT_END
 95
        8
302
GRIDFORMAT
  1
GRIDFORMAT_BEGIN
 90
        0
 91
        1
 62
     0
 92
       -2
340
0
 93
        0
 40
0.045
309
GRIDFORMAT_END
 95
       16
302
GRIDFORMAT
  1
GRIDFORMAT_BEGIN
 90
        0
 91
        1
 62
     0
 92
       -2
340
0
 93
        0
 40
0.045
309
GRIDFORMAT_END
 95
       32
302
GRIDFORMAT
  1
GRIDFORMAT_BEGIN
 90
        0
 91
        1
 62
     0
 92
       -2
340
0
 93
        0
 40
0.045
309
GRIDFORMAT_END
309
TABLEFORMAT_END
  1
CELLSTYLE_BEGIN
 90
        1
 91
        1
300
_TITLE
309
CELLSTYLE_END
300
CELLSTYLE
  1
TABLEFORMAT_BEGIN
 90
        5
170
     1
 91
        0
 92
        0
 62
   257
 93
        1
300
CONTENTFORMAT
  1
CONTENTFORMAT_BEGIN
 90
        0
 91
        0
 92
      512
 93
        0
300

 40
0.0
140
1.0
 94
        5
 62
     0
340
11
144
0.18
309
CONTENTFORMAT_END
171
     1
301
MARGIN
  1
CELLMARGIN_BEGIN
 40
0.06
 40
0.06
 40
0.06
 40
0.06
 40
0.18
 40
0.18
309
CELLMARGIN_END
 94
        6
 95
        1
302
GRIDFORMAT
  1
GRIDFORMAT_BEGIN
 90
        0
 91
        1
 62
     0
 92
       -2
340
0
 93
        0
 40
0.045
309
GRIDFORMAT_END
 95
        2
302
GRIDFORMAT
  1
GRIDFORMAT_BEGIN
 90
        0
 91
        1
 62
     0
 92
       -2
340
0
 93
        0
 40
0.045
309
GRIDFORMAT_END
 95
        4
302
GRIDFORMAT
  1
GRIDFORMAT_BEGIN
 90
        0
 91
        1
 62
     0
 92
       -2
340
0
 93
        0
 40
0.045
309
GRIDFORMAT_END
 95
        8
302
GRIDFORMAT
  1
GRIDFORMAT_BEGIN
 90
        0
 91
        1
 62
     0
 92
       -2
340
0
 93
        0
 40
0.045
309
GRIDFORMAT_END
 95
       16
302
GRIDFORMAT
  1
GRIDFORMAT_BEGIN
 90
        0
 91
        1
 62
     0
 92
       -2
340
0
 93
        0
 40
0.045
309
GRIDFORMAT_END
 95
       32
302
GRIDFORMAT
  1
GRIDFORMAT_BEGIN
 90
        0
 91
        1
 62
     0
 92
       -2
340
0
 93
        0
 40
0.045
309
GRIDFORMAT_END
309
TABLEFORMAT_END
  1
CELLSTYLE_BEGIN
 90
        2
 91
        1
300
_HEADER
309
CELLSTYLE_END
300
CELLSTYLE
  1
TABLEFORMAT_BEGIN
 90
        5
170
     1
 91
        0
 92
        0
 62
   257
 93
        1
300
CONTENTFORMAT
  1
CONTENTFORMAT_BEGIN
 90
        0
 91
        0
 92
      512
 93
        0
300

 40
0.0
140
1.0
 94
        2
 62
     0
340
11
144
0.18
309
CONTENTFORMAT_END
171
     1
301
MARGIN
  1
CELLMARGIN_BEGIN
 40
0.06
 40
0.06
 40
0.06
 40
0.06
 40
0.18
 40
0.18
309
CELLMARGIN_END
 94
        6
 95
        1
302
GRIDFORMAT
  1
GRIDFORMAT_BEGIN
 90
        0
 91
        1
 62
     0
 92
       -2
340
0
 93
        0
 40
0.045
309
GRIDFORMAT_END
 95
        2
302
GRIDFORMAT
  1
GRIDFORMAT_BEGIN
 90
        0
 91
        1
 62
     0
 92
       -2
340
0
 93
        0
 40
0.045
309
GRIDFORMAT_END
 95
        4
302
GRIDFORMAT
  1
GRIDFORMAT_BEGIN
 90
        0
 91
        1
 62
     0
 92
       -2
340
0
 93
        0
 40
0.045
309
GRIDFORMAT_END
 95
        8
302
GRIDFORMAT
  1
GRIDFORMAT_BEGIN
 90
        0
 91
        1
 62
     0
 92
       -2
340
0
 93
        0
 40
0.045
309
GRIDFORMAT_END
 95
       16
302
GRIDFORMAT
  1
GRIDFORMAT_BEGIN
 90
        0
 91
        1
 62
     0
 92
       -2
340
0
 93
        0
 40
0.045
309
GRIDFORMAT_END
 95
       32
302
GRIDFORMAT
  1
GRIDFORMAT_BEGIN
 90
        0
 91
        1
 62
     0
 92
       -2
340
0
 93
        0
 40
0.045
309
GRIDFORMAT_END
309
TABLEFORMAT_END
  1
CELLSTYLE_BEGIN
 90
        3
 91
        2
300
_DATA
309
CELLSTYLE_END
  0
ENDSEC
  0
SECTION
  2
ACDSDATA
 70
     2
 71
     8
  0
ACDSSCHEMA
 90
        0
  1
AcDb_Thumbnail_Schema
  2
AcDbDs::ID
280
    10
 91
        8
  2
Thumbnail_Data
280
    15
 91
        0
101
ACDSRECORD
 95
        0
 90
        1
  2
AcDbDs::TreatedAsObjectData
280
     1
291
     1
101
ACDSRECORD
 95
        0
 90
        2
  2
AcDbDs::Legacy
280
     1
291
     1
101
ACDSRECORD
  1
AcDbDs::ID
 90
        3
  2
AcDs:Indexable
280
     1
291
     1
101
ACDSRECORD
  1
AcDbDs::ID
 90
        4
  2
AcDbDs::HandleAttribute
280
     7
282
     1
  0
ACDSSCHEMA
 90
        1
  1
AcDbDs::TreatedAsObjectDataSchema
  2
AcDbDs::TreatedAsObjectData
280
     1
 91
        0
  0
ACDSSCHEMA
 90
        2
  1
AcDbDs::LegacySchema
  2
AcDbDs::Legacy
280
     1
 91
        0
  0
ACDSSCHEMA
 90
        3
  1
AcDbDs::IndexedPropertySchema
  2
AcDs:Indexable
280
     1
 91
        0
  0
ACDSSCHEMA
 90
        4
  1
AcDbDs::HandleAttributeSchema
  2
AcDbDs::HandleAttribute
280
     7
 91
        1
284
     1
  0
ACDSSCHEMA
 90
        5
  1
AcDb3DSolid_ASM_Data
  2
AcDbDs::ID
280
    10
 91
        8
  2
ASM_Data
280
    15
 91
        0
101
ACDSRECORD
 95
        5
 90
        1
  2
AcDbDs::TreatedAsObjectData
280
     1
291
     1
101
ACDSRECORD
 95
        5
 90
        2
  2
AcDbDs::Legacy
280
     1
291
     1
101
ACDSRECORD
  1
AcDbDs::ID
 90
        3
  2
AcDs:Indexable
280
     1
291
     1
101
ACDSRECORD
  1
AcDbDs::ID
 90
        4
  2
AcDbDs::HandleAttribute
280
     7
282
     1
  0
ACDSRECORD
 90
        0
  2
AcDbDs::ID
280
    10
320
22
  2
Thumbnail_Data
280
    15
 94
     1666
310
89504E470D0A1A0A0000000D4948445200000100000000700803000000C6F95E2100000300504C5445212830FFFFFF2128300000000000000000000000000000000000000000000000000000330000660000990000CC0000FF0033000033330033660033990033CC0033FF0066000066330066660066990066CC0066FF0099
310
000099330099660099990099CC0099FF00CC0000CC3300CC6600CC9900CCCC00CCFF00FF0000FF3300FF6600FF9900FFCC00FFFF3300003300333300663300993300CC3300FF3333003333333333663333993333CC3333FF3366003366333366663366993366CC3366FF3399003399333399663399993399CC3399FF33CC00
310
33CC3333CC6633CC9933CCCC33CCFF33FF0033FF3333FF6633FF9933FFCC33FFFF6600006600336600666600996600CC6600FF6633006633336633666633996633CC6633FF6666006666336666666666996666CC6666FF6699006699336699666699996699CC6699FF66CC0066CC3366CC6666CC9966CCCC66CCFF66FF0066
310
FF3366FF6666FF9966FFCC66FFFF9900009900339900669900999900CC9900FF9933009933339933669933999933CC9933FF9966009966339966669966999966CC9966FF9999009999339999669999999999CC9999FF99CC0099CC3399CC6699CC9999CCCC99CCFF99FF0099FF3399FF6699FF9999FFCC99FFFFCC0000CC00
310
33CC0066CC0099CC00CCCC00FFCC3300CC3333CC3366CC3399CC33CCCC33FFCC6600CC6633CC6666CC6699CC66CCCC66FFCC9900CC9933CC9966CC9999CC99CCCC99FFCCCC00CCCC33CCCC66CCCC99CCCCCCCCCCFFCCFF00CCFF33CCFF66CCFF99CCFFCCCCFFFFFF0000FF0033FF0066FF0099FF00CCFF00FFFF3300FF3333
310
FF3366FF3399FF33CCFF33FFFF6600FF6633FF6666FF6699FF66CCFF66FFFF9900FF9933FF9966FF9999FF99CCFF99FFFFCC00FFCC33FFCC66FFCC99FFCCCCFFCCFFFFFF00FFFF33FFFF66FFFF99FFFFCCFFFFFF0000000D0D0D1A1A1A2828283535354343435050505D5D5D6B6B6B787878868686939393A1A1A1AEAEAEBB
310
BBBBC9C9C9D6D6D6E4E4E4F1F1F1FFFFFF0000000000000000000000000000000000000000000000000000000000002E4550F1000000BF4944415478DAEDDA3112C2300C0041FDFFBFEA999010F20086E6760B7A1DB13318CF000000000000000000BFB587FAFCE502C7F0F5002B80006BFE78808D8FDF0D30ED029B0F3002
310
DC0F81009640FA2D989FDF0A2826D8C77140B1C07BE2F22AF806883E02CFEFFEFC280638F78066806782A9BE09EFC5DF3D12B89EFDF099E008B0F10023403AC0E750448072801901E2F703C69F83E5F9F37BE0E603D47780F41678FD166E5F909915C01D291745E3BF05DAB7A501000000000000E0DF5E220B51E5652A720D
310
0000000049454E44AE426082050C16DA356BFEFF340000000049454E44AE426082A77F14020000000000000000000000000000F05B3E002834315B124D8D350000000049454E44AE426082CD3672EB68C36DFF104A7B7B814B714D57F0D16B90B77F5EBFF2D9D5B34CE7E38DEB5F67593ADC11485DB39D19E776E5F2C19EC1
310
52691D45546D4345B01DFF9ACC70356E305179AB73A2BD4B8C2D82C00356BD2B9A64AD5F00FE7029BCC88DB5EB4F8F82C251782DEFD2750BAEA96EF8CFD1F1DB9DD0DE5C678190A21BBD2354D56293B4EB12862A8034662DD284BE794EF37415A1DBAA871AE2C6FBB900B5E3048DBE756FBF94557E1035C53E2476092E0297
310
6CB1E7399A7EB20F9B2F9AE554CCD776B6A4EC4DAD972B6DD8FFF61A93FC03467BDCD390C76752F366E007CBD4FF4E406BEC6E87A56F3923FFA4FE5F853D1A97357F25A1764B916559F30722000000000000000000000000000000000030902F27A9489558912E650000000049454E44AE426082FE140940F746886607B0F5
310
F2D84660BD1618B88A08D2027100640B8C5D0B2DBC0AC45A06BBF6C2581840B855A0358D18E98F251203406F1A612A80B202BAD38891FF580B500000D49D4988F37FAC813E72214627000A3582A5C338FE00598ED82311F33F3A0000000049454E44AE4260820F467818FD4AC64A010000000049454E44AE42608200187F52
310
539FF6AC0FF2D01229B97F7B56AE64E8787DBF9E93B283504D4929EEDB336DE133B927D0B706F146D8FDD54728002424931276690CDE5FFA471401522320E6FA719CDCC9E90D234F422DA512220CD4066298BF969A4028B717C4D481E25C1BC6C59A99842240E2F24B1F92F8AC20F021F00EFE737AFD0FDF7E00E9E9886BC5
310
1247A50000000049454E44AE426082
  0
ENDSEC
  0
EOF
