  0
SECTION
  2
HEADER
  9
$ACADVER
  1
AC1032
  9
$ACADMAINTVER
 90
      197
  9
$DWGCODEPAGE
  3
ANSI_1252
  9
$LASTSAVEDBY
  1
gregb
  9
$REQUIREDVERSIONS
160
                 0
  9
$INSBASE
 10
0.0
 20
0.0
 30
0.0
  9
$EXTMIN
 10
151245.4462618465
 20
113080.1103460524
 30
-0.0015258207003583
  9
$EXTMAX
 10
156461.4706545666
 20
115257.3251538572
 30
0.0000000349246037
  9
$LIMMIN
 10
0.0
 20
0.0
  9
$LIMMAX
 10
12.0
 20
9.0
  9
$ORTHOMODE
 70
     1
  9
$REGENMODE
 70
     1
  9
$FILLMODE
 70
     1
  9
$QTEXTMODE
 70
     0
  9
$MIRRTEXT
 70
     0
  9
$LTSCALE
 40
1.0
  9
$ATTMODE
 70
     1
  9
$TEXTSIZE
 40
0.2
  9
$TRACEWID
 40
0.05
  9
$TEXTSTYLE
  7
Standard
  9
$CLAYER
  8
freecads.com
  9
$CELTYPE
  6
ByLayer
  9
$CECOLOR
 62
   256
  9
$CELTSCALE
 40
1.0
  9
$DISPSILH
 70
     1
  9
$DIMSCALE
 40
1.0
  9
$DIMASZ
 40
0.18
  9
$DIMEXO
 40
0.0625
  9
$DIMDLI
 40
0.38
  9
$DIMRND
 40
0.0
  9
$DIMDLE
 40
0.0
  9
$DIMEXE
 40
0.18
  9
$DIMTP
 40
0.0
  9
$DIMTM
 40
0.0
  9
$DIMTXT
 40
0.18
  9
$DIMCEN
 40
0.09
  9
$DIMTSZ
 40
0.0
  9
$DIMTOL
 70
     0
  9
$DIMLIM
 70
     0
  9
$DIMTIH
 70
     1
  9
$DIMTOH
 70
     1
  9
$DIMSE1
 70
     0
  9
$DIMSE2
 70
     0
  9
$DIMTAD
 70
     0
  9
$DIMZIN
 70
     0
  9
$DIMBLK
  1

  9
$DIMASO
 70
     1
  9
$DIMSHO
 70
     1
  9
$DIMPOST
  1

  9
$DIMAPOST
  1

  9
$DIMALT
 70
     0
  9
$DIMALTD
 70
     2
  9
$DIMALTF
 40
25.4
  9
$DIMLFAC
 40
1.0
  9
$DIMTOFL
 70
     0
  9
$DIMTVP
 40
0.0
  9
$DIMTIX
 70
     0
  9
$DIMSOXD
 70
     0
  9
$DIMSAH
 70
     0
  9
$DIMBLK1
  1

  9
$DIMBLK2
  1

  9
$DIMSTYLE
  2
Standard
  9
$DIMCLRD
 70
     0
  9
$DIMCLRE
 70
     0
  9
$DIMCLRT
 70
     0
  9
$DIMTFAC
 40
1.0
  9
$DIMGAP
 40
0.09
  9
$DIMJUST
 70
     0
  9
$DIMSD1
 70
     0
  9
$DIMSD2
 70
     0
  9
$DIMTOLJ
 70
     1
  9
$DIMTZIN
 70
     0
  9
$DIMALTZ
 70
     0
  9
$DIMALTTZ
 70
     0
  9
$DIMUPT
 70
     0
  9
$DIMDEC
 70
     4
  9
$DIMTDEC
 70
     4
  9
$DIMALTU
 70
     2
  9
$DIMALTTD
 70
     2
  9
$DIMTXSTY
  7
Standard
  9
$DIMAUNIT
 70
     0
  9
$DIMADEC
 70
     0
  9
$DIMALTRND
 40
0.0
  9
$DIMAZIN
 70
     0
  9
$DIMDSEP
 70
    46
  9
$DIMATFIT
 70
     3
  9
$DIMFRAC
 70
     0
  9
$DIMLDRBLK
  1

  9
$DIMLUNIT
 70
     2
  9
$DIMLWD
 70
    -2
  9
$DIMLWE
 70
    -2
  9
$DIMTMOVE
 70
     0
  9
$DIMFXL
 40
1.0
  9
$DIMFXLON
 70
     0
  9
$DIMJOGANG
 40
0.7853981633974483
  9
$DIMTFILL
 70
     0
  9
$DIMTFILLCLR
 70
     0
  9
$DIMARCSYM
 70
     0
  9
$DIMLTYPE
  6

  9
$DIMLTEX1
  6

  9
$DIMLTEX2
  6

  9
$DIMTXTDIRECTION
 70
     0
  9
$LUNITS
 70
     2
  9
$LUPREC
 70
     4
  9
$SKETCHINC
 40
0.1
  9
$FILLETRAD
 40
0.0
  9
$AUNITS
 70
     0
  9
$AUPREC
 70
     0
  9
$MENU
  1
.
  9
$ELEVATION
 40
0.0
  9
$PELEVATION
 40
0.0
  9
$THICKNESS
 40
0.0
  9
$LIMCHECK
 70
     0
  9
$CHAMFERA
 40
0.0
  9
$CHAMFERB
 40
0.0
  9
$CHAMFERC
 40
0.0
  9
$CHAMFERD
 40
0.0
  9
$SKPOLY
 70
     0
  9
$TDCREATE
 40
2458157.454583334
  9
$TDUCREATE
 40
2458157.287916667
  9
$TDUPDATE
 40
2460666.804803241
  9
$TDUUPDATE
 40
2460666.638136574
  9
$TDINDWG
 40
0.2090856481
  9
$TDUSRTIMER
 40
0.2090856481
  9
$USRTIMER
 70
     1
  9
$ANGBASE
 50
0.0
  9
$ANGDIR
 70
     0
  9
$PDMODE
 70
     0
  9
$PDSIZE
 40
0.0
  9
$PLINEWID
 40
0.0
  9
$SPLFRAME
 70
     0
  9
$SPLINETYPE
 70
     6
  9
$SPLINESEGS
 70
     8
  9
$HANDSEED
  5
58311
  9
$SURFTAB1
 70
     6
  9
$SURFTAB2
 70
     6
  9
$SURFTYPE
 70
     6
  9
$SURFU
 70
     6
  9
$SURFV
 70
     6
  9
$UCSBASE
  2

  9
$UCSNAME
  2

  9
$UCSORG
 10
0.0
 20
0.0
 30
0.0
  9
$UCSXDIR
 10
1.0
 20
0.0
 30
0.0
  9
$UCSYDIR
 10
0.0
 20
1.0
 30
0.0
  9
$UCSORTHOREF
  2

  9
$UCSORTHOVIEW
 70
     0
  9
$UCSORGTOP
 10
0.0
 20
0.0
 30
0.0
  9
$UCSORGBOTTOM
 10
0.0
 20
0.0
 30
0.0
  9
$UCSORGLEFT
 10
0.0
 20
0.0
 30
0.0
  9
$UCSORGRIGHT
 10
0.0
 20
0.0
 30
0.0
  9
$UCSORGFRONT
 10
0.0
 20
0.0
 30
0.0
  9
$UCSORGBACK
 10
0.0
 20
0.0
 30
0.0
  9
$PUCSBASE
  2

  9
$PUCSNAME
  2

  9
$PUCSORG
 10
0.0
 20
0.0
 30
0.0
  9
$PUCSXDIR
 10
1.0
 20
0.0
 30
0.0
  9
$PUCSYDIR
 10
0.0
 20
1.0
 30
0.0
  9
$PUCSORTHOREF
  2

  9
$PUCSORTHOVIEW
 70
     0
  9
$PUCSORGTOP
 10
0.0
 20
0.0
 30
0.0
  9
$PUCSORGBOTTOM
 10
0.0
 20
0.0
 30
0.0
  9
$PUCSORGLEFT
 10
0.0
 20
0.0
 30
0.0
  9
$PUCSORGRIGHT
 10
0.0
 20
0.0
 30
0.0
  9
$PUCSORGFRONT
 10
0.0
 20
0.0
 30
0.0
  9
$PUCSORGBACK
 10
0.0
 20
0.0
 30
0.0
  9
$USERI1
 70
     0
  9
$USERI2
 70
     0
  9
$USERI3
 70
     0
  9
$USERI4
 70
     0
  9
$USERI5
 70
     0
  9
$USERR1
 40
0.0
  9
$USERR2
 40
0.0
  9
$USERR3
 40
0.0
  9
$USERR4
 40
0.0
  9
$USERR5
 40
0.0
  9
$WORLDVIEW
 70
     1
  9
$SHADEDGE
 70
     3
  9
$SHADEDIF
 70
    70
  9
$TILEMODE
 70
     1
  9
$MAXACTVP
 70
    64
  9
$PINSBASE
 10
0.0
 20
0.0
 30
0.0
  9
$PLIMCHECK
 70
     0
  9
$PEXTMIN
 10
0.0
 20
0.0
 30
0.0
  9
$PEXTMAX
 10
0.0
 20
0.0
 30
0.0
  9
$PLIMMIN
 10
0.0
 20
0.0
  9
$PLIMMAX
 10
12.0
 20
9.0
  9
$UNITMODE
 70
     0
  9
$VISRETAIN
 70
     1
  9
$PLINEGEN
 70
     0
  9
$PSLTSCALE
 70
     1
  9
$TREEDEPTH
 70
  3020
  9
$CMLSTYLE
  2
Standard
  9
$CMLJUST
 70
     0
  9
$CMLSCALE
 40
1.0
  9
$PROXYGRAPHICS
 70
     1
  9
$MEASUREMENT
 70
     0
  9
$CELWEIGHT
370
    -1
  9
$ENDCAPS
280
     0
  9
$JOINSTYLE
280
     0
  9
$LWDISPLAY
290
     0
  9
$INSUNITS
 70
     1
  9
$HYPERLINKBASE
  1

  9
$STYLESHEET
  1
monochrome.ctb
  9
$XEDIT
290
     1
  9
$CEPSNTYPE
380
     0
  9
$PSTYLEMODE
290
     1
  9
$FINGERPRINTGUID
  2
{358EB121-6EE0-9143-8A3E-6E8E8869FDA6}
  9
$VERSIONGUID
  2
{A3BA8015-1348-BE48-8D97-2F927E1C83AB}
  9
$EXTNAMES
290
     1
  9
$PSVPSCALE
 40
0.0
  9
$OLESTARTUP
290
     0
  9
$SORTENTS
280
   127
  9
$INDEXCTL
280
     0
  9
$HIDETEXT
280
     1
  9
$XCLIPFRAME
280
     2
  9
$HALOGAP
280
     0
  9
$OBSCOLOR
 70
   257
  9
$OBSLTYPE
280
     0
  9
$INTERSECTIONDISPLAY
280
     0
  9
$INTERSECTIONCOLOR
 70
   257
  9
$DIMASSOC
280
     2
  9
$PROJECTNAME
  1

  9
$CAMERADISPLAY
290
     0
  9
$LENSLENGTH
 40
50.0
  9
$CAMERAHEIGHT
 40
0.0
  9
$STEPSPERSEC
 40
2.0
  9
$STEPSIZE
 40
6.0
  9
$3DDWFPREC
 40
2.0
  9
$PSOLWIDTH
 40
0.25
  9
$PSOLHEIGHT
 40
4.0
  9
$LOFTANG1
 40
1.570796326794896
  9
$LOFTANG2
 40
1.570796326794896
  9
$LOFTMAG1
 40
0.0
  9
$LOFTMAG2
 40
0.0
  9
$LOFTPARAM
 70
     7
  9
$LOFTNORMALS
280
     1
  9
$LATITUDE
 40
37.795
  9
$LONGITUDE
 40
-122.394
  9
$NORTHDIRECTION
 40
0.0
  9
$TIMEZONE
 70
 -8000
  9
$LIGHTGLYPHDISPLAY
280
     1
  9
$TILEMODELIGHTSYNCH
280
     1
  9
$CMATERIAL
347
96
  9
$SOLIDHIST
280
     0
  9
$SHOWHIST
280
     1
  9
$DWFFRAME
280
     2
  9
$DGNFRAME
280
     0
  9
$REALWORLDSCALE
290
     1
  9
$INTERFERECOLOR
 62
     1
  9
$INTERFEREOBJVS
345
A3
  9
$INTERFEREVPVS
346
A0
  9
$CSHADOW
280
     0
  9
$SHADOWPLANELOCATION
 40
0.0
  0
ENDSEC
  0
SECTION
  2
CLASSES
  0
CLASS
  1
ACDBDICTIONARYWDFLT
  2
AcDbDictionaryWithDefault
  3
ObjectDBX Classes
 90
        0
 91
        1
280
     0
281
     0
  0
CLASS
  1
DICTIONARYVAR
  2
AcDbDictionaryVar
  3
ObjectDBX Classes
 90
        0
 91
       27
280
     0
281
     0
  0
CLASS
  1
TABLESTYLE
  2
AcDbTableStyle
  3
ObjectDBX Classes
 90
     4095
 91
        1
280
     0
281
     0
  0
CLASS
  1
MATERIAL
  2
AcDbMaterial
  3
ObjectDBX Classes
 90
     1153
 91
        3
280
     0
281
     0
  0
CLASS
  1
VISUALSTYLE
  2
AcDbVisualStyle
  3
ObjectDBX Classes
 90
     4095
 91
       25
280
     0
281
     0
  0
CLASS
  1
SCALE
  2
AcDbScale
  3
ObjectDBX Classes
 90
     1153
 91
       34
280
     0
281
     0
  0
CLASS
  1
MLEADERSTYLE
  2
AcDbMLeaderStyle
  3
ACDB_MLEADERSTYLE_CLASS
 90
     4095
 91
        1
280
     0
281
     0
  0
CLASS
  1
CELLSTYLEMAP
  2
AcDbCellStyleMap
  3
ObjectDBX Classes
 90
     1152
 91
        1
280
     0
281
     0
  0
CLASS
  1
EXACXREFPANELOBJECT
  2
ExAcXREFPanelObject
  3
EXAC_ESW
 90
     1025
 91
        1
280
     0
281
     0
  0
CLASS
  1
NPOCOLLECTION
  2
AcDbImpNonPersistentObjectsCollection
  3
ObjectDBX Classes
 90
     1153
 91
        1
280
     0
281
     0
  0
CLASS
  1
LAYER_INDEX
  2
AcDbLayerIndex
  3
ObjectDBX Classes
 90
        0
 91
        0
280
     0
281
     0
  0
CLASS
  1
SPATIAL_INDEX
  2
AcDbSpatialIndex
  3
ObjectDBX Classes
 90
        0
 91
        0
280
     0
281
     0
  0
CLASS
  1
IDBUFFER
  2
AcDbIdBuffer
  3
ObjectDBX Classes
 90
        0
 91
        0
280
     0
281
     0
  0
CLASS
  1
ACDBSECTIONVIEWSTYLE
  2
AcDbSectionViewStyle
  3
ObjectDBX Classes
 90
     1025
 91
        2
280
     0
281
     0
  0
CLASS
  1
ACDBDETAILVIEWSTYLE
  2
AcDbDetailViewStyle
  3
ObjectDBX Classes
 90
     1025
 91
        2
280
     0
281
     0
  0
CLASS
  1
SORTENTSTABLE
  2
AcDbSortentsTable
  3
ObjectDBX Classes
 90
        0
 91
        1
280
     0
281
     0
  0
CLASS
  1
ACAD_EVALUATION_GRAPH
  2
AcDbEvalGraph
  3
ObjectDBX Classes
 90
     1153
 91
        0
280
     0
281
     0
  0
CLASS
  1
BLOCKLINEARPARAMETER
  2
AcDbBlockLinearParameter
  3
ObjectDBX Classes
 90
     1153
 91
        0
280
     0
281
     0
  0
CLASS
  1
BLOCKLINEARGRIP
  2
AcDbBlockLinearGrip
  3
ObjectDBX Classes
 90
     1153
 91
        0
280
     0
281
     0
  0
CLASS
  1
BLOCKGRIPLOCATIONCOMPONENT
  2
AcDbBlockGripExpr
  3
ObjectDBX Classes
 90
     1153
 91
        0
280
     0
281
     0
  0
CLASS
  1
BLOCKSTRETCHACTION
  2
AcDbBlockStretchAction
  3
ObjectDBX Classes
 90
     1153
 91
        0
280
     0
281
     0
  0
CLASS
  1
ACDB_DYNAMICBLOCKPURGEPREVENTER_VERSION
  2
AcDbDynamicBlockPurgePreventer
  3
ObjectDBX Classes
 90
     1153
 91
        0
280
     0
281
     0
  0
CLASS
  1
BLOCKVISIBILITYPARAMETER
  2
AcDbBlockVisibilityParameter
  3
ObjectDBX Classes
 90
     1153
 91
        0
280
     0
281
     0
  0
CLASS
  1
BLOCKVISIBILITYGRIP
  2
AcDbBlockVisibilityGrip
  3
ObjectDBX Classes
 90
     1153
 91
        0
280
     0
281
     0
  0
CLASS
  1
ACDB_BLOCKREPRESENTATION_DATA
  2
AcDbBlockRepresentationData
  3
ObjectDBX Classes
 90
     1153
 91
        0
280
     0
281
     0
  0
CLASS
  1
SURFACE
  2
AcDbSurface
  3
ObjectDBX Classes
 90
     4095
 91
        0
280
     0
281
     1
  0
CLASS
  1
ACDBASSOCPERSSUBENTMANAGER
  2
AcDbAssocPersSubentManager
  3
ObjectDBX Classes
 90
     1024
 91
        1
280
     0
281
     0
  0
CLASS
  1
BLOCKARRAYACTION
  2
AcDbBlockArrayAction
  3
ObjectDBX Classes
 90
     1153
 91
        0
280
     0
281
     0
  0
CLASS
  1
BLOCKLOOKUPPARAMETER
  2
AcDbBlockLookupParameter
  3
ObjectDBX Classes
 90
     1153
 91
        0
280
     0
281
     0
  0
CLASS
  1
BLOCKLOOKUPGRIP
  2
AcDbBlockLookupGrip
  3
ObjectDBX Classes
 90
     1153
 91
        0
280
     0
281
     0
  0
CLASS
  1
BLOCKLOOKUPACTION
  2
AcDbBlockLookupAction
  3
ObjectDBX Classes
 90
     1153
 91
        0
280
     0
281
     0
  0
ENDSEC
  0
SECTION
  2
TABLES
  0
TABLE
  2
VPORT
  5
8
330
0
100
AcDbSymbolTable
 70
     1
  0
VPORT
  5
94
330
8
100
AcDbSymbolTableRecord
100
AcDbViewportTableRecord
  2
*Active
 70
     0
 10
0.0
 20
0.0
 11
1.0
 21
1.0
 12
154634.8395138527
 22
113599.2137003958
 13
0.0
 23
0.0
 14
0.5
 24
0.5
 15
0.5
 25
0.5
 16
0.0
 26
0.0
 36
1.0
 17
0.0
 27
0.0
 37
0.0
 40
8764.308995472063
 41
2.293369663941871
 42
50.0
 43
0.0
 44
0.0
 50
0.0
 51
0.0
 71
     0
 72
  1000
 73
     1
 74
     3
 75
     0
 76
     0
 77
     0
 78
     0
281
     0
 65
     1
110
0.0
120
0.0
130
0.0
111
1.0
121
0.0
131
0.0
112
0.0
122
1.0
132
0.0
 79
     0
146
0.0
348
9F
 60
     3
 61
     5
292
     1
282
     1
141
0.0
142
0.0
 63
   250
421
  3355443
1001
ACAD_NAV_VCDISPLAY
1070
     3
  0
ENDTAB
  0
TABLE
  2
LTYPE
  5
5
330
0
100
AcDbSymbolTable
 70
     1
  0
LTYPE
  5
14
330
5
100
AcDbSymbolTableRecord
100
AcDbLinetypeTableRecord
  2
ByBlock
 70
     0
  3

 72
    65
 73
     0
 40
0.0
  0
LTYPE
  5
15
330
5
100
AcDbSymbolTableRecord
100
AcDbLinetypeTableRecord
  2
ByLayer
 70
     0
  3

 72
    65
 73
     0
 40
0.0
  0
LTYPE
  5
16
330
5
100
AcDbSymbolTableRecord
100
AcDbLinetypeTableRecord
  2
Continuous
 70
     0
  3
Solid line
 72
    65
 73
     0
 40
0.0
  0
ENDTAB
  0
TABLE
  2
LAYER
  5
2
102
{ACAD_XDICTIONARY
360
18E
102
}
330
0
100
AcDbSymbolTable
 70
     2
  0
LAYER
  5
10
102
{ACAD_XDICTIONARY
360
E6
102
}
330
2
100
AcDbSymbolTableRecord
100
AcDbLayerTableRecord
  2
0
 70
     0
 62
     7
  6
Continuous
370
    -3
390
F
347
98
348
0
  0
LAYER
  5
204
330
2
100
AcDbSymbolTableRecord
100
AcDbLayerTableRecord
  2
freecads.com
 70
     0
 62
     7
  6
Continuous
370
    -3
390
F
347
98
348
0
1001
AcAecLayerStandard
1000

1000

1001
AcCmTransparency
1071
        0
  0
ENDTAB
  0
TABLE
  2
STYLE
  5
3
330
0
100
AcDbSymbolTable
 70
     2
  0
STYLE
  5
11
330
3
100
AcDbSymbolTableRecord
100
AcDbTextStyleTableRecord
  2
Standard
 70
     0
 40
0.0
 41
1.0
 50
0.0
 71
     0
 42
0.2
  3
arial.ttf
  4

1001
ACAD
1000
Arial
1071
       34
  0
ENDTAB
  0
TABLE
  2
VIEW
  5
6
330
0
100
AcDbSymbolTable
 70
     0
  0
ENDTAB
  0
TABLE
  2
UCS
  5
7
330
0
100
AcDbSymbolTable
 70
     0
  0
ENDTAB
  0
TABLE
  2
APPID
  5
9
330
0
100
AcDbSymbolTable
 70
    31
  0
APPID
  5
12
330
9
100
AcDbSymbolTableRecord
100
AcDbRegAppTableRecord
  2
ACAD
 70
     0
  0
APPID
  5
DD
330
9
100
AcDbSymbolTableRecord
100
AcDbRegAppTableRecord
  2
AcadAnnoPO
 70
     0
  0
APPID
  5
DE
330
9
100
AcDbSymbolTableRecord
100
AcDbRegAppTableRecord
  2
AcadAnnotative
 70
     0
  0
APPID
  5
DF
330
9
100
AcDbSymbolTableRecord
100
AcDbRegAppTableRecord
  2
ACAD_DSTYLE_DIMJAG
 70
     0
  0
APPID
  5
E0
330
9
100
AcDbSymbolTableRecord
100
AcDbRegAppTableRecord
  2
ACAD_DSTYLE_DIMTALN
 70
     0
  0
APPID
  5
107
330
9
100
AcDbSymbolTableRecord
100
AcDbRegAppTableRecord
  2
ACAD_MLEADERVER
 70
     0
  0
APPID
  5
1A6
330
9
100
AcDbSymbolTableRecord
100
AcDbRegAppTableRecord
  2
ACAD_NAV_VCDISPLAY
 70
     0
  0
APPID
  5
205
330
9
100
AcDbSymbolTableRecord
100
AcDbRegAppTableRecord
  2
AcAecLayerStandard
 70
     0
  0
APPID
  5
206
330
9
100
AcDbSymbolTableRecord
100
AcDbRegAppTableRecord
  2
AcCmTransparency
 70
     0
  0
APPID
  5
222
330
9
100
AcDbSymbolTableRecord
100
AcDbRegAppTableRecord
  2
ACAD_PSEXT
 70
     0
  0
APPID
  5
2DA
330
9
100
AcDbSymbolTableRecord
100
AcDbRegAppTableRecord
  2
GradientColor1ACI
 70
     0
  0
APPID
  5
2DB
330
9
100
AcDbSymbolTableRecord
100
AcDbRegAppTableRecord
  2
GradientColor2ACI
 70
     0
  0
APPID
  5
2F3
330
9
100
AcDbSymbolTableRecord
100
AcDbRegAppTableRecord
  2
ACAD_EXEMPT_FROM_CAD_STANDARDS
 70
     0
  0
APPID
  5
A1A
330
9
100
AcDbSymbolTableRecord
100
AcDbRegAppTableRecord
  2
AcDbBlockRepETag
 70
     0
  0
APPID
  5
2282
330
9
100
AcDbSymbolTableRecord
100
AcDbRegAppTableRecord
  2
RAK
 70
     0
  0
APPID
  5
39F4
330
9
100
AcDbSymbolTableRecord
100
AcDbRegAppTableRecord
  2
ACAD_DSTYLE_DIMJOGGED_JOGANGLE_SYMBOL
 70
     0
  0
APPID
  5
39F5
330
9
100
AcDbSymbolTableRecord
100
AcDbRegAppTableRecord
  2
AcDbDynamicBlockGUID
 70
     0
  0
APPID
  5
39F6
330
9
100
AcDbSymbolTableRecord
100
AcDbRegAppTableRecord
  2
ACAD_DSTYLE_DIMBREAK
 70
     0
  0
APPID
  5
3B59
330
9
100
AcDbSymbolTableRecord
100
AcDbRegAppTableRecord
  2
AEC_XDATA_BOUND_SPACE
 70
     0
  0
APPID
  5
75C5
330
9
100
AcDbSymbolTableRecord
100
AcDbRegAppTableRecord
  2
AcDbDynamicBlockTrueName
 70
     0
  0
APPID
  5
75C6
330
9
100
AcDbSymbolTableRecord
100
AcDbRegAppTableRecord
  2
AcDbBlockRepBTag
 70
     0
  0
APPID
  5
75C7
330
9
100
AcDbSymbolTableRecord
100
AcDbRegAppTableRecord
  2
ACAUTHENVIRON
 70
     0
  0
APPID
  5
AA90
330
9
100
AcDbSymbolTableRecord
100
AcDbRegAppTableRecord
  2
Acad_TC
 70
     0
  0
APPID
  5
AA9C
330
9
100
AcDbSymbolTableRecord
100
AcDbRegAppTableRecord
  2
AcDbBlockArrayActionTag
 70
     0
  0
APPID
  5
BEE4
330
9
100
AcDbSymbolTableRecord
100
AcDbRegAppTableRecord
  2
ACAD_DSTYLE_DIMTEXT_FILL
 70
     0
  0
APPID
  5
219E5
330
9
100
AcDbSymbolTableRecord
100
AcDbRegAppTableRecord
  2
AECLAY
 70
     0
  0
APPID
  5
26B46
330
9
100
AcDbSymbolTableRecord
100
AcDbRegAppTableRecord
  2
REVIT
 70
     0
  0
APPID
  5
280A5
330
9
100
AcDbSymbolTableRecord
100
AcDbRegAppTableRecord
  2
HATCHBACKGROUNDCOLOR
 70
     0
  0
APPID
  5
29EE0
330
9
100
AcDbSymbolTableRecord
100
AcDbRegAppTableRecord
  2
ACAD_STEPID
 70
     0
  0
APPID
  5
29EE1
330
9
100
AcDbSymbolTableRecord
100
AcDbRegAppTableRecord
  2
AcLayerTools
 70
     0
  0
APPID
  5
4D86C
330
9
100
AcDbSymbolTableRecord
100
AcDbRegAppTableRecord
  2
PE_URL
 70
     0
  0
ENDTAB
  0
TABLE
  2
DIMSTYLE
  5
A
330
0
100
AcDbSymbolTable
 70
     2
100
AcDbDimStyleTable
 71
     1
340
27
  0
DIMSTYLE
105
27
330
A
100
AcDbSymbolTableRecord
100
AcDbDimStyleTableRecord
  2
Standard
 70
     0
340
11
  0
ENDTAB
  0
TABLE
  2
BLOCK_RECORD
  5
1
330
0
100
AcDbSymbolTable
 70
     2
  0
BLOCK_RECORD
  5
1F
102
{ACAD_XDICTIONARY
360
15D
102
}
330
1
100
AcDbSymbolTableRecord
100
AcDbBlockTableRecord
  2
*Model_Space
340
22
 70
     0
280
     1
281
     0
  0
BLOCK_RECORD
  5
58
330
1
100
AcDbSymbolTableRecord
100
AcDbBlockTableRecord
  2
*Paper_Space
340
59
 70
     0
280
     1
281
     0
  0
BLOCK_RECORD
  5
5D
330
1
100
AcDbSymbolTableRecord
100
AcDbBlockTableRecord
  2
*Paper_Space0
340
5E
 70
     0
280
     1
281
     0
  0
ENDTAB
  0
ENDSEC
  0
SECTION
  2
BLOCKS
  0
BLOCK
  5
20
330
1F
100
AcDbEntity
  8
0
100
AcDbBlockBegin
  2
*Model_Space
 70
     0
 10
0.0
 20
0.0
 30
0.0
  3
*Model_Space
  1

  0
ENDBLK
  5
21
330
1F
100
AcDbEntity
  8
0
100
AcDbBlockEnd
  0
BLOCK
  5
5A
330
58
100
AcDbEntity
 67
     1
  8
0
100
AcDbBlockBegin
  2
*Paper_Space
 70
     0
 10
0.0
 20
0.0
 30
0.0
  3
*Paper_Space
  1

  0
ENDBLK
  5
5B
330
58
100
AcDbEntity
 67
     1
  8
0
100
AcDbBlockEnd
  0
BLOCK
  5
5F
330
5D
100
AcDbEntity
 67
     1
  8
0
100
AcDbBlockBegin
  2
*Paper_Space0
 70
     0
 10
0.0
 20
0.0
 30
0.0
  3
*Paper_Space0
  1

  0
ENDBLK
  5
60
330
5D
100
AcDbEntity
 67
     1
  8
0
100
AcDbBlockEnd
  0
ENDSEC
  0
SECTION
  2
ENTITIES
  0
SPLINE
  5
569AE
330
1F
100
AcDbEntity
  8
freecads.com
100
AcDbSpline
210
0.0
220
0.0
230
1.0
 70
     8
 71
     3
 72
    21
 73
    17
 74
     0
 42
0.000000001
 43
0.0000000001
 40
0.0
 40
0.0
 40
0.0
 40
0.0
 40
0.1428571428571428
 40
0.2857142857142857
 40
0.3571428571428571
 40
0.4285714285714289
 40
0.5
 40
0.5357142857142857
 40
0.5714285714285714
 40
0.678571428571429
 40
0.7053571428571429
 40
0.7321428571428572
 40
0.7857142857142857
 40
0.8392857142857142
 40
0.8928571428571427
 40
1.0
 40
1.0
 40
1.0
 40
1.0
 10
156306.1960716126
 20
114170.1574760225
 30
0.0
 10
156306.0577274907
 20
114172.5752835052
 30
0.0
 10
156305.3908758974
 20
114177.1988699353
 30
0.0
 10
156303.5011148362
 20
114182.6278143056
 30
0.0
 10
156301.5010060247
 20
114186.4374885678
 30
0.0
 10
156299.7970395296
 20
114189.0333200405
 30
0.0
 10
156298.2467149061
 20
114190.9155954393
 30
0.0
 10
156296.9280140968
 20
114192.2703944786
 30
0.0
 10
156295.2722855524
 20
114193.8187582289
 30
0.0
 10
156293.6170012842
 20
114195.0114020522
 30
0.0
 10
156292.0423165786
 20
114195.9196147428
 30
0.0
 10
156291.0009631235
 20
114196.4664912915
 30
0.0
 10
156289.6864579481
 20
114197.0282752803
 30
0.0
 10
156288.1120603921
 20
114197.5322172803
 30
0.0
 10
156286.0372646671
 20
114198.0050681643
 30
0.0
 10
156284.4930621333
 20
114198.1153972077
 30
0.0
 10
156283.4698998464
 20
114198.0817234816
 30
0.0
  0
SPLINE
  5
569AF
330
1F
100
AcDbEntity
  8
freecads.com
100
AcDbSpline
210
0.0
220
0.0
230
1.0
 70
     8
 71
     3
 72
    20
 73
    16
 74
     0
 42
0.000000001
 43
0.0000000001
 40
0.0
 40
0.0
 40
0.0
 40
0.0
 40
0.125
 40
0.25
 40
0.375
 40
0.4375
 40
0.5
 40
0.5625
 40
0.59375
 40
0.625
 40
0.6875
 40
0.75
 40
0.8125
 40
0.875
 40
1.0
 40
1.0
 40
1.0
 40
1.0
 10
156262.1638225198
 20
114170.1574772587
 30
0.0
 10
156262.100411343
 20
114167.877155014
 30
0.0
 10
156262.3454539311
 20
114163.43648651
 30
0.0
 10
156263.8834303498
 20
114156.9592298013
 30
0.0
 10
156266.0033659019
 20
114152.1550964361
 30
0.0
 10
156268.0894556452
 20
114148.8108752177
 30
0.0
 10
156269.8107134291
 20
114146.5603539607
 30
0.0
 10
156271.337016761
 20
114144.9432945886
 30
0.0
 10
156272.6158029392
 20
114143.7906940231
 30
0.0
 10
156273.8955837212
 20
114142.7387892117
 30
0.0
 10
156275.5345885932
 20
114141.6215929194
 30
0.0
 10
156277.527488863
 20
114140.5641849142
 30
0.0
 10
156279.5017931419
 20
114139.7922009722
 30
0.0
 10
156282.1332821961
 20
114139.1191929963
 30
0.0
 10
156284.0736704636
 20
114138.9750307437
 30
0.0
 10
156285.3598472681
 20
114139.0506322302
 30
0.0
  0
LINE
  5
569B0
330
1F
100
AcDbEntity
  8
freecads.com
100
AcDbLine
 10
156283.4698998464
 20
114198.0817234816
 30
0.0
 11
156284.3639256271
 21
114170.1574766774
 31
0.0
  0
LINE
  5
569B1
330
1F
100
AcDbEntity
  8
freecads.com
100
AcDbLine
 10
156284.3639256271
 20
114170.1574766774
 30
0.0
 11
156306.1960716126
 21
114170.1574760225
 31
0.0
  0
LINE
  5
569B2
330
1F
100
AcDbEntity
  8
freecads.com
100
AcDbLine
 10
156285.3598472681
 20
114139.0506322302
 30
0.0
 11
156284.3639256271
 21
114170.1574766774
 31
0.0
  0
LINE
  5
569B3
330
1F
100
AcDbEntity
  8
freecads.com
100
AcDbLine
 10
156284.3639256271
 20
114170.1574766774
 30
0.0
 11
156262.1638225198
 21
114170.1574772587
 31
0.0
  0
ARC
  5
569B4
330
1F
100
AcDbEntity
  8
freecads.com
100
AcDbCircle
 10
154141.3262036003
 20
114048.0175128207
 30
0.0
 40
2319.273895686952
100
AcDbArc
 50
3.018763923042736
 51
22.33632329458091
1001
REVIT
1002
{
1070
     3
1000
774350
1002
}
  0
ARC
  5
569B5
330
1F
100
AcDbEntity
  8
freecads.com
100
AcDbCircle
 10
155971.6273684208
 20
114625.2185503577
 30
0.0
 40
437.8901601738506
100
AcDbArc
 50
44.00688254545884
 51
79.62630516704975
1001
REVIT
1002
{
1070
     3
1000
774350
1002
}
  0
ARC
  5
569B6
330
1F
100
AcDbEntity
  8
freecads.com
100
AcDbCircle
 10
156122.4702617744
 20
115449.2272670622
 30
0.0
 40
399.8114235271787
100
AcDbArc
 50
243.5416618487828
 51
259.6263051670497
1001
REVIT
1002
{
1070
     3
1000
774350
1002
}
  0
ARC
  5
569B7
330
1F
100
AcDbEntity
  8
freecads.com
100
AcDbCircle
 10
154291.1273485719
 20
83759.23336000928
 30
0.0
 40
31375.64404514904
100
AcDbArc
 50
86.9796523800449
 51
89.31628261278031
1001
REVIT
1002
{
1070
     3
1000
774350
1002
}
  0
ARC
  5
569B8
330
1F
100
AcDbEntity
  8
freecads.com
100
AcDbCircle
 10
155280.710970088
 20
114235.6637030563
 30
0.0
 40
1106.363427352014
100
AcDbArc
 50
356.605610755875
 51
17.14456181234796
1001
REVIT
1002
{
1070
     3
1000
774350
1002
}
  0
ARC
  5
569B9
330
1F
100
AcDbEntity
  8
freecads.com
100
AcDbCircle
 10
156213.8986483767
 20
114523.5446294414
 30
0.0
 40
129.7802664582599
100
AcDbArc
 50
17.14456181234796
 51
26.5016892672066
1001
REVIT
1002
{
1070
     3
1000
774350
1002
}
  0
ARC
  5
569BA
330
1F
100
AcDbEntity
  8
freecads.com
100
AcDbCircle
 10
154684.0465328207
 20
114204.6115288648
 30
0.0
 40
1688.582800055934
100
AcDbArc
 50
12.89539962775943
 51
25.19473807748955
1001
REVIT
1002
{
1070
     3
1000
774350
1002
}
  0
ARC
  5
569BB
330
1F
100
AcDbEntity
  8
freecads.com
100
AcDbCircle
 10
156016.222595756
 20
114822.9481982377
 30
0.0
 40
220.0491411127254
100
AcDbArc
 50
27.17134903964516
 51
71.30583870011155
1001
REVIT
1002
{
1070
     3
1000
774350
1002
}
  0
ARC
  5
569BC
330
1F
100
AcDbEntity
  8
freecads.com
100
AcDbCircle
 10
156024.4688853984
 20
114863.3629699554
 30
0.0
 40
179.19726260351
100
AcDbArc
 50
69.66140313371136
 51
99.68061555129033
1001
REVIT
1002
{
1070
     3
1000
774350
1002
}
  0
ARC
  5
569BD
330
1F
100
AcDbEntity
  8
freecads.com
100
AcDbCircle
 10
156009.3999854107
 20
115034.6921325174
 30
0.0
 40
15.97475164149598
100
AcDbArc
 50
160.5611354387752
 51
273.2391730731686
1001
REVIT
1002
{
1070
     3
1000
774350
1002
}
  0
ARC
  5
569BE
330
1F
100
AcDbEntity
  8
freecads.com
100
AcDbCircle
 10
156009.8610268397
 20
114879.3736709314
 30
0.0
 40
139.3699311892073
100
AcDbArc
 50
51.4666173989141
 51
89.81845207578654
1001
REVIT
1002
{
1070
     3
1000
774350
1002
}
  0
ARC
  5
569BF
330
1F
100
AcDbEntity
  8
freecads.com
100
AcDbCircle
 10
155978.0853076611
 20
114826.9383579996
 30
0.0
 40
200.3348096893057
100
AcDbArc
 50
26.94948881064381
 51
53.70062280602109
1001
REVIT
1002
{
1070
     3
1000
774350
1002
}
  0
ARC
  5
569C0
330
1F
100
AcDbEntity
  8
freecads.com
100
AcDbCircle
 10
163000.1181182412
 20
117958.0548280642
 30
0.0
 40
7488.418969460976
100
AcDbArc
 50
203.9540211665928
 51
205.2739639639965
1001
REVIT
1002
{
1070
     3
1000
774350
1002
}
  0
ARC
  5
569C1
330
1F
100
AcDbEntity
  8
freecads.com
100
AcDbCircle
 10
157729.2828351581
 20
115469.4721721698
 30
0.0
 40
1659.632798507045
100
AcDbArc
 50
205.2739639639965
 51
210.5728083487523
1001
REVIT
1002
{
1070
     3
1000
774350
1002
}
  0
ARC
  5
569C2
330
1F
100
AcDbEntity
  8
freecads.com
100
AcDbCircle
 10
158658.6574003743
 20
114682.8086264582
 30
0.0
 40
2360.762156364387
100
AcDbArc
 50
182.6217511188357
 51
191.2266656299294
1001
REVIT
1002
{
1070
     3
1000
774350
1002
}
  0
ARC
  5
569C3
330
1F
100
AcDbEntity
  8
freecads.com
100
AcDbCircle
 10
156420.1047313748
 20
114238.4805665656
 30
0.0
 40
78.53835649790312
100
AcDbArc
 50
191.2266656299294
 51
221.9540404817177
1001
REVIT
1002
{
1070
     3
1000
774350
1002
}
  0
ARC
  5
569C4
330
1F
100
AcDbEntity
  8
freecads.com
100
AcDbCircle
 10
156380.2542880459
 20
114202.6569234214
 30
0.0
 40
24.95299158186757
100
AcDbArc
 50
221.9540404817177
 51
282.3357374799065
1001
REVIT
1002
{
1070
     3
1000
774350
1002
}
  0
ARC
  5
569C5
330
1F
100
AcDbEntity
  8
freecads.com
100
AcDbCircle
 10
154080.3251005626
 20
107744.2770021946
 30
0.0
 40
7295.284209831097
100
AcDbArc
 50
76.38558700909722
 51
83.05899788074839
1001
REVIT
1002
{
1070
     3
1000
774350
1002
}
  0
ARC
  5
569C6
330
1F
100
AcDbEntity
  8
freecads.com
100
AcDbCircle
 10
155440.9016359563
 20
113362.0447453816
 30
0.0
 40
1515.104028809141
100
AcDbArc
 50
60.88578532077135
 51
76.38558700909722
1001
REVIT
1002
{
1070
     3
1000
774350
1002
}
  0
ARC
  5
569C7
330
1F
100
AcDbEntity
  8
freecads.com
100
AcDbCircle
 10
155971.2576926121
 20
114314.3501719959
 30
0.0
 40
425.0750508868411
100
AcDbArc
 50
39.07231740978913
 51
60.88578532077135
1001
REVIT
1002
{
1070
     3
1000
774350
1002
}
  0
ARC
  5
569C8
330
1F
100
AcDbEntity
  8
freecads.com
100
AcDbCircle
 10
156345.2642565719
 20
114617.9969855952
 30
0.0
 40
56.67415495318806
100
AcDbArc
 50
219.0723174097891
 51
262.5460810370225
1001
REVIT
1002
{
1070
     3
1000
774350
1002
}
  0
ARC
  5
569C9
330
1F
100
AcDbEntity
  8
freecads.com
100
AcDbCircle
 10
154565.9689839142
 20
110725.9058577863
 30
0.0
 40
4317.872545268015
100
AcDbArc
 50
73.64860546569936
 51
82.28587140085513
1001
REVIT
1002
{
1070
     3
1000
774350
1002
}
  0
ARC
  5
569CA
330
1F
100
AcDbEntity
  8
freecads.com
100
AcDbCircle
 10
155143.7303262604
 20
112695.1351959208
 30
0.0
 40
2265.636605081069
100
AcDbArc
 50
63.06278196685171
 51
73.64860546569936
1001
REVIT
1002
{
1070
     3
1000
774350
1002
}
  0
ARC
  5
569CB
330
1F
100
AcDbEntity
  8
freecads.com
100
AcDbCircle
 10
156256.7373918802
 20
114898.0733968582
 30
0.0
 40
15.20132738342708
100
AcDbArc
 50
116.6053689712545
 51
234.6330408199384
1001
REVIT
1002
{
1070
     3
1000
774350
1002
}
  0
ARC
  5
569CC
330
1F
100
AcDbEntity
  8
freecads.com
100
AcDbCircle
 10
156318.3806670523
 20
114915.1568034552
 30
0.0
 40
76.36172212275429
100
AcDbArc
 50
202.7089925467858
 51
272.4164311731039
1001
REVIT
1002
{
1070
     3
1000
774350
1002
}
  0
ARC
  5
569CD
330
1F
100
AcDbEntity
  8
freecads.com
100
AcDbCircle
 10
156233.7119560412
 20
114367.4276086187
 30
0.0
 40
193.1214259846862
100
AcDbArc
 50
356.1876970820013
 51
53.21615629854765
1001
REVIT
1002
{
1070
     3
1000
774350
1002
}
  0
ARC
  5
569CE
330
1F
100
AcDbEntity
  8
freecads.com
100
AcDbCircle
 10
156803.5606952464
 20
114329.4554128103
 30
0.0
 40
377.9910620218798
100
AcDbArc
 50
176.1876970820013
 51
195.2459649941719
1001
REVIT
1002
{
1070
     3
1000
774350
1002
}
  0
ARC
  5
569CF
330
1F
100
AcDbEntity
  8
freecads.com
100
AcDbCircle
 10
156448.8353403044
 20
114232.7729326093
 30
0.0
 40
10.32602476268412
100
AcDbArc
 50
195.2459649941719
 51
299.5612854072642
1001
REVIT
1002
{
1070
     3
1000
774350
1002
}
  0
ARC
  5
569D0
330
1F
100
AcDbEntity
  8
freecads.com
100
AcDbCircle
 10
158307.6628480555
 20
114630.2409771378
 30
0.0
 40
1988.393098527438
100
AcDbArc
 50
182.4082502034617
 51
192.0965758207963
1001
REVIT
1002
{
1070
     3
1000
774350
1002
}
  0
ARC
  5
569D1
330
1F
100
AcDbEntity
  8
freecads.com
100
AcDbCircle
 10
156387.9472189107
 20
114218.8100435982
 30
0.0
 40
25.0837730954953
100
AcDbArc
 50
192.0965758207963
 51
266.1921187134414
1001
REVIT
1002
{
1070
     3
1000
774350
1002
}
  0
ARC
  5
569D2
330
1F
100
AcDbEntity
  8
freecads.com
100
AcDbCircle
 10
153606.5913905017
 20
114263.2899076589
 30
0.0
 40
1728.747947253833
100
AcDbArc
 50
356.9118234789973
 51
6.449576189004144
1001
REVIT
1002
{
1070
     3
1000
774350
1002
}
  0
ARC
  5
569D3
330
1F
100
AcDbEntity
  8
freecads.com
100
AcDbCircle
 10
155209.1206651844
 20
114444.4469642142
 30
0.0
 40
116.0117767631294
100
AcDbArc
 50
6.449576189004144
 51
45.33268343089679
1001
REVIT
1002
{
1070
     3
1000
774350
1002
}
  0
ARC
  5
569D4
330
1F
100
AcDbEntity
  8
freecads.com
100
AcDbCircle
 10
155227.7494914196
 20
114463.2933920113
 30
0.0
 40
89.51232305162147
100
AcDbArc
 50
45.33268343089679
 51
83.43452285244289
1001
REVIT
1002
{
1070
     3
1000
774350
1002
}
  0
ARC
  5
569D5
330
1F
100
AcDbEntity
  8
freecads.com
100
AcDbCircle
 10
155232.5888717001
 20
114505.3407892923
 30
0.0
 40
47.18735142829574
100
AcDbArc
 50
83.43452285244289
 51
120.7291990766191
1001
REVIT
1002
{
1070
     3
1000
774350
1002
}
  0
ARC
  5
569D6
330
1F
100
AcDbEntity
  8
freecads.com
100
AcDbCircle
 10
155224.0732494606
 20
114519.6660945378
 30
0.0
 40
30.52211311503131
100
AcDbArc
 50
120.7291990766191
 51
186.0901070576111
1001
REVIT
1002
{
1070
     3
1000
774350
1002
}
  0
ARC
  5
569D7
330
1F
100
AcDbEntity
  8
freecads.com
100
AcDbCircle
 10
153802.62620065
 20
114368.0051622411
 30
0.0
 40
1398.992754021846
100
AcDbArc
 50
2.716928663752196
 51
6.090107057611147
1001
REVIT
1002
{
1070
     3
1000
774350
1002
}
  0
ARC
  5
569D8
330
1F
100
AcDbEntity
  8
freecads.com
100
AcDbCircle
 10
151854.0075530512
 20
114275.5334811694
 30
0.0
 40
3349.804288133308
100
AcDbArc
 50
358.1973293087549
 51
2.716928663752196
1001
REVIT
1002
{
1070
     3
1000
774350
1002
}
  0
ARC
  5
569D9
330
1F
100
AcDbEntity
  8
freecads.com
100
AcDbCircle
 10
153606.5913905017
 20
114263.2899076589
 30
0.0
 40
1713.994315957886
100
AcDbArc
 50
356.8852171617391
 51
6.449576189004144
1001
REVIT
1002
{
1070
     3
1000
774350
1002
}
  0
ARC
  5
569DA
330
1F
100
AcDbEntity
  8
freecads.com
100
AcDbCircle
 10
155209.1206651844
 20
114444.4469642142
 30
0.0
 40
101.2581454671467
100
AcDbArc
 50
6.449576189004144
 51
45.33268343089679
1001
REVIT
1002
{
1070
     3
1000
774350
1002
}
  0
ARC
  5
569DB
330
1F
100
AcDbEntity
  8
freecads.com
100
AcDbCircle
 10
155227.7494914196
 20
114463.2933920113
 30
0.0
 40
74.75869175567358
100
AcDbArc
 50
45.33268343089679
 51
83.8253793643998
1001
REVIT
1002
{
1070
     3
1000
774350
1002
}
  0
ARC
  5
569DC
330
1F
100
AcDbEntity
  8
freecads.com
100
AcDbCircle
 10
155232.5888717001
 20
114505.3407892923
 30
0.0
 40
32.43372013233062
100
AcDbArc
 50
83.43452285244289
 51
120.7291990766191
1001
REVIT
1002
{
1070
     3
1000
774350
1002
}
  0
ARC
  5
569DD
330
1F
100
AcDbEntity
  8
freecads.com
100
AcDbCircle
 10
155224.0732494606
 20
114519.6660945378
 30
0.0
 40
15.76848181906687
100
AcDbArc
 50
120.7291990766191
 51
186.0901070576111
1001
REVIT
1002
{
1070
     3
1000
774350
1002
}
  0
ARC
  5
569DE
330
1F
100
AcDbEntity
  8
freecads.com
100
AcDbCircle
 10
153802.62620065
 20
114368.0051622411
 30
0.0
 40
1413.746385318912
100
AcDbArc
 50
2.716928663752196
 51
6.090107057611147
1001
REVIT
1002
{
1070
     3
1000
774350
1002
}
  0
ARC
  5
569DF
330
1F
100
AcDbEntity
  8
freecads.com
100
AcDbCircle
 10
151854.0075530512
 20
114275.5334811694
 30
0.0
 40
3364.557919429702
100
AcDbArc
 50
358.2052374726762
 51
2.716928663752196
1001
REVIT
1002
{
1070
     3
1000
774350
1002
}
  0
ARC
  5
569E0
330
1F
100
AcDbEntity
  8
freecads.com
100
AcDbCircle
 10
153481.5799879959
 20
114258.026567399
 30
0.0
 40
1790.176866536691
100
AcDbArc
 50
357.1865638288876
 51
8.886882355897181
1001
REVIT
1002
{
1070
     3
1000
774350
1002
}
  0
ARC
  5
569E1
330
1F
100
AcDbEntity
  8
freecads.com
100
AcDbCircle
 10
153468.9340528285
 20
114249.6052124837
 30
0.0
 40
1790.176866536701
100
AcDbArc
 50
357.4563901500053
 51
9.258288405898806
1001
REVIT
1002
{
1070
     3
1000
774350
1002
}
  0
ARC
  5
569E2
330
1F
100
AcDbEntity
  8
freecads.com
100
AcDbCircle
 10
153456.2880772546
 20
114247.499879046
 30
0.0
 40
1790.176866536708
100
AcDbArc
 50
357.523836239958
 51
9.284708081322943
1001
REVIT
1002
{
1070
     3
1000
774350
1002
}
  0
ARC
  5
569E3
330
1F
100
AcDbEntity
  8
freecads.com
100
AcDbCircle
 10
153447.8574540465
 20
114241.1838578274
 30
0.0
 40
1790.176866536698
100
AcDbArc
 50
357.7261602549965
 51
9.349314789590609
1001
REVIT
1002
{
1070
     3
1000
774350
1002
}
  0
ARC
  5
569E4
330
1F
100
AcDbEntity
  8
freecads.com
100
AcDbCircle
 10
153498.4412737201
 20
114226.4464788671
 30
0.0
 40
1790.176866536734
100
AcDbArc
 50
358.198139317398
 51
9.740515044547164
1001
REVIT
1002
{
1070
     3
1000
774350
1002
}
  0
ARC
  5
569E5
330
1F
100
AcDbEntity
  8
freecads.com
100
AcDbCircle
 10
153513.1948620791
 20
114226.4464784572
 30
0.0
 40
1790.176866536737
100
AcDbArc
 50
358.198139317398
 51
9.345105105812402
1001
REVIT
1002
{
1070
     3
1000
774350
1002
}
  0
ARC
  5
569E6
330
1F
100
AcDbEntity
  8
freecads.com
100
AcDbCircle
 10
156495.2922839355
 20
150190.9516734692
 30
0.0
 40
35184.98689755768
100
AcDbArc
 50
267.3553315028091
 51
268.7195633181524
1001
REVIT
1002
{
1070
     3
1000
774350
1002
}
  0
ARC
  5
569E7
330
1F
100
AcDbEntity
  8
freecads.com
100
AcDbCircle
 10
155549.2744839375
 20
112185.4851035718
 30
0.0
 40
2833.773058896515
100
AcDbArc
 50
78.20932133079509
 51
86.76795097496627
1001
REVIT
1002
{
1070
     3
1000
774350
1002
}
  0
ARC
  5
569E8
330
1F
100
AcDbEntity
  8
freecads.com
100
AcDbCircle
 10
155735.4906047966
 20
113414.7307366226
 30
0.0
 40
1577.013616330888
100
AcDbArc
 50
74.94693138697066
 51
89.70457517018397
1001
REVIT
1002
{
1070
     3
1000
774350
1002
}
  0
ARC
  5
569E9
330
1F
100
AcDbEntity
  8
freecads.com
100
AcDbCircle
 10
157147.0108965134
 20
151475.1480217124
 30
0.0
 40
36510.40637643726
100
AcDbArc
 50
266.8328468190879
 51
267.7971141358174
1001
REVIT
1002
{
1070
     3
1000
774350
1002
}
  0
ARC
  5
569EA
330
1F
100
AcDbEntity
  8
freecads.com
100
AcDbCircle
 10
155110.1425139481
 20
114664.4563568365
 30
0.0
 40
356.595856849707
100
AcDbArc
 50
86.83284681908789
 51
119.6200633182126
1001
REVIT
1002
{
1070
     3
1000
774350
1002
}
  0
ARC
  5
569EB
330
1F
100
AcDbEntity
  8
freecads.com
100
AcDbCircle
 10
155928.7774229213
 20
109215.1713638247
 30
0.0
 40
5844.579767666106
100
AcDbArc
 50
99.80077070702268
 51
105.4773884176591
1001
REVIT
1002
{
1070
     3
1000
774350
1002
}
  0
ARC
  5
569EC
330
1F
100
AcDbEntity
  8
freecads.com
100
AcDbCircle
 10
153936.236067688
 20
116411.0765490411
 30
0.0
 40
1622.097705771437
100
AcDbArc
 50
272.2206556984825
 51
285.4773884176591
1001
REVIT
1002
{
1070
     3
1000
774350
1002
}
  0
ARC
  5
569ED
330
1F
100
AcDbEntity
  8
freecads.com
100
AcDbCircle
 10
153264.5216478595
 20
136380.210866413
 30
0.0
 40
21602.50650775148
100
AcDbArc
 50
268.9172029216582
 51
271.9486577487207
1001
REVIT
1002
{
1070
     3
1000
774350
1002
}
  0
ARC
  5
569EE
330
1F
100
AcDbEntity
  8
freecads.com
100
AcDbCircle
 10
153593.2593326349
 20
124416.2658665467
 30
0.0
 40
9662.848175235751
100
AcDbArc
 50
260.3135220718718
 51
265.6259532231768
1001
REVIT
1002
{
1070
     3
1000
774350
1002
}
  0
ARC
  5
569EF
330
1F
100
AcDbEntity
  8
freecads.com
100
AcDbCircle
 10
151775.9137774586
 20
114736.9216840332
 30
0.0
 40
245.906679625755
100
AcDbArc
 50
38.8511849269368
 51
66.91617292396547
1001
REVIT
1002
{
1070
     3
1000
774350
1002
}
  0
ARC
  5
569F0
330
1F
100
AcDbEntity
  8
freecads.com
100
AcDbCircle
 10
151800.9508567828
 20
114795.6662641551
 30
0.0
 40
182.0491739234228
100
AcDbArc
 50
66.91617292396547
 51
87.27215858009383
1001
REVIT
1002
{
1070
     3
1000
774350
1002
}
  0
ARC
  5
569F1
330
1F
100
AcDbEntity
  8
freecads.com
100
AcDbCircle
 10
154897.5119995462
 20
114695.5932684497
 30
0.0
 40
298.3739115170132
100
AcDbArc
 50
88.17401329393845
 51
98.55149281592289
1001
REVIT
1002
{
1070
     3
1000
774350
1002
}
  0
ARC
  5
569F2
330
1F
100
AcDbEntity
  8
freecads.com
100
AcDbCircle
 10
153548.2630379077
 20
119689.3201864036
 30
0.0
 40
4876.496312306848
100
AcDbArc
 50
280.7778373921443
 51
285.5206635471331
1001
REVIT
1002
{
1070
     3
1000
774350
1002
}
  0
ARC
  5
569F3
330
1F
100
AcDbEntity
  8
freecads.com
100
AcDbCircle
 10
155632.2578242276
 20
108741.6218122093
 30
0.0
 40
6267.790742416689
100
AcDbArc
 50
100.7778373921443
 51
103.7725845238715
1001
REVIT
1002
{
1070
     3
1000
774350
1002
}
  0
ARC
  5
569F4
330
1F
100
AcDbEntity
  8
freecads.com
100
AcDbCircle
 10
153929.0293544578
 20
115690.2768758951
 30
0.0
 40
886.5641844786471
100
AcDbArc
 50
268.8939523980191
 51
283.7725845238716
1001
REVIT
1002
{
1070
     3
1000
774350
1002
}
  0
ARC
  5
569F5
330
1F
100
AcDbEntity
  8
freecads.com
100
AcDbCircle
 10
153494.8966177985
 20
88846.16731637846
 30
0.0
 40
25961.0601225649
100
AcDbArc
 50
89.07959637284685
 51
90.92040150412319
1001
REVIT
1002
{
1070
     3
1000
774350
1002
}
  0
ARC
  5
569F6
330
1F
100
AcDbEntity
  8
freecads.com
100
AcDbCircle
 10
153016.2642775797
 20
117995.2768994171
 30
0.0
 40
3191.993721204705
100
AcDbArc
 50
258.8045468204295
 51
271.1060417762229
1001
REVIT
1002
{
1070
     3
1000
774350
1002
}
  0
ARC
  5
569F7
330
1F
100
AcDbEntity
  8
freecads.com
100
AcDbCircle
 10
151862.6496573349
 20
112166.665049697
 30
0.0
 40
2749.684727464771
100
AcDbArc
 50
78.80454682042945
 51
86.59983335191288
1001
REVIT
1002
{
1070
     3
1000
774350
1002
}
  0
ARC
  5
569F8
330
1F
100
AcDbEntity
  8
freecads.com
100
AcDbCircle
 10
152002.8474290979
 20
114883.3567714691
 30
0.0
 40
36.28018233080771
100
AcDbArc
 50
50.89374576770712
 51
167.5491780101495
1001
REVIT
1002
{
1070
     3
1000
774350
1002
}
  0
ARC
  5
569F9
330
1F
100
AcDbEntity
  8
freecads.com
100
AcDbCircle
 10
152902.7759898662
 20
114325.5875017761
 30
0.0
 40
1093.061498201522
100
AcDbArc
 50
148.8394590465057
 51
175.5029684472761
1001
REVIT
1002
{
1070
     3
1000
774350
1002
}
  0
ARC
  5
569FA
330
1F
100
AcDbEntity
  8
freecads.com
100
AcDbCircle
 10
154117.1300851031
 20
114230.0790358472
 30
0.0
 40
2311.165654934861
100
AcDbArc
 50
175.5029684472761
 51
181.4856700644675
1001
REVIT
1002
{
1070
     3
1000
774350
1002
}
  0
ARC
  5
569FB
330
1F
100
AcDbEntity
  8
freecads.com
100
AcDbCircle
 10
154707.8639602685
 20
114709.5243282461
 30
0.0
 40
361.8198226208936
100
AcDbArc
 50
15.59530513505895
 51
48.70391983268811
1001
REVIT
1002
{
1070
     3
1000
774350
1002
}
  0
ARC
  5
569FC
330
1F
100
AcDbEntity
  8
freecads.com
100
AcDbCircle
 10
152546.4103650775
 20
114106.2268696522
 30
0.0
 40
2605.889667596755
100
AcDbArc
 50
10.30834780570356
 51
15.59530513505895
1001
REVIT
1002
{
1070
     3
1000
774350
1002
}
  0
ARC
  5
569FD
330
1F
100
AcDbEntity
  8
freecads.com
100
AcDbCircle
 10
153696.2012724291
 20
114315.352502995
 30
0.0
 40
1437.235458102347
100
AcDbArc
 50
354.2018723362308
 51
10.30834780570356
1001
REVIT
1002
{
1070
     3
1000
774350
1002
}
  0
ARC
  5
569FE
330
1F
100
AcDbEntity
  8
freecads.com
100
AcDbCircle
 10
153904.3320789946
 20
115007.041190027
 30
0.0
 40
172.4607848078545
100
AcDbArc
 50
133.4745260074516
 51
169.4117348493556
1001
REVIT
1002
{
1070
     3
1000
774350
1002
}
  0
ARC
  5
569FF
330
1F
100
AcDbEntity
  8
freecads.com
100
AcDbCircle
 10
153978.7558386783
 20
114779.3296591133
 30
0.0
 40
356.0893700105228
100
AcDbArc
 50
133.2415239080008
 51
169.9031565006378
1001
REVIT
1002
{
1070
     3
1000
774350
1002
}
  0
ARC
  5
56A00
330
1F
100
AcDbEntity
  8
freecads.com
100
AcDbCircle
 10
153910.3105034342
 20
116507.1903684039
 30
0.0
 40
1660.077807716358
100
AcDbArc
 50
271.8194166302026
 51
287.8573367598463
1001
REVIT
1002
{
1070
     3
1000
774350
1002
}
  0
ARC
  5
56A01
330
1F
100
AcDbEntity
  8
freecads.com
100
AcDbCircle
 10
153492.1242855534
 20
132261.5861933684
 30
0.0
 40
17420.00240470319
100
AcDbArc
 50
268.4509956542567
 51
271.5490020754123
1001
REVIT
1002
{
1070
     3
1000
774350
1002
}
  0
ARC
  5
56A02
330
1F
100
AcDbEntity
  8
freecads.com
100
AcDbCircle
 10
153093.5296498977
 20
117123.9786231383
 30
0.0
 40
2277.177141875201
100
AcDbArc
 50
256.00161559349
 51
268.1805663507802
1001
REVIT
1002
{
1070
     3
1000
774350
1002
}
  0
ARC
  5
56A03
330
1F
100
AcDbEntity
  8
freecads.com
100
AcDbCircle
 10
152597.939142767
 20
115136.0338234165
 30
0.0
 40
228.3886030258161
100
AcDbArc
 50
230.9187041571764
 51
256.00161559349
1001
REVIT
1002
{
1070
     3
1000
774350
1002
}
  0
ARC
  5
56A04
330
1F
100
AcDbEntity
  8
freecads.com
100
AcDbCircle
 10
152465.5270272919
 20
114972.9919492685
 30
0.0
 40
18.35141367553926
100
AcDbArc
 50
129.081294074494
 51
230.9187041571764
1001
REVIT
1002
{
1070
     3
1000
774350
1002
}
  0
ARC
  5
56A05
330
1F
100
AcDbEntity
  8
freecads.com
100
AcDbCircle
 10
152653.3292797951
 20
171920.2072808491
 30
0.0
 40
56910.96557130292
100
AcDbArc
 50
269.8662706143111
 51
271.0694528206171
1001
REVIT
1002
{
1070
     3
1000
774350
1002
}
  0
ARC
  5
56A06
330
1F
100
AcDbEntity
  8
freecads.com
100
AcDbCircle
 10
154149.8508811388
 20
94479.7454750609
 30
0.0
 40
20544.00117228571
100
AcDbArc
 50
88.78863769083023
 51
91.21135872151754
1001
REVIT
1002
{
1070
     3
1000
774350
1002
}
  0
ARC
  5
56A07
330
1F
100
AcDbEntity
  8
freecads.com
100
AcDbCircle
 10
152712.165848103
 20
114900.6690270435
 30
0.0
 40
234.2116860409007
100
AcDbArc
 50
96.51219437183193
 51
147.7422170201678
1001
REVIT
1002
{
1070
     3
1000
774350
1002
}
  0
ARC
  5
56A08
330
1F
100
AcDbEntity
  8
freecads.com
100
AcDbCircle
 10
152817.7814250872
 20
103570.7186147379
 30
0.0
 40
11433.23494709971
100
AcDbArc
 50
92.06887603606357
 51
95.61901461856388
1001
REVIT
1002
{
1070
     3
1000
774350
1002
}
  0
ARC
  5
56A09
330
1F
100
AcDbEntity
  8
freecads.com
100
AcDbCircle
 10
151728.7317107371
 20
114639.8663147287
 30
0.0
 40
310.6426196503456
100
AcDbArc
 50
95.61901461856388
 51
139.5552247075857
1001
REVIT
1002
{
1070
     3
1000
774350
1002
}
  0
ARC
  5
56A0A
330
1F
100
AcDbEntity
  8
freecads.com
100
AcDbCircle
 10
151768.6389043781
 20
114605.8488028147
 30
0.0
 40
363.0809177375907
100
AcDbArc
 50
139.5552247075857
 51
164.1091077354978
1001
REVIT
1002
{
1070
     3
1000
774350
1002
}
  0
ARC
  5
56A0B
330
1F
100
AcDbEntity
  8
freecads.com
100
AcDbCircle
 10
152888.2261226535
 20
114287.1181462361
 30
0.0
 40
1527.153412207741
100
AcDbArc
 50
164.1091077354978
 51
184.3924255752018
1001
REVIT
1002
{
1070
     3
1000
774350
1002
}
  0
ARC
  5
56A0C
330
1F
100
AcDbEntity
  8
freecads.com
100
AcDbCircle
 10
155971.0653739324
 20
105861.4365892694
 30
0.0
 40
10122.02902811093
100
AcDbArc
 50
114.6749922495697
 51
115.3452995641936
1001
REVIT
1002
{
1070
     3
1000
774350
1002
}
  0
ARC
  5
56A0D
330
1F
100
AcDbEntity
  8
freecads.com
100
AcDbCircle
 10
151919.8833440062
 20
114414.2689313659
 30
0.0
 40
658.255103074657
100
AcDbArc
 50
115.3452995641936
 51
128.1466129856133
1001
REVIT
1002
{
1070
     3
1000
774350
1002
}
  0
ARC
  5
56A0E
330
1F
100
AcDbEntity
  8
freecads.com
100
AcDbCircle
 10
151636.2056621239
 20
114826.4089300049
 30
0.0
 40
210.9490972314789
100
AcDbArc
 50
99.15162495486711
 51
157.2859741119782
1001
REVIT
1002
{
1070
     3
1000
774350
1002
}
  0
ARC
  5
56A0F
330
1F
100
AcDbEntity
  8
freecads.com
100
AcDbCircle
 10
146418.4874653856
 20
117010.5285573198
 30
0.0
 40
5445.459810124992
100
AcDbArc
 50
336.271124962586
 51
337.2859741119782
1001
REVIT
1002
{
1070
     3
1000
774350
1002
}
  0
ARC
  5
56A10
330
1F
100
AcDbEntity
  8
freecads.com
100
AcDbCircle
 10
151970.1289370612
 20
114570.1905681391
 30
0.0
 40
618.8598164025492
100
AcDbArc
 50
156.2711249625861
 51
185.6992645651429
1001
REVIT
1002
{
1070
     3
1000
774350
1002
}
  0
ARC
  5
56A11
330
1F
100
AcDbEntity
  8
freecads.com
100
AcDbCircle
 10
151426.2663074693
 20
114643.3875812764
 30
0.0
 40
99.78076625218747
100
AcDbArc
 50
123.3626100443171
 51
171.7077019779926
1001
REVIT
1002
{
1070
     3
1000
774350
1002
}
  0
ARC
  5
56A12
330
1F
100
AcDbEntity
  8
freecads.com
100
AcDbCircle
 10
154359.4007810461
 20
114215.8921676242
 30
0.0
 40
3063.904612116215
100
AcDbArc
 50
171.7077019779926
 51
180.8552795516914
1001
REVIT
1002
{
1070
     3
1000
774350
1002
}
  0
ARC
  5
56A13
330
1F
100
AcDbEntity
  8
freecads.com
100
AcDbCircle
 10
151501.1239342739
 20
114239.4314606054
 30
0.0
 40
2812.018121852533
100
AcDbArc
 50
358.5883797405939
 51
11.91735582485783
1001
REVIT
1002
{
1070
     3
1000
774350
1002
}
  0
ARC
  5
56A14
330
1F
100
AcDbEntity
  8
freecads.com
100
AcDbCircle
 10
155050.3116370036
 20
114288.1685055306
 30
0.0
 40
2527.417042395106
100
AcDbArc
 50
168.1531990324059
 51
182.6762434229765
1001
REVIT
1002
{
1070
     3
1000
774350
1002
}
  0
ARC
  5
56A15
330
1F
100
AcDbEntity
  8
freecads.com
100
AcDbCircle
 10
153944.6084789872
 20
114773.943906362
 30
0.0
 40
356.0893700105216
100
AcDbArc
 50
136.5997761645591
 51
169.0430013503943
1001
REVIT
1002
{
1070
     3
1000
774350
1002
}
  0
ARC
  5
56A16
330
1F
100
AcDbEntity
  8
freecads.com
100
AcDbCircle
 10
154012.9031558672
 20
114777.5344135855
 30
0.0
 40
356.0893700105335
100
AcDbArc
 50
137.1082585724949
 51
169.5723614117713
1001
REVIT
1002
{
1070
     3
1000
774350
1002
}
  0
ARC
  5
56A17
330
1F
100
AcDbEntity
  8
freecads.com
100
AcDbCircle
 10
154903.4037392669
 20
-45629.49721954559
 30
0.0
 40
160672.9380339942
100
AcDbArc
 50
90.10942095099613
 51
90.85720729060289
1001
REVIT
1002
{
1070
     3
1000
774350
1002
}
  0
ARC
  5
56A18
330
1F
100
AcDbEntity
  8
freecads.com
100
AcDbCircle
 10
152603.6366224825
 20
108539.9807735936
 30
0.0
 40
6486.3118965831
100
AcDbArc
 50
90.91852704117783
 51
97.03150658891379
1001
REVIT
1002
{
1070
     3
1000
774350
1002
}
  0
ARC
  5
56A19
330
1F
100
AcDbEntity
  8
freecads.com
100
AcDbCircle
 10
151569.5991790471
 20
114842.7366095717
 30
0.0
 40
105.488454269014
100
AcDbArc
 50
96.53163965260386
 51
165.234664430732
1001
REVIT
1002
{
1070
     3
1000
774350
1002
}
  0
ARC
  5
56A1A
330
1F
100
AcDbEntity
  8
freecads.com
100
AcDbCircle
 10
152832.5389187556
 20
114243.0102357065
 30
0.0
 40
1501.904047266117
100
AcDbArc
 50
155.3413419946116
 51
182.7803285122631
1001
REVIT
1002
{
1070
     3
1000
774350
1002
}
  0
ARC
  5
56A1B
330
1F
100
AcDbEntity
  8
freecads.com
100
AcDbCircle
 10
154291.1273485719
 20
83759.23336000928
 30
0.0
 40
31375.64404514763
100
AcDbArc
 50
89.54496434384811
 51
90.49579948085982
1001
REVIT
1002
{
1070
     3
1000
774350
1002
}
  0
ARC
  5
56A1C
330
1F
100
AcDbEntity
  8
freecads.com
100
AcDbCircle
 10
153330.4747683222
 20
203778.0316883999
 30
0.0
 40
88647.00779282056
100
AcDbArc
 50
269.5545556413181
 51
270.4454405182508
1001
REVIT
1002
{
1070
     3
1000
774350
1002
}
  0
ARC
  5
56A1D
330
1F
100
AcDbEntity
  8
freecads.com
100
AcDbCircle
 10
152507.1777642027
 20
111542.3572135988
 30
0.0
 40
3593.849602732177
100
AcDbArc
 50
87.86104951843318
 51
99.06779180991108
1001
REVIT
1002
{
1070
     3
1000
774350
1002
}
  0
ARC
  5
56A1E
330
1F
100
AcDbEntity
  8
freecads.com
100
AcDbCircle
 10
155471.1466529286
 20
92970.84840416292
 30
0.0
 40
22400.39237492942
100
AcDbArc
 50
99.06779180991108
 51
100.1508695558823
1001
REVIT
1002
{
1070
     3
1000
774350
1002
}
  0
ARC
  5
56A1F
330
1F
100
AcDbEntity
  8
freecads.com
100
AcDbCircle
 10
151589.9103250787
 20
114648.4921043648
 30
0.0
 40
378.0348301634297
100
AcDbArc
 50
100.1508695558823
 51
123.4084678782987
1001
REVIT
1002
{
1070
     3
1000
774350
1002
}
  0
ARC
  5
56A20
330
1F
100
AcDbEntity
  8
freecads.com
100
AcDbCircle
 10
152978.6470131532
 20
114325.6910978072
 30
0.0
 40
1719.75509491523
100
AcDbArc
 50
158.2104129504041
 51
176.8630179572226
1001
REVIT
1002
{
1070
     3
1000
774350
1002
}
  0
ARC
  5
56A21
330
1F
100
AcDbEntity
  8
freecads.com
100
AcDbCircle
 10
153539.0196510982
 20
114294.9796360501
 30
0.0
 40
2280.968678206662
100
AcDbArc
 50
176.8630179572226
 51
183.1369772459829
1001
REVIT
1002
{
1070
     3
1000
774350
1002
}
  0
ARC
  5
56A22
330
1F
100
AcDbEntity
  8
freecads.com
100
AcDbCircle
 10
154141.3262116948
 20
114292.2975884996
 30
0.0
 40
2319.273895686997
100
AcDbArc
 50
337.6636583209695
 51
356.9812296338195
1001
REVIT
1002
{
1070
     3
1000
774350
1002
}
  0
ARC
  5
56A23
330
1F
100
AcDbEntity
  8
freecads.com
100
AcDbCircle
 10
155971.6273374173
 20
113715.0964243333
 30
0.0
 40
437.8901601738387
100
AcDbArc
 50
280.3737017257608
 51
315.9931022192284
1001
REVIT
1002
{
1070
     3
1000
774350
1002
}
  0
ARC
  5
56A24
330
1F
100
AcDbEntity
  8
freecads.com
100
AcDbCircle
 10
156122.4701735722
 20
112891.0876974407
 30
0.0
 40
399.8114235271951
100
AcDbArc
 50
100.3737017257608
 51
116.4583577385007
1001
REVIT
1002
{
1070
     3
1000
774350
1002
}
  0
ARC
  5
56A25
330
1F
100
AcDbEntity
  8
freecads.com
100
AcDbCircle
 10
154291.129449058
 20
144581.0817309346
 30
0.0
 40
31375.64404514904
100
AcDbArc
 50
270.6837114670809
 51
273.0203438227233
1001
REVIT
1002
{
1070
     3
1000
774350
1002
}
  0
ARC
  5
56A26
330
1F
100
AcDbEntity
  8
freecads.com
100
AcDbCircle
 10
155280.7109652006
 20
114104.6513197628
 30
0.0
 40
1106.363427352054
100
AcDbArc
 50
342.8554325516831
 51
3.394383922461424
1001
REVIT
1002
{
1070
     3
1000
774350
1002
}
  0
ARC
  5
56A27
330
1F
100
AcDbEntity
  8
freecads.com
100
AcDbCircle
 10
156213.8986237428
 20
113816.7703286536
 30
0.0
 40
129.7802664582595
100
AcDbArc
 50
333.4983117801873
 51
342.8554325516831
1001
REVIT
1002
{
1070
     3
1000
774350
1002
}
  0
ARC
  5
56A28
330
1F
100
AcDbEntity
  8
freecads.com
100
AcDbCircle
 10
154684.0465304698
 20
114135.7035348262
 30
0.0
 40
1688.582800055934
100
AcDbArc
 50
334.8052732386246
 51
347.1045974617387
1001
REVIT
1002
{
1070
     3
1000
774350
1002
}
  0
ARC
  5
56A29
330
1F
100
AcDbEntity
  8
freecads.com
100
AcDbCircle
 10
156016.2225501247
 20
113517.3667735969
 30
0.0
 40
220.0491411127254
100
AcDbArc
 50
288.6941567862624
 51
332.8286343547543
1001
REVIT
1002
{
1070
     3
1000
774350
1002
}
  0
ARC
  5
56A2A
330
1F
100
AcDbEntity
  8
freecads.com
100
AcDbCircle
 10
156024.4688384579
 20
113476.9520012438
 30
0.0
 40
179.19726260351
100
AcDbArc
 50
260.3193767874097
 51
290.3385875207383
1001
REVIT
1002
{
1070
     3
1000
774350
1002
}
  0
ARC
  5
56A2B
330
1F
100
AcDbEntity
  8
freecads.com
100
AcDbCircle
 10
156009.3999249933
 20
113305.6228399601
 30
0.0
 40
15.97475164150248
100
AcDbArc
 50
86.76083476338254
 51
199.4388457974115
1001
REVIT
1002
{
1070
     3
1000
774350
1002
}
  0
ARC
  5
56A2C
330
1F
100
AcDbEntity
  8
freecads.com
100
AcDbCircle
 10
156009.8609767557
 20
113460.9413013492
 30
0.0
 40
139.3699311892
100
AcDbArc
 50
270.1815366450062
 51
308.5333715218464
1001
REVIT
1002
{
1070
     3
1000
774350
1002
}
  0
ARC
  5
56A2D
330
1F
100
AcDbEntity
  8
freecads.com
100
AcDbCircle
 10
155978.0852624097
 20
113513.3766162095
 30
0.0
 40
200.3348096893059
100
AcDbArc
 50
306.2993606683054
 51
333.0505140120459
1001
REVIT
1002
{
1070
     3
1000
774350
1002
}
  0
ARC
  5
56A2E
330
1F
100
AcDbEntity
  8
freecads.com
100
AcDbCircle
 10
163000.1178572708
 20
110382.2596616907
 30
0.0
 40
7488.418969461553
100
AcDbArc
 50
154.7260329008721
 51
156.0459870216165
1001
REVIT
1002
{
1070
     3
1000
774350
1002
}
  0
ARC
  5
56A2F
330
1F
100
AcDbEntity
  8
freecads.com
100
AcDbCircle
 10
157729.2827444112
 20
112870.8426813423
 30
0.0
 40
1659.632798507045
100
AcDbArc
 50
149.4271969922358
 51
154.7260329008721
1001
REVIT
1002
{
1070
     3
1000
774350
1002
}
  0
ARC
  5
56A30
330
1F
100
AcDbEntity
  8
freecads.com
100
AcDbCircle
 10
158658.6573653298
 20
113657.5061631531
 30
0.0
 40
2360.762156364483
100
AcDbArc
 50
168.7733340821198
 51
177.3782552368983
1001
REVIT
1002
{
1070
     3
1000
774350
1002
}
  0
ARC
  5
56A31
330
1F
100
AcDbEntity
  8
freecads.com
100
AcDbCircle
 10
156420.1047286356
 20
114101.834377199
 30
0.0
 40
78.53835649790304
100
AcDbArc
 50
138.0459721388041
 51
168.7733340821198
1001
REVIT
1002
{
1070
     3
1000
774350
1002
}
  0
ARC
  5
56A32
330
1F
100
AcDbEntity
  8
freecads.com
100
AcDbCircle
 10
156380.2542861399
 20
114137.6580232883
 30
0.0
 40
24.95299158186757
100
AcDbArc
 50
77.66425252939473
 51
138.0459721388041
1001
REVIT
1002
{
1070
     3
1000
774350
1002
}
  0
ARC
  5
56A33
330
1F
100
AcDbEntity
  8
freecads.com
100
AcDbCircle
 10
154080.3255439377
 20
120596.0381034477
 30
0.0
 40
7295.284209831118
100
AcDbArc
 50
276.9410063793245
 51
283.6144119957648
1001
REVIT
1002
{
1070
     3
1000
774350
1002
}
  0
ARC
  5
56A34
330
1F
100
AcDbEntity
  8
freecads.com
100
AcDbCircle
 10
155440.9016917246
 20
114978.2702660249
 30
0.0
 40
1515.104028809141
100
AcDbArc
 50
283.6144119957648
 51
299.1142122932876
1001
REVIT
1002
{
1070
     3
1000
774350
1002
}
  0
ARC
  5
56A35
330
1F
100
AcDbEntity
  8
freecads.com
100
AcDbCircle
 10
155971.257682778
 20
114025.9648027275
 30
0.0
 40
425.0750508868411
100
AcDbArc
 50
299.1142122932876
 51
320.9276931928693
1001
REVIT
1002
{
1070
     3
1000
774350
1002
}
  0
ARC
  5
56A36
330
1F
100
AcDbEntity
  8
freecads.com
100
AcDbCircle
 10
156345.2642263706
 20
113722.3179636813
 30
0.0
 40
56.67415495317843
100
AcDbArc
 50
97.45391103190359
 51
140.9276931928693
1001
REVIT
1002
{
1070
     3
1000
774350
1002
}
  0
ARC
  5
56A37
330
1F
100
AcDbEntity
  8
freecads.com
100
AcDbCircle
 10
154565.9692218125
 20
117614.4092142472
 30
0.0
 40
4317.872545268015
100
AcDbArc
 50
277.7141086769858
 51
286.351417082441
1001
REVIT
1002
{
1070
     3
1000
774350
1002
}
  0
ARC
  5
56A38
330
1F
100
AcDbEntity
  8
freecads.com
100
AcDbCircle
 10
155143.7304280991
 20
115645.1798361616
 30
0.0
 40
2265.636605081069
100
AcDbArc
 50
286.351417082441
 51
296.9372256982169
1001
REVIT
1002
{
1070
     3
1000
774350
1002
}
  0
ARC
  5
56A39
330
1F
100
AcDbEntity
  8
freecads.com
100
AcDbCircle
 10
156256.7373409895
 20
113442.2415581973
 30
0.0
 40
15.20132738342708
100
AcDbArc
 50
125.3669686683823
 51
243.3946368438456
1001
REVIT
1002
{
1070
     3
1000
774350
1002
}
  0
ARC
  5
56A3A
330
1F
100
AcDbEntity
  8
freecads.com
100
AcDbCircle
 10
156318.3806147881
 20
113425.1581477022
 30
0.0
 40
76.36172212274728
100
AcDbArc
 50
87.58356085068813
 51
157.2910033394192
1001
REVIT
1002
{
1070
     3
1000
774350
1002
}
  0
ARC
  5
56A3B
330
1F
100
AcDbEntity
  8
freecads.com
100
AcDbCircle
 10
156233.7119420176
 20
113972.8873481788
 30
0.0
 40
193.1214259846865
100
AcDbArc
 50
306.7838577132787
 51
3.812294912436821
1001
REVIT
1002
{
1070
     3
1000
774350
1002
}
  0
ARC
  5
56A3C
330
1F
100
AcDbEntity
  8
freecads.com
100
AcDbCircle
 10
156803.5606839688
 20
114010.8595045644
 30
0.0
 40
377.9910620218357
100
AcDbArc
 50
164.7540192285534
 51
183.8122949124368
1001
REVIT
1002
{
1070
     3
1000
774350
1002
}
  0
ARC
  5
56A3D
330
1F
100
AcDbEntity
  8
freecads.com
100
AcDbCircle
 10
156448.8353355415
 20
114107.5420094041
 30
0.0
 40
10.32602476268412
100
AcDbArc
 50
60.43870367716038
 51
164.7540192285534
1001
REVIT
1002
{
1070
     3
1000
774350
1002
}
  0
ARC
  5
56A3E
330
1F
100
AcDbEntity
  8
freecads.com
100
AcDbCircle
 10
158307.6628158605
 20
113710.0738364726
 30
0.0
 40
1988.393098527351
100
AcDbArc
 50
167.9034330721303
 51
177.5917589022275
1001
REVIT
1002
{
1070
     3
1000
774350
1002
}
  0
ARC
  5
56A3F
330
1F
100
AcDbEntity
  8
freecads.com
100
AcDbCircle
 10
156387.9472160417
 20
114121.5049026892
 30
0.0
 40
25.08377309550279
100
AcDbArc
 50
93.80788199848518
 51
167.9034330721303
1001
REVIT
1002
{
1070
     3
1000
774350
1002
}
  0
ARC
  5
56A40
330
1F
100
AcDbEntity
  8
freecads.com
100
AcDbCircle
 10
153606.5913841963
 20
114077.0252307194
 30
0.0
 40
1728.747947253833
100
AcDbArc
 50
353.5504042580856
 51
3.088171865630896
1001
REVIT
1002
{
1070
     3
1000
774350
1002
}
  0
ARC
  5
56A41
330
1F
100
AcDbEntity
  8
freecads.com
100
AcDbCircle
 10
155209.1206468232
 20
113895.8680633756
 30
0.0
 40
116.0117767631294
100
AcDbArc
 50
314.6673164187646
 51
353.5504042580856
1001
REVIT
1002
{
1070
     3
1000
774350
1002
}
  0
ARC
  5
56A42
330
1F
100
AcDbEntity
  8
freecads.com
100
AcDbCircle
 10
155227.749472082
 20
113877.0216346392
 30
0.0
 40
89.51232305163117
100
AcDbArc
 50
276.5654842779409
 51
314.6673164187646
1001
REVIT
1002
{
1070
     3
1000
774350
1002
}
  0
ARC
  5
56A43
330
1F
100
AcDbEntity
  8
freecads.com
100
AcDbCircle
 10
155232.5888489151
 20
113834.9742366369
 30
0.0
 40
47.18735142829578
100
AcDbArc
 50
239.2707990068083
 51
276.5654842779409
1001
REVIT
1002
{
1070
     3
1000
774350
1002
}
  0
ARC
  5
56A44
330
1F
100
AcDbEntity
  8
freecads.com
100
AcDbCircle
 10
155224.0732261138
 20
113820.648932093
 30
0.0
 40
30.52211311503143
100
AcDbArc
 50
173.9098758874038
 51
239.2707990068083
1001
REVIT
1002
{
1070
     3
1000
774350
1002
}
  0
ARC
  5
56A45
330
1F
100
AcDbEntity
  8
freecads.com
100
AcDbCircle
 10
153802.626186581
 20
113972.3099623177
 30
0.0
 40
1398.992754022094
100
AcDbArc
 50
353.9098758874039
 51
357.2830652157969
1001
REVIT
1002
{
1070
     3
1000
774350
1002
}
  0
ARC
  5
56A46
330
1F
100
AcDbEntity
  8
freecads.com
100
AcDbCircle
 10
151854.0075465076
 20
114064.7817777479
 30
0.0
 40
3349.804288133308
100
AcDbArc
 50
357.2830652157969
 51
1.802668024400172
1001
REVIT
1002
{
1070
     3
1000
774350
1002
}
  0
ARC
  5
56A47
330
1F
100
AcDbEntity
  8
freecads.com
100
AcDbCircle
 10
153606.5913841963
 20
114077.0252307194
 30
0.0
 40
1713.994315957886
100
AcDbArc
 50
353.5504042580856
 51
3.114781009670896
1001
REVIT
1002
{
1070
     3
1000
774350
1002
}
  0
ARC
  5
56A48
330
1F
100
AcDbEntity
  8
freecads.com
100
AcDbCircle
 10
155209.1206468232
 20
113895.8680633756
 30
0.0
 40
101.2581454671667
100
AcDbArc
 50
314.6673164187646
 51
353.5504042580856
1001
REVIT
1002
{
1070
     3
1000
774350
1002
}
  0
ARC
  5
56A49
330
1F
100
AcDbEntity
  8
freecads.com
100
AcDbCircle
 10
155227.749472082
 20
113877.0216346392
 30
0.0
 40
74.75869175566429
100
AcDbArc
 50
276.1746231648776
 51
314.6673164187646
1001
REVIT
1002
{
1070
     3
1000
774350
1002
}
  0
ARC
  5
56A4A
330
1F
100
AcDbEntity
  8
freecads.com
100
AcDbCircle
 10
155232.5888489151
 20
113834.9742366369
 30
0.0
 40
32.4337201323261
100
AcDbArc
 50
239.2707990068083
 51
276.5654842779409
1001
REVIT
1002
{
1070
     3
1000
774350
1002
}
  0
ARC
  5
56A4B
330
1F
100
AcDbEntity
  8
freecads.com
100
AcDbCircle
 10
155224.0732261138
 20
113820.648932093
 30
0.0
 40
15.76848181907898
100
AcDbArc
 50
173.9098758874038
 51
239.2707990068083
1001
REVIT
1002
{
1070
     3
1000
774350
1002
}
  0
ARC
  5
56A4C
330
1F
100
AcDbEntity
  8
freecads.com
100
AcDbCircle
 10
153802.626186581
 20
113972.3099623177
 30
0.0
 40
1413.746385318668
100
AcDbArc
 50
353.9098758874039
 51
357.2830652157969
1001
REVIT
1002
{
1070
     3
1000
774350
1002
}
  0
ARC
  5
56A4D
330
1F
100
AcDbEntity
  8
freecads.com
100
AcDbCircle
 10
151854.0075465076
 20
114064.7817777479
 30
0.0
 40
3364.557919429702
100
AcDbArc
 50
357.2830652157969
 51
1.794759719954084
1001
REVIT
1002
{
1070
     3
1000
774350
1002
}
  0
ARC
  5
56A4E
330
1F
100
AcDbEntity
  8
freecads.com
100
AcDbCircle
 10
153481.5799808067
 20
114082.2885796413
 30
0.0
 40
1790.176866536762
100
AcDbArc
 50
351.1131150485636
 51
2.813433153488253
1001
REVIT
1002
{
1070
     3
1000
774350
1002
}
  0
ARC
  5
56A4F
330
1F
100
AcDbEntity
  8
freecads.com
100
AcDbCircle
 10
153468.9340470818
 20
114090.7099354367
 30
0.0
 40
1790.176866536771
100
AcDbArc
 50
350.7417081651412
 51
2.54360740091652
1001
REVIT
1002
{
1070
     3
1000
774350
1002
}
  0
ARC
  5
56A50
330
1F
100
AcDbEntity
  8
freecads.com
100
AcDbCircle
 10
153456.2880721419
 20
114092.8152696832
 30
0.0
 40
1790.17686653678
100
AcDbArc
 50
350.7152753092955
 51
2.476159779283871
1001
REVIT
1002
{
1070
     3
1000
774350
1002
}
  0
ARC
  5
56A51
330
1F
100
AcDbEntity
  8
freecads.com
100
AcDbCircle
 10
153447.8574492894
 20
114099.1312917241
 30
0.0
 40
1790.17686653677
100
AcDbArc
 50
350.6506669241582
 51
2.273838711130111
1001
REVIT
1002
{
1070
     3
1000
774350
1002
}
  0
ARC
  5
56A52
330
1F
100
AcDbEntity
  8
freecads.com
100
AcDbCircle
 10
153498.441269807
 20
114113.8686667854
 30
0.0
 40
1790.176866536734
100
AcDbArc
 50
350.2594694098979
 51
1.801871643271806
1001
REVIT
1002
{
1070
     3
1000
774350
1002
}
  0
ARC
  5
56A53
330
1F
100
AcDbEntity
  8
freecads.com
100
AcDbCircle
 10
153513.1948596214
 20
114113.8686665055
 30
0.0
 40
1790.176866536736
100
AcDbArc
 50
350.6549025396838
 51
1.801871643271806
1001
REVIT
1002
{
1070
     3
1000
774350
1002
}
  0
ARC
  5
56A54
330
1F
100
AcDbEntity
  8
freecads.com
100
AcDbCircle
 10
156495.2897967092
 20
78149.36326550013
 30
0.0
 40
35184.98689755768
100
AcDbArc
 50
91.28045400510904
 51
92.64467532965019
1001
REVIT
1002
{
1070
     3
1000
774350
1002
}
  0
ARC
  5
56A55
330
1F
100
AcDbEntity
  8
freecads.com
100
AcDbCircle
 10
155549.2746219709
 20
116154.8299002409
 30
0.0
 40
2833.773058896515
100
AcDbArc
 50
273.2320459902972
 51
281.7906648660588
1001
REVIT
1002
{
1070
     3
1000
774350
1002
}
  0
ARC
  5
56A56
330
1F
100
AcDbEntity
  8
freecads.com
100
AcDbCircle
 10
155735.4906561683
 20
114925.5842546407
 30
0.0
 40
1577.013616330888
100
AcDbArc
 50
270.2954143142533
 51
285.0530601466808
1001
REVIT
1002
{
1070
     3
1000
774350
1002
}
  0
ARC
  5
56A57
330
1F
100
AcDbEntity
  8
freecads.com
100
AcDbCircle
 10
157147.00831984
 20
76865.16687199242
 30
0.0
 40
36510.40637643732
100
AcDbArc
 50
92.20287569643671
 51
93.16715676991682
1001
REVIT
1002
{
1070
     3
1000
774350
1002
}
  0
ARC
  5
56A58
330
1F
100
AcDbEntity
  8
freecads.com
100
AcDbCircle
 10
155110.1424801536
 20
113675.8586777306
 30
0.0
 40
356.5958568497133
100
AcDbArc
 50
240.3799366418675
 51
273.1671567699168
1001
REVIT
1002
{
1070
     3
1000
774350
1002
}
  0
ARC
  5
56A59
330
1F
100
AcDbEntity
  8
freecads.com
100
AcDbCircle
 10
155928.7777650752
 20
119125.1436141459
 30
0.0
 40
5844.579767666079
100
AcDbArc
 50
254.5226159893418
 51
260.1992103434956
1001
REVIT
1002
{
1070
     3
1000
774350
1002
}
  0
ARC
  5
56A5A
330
1F
100
AcDbEntity
  8
freecads.com
100
AcDbCircle
 10
153936.2359124431
 20
111929.2385664019
 30
0.0
 40
1622.097705771448
100
AcDbArc
 50
74.52261598934176
 51
87.77932936594108
1001
REVIT
1002
{
1070
     3
1000
774350
1002
}
  0
ARC
  5
56A5B
330
1F
100
AcDbEntity
  8
freecads.com
100
AcDbCircle
 10
153264.5201151894
 20
91960.10429558645
 30
0.0
 40
21602.50650775147
100
AcDbArc
 50
88.05135500355778
 51
91.0827699912034
1001
REVIT
1002
{
1070
     3
1000
774350
1002
}
  0
ARC
  5
56A5C
330
1F
100
AcDbEntity
  8
freecads.com
100
AcDbCircle
 10
153593.2586241611
 20
103924.0492725911
 30
0.0
 40
9662.848175235751
100
AcDbArc
 50
94.37404458597612
 51
99.68648036751108
1001
REVIT
1002
{
1070
     3
1000
774350
1002
}
  0
ARC
  5
56A5D
330
1F
100
AcDbEntity
  8
freecads.com
100
AcDbCircle
 10
151775.913738663
 20
113603.3935805848
 30
0.0
 40
245.906679625755
100
AcDbArc
 50
293.0838133996253
 51
321.1488170382311
1001
REVIT
1002
{
1070
     3
1000
774350
1002
}
  0
ARC
  5
56A5E
330
1F
100
AcDbEntity
  8
freecads.com
100
AcDbCircle
 10
151800.9508140425
 20
113544.6489986257
 30
0.0
 40
182.049173923423
100
AcDbArc
 50
272.7278508771679
 51
293.0838133996253
1001
REVIT
1002
{
1070
     3
1000
774350
1002
}
  0
ARC
  5
56A5F
330
1F
100
AcDbEntity
  8
freecads.com
100
AcDbCircle
 10
154897.5119635225
 20
113644.7217808995
 30
0.0
 40
298.3739115170132
100
AcDbArc
 50
261.4485065854825
 51
271.8259633805252
1001
REVIT
1002
{
1070
     3
1000
774350
1002
}
  0
ARC
  5
56A60
330
1F
100
AcDbEntity
  8
freecads.com
100
AcDbCircle
 10
153548.2626573436
 20
108650.9949559413
 30
0.0
 40
4876.496312306882
100
AcDbArc
 50
74.4793450818506
 51
79.22216100378943
1001
REVIT
1002
{
1070
     3
1000
774350
1002
}
  0
ARC
  5
56A61
330
1F
100
AcDbEntity
  8
freecads.com
100
AcDbCircle
 10
155632.2581993644
 20
119598.6931862448
 30
0.0
 40
6267.790742416689
100
AcDbArc
 50
256.2274117660067
 51
259.2221610037894
1001
REVIT
1002
{
1070
     3
1000
774350
1002
}
  0
ARC
  5
56A62
330
1F
100
AcDbEntity
  8
freecads.com
100
AcDbCircle
 10
153929.0292488763
 20
112650.0382399223
 30
0.0
 40
886.564184478647
100
AcDbArc
 50
76.22741176600671
 51
91.10604177622287
1001
REVIT
1002
{
1070
     3
1000
774350
1002
}
  0
ARC
  5
56A63
330
1F
100
AcDbEntity
  8
freecads.com
100
AcDbCircle
 10
153494.8983671554
 20
139494.1478296001
 30
0.0
 40
25961.06012256489
100
AcDbArc
 50
269.0795963728468
 51
270.9204015041231
1001
REVIT
1002
{
1070
     3
1000
774350
1002
}
  0
ARC
  5
56A64
330
1F
100
AcDbEntity
  8
freecads.com
100
AcDbCircle
 10
153016.2640132546
 20
110345.0382796327
 30
0.0
 40
3191.993721204705
100
AcDbArc
 50
88.89395239801908
 51
101.1954428766682
1001
REVIT
1002
{
1070
     3
1000
774350
1002
}
  0
ARC
  5
56A65
330
1F
100
AcDbEntity
  8
freecads.com
100
AcDbCircle
 10
151862.649795715
 20
116173.6502090569
 30
0.0
 40
2749.684727464771
100
AcDbArc
 50
273.4001512931652
 51
281.1954428766682
1001
REVIT
1002
{
1070
     3
1000
774350
1002
}
  0
ARC
  5
56A66
330
1F
100
AcDbEntity
  8
freecads.com
100
AcDbCircle
 10
152002.8473796705
 20
113456.9584776419
 30
0.0
 40
36.2801823308046
100
AcDbArc
 50
192.4508169790156
 51
309.106239116043
1001
REVIT
1002
{
1070
     3
1000
774350
1002
}
  0
ARC
  5
56A67
330
1F
100
AcDbEntity
  8
freecads.com
100
AcDbCircle
 10
152902.7759794328
 20
114014.7276850066
 30
0.0
 40
1093.061498201552
100
AcDbArc
 50
184.4970312416883
 51
211.1605545387698
1001
REVIT
1002
{
1070
     3
1000
774350
1002
}
  0
ARC
  5
56A68
330
1F
100
AcDbEntity
  8
freecads.com
100
AcDbCircle
 10
154117.1300806682
 20
114110.2360673564
 30
0.0
 40
2311.165654934861
100
AcDbArc
 50
178.5143260772458
 51
184.4970312416883
1001
REVIT
1002
{
1070
     3
1000
774350
1002
}
  0
ARC
  5
56A69
330
1F
100
AcDbEntity
  8
freecads.com
100
AcDbCircle
 10
154707.8639232682
 20
113630.790734093
 30
0.0
 40
361.8198226209148
100
AcDbArc
 50
311.2960791440618
 51
344.4046992922713
1001
REVIT
1002
{
1070
     3
1000
774350
1002
}
  0
ARC
  5
56A6A
330
1F
100
AcDbEntity
  8
freecads.com
100
AcDbCircle
 10
152546.4103689028
 20
114234.0883416923
 30
0.0
 40
2605.889667596755
100
AcDbArc
 50
344.4046992922713
 51
349.691640237763
1001
REVIT
1002
{
1070
     3
1000
774350
1002
}
  0
ARC
  5
56A6B
330
1F
100
AcDbEntity
  8
freecads.com
100
AcDbCircle
 10
153696.2012623909
 20
114024.9626291603
 30
0.0
 40
1437.235458102347
100
AcDbArc
 50
349.691640237763
 51
5.798122256348206
1001
REVIT
1002
{
1070
     3
1000
774350
1002
}
  0
ARC
  5
56A6C
330
1F
100
AcDbEntity
  8
freecads.com
100
AcDbCircle
 10
153904.3320213051
 20
113333.2739277991
 30
0.0
 40
172.4607848078545
100
AcDbArc
 50
190.5882591282648
 51
226.5254950183866
1001
REVIT
1002
{
1070
     3
1000
774350
1002
}
  0
ARC
  5
56A6D
330
1F
100
AcDbEntity
  8
freecads.com
100
AcDbCircle
 10
153978.7557964283
 20
113560.9854532666
 30
0.0
 40
356.0893700105228
100
AcDbArc
 50
190.0968527313161
 51
226.7584616931987
1001
REVIT
1002
{
1070
     3
1000
774350
1002
}
  0
ARC
  5
56A6E
330
1F
100
AcDbEntity
  8
freecads.com
100
AcDbCircle
 10
153910.3103424459
 20
111833.1247488556
 30
0.0
 40
1660.07780771635
100
AcDbArc
 50
72.1426340686184
 51
88.18056635078018
1001
REVIT
1002
{
1070
     3
1000
774350
1002
}
  0
ARC
  5
56A6F
330
1F
100
AcDbEntity
  8
freecads.com
100
AcDbCircle
 10
153492.1230369288
 20
96078.72895282529
 30
0.0
 40
17420.00240470319
100
AcDbArc
 50
88.45099565425671
 51
91.54900207541231
1001
REVIT
1002
{
1070
     3
1000
774350
1002
}
  0
ARC
  5
56A70
330
1F
100
AcDbEntity
  8
freecads.com
100
AcDbCircle
 10
153093.5294455004
 20
111216.3365506543
 30
0.0
 40
2277.177141875201
100
AcDbArc
 50
91.81941663020257
 51
103.998382122566
1001
REVIT
1002
{
1070
     3
1000
774350
1002
}
  0
ARC
  5
56A71
330
1F
100
AcDbEntity
  8
freecads.com
100
AcDbCircle
 10
152597.9390760556
 20
113204.2813845137
 30
0.0
 40
228.3886030258011
100
AcDbArc
 50
103.998382122566
 51
129.081294074494
1001
REVIT
1002
{
1070
     3
1000
774350
1002
}
  0
ARC
  5
56A72
330
1F
100
AcDbEntity
  8
freecads.com
100
AcDbCircle
 10
152465.5269720565
 20
113367.3232678325
 30
0.0
 40
18.35141367554864
100
AcDbArc
 50
129.081294074494
 51
230.9187041571764
1001
REVIT
1002
{
1070
     3
1000
774350
1002
}
  0
ARC
  5
56A73
330
1F
100
AcDbEntity
  8
freecads.com
100
AcDbCircle
 10
152653.3252917808
 20
56420.10792302014
 30
0.0
 40
56910.96557130292
100
AcDbArc
 50
88.93054407724209
 51
90.1337151416372
1001
REVIT
1002
{
1070
     3
1000
774350
1002
}
  0
ARC
  5
56A74
330
1F
100
AcDbEntity
  8
freecads.com
100
AcDbCircle
 10
154149.8522405673
 20
133860.5696257712
 30
0.0
 40
20544.00117228571
100
AcDbArc
 50
268.7886376908302
 51
271.2113587215175
1001
REVIT
1002
{
1070
     3
1000
774350
1002
}
  0
ARC
  5
56A75
330
1F
100
AcDbEntity
  8
freecads.com
100
AcDbCircle
 10
152712.1657981864
 20
113439.6461731208
 30
0.0
 40
234.2116860409008
100
AcDbArc
 50
212.257768517572
 51
263.4877984498353
1001
REVIT
1002
{
1070
     3
1000
774350
1002
}
  0
ARC
  5
56A76
330
1F
100
AcDbEntity
  8
freecads.com
100
AcDbCircle
 10
152817.7821569059
 20
124769.5965779718
 30
0.0
 40
11433.23494709974
100
AcDbArc
 50
264.380971061916
 51
267.9311026223459
1001
REVIT
1002
{
1070
     3
1000
774350
1002
}
  0
ARC
  5
56A77
330
1F
100
AcDbEntity
  8
freecads.com
100
AcDbCircle
 10
151728.7316787489
 20
113700.4489533442
 30
0.0
 40
310.6426196503368
100
AcDbArc
 50
220.4447769705643
 51
264.380971061916
1001
REVIT
1002
{
1070
     3
1000
774350
1002
}
  0
ARC
  5
56A78
330
1F
100
AcDbEntity
  8
freecads.com
100
AcDbCircle
 10
151768.638873018
 20
113734.4664620933
 30
0.0
 40
363.0809177375904
100
AcDbArc
 50
195.890886675908
 51
220.4447769705643
1001
REVIT
1002
{
1070
     3
1000
774350
1002
}
  0
ARC
  5
56A79
330
1F
100
AcDbEntity
  8
freecads.com
100
AcDbCircle
 10
152888.2261152763
 20
114053.19704149
 30
0.0
 40
1527.153412207782
100
AcDbArc
 50
175.6075690332258
 51
195.890886675908
1001
REVIT
1002
{
1070
     3
1000
774350
1002
}
  0
ARC
  5
56A7A
330
1F
100
AcDbEntity
  8
freecads.com
100
AcDbCircle
 10
155971.0659478496
 20
122478.8783853991
 30
0.0
 40
10122.0290281104
100
AcDbArc
 50
244.6546964543138
 51
245.3250051191291
1001
REVIT
1002
{
1070
     3
1000
774350
1002
}
  0
ARC
  5
56A7B
330
1F
100
AcDbEntity
  8
freecads.com
100
AcDbCircle
 10
151919.8833272394
 20
113926.0463235559
 30
0.0
 40
658.2551030746568
100
AcDbArc
 50
231.853381883049
 51
244.6546964543138
1001
REVIT
1002
{
1070
     3
1000
774350
1002
}
  0
ELLIPSE
  5
56A7C
330
1F
100
AcDbEntity
  8
freecads.com
100
AcDbEllipse
 10
156284.1966936621
 20
114168.5578234562
 30
0.0
 11
1.174698759975836
 21
-47.71867998111481
 31
0.0
210
0.0
220
0.0
230
1.0
 40
0.8431714514240759
 41
0.0
 42
6.28318530717958
1001
REVIT
1002
{
1070
     3
1000
774350
1002
}
  0
SPLINE
  5
56A7D
330
1F
100
AcDbEntity
  8
freecads.com
100
AcDbSpline
210
0.0
220
0.0
230
1.0
 70
     8
 71
     3
 72
    36
 73
    32
 74
     0
 42
0.000000001
 43
0.0000000001
 40
3.141592653589792
 40
3.141592653589792
 40
3.141592653589792
 40
3.141592653589792
 40
3.316862637154609
 40
3.316862637154609
 40
3.537986812964916
 40
3.537986812964916
 40
3.75911098877522
 40
3.75911098877522
 40
3.980235164585531
 40
3.980235164585531
 40
4.201359340395836
 40
4.201359340395836
 40
4.422483516206145
 40
4.422483516206145
 40
4.643607692016451
 40
4.643607692016451
 40
4.864731867826757
 40
4.864731867826757
 40
5.085856043637066
 40
5.085856043637066
 40
5.306980219447373
 40
5.306980219447373
 40
5.528104395257681
 40
5.528104395257681
 40
5.749228571067988
 40
5.749228571067988
 40
5.970352746878296
 40
5.970352746878296
 40
6.191476922688602
 40
6.191476922688602
 40
6.283185307179584
 40
6.283185307179584
 40
6.283185307179584
 40
6.283185307179584
 10
156285.0822697505
 20
114132.5825587715
 30
0.0
 10
156283.5452449254
 20
114132.544587901
 30
0.0
 10
156282.0042414026
 20
114132.6663617071
 30
0.0
 10
156278.5305205957
 20
114133.3071040353
 30
0.0
 10
156276.5998966931
 20
114133.9225940504
 30
0.0
 10
156272.81681326
 20
114135.6858366169
 30
0.0
 10
156270.9646699328
 20
114136.8346855285
 30
0.0
 10
156267.439162781
 20
114139.6587351118
 30
0.0
 10
156265.7667126979
 20
114141.3343112701
 30
0.0
 10
156262.7183081531
 20
114145.1575374659
 30
0.0
 10
156261.3431363986
 20
114147.3049423683
 30
0.0
 10
156258.9963708638
 20
114151.9681633727
 30
0.0
 10
156258.0252305354
 20
114154.4834924197
 30
0.0
 10
156256.5641201058
 20
114159.7418540774
 30
0.0
 10
156256.0743565952
 20
114162.4843658671
 30
0.0
 10
156255.614638023
 20
114168.0350697796
 30
0.0
 10
156255.6447352975
 20
114170.8427521312
 30
0.0
 10
156256.2208917309
 20
114176.3559936729
 30
0.0
 10
156256.7668727147
 20
114179.0610354668
 30
0.0
 10
156258.3288711892
 20
114184.2107304243
 30
0.0
 10
156259.3446292168
 20
114186.6548512936
 30
0.0
 10
156261.762913765
 20
114191.1497590994
 30
0.0
 10
156263.1648902852
 20
114193.2000869717
 30
0.0
 10
156266.246725505
 20
114196.8151724846
 30
0.0
 10
156267.9257079133
 20
114198.3798301506
 30
0.0
 10
156271.4485927299
 20
114200.9817673691
 30
0.0
 10
156273.2916662622
 20
114202.0196860694
 30
0.0
 10
156277.0533443624
 20
114203.5699655788
 30
0.0
 10
156278.9720151366
 20
114204.0835265904
 30
0.0
 10
156281.7037553893
 20
114204.4497139684
 30
0.0
 10
156282.5068876474
 20
114204.5132182487
 30
0.0
 10
156283.3110864932
 20
114204.5330151978
 30
0.0
1001
REVIT
1002
{
1070
     3
1000
774350
1002
}
  0
SPLINE
  5
56A7E
330
1F
100
AcDbEntity
  8
freecads.com
100
AcDbSpline
210
0.0
220
0.0
230
1.0
 70
     8
 71
     3
 72
    36
 73
    32
 74
     0
 42
0.000000001
 43
0.0000000001
 40
0.0
 40
0.0
 40
0.0
 40
0.0
 40
0.2211241758103072
 40
0.2211241758103072
 40
0.4422483516206145
 40
0.4422483516206145
 40
0.6633725274309218
 40
0.6633725274309218
 40
0.884496703241229
 40
0.884496703241229
 40
1.105620879051534
 40
1.105620879051534
 40
1.326745054861842
 40
1.326745054861842
 40
1.54786923067215
 40
1.54786923067215
 40
1.768993406482458
 40
1.768993406482458
 40
1.990117582292764
 40
1.990117582292764
 40
2.211241758103069
 40
2.211241758103069
 40
2.432365933913376
 40
2.432365933913376
 40
2.653490109723684
 40
2.653490109723684
 40
2.874614285533994
 40
2.874614285533994
 40
3.095738461344301
 40
3.095738461344301
 40
3.141592653589792
 40
3.141592653589792
 40
3.141592653589792
 40
3.141592653589792
 10
156283.3110864932
 20
114204.5330151978
 30
0.0
 10
156285.2501445556
 20
114204.5807494179
 30
0.0
 10
156287.196124901
 20
114204.375025704
 30
0.0
 10
156291.062387771
 20
114203.445508401
 30
0.0
 10
156292.9833271492
 20
114202.7206261749
 30
0.0
 10
156296.7289527029
 20
114200.7366953144
 30
0.0
 10
156298.5531251802
 20
114199.4766638742
 30
0.0
 10
156301.9986969919
 20
114196.4371863996
 30
0.0
 10
156303.6191716807
 20
114194.6575222967
 30
0.0
 10
156306.5397552208
 20
114190.6438547722
 30
0.0
 10
156307.8391518388
 20
114188.4101737703
 30
0.0
 10
156310.0154206193
 20
114183.6010455153
 30
0.0
 10
156310.8919031987
 20
114181.0261019237
 30
0.0
 10
156312.1522962272
 20
114175.6808809386
 30
0.0
 10
156312.536040174
 20
114172.9111223259
 30
0.0
 10
156312.7809852539
 20
114167.3407511635
 30
0.0
 10
156312.6421608988
 20
114164.5406480708
 30
0.0
 10
156311.8546988359
 20
114159.0766804697
 30
0.0
 10
156311.2061671773
 20
114156.4133377243
 30
0.0
 10
156309.4535284277
 20
114151.3772216445
 30
0.0
 10
156308.3497313908
 20
114149.0049780579
 30
0.0
 10
156305.776397652
 20
114144.6767595001
 30
0.0
 10
156304.3074841276
 20
114142.7212001233
 30
0.0
 10
156301.1157602187
 20
114139.3085678944
 30
0.0
 10
156299.3938665384
 20
114137.8514682989
 30
0.0
 10
156295.8064943574
 20
114135.4671931062
 30
0.0
 10
156293.9417318188
 20
114134.5392130768
 30
0.0
 10
156290.1503401346
 20
114133.2053778093
 30
0.0
 10
156288.2233780699
 20
114132.7983323875
 30
0.0
 10
156285.8862316954
 20
114132.6133605131
 30
0.0
 10
156285.4843862919
 20
114132.5924928432
 30
0.0
 10
156285.0822697505
 20
114132.5825587715
 30
0.0
1001
REVIT
1002
{
1070
     3
1000
774350
1002
}
  0
ARC
  5
56A7F
330
1F
100
AcDbEntity
  8
freecads.com
100
AcDbCircle
 10
151636.20561646
 20
113513.9063444879
 30
0.0
 40
210.949097231479
100
AcDbArc
 50
202.7140079714491
 51
260.8483741381946
1001
REVIT
1002
{
1070
     3
1000
774350
1002
}
  0
ARC
  5
56A80
330
1F
100
AcDbEntity
  8
freecads.com
100
AcDbCircle
 10
146418.4872698689
 20
111329.7870772734
 30
0.0
 40
5445.459810124993
100
AcDbArc
 50
22.71400797144915
 51
23.72886394435923
1001
REVIT
1002
{
1070
     3
1000
774350
1002
}
  0
ARC
  5
56A81
330
1F
100
AcDbEntity
  8
freecads.com
100
AcDbCircle
 10
151970.1289095273
 20
113770.124683332
 30
0.0
 40
618.8598164025776
100
AcDbArc
 50
174.3007452077629
 51
203.7288639443592
1001
REVIT
1002
{
1070
     3
1000
774350
1002
}
  0
ARC
  5
56A82
330
1F
100
AcDbEntity
  8
freecads.com
100
AcDbCircle
 10
151426.2662737453
 20
113696.9277075511
 30
0.0
 40
99.78076625217241
100
AcDbArc
 50
188.2922983203267
 51
236.6373771438437
1001
REVIT
1002
{
1070
     3
1000
774350
1002
}
  0
ARC
  5
56A83
330
1F
100
AcDbEntity
  8
freecads.com
100
AcDbCircle
 10
154359.4007772115
 20
114124.4229189162
 30
0.0
 40
3063.904612116307
100
AcDbArc
 50
179.1447184983471
 51
188.2922983203267
1001
REVIT
1002
{
1070
     3
1000
774350
1002
}
  0
ARC
  5
56A84
330
1F
100
AcDbEntity
  8
freecads.com
100
AcDbCircle
 10
151501.1239293666
 20
114100.8838230861
 30
0.0
 40
2812.018121852597
100
AcDbArc
 50
348.0826271376127
 51
1.411619086751189
1001
REVIT
1002
{
1070
     3
1000
774350
1002
}
  0
ARC
  5
56A85
330
1F
100
AcDbEntity
  8
freecads.com
100
AcDbCircle
 10
155050.3116289757
 20
114052.146533374
 30
0.0
 40
2527.417042395163
100
AcDbArc
 50
177.3237510544547
 51
191.8467973298897
1001
REVIT
1002
{
1070
     3
1000
774350
1002
}
  0
ARC
  5
56A86
330
1F
100
AcDbEntity
  8
freecads.com
100
AcDbCircle
 10
153944.6084367089
 20
113566.3712088019
 30
0.0
 40
356.0893700105218
100
AcDbArc
 50
190.9569823277809
 51
223.400227437596
1001
REVIT
1002
{
1070
     3
1000
774350
1002
}
  0
ARC
  5
56A87
330
1F
100
AcDbEntity
  8
freecads.com
100
AcDbCircle
 10
154012.9031128142
 20
113562.7806968515
 30
0.0
 40
356.0893700105103
100
AcDbArc
 50
190.4276410958611
 51
222.8917328061486
1001
REVIT
1002
{
1070
     3
1000
774350
1002
}
  0
ARC
  5
56A88
330
1F
100
AcDbEntity
  8
freecads.com
100
AcDbCircle
 10
154194.3922739146
 20
113504.6023171023
 30
0.0
 40
556.9021452295506
100
AcDbArc
 50
314.0324385650272
 51
338.0989104104079
1001
REVIT
1002
{
1070
     3
1000
774350
1002
}
  0
ARC
  5
56A89
330
1F
100
AcDbEntity
  8
freecads.com
100
AcDbCircle
 10
154535.0929758612
 20
113152.1957195204
 30
0.0
 40
66.73138145875715
100
AcDbArc
 50
256.6878344130052
 51
314.0324385650272
1001
REVIT
1002
{
1070
     3
1000
774350
1002
}
  0
ARC
  5
56A8A
330
1F
100
AcDbEntity
  8
freecads.com
100
AcDbCircle
 10
154521.4105760296
 20
113094.3699201817
 30
0.0
 40
7.308901422468431
100
AcDbArc
 50
149.7549252073159
 51
256.6878344130052
1001
REVIT
1002
{
1070
     3
1000
774350
1002
}
  0
ARC
  5
56A8B
330
1F
100
AcDbEntity
  8
freecads.com
100
AcDbCircle
 10
154610.8492976001
 20
113235.052236189
 30
0.0
 40
59.26583653408576
100
AcDbArc
 50
109.8368683802946
 51
164.6814589581901
1001
REVIT
1002
{
1070
     3
1000
774350
1002
}
  0
ARC
  5
56A8C
330
1F
100
AcDbEntity
  8
freecads.com
100
AcDbCircle
 10
154587.619769824
 20
113299.4446478701
 30
0.0
 40
9.188481582243751
100
AcDbArc
 50
289.8368683802946
 51
54.10596481971667
1001
REVIT
1002
{
1070
     3
1000
774350
1002
}
  0
ARC
  5
56A8D
330
1F
100
AcDbEntity
  8
freecads.com
100
AcDbCircle
 10
154628.4014594644
 20
113227.6391867364
 30
0.0
 40
52.66251782204595
100
AcDbArc
 50
83.93961256592346
 51
168.2389811396943
1001
REVIT
1002
{
1070
     3
1000
774350
1002
}
  0
ARC
  5
56A8E
330
1F
100
AcDbEntity
  8
freecads.com
100
AcDbCircle
 10
154626.7808124513
 20
113212.3745412896
 30
0.0
 40
68.01295419467438
100
AcDbArc
 50
54.39341362751665
 51
83.93961256592346
1001
REVIT
1002
{
1070
     3
1000
774350
1002
}
  0
ARC
  5
56A8F
330
1F
100
AcDbEntity
  8
freecads.com
100
AcDbCircle
 10
154520.557589197
 20
113253.2103145475
 30
0.0
 40
146.5367693107634
100
AcDbArc
 50
331.7265418057471
 51
5.663487087723152
1001
REVIT
1002
{
1070
     3
1000
774350
1002
}
  0
ARC
  5
56A90
330
1F
100
AcDbEntity
  8
freecads.com
100
AcDbCircle
 10
154364.2388012152
 20
113290.1732427282
 30
0.0
 40
269.8135571813633
100
AcDbArc
 50
315.0621723639738
 51
349.2648830579053
1001
REVIT
1002
{
1070
     3
1000
774350
1002
}
  0
ARC
  5
56A91
330
1F
100
AcDbEntity
  8
freecads.com
100
AcDbCircle
 10
154657.5139299998
 20
113234.5721412613
 30
0.0
 40
28.6856611936506
100
AcDbArc
 50
96.97693241235588
 51
169.2648830579052
1001
REVIT
1002
{
1070
     3
1000
774350
1002
}
  0
ARC
  5
56A92
330
1F
100
AcDbEntity
  8
freecads.com
100
AcDbCircle
 10
154903.4147726283
 20
273969.8122683892
 30
0.0
 40
160672.9380339942
100
AcDbArc
 50
269.1427815373853
 51
269.8905525302788
1001
REVIT
1002
{
1070
     3
1000
774350
1002
}
  0
ARC
  5
56A93
330
1F
100
AcDbEntity
  8
freecads.com
100
AcDbCircle
 10
152603.637010938
 20
119800.3344339989
 30
0.0
 40
6486.311896583091
100
AcDbArc
 50
262.9685100547656
 51
269.081463654494
1001
REVIT
1002
{
1070
     3
1000
774350
1002
}
  0
ARC
  5
56A94
330
1F
100
AcDbEntity
  8
freecads.com
100
AcDbCircle
 10
151569.5991324717
 20
113497.5786693463
 30
0.0
 40
105.4884542690221
100
AcDbArc
 50
194.7653175089756
 51
263.4683460119841
1001
REVIT
1002
{
1070
     3
1000
774350
1002
}
  0
ARC
  5
56A95
330
1F
100
AcDbEntity
  8
freecads.com
100
AcDbCircle
 10
152832.5389148251
 20
114097.3049560189
 30
0.0
 40
1501.904047266116
100
AcDbArc
 50
177.2196686654686
 51
204.6586413919272
1001
REVIT
1002
{
1070
     3
1000
774350
1002
}
  0
ARC
  5
56A96
330
1F
100
AcDbEntity
  8
freecads.com
100
AcDbCircle
 10
154291.129449058
 20
144581.0817309346
 30
0.0
 40
31375.64404514763
100
AcDbArc
 50
269.5042103312355
 51
270.4550217085181
1001
REVIT
1002
{
1070
     3
1000
774350
1002
}
  0
ARC
  5
56A97
330
1F
100
AcDbEntity
  8
freecads.com
100
AcDbCircle
 10
153330.468580198
 20
24562.28346898411
 30
0.0
 40
88647.00779282056
100
AcDbArc
 50
89.55455564131808
 51
90.44544051825075
1001
REVIT
1002
{
1070
     3
1000
774350
1002
}
  0
ARC
  5
56A98
330
1F
100
AcDbEntity
  8
freecads.com
100
AcDbCircle
 10
152507.1779456067
 20
116797.9580004559
 30
0.0
 40
3593.849602732174
100
AcDbArc
 50
260.9321888620284
 51
272.1389526274993
1001
REVIT
1002
{
1070
     3
1000
774350
1002
}
  0
ARC
  5
56A99
330
1F
100
AcDbEntity
  8
freecads.com
100
AcDbCircle
 10
155471.1481158802
 20
135369.4666056002
 30
0.0
 40
22400.39237492942
100
AcDbArc
 50
259.8491366155162
 51
260.9321888620284
1001
REVIT
1002
{
1070
     3
1000
774350
1002
}
  0
ARC
  5
56A9A
330
1F
100
AcDbEntity
  8
freecads.com
100
AcDbCircle
 10
151589.9102926924
 20
113691.8231732277
 30
0.0
 40
378.0348301634435
100
AcDbArc
 50
236.5915556053111
 51
259.8491366155162
1001
REVIT
1002
{
1070
     3
1000
774350
1002
}
  0
ARC
  5
56A9B
330
1F
100
AcDbEntity
  8
freecads.com
100
AcDbCircle
 10
152978.6470034018
 20
114014.6240837364
 30
0.0
 40
1719.755094915186
100
AcDbArc
 50
183.1369772459829
 51
201.789593043451
1001
REVIT
1002
{
1070
     3
1000
774350
1002
}
  0
ARC
  5
56A9C
330
1F
100
AcDbEntity
  8
freecads.com
100
AcDbCircle
 10
153539.0196422493
 20
114045.3355067403
 30
0.0
 40
2280.968678206794
100
AcDbArc
 50
176.8630179572226
 51
183.1369772459829
1001
REVIT
1002
{
1070
     3
1000
774350
1002
}
  0
ARC
  5
56A9D
330
1F
100
AcDbEntity
  8
freecads.com
100
AcDbCircle
 10
154194.3923214271
 20
114835.7127803626
 30
0.0
 40
556.9021452295506
100
AcDbArc
 50
21.90110253112729
 51
45.96757070858415
1001
REVIT
1002
{
1070
     3
1000
774350
1002
}
  0
ARC
  5
56A9E
330
1F
100
AcDbEntity
  8
freecads.com
100
AcDbCircle
 10
154535.0930452439
 20
115188.1193548222
 30
0.0
 40
66.73138145875319
100
AcDbArc
 50
45.96757070858415
 51
103.3121532664267
1001
REVIT
1002
{
1070
     3
1000
774350
1002
}
  0
ARC
  5
56A9F
330
1F
100
AcDbEntity
  8
freecads.com
100
AcDbCircle
 10
154521.410649539
 20
115245.9451547314
 30
0.0
 40
7.308901422468226
100
AcDbArc
 50
103.3121532664267
 51
210.2450688435779
1001
REVIT
1002
{
1070
     3
1000
774350
1002
}
  0
ARC
  5
56AA0
330
1F
100
AcDbEntity
  8
freecads.com
100
AcDbCircle
 10
154610.8493622833
 20
115105.2628326407
 30
0.0
 40
59.26583653408584
100
AcDbArc
 50
195.3185380636099
 51
250.1631234882657
1001
REVIT
1002
{
1070
     3
1000
774350
1002
}
  0
ARC
  5
56AA1
330
1F
100
AcDbEntity
  8
freecads.com
100
AcDbCircle
 10
154587.6198297816
 20
115040.8704226319
 30
0.0
 40
9.188481582243611
100
AcDbArc
 50
305.8940353200473
 51
70.16312348826573
1001
REVIT
1002
{
1070
     3
1000
774350
1002
}
  0
ARC
  5
56AA2
330
1F
100
AcDbEntity
  8
freecads.com
100
AcDbCircle
 10
154628.4015244657
 20
115112.6758810678
 30
0.0
 40
52.66251782203956
100
AcDbArc
 50
191.7610300189591
 51
276.0603796532899
1001
REVIT
1002
{
1070
     3
1000
774350
1002
}
  0
ARC
  5
56AA3
330
1F
100
AcDbEntity
  8
freecads.com
100
AcDbCircle
 10
154626.7808776616
 20
115127.9405267046
 30
0.0
 40
68.01295419466423
100
AcDbArc
 50
276.0603796532899
 51
305.6065592850973
1001
REVIT
1002
{
1070
     3
1000
774350
1002
}
  0
ARC
  5
56AA4
330
1F
100
AcDbEntity
  8
freecads.com
100
AcDbCircle
 10
154520.5576515469
 20
115087.1047606393
 30
0.0
 40
146.536769310788
100
AcDbArc
 50
354.3365097149001
 51
28.27346389276777
1001
REVIT
1002
{
1070
     3
1000
774350
1002
}
  0
ARC
  5
56AA5
330
1F
100
AcDbEntity
  8
freecads.com
100
AcDbCircle
 10
154364.2388627206
 20
115050.1418433285
 30
0.0
 40
269.8135571813414
100
AcDbArc
 50
10.73509941557522
 51
44.93782401052754
1001
REVIT
1002
{
1070
     3
1000
774350
1002
}
  0
ARC
  5
56AA6
330
1F
100
AcDbEntity
  8
freecads.com
100
AcDbCircle
 10
154657.5139947974
 20
115105.7429245126
 30
0.0
 40
28.68566119365879
100
AcDbArc
 50
190.7350994155752
 51
263.0230705931184
1001
REVIT
1002
{
1070
     3
1000
774350
1002
}
  0
LINE
  5
56AA7
330
1F
100
AcDbEntity
  8
freecads.com
100
AcDbLine
 10
156310.4665767117
 20
114658.5605496087
 30
0.0
 11
156300.3662878055
 21
114574.8225830576
 31
0.0
1001
REVIT
1002
{
1070
     3
1000
774350
1002
}
  0
LINE
  5
56AA8
330
1F
100
AcDbEntity
  8
freecads.com
100
AcDbLine
 10
155145.5587500385
 20
115039.2589939869
 30
0.0
 11
155145.558749013
 21
115004.7023032837
 31
0.0
1001
REVIT
1002
{
1070
     3
1000
774350
1002
}
  0
LINE
  5
56AA9
330
1F
100
AcDbEntity
  8
freecads.com
100
AcDbLine
 10
156290.1024307608
 20
114920.8245534862
 30
0.0
 11
156249.9295866666
 21
114911.6650907734
 31
0.0
1001
REVIT
1002
{
1070
     3
1000
774350
1002
}
  0
LINE
  5
56AAA
330
1F
100
AcDbEntity
  8
freecads.com
100
AcDbLine
 10
156339.2975033778
 20
114557.2761762882
 30
0.0
 11
156321.0258973559
 21
114546.6901252607
 31
0.0
1001
REVIT
1002
{
1070
     3
1000
774350
1002
}
  0
LINE
  5
56AAB
330
1F
100
AcDbEntity
  8
freecads.com
100
AcDbLine
 10
156386.8389632214
 20
114212.8405800369
 30
0.0
 11
156363.7980038792
 21
114212.0268974406
 31
0.0
1001
REVIT
1002
{
1070
     3
1000
774350
1002
}
  0
LINE
  5
56AAC
330
1F
100
AcDbEntity
  8
freecads.com
100
AcDbLine
 10
156387.0432580636
 20
114227.3629828594
 30
0.0
 11
156360.7046797033
 21
114226.4328463066
 31
0.0
1001
REVIT
1002
{
1070
     3
1000
774350
1002
}
  0
LINE
  5
56AAD
330
1F
100
AcDbEntity
  8
freecads.com
100
AcDbLine
 10
156387.0150359603
 20
114247.1243379584
 30
0.0
 11
156356.7378520494
 21
114246.0551110262
 31
0.0
1001
REVIT
1002
{
1070
     3
1000
774350
1002
}
  0
LINE
  5
56AAE
330
1F
100
AcDbEntity
  8
freecads.com
100
AcDbLine
 10
156386.6341138649
 20
114266.873216864
 30
0.0
 11
156352.9747076859
 21
114265.6845483099
 31
0.0
1001
REVIT
1002
{
1070
     3
1000
774350
1002
}
  0
LINE
  5
56AAF
330
1F
100
AcDbEntity
  8
freecads.com
100
AcDbLine
 10
156386.0271261446
 20
114283.7909311431
 30
0.0
 11
156349.9105391685
 21
114282.5154883905
 31
0.0
1001
REVIT
1002
{
1070
     3
1000
774350
1002
}
  0
LINE
  5
56AB0
330
1F
100
AcDbEntity
  8
freecads.com
100
AcDbLine
 10
156385.1612312962
 20
114300.6995021623
 30
0.0
 11
156346.9947523986
 21
114299.3516679171
 31
0.0
1001
REVIT
1002
{
1070
     3
1000
774350
1002
}
  0
LINE
  5
56AB1
330
1F
100
AcDbEntity
  8
freecads.com
100
AcDbLine
 10
156383.8158764722
 20
114320.5141530215
 30
0.0
 11
156343.7641118764
 21
114319.0997407005
 31
0.0
1001
REVIT
1002
{
1070
     3
1000
774350
1002
}
  0
LINE
  5
56AB2
330
1F
100
AcDbEntity
  8
freecads.com
100
AcDbLine
 10
156381.852395565
 20
114343.0303464165
 30
0.0
 11
156340.3365278048
 21
114341.5642300709
 31
0.0
1001
REVIT
1002
{
1070
     3
1000
774350
1002
}
  0
LINE
  5
56AB3
330
1F
100
AcDbEntity
  8
freecads.com
100
AcDbLine
 10
156380.3902670416
 20
114357.094659958
 30
0.0
 11
156338.3267910391
 21
114355.6092049363
 31
0.0
1001
REVIT
1002
{
1070
     3
1000
774350
1002
}
  0
LINE
  5
56AB4
330
1F
100
AcDbEntity
  8
freecads.com
100
AcDbLine
 10
156379.0780537794
 20
114368.4408959697
 30
0.0
 11
156336.7789196293
 21
114366.9471185541
 31
0.0
1001
REVIT
1002
{
1070
     3
1000
774350
1002
}
  0
LINE
  5
56AB5
330
1F
100
AcDbEntity
  8
freecads.com
100
AcDbLine
 10
156374.8989534174
 20
114399.3484308698
 30
0.0
 11
156332.894873507
 21
114397.8650732208
 31
0.0
1001
REVIT
1002
{
1070
     3
1000
774350
1002
}
  0
LINE
  5
56AB6
330
1F
100
AcDbEntity
  8
freecads.com
100
AcDbLine
 10
156377.6735528906
 20
114379.5842533606
 30
0.0
 11
156335.3225341631
 21
114378.0886437347
 31
0.0
1001
REVIT
1002
{
1070
     3
1000
774350
1002
}
  0
LINE
  5
56AB7
330
1F
100
AcDbEntity
  8
freecads.com
100
AcDbLine
 10
156373.1756648117
 20
114410.4805303271
 30
0.0
 11
156331.6149689077
 21
114409.012830759
 31
0.0
1001
REVIT
1002
{
1070
     3
1000
774350
1002
}
  0
LINE
  5
56AB8
330
1F
100
AcDbEntity
  8
freecads.com
100
AcDbLine
 10
156370.3475935684
 20
114427.319808019
 30
0.0
 11
156329.7986186598
 21
114425.8878370601
 31
0.0
1001
REVIT
1002
{
1070
     3
1000
774350
1002
}
  0
LINE
  5
56AB9
330
1F
100
AcDbEntity
  8
freecads.com
100
AcDbLine
 10
156368.3142663656
 20
114438.5407682964
 30
0.0
 11
156328.6683054873
 21
114437.1406869352
 31
0.0
1001
REVIT
1002
{
1070
     3
1000
774350
1002
}
  0
LINE
  5
56ABA
330
1F
100
AcDbEntity
  8
freecads.com
100
AcDbLine
 10
156365.0410250966
 20
114455.3643250834
 30
0.0
 11
156327.0935432017
 21
114454.0242245368
 31
0.0
1001
REVIT
1002
{
1070
     3
1000
774350
1002
}
  0
LINE
  5
56ABB
330
1F
100
AcDbEntity
  8
freecads.com
100
AcDbLine
 10
156362.1288217879
 20
114469.2776198723
 30
0.0
 11
156325.8998959249
 21
114467.9982094306
 31
0.0
1001
REVIT
1002
{
1070
     3
1000
774350
1002
}
  0
LINE
  5
56ABC
330
1F
100
AcDbEntity
  8
freecads.com
100
AcDbLine
 10
156359.6473294528
 20
114480.4827531268
 30
0.0
 11
156325.0101487927
 21
114479.2595549831
 31
0.0
1001
REVIT
1002
{
1070
     3
1000
774350
1002
}
  0
LINE
  5
56ABD
330
1F
100
AcDbEntity
  8
freecads.com
100
AcDbLine
 10
156357.0444895449
 20
114491.6836016862
 30
0.0
 11
156324.1845779242
 21
114490.5231669019
 31
0.0
1001
REVIT
1002
{
1070
     3
1000
774350
1002
}
  0
LINE
  5
56ABE
330
1F
100
AcDbEntity
  8
freecads.com
100
AcDbLine
 10
156353.544424696
 20
114505.9753958273
 30
0.0
 11
156323.2239037177
 21
114504.9046387676
 31
0.0
1001
REVIT
1002
{
1070
     3
1000
774350
1002
}
  0
LINE
  5
56ABF
330
1F
100
AcDbEntity
  8
freecads.com
100
AcDbLine
 10
156350.6624979472
 20
114517.1663883415
 30
0.0
 11
156322.5442864761
 21
114516.1734047057
 31
0.0
1001
REVIT
1002
{
1070
     3
1000
774350
1002
}
  0
LINE
  5
56AC0
330
1F
100
AcDbEntity
  8
freecads.com
100
AcDbLine
 10
156348.4197565884
 20
114525.5567514938
 30
0.0
 11
156322.0766140607
 21
114524.6264539117
 31
0.0
1001
REVIT
1002
{
1070
     3
1000
774350
1002
}
  0
LINE
  5
56AC1
330
1F
100
AcDbEntity
  8
freecads.com
100
AcDbLine
 10
155060.6333267093
 20
115125.4396939429
 30
0.0
 11
155085.9316528645
 21
115139.5604114225
 31
0.0
1001
REVIT
1002
{
1070
     3
1000
774350
1002
}
  0
LINE
  5
56AC2
330
1F
100
AcDbEntity
  8
freecads.com
100
AcDbLine
 10
155085.9316528645
 20
115139.5604114225
 30
0.0
 11
155167.8944029166
 21
115131.0908437385
 31
0.0
1001
REVIT
1002
{
1070
     3
1000
774350
1002
}
  0
LINE
  5
56AC3
330
1F
100
AcDbEntity
  8
freecads.com
100
AcDbLine
 10
155167.8944029166
 20
115131.0908437385
 30
0.0
 11
155176.4463508132
 21
115122.384501146
 31
0.0
1001
REVIT
1002
{
1070
     3
1000
774350
1002
}
  0
LINE
  5
56AC4
330
1F
100
AcDbEntity
  8
freecads.com
100
AcDbLine
 10
156438.8727319159
 20
114230.0575649747
 30
0.0
 11
156437.6822789633
 21
114170.1574714024
 31
0.0
1001
REVIT
1002
{
1070
     3
1000
774350
1002
}
  0
LINE
  5
56AC5
330
1F
100
AcDbEntity
  8
freecads.com
100
AcDbLine
 10
156437.6822789633
 20
114170.1574714024
 30
0.0
 11
156438.8727270215
 21
114110.2573776641
 31
0.0
1001
REVIT
1002
{
1070
     3
1000
774350
1002
}
  0
LINE
  5
56AC6
330
1F
100
AcDbEntity
  8
freecads.com
100
AcDbLine
 10
156353.6345565048
 20
114196.6476955989
 30
0.0
 11
156353.375927538
 21
114170.1574742936
 31
0.0
1001
REVIT
1002
{
1070
     3
1000
774350
1002
}
  0
LINE
  5
56AC7
330
1F
100
AcDbEntity
  8
freecads.com
100
AcDbLine
 10
156353.375927538
 20
114170.1574742936
 30
0.0
 11
156353.6345547119
 21
114143.6672530262
 31
0.0
1001
REVIT
1002
{
1070
     3
1000
774350
1002
}
  0
LINE
  5
56AC8
330
1F
100
AcDbEntity
  8
freecads.com
100
AcDbLine
 10
154871.7921249621
 20
115043.440378782
 30
0.0
 11
154711.1023384719
 21
115043.4403843476
 31
0.0
1001
REVIT
1002
{
1070
     3
1000
774350
1002
}
  0
LINE
  5
56AC9
330
1F
100
AcDbEntity
  8
freecads.com
100
AcDbLine
 10
154933.8963043016
 20
114974.4529352217
 30
0.0
 11
154907.0193667614
 21
114993.815670258
 31
0.0
1001
REVIT
1002
{
1070
     3
1000
774350
1002
}
  0
LINE
  5
56ACA
330
1F
100
AcDbEntity
  8
freecads.com
100
AcDbLine
 10
154811.0678388147
 20
115025.0239521548
 30
0.0
 11
154894.704766028
 21
114993.9539737014
 31
0.0
1001
REVIT
1002
{
1070
     3
1000
774350
1002
}
  0
LINE
  5
56ACB
330
1F
100
AcDbEntity
  8
freecads.com
100
AcDbLine
 10
154913.8588557461
 20
115128.696930584
 30
0.0
 11
154859.878422047
 21
115043.4403789814
 31
0.0
1001
REVIT
1002
{
1070
     3
1000
774350
1002
}
  0
LINE
  5
56ACC
330
1F
100
AcDbEntity
  8
freecads.com
100
AcDbLine
 10
154872.5543680877
 20
115034.7216681984
 30
0.0
 11
154752.1278517827
 21
115015.7278791928
 31
0.0
1001
REVIT
1002
{
1070
     3
1000
774350
1002
}
  0
LINE
  5
56ACD
330
1F
100
AcDbEntity
  8
freecads.com
100
AcDbLine
 10
154752.1278517827
 20
115015.7278791928
 30
0.0
 11
154419.3703477877
 21
114927.0902440795
 31
0.0
1001
REVIT
1002
{
1070
     3
1000
774350
1002
}
  0
LINE
  5
56ACE
330
1F
100
AcDbEntity
  8
freecads.com
100
AcDbLine
 10
152453.9578887337
 20
114987.2372790984
 30
0.0
 11
152501.3866826724
 21
115025.485057893
 31
0.0
1001
REVIT
1002
{
1070
     3
1000
774350
1002
}
  0
LINE
  5
56ACF
330
1F
100
AcDbEntity
  8
freecads.com
100
AcDbLine
 10
152453.9578889018
 20
114958.7466201866
 30
0.0
 11
152520.5093646883
 21
115009.3966987916
 31
0.0
1001
REVIT
1002
{
1070
     3
1000
774350
1002
}
  0
LINE
  5
56AD0
330
1F
100
AcDbEntity
  8
freecads.com
100
AcDbLine
 10
151371.3932735743
 20
114726.7251571798
 30
0.0
 11
151416.9593250758
 21
114744.8570028321
 31
0.0
1001
REVIT
1002
{
1070
     3
1000
774350
1002
}
  0
LINE
  5
56AD1
330
1F
100
AcDbEntity
  8
freecads.com
100
AcDbLine
 10
151510.4706205412
 20
114892.0887148034
 30
0.0
 11
151474.0374866304
 21
114851.4141893546
 31
0.0
1001
REVIT
1002
{
1070
     3
1000
774350
1002
}
  0
LINE
  5
56AD2
330
1F
100
AcDbEntity
  8
freecads.com
100
AcDbLine
 10
151474.0374866304
 20
114851.4141893546
 30
0.0
 11
151424.6574357265
 21
114766.0642412269
 31
0.0
1001
REVIT
1002
{
1070
     3
1000
774350
1002
}
  0
LINE
  5
56AD3
330
1F
100
AcDbEntity
  8
freecads.com
100
AcDbLine
 10
154052.7834257441
 20
115104.0531653885
 30
0.0
 11
153994.5223284357
 21
115124.0583424448
 31
0.0
1001
REVIT
1002
{
1070
     3
1000
774350
1002
}
  0
LINE
  5
56AD4
330
1F
100
AcDbEntity
  8
freecads.com
100
AcDbLine
 10
153994.5223284357
 20
115124.0583424448
 30
0.0
 11
153930.7993694185
 21
115131.3329498406
 31
0.0
1001
REVIT
1002
{
1070
     3
1000
774350
1002
}
  0
LINE
  5
56AD5
330
1F
100
AcDbEntity
  8
freecads.com
100
AcDbLine
 10
153930.7993694185
 20
115131.3329498406
 30
0.0
 11
153878.0002239206
 21
115129.5143117035
 31
0.0
1001
REVIT
1002
{
1070
     3
1000
774350
1002
}
  0
LINE
  5
56AD6
330
1F
100
AcDbEntity
  8
freecads.com
100
AcDbLine
 10
153878.0002239206
 20
115129.5143117035
 30
0.0
 11
153808.8152215118
 21
115114.9650591319
 31
0.0
1001
REVIT
1002
{
1070
     3
1000
774350
1002
}
  0
LINE
  5
56AD7
330
1F
100
AcDbEntity
  8
freecads.com
100
AcDbLine
 10
153808.8152215118
 20
115114.9650591319
 30
0.0
 11
153801.5326167942
 21
115100.4158493136
 31
0.0
1001
REVIT
1002
{
1070
     3
1000
774350
1002
}
  0
LINE
  5
56AD8
330
1F
100
AcDbEntity
  8
freecads.com
100
AcDbLine
 10
153801.5326167942
 20
115100.4158493136
 30
0.0
 11
153806.9945698163
 21
115094.9598839864
 31
0.0
1001
REVIT
1002
{
1070
     3
1000
774350
1002
}
  0
LINE
  5
56AD9
330
1F
100
AcDbEntity
  8
freecads.com
100
AcDbLine
 10
153806.9945698163
 20
115094.9598839864
 30
0.0
 11
153883.4622663208
 21
115093.1412411121
 31
0.0
1001
REVIT
1002
{
1070
     3
1000
774350
1002
}
  0
LINE
  5
56ADA
330
1F
100
AcDbEntity
  8
freecads.com
100
AcDbLine
 10
153883.4622663208
 20
115093.1412411121
 30
0.0
 11
153894.3861707241
 21
115085.8666356416
 31
0.0
1001
REVIT
1002
{
1070
     3
1000
774350
1002
}
  0
LINE
  5
56ADB
330
1F
100
AcDbEntity
  8
freecads.com
100
AcDbLine
 10
153894.3861707241
 20
115085.8666356416
 30
0.0
 11
153976.3158195572
 21
115087.6852729713
 31
0.0
1001
REVIT
1002
{
1070
     3
1000
774350
1002
}
  0
LINE
  5
56ADC
330
1F
100
AcDbEntity
  8
freecads.com
100
AcDbLine
 10
153976.3158195572
 20
115087.6852729713
 30
0.0
 11
153994.5223277516
 21
115094.9598776074
 31
0.0
1001
REVIT
1002
{
1070
     3
1000
774350
1002
}
  0
LINE
  5
56ADD
330
1F
100
AcDbEntity
  8
freecads.com
100
AcDbLine
 10
153994.5223277516
 20
115094.9598776074
 30
0.0
 11
154012.7289261961
 21
115102.2344822074
 31
0.0
1001
REVIT
1002
{
1070
     3
1000
774350
1002
}
  0
LINE
  5
56ADE
330
1F
100
AcDbEntity
  8
freecads.com
100
AcDbLine
 10
154012.7289261961
 20
115102.2344822074
 30
0.0
 11
154045.5008230814
 21
115096.7785159607
 31
0.0
1001
REVIT
1002
{
1070
     3
1000
774350
1002
}
  0
LINE
  5
56ADF
330
1F
100
AcDbEntity
  8
freecads.com
100
AcDbLine
 10
154045.5008230814
 20
115096.7785159607
 30
0.0
 11
154052.7834257441
 21
115104.0531653885
 31
0.0
1001
REVIT
1002
{
1070
     3
1000
774350
1002
}
  0
LINE
  5
56AE0
330
1F
100
AcDbEntity
  8
freecads.com
100
AcDbLine
 10
153992.7016773887
 20
115093.1412373736
 30
0.0
 11
153965.391824502
 21
115109.509133307
 31
0.0
1001
REVIT
1002
{
1070
     3
1000
774350
1002
}
  0
LINE
  5
56AE1
330
1F
100
AcDbEntity
  8
freecads.com
100
AcDbLine
 10
153965.391824502
 20
115109.509133307
 30
0.0
 11
153916.2340716936
 21
115109.5091350486
 31
0.0
1001
REVIT
1002
{
1070
     3
1000
774350
1002
}
  0
LINE
  5
56AE2
330
1F
100
AcDbEntity
  8
freecads.com
100
AcDbLine
 10
153916.2340716936
 20
115109.5091350486
 30
0.0
 11
153888.9242188754
 21
115100.415846042
 31
0.0
1001
REVIT
1002
{
1070
     3
1000
774350
1002
}
  0
LINE
  5
56AE3
330
1F
100
AcDbEntity
  8
freecads.com
100
AcDbLine
 10
153888.9242188754
 20
115100.415846042
 30
0.0
 11
153879.9261159805
 21
115093.2253420356
 31
0.0
1001
REVIT
1002
{
1070
     3
1000
774350
1002
}
  0
LINE
  5
56AE4
330
1F
100
AcDbEntity
  8
freecads.com
100
AcDbLine
 10
152904.5251898492
 20
115096.4966492038
 30
0.0
 11
152845.2077938205
 21
115113.110169675
 31
0.0
1001
REVIT
1002
{
1070
     3
1000
774350
1002
}
  0
LINE
  5
56AE5
330
1F
100
AcDbEntity
  8
freecads.com
100
AcDbLine
 10
152845.2077938205
 20
115113.110169675
 30
0.0
 11
152781.1714564495
 21
115116.6994458338
 31
0.0
1001
REVIT
1002
{
1070
     3
1000
774350
1002
}
  0
LINE
  5
56AE6
330
1F
100
AcDbEntity
  8
freecads.com
100
AcDbLine
 10
152781.1714564495
 20
115116.6994458338
 30
0.0
 11
152728.5649380604
 21
115111.8402868697
 31
0.0
1001
REVIT
1002
{
1070
     3
1000
774350
1002
}
  0
LINE
  5
56AE7
330
1F
100
AcDbEntity
  8
freecads.com
100
AcDbLine
 10
152728.5649380604
 20
115111.8402868697
 30
0.0
 11
152660.333648383
 21
115093.3271388066
 31
0.0
1001
REVIT
1002
{
1070
     3
1000
774350
1002
}
  0
LINE
  5
56AE8
330
1F
100
AcDbEntity
  8
freecads.com
100
AcDbLine
 10
152660.333648383
 20
115093.3271388066
 30
0.0
 11
152653.9018271147
 21
115078.3823237082
 31
0.0
1001
REVIT
1002
{
1070
     3
1000
774350
1002
}
  0
LINE
  5
56AE9
330
1F
100
AcDbEntity
  8
freecads.com
100
AcDbLine
 10
152653.9018271147
 20
115078.3823237082
 30
0.0
 11
152659.6692002535
 21
115073.2502785438
 31
0.0
1001
REVIT
1002
{
1070
     3
1000
774350
1002
}
  0
LINE
  5
56AEA
330
1F
100
AcDbEntity
  8
freecads.com
100
AcDbLine
 10
152659.6692002535
 20
115073.2502785438
 30
0.0
 11
152736.1145806051
 21
115075.8425501639
 31
0.0
1001
REVIT
1002
{
1070
     3
1000
774350
1002
}
  0
LINE
  5
56AEB
330
1F
100
AcDbEntity
  8
freecads.com
100
AcDbLine
 10
152736.1145806051
 20
115075.8425501639
 30
0.0
 11
152747.43965654
 21
115069.2097364917
 31
0.0
1001
REVIT
1002
{
1070
     3
1000
774350
1002
}
  0
LINE
  5
56AEC
330
1F
100
AcDbEntity
  8
freecads.com
100
AcDbLine
 10
152747.43965654
 20
115069.2097364917
 30
0.0
 11
152829.1282403329
 21
115075.7480880991
 31
0.0
1001
REVIT
1002
{
1070
     3
1000
774350
1002
}
  0
LINE
  5
56AED
330
1F
100
AcDbEntity
  8
freecads.com
100
AcDbLine
 10
152829.1282403329
 20
115075.7480880991
 30
0.0
 11
152846.8851389501
 21
115084.0600893001
 31
0.0
1001
REVIT
1002
{
1070
     3
1000
774350
1002
}
  0
LINE
  5
56AEE
330
1F
100
AcDbEntity
  8
freecads.com
100
AcDbLine
 10
152846.8851389501
 20
115084.0600893001
 30
0.0
 11
152864.6421298259
 21
115092.3720953312
 31
0.0
1001
REVIT
1002
{
1070
     3
1000
774350
1002
}
  0
LINE
  5
56AEF
330
1F
100
AcDbEntity
  8
freecads.com
100
AcDbLine
 10
152864.6421298259
 20
115092.3720953312
 30
0.0
 11
152897.6740348331
 21
115088.8142988144
 31
0.0
1001
REVIT
1002
{
1070
     3
1000
774350
1002
}
  0
LINE
  5
56AF0
330
1F
100
AcDbEntity
  8
freecads.com
100
AcDbLine
 10
152897.6740348331
 20
115088.8142988144
 30
0.0
 11
152904.5251898492
 21
115096.4966492038
 31
0.0
1001
REVIT
1002
{
1070
     3
1000
774350
1002
}
  0
LINE
  5
56AF1
330
1F
100
AcDbEntity
  8
freecads.com
100
AcDbLine
 10
152845.1723494228
 20
115082.1395238615
 30
0.0
 11
152816.964399472
 21
115096.9059588641
 31
0.0
1001
REVIT
1002
{
1070
     3
1000
774350
1002
}
  0
LINE
  5
56AF2
330
1F
100
AcDbEntity
  8
freecads.com
100
AcDbLine
 10
152816.964399472
 20
115096.9059588641
 30
0.0
 11
152767.8883858554
 21
115094.0723196224
 31
0.0
1001
REVIT
1002
{
1070
     3
1000
774350
1002
}
  0
LINE
  5
56AF3
330
1F
100
AcDbEntity
  8
freecads.com
100
AcDbLine
 10
152767.8883858554
 20
115094.0723196224
 30
0.0
 11
152741.1481151386
 21
115083.4199067602
 31
0.0
1001
REVIT
1002
{
1070
     3
1000
774350
1002
}
  0
LINE
  5
56AF4
330
1F
100
AcDbEntity
  8
freecads.com
100
AcDbLine
 10
152741.1481151386
 20
115083.4199067602
 30
0.0
 11
152732.5794631953
 21
115075.7226738718
 31
0.0
1001
REVIT
1002
{
1070
     3
1000
774350
1002
}
  0
LINE
  5
56AF5
330
1F
100
AcDbEntity
  8
freecads.com
100
AcDbLine
 10
152922.0161039704
 20
115010.1524452553
 30
0.0
 11
152873.7825293376
 21
114857.4290562955
 31
0.0
1001
REVIT
1002
{
1070
     3
1000
774350
1002
}
  0
LINE
  5
56AF6
330
1F
100
AcDbEntity
  8
freecads.com
100
AcDbLine
 10
152900.4392876382
 20
115010.0194276125
 30
0.0
 11
152853.3089758792
 21
114859.5074344534
 31
0.0
1001
REVIT
1002
{
1070
     3
1000
774350
1002
}
  0
LINE
  5
56AF7
330
1F
100
AcDbEntity
  8
freecads.com
100
AcDbLine
 10
154594.6860207404
 20
115034.9969964164
 30
0.0
 11
154522.8151229282
 21
114967.7876928756
 31
0.0
1001
REVIT
1002
{
1070
     3
1000
774350
1002
}
  0
LINE
  5
56AF8
330
1F
100
AcDbEntity
  8
freecads.com
100
AcDbLine
 10
154522.8151229282
 20
114967.7876928756
 30
0.0
 11
154526.5729630215
 21
114955.6461327189
 31
0.0
1001
REVIT
1002
{
1070
     3
1000
774350
1002
}
  0
LINE
  5
56AF9
330
1F
100
AcDbEntity
  8
freecads.com
100
AcDbLine
 10
154644.7675225171
 20
115043.2381699858
 30
0.0
 11
154633.9614490235
 21
115060.3076842866
 31
0.0
1001
REVIT
1002
{
1070
     3
1000
774350
1002
}
  0
LINE
  5
56AFA
330
1F
100
AcDbEntity
  8
freecads.com
100
AcDbLine
 10
154633.9614490235
 20
115060.3076842866
 30
0.0
 11
154644.7675225171
 21
115043.2381699858
 31
0.0
1001
REVIT
1002
{
1070
     3
1000
774350
1002
}
  0
LINE
  5
56AFB
330
1F
100
AcDbEntity
  8
freecads.com
100
AcDbLine
 10
154735.8456018447
 20
115037.1776770295
 30
0.0
 11
154692.6220338569
 21
115017.1316899293
 31
0.0
1001
REVIT
1002
{
1070
     3
1000
774350
1002
}
  0
LINE
  5
56AFC
330
1F
100
AcDbEntity
  8
freecads.com
100
AcDbLine
 10
154692.6220338569
 20
115017.1316899293
 30
0.0
 11
154630.8740863614
 21
115017.1316919818
 31
0.0
1001
REVIT
1002
{
1070
     3
1000
774350
1002
}
  0
LINE
  5
56AFD
330
1F
100
AcDbEntity
  8
freecads.com
100
AcDbLine
 10
154630.8740863614
 20
115017.1316919818
 30
0.0
 11
154604.6311767034
 21
115031.0096911698
 31
0.0
1001
REVIT
1002
{
1070
     3
1000
774350
1002
}
  0
LINE
  5
56AFE
330
1F
100
AcDbEntity
  8
freecads.com
100
AcDbLine
 10
154604.6311767034
 20
115031.0096911698
 30
0.0
 11
154630.8740863614
 21
115017.1316919818
 31
0.0
1001
REVIT
1002
{
1070
     3
1000
774350
1002
}
  0
LINE
  5
56AFF
330
1F
100
AcDbEntity
  8
freecads.com
100
AcDbLine
 10
154630.8740863614
 20
115017.1316919818
 30
0.0
 11
154692.6220338569
 21
115017.1316899293
 31
0.0
1001
REVIT
1002
{
1070
     3
1000
774350
1002
}
  0
LINE
  5
56B00
330
1F
100
AcDbEntity
  8
freecads.com
100
AcDbLine
 10
154692.6220338569
 20
115017.1316899293
 30
0.0
 11
154735.8456018447
 21
115037.1776770295
 31
0.0
1001
REVIT
1002
{
1070
     3
1000
774350
1002
}
  0
LINE
  5
56B01
330
1F
100
AcDbEntity
  8
freecads.com
100
AcDbLine
 10
151809.6149492405
 20
114977.509150348
 30
0.0
 11
151557.5996633343
 21
114947.5403577536
 31
0.0
1001
REVIT
1002
{
1070
     3
1000
774350
1002
}
  0
LINE
  5
56B02
330
1F
100
AcDbEntity
  8
freecads.com
100
AcDbLine
 10
156310.4665430659
 20
113681.7544019695
 30
0.0
 11
156300.3662594385
 21
113765.4923690785
 31
0.0
1001
REVIT
1002
{
1070
     3
1000
774350
1002
}
  0
LINE
  5
56B03
330
1F
100
AcDbEntity
  8
freecads.com
100
AcDbLine
 10
155145.5586897068
 20
113301.0560379602
 30
0.0
 11
155145.5586912267
 21
113335.6127287857
 31
0.0
1001
REVIT
1002
{
1070
     3
1000
774350
1002
}
  0
LINE
  5
56B04
330
1F
100
AcDbEntity
  8
freecads.com
100
AcDbLine
 10
156290.1023785174
 20
113419.4903996539
 30
0.0
 11
156249.9295343241
 21
113428.6498648455
 31
0.0
1001
REVIT
1002
{
1070
     3
1000
774350
1002
}
  0
LINE
  5
56B05
330
1F
100
AcDbEntity
  8
freecads.com
100
AcDbLine
 10
156339.2974778176
 20
113783.0387732507
 30
0.0
 11
156321.025872304
 21
113793.6248255456
 31
0.0
1001
REVIT
1002
{
1070
     3
1000
774350
1002
}
  0
LINE
  5
56B06
330
1F
100
AcDbEntity
  8
freecads.com
100
AcDbLine
 10
156386.8389609241
 20
114127.4743661845
 30
0.0
 11
156363.7980004659
 21
114128.2880502704
 31
0.0
1001
REVIT
1002
{
1070
     3
1000
774350
1002
}
  0
LINE
  5
56B07
330
1F
100
AcDbEntity
  8
freecads.com
100
AcDbLine
 10
156387.0432539981
 20
114112.9519633583
 30
0.0
 11
156360.7046763604
 21
114113.8821015373
 31
0.0
1001
REVIT
1002
{
1070
     3
1000
774350
1002
}
  0
LINE
  5
56B08
330
1F
100
AcDbEntity
  8
freecads.com
100
AcDbLine
 10
156387.0150315778
 20
114093.1906082851
 30
0.0
 11
156356.7378478924
 21
114094.2598373108
 31
0.0
1001
REVIT
1002
{
1070
     3
1000
774350
1002
}
  0
LINE
  5
56B09
330
1F
100
AcDbEntity
  8
freecads.com
100
AcDbLine
 10
156386.6341061778
 20
114073.4417292886
 30
0.0
 11
156352.9747007809
 21
114074.630400225
 31
0.0
1001
REVIT
1002
{
1070
     3
1000
774350
1002
}
  0
LINE
  5
56B0A
330
1F
100
AcDbEntity
  8
freecads.com
100
AcDbLine
 10
156386.0271170323
 20
114056.5240153799
 30
0.0
 11
156349.9105321006
 21
114057.7994604429
 31
0.0
1001
REVIT
1002
{
1070
     3
1000
774350
1002
}
  0
LINE
  5
56B0B
330
1F
100
AcDbEntity
  8
freecads.com
100
AcDbLine
 10
156385.1612224004
 20
114039.6154441376
 30
0.0
 11
156346.9947429021
 21
114040.9632808391
 31
0.0
1001
REVIT
1002
{
1070
     3
1000
774350
1002
}
  0
LINE
  5
56B0C
330
1F
100
AcDbEntity
  8
freecads.com
100
AcDbLine
 10
156383.815865519
 20
114019.8007936193
 30
0.0
 11
156343.7641011284
 21
114021.2152085982
 31
0.0
1001
REVIT
1002
{
1070
     3
1000
774350
1002
}
  0
LINE
  5
56B0D
330
1F
100
AcDbEntity
  8
freecads.com
100
AcDbLine
 10
156381.8523831512
 20
113997.2846
 30
0.0
 11
156340.3365153863
 21
113998.7507195392
 31
0.0
1001
REVIT
1002
{
1070
     3
1000
774350
1002
}
  0
LINE
  5
56B0E
330
1F
100
AcDbEntity
  8
freecads.com
100
AcDbLine
 10
156380.3902542192
 20
113983.2202867648
 30
0.0
 11
156338.3267771847
 21
113984.7057446994
 31
0.0
1001
REVIT
1002
{
1070
     3
1000
774350
1002
}
  0
LINE
  5
56B0F
330
1F
100
AcDbEntity
  8
freecads.com
100
AcDbLine
 10
156379.0780399272
 20
113971.8740508764
 30
0.0
 11
156336.7789058
 21
113973.3678309098
 31
0.0
1001
REVIT
1002
{
1070
     3
1000
774350
1002
}
  0
LINE
  5
56B10
330
1F
100
AcDbEntity
  8
freecads.com
100
AcDbLine
 10
156374.8989375323
 20
113940.9665163683
 30
0.0
 11
156332.8948574107
 21
113942.4498766704
 31
0.0
1001
REVIT
1002
{
1070
     3
1000
774350
1002
}
  0
LINE
  5
56B11
330
1F
100
AcDbEntity
  8
freecads.com
100
AcDbLine
 10
156377.6735391708
 20
113960.7306936163
 30
0.0
 11
156335.3225186876
 21
113962.2263060719
 31
0.0
1001
REVIT
1002
{
1070
     3
1000
774350
1002
}
  0
LINE
  5
56B12
330
1F
100
AcDbEntity
  8
freecads.com
100
AcDbLine
 10
156373.1756486375
 20
113929.8344166967
 30
0.0
 11
156331.6149513433
 21
113931.3021194003
 31
0.0
1001
REVIT
1002
{
1070
     3
1000
774350
1002
}
  0
LINE
  5
56B13
330
1F
100
AcDbEntity
  8
freecads.com
100
AcDbLine
 10
156370.3475754927
 20
113912.9951395079
 30
0.0
 11
156329.7986003765
 21
113914.4271134407
 31
0.0
1001
REVIT
1002
{
1070
     3
1000
774350
1002
}
  0
LINE
  5
56B14
330
1F
100
AcDbEntity
  8
freecads.com
100
AcDbLine
 10
156368.3142477008
 20
113901.774179093
 30
0.0
 11
156328.668287529
 21
113903.1742633798
 31
0.0
1001
REVIT
1002
{
1070
     3
1000
774350
1002
}
  0
LINE
  5
56B15
330
1F
100
AcDbEntity
  8
freecads.com
100
AcDbLine
 10
156365.0410060449
 20
113884.9506228997
 30
0.0
 11
156327.0935235632
 21
113886.2907256502
 31
0.0
1001
REVIT
1002
{
1070
     3
1000
774350
1002
}
  0
LINE
  5
56B16
330
1F
100
AcDbEntity
  8
freecads.com
100
AcDbLine
 10
156362.128800956
 20
113871.037328267
 30
0.0
 11
156325.8998751961
 21
113872.3167408137
 31
0.0
1001
REVIT
1002
{
1070
     3
1000
774350
1002
}
  0
LINE
  5
56B17
330
1F
100
AcDbEntity
  8
freecads.com
100
AcDbLine
 10
156359.6473074252
 20
113859.8321948109
 30
0.0
 11
156325.0101276922
 21
113861.0553955204
 31
0.0
1001
REVIT
1002
{
1070
     3
1000
774350
1002
}
  0
LINE
  5
56B18
330
1F
100
AcDbEntity
  8
freecads.com
100
AcDbLine
 10
156357.0444669809
 20
113848.6313467303
 30
0.0
 11
156324.1845557364
 21
113849.7917836136
 31
0.0
1001
REVIT
1002
{
1070
     3
1000
774350
1002
}
  0
LINE
  5
56B19
330
1F
100
AcDbEntity
  8
freecads.com
100
AcDbLine
 10
156353.5444019064
 20
113834.3395527372
 30
0.0
 11
156323.2238813023
 21
113835.4103119264
 31
0.0
1001
REVIT
1002
{
1070
     3
1000
774350
1002
}
  0
LINE
  5
56B1A
330
1F
100
AcDbEntity
  8
freecads.com
100
AcDbLine
 10
156350.6624732975
 20
113823.1485605312
 30
0.0
 11
156322.5442619583
 21
113824.1415458326
 31
0.0
1001
REVIT
1002
{
1070
     3
1000
774350
1002
}
  0
LINE
  5
56B1B
330
1F
100
AcDbEntity
  8
freecads.com
100
AcDbLine
 10
156348.4197326951
 20
113814.7581974467
 30
0.0
 11
156322.0765901349
 21
113815.688497056
 31
0.0
1001
REVIT
1002
{
1070
     3
1000
774350
1002
}
  0
LINE
  5
56B1C
330
1F
100
AcDbEntity
  8
freecads.com
100
AcDbLine
 10
155060.6332609248
 20
113214.8753436645
 30
0.0
 11
155085.9315852134
 21
113200.754624757
 31
0.0
1001
REVIT
1002
{
1070
     3
1000
774350
1002
}
  0
LINE
  5
56B1D
330
1F
100
AcDbEntity
  8
freecads.com
100
AcDbLine
 10
155085.9315852134
 20
113200.754624757
 30
0.0
 11
155167.8943364856
 21
113209.2241865748
 31
0.0
1001
REVIT
1002
{
1070
     3
1000
774350
1002
}
  0
LINE
  5
56B1E
330
1F
100
AcDbEntity
  8
freecads.com
100
AcDbLine
 10
155167.8943364856
 20
113209.2241865748
 30
0.0
 11
155176.4462846055
 21
113217.9305286636
 31
0.0
1001
REVIT
1002
{
1070
     3
1000
774350
1002
}
  0
LINE
  5
56B1F
330
1F
100
AcDbEntity
  8
freecads.com
100
AcDbLine
 10
154871.7920646711
 20
113296.8746721823
 30
0.0
 11
154711.1022776934
 21
113296.8746776848
 31
0.0
1001
REVIT
1002
{
1070
     3
1000
774350
1002
}
  0
LINE
  5
56B20
330
1F
100
AcDbEntity
  8
freecads.com
100
AcDbLine
 10
154933.8962490132
 20
113365.8621113381
 30
0.0
 11
154907.0193099717
 21
113346.4993781329
 31
0.0
1001
REVIT
1002
{
1070
     3
1000
774350
1002
}
  0
LINE
  5
56B21
330
1F
100
AcDbEntity
  8
freecads.com
100
AcDbLine
 10
154811.0677794876
 20
113315.2911030636
 30
0.0
 11
154894.7047093142
 21
113346.3610755905
 31
0.0
1001
REVIT
1002
{
1070
     3
1000
774350
1002
}
  0
LINE
  5
56B22
330
1F
100
AcDbEntity
  8
freecads.com
100
AcDbLine
 10
154913.8587895387
 20
113211.61811727
 30
0.0
 11
154859.8783617697
 21
113296.8746725001
 31
0.0
1001
REVIT
1002
{
1070
     3
1000
774350
1002
}
  0
LINE
  5
56B23
330
1F
100
AcDbEntity
  8
freecads.com
100
AcDbLine
 10
154872.5543091068
 20
113305.5933826403
 30
0.0
 11
154752.1277922679
 21
113324.5871800531
 31
0.0
1001
REVIT
1002
{
1070
     3
1000
774350
1002
}
  0
LINE
  5
56B24
330
1F
100
AcDbEntity
  8
freecads.com
100
AcDbLine
 10
154752.1277922679
 20
113324.5871800531
 30
0.0
 11
154419.3702951745
 21
113413.2248381723
 31
0.0
1001
REVIT
1002
{
1070
     3
1000
774350
1002
}
  0
LINE
  5
56B25
330
1F
100
AcDbEntity
  8
freecads.com
100
AcDbLine
 10
152453.9578331858
 20
113353.0779387467
 30
0.0
 11
152501.386624655
 21
113314.8301567811
 31
0.0
1001
REVIT
1002
{
1070
     3
1000
774350
1002
}
  0
LINE
  5
56B26
330
1F
100
AcDbEntity
  8
freecads.com
100
AcDbLine
 10
152453.957833965
 20
113381.568597548
 30
0.0
 11
152520.5093065678
 21
113330.9185145124
 31
0.0
1001
REVIT
1002
{
1070
     3
1000
774350
1002
}
  0
LINE
  5
56B27
330
1F
100
AcDbEntity
  8
freecads.com
100
AcDbLine
 10
151371.3932352383
 20
113613.5901353144
 30
0.0
 11
151416.9592854247
 21
113595.458286658
 31
0.0
1001
REVIT
1002
{
1070
     3
1000
774350
1002
}
  0
LINE
  5
56B28
330
1F
100
AcDbEntity
  8
freecads.com
100
AcDbLine
 10
151510.4705704614
 20
113448.2265681003
 30
0.0
 11
151474.03743965
 21
113488.9010962492
 31
0.0
1001
REVIT
1002
{
1070
     3
1000
774350
1002
}
  0
LINE
  5
56B29
330
1F
100
AcDbEntity
  8
freecads.com
100
AcDbLine
 10
151474.03743965
 20
113488.9010962492
 30
0.0
 11
151424.6573941327
 21
113574.2510476634
 31
0.0
1001
REVIT
1002
{
1070
     3
1000
774350
1002
}
  0
LINE
  5
56B2A
330
1F
100
AcDbEntity
  8
freecads.com
100
AcDbLine
 10
154052.7833610122
 20
113236.2619422315
 30
0.0
 11
153994.5222626195
 21
113216.2567689944
 31
0.0
1001
REVIT
1002
{
1070
     3
1000
774350
1002
}
  0
LINE
  5
56B2B
330
1F
100
AcDbEntity
  8
freecads.com
100
AcDbLine
 10
153994.5222626195
 20
113216.2567689944
 30
0.0
 11
153930.7993029486
 21
113208.9821659715
 31
0.0
1001
REVIT
1002
{
1070
     3
1000
774350
1002
}
  0
LINE
  5
56B2C
330
1F
100
AcDbEntity
  8
freecads.com
100
AcDbLine
 10
153930.7993029486
 20
113208.9821659715
 30
0.0
 11
153878.0001577504
 21
113210.8008079645
 31
0.0
1001
REVIT
1002
{
1070
     3
1000
774350
1002
}
  0
LINE
  5
56B2D
330
1F
100
AcDbEntity
  8
freecads.com
100
AcDbLine
 10
153878.0001577504
 20
113210.8008079645
 30
0.0
 11
153808.8151564463
 21
113225.3500649484
 31
0.0
1001
REVIT
1002
{
1070
     3
1000
774350
1002
}
  0
LINE
  5
56B2E
330
1F
100
AcDbEntity
  8
freecads.com
100
AcDbLine
 10
153808.8151564463
 20
113225.3500649484
 30
0.0
 11
153801.5325534408
 21
113239.8992753202
 31
0.0
1001
REVIT
1002
{
1070
     3
1000
774350
1002
}
  0
LINE
  5
56B2F
330
1F
100
AcDbEntity
  8
freecads.com
100
AcDbLine
 10
153801.5325534408
 20
113239.8992753202
 30
0.0
 11
153806.9945063294
 21
113245.3552402185
 31
0.0
1001
REVIT
1002
{
1070
     3
1000
774350
1002
}
  0
LINE
  5
56B30
330
1F
100
AcDbEntity
  8
freecads.com
100
AcDbLine
 10
153806.9945063294
 20
113245.3552402185
 30
0.0
 11
153883.4622022141
 21
113247.1738778219
 31
0.0
1001
REVIT
1002
{
1070
     3
1000
774350
1002
}
  0
LINE
  5
56B31
330
1F
100
AcDbEntity
  8
freecads.com
100
AcDbLine
 10
153883.4622022141
 20
113247.1738778219
 30
0.0
 11
153894.3861067768
 21
113254.4484826478
 31
0.0
1001
REVIT
1002
{
1070
     3
1000
774350
1002
}
  0
LINE
  5
56B32
330
1F
100
AcDbEntity
  8
freecads.com
100
AcDbLine
 10
153894.3861067768
 20
113254.4484826478
 30
0.0
 11
153976.3157562505
 21
113252.6298396775
 31
0.0
1001
REVIT
1002
{
1070
     3
1000
774350
1002
}
  0
LINE
  5
56B33
330
1F
100
AcDbEntity
  8
freecads.com
100
AcDbLine
 10
153976.3157562505
 20
113252.6298396775
 30
0.0
 11
153994.5222642785
 21
113245.355233958
 31
0.0
1001
REVIT
1002
{
1070
     3
1000
774350
1002
}
  0
LINE
  5
56B34
330
1F
100
AcDbEntity
  8
freecads.com
100
AcDbLine
 10
153994.5222642785
 20
113245.355233958
 30
0.0
 11
154012.7288630373
 21
113238.0806282061
 31
0.0
1001
REVIT
1002
{
1070
     3
1000
774350
1002
}
  0
LINE
  5
56B35
330
1F
100
AcDbEntity
  8
freecads.com
100
AcDbLine
 10
154012.7288630373
 20
113238.0806282061
 30
0.0
 11
154045.5007587866
 21
113243.5365918219
 31
0.0
1001
REVIT
1002
{
1070
     3
1000
774350
1002
}
  0
LINE
  5
56B36
330
1F
100
AcDbEntity
  8
freecads.com
100
AcDbLine
 10
154045.5007587866
 20
113243.5365918219
 30
0.0
 11
154052.7833610122
 21
113236.2619422315
 31
0.0
1001
REVIT
1002
{
1070
     3
1000
774350
1002
}
  0
LINE
  5
56B37
330
1F
100
AcDbEntity
  8
freecads.com
100
AcDbLine
 10
153992.7016132958
 20
113247.1738742018
 30
0.0
 11
153965.3917599381
 21
113230.8059802206
 31
0.0
1001
REVIT
1002
{
1070
     3
1000
774350
1002
}
  0
LINE
  5
56B38
330
1F
100
AcDbEntity
  8
freecads.com
100
AcDbLine
 10
153965.3917599381
 20
113230.8059802206
 30
0.0
 11
153916.234007102
 21
113230.8059817254
 31
0.0
1001
REVIT
1002
{
1070
     3
1000
774350
1002
}
  0
LINE
  5
56B39
330
1F
100
AcDbEntity
  8
freecads.com
100
AcDbLine
 10
153916.234007102
 20
113230.8059817254
 30
0.0
 11
153888.9241541425
 21
113239.8992725697
 31
0.0
1001
REVIT
1002
{
1070
     3
1000
774350
1002
}
  0
LINE
  5
56B3A
330
1F
100
AcDbEntity
  8
freecads.com
100
AcDbLine
 10
153888.9241541425
 20
113239.8992725697
 30
0.0
 11
153879.9260532213
 21
113247.0897772688
 31
0.0
1001
REVIT
1002
{
1070
     3
1000
774350
1002
}
  0
LINE
  5
56B3B
330
1F
100
AcDbEntity
  8
freecads.com
100
AcDbLine
 10
152904.5251264689
 20
113243.8185376034
 30
0.0
 11
152845.2077290708
 21
113227.2050210587
 31
0.0
1001
REVIT
1002
{
1070
     3
1000
774350
1002
}
  0
LINE
  5
56B3C
330
1F
100
AcDbEntity
  8
freecads.com
100
AcDbLine
 10
152845.2077290708
 20
113227.2050210587
 30
0.0
 11
152781.1713909613
 21
113223.6157494137
 31
0.0
1001
REVIT
1002
{
1070
     3
1000
774350
1002
}
  0
LINE
  5
56B3D
330
1F
100
AcDbEntity
  8
freecads.com
100
AcDbLine
 10
152781.1713909613
 20
113223.6157494137
 30
0.0
 11
152728.5648724385
 21
113228.474912156
 31
0.0
1001
REVIT
1002
{
1070
     3
1000
774350
1002
}
  0
LINE
  5
56B3E
330
1F
100
AcDbEntity
  8
freecads.com
100
AcDbLine
 10
152728.5648724385
 20
113228.474912156
 30
0.0
 11
152660.3335858369
 21
113246.9880649219
 31
0.0
1001
REVIT
1002
{
1070
     3
1000
774350
1002
}
  0
LINE
  5
56B3F
330
1F
100
AcDbEntity
  8
freecads.com
100
AcDbLine
 10
152660.3335858369
 20
113246.9880649219
 30
0.0
 11
152653.9017646305
 21
113261.9328803764
 31
0.0
1001
REVIT
1002
{
1070
     3
1000
774350
1002
}
  0
LINE
  5
56B40
330
1F
100
AcDbEntity
  8
freecads.com
100
AcDbLine
 10
152653.9017646305
 20
113261.9328803764
 30
0.0
 11
152659.6691367882
 21
113267.0649250833
 31
0.0
1001
REVIT
1002
{
1070
     3
1000
774350
1002
}
  0
LINE
  5
56B41
330
1F
100
AcDbEntity
  8
freecads.com
100
AcDbLine
 10
152659.6691367882
 20
113267.0649250833
 30
0.0
 11
152736.1145166048
 21
113264.4726483698
 31
0.0
1001
REVIT
1002
{
1070
     3
1000
774350
1002
}
  0
LINE
  5
56B42
330
1F
100
AcDbEntity
  8
freecads.com
100
AcDbLine
 10
152736.1145166048
 20
113264.4726483698
 30
0.0
 11
152747.4395944343
 21
113271.1054611554
 31
0.0
1001
REVIT
1002
{
1070
     3
1000
774350
1002
}
  0
LINE
  5
56B43
330
1F
100
AcDbEntity
  8
freecads.com
100
AcDbLine
 10
152747.4395944343
 20
113271.1054611554
 30
0.0
 11
152829.1281790527
 21
113264.5671038721
 31
0.0
1001
REVIT
1002
{
1070
     3
1000
774350
1002
}
  0
LINE
  5
56B44
330
1F
100
AcDbEntity
  8
freecads.com
100
AcDbLine
 10
152829.1281790527
 20
113264.5671038721
 30
0.0
 11
152846.8850766884
 21
113256.2551015467
 31
0.0
1001
REVIT
1002
{
1070
     3
1000
774350
1002
}
  0
LINE
  5
56B45
330
1F
100
AcDbEntity
  8
freecads.com
100
AcDbLine
 10
152846.8850766884
 20
113256.2551015467
 30
0.0
 11
152864.6420654214
 21
113247.9430941056
 31
0.0
1001
REVIT
1002
{
1070
     3
1000
774350
1002
}
  0
LINE
  5
56B46
330
1F
100
AcDbEntity
  8
freecads.com
100
AcDbLine
 10
152864.6420654214
 20
113247.9430941056
 30
0.0
 11
152897.6739715864
 21
113251.5008883379
 31
0.0
1001
REVIT
1002
{
1070
     3
1000
774350
1002
}
  0
LINE
  5
56B47
330
1F
100
AcDbEntity
  8
freecads.com
100
AcDbLine
 10
152897.6739715864
 20
113251.5008883379
 30
0.0
 11
152904.5251264689
 21
113243.8185376034
 31
0.0
1001
REVIT
1002
{
1070
     3
1000
774350
1002
}
  0
LINE
  5
56B48
330
1F
100
AcDbEntity
  8
freecads.com
100
AcDbLine
 10
152845.1722872977
 20
113258.1756670451
 30
0.0
 11
152816.964335877
 21
113243.4092336861
 31
0.0
1001
REVIT
1002
{
1070
     3
1000
774350
1002
}
  0
LINE
  5
56B49
330
1F
100
AcDbEntity
  8
freecads.com
100
AcDbLine
 10
152816.964335877
 20
113243.4092336861
 30
0.0
 11
152767.8883214808
 21
113246.2428763992
 31
0.0
1001
REVIT
1002
{
1070
     3
1000
774350
1002
}
  0
LINE
  5
56B4A
330
1F
100
AcDbEntity
  8
freecads.com
100
AcDbLine
 10
152767.8883214808
 20
113246.2428763992
 30
0.0
 11
152741.1480524904
 21
113256.8952909155
 31
0.0
1001
REVIT
1002
{
1070
     3
1000
774350
1002
}
  0
LINE
  5
56B4B
330
1F
100
AcDbEntity
  8
freecads.com
100
AcDbLine
 10
152741.1480524904
 20
113256.8952909155
 30
0.0
 11
152732.5793999192
 21
113264.5925245894
 31
0.0
1001
REVIT
1002
{
1070
     3
1000
774350
1002
}
  0
LINE
  5
56B4C
330
1F
100
AcDbEntity
  8
freecads.com
100
AcDbLine
 10
152922.016045773
 20
113330.1627402182
 30
0.0
 11
152873.7824822003
 21
113482.8861326199
 31
0.0
1001
REVIT
1002
{
1070
     3
1000
774350
1002
}
  0
LINE
  5
56B4D
330
1F
100
AcDbEntity
  8
freecads.com
100
AcDbLine
 10
152900.4392300399
 20
113330.2957593557
 30
0.0
 11
152853.3089278055
 21
113480.8077556716
 31
0.0
1001
REVIT
1002
{
1070
     3
1000
774350
1002
}
  0
LINE
  5
56B4E
330
1F
100
AcDbEntity
  8
freecads.com
100
AcDbLine
 10
154594.6859600747
 20
113305.3180734521
 30
0.0
 11
154522.8150683009
 21
113372.5273820877
 31
0.0
1001
REVIT
1002
{
1070
     3
1000
774350
1002
}
  0
LINE
  5
56B4F
330
1F
100
AcDbEntity
  8
freecads.com
100
AcDbLine
 10
154522.8150683009
 20
113372.5273820877
 30
0.0
 11
154526.5729075906
 21
113384.6689420581
 31
0.0
1001
REVIT
1002
{
1070
     3
1000
774350
1002
}
  0
LINE
  5
56B50
330
1F
100
AcDbEntity
  8
freecads.com
100
AcDbLine
 10
154515.0965704484
 20
113098.051412299
 30
0.0
 11
154528.9898680669
 21
113168.9834005707
 31
0.0
1001
REVIT
1002
{
1070
     3
1000
774350
1002
}
  0
LINE
  5
56B51
330
1F
100
AcDbEntity
  8
freecads.com
100
AcDbLine
 10
154528.9898680669
 20
113168.9834005707
 30
0.0
 11
154553.689058243
 21
113250.7093917268
 31
0.0
1001
REVIT
1002
{
1070
     3
1000
774350
1002
}
  0
LINE
  5
56B52
330
1F
100
AcDbEntity
  8
freecads.com
100
AcDbLine
 10
154531.9973361844
 20
113085.5361793135
 30
0.0
 11
154547.514245889
 21
113099.593408564
 31
0.0
1001
REVIT
1002
{
1070
     3
1000
774350
1002
}
  0
LINE
  5
56B53
330
1F
100
AcDbEntity
  8
freecads.com
100
AcDbLine
 10
154547.514245889
 20
113099.593408564
 30
0.0
 11
154576.8445235483
 21
113238.3733902287
 31
0.0
1001
REVIT
1002
{
1070
     3
1000
774350
1002
}
  0
LINE
  5
56B54
330
1F
100
AcDbEntity
  8
freecads.com
100
AcDbLine
 10
154633.9613879178
 20
113280.0073830374
 30
0.0
 11
154644.7674629075
 21
113297.0768967002
 31
0.0
1001
REVIT
1002
{
1070
     3
1000
774350
1002
}
  0
LINE
  5
56B55
330
1F
100
AcDbEntity
  8
freecads.com
100
AcDbLine
 10
154604.631117047
 20
113309.305378042
 30
0.0
 11
154630.8740269072
 21
113323.1833753556
 31
0.0
1001
REVIT
1002
{
1070
     3
1000
774350
1002
}
  0
LINE
  5
56B56
330
1F
100
AcDbEntity
  8
freecads.com
100
AcDbLine
 10
154630.8740269072
 20
113323.1833753556
 30
0.0
 11
154692.6219748902
 21
113323.1833733662
 31
0.0
1001
REVIT
1002
{
1070
     3
1000
774350
1002
}
  0
LINE
  5
56B57
330
1F
100
AcDbEntity
  8
freecads.com
100
AcDbLine
 10
154692.6219748902
 20
113323.1833733662
 30
0.0
 11
154735.845541373
 21
113303.1373834573
 31
0.0
1001
REVIT
1002
{
1070
     3
1000
774350
1002
}
  0
LINE
  5
56B58
330
1F
100
AcDbEntity
  8
freecads.com
100
AcDbLine
 10
151809.6148930816
 20
113362.8061120463
 30
0.0
 11
151557.5996097543
 21
113392.7749221369
 31
0.0
1001
REVIT
1002
{
1070
     3
1000
774350
1002
}
  0
LINE
  5
56B59
330
1F
100
AcDbEntity
  8
freecads.com
100
AcDbLine
 10
154515.0966453126
 20
115242.2636632108
 30
0.0
 11
154528.9899379919
 21
115171.3316738328
 31
0.0
1001
REVIT
1002
{
1070
     3
1000
774350
1002
}
  0
LINE
  5
56B5A
330
1F
100
AcDbEntity
  8
freecads.com
100
AcDbLine
 10
154528.9899379919
 20
115171.3316738328
 30
0.0
 11
154553.6891212854
 21
115089.6056811604
 31
0.0
1001
REVIT
1002
{
1070
     3
1000
774350
1002
}
  0
LINE
  5
56B5B
330
1F
100
AcDbEntity
  8
freecads.com
100
AcDbLine
 10
154531.9974110738
 20
115254.7788949263
 30
0.0
 11
154547.5143202305
 21
115240.721664717
 31
0.0
1001
REVIT
1002
{
1070
     3
1000
774350
1002
}
  0
LINE
  5
56B5C
330
1F
100
AcDbEntity
  8
freecads.com
100
AcDbLine
 10
154547.5143202305
 20
115240.721664717
 30
0.0
 11
154576.8445872037
 21
115101.9416811762
 31
0.0
1001
REVIT
1002
{
1070
     3
1000
774350
1002
}
  0
ENDSEC
  0
SECTION
  2
OBJECTS
  0
DICTIONARY
  5
C
330
0
100
AcDbDictionary
281
     1
  3
ACAD_ASSOCPERSSUBENTMANAGER
350
2C1D4
  3
ACAD_CIP_PREVIOUS_PRODUCT_INFO
350
1A5
  3
ACAD_COLOR
350
73
  3
ACAD_DETAILVIEWSTYLE
350
1AB
  3
ACAD_GROUP
350
D
  3
ACAD_LAYOUT
350
1A
  3
ACAD_MATERIAL
350
72
  3
ACAD_MLEADERSTYLE
350
D7
  3
ACAD_MLINESTYLE
350
17
  3
ACAD_PLOTSETTINGS
350
19
  3
ACAD_PLOTSTYLENAME
350
E
  3
ACAD_SCALELIST
350
B6
  3
ACAD_SECTIONVIEWSTYLE
350
1A8
  3
ACAD_TABLESTYLE
350
86
  3
ACAD_VISUALSTYLE
350
99
  3
ACDB_RECOMPOSE_DATA
350
58310
  3
ACDBVARIABLEDICTIONARY
350
4A0D5
  3
AEC_PROPERTY_SET_DEFS
350
22D1
  0
DICTIONARY
  5
18E
330
2
100
AcDbDictionary
280
     1
281
     1
  3
ACAD_LAYERSTATES
360
18F
  0
DICTIONARY
  5
E6
330
10
100
AcDbDictionary
280
     1
281
     1
  0
DICTIONARY
  5
15D
330
1F
100
AcDbDictionary
280
     1
281
     1
  3
ACAD_SORTENTS
360
28E
  0
ACDBASSOCPERSSUBENTMANAGER
  5
2C1D4
102
{ACAD_REACTORS
330
C
102
}
330
C
100
AcDbAssocPersSubentManager
 90
        2
 90
        3
 90
        0
 90
        2
 90
     1260
 90
        0
 90
     1260
 90
        1
 90
        2
 90
        3
 90
        4
 90
        5
 90
        6
 90
        7
 90
        8
 90
        9
 90
       10
 90
       11
 90
       12
 90
       13
 90
       14
 90
       15
 90
       16
 90
       17
 90
       18
 90
       19
 90
       20
 90
       21
 90
       22
 90
       23
 90
       24
 90
       25
 90
       26
 90
       27
 90
       28
 90
       29
 90
       30
 90
       31
 90
       32
 90
       33
 90
       34
 90
       35
 90
       36
 90
       37
 90
       38
 90
       39
 90
       40
 90
       41
 90
       42
 90
       43
 90
       44
 90
       45
 90
       46
 90
       47
 90
       48
 90
       49
 90
       50
 90
       51
 90
       52
 90
       53
 90
       54
 90
       55
 90
       56
 90
       57
 90
       58
 90
       59
 90
       60
 90
       61
 90
       62
 90
       63
 90
       64
 90
       65
 90
       66
 90
       67
 90
       68
 90
       69
 90
       70
 90
       71
 90
       72
 90
       73
 90
       74
 90
       75
 90
       76
 90
       77
 90
       78
 90
       79
 90
       80
 90
       81
 90
       82
 90
       83
 90
       84
 90
       85
 90
       86
 90
       87
 90
       88
 90
       89
 90
       90
 90
       91
 90
       92
 90
       93
 90
       94
 90
       95
 90
       96
 90
       97
 90
       98
 90
       99
 90
      100
 90
      101
 90
      102
 90
      103
 90
      104
 90
      105
 90
      106
 90
      107
 90
      108
 90
      109
 90
      110
 90
      111
 90
      112
 90
      113
 90
      114
 90
      115
 90
      116
 90
      117
 90
      118
 90
      119
 90
      120
 90
      121
 90
      122
 90
      123
 90
      124
 90
      125
 90
      126
 90
      127
 90
      128
 90
      129
 90
      130
 90
      131
 90
      132
 90
      133
 90
      134
 90
      135
 90
      136
 90
      137
 90
      138
 90
      139
 90
      140
 90
      141
 90
      142
 90
      143
 90
      144
 90
      145
 90
      146
 90
      147
 90
      148
 90
      149
 90
      150
 90
      151
 90
      152
 90
      153
 90
      154
 90
      155
 90
      156
 90
      157
 90
      158
 90
      159
 90
      160
 90
      161
 90
      162
 90
      163
 90
      164
 90
      165
 90
      166
 90
      167
 90
      168
 90
      169
 90
      170
 90
      171
 90
      172
 90
      173
 90
      174
 90
      175
 90
      176
 90
      177
 90
      178
 90
      179
 90
      180
 90
      181
 90
      182
 90
      183
 90
      184
 90
      185
 90
      186
 90
      187
 90
      188
 90
      189
 90
      190
 90
      191
 90
      192
 90
      193
 90
      194
 90
      195
 90
      196
 90
      197
 90
      198
 90
      199
 90
      200
 90
      201
 90
      202
 90
      203
 90
      204
 90
      205
 90
      206
 90
      207
 90
      208
 90
      209
 90
      210
 90
      211
 90
      212
 90
      213
 90
      214
 90
      215
 90
      216
 90
      217
 90
      218
 90
      219
 90
      220
 90
      221
 90
      222
 90
      223
 90
      224
 90
      225
 90
      226
 90
      227
 90
      228
 90
      229
 90
      230
 90
      231
 90
      232
 90
      233
 90
      234
 90
      235
 90
      236
 90
      237
 90
      238
 90
      239
 90
      240
 90
      241
 90
      242
 90
      243
 90
      244
 90
      245
 90
      246
 90
      247
 90
      248
 90
      249
 90
      250
 90
      251
 90
      252
 90
      253
 90
      254
 90
      255
 90
      256
 90
      257
 90
      258
 90
      259
 90
      260
 90
      261
 90
      262
 90
      263
 90
      264
 90
      265
 90
      266
 90
      267
 90
      268
 90
      269
 90
      270
 90
      271
 90
      272
 90
      273
 90
      274
 90
      275
 90
      276
 90
      277
 90
      278
 90
      279
 90
      280
 90
      281
 90
      282
 90
      283
 90
      284
 90
      285
 90
      286
 90
      287
 90
      288
 90
      289
 90
      290
 90
      291
 90
      292
 90
      293
 90
      294
 90
      295
 90
      296
 90
      297
 90
      298
 90
      299
 90
      300
 90
      301
 90
      302
 90
      303
 90
      304
 90
      305
 90
      306
 90
      307
 90
      308
 90
      309
 90
      310
 90
      311
 90
      312
 90
      313
 90
      314
 90
      315
 90
      316
 90
      317
 90
      318
 90
      319
 90
      320
 90
      321
 90
      322
 90
      323
 90
      324
 90
      325
 90
      326
 90
      327
 90
      328
 90
      329
 90
      330
 90
      331
 90
      332
 90
      333
 90
      334
 90
      335
 90
      336
 90
      337
 90
      338
 90
      339
 90
      340
 90
      341
 90
      342
 90
      343
 90
      344
 90
      345
 90
      346
 90
      347
 90
      348
 90
      349
 90
      350
 90
      351
 90
      352
 90
      353
 90
      354
 90
      355
 90
      356
 90
      357
 90
      358
 90
      359
 90
      360
 90
      361
 90
      362
 90
      363
 90
      364
 90
      365
 90
      366
 90
      367
 90
      368
 90
      369
 90
      370
 90
      371
 90
      372
 90
      373
 90
      374
 90
      375
 90
      376
 90
      377
 90
      378
 90
      379
 90
      380
 90
      381
 90
      382
 90
      383
 90
      384
 90
      385
 90
      386
 90
      387
 90
      388
 90
      389
 90
      390
 90
      391
 90
      392
 90
      393
 90
      394
 90
      395
 90
      396
 90
      397
 90
      398
 90
      399
 90
      400
 90
      401
 90
      402
 90
      403
 90
      404
 90
      405
 90
      406
 90
      407
 90
      408
 90
      409
 90
      410
 90
      411
 90
      412
 90
      413
 90
      414
 90
      415
 90
      416
 90
      417
 90
      418
 90
      419
 90
      420
 90
      421
 90
      422
 90
      423
 90
      424
 90
      425
 90
      426
 90
      427
 90
      428
 90
      429
 90
      430
 90
      431
 90
      432
 90
      433
 90
      434
 90
      435
 90
      436
 90
      437
 90
      438
 90
      439
 90
      440
 90
      441
 90
      442
 90
      443
 90
      444
 90
      445
 90
      446
 90
      447
 90
      448
 90
      449
 90
      450
 90
      451
 90
      452
 90
      453
 90
      454
 90
      455
 90
      456
 90
      457
 90
      458
 90
      459
 90
      460
 90
      461
 90
      462
 90
      463
 90
      464
 90
      465
 90
      466
 90
      467
 90
      468
 90
      469
 90
      470
 90
      471
 90
      472
 90
      473
 90
      474
 90
      475
 90
      476
 90
      477
 90
      478
 90
      479
 90
      480
 90
      481
 90
      482
 90
      483
 90
      484
 90
      485
 90
      486
 90
      487
 90
      488
 90
      489
 90
      490
 90
      491
 90
      492
 90
      493
 90
      494
 90
      495
 90
      496
 90
      497
 90
      498
 90
      499
 90
      500
 90
      501
 90
      502
 90
      503
 90
      504
 90
      505
 90
      506
 90
      507
 90
      508
 90
      509
 90
      510
 90
      511
 90
      512
 90
      513
 90
      514
 90
      515
 90
      516
 90
      517
 90
      518
 90
      519
 90
      520
 90
      521
 90
      522
 90
      523
 90
      524
 90
      525
 90
      526
 90
      527
 90
      528
 90
      529
 90
      530
 90
      531
 90
      532
 90
      533
 90
      534
 90
      535
 90
      536
 90
      537
 90
      538
 90
      539
 90
      540
 90
      541
 90
      542
 90
      543
 90
      544
 90
      545
 90
      546
 90
      547
 90
      548
 90
      549
 90
      550
 90
      551
 90
      552
 90
      553
 90
      554
 90
      555
 90
      556
 90
      557
 90
      558
 90
      559
 90
      560
 90
      561
 90
      562
 90
      563
 90
      564
 90
      565
 90
      566
 90
      567
 90
      568
 90
      569
 90
      570
 90
      571
 90
      572
 90
      573
 90
      574
 90
      575
 90
      576
 90
      577
 90
      578
 90
      579
 90
      580
 90
      581
 90
      582
 90
      583
 90
      584
 90
      585
 90
      586
 90
      587
 90
      588
 90
      589
 90
      590
 90
      591
 90
      592
 90
      593
 90
      594
 90
      595
 90
      596
 90
      597
 90
      598
 90
      599
 90
      600
 90
      601
 90
      602
 90
      603
 90
      604
 90
      605
 90
      606
 90
      607
 90
      608
 90
      609
 90
      610
 90
      611
 90
      612
 90
      613
 90
      614
 90
      615
 90
      616
 90
      617
 90
      618
 90
      619
 90
      620
 90
      621
 90
      622
 90
      623
 90
      624
 90
      625
 90
      626
 90
      627
 90
      628
 90
      629
 90
      630
 90
      631
 90
      632
 90
      633
 90
      634
 90
      635
 90
      636
 90
      637
 90
      638
 90
      639
 90
      640
 90
      641
 90
      642
 90
      643
 90
      644
 90
      645
 90
      646
 90
      647
 90
      648
 90
      649
 90
      650
 90
      651
 90
      652
 90
      653
 90
      654
 90
      655
 90
      656
 90
      657
 90
      658
 90
      659
 90
      660
 90
      661
 90
      662
 90
      663
 90
      664
 90
      665
 90
      666
 90
      667
 90
      668
 90
      669
 90
      670
 90
      671
 90
      672
 90
      673
 90
      674
 90
      675
 90
      676
 90
      677
 90
      678
 90
      679
 90
      680
 90
      681
 90
      682
 90
      683
 90
      684
 90
      685
 90
      686
 90
      687
 90
      688
 90
      689
 90
      690
 90
      691
 90
      692
 90
      693
 90
      694
 90
      695
 90
      696
 90
      697
 90
      698
 90
      699
 90
      700
 90
      701
 90
      702
 90
      703
 90
      704
 90
      705
 90
      706
 90
      707
 90
      708
 90
      709
 90
      710
 90
      711
 90
      712
 90
      713
 90
      714
 90
      715
 90
      716
 90
      717
 90
      718
 90
      719
 90
      720
 90
      721
 90
      722
 90
      723
 90
      724
 90
      725
 90
      726
 90
      727
 90
      728
 90
      729
 90
      730
 90
      731
 90
      732
 90
      733
 90
      734
 90
      735
 90
      736
 90
      737
 90
      738
 90
      739
 90
      740
 90
      741
 90
      742
 90
      743
 90
      744
 90
      745
 90
      746
 90
      747
 90
      748
 90
      749
 90
      750
 90
      751
 90
      752
 90
      753
 90
      754
 90
      755
 90
      756
 90
      757
 90
      758
 90
      759
 90
      760
 90
      761
 90
      762
 90
      763
 90
      764
 90
      765
 90
      766
 90
      767
 90
      768
 90
      769
 90
      770
 90
      771
 90
      772
 90
      773
 90
      774
 90
      775
 90
      776
 90
      777
 90
      778
 90
      779
 90
      780
 90
      781
 90
      782
 90
      783
 90
      784
 90
      785
 90
      786
 90
      787
 90
      788
 90
      789
 90
      790
 90
      791
 90
      792
 90
      793
 90
      794
 90
      795
 90
      796
 90
      797
 90
      798
 90
      799
 90
      800
 90
      801
 90
      802
 90
      803
 90
      804
 90
      805
 90
      806
 90
      807
 90
      808
 90
      809
 90
      810
 90
      811
 90
      812
 90
      813
 90
      814
 90
      815
 90
      816
 90
      817
 90
      818
 90
      819
 90
      820
 90
      821
 90
      822
 90
      823
 90
      824
 90
      825
 90
      826
 90
      827
 90
      828
 90
      829
 90
      830
 90
      831
 90
      832
 90
      833
 90
      834
 90
      835
 90
      836
 90
      837
 90
      838
 90
      839
 90
      840
 90
      841
 90
      842
 90
      843
 90
      844
 90
      845
 90
      846
 90
      847
 90
      848
 90
      849
 90
      850
 90
      851
 90
      852
 90
      853
 90
      854
 90
      855
 90
      856
 90
      857
 90
      858
 90
      859
 90
      860
 90
      861
 90
      862
 90
      863
 90
      864
 90
      865
 90
      866
 90
      867
 90
      868
 90
      869
 90
      870
 90
      871
 90
      872
 90
      873
 90
      874
 90
      875
 90
      876
 90
      877
 90
      878
 90
      879
 90
      880
 90
      881
 90
      882
 90
      883
 90
      884
 90
      885
 90
      886
 90
      887
 90
      888
 90
      889
 90
      890
 90
      891
 90
      892
 90
      893
 90
      894
 90
      895
 90
      896
 90
      897
 90
      898
 90
      899
 90
      900
 90
      901
 90
      902
 90
      903
 90
      904
 90
      905
 90
      906
 90
      907
 90
      908
 90
      909
 90
      910
 90
      911
 90
      912
 90
      913
 90
      914
 90
      915
 90
      916
 90
      917
 90
      918
 90
      919
 90
      920
 90
      921
 90
      922
 90
      923
 90
      924
 90
      925
 90
      926
 90
      927
 90
      928
 90
      929
 90
      930
 90
      931
 90
      932
 90
      933
 90
      934
 90
      935
 90
      936
 90
      937
 90
      938
 90
      939
 90
      940
 90
      941
 90
      942
 90
      943
 90
      944
 90
      945
 90
      946
 90
      947
 90
      948
 90
      949
 90
      950
 90
      951
 90
      952
 90
      953
 90
      954
 90
      955
 90
      956
 90
      957
 90
      958
 90
      959
 90
      960
 90
      961
 90
      962
 90
      963
 90
      964
 90
      965
 90
      966
 90
      967
 90
      968
 90
      969
 90
      970
 90
      971
 90
      972
 90
      973
 90
      974
 90
      975
 90
      976
 90
      977
 90
      978
 90
      979
 90
      980
 90
      981
 90
      982
 90
      983
 90
      984
 90
      985
 90
      986
 90
      987
 90
      988
 90
      989
 90
      990
 90
      991
 90
      992
 90
      993
 90
      994
 90
      995
 90
      996
 90
      997
 90
      998
 90
      999
 90
     1000
 90
     1001
 90
     1002
 90
     1003
 90
     1004
 90
     1005
 90
     1006
 90
     1007
 90
     1008
 90
     1009
 90
     1010
 90
     1011
 90
     1012
 90
     1013
 90
     1014
 90
     1015
 90
     1016
 90
     1017
 90
     1018
 90
     1019
 90
     1020
 90
     1021
 90
     1022
 90
     1023
 90
     1024
 90
     1025
 90
     1026
 90
     1027
 90
     1028
 90
     1029
 90
     1030
 90
     1031
 90
     1032
 90
     1033
 90
     1034
 90
     1035
 90
     1036
 90
     1037
 90
     1038
 90
     1039
 90
     1040
 90
     1041
 90
     1042
 90
     1043
 90
     1044
 90
     1045
 90
     1046
 90
     1047
 90
     1048
 90
     1049
 90
     1050
 90
     1051
 90
     1052
 90
     1053
 90
     1054
 90
     1055
 90
     1056
 90
     1057
 90
     1058
 90
     1059
 90
     1060
 90
     1061
 90
     1062
 90
     1063
 90
     1064
 90
     1065
 90
     1066
 90
     1067
 90
     1068
 90
     1069
 90
     1070
 90
     1071
 90
     1072
 90
     1073
 90
     1074
 90
     1075
 90
     1076
 90
     1077
 90
     1078
 90
     1079
 90
     1080
 90
     1081
 90
     1082
 90
     1083
 90
     1084
 90
     1085
 90
     1086
 90
     1087
 90
     1088
 90
     1089
 90
     1090
 90
     1091
 90
     1092
 90
     1093
 90
     1094
 90
     1095
 90
     1096
 90
     1097
 90
     1098
 90
     1099
 90
     1100
 90
     1101
 90
     1102
 90
     1103
 90
     1104
 90
     1105
 90
     1106
 90
     1107
 90
     1108
 90
     1109
 90
     1110
 90
     1111
 90
     1112
 90
     1113
 90
     1114
 90
     1115
 90
     1116
 90
     1117
 90
     1118
 90
     1119
 90
     1120
 90
     1121
 90
     1122
 90
     1123
 90
     1124
 90
     1125
 90
     1126
 90
     1127
 90
     1128
 90
     1129
 90
     1130
 90
     1131
 90
     1132
 90
     1133
 90
     1134
 90
     1135
 90
     1136
 90
     1137
 90
     1138
 90
     1139
 90
     1140
 90
     1141
 90
     1142
 90
     1143
 90
     1144
 90
     1145
 90
     1146
 90
     1147
 90
     1148
 90
     1149
 90
     1150
 90
     1151
 90
     1152
 90
     1153
 90
     1154
 90
     1155
 90
     1156
 90
     1157
 90
     1158
 90
     1159
 90
     1160
 90
     1161
 90
     1162
 90
     1163
 90
     1164
 90
     1165
 90
     1166
 90
     1167
 90
     1168
 90
     1169
 90
     1170
 90
     1171
 90
     1172
 90
     1173
 90
     1174
 90
     1175
 90
     1176
 90
     1177
 90
     1178
 90
     1179
 90
     1180
 90
     1181
 90
     1182
 90
     1183
 90
     1184
 90
     1185
 90
     1186
 90
     1187
 90
     1188
 90
     1189
 90
     1190
 90
     1191
 90
     1192
 90
     1193
 90
     1194
 90
     1195
 90
     1196
 90
     1197
 90
     1198
 90
     1199
 90
     1200
 90
     1201
 90
     1202
 90
     1203
 90
     1204
 90
     1205
 90
     1206
 90
     1207
 90
     1208
 90
     1209
 90
     1210
 90
     1211
 90
     1212
 90
     1213
 90
     1214
 90
     1215
 90
     1216
 90
     1217
 90
     1218
 90
     1219
 90
     1220
 90
     1221
 90
     1222
 90
     1223
 90
     1224
 90
     1225
 90
     1226
 90
     1227
 90
     1228
 90
     1229
 90
     1230
 90
     1231
 90
     1232
 90
     1233
 90
     1234
 90
     1235
 90
     1236
 90
     1237
 90
     1238
 90
     1239
 90
     1240
 90
     1241
 90
     1242
 90
     1243
 90
     1244
 90
     1245
 90
     1246
 90
     1247
 90
     1248
 90
     1249
 90
     1250
 90
     1251
 90
     1252
 90
     1253
 90
     1254
 90
     1255
 90
     1256
 90
     1257
 90
     1258
 90
     1259
 90
     1260
 90
        0
 90
        0
290
     0
  0
XRECORD
  5
1A5
102
{ACAD_REACTORS
330
C
102
}
330
C
100
AcDbXrecord
280
     1
300
ACD
300
2022
300

  0
DICTIONARY
  5
73
102
{ACAD_REACTORS
330
C
102
}
330
C
100
AcDbDictionary
281
     1
  0
DICTIONARY
  5
1AB
102
{ACAD_REACTORS
330
C
102
}
330
C
100
AcDbDictionary
281
     1
  3
Imperial24
350
1AC
  3
Metric50
350
224
  0
DICTIONARY
  5
D
102
{ACAD_REACTORS
330
C
102
}
330
C
100
AcDbDictionary
281
     1
  0
DICTIONARY
  5
1A
102
{ACAD_REACTORS
330
C
102
}
330
C
100
AcDbDictionary
281
     1
  3
Layout1
350
59
  3
Layout2
350
5E
  3
Model
350
22
  0
DICTIONARY
  5
72
102
{ACAD_REACTORS
330
C
102
}
330
C
100
AcDbDictionary
281
     1
  3
ByBlock
350
97
  3
ByLayer
350
96
  3
Global
350
98
  0
DICTIONARY
  5
D7
102
{ACAD_REACTORS
330
C
102
}
330
C
100
AcDbDictionary
281
     1
  3
Standard
350
D8
  0
DICTIONARY
  5
17
102
{ACAD_REACTORS
330
C
102
}
330
C
100
AcDbDictionary
281
     1
  3
Standard
350
18
  0
DICTIONARY
  5
19
102
{ACAD_REACTORS
330
C
102
}
330
C
100
AcDbDictionary
281
     1
  0
ACDBDICTIONARYWDFLT
  5
E
102
{ACAD_REACTORS
330
C
102
}
330
C
100
AcDbDictionary
281
     1
  3
Normal
350
F
100
AcDbDictionaryWithDefault
340
F
  0
DICTIONARY
  5
B6
102
{ACAD_REACTORS
330
C
102
}
330
C
100
AcDbDictionary
281
     1
  3
*A1
350
2283
  3
A0
350
B7
  3
A1
350
124
  3
A2
350
125
  3
A3
350
126
  3
A4
350
127
  3
A5
350
128
  3
A6
350
129
  3
A7
350
12A
  3
A8
350
12B
  3
A9
350
12C
  3
B0
350
12D
  3
B1
350
12E
  3
B2
350
12F
  3
B3
350
130
  3
B4
350
131
  3
B5
350
132
  3
B6
350
133
  3
B7
350
134
  3
B8
350
135
  3
B9
350
136
  3
C0
350
137
  3
C1
350
138
  3
C2
350
139
  3
C3
350
13A
  3
C4
350
13B
  3
C5
350
13C
  3
C6
350
13D
  3
C7
350
13E
  3
C8
350
13F
  3
C9
350
140
  3
D0
350
141
  3
D1
350
142
  3
D2
350
143
  0
DICTIONARY
  5
1A8
102
{ACAD_REACTORS
330
C
102
}
330
C
100
AcDbDictionary
281
     1
  3
Imperial24
350
1AA
  3
Metric50
350
223
  0
DICTIONARY
  5
86
102
{ACAD_REACTORS
330
C
102
}
330
C
100
AcDbDictionary
281
     1
  3
Standard
350
87
  0
DICTIONARY
  5
99
102
{ACAD_REACTORS
330
C
102
}
330
C
100
AcDbDictionary
281
     1
  3
2dWireframe
350
9F
  3
3dWireframe
350
22946
  3
Basic
350
9E
  3
Brighten
350
A5
  3
ColorChange
350
A9
  3
Conceptual
350
A2
  3
Dim
350
A4
  3
EdgeColorOff
350
175
  3
Facepattern
350
A8
  3
Flat
350
9A
  3
FlatWithEdges
350
9B
  3
Gouraud
350
9C
  3
GouraudWithEdges
350
9D
  3
Hidden
350
A1
  3
JitterOff
350
173
  3
Linepattern
350
A7
  3
OverhangOff
350
174
  3
Realistic
350
A3
  3
Shaded
350
182
  3
Shaded with edges
350
181
  3
Shades of Gray
350
17E
  3
Sketchy
350
17F
  3
Thicken
350
A6
  3
Wireframe
350
A0
  3
X-Ray
350
180
  0
XRECORD
  5
58310
102
{ACAD_REACTORS
330
C
102
}
330
C
100
AcDbXrecord
280
     1
 90
        1
330
87
  0
DICTIONARY
  5
4A0D5
102
{ACAD_REACTORS
330
C
102
}
330
C
100
AcDbDictionary
281
     2
  3
#COMPAREDIFFTOTAL
350
4A0D6
  3
#REVCLOUDAPPROXARCLEN
350
4A0D7
  3
ANNOALLVISIBLE
350
4A0D8
  3
CANNOSCALE
350
4A0D9
  3
CMLEADERSTYLE
350
4A0DA
  3
CTABLESTYLE
350
4A0DB
  3
CVIEWDETAILSTYLE
350
4A0DC
  3
CVIEWSECTIONSTYLE
350
4A0DD
  3
DIMADEC
350
4A0DE
  3
DIMASSOC
350
4A0DF
  3
DWFFRAME
350
4A0E0
  3
HIDETEXT
350
4A0E1
  3
HPCOLOR
350
4A0E2
  3
HPLAYER
350
4A0E3
  3
HPTRANSPARENCY
350
4A0E4
  3
INDEXCTL
350
4A0E5
  3
LAYEREVAL
350
4A0E6
  3
LAYERNOTIFY
350
4A0E7
  3
LIGHTINGUNITS
350
4A0E8
  3
MLEADERSCALE
350
4A0E9
  3
MSLTSCALE
350
4A0EA
  3
MSOLESCALE
350
4A0EB
  3
PDFFRAME
350
4A0EC
  3
POINTCLOUDCLIPFRAME
350
4A0ED
  3
PROJECTNAME
350
4A0EE
  3
SOLIDHIST
350
4A0EF
  3
SORTENTS
350
4A0F0
  0
DICTIONARY
  5
22D1
102
{ACAD_REACTORS
330
C
102
}
330
C
100
AcDbDictionary
281
     1
  0
DICTIONARY
  5
18F
102
{ACAD_REACTORS
330
18E
102
}
330
18E
100
AcDbDictionary
281
     1
  0
SORTENTSTABLE
  5
28E
102
{ACAD_REACTORS
330
15D
102
}
330
15D
100
AcDbSortentsTable
330
1F
  0
ACDBDETAILVIEWSTYLE
  5
1AC
102
{ACAD_REACTORS
330
1AB
102
}
330
1AB
100
AcDbModelDocViewStyle
 70
     0
  3
Imperial24
290
     0
300
Imperial24
 90
        0
100
AcDbDetailViewStyle
 70
     0
 71
     0
 90
        3
 71
     1
340
11
 62
   256
 40
0.24
340
0
 62
   256
 40
0.24
300

 40
0.36
280
     3
 71
     2
340
16
 90
       25
 62
   256
 71
     3
340
11
 62
   256
 40
0.24
 90
        1
 40
0.75
 90
        1
300
%<\AcVar ViewType \f "%tc1">% %<\AcVar ViewDetailId>%\PSCALE %<\AcVar ViewScale \f "%sn">%
 71
     4
340
16
 90
       25
 62
   256
340
16
 90
       25
 62
   256
280
     0
  0
ACDBDETAILVIEWSTYLE
  5
224
102
{ACAD_REACTORS
330
1AB
102
}
330
1AB
100
AcDbModelDocViewStyle
 70
     0
  3
Metric50
290
     0
300
Metric50
 90
        0
100
AcDbDetailViewStyle
 70
     0
 71
     0
 90
        3
 71
     1
340
11
 62
   256
 40
5.0
340
0
 62
   256
 40
5.0
300

 40
0.0
280
     1
 71
     2
340
16
 90
       25
 62
   256
 71
     3
340
11
 62
   256
 40
5.0
 90
        0
 40
15.0
 90
        1
300
%<\AcVar ViewDetailId>% (%<\AcVar ViewScale \f "%sn">%)
 71
     4
340
16
 90
       25
 62
   256
340
16
 90
       25
 62
   256
280
     0
  0
LAYOUT
  5
59
102
{ACAD_REACTORS
330
1A
102
}
330
1A
100
AcDbPlotSettings
  1

  2
None
  4

  6

 40
0.0
 41
0.0
 42
0.0
 43
0.0
 44
0.0
 45
0.0
 46
0.0
 47
0.0
 48
0.0
 49
0.0
140
0.0
141
0.0
142
1.0
143
1.0
 70
   688
 72
     0
 73
     0
 74
     5
  7

 75
    16
147
1.0
 76
     0
 77
     2
 78
   300
148
0.0
149
0.0
100
AcDbLayout
  1
Layout1
 70
     1
 71
     1
 10
0.0
 20
0.0
 11
12.0
 21
9.0
 12
0.0
 22
0.0
 32
0.0
 14
0.0
 24
0.0
 34
0.0
 15
0.0
 25
0.0
 35
0.0
146
0.0
 13
0.0
 23
0.0
 33
0.0
 16
1.0
 26
0.0
 36
0.0
 17
0.0
 27
1.0
 37
0.0
 76
     0
330
58
  0
LAYOUT
  5
5E
102
{ACAD_REACTORS
330
1A
102
}
330
1A
100
AcDbPlotSettings
  1

  2
None
  4

  6

 40
0.0
 41
0.0
 42
0.0
 43
0.0
 44
0.0
 45
0.0
 46
0.0
 47
0.0
 48
0.0
 49
0.0
140
0.0
141
0.0
142
1.0
143
1.0
 70
   688
 72
     0
 73
     0
 74
     5
  7

 75
    16
147
1.0
 76
     0
 77
     2
 78
   300
148
0.0
149
0.0
100
AcDbLayout
  1
Layout2
 70
     1
 71
     2
 10
0.0
 20
0.0
 11
12.0
 21
9.0
 12
0.0
 22
0.0
 32
0.0
 14
0.0
 24
0.0
 34
0.0
 15
0.0
 25
0.0
 35
0.0
146
0.0
 13
0.0
 23
0.0
 33
0.0
 16
1.0
 26
0.0
 36
0.0
 17
0.0
 27
1.0
 37
0.0
 76
     0
330
5D
  0
LAYOUT
  5
22
102
{ACAD_XDICTIONARY
360
194
102
}
102
{ACAD_REACTORS
330
1A
102
}
330
1A
100
AcDbPlotSettings
  1

  2
none_device
  4
ANSI_A_(8.50_x_11.00_Inches)
  6

 40
6.349999904632568
 41
19.04999923706055
 42
6.350006103515625
 43
19.04998779296875
 44
215.8999938964844
 45
279.3999938964844
 46
0.0
 47
0.0
 48
0.0
 49
0.0
140
0.0
141
0.0
142
1.0
143
2.584895464708373
 70
 11952
 72
     0
 73
     1
 74
     0
  7

 75
     0
147
0.3868628397755418
 76
     0
 77
     2
 78
   300
148
0.0
149
0.0
100
AcDbLayout
  1
Model
 70
     1
 71
     0
 10
0.0
 20
0.0
 11
12.0
 21
9.0
 12
0.0
 22
0.0
 32
0.0
 14
0.0
 24
0.0
 34
0.0
 15
0.0
 25
0.0
 35
0.0
146
0.0
 13
0.0
 23
0.0
 33
0.0
 16
1.0
 26
0.0
 36
0.0
 17
0.0
 27
1.0
 37
0.0
 76
     0
330
1F
331
94
  0
MATERIAL
  5
97
102
{ACAD_XDICTIONARY
360
188
102
}
102
{ACAD_REACTORS
330
72
102
}
330
72
100
AcDbMaterial
  1
ByBlock
 94
       63
  0
MATERIAL
  5
96
102
{ACAD_XDICTIONARY
360
186
102
}
102
{ACAD_REACTORS
330
72
102
}
330
72
100
AcDbMaterial
  1
ByLayer
 94
       63
  0
MATERIAL
  5
98
102
{ACAD_XDICTIONARY
360
110
102
}
102
{ACAD_REACTORS
330
72
102
}
330
72
100
AcDbMaterial
  1
Global
 43
0.0208000000566244
 43
0.0
 43
0.0
 43
0.0
 43
0.0
 43
0.0208000000566244
 43
0.0
 43
0.0
 43
0.0
 43
0.0
 43
1.0
 43
0.0
 43
0.0
 43
0.0
 43
0.0
 43
1.0
 49
0.0208000000566244
 49
0.0
 49
0.0
 49
0.0
 49
0.0
 49
0.0208000000566244
 49
0.0
 49
0.0
 49
0.0
 49
0.0
 49
1.0
 49
0.0
 49
0.0
 49
0.0
 49
0.0
 49
1.0
142
0.0208000000566244
142
0.0
142
0.0
142
0.0
142
0.0
142
0.0208000000566244
142
0.0
142
0.0
142
0.0
142
0.0
142
1.0
142
0.0
142
0.0
142
0.0
142
0.0
142
1.0
144
0.0208000000566244
144
0.0
144
0.0
144
0.0
144
0.0
144
0.0208000000566244
144
0.0
144
0.0
144
0.0
144
0.0
144
1.0
144
0.0
144
0.0
144
0.0
144
0.0
144
1.0
 94
       63
1001
ACAD
1070
    -1
1070
     3
1070
     0
1000

1071
        0
1070
     0
  0
MLEADERSTYLE
  5
D8
102
{ACAD_REACTORS
330
D7
102
}
330
D7
100
AcDbMLeaderStyle
179
     2
170
     2
171
     1
172
     0
 90
        2
 40
0.0
 41
0.0
173
     1
 91
-1056964608
340
14
 92
       -2
290
     1
 42
0.09
291
     1
 43
0.36
  3
Standard
 44
0.18
300

342
11
174
     1
178
     1
175
     1
176
     0
 93
-1056964608
 45
0.18
292
     0
297
     0
 46
0.18
 94
-1056964608
 47
1.0
 49
1.0
140
1.0
293
     1
141
0.0
294
     1
177
     0
142
1.0
295
     0
296
     0
143
0.125
271
     0
272
     9
273
     9
298
     0
  0
MLINESTYLE
  5
18
102
{ACAD_REACTORS
330
17
102
}
330
17
100
AcDbMlineStyle
  2
STANDARD
 70
     0
  3

 62
   256
 51
90.0
 52
90.0
 71
     2
 49
0.5
 62
   256
  6
BYLAYER
 49
-0.5
 62
   256
  6
BYLAYER
  0
ACDBPLACEHOLDER
  5
F
102
{ACAD_REACTORS
330
E
102
}
330
E
  0
SCALE
  5
2283
102
{ACAD_REACTORS
330
B6
102
}
330
B6
100
AcDbScale
 70
     0
300
1:75
140
1.0
141
75.0
290
     0
  0
SCALE
  5
B7
102
{ACAD_REACTORS
330
B6
102
}
330
B6
100
AcDbScale
 70
     0
300
1:1
140
1.0
141
1.0
290
     1
  0
SCALE
  5
124
102
{ACAD_REACTORS
330
B6
102
}
330
B6
100
AcDbScale
 70
     0
300
1:2
140
1.0
141
2.0
290
     0
  0
SCALE
  5
125
102
{ACAD_REACTORS
330
B6
102
}
330
B6
100
AcDbScale
 70
     0
300
1:4
140
1.0
141
4.0
290
     0
  0
SCALE
  5
126
102
{ACAD_REACTORS
330
B6
102
}
330
B6
100
AcDbScale
 70
     0
300
1:5
140
1.0
141
5.0
290
     0
  0
SCALE
  5
127
102
{ACAD_REACTORS
330
B6
102
}
330
B6
100
AcDbScale
 70
     0
300
1:8
140
1.0
141
8.0
290
     0
  0
SCALE
  5
128
102
{ACAD_REACTORS
330
B6
102
}
330
B6
100
AcDbScale
 70
     0
300
1:10
140
1.0
141
10.0
290
     0
  0
SCALE
  5
129
102
{ACAD_REACTORS
330
B6
102
}
330
B6
100
AcDbScale
 70
     0
300
1:16
140
1.0
141
16.0
290
     0
  0
SCALE
  5
12A
102
{ACAD_REACTORS
330
B6
102
}
330
B6
100
AcDbScale
 70
     0
300
1:20
140
1.0
141
20.0
290
     0
  0
SCALE
  5
12B
102
{ACAD_REACTORS
330
B6
102
}
330
B6
100
AcDbScale
 70
     0
300
1:30
140
1.0
141
30.0
290
     0
  0
SCALE
  5
12C
102
{ACAD_REACTORS
330
B6
102
}
330
B6
100
AcDbScale
 70
     0
300
1:40
140
1.0
141
40.0
290
     0
  0
SCALE
  5
12D
102
{ACAD_REACTORS
330
B6
102
}
330
B6
100
AcDbScale
 70
     0
300
1:50
140
1.0
141
50.0
290
     0
  0
SCALE
  5
12E
102
{ACAD_REACTORS
330
B6
102
}
330
B6
100
AcDbScale
 70
     0
300
1:100
140
1.0
141
100.0
290
     0
  0
SCALE
  5
12F
102
{ACAD_REACTORS
330
B6
102
}
330
B6
100
AcDbScale
 70
     0
300
2:1
140
2.0
141
1.0
290
     0
  0
SCALE
  5
130
102
{ACAD_REACTORS
330
B6
102
}
330
B6
100
AcDbScale
 70
     0
300
4:1
140
4.0
141
1.0
290
     0
  0
SCALE
  5
131
102
{ACAD_REACTORS
330
B6
102
}
330
B6
100
AcDbScale
 70
     0
300
8:1
140
8.0
141
1.0
290
     0
  0
SCALE
  5
132
102
{ACAD_REACTORS
330
B6
102
}
330
B6
100
AcDbScale
 70
     0
300
10:1
140
10.0
141
1.0
290
     0
  0
SCALE
  5
133
102
{ACAD_REACTORS
330
B6
102
}
330
B6
100
AcDbScale
 70
     0
300
100:1
140
100.0
141
1.0
290
     0
  0
SCALE
  5
134
102
{ACAD_REACTORS
330
B6
102
}
330
B6
100
AcDbScale
 70
     0
300
1/128" = 1'-0"
140
0.0078125
141
12.0
290
     0
  0
SCALE
  5
135
102
{ACAD_REACTORS
330
B6
102
}
330
B6
100
AcDbScale
 70
     0
300
1/64" = 1'-0"
140
0.015625
141
12.0
290
     0
  0
SCALE
  5
136
102
{ACAD_REACTORS
330
B6
102
}
330
B6
100
AcDbScale
 70
     0
300
1/32" = 1'-0"
140
0.03125
141
12.0
290
     0
  0
SCALE
  5
137
102
{ACAD_REACTORS
330
B6
102
}
330
B6
100
AcDbScale
 70
     0
300
1/16" = 1'-0"
140
0.0625
141
12.0
290
     0
  0
SCALE
  5
138
102
{ACAD_REACTORS
330
B6
102
}
330
B6
100
AcDbScale
 70
     0
300
3/32" = 1'-0"
140
0.09375
141
12.0
290
     0
  0
SCALE
  5
139
102
{ACAD_REACTORS
330
B6
102
}
330
B6
100
AcDbScale
 70
     0
300
1/8" = 1'-0"
140
0.125
141
12.0
290
     0
  0
SCALE
  5
13A
102
{ACAD_REACTORS
330
B6
102
}
330
B6
100
AcDbScale
 70
     0
300
3/16" = 1'-0"
140
0.1875
141
12.0
290
     0
  0
SCALE
  5
13B
102
{ACAD_REACTORS
330
B6
102
}
330
B6
100
AcDbScale
 70
     0
300
1/4" = 1'-0"
140
0.25
141
12.0
290
     0
  0
SCALE
  5
13C
102
{ACAD_REACTORS
330
B6
102
}
330
B6
100
AcDbScale
 70
     0
300
3/8" = 1'-0"
140
0.375
141
12.0
290
     0
  0
SCALE
  5
13D
102
{ACAD_REACTORS
330
B6
102
}
330
B6
100
AcDbScale
 70
     0
300
1/2" = 1'-0"
140
0.5
141
12.0
290
     0
  0
SCALE
  5
13E
102
{ACAD_REACTORS
330
B6
102
}
330
B6
100
AcDbScale
 70
     0
300
3/4" = 1'-0"
140
0.75
141
12.0
290
     0
  0
SCALE
  5
13F
102
{ACAD_REACTORS
330
B6
102
}
330
B6
100
AcDbScale
 70
     0
300
1" = 1'-0"
140
1.0
141
12.0
290
     0
  0
SCALE
  5
140
102
{ACAD_REACTORS
330
B6
102
}
330
B6
100
AcDbScale
 70
     0
300
1-1/2" = 1'-0"
140
1.5
141
12.0
290
     0
  0
SCALE
  5
141
102
{ACAD_REACTORS
330
B6
102
}
330
B6
100
AcDbScale
 70
     0
300
3" = 1'-0"
140
3.0
141
12.0
290
     0
  0
SCALE
  5
142
102
{ACAD_REACTORS
330
B6
102
}
330
B6
100
AcDbScale
 70
     0
300
6" = 1'-0"
140
6.0
141
12.0
290
     0
  0
SCALE
  5
143
102
{ACAD_REACTORS
330
B6
102
}
330
B6
100
AcDbScale
 70
     0
300
1'-0" = 1'-0"
140
12.0
141
12.0
290
     0
  0
ACDBSECTIONVIEWSTYLE
  5
1AA
102
{ACAD_REACTORS
330
1A8
102
}
330
1A8
100
AcDbModelDocViewStyle
 70
     0
  3
Imperial24
290
     0
300
Imperial24
 90
        0
100
AcDbSectionViewStyle
 70
     0
 71
     0
 90
       78
 71
     1
340
11
 62
   256
 40
0.24
340
0
340
0
 62
   256
 40
0.24
300
I, O, Q, S, X, Z
 40
0.48
 90
        3
 40
0.18
 90
        1
 71
     2
340
16
 90
       25
 62
   256
340
16
 90
       50
 62
   256
 40
0.24
 40
0.0
 40
0.24
 71
     3
340
11
 62
   256
 40
0.24
 90
        1
 40
0.75
 90
        1
300
%<\AcVar ViewType \f "%tc1">% %<\AcVar ViewSectionStartId>%-%<\AcVar ViewSectionEndId>%\PSCALE %<\AcVar ViewScale \f "%sn">%
 71
     4
 62
   256
 62
   257
300
ANSI31
 40
1.0
 90
        0
290
     0
290
     0
 90
        6
 40
0.0
 40
1.570796326794896
 40
0.2617993877991494
 40
1.308996938995747
 40
-0.2617993877991494
 40
1.832595714594046
  0
ACDBSECTIONVIEWSTYLE
  5
223
102
{ACAD_REACTORS
330
1A8
102
}
330
1A8
100
AcDbModelDocViewStyle
 70
     0
  3
Metric50
290
     0
300
Metric50
 90
        0
100
AcDbSectionViewStyle
 70
     0
 71
     0
 90
      102
 71
     1
340
11
 62
   256
 40
5.0
340
0
340
0
 62
   256
 40
5.0
300
I, O, Q, S, X, Z
 40
10.0
 90
        0
 40
2.5
 90
        0
 71
     2
340
16
 90
       25
 62
   256
340
16
 90
       50
 62
   256
 40
5.0
 40
2.5
 40
5.0
 71
     3
340
11
 62
   256
 40
5.0
 90
        0
 40
15.0
 90
        1
300
%<\AcVar ViewSectionStartId>%-%<\AcVar ViewSectionEndId>% (%<\AcVar ViewScale \f "%sn">%)
 71
     4
 62
   256
 62
   257
300
ANSI31
 40
1.0
 90
        0
290
     0
290
     0
 90
        6
 40
0.0
 40
1.570796326794896
 40
0.2617993877991494
 40
1.308996938995747
 40
-0.2617993877991494
 40
1.832595714594046
  0
TABLESTYLE
  5
87
102
{ACAD_XDICTIONARY
360
104
102
}
102
{ACAD_REACTORS
330
86
102
}
330
86
100
AcDbTableStyle
280
     0
  3
Standard
 70
     0
 71
     0
 40
0.06
 41
0.06
280
     0
281
     0
  7
Standard
140
0.18
170
     2
 62
     0
 63
     7
283
     0
 90
      512
 91
        0
  1

274
    -2
284
     1
 64
     0
275
    -2
285
     1
 65
     0
276
    -2
286
     1
 66
     0
277
    -2
287
     1
 67
     0
278
    -2
288
     1
 68
     0
279
    -2
289
     1
 69
     0
  7
Standard
140
0.25
170
     5
 62
     0
 63
     7
283
     0
 90
      512
 91
        0
  1

274
    -2
284
     1
 64
     0
275
    -2
285
     1
 65
     0
276
    -2
286
     1
 66
     0
277
    -2
287
     1
 67
     0
278
    -2
288
     1
 68
     0
279
    -2
289
     1
 69
     0
  7
Standard
140
0.18
170
     5
 62
     0
 63
     7
283
     0
 90
      512
 91
        0
  1

274
    -2
284
     1
 64
     0
275
    -2
285
     1
 65
     0
276
    -2
286
     1
 66
     0
277
    -2
287
     1
 67
     0
278
    -2
288
     1
 68
     0
279
    -2
289
     1
 69
     0
  0
VISUALSTYLE
  5
9F
102
{ACAD_REACTORS
330
99
102
}
330
99
100
AcDbVisualStyle
  2
2dWireframe
 70
     4
177
     3
291
     0
 70
    58
 90
        0
176
     1
 90
        2
176
     1
 90
        1
176
     1
 90
        0
176
     1
 40
0.6
176
     1
 40
30.0
176
     1
 62
     7
420
 16777215
176
     1
 90
        1
176
     1
 90
        4
176
     1
 62
     7
176
     1
 62
   257
176
     1
 90
        1
176
     1
 90
        1
176
     1
 40
1.0
176
     1
 90
        0
176
     1
 62
   257
176
     1
 40
1.0
176
     1
 90
        1
176
     1
 90
        6
176
     1
 90
        2
176
     1
 62
     7
176
     1
 90
        5
176
     1
 90
        0
176
     1
 90
        0
176
     1
290
     0
176
     1
 90
        1
176
     1
 40
0.0
176
     1
 90
        0
176
     1
290
     1
176
     1
290
     1
176
     1
290
     0
176
     1
290
     0
176
     1
290
     0
176
     1
290
     0
176
     1
290
     0
176
     1
290
     0
176
     1
290
     0
176
     1
 90
       50
176
     1
 40
0.0
176
     1
 40
1.0
176
     1
 90
        0
176
     1
 62
    18
420
        0
176
     1
 90
       50
176
     1
 90
        3
176
     1
 62
     5
420
      255
176
     1
290
     0
176
     1
 90
       50
176
     1
 90
       50
176
     1
 90
       50
176
     1
290
     0
176
     1
 90
       50
176
     1
 62
   256
176
     0
 40
1.0
176
     0
 90
        2
176
     1
  1
strokes_ogs.tif
176
     1
290
     0
176
     1
 40
1.0
176
     1
 40
1.0
176
     1
  0
VISUALSTYLE
  5
22946
102
{ACAD_REACTORS
330
99
102
}
330
99
100
AcDbVisualStyle
  2
3dWireframe
 70
     5
177
     3
291
     0
 70
    58
 90
        0
176
     1
 90
        2
176
     1
 90
        0
176
     1
 90
        0
176
     1
 40
0.6
176
     1
 40
30.0
176
     1
 62
     7
176
     1
 90
        1
176
     1
 90
        4
176
     1
 62
     7
176
     1
 62
   257
176
     1
 90
        1
176
     1
 90
        1
176
     1
 40
1.0
176
     1
 90
        0
176
     1
 62
   257
176
     1
 40
1.0
176
     1
 90
        1
176
     1
 90
        6
176
     1
 90
        2
176
     1
 62
     7
176
     1
 90
        5
176
     1
 90
        0
176
     1
 90
        0
176
     1
290
     0
176
     1
 90
        1
176
     1
 40
0.0
176
     1
 90
        0
176
     1
290
     0
176
     1
290
     1
176
     1
290
     1
176
     1
290
     0
176
     1
290
     0
176
     1
290
     0
176
     1
290
     0
176
     1
290
     0
176
     1
290
     0
176
     1
 90
       50
176
     1
 40
0.0
176
     1
 40
1.0
176
     1
 90
        0
176
     1
 62
    18
420
        0
176
     1
 90
       50
176
     1
 90
        3
176
     1
 62
     5
420
      255
176
     1
290
     0
176
     1
 90
       50
176
     1
 90
       50
176
     1
 90
       50
176
     1
290
     0
176
     1
 90
       50
176
     1
 62
   256
176
     0
 40
1.0
176
     0
 90
        2
176
     1
  1
strokes_ogs.tif
176
     1
290
     0
176
     1
 40
1.0
176
     1
 40
1.0
176
     1
  0
VISUALSTYLE
  5
9E
102
{ACAD_REACTORS
330
99
102
}
330
99
100
AcDbVisualStyle
  2
Basic
 70
     7
177
     3
291
     1
 70
    58
 90
        1
176
     1
 90
        0
176
     1
 90
        1
176
     1
 90
        0
176
     1
 40
0.6
176
     1
 40
30.0
176
     1
 62
     7
420
 16777215
176
     1
 90
        0
176
     1
 90
        4
176
     1
 62
     7
176
     1
 62
   257
176
     1
 90
        1
176
     1
 90
        1
176
     1
 40
1.0
176
     1
 90
        8
176
     1
 62
     7
176
     1
 40
1.0
176
     1
 90
        1
176
     1
 90
        6
176
     1
 90
        2
176
     1
 62
     7
176
     1
 90
        5
176
     1
 90
        0
176
     1
 90
        0
176
     1
290
     0
176
     1
 90
        1
176
     1
 40
0.0
176
     1
 90
        0
176
     1
290
     0
176
     1
290
     1
176
     1
290
     1
176
     1
290
     0
176
     1
290
     0
176
     1
290
     0
176
     1
290
     0
176
     1
290
     0
176
     1
290
     0
176
     1
 90
       50
176
     1
 40
0.0
176
     1
 40
1.0
176
     1
 90
        0
176
     1
 62
    18
420
        0
176
     1
 90
       50
176
     1
 90
        3
176
     1
 62
     5
420
      255
176
     1
290
     0
176
     1
 90
       50
176
     1
 90
       50
176
     1
 90
       50
176
     1
290
     0
176
     1
 90
       50
176
     1
 62
   256
176
     0
 40
1.0
176
     0
 90
        2
176
     1
  1
strokes_ogs.tif
176
     1
290
     0
176
     1
 40
1.0
176
     1
 40
1.0
176
     1
  0
VISUALSTYLE
  5
A5
102
{ACAD_REACTORS
330
99
102
}
330
99
100
AcDbVisualStyle
  2
Brighten
 70
    12
177
     3
291
     1
 70
    58
 90
        2
176
     1
 90
        2
176
     1
 90
        1
176
     1
 90
        0
176
     1
 40
0.6
176
     1
 40
30.0
176
     1
 62
     7
420
 16777215
176
     1
 90
        1
176
     1
 90
        4
176
     1
 62
     7
176
     1
 62
   257
176
     1
 90
        1
176
     1
 90
        1
176
     1
 40
1.0
176
     1
 90
        8
176
     1
 62
     7
176
     1
 40
1.0
176
     1
 90
        1
176
     1
 90
        6
176
     1
 90
        2
176
     1
 62
     7
176
     1
 90
        5
176
     1
 90
        0
176
     1
 90
        0
176
     1
290
     0
176
     1
 90
        1
176
     1
 40
50.0
176
     1
 90
        0
176
     1
290
     0
176
     1
290
     1
176
     1
290
     1
176
     1
290
     0
176
     1
290
     0
176
     1
290
     0
176
     1
290
     0
176
     1
290
     0
176
     1
290
     0
176
     1
 90
       50
176
     1
 40
0.0
176
     1
 40
1.0
176
     1
 90
        0
176
     1
 62
    18
420
        0
176
     1
 90
       50
176
     1
 90
        3
176
     1
 62
     5
420
      255
176
     1
290
     0
176
     1
 90
       50
176
     1
 90
       50
176
     1
 90
       50
176
     1
290
     0
176
     1
 90
       50
176
     1
 62
   256
176
     0
 40
1.0
176
     0
 90
        2
176
     1
  1
strokes_ogs.tif
176
     1
290
     0
176
     1
 40
1.0
176
     1
 40
1.0
176
     1
  0
VISUALSTYLE
  5
A9
102
{ACAD_REACTORS
330
99
102
}
330
99
100
AcDbVisualStyle
  2
ColorChange
 70
    16
177
     3
291
     1
 70
    58
 90
        2
176
     1
 90
        2
176
     1
 90
        3
176
     1
 90
        0
176
     1
 40
0.6
176
     1
 40
30.0
176
     1
 62
     8
420
  8421504
176
     1
 90
        1
176
     1
 90
        4
176
     1
 62
     7
176
     1
 62
   257
176
     1
 90
        1
176
     1
 90
        1
176
     1
 40
1.0
176
     1
 90
        8
176
     1
 62
     8
420
  8421504
176
     1
 40
1.0
176
     1
 90
        1
176
     1
 90
        6
176
     1
 90
        2
176
     1
 62
     7
176
     1
 90
        5
176
     1
 90
        0
176
     1
 90
        0
176
     1
290
     0
176
     1
 90
        1
176
     1
 40
0.0
176
     1
 90
        0
176
     1
290
     0
176
     1
290
     1
176
     1
290
     1
176
     1
290
     0
176
     1
290
     0
176
     1
290
     0
176
     1
290
     0
176
     1
290
     0
176
     1
290
     0
176
     1
 90
       50
176
     1
 40
0.0
176
     1
 40
1.0
176
     1
 90
        0
176
     1
 62
    18
420
        0
176
     1
 90
       50
176
     1
 90
        3
176
     1
 62
     5
420
      255
176
     1
290
     0
176
     1
 90
       50
176
     1
 90
       50
176
     1
 90
       50
176
     1
290
     0
176
     1
 90
       50
176
     1
 62
   256
176
     0
 40
1.0
176
     0
 90
        2
176
     1
  1
strokes_ogs.tif
176
     1
290
     0
176
     1
 40
1.0
176
     1
 40
1.0
176
     1
  0
VISUALSTYLE
  5
A2
102
{ACAD_REACTORS
330
99
102
}
330
99
100
AcDbVisualStyle
  2
Conceptual
 70
     9
177
     3
291
     0
 70
    58
 90
        3
176
     1
 90
        2
176
     1
 90
        1
176
     1
 90
        0
176
     1
 40
0.6
176
     1
 40
30.0
176
     1
 62
     7
420
 16777215
176
     1
 90
        2
176
     1
 90
        2
176
     1
 62
     7
176
     1
 62
   257
176
     1
 90
        1
176
     1
 90
        1
176
     1
 40
40.0
176
     1
 90
        8
176
     1
 62
     7
176
     1
 40
1.0
176
     1
 90
        1
176
     1
 90
        6
176
     1
 90
        2
176
     1
 62
     7
176
     1
 90
        3
176
     1
 90
        0
176
     1
 90
        0
176
     1
290
     0
176
     1
 90
        1
176
     1
 40
0.0
176
     1
 90
        0
176
     1
290
     0
176
     1
290
     1
176
     1
290
     1
176
     1
290
     0
176
     1
290
     0
176
     1
290
     0
176
     1
290
     0
176
     1
290
     0
176
     1
290
     0
176
     1
 90
       50
176
     1
 40
0.0
176
     1
 40
1.0
176
     1
 90
        0
176
     1
 62
    18
420
        0
176
     1
 90
       50
176
     1
 90
        3
176
     1
 62
     5
420
      255
176
     1
290
     0
176
     1
 90
       50
176
     1
 90
       50
176
     1
 90
       50
176
     1
290
     0
176
     1
 90
       50
176
     1
 62
   256
176
     0
 40
1.0
176
     0
 90
        2
176
     1
  1
strokes_ogs.tif
176
     1
290
     0
176
     1
 40
1.0
176
     1
 40
1.0
176
     1
  0
VISUALSTYLE
  5
A4
102
{ACAD_REACTORS
330
99
102
}
330
99
100
AcDbVisualStyle
  2
Dim
 70
    11
177
     3
291
     1
 70
    58
 90
        2
176
     1
 90
        2
176
     1
 90
        1
176
     1
 90
        0
176
     1
 40
0.6
176
     1
 40
30.0
176
     1
 62
     7
420
 16777215
176
     1
 90
        1
176
     1
 90
        4
176
     1
 62
     7
176
     1
 62
   257
176
     1
 90
        1
176
     1
 90
        1
176
     1
 40
1.0
176
     1
 90
        8
176
     1
 62
     7
176
     1
 40
1.0
176
     1
 90
        1
176
     1
 90
        6
176
     1
 90
        2
176
     1
 62
     7
176
     1
 90
        5
176
     1
 90
        0
176
     1
 90
        0
176
     1
290
     0
176
     1
 90
        1
176
     1
 40
-50.0
176
     1
 90
        0
176
     1
290
     0
176
     1
290
     1
176
     1
290
     1
176
     1
290
     0
176
     1
290
     0
176
     1
290
     0
176
     1
290
     0
176
     1
290
     0
176
     1
290
     0
176
     1
 90
       50
176
     1
 40
0.0
176
     1
 40
1.0
176
     1
 90
        0
176
     1
 62
    18
420
        0
176
     1
 90
       50
176
     1
 90
        3
176
     1
 62
     5
420
      255
176
     1
290
     0
176
     1
 90
       50
176
     1
 90
       50
176
     1
 90
       50
176
     1
290
     0
176
     1
 90
       50
176
     1
 62
   256
176
     0
 40
1.0
176
     0
 90
        2
176
     1
  1
strokes_ogs.tif
176
     1
290
     0
176
     1
 40
1.0
176
     1
 40
1.0
176
     1
  0
VISUALSTYLE
  5
175
102
{ACAD_REACTORS
330
99
102
}
330
99
100
AcDbVisualStyle
  2
EdgeColorOff
 70
    22
177
     3
291
     1
 70
    58
 90
        2
176
     0
 90
        2
176
     0
 90
        0
176
     0
 90
        0
176
     0
 40
0.6
176
     0
 40
30.0
176
     0
 62
     7
420
 16777215
176
     0
 90
        1
176
     0
 90
        4
176
     0
 62
     7
176
     0
 62
   257
176
     0
 90
        1
176
     0
 90
        1
176
     0
 40
1.0
176
     0
 90
        8
176
     2
 62
     7
176
     0
 40
1.0
176
     0
 90
        1
176
     0
 90
        6
176
     0
 90
        2
176
     0
 62
     7
176
     0
 90
        5
176
     0
 90
        0
176
     0
 90
        0
176
     0
290
     0
176
     0
 90
        1
176
     0
 40
0.0
176
     0
 90
        0
176
     0
290
     0
176
     1
290
     1
176
     1
290
     1
176
     1
290
     0
176
     1
290
     0
176
     1
290
     0
176
     1
290
     0
176
     1
290
     0
176
     1
290
     0
176
     1
 90
       50
176
     1
 40
0.0
176
     1
 40
1.0
176
     1
 90
        0
176
     1
 62
    18
420
        0
176
     1
 90
       50
176
     1
 90
        3
176
     1
 62
     5
420
      255
176
     1
290
     0
176
     1
 90
       50
176
     1
 90
       50
176
     1
 90
       50
176
     1
290
     0
176
     1
 90
       50
176
     1
 62
   256
176
     0
 40
1.0
176
     0
 90
        2
176
     1
  1
strokes_ogs.tif
176
     1
290
     0
176
     1
 40
1.0
176
     1
 40
1.0
176
     1
  0
VISUALSTYLE
  5
A8
102
{ACAD_REACTORS
330
99
102
}
330
99
100
AcDbVisualStyle
  2
Facepattern
 70
    15
177
     3
291
     1
 70
    58
 90
        2
176
     1
 90
        2
176
     1
 90
        1
176
     1
 90
        0
176
     1
 40
0.6
176
     1
 40
30.0
176
     1
 62
     7
420
 16777215
176
     1
 90
        1
176
     1
 90
        4
176
     1
 62
     7
176
     1
 62
   257
176
     1
 90
        1
176
     1
 90
        1
176
     1
 40
1.0
176
     1
 90
        8
176
     1
 62
     7
176
     1
 40
1.0
176
     1
 90
        1
176
     1
 90
        6
176
     1
 90
        2
176
     1
 62
     7
176
     1
 90
        5
176
     1
 90
        0
176
     1
 90
        0
176
     1
290
     0
176
     1
 90
        1
176
     1
 40
0.0
176
     1
 90
        0
176
     1
290
     0
176
     1
290
     1
176
     1
290
     1
176
     1
290
     0
176
     1
290
     0
176
     1
290
     0
176
     1
290
     0
176
     1
290
     0
176
     1
290
     0
176
     1
 90
       50
176
     1
 40
0.0
176
     1
 40
1.0
176
     1
 90
        0
176
     1
 62
    18
420
        0
176
     1
 90
       50
176
     1
 90
        3
176
     1
 62
     5
420
      255
176
     1
290
     0
176
     1
 90
       50
176
     1
 90
       50
176
     1
 90
       50
176
     1
290
     0
176
     1
 90
       50
176
     1
 62
   256
176
     0
 40
1.0
176
     0
 90
        2
176
     1
  1
strokes_ogs.tif
176
     1
290
     0
176
     1
 40
1.0
176
     1
 40
1.0
176
     1
  0
VISUALSTYLE
  5
9A
102
{ACAD_REACTORS
330
99
102
}
330
99
100
AcDbVisualStyle
  2
Flat
 70
     0
177
     3
291
     1
 70
    58
 90
        2
176
     1
 90
        1
176
     1
 90
        1
176
     1
 90
        2
176
     1
 40
0.6
176
     1
 40
30.0
176
     1
 62
     7
420
 16777215
176
     1
 90
        0
176
     1
 90
        0
176
     1
 62
     7
176
     1
 62
   257
176
     1
 90
        1
176
     1
 90
        1
176
     1
 40
1.0
176
     1
 90
        8
176
     1
 62
     7
176
     1
 40
1.0
176
     1
 90
        1
176
     1
 90
        6
176
     1
 90
        2
176
     1
 62
     7
176
     1
 90
        5
176
     1
 90
        0
176
     1
 90
        0
176
     1
290
     0
176
     1
 90
       13
176
     1
 40
0.0
176
     1
 90
        0
176
     1
290
     0
176
     1
290
     1
176
     1
290
     1
176
     1
290
     0
176
     1
290
     0
176
     1
290
     0
176
     1
290
     0
176
     1
290
     0
176
     1
290
     0
176
     1
 90
       50
176
     1
 40
0.0
176
     1
 40
1.0
176
     1
 90
        0
176
     1
 62
    18
420
        0
176
     1
 90
       50
176
     1
 90
        3
176
     1
 62
     5
420
      255
176
     1
290
     0
176
     1
 90
       50
176
     1
 90
       50
176
     1
 90
       50
176
     1
290
     0
176
     1
 90
       50
176
     1
 62
   256
176
     0
 40
1.0
176
     0
 90
        2
176
     1
  1
strokes_ogs.tif
176
     1
290
     0
176
     1
 40
1.0
176
     1
 40
1.0
176
     1
  0
VISUALSTYLE
  5
9B
102
{ACAD_REACTORS
330
99
102
}
330
99
100
AcDbVisualStyle
  2
FlatWithEdges
 70
     1
177
     3
291
     1
 70
    58
 90
        2
176
     1
 90
        1
176
     1
 90
        1
176
     1
 90
        2
176
     1
 40
0.6
176
     1
 40
30.0
176
     1
 62
     7
420
 16777215
176
     1
 90
        1
176
     1
 90
        0
176
     1
 62
     7
176
     1
 62
   257
176
     1
 90
        1
176
     1
 90
        1
176
     1
 40
1.0
176
     1
 90
        0
176
     1
 62
   257
176
     1
 40
1.0
176
     1
 90
        1
176
     1
 90
        6
176
     1
 90
        2
176
     1
 62
     7
176
     1
 90
        5
176
     1
 90
        0
176
     1
 90
        0
176
     1
290
     0
176
     1
 90
       13
176
     1
 40
0.0
176
     1
 90
        0
176
     1
290
     0
176
     1
290
     1
176
     1
290
     1
176
     1
290
     0
176
     1
290
     0
176
     1
290
     0
176
     1
290
     0
176
     1
290
     0
176
     1
290
     0
176
     1
 90
       50
176
     1
 40
0.0
176
     1
 40
1.0
176
     1
 90
        0
176
     1
 62
    18
420
        0
176
     1
 90
       50
176
     1
 90
        3
176
     1
 62
     5
420
      255
176
     1
290
     0
176
     1
 90
       50
176
     1
 90
       50
176
     1
 90
       50
176
     1
290
     0
176
     1
 90
       50
176
     1
 62
   256
176
     0
 40
1.0
176
     0
 90
        2
176
     1
  1
strokes_ogs.tif
176
     1
290
     0
176
     1
 40
1.0
176
     1
 40
1.0
176
     1
  0
VISUALSTYLE
  5
9C
102
{ACAD_REACTORS
330
99
102
}
330
99
100
AcDbVisualStyle
  2
Gouraud
 70
     2
177
     3
291
     1
 70
    58
 90
        2
176
     1
 90
        2
176
     1
 90
        1
176
     1
 90
        2
176
     1
 40
0.6
176
     1
 40
30.0
176
     1
 62
     7
420
 16777215
176
     1
 90
        0
176
     1
 90
        0
176
     1
 62
     7
176
     1
 62
   257
176
     1
 90
        1
176
     1
 90
        1
176
     1
 40
1.0
176
     1
 90
        0
176
     1
 62
     7
176
     1
 40
1.0
176
     1
 90
        1
176
     1
 90
        6
176
     1
 90
        2
176
     1
 62
     7
176
     1
 90
        5
176
     1
 90
        0
176
     1
 90
        0
176
     1
290
     0
176
     1
 90
       13
176
     1
 40
0.0
176
     1
 90
        0
176
     1
290
     0
176
     1
290
     1
176
     1
290
     1
176
     1
290
     0
176
     1
290
     0
176
     1
290
     0
176
     1
290
     0
176
     1
290
     0
176
     1
290
     0
176
     1
 90
       50
176
     1
 40
0.0
176
     1
 40
1.0
176
     1
 90
        0
176
     1
 62
    18
420
        0
176
     1
 90
       50
176
     1
 90
        3
176
     1
 62
     5
420
      255
176
     1
290
     0
176
     1
 90
       50
176
     1
 90
       50
176
     1
 90
       50
176
     1
290
     0
176
     1
 90
       50
176
     1
 62
   256
176
     0
 40
1.0
176
     0
 90
        2
176
     1
  1
strokes_ogs.tif
176
     1
290
     0
176
     1
 40
1.0
176
     1
 40
1.0
176
     1
  0
VISUALSTYLE
  5
9D
102
{ACAD_REACTORS
330
99
102
}
330
99
100
AcDbVisualStyle
  2
GouraudWithEdges
 70
     3
177
     3
291
     1
 70
    58
 90
        2
176
     1
 90
        2
176
     1
 90
        1
176
     1
 90
        2
176
     1
 40
0.6
176
     1
 40
30.0
176
     1
 62
     7
420
 16777215
176
     1
 90
        1
176
     1
 90
        0
176
     1
 62
     7
176
     1
 62
   257
176
     1
 90
        1
176
     1
 90
        1
176
     1
 40
1.0
176
     1
 90
        0
176
     1
 62
   257
176
     1
 40
1.0
176
     1
 90
        1
176
     1
 90
        6
176
     1
 90
        2
176
     1
 62
     7
176
     1
 90
        5
176
     1
 90
        0
176
     1
 90
        0
176
     1
290
     0
176
     1
 90
       13
176
     1
 40
0.0
176
     1
 90
        0
176
     1
290
     0
176
     1
290
     1
176
     1
290
     1
176
     1
290
     0
176
     1
290
     0
176
     1
290
     0
176
     1
290
     0
176
     1
290
     0
176
     1
290
     0
176
     1
 90
       50
176
     1
 40
0.0
176
     1
 40
1.0
176
     1
 90
        0
176
     1
 62
    18
420
        0
176
     1
 90
       50
176
     1
 90
        3
176
     1
 62
     5
420
      255
176
     1
290
     0
176
     1
 90
       50
176
     1
 90
       50
176
     1
 90
       50
176
     1
290
     0
176
     1
 90
       50
176
     1
 62
   256
176
     0
 40
1.0
176
     0
 90
        2
176
     1
  1
strokes_ogs.tif
176
     1
290
     0
176
     1
 40
1.0
176
     1
 40
1.0
176
     1
  0
VISUALSTYLE
  5
A1
102
{ACAD_REACTORS
330
99
102
}
330
99
100
AcDbVisualStyle
  2
Hidden
 70
     6
177
     3
291
     0
 70
    58
 90
        1
176
     1
 90
        2
176
     1
 90
        2
176
     1
 90
        0
176
     1
 40
0.6
176
     1
 40
30.0
176
     1
 62
     7
420
 16777215
176
     1
 90
        2
176
     1
 90
        2
176
     1
 62
     7
176
     1
 62
   257
176
     1
 90
        2
176
     1
 90
        1
176
     1
 40
40.0
176
     1
 90
        0
176
     1
 62
   257
176
     1
 40
1.0
176
     1
 90
        1
176
     1
 90
        6
176
     1
 90
        2
176
     1
 62
     7
176
     1
 90
        3
176
     1
 90
        0
176
     1
 90
        0
176
     1
290
     0
176
     1
 90
        1
176
     1
 40
0.0
176
     1
 90
        0
176
     1
290
     0
176
     1
290
     1
176
     1
290
     1
176
     1
290
     0
176
     1
290
     0
176
     1
290
     0
176
     1
290
     0
176
     1
290
     0
176
     1
290
     0
176
     1
 90
       50
176
     1
 40
0.0
176
     1
 40
1.0
176
     1
 90
        0
176
     1
 62
    18
420
        0
176
     1
 90
       50
176
     1
 90
        3
176
     1
 62
     5
420
      255
176
     1
290
     0
176
     1
 90
       50
176
     1
 90
       50
176
     1
 90
       50
176
     1
290
     0
176
     1
 90
       50
176
     1
 62
   256
176
     0
 40
1.0
176
     0
 90
        2
176
     1
  1
strokes_ogs.tif
176
     1
290
     0
176
     1
 40
1.0
176
     1
 40
1.0
176
     1
  0
VISUALSTYLE
  5
173
102
{ACAD_REACTORS
330
99
102
}
330
99
100
AcDbVisualStyle
  2
JitterOff
 70
    20
177
     3
291
     1
 70
    58
 90
        2
176
     0
 90
        2
176
     0
 90
        0
176
     0
 90
        0
176
     0
 40
0.6
176
     0
 40
30.0
176
     0
 62
     7
420
 16777215
176
     0
 90
        1
176
     0
 90
        4
176
     0
 62
     7
176
     0
 62
   257
176
     0
 90
        1
176
     0
 90
        1
176
     0
 40
1.0
176
     0
 90
       10
176
     2
 62
     7
176
     0
 40
1.0
176
     0
 90
        1
176
     0
 90
        6
176
     0
 90
        2
176
     0
 62
     7
176
     0
 90
        5
176
     0
 90
        0
176
     0
 90
        0
176
     0
290
     0
176
     0
 90
        1
176
     0
 40
0.0
176
     0
 90
        0
176
     0
290
     0
176
     1
290
     1
176
     1
290
     1
176
     1
290
     0
176
     1
290
     0
176
     1
290
     0
176
     1
290
     0
176
     1
290
     0
176
     1
290
     0
176
     1
 90
       50
176
     1
 40
0.0
176
     1
 40
1.0
176
     1
 90
        0
176
     1
 62
    18
420
        0
176
     1
 90
       50
176
     1
 90
        3
176
     1
 62
     5
420
      255
176
     1
290
     0
176
     1
 90
       50
176
     1
 90
       50
176
     1
 90
       50
176
     1
290
     0
176
     1
 90
       50
176
     1
 62
   256
176
     0
 40
1.0
176
     0
 90
        2
176
     1
  1
strokes_ogs.tif
176
     1
290
     0
176
     1
 40
1.0
176
     1
 40
1.0
176
     1
  0
VISUALSTYLE
  5
A7
102
{ACAD_REACTORS
330
99
102
}
330
99
100
AcDbVisualStyle
  2
Linepattern
 70
    14
177
     3
291
     1
 70
    58
 90
        2
176
     1
 90
        2
176
     1
 90
        1
176
     1
 90
        0
176
     1
 40
0.6
176
     1
 40
30.0
176
     1
 62
     7
420
 16777215
176
     1
 90
        1
176
     1
 90
        4
176
     1
 62
     7
176
     1
 62
   257
176
     1
 90
        7
176
     1
 90
        7
176
     1
 40
1.0
176
     1
 90
        8
176
     1
 62
     7
176
     1
 40
1.0
176
     1
 90
        1
176
     1
 90
        6
176
     1
 90
        2
176
     1
 62
     7
176
     1
 90
        5
176
     1
 90
        0
176
     1
 90
        0
176
     1
290
     0
176
     1
 90
        1
176
     1
 40
0.0
176
     1
 90
        0
176
     1
290
     0
176
     1
290
     1
176
     1
290
     1
176
     1
290
     0
176
     1
290
     0
176
     1
290
     0
176
     1
290
     0
176
     1
290
     0
176
     1
290
     0
176
     1
 90
       50
176
     1
 40
0.0
176
     1
 40
1.0
176
     1
 90
        0
176
     1
 62
    18
420
        0
176
     1
 90
       50
176
     1
 90
        3
176
     1
 62
     5
420
      255
176
     1
290
     0
176
     1
 90
       50
176
     1
 90
       50
176
     1
 90
       50
176
     1
290
     0
176
     1
 90
       50
176
     1
 62
   256
176
     0
 40
1.0
176
     0
 90
        2
176
     1
  1
strokes_ogs.tif
176
     1
290
     0
176
     1
 40
1.0
176
     1
 40
1.0
176
     1
  0
VISUALSTYLE
  5
174
102
{ACAD_REACTORS
330
99
102
}
330
99
100
AcDbVisualStyle
  2
OverhangOff
 70
    21
177
     3
291
     1
 70
    58
 90
        2
176
     0
 90
        2
176
     0
 90
        0
176
     0
 90
        0
176
     0
 40
0.6
176
     0
 40
30.0
176
     0
 62
     7
420
 16777215
176
     0
 90
        1
176
     0
 90
        4
176
     0
 62
     7
176
     0
 62
   257
176
     0
 90
        1
176
     0
 90
        1
176
     0
 40
1.0
176
     0
 90
        9
176
     2
 62
     7
176
     0
 40
1.0
176
     0
 90
        1
176
     0
 90
        6
176
     0
 90
        2
176
     0
 62
     7
176
     0
 90
        5
176
     0
 90
        0
176
     0
 90
        0
176
     0
290
     0
176
     0
 90
        1
176
     0
 40
0.0
176
     0
 90
        0
176
     0
290
     0
176
     1
290
     1
176
     1
290
     1
176
     1
290
     0
176
     1
290
     0
176
     1
290
     0
176
     1
290
     0
176
     1
290
     0
176
     1
290
     0
176
     1
 90
       50
176
     1
 40
0.0
176
     1
 40
1.0
176
     1
 90
        0
176
     1
 62
    18
420
        0
176
     1
 90
       50
176
     1
 90
        3
176
     1
 62
     5
420
      255
176
     1
290
     0
176
     1
 90
       50
176
     1
 90
       50
176
     1
 90
       50
176
     1
290
     0
176
     1
 90
       50
176
     1
 62
   256
176
     0
 40
1.0
176
     0
 90
        2
176
     1
  1
strokes_ogs.tif
176
     1
290
     0
176
     1
 40
1.0
176
     1
 40
1.0
176
     1
  0
VISUALSTYLE
  5
A3
102
{ACAD_REACTORS
330
99
102
}
330
99
100
AcDbVisualStyle
  2
Realistic
 70
     8
177
     3
291
     0
 70
    58
 90
        2
176
     1
 90
        2
176
     1
 90
        0
176
     1
 90
        2
176
     1
 40
0.6
176
     1
 40
30.0
176
     1
 62
     7
420
 16777215
176
     1
 90
        0
176
     1
 90
        0
176
     1
 62
     7
176
     1
 62
   257
176
     1
 90
        1
176
     1
 90
        1
176
     1
 40
1.0
176
     1
 90
        8
176
     1
 62
   257
176
     1
 40
1.0
176
     1
 90
        1
176
     1
 90
        6
176
     1
 90
        2
176
     1
 62
     7
176
     1
 90
        3
176
     1
 90
        0
176
     1
 90
        0
176
     1
290
     0
176
     1
 90
       13
176
     1
 40
0.0
176
     1
 90
        0
176
     1
290
     0
176
     1
290
     1
176
     1
290
     1
176
     1
290
     0
176
     1
290
     0
176
     1
290
     0
176
     1
290
     0
176
     1
290
     0
176
     1
290
     0
176
     1
 90
       50
176
     1
 40
0.0
176
     1
 40
1.0
176
     1
 90
        0
176
     1
 62
    18
420
        0
176
     1
 90
       50
176
     1
 90
        3
176
     1
 62
     5
420
      255
176
     1
290
     0
176
     1
 90
       50
176
     1
 90
       50
176
     1
 90
       50
176
     1
290
     0
176
     1
 90
       50
176
     1
 62
   256
176
     0
 40
1.0
176
     0
 90
        2
176
     1
  1
strokes_ogs.tif
176
     1
290
     0
176
     1
 40
1.0
176
     1
 40
1.0
176
     1
  0
VISUALSTYLE
  5
182
102
{ACAD_REACTORS
330
99
102
}
330
99
100
AcDbVisualStyle
  2
Shaded
 70
    27
177
     3
291
     0
 70
    58
 90
        2
176
     1
 90
        2
176
     1
 90
        1
176
     1
 90
        2
176
     1
 40
0.6
176
     1
 40
30.0
176
     1
 62
     7
420
 16777215
176
     1
 90
        0
176
     1
 90
        4
176
     1
 62
     7
176
     1
 62
   257
176
     1
 90
        1
176
     1
 90
        1
176
     1
 40
1.0
176
     1
 90
        8
176
     1
 62
   257
176
     1
 40
1.0
176
     1
 90
        1
176
     1
 90
        6
176
     1
 90
        2
176
     1
 62
     8
420
  7895160
176
     1
 90
        3
176
     1
 90
        0
176
     1
 90
        0
176
     1
290
     0
176
     1
 90
        5
176
     1
 40
0.0
176
     1
 90
        0
176
     1
290
     0
176
     1
290
     1
176
     1
290
     1
176
     1
290
     0
176
     1
290
     0
176
     1
290
     0
176
     1
290
     0
176
     1
290
     0
176
     1
290
     0
176
     1
 90
       50
176
     1
 40
0.0
176
     1
 40
1.0
176
     1
 90
        0
176
     1
 62
    18
420
        0
176
     1
 90
       50
176
     1
 90
        3
176
     1
 62
     5
420
      255
176
     1
290
     0
176
     1
 90
       50
176
     1
 90
       50
176
     1
 90
       50
176
     1
290
     0
176
     1
 90
       50
176
     1
 62
   256
176
     0
 40
1.0
176
     0
 90
        2
176
     1
  1
strokes_ogs.tif
176
     1
290
     0
176
     1
 40
1.0
176
     1
 40
1.0
176
     1
  0
VISUALSTYLE
  5
181
102
{ACAD_REACTORS
330
99
102
}
330
99
100
AcDbVisualStyle
  2
Shaded with edges
 70
    26
177
     3
291
     0
 70
    58
 90
        2
176
     1
 90
        2
176
     1
 90
        1
176
     1
 90
        2
176
     1
 40
0.6
176
     1
 40
30.0
176
     1
 62
     7
420
 16777215
176
     1
 90
        1
176
     1
 90
        2
176
     1
 62
     7
176
     1
 62
   257
176
     1
 90
        2
176
     1
 90
        1
176
     1
 40
1.0
176
     1
 90
        8
176
     1
 62
   257
176
     1
 40
1.0
176
     1
 90
        1
176
     1
 90
        6
176
     1
 90
        2
176
     1
 62
     7
176
     1
 90
        3
176
     1
 90
        0
176
     1
 90
        0
176
     1
290
     0
176
     1
 90
        5
176
     1
 40
0.0
176
     1
 90
        0
176
     1
290
     0
176
     1
290
     1
176
     1
290
     1
176
     1
290
     0
176
     1
290
     0
176
     1
290
     0
176
     1
290
     0
176
     1
290
     0
176
     1
290
     0
176
     1
 90
       50
176
     1
 40
0.0
176
     1
 40
1.0
176
     1
 90
        0
176
     1
 62
    18
420
        0
176
     1
 90
       50
176
     1
 90
        3
176
     1
 62
     5
420
      255
176
     1
290
     0
176
     1
 90
       50
176
     1
 90
       50
176
     1
 90
       50
176
     1
290
     0
176
     1
 90
       50
176
     1
 62
   256
176
     0
 40
1.0
176
     0
 90
        2
176
     1
  1
strokes_ogs.tif
176
     1
290
     0
176
     1
 40
1.0
176
     1
 40
1.0
176
     1
  0
VISUALSTYLE
  5
17E
102
{ACAD_REACTORS
330
99
102
}
330
99
100
AcDbVisualStyle
  2
Shades of Gray
 70
    23
177
     3
291
     0
 70
    58
 90
        2
176
     1
 90
        2
176
     1
 90
        3
176
     1
 90
        0
176
     1
 40
0.6
176
     1
 40
30.0
176
     1
 62
     7
420
 16777215
176
     1
 90
        2
176
     1
 90
        2
176
     1
 62
     7
176
     1
 62
     7
176
     1
 90
        1
176
     1
 90
        1
176
     1
 40
40.0
176
     1
 90
        8
176
     1
 62
     7
176
     1
 40
1.0
176
     1
 90
        1
176
     1
 90
        6
176
     1
 90
        2
176
     1
 62
     7
176
     1
 90
        3
176
     1
 90
        0
176
     1
 90
        0
176
     1
290
     0
176
     1
 90
        1
176
     1
 40
0.0
176
     1
 90
        0
176
     1
290
     0
176
     1
290
     1
176
     1
290
     1
176
     1
290
     0
176
     1
290
     0
176
     1
290
     0
176
     1
290
     0
176
     1
290
     0
176
     1
290
     0
176
     1
 90
       50
176
     1
 40
0.0
176
     1
 40
1.0
176
     1
 90
        0
176
     1
 62
    18
420
        0
176
     1
 90
       50
176
     1
 90
        3
176
     1
 62
     5
420
      255
176
     1
290
     0
176
     1
 90
       50
176
     1
 90
       50
176
     1
 90
       50
176
     1
290
     0
176
     1
 90
       50
176
     1
 62
   256
176
     0
 40
1.0
176
     0
 90
        2
176
     1
  1
strokes_ogs.tif
176
     1
290
     0
176
     1
 40
1.0
176
     1
 40
1.0
176
     1
  0
VISUALSTYLE
  5
17F
102
{ACAD_REACTORS
330
99
102
}
330
99
100
AcDbVisualStyle
  2
Sketchy
 70
    24
177
     3
291
     0
 70
    58
 90
        1
176
     1
 90
        2
176
     1
 90
        2
176
     1
 90
        0
176
     1
 40
0.6
176
     1
 40
30.0
176
     1
 62
     7
420
 16777215
176
     1
 90
        2
176
     1
 90
        2
176
     1
 62
     7
176
     1
 62
     7
176
     1
 90
        1
176
     1
 90
        1
176
     1
 40
40.0
176
     1
 90
       11
176
     1
 62
     7
176
     1
 40
1.0
176
     1
 90
        1
176
     1
 90
        6
176
     1
 90
        2
176
     1
 62
     7
176
     1
 90
        6
176
     1
 90
        0
176
     1
 90
        0
176
     1
290
     0
176
     1
 90
        1
176
     1
 40
0.0
176
     1
 90
        0
176
     1
290
     0
176
     1
290
     1
176
     1
290
     1
176
     1
290
     0
176
     1
290
     0
176
     1
290
     0
176
     1
290
     0
176
     1
290
     0
176
     1
290
     0
176
     1
 90
       50
176
     1
 40
0.0
176
     1
 40
1.0
176
     1
 90
        0
176
     1
 62
    18
420
        0
176
     1
 90
       50
176
     1
 90
        3
176
     1
 62
     5
420
      255
176
     1
290
     0
176
     1
 90
       50
176
     1
 90
       50
176
     1
 90
       50
176
     1
290
     0
176
     1
 90
       50
176
     1
 62
   256
176
     0
 40
1.0
176
     0
 90
        2
176
     1
  1
strokes_ogs.tif
176
     1
290
     0
176
     1
 40
1.0
176
     1
 40
1.0
176
     1
  0
VISUALSTYLE
  5
A6
102
{ACAD_REACTORS
330
99
102
}
330
99
100
AcDbVisualStyle
  2
Thicken
 70
    13
177
     3
291
     1
 70
    58
 90
        2
176
     1
 90
        2
176
     1
 90
        1
176
     1
 90
        0
176
     1
 40
0.6
176
     1
 40
30.0
176
     1
 62
     7
420
 16777215
176
     1
 90
        1
176
     1
 90
        4
176
     1
 62
     7
176
     1
 62
   257
176
     1
 90
        1
176
     1
 90
        1
176
     1
 40
1.0
176
     1
 90
       12
176
     1
 62
     7
176
     1
 40
1.0
176
     1
 90
        1
176
     1
 90
        6
176
     1
 90
        2
176
     1
 62
     7
176
     1
 90
        5
176
     1
 90
        0
176
     1
 90
        0
176
     1
290
     0
176
     1
 90
        1
176
     1
 40
0.0
176
     1
 90
        0
176
     1
290
     0
176
     1
290
     1
176
     1
290
     1
176
     1
290
     0
176
     1
290
     0
176
     1
290
     0
176
     1
290
     0
176
     1
290
     0
176
     1
290
     0
176
     1
 90
       50
176
     1
 40
0.0
176
     1
 40
1.0
176
     1
 90
        0
176
     1
 62
    18
420
        0
176
     1
 90
       50
176
     1
 90
        3
176
     1
 62
     5
420
      255
176
     1
290
     0
176
     1
 90
       50
176
     1
 90
       50
176
     1
 90
       50
176
     1
290
     0
176
     1
 90
       50
176
     1
 62
   256
176
     0
 40
1.0
176
     0
 90
        2
176
     1
  1
strokes_ogs.tif
176
     1
290
     0
176
     1
 40
1.0
176
     1
 40
1.0
176
     1
  0
VISUALSTYLE
  5
A0
102
{ACAD_REACTORS
330
99
102
}
330
99
100
AcDbVisualStyle
  2
Wireframe
 70
     5
177
     3
291
     0
 70
    58
 90
        0
176
     1
 90
        2
176
     1
 90
        0
176
     1
 90
        0
176
     1
 40
0.6
176
     1
 40
30.0
176
     1
 62
     7
420
 16777215
176
     1
 90
        1
176
     1
 90
        4
176
     1
 62
     7
176
     1
 62
   257
176
     1
 90
        1
176
     1
 90
        1
176
     1
 40
1.0
176
     1
 90
        0
176
     1
 62
   257
176
     1
 40
1.0
176
     1
 90
        1
176
     1
 90
        6
176
     1
 90
        2
176
     1
 62
     7
176
     1
 90
        3
176
     1
 90
        0
176
     1
 90
        0
176
     1
290
     0
176
     1
 90
        1
176
     1
 40
0.0
176
     1
 90
        0
176
     1
290
     0
176
     1
290
     1
176
     1
290
     1
176
     1
290
     0
176
     1
290
     0
176
     1
290
     0
176
     1
290
     0
176
     1
290
     0
176
     1
290
     0
176
     1
 90
       50
176
     1
 40
0.0
176
     1
 40
1.0
176
     1
 90
        0
176
     1
 62
    18
420
        0
176
     1
 90
       50
176
     1
 90
        3
176
     1
 62
     5
420
      255
176
     1
290
     0
176
     1
 90
       50
176
     1
 90
       50
176
     1
 90
       50
176
     1
290
     0
176
     1
 90
       50
176
     1
 62
   256
176
     0
 40
1.0
176
     0
 90
        2
176
     1
  1
strokes_ogs.tif
176
     1
290
     0
176
     1
 40
1.0
176
     1
 40
1.0
176
     1
  0
VISUALSTYLE
  5
180
102
{ACAD_REACTORS
330
99
102
}
330
99
100
AcDbVisualStyle
  2
X-Ray
 70
    25
177
     3
291
     0
 70
    58
 90
        2
176
     1
 90
        2
176
     1
 90
        1
176
     1
 90
        1
176
     1
 40
0.5
176
     1
 40
30.0
176
     1
 62
     7
420
 16777215
176
     1
 90
        1
176
     1
 90
        0
176
     1
 62
     7
176
     1
 62
   257
176
     1
 90
        1
176
     1
 90
        1
176
     1
 40
1.0
176
     1
 90
        8
176
     1
 62
     7
176
     1
 40
1.0
176
     1
 90
        1
176
     1
 90
        6
176
     1
 90
        2
176
     1
 62
     7
176
     1
 90
        3
176
     1
 90
        0
176
     1
 90
        0
176
     1
290
     0
176
     1
 90
       13
176
     1
 40
0.0
176
     1
 90
        0
176
     1
290
     0
176
     1
290
     1
176
     1
290
     1
176
     1
290
     0
176
     1
290
     0
176
     1
290
     0
176
     1
290
     0
176
     1
290
     0
176
     1
290
     0
176
     1
 90
       50
176
     1
 40
0.0
176
     1
 40
1.0
176
     1
 90
        0
176
     1
 62
    18
420
        0
176
     1
 90
       50
176
     1
 90
        3
176
     1
 62
     5
420
      255
176
     1
290
     0
176
     1
 90
       50
176
     1
 90
       50
176
     1
 90
       50
176
     1
290
     0
176
     1
 90
       50
176
     1
 62
   256
176
     0
 40
1.0
176
     0
 90
        2
176
     1
  1
strokes_ogs.tif
176
     1
290
     0
176
     1
 40
1.0
176
     1
 40
1.0
176
     1
  0
DICTIONARYVAR
  5
4A0D6
102
{ACAD_REACTORS
330
4A0D5
102
}
330
4A0D5
100
DictionaryVariables
280
     0
  1
2
  0
DICTIONARYVAR
  5
4A0D7
102
{ACAD_REACTORS
330
4A0D5
102
}
330
4A0D5
100
DictionaryVariables
280
     0
  1
400.000000
  0
DICTIONARYVAR
  5
4A0D8
102
{ACAD_REACTORS
330
4A0D5
102
}
330
4A0D5
100
DictionaryVariables
280
     0
  1
1
  0
DICTIONARYVAR
  5
4A0D9
102
{ACAD_REACTORS
330
4A0D5
102
}
330
4A0D5
100
DictionaryVariables
280
     0
  1
1:1
  0
DICTIONARYVAR
  5
4A0DA
102
{ACAD_REACTORS
330
4A0D5
102
}
330
4A0D5
100
DictionaryVariables
280
     0
  1
STANDARD
  0
DICTIONARYVAR
  5
4A0DB
102
{ACAD_REACTORS
330
4A0D5
102
}
330
4A0D5
100
DictionaryVariables
280
     0
  1
STANDARD
  0
DICTIONARYVAR
  5
4A0DC
102
{ACAD_REACTORS
330
4A0D5
102
}
330
4A0D5
100
DictionaryVariables
280
     0
  1
Imperial24
  0
DICTIONARYVAR
  5
4A0DD
102
{ACAD_REACTORS
330
4A0D5
102
}
330
4A0D5
100
DictionaryVariables
280
     0
  1
Imperial24
  0
DICTIONARYVAR
  5
4A0DE
102
{ACAD_REACTORS
330
4A0D5
102
}
330
4A0D5
100
DictionaryVariables
280
     0
  1
-1
  0
DICTIONARYVAR
  5
4A0DF
102
{ACAD_REACTORS
330
4A0D5
102
}
330
4A0D5
100
DictionaryVariables
280
     0
  1
1
  0
DICTIONARYVAR
  5
4A0E0
102
{ACAD_REACTORS
330
4A0D5
102
}
330
4A0D5
100
DictionaryVariables
280
     0
  1
2
  0
DICTIONARYVAR
  5
4A0E1
102
{ACAD_REACTORS
330
4A0D5
102
}
330
4A0D5
100
DictionaryVariables
280
     0
  1
0
  0
DICTIONARYVAR
  5
4A0E2
102
{ACAD_REACTORS
330
4A0D5
102
}
330
4A0D5
100
DictionaryVariables
280
     0
  1
4
  0
DICTIONARYVAR
  5
4A0E3
102
{ACAD_REACTORS
330
4A0D5
102
}
330
4A0D5
100
DictionaryVariables
280
     0
  1
V-Construction
  0
DICTIONARYVAR
  5
4A0E4
102
{ACAD_REACTORS
330
4A0D5
102
}
330
4A0D5
100
DictionaryVariables
280
     0
  1
ByLayer
  0
DICTIONARYVAR
  5
4A0E5
102
{ACAD_REACTORS
330
4A0D5
102
}
330
4A0D5
100
DictionaryVariables
280
     0
  1
0
  0
DICTIONARYVAR
  5
4A0E6
102
{ACAD_REACTORS
330
4A0D5
102
}
330
4A0D5
100
DictionaryVariables
280
     0
  1
0
  0
DICTIONARYVAR
  5
4A0E7
102
{ACAD_REACTORS
330
4A0D5
102
}
330
4A0D5
100
DictionaryVariables
280
     0
  1
0
  0
DICTIONARYVAR
  5
4A0E8
102
{ACAD_REACTORS
330
4A0D5
102
}
330
4A0D5
100
DictionaryVariables
280
     0
  1
2
  0
DICTIONARYVAR
  5
4A0E9
102
{ACAD_REACTORS
330
4A0D5
102
}
330
4A0D5
100
DictionaryVariables
280
     0
  1
1.000000
  0
DICTIONARYVAR
  5
4A0EA
102
{ACAD_REACTORS
330
4A0D5
102
}
330
4A0D5
100
DictionaryVariables
280
     0
  1
1
  0
DICTIONARYVAR
  5
4A0EB
102
{ACAD_REACTORS
330
4A0D5
102
}
330
4A0D5
100
DictionaryVariables
280
     0
  1
1.000000
  0
DICTIONARYVAR
  5
4A0EC
102
{ACAD_REACTORS
330
4A0D5
102
}
330
4A0D5
100
DictionaryVariables
280
     0
  1
1
  0
DICTIONARYVAR
  5
4A0ED
102
{ACAD_REACTORS
330
4A0D5
102
}
330
4A0D5
100
DictionaryVariables
280
     0
  1
0
  0
DICTIONARYVAR
  5
4A0EE
102
{ACAD_REACTORS
330
4A0D5
102
}
330
4A0D5
100
DictionaryVariables
280
     0
  1

  0
DICTIONARYVAR
  5
4A0EF
102
{ACAD_REACTORS
330
4A0D5
102
}
330
4A0D5
100
DictionaryVariables
280
     0
  1
0
  0
DICTIONARYVAR
  5
4A0F0
102
{ACAD_REACTORS
330
4A0D5
102
}
330
4A0D5
100
DictionaryVariables
280
     0
  1
127
  0
DICTIONARY
  5
194
330
22
100
AcDbDictionary
280
     1
281
     1
  0
DICTIONARY
  5
188
330
97
100
AcDbDictionary
280
     1
281
     1
  3
FBXASSET
360
189
  0
DICTIONARY
  5
186
330
96
100
AcDbDictionary
280
     1
281
     1
  3
FBXASSET
360
187
  0
DICTIONARY
  5
110
330
98
100
AcDbDictionary
280
     1
281
     1
  3
BUMPTILE
360
112
  3
DIFFUSETILE
360
111
  3
FBXASSET
360
18A
  3
OPACITYTILE
360
113
  3
REFLECTIONTILE
360
114
  0
DICTIONARY
  5
104
330
87
100
AcDbDictionary
280
     1
281
     1
  3
ACAD_ROUNDTRIP_2008_TABLESTYLE_CELLSTYLEMAP
360
5830F
  0
XRECORD
  5
189
102
{ACAD_REACTORS
330
188
102
}
330
188
100
AcDbXrecord
280
     1
 70
     1
 90
429727718
  1
508B35C9-AEE7-456F-BE74-D52651303AC6
310
504B03040A0000080000B670623B3DEE336E79000000790000001B0000006175746F6465736B2D64657369676E2D7061636B6167652E786D6C3C3F786D6C2076657273696F6E3D22312E302220656E636F64696E673D227574662D3822203F3E3C666F726D6174733E3C666F726D61743E687474703A2F2F736368656D612E
310
6175746F6465736B2E636F6D2F64657369676E2D7061636B6167652F323030393C2F666F726D61743E3C2F666F726D6174733E504B0304140006080800B670623BD486FD9CA0000000F4000000130000005B436F6E74656E745F54797065735D2E786D6C7D8EC10E82300C865F65E91D8A1E8C310C0EEA1BF002731658846E
310
D98AC1B77784ABF1D8FE5FBFBF75BBCE937A534CCEB38643598122B6FEE978D0B0485F9C41B54DDD7D022595594E1A469170414C76A4D9A4D207E29CF43ECE46F218070CC6BECC4078ACAA135ACF422C856C0E68EA1BF5669944DDD7BCDE7B1F8E415D77AECB980613C2E4AC91FC167A2B244592486606FC29C8FD7F045B9A
310
EF7053A7E60B504B0304140006080800B670623B28ED286BEB0000007C01000008000000636F72652E786D6C8D90416EC3201045AF82665B6183218D6D61A254764FD00B204C5C94182C03558F5F9C3852BBEB6A467FFE9B197D71FA9E6FE8CBACC17AD7012D0820E3B41FAD9B3A48F1826B40272956EFE32F1B20A766D3C1
310
268314D3EAD3B24BDABB685CCCAAF3A3D94515828980F42D371D04FD696655A814B3235C8B45E9AB9A4C419F5D8653B2237A1CB163DE672FD6AC209BF3C08E0D1B30EB19C3FC9D72FCC6EB231EFA33EDE96BDD341517E5064B11EDFCBCAF57A3A2194156843498524CAA0FCA5B7268F9E185D42D21A2DCEC7FA0B48CFF8492
310
759155FBBB0F2C80A4F991FB408A72CB22977B50B96EB9C91F504B0304140006080800B670623B55019EA25F0000007C00000007000000636E782E786D6C4DCB3B0E80201045D1AD90E915ED2CF8AC45050C11660C8261F98AB1B07AC9C97D42D718D865D3E909258CFD00CCE24AC6E326A164D74DC0B4128928FF32603847
310
2BA13128B1252AC747C6BAB984FC68F0B87FE8960A5C09FE86CFB69FBA01504B0304140006080800B670623B7BC41AC871010000D40300000C0000006662782F636F72652E786D6CC553ED6E8320147D15C2DF4501B56B6D90A64BBB27D80B50A5CE54C120983EFEAE1F4DD7A56BBA5FF3879273EEE59E7310BE393735EA95
310
ED2AA333CC428A91D2B9292A5D66D8BB63B0C26823B835C67D2BC348CB46657880B1E0A535BE9DA1DC68A7B403549B42CDA0EC3AE530CA6B5864B8CB3F552343E91D5474A7B095F949962A6421D0502778E72C0840D390E18DC5F170E664C205F7BE2A66B62A605A75AC94C522DDEEE3651AEF837817C741F2CE92E02D592D
310
83FD6ECB76EC7595A651C2C9D02CB8AB9A8BBADC2AE954814544691A3016D0E883256BBA58278B17BA5A53CAC9507ED3E4DBE2C9265F691747B3DCA9ADC382819091F8E1162272A8933DE82182932144F88C09DF060D8140C84E1EEA8B8F1340BDCA9DB1093085F157AA97B557309586747CD0EF0B4EA64E983A6E0EAEEFCE
310
889E9EF17847386AA94B30211D2C0FDE0D3AF9A4610EAD5536E8DD1969631B593F67E381C33F5157F17725E5A636F6BF1491F980C8FC7B90E13E8A2F504B0304140006080800B670623B70102A487D0000009D0000000B0000006662782F636E782E786D6C4DCCD10A83201886E15B91FFDC95A5C30335ACCDFB886521330D
310
A76397BF1A1DECE883878F57749FD5A3B74D2F17830472A901D9F088930B8B849267CC01754AA418F3DF0D5018572BE160506249B16C274D761E8BCFBB7A179E27F65CB39A0F14D396184C9921B81F34C3ACA1B4B99ABB6E6F062A25AA5F69DF23ACBE504B0304140006080800B670623B3610CA3329010000120200003100
310
00006662782F42384135303843342D343331462D343546312D424341352D3532343432364645413344462F636F72652E786D6C8D515B6EC32010BC0AE22B55850D0E446E848992B43E412FE000495162B07854397EA176A4F62F3F2C9A9D991D58BEBB8F37F0AD7D30CE76905418026DA553C65E3A98E219B510EC04F7CEC5
310
3F3408EC30EA0E16180A7EF12E4D0B249D8DDAC68C5AA7F4020E21E80881BCE54B0783FCD2E3500D296646B856D320AFC34557A4CAEDCC133C449F0380794839A138B47B86DB2345744D7A44594FD0E1B867883594369BFE63BF7EEF793D0B054FC9A8456E548E63CE46FB674D8A58F068C6477CE9F510B582A2C1F80D1182
310
70F349E816B32D65AFB8DD62CCEB42FF274A937A52948C8DEB66893BCB021484D7734370E5D2E9F608A3EF93F3119479ABA0E50B14B8C298119A43CCC4FCFCECB8A18B6388CEE7EF5D5D4F994BD86CBBA182D76543B9FCAE2FD7B24DF103504B0304140006080800B670623B1B8617914E0100003303000030000000666278
310
2F42384135303843342D343331462D343546312D424341352D3532343432364645413344462F636E782E786D6CD593C16EC32010447F0571AD6CE3D489D20813A9877E410FBD62D82434182CC055F3F75D1292E692438FBD206B7698593D61BEFD1E2DF982108D773D6D6B460938E5B571FB9ECE6957AD29D90A1EBC4F7736
310
4A9C1CA1A759A682EF839FA72269D8C9D92654AD71C72206887E0E0A22CAF926B15E498B01E0AA19451807D01A34B919F16B070157417138917400F2F6FA41FCF0092A45DEE414C19BDC21783E4BD39D891265658C3D8DEA00A3ACE59CBC8678ACB54CB26EEB6BD7839D7E9348BE70AD9C8321B9BCA7F9A4A26C542347DEE0
310
50F09802D22BA6749A800A394DD62899107273365E3C82CFC6A55557BC06C10774B7ABE7AEC3B0F34CF06446280E154026D0542C187BA9DAB6628BF7B6DBB0E5A65B3EB1F58631DE64BBE083F7B65CC218087E22CABB042E51D1F2268F1FE12B3EA24D40D63E9CFE00120194D60B9D5BC67FE6D39CDF37E20AF817881F504B
310
0304140006080800B670623BBFEF2E3B690500003C100000340000006662782F42384135303843342D343331462D343546312D424341352D3532343432364645413344462F6F626A656374732E786D6CAD575D739B3814FD2B0CFB0C98D84E931D4227B6938EA793B6534F3BFB90198F0099B001899144EAECAFDF231018B0
310
D37A3FFC609090EEE7B94757C1FB7D915B2F54C88CB31BDB7727B64559CC938CA53776A576CE956DBD0F03C1B9EA2DB32D460A7A63EB693B0C52C1ABD24C257447AA5C8D66EF177F5832A68CDA569C13296F6C193FD182B8A4523CA1F2D94D88226EBADBBBBEDB2C1C8A4D05299F46424B222853B014F30C52ACC6287F389C
310
D85E1878FA7B18E87FB36AFAF62AAFF667A83F635211161F291B8999FAB3D5DDC5FCDA99CF6653677679E13B8BFBC5CAF1DF4D27CBCBE5F2FAF6EE1A8AA51290642C117467871F101B91C581D77CEA2C36869F3229E68CD1B8F61F1ED6361B89092D294B90C78C4A68EB793D190E7D1D9BDEE7A91E1B95FDE9F3BCEAEFE809
310
6A6D6F9F7D4B79F4275C90E7A04248AA51D5C4C738DAE06F72885AC4796EBE65D22A88A22223B995679120E2D50EB1542F098381188D4EA111AE3DB043FF20AF6F2B4AE3D7D83D65E5AECA730D4D3BAC91BD05FEA992B565D95F549CD6069B90AB2A63EACA38A45E4B6A87D781574F86817E4C2FCCC72690D62E2729520E37
310
9BAF234797BAF6D62B3BFC781FED37BA1E4F2B2F052FA9501A3E80569BB8F6A9A364D4FA67654E6F803383981F82F21591FF84F23D9882BC896C3FDBCF8C162508933B2E0AE4C69DD43F6BD2BE38DDDBF10BF86CB4FA784D37F3AF16075E67EC9030DECA1FC0A55373F5DFF3378C591FA9BDF485C10B0A8C8BA909E5262639
310
A8E72163488806A595734C81CB77D1DE0ED7604A303B76913CEC0272F412782FF88EFF4636D8AA56DF7B322474C4B767303F625997056C7B032C473C592B36CEBD15F3F9FF5233B7ABCDC74D257624A60F8658567497B14CE1EC3C80B76FD02011038F9EE9EB0F2E12387A9C844D3F09855125116D1D731DF8B43D2CF4E0A0
310
79A020C6BE946BCE0B7EA1E1219331CD73C228AF5A2DDD31A4B1DA918CE91350854D40A71723140BFA92E94E62B0626016CEFA5864A50E5977E8753CEDBEE1CBB7F52780D20E17AF0BA0F5F9B02A3AD07DCC732EB6D1EBB661421BE0C39E21BABF0FE16D22EA6929407C8DE596724C88B749B6DB5512BC7B228ADFD7CB7EA6
310
3A22397E690BA8D5D8D4E40CEC8CDA23C2C0B7D5898640101CEC9C6D331CE328CB93CAFBBAC70A642DF70DF95155945B52F08AA973C23469FD69ADEF84F7BB18F983A8F8C90E37F5D35980B2139A1C523540813E824EF83448CF7C72B598CE97D7CEEDDDDD3B6736BFBC771677EF66CE6A7E7139F7A793E9EDF2B2B3A8B624
310
0CDA13AA5F8388264EC4A0129909F3B7F5A16CEDF08128E97D680ACA4B9BE7B7B58BB638F0B00700EF36AE8B32A705658A68F83EE897FC2B41573190D1CCAF0B92D233A47CFEB019D9809933F67DD1A5467F8CF69AD9A5AE859342D45355448C64F968A371DC2D596ADC6E43D93D1B466F877A64E2893E54F23C4B40388995
310
525E5005DA3983ED45412510D3EFCA13737B3863F74BD30F2A12E5B4B5E489A025CE25500DB855B11ACE5BBFA185D35DD48D8DC3CE7DC69F2944DB42AA6F6CF09BCA622ADD08C7A36E7C6AE18000BAB08E040135C2D21C9D75B3A91B77BB746C403F38018DFE6EC939DD92F16B40BC05294B9CDA035AAD6D330AE27FE4786B
310
8E45145EA34A75BE1C263A676A35A8ACC6297337400BF16C54EF515F3F77CB77EB3583889C754FFA29081AA98E2222ADEF05DA3E63D2EDEA8B8756C05A7FB6CABC4A91CBF325398202CC952E70A008A830324BA200D5E5EF8F5F04C75DB4B0EE3340E071C98B823333B83577596BF3849B69F2085AA0FAFA212F26BEFF5877
310
FDE622B28D88A42E49E43326DA82D31E8CB006401E1DA726059ECEC168F97A6599036306A135688F9AD2E61A6EA178F4CD51974A9F2CCB9F36FE5EBD14601068D9C3BF01504B0304140006080000B670623B000000000000000000000000350000006662782F42384135303843342D343331462D343546312D424341352D35
310
32343432364645413344462F76657274696365732E62696E504B0304140006080800B670623BF270F1330600000004000000360000006662782F42384135303843342D343331462D343546312D424341352D3532343432364645413344462F747269616E676C65732E62696E636660600000504B0304140006080000B67062
310
3B000000000000000000000000370000006662782F42384135303843342D343331462D343546312D424341352D3532343432364645413344462F617474726962757465732E62696E504B0304140006080800B670623B08DA0BD19000000041010000360000006662782F42384135303843342D343331462D343546312D4243
310
41352D3532343432364645413344462F6469726563746F72792E786D6C858F410AC3201045AF22B36F53E9A60B35CBEEBAE80D244E44489C6234F4F835464A48035D0DF398FF9F8AF63D0E6CC63039F212F8F9020C7D47C6792B21C5FE7403D62A1188E2E60C98D7234A5830286103A55745067B9D86B8A3CF9C7F90C11DE6
310
07FB144396D7B6A82D282E9A152AD114D5EF2CB866EEE831B8EEA07A7BB5A8D7D61A2BAAEB7FD5F70921FF497D00504B0304140006080800B670623B3B4606F3FE000000A00100003B0000006662782F42384135303843342D343331462D343546312D424341352D3532343432364645413344462F7265736F75726365732F
310
636F72652E786D6C8D504B6E833010BD0A9A6D65B08134808CA354A427E8052C332156828DFCA97AFC9A40A576D7CDCCE87D344F8F9FBEE647F689CE6B6B7A6039850C8DB2A336530F315C4903D94970676DF82583CCC8197B5861107C72362E3BA4AC096842428D1D7107A5F71820538F74F4E0D50D6799CB1892C2DFF345
310
AABB9C306779A2934E701F5C0A906D4FD609C2A1B7D129F4BCD858C163D4E3AED163FAA9AF1A1D88F67CA98E6D35906AA82A52BFB39ABCD5CD915C86331BD86BD3B665CD8BD52C78D0F34F46E550061C419494B6843142CB0F5677F4D0D58717DA7494F26295FF31C565FCA7296A13AA728FBBD93C0896823C09C18BB5AFB4
310
9E65A6BD762BBE01504B010214000A0000080000B670623B3DEE336E79000000790000001B00000000000000000000000000000000006175746F6465736B2D64657369676E2D7061636B6167652E786D6C504B01021400140006080800B670623BD486FD9CA0000000F40000001300000000000000000000000000B2000000
310
5B436F6E74656E745F54797065735D2E786D6C504B01021400140006080800B670623B28ED286BEB0000007C010000080000000000000000000000000083010000636F72652E786D6C504B01021400140006080800B670623B55019EA25F0000007C000000070000000000000000000000000094020000636E782E786D6C50
310
4B01021400140006080800B670623B7BC41AC871010000D40300000C00000000000000000000000000180300006662782F636F72652E786D6C504B01021400140006080800B670623B70102A487D0000009D0000000B00000000000000000000000000B30400006662782F636E782E786D6C504B01021400140006080800B6
310
70623B3610CA3329010000120200003100000000000000000000000000590500006662782F42384135303843342D343331462D343546312D424341352D3532343432364645413344462F636F72652E786D6C504B01021400140006080800B670623B1B8617914E010000330300003000000000000000000000000000D10600
310
006662782F42384135303843342D343331462D343546312D424341352D3532343432364645413344462F636E782E786D6C504B01021400140006080800B670623BBFEF2E3B690500003C10000034000000000000000000000000006D0800006662782F42384135303843342D343331462D343546312D424341352D35323434
310
32364645413344462F6F626A656374732E786D6C504B01021400140006080000B670623B0000000000000000000000003500000000000000000000000000280E00006662782F42384135303843342D343331462D343546312D424341352D3532343432364645413344462F76657274696365732E62696E504B010214001400
310
06080800B670623BF270F133060000000400000036000000000000000000000000007B0E00006662782F42384135303843342D343331462D343546312D424341352D3532343432364645413344462F747269616E676C65732E62696E504B01021400140006080000B670623B00000000000000000000000037000000000000
310
00000000000000D50E00006662782F42384135303843342D343331462D343546312D424341352D3532343432364645413344462F617474726962757465732E62696E504B01021400140006080800B670623B08DA0BD1900000004101000036000000000000000000000000002A0F00006662782F42384135303843342D3433
310
31462D343546312D424341352D3532343432364645413344462F6469726563746F72792E786D6C504B01021400140006080800B670623B3B4606F3FE000000A00100003B000000000000000000000000000E1000006662782F42384135303843342D343331462D343546312D424341352D3532343432364645413344462F72
310
65736F75726365732F636F72652E786D6C504B0506000000000E000E0080040000651100000000
  0
XRECORD
  5
187
102
{ACAD_REACTORS
330
186
102
}
330
186
100
AcDbXrecord
280
     1
 70
     1
 90
429727718
  1
887D55A9-D0DD-414E-B741-A7DCD4DA2B4C
310
504B03040A0000080000B670623B3DEE336E79000000790000001B0000006175746F6465736B2D64657369676E2D7061636B6167652E786D6C3C3F786D6C2076657273696F6E3D22312E302220656E636F64696E673D227574662D3822203F3E3C666F726D6174733E3C666F726D61743E687474703A2F2F736368656D612E
310
6175746F6465736B2E636F6D2F64657369676E2D7061636B6167652F323030393C2F666F726D61743E3C2F666F726D6174733E504B0304140006080800B670623BD486FD9CA0000000F4000000130000005B436F6E74656E745F54797065735D2E786D6C7D8EC10E82300C865F65E91D8A1E8C310C0EEA1BF002731658846E
310
D98AC1B77784ABF1D8FE5FBFBF75BBCE937A534CCEB38643598122B6FEE978D0B0485F9C41B54DDD7D022595594E1A469170414C76A4D9A4D207E29CF43ECE46F218070CC6BECC4078ACAA135ACF422C856C0E68EA1BF5669944DDD7BCDE7B1F8E415D77AECB980613C2E4AC91FC167A2B244592486606FC29C8FD7F045B9A
310
EF7053A7E60B504B0304140006080800B670623BBC1638F5EC0000007C01000008000000636F72652E786D6C8D90416EC3201045AF82665B61836BE2D8C24471DB9CA01740401C94182C03558F5F9C3852BBEB6A467FFE9B197D7EF89E6EE8CB2CC17AD7032D0820E394D7D68D3DA478C67B4007C117EFE32F1B202727D3C3
310
2A83E0E3E2D3BC49CABB685CCCAAF3DA6CA20CC14440EA969B1E82BA98491632C5EC08D76296EA2A4753D06797E194AC468F2356E77DF66CCD02825543D50CACC62D39ED70FDC68EB8FD68F6F8787A6784342D1DDA1D2F5758F068A7E77DB518198D065111D2624A31A93E69DD11D6D5EC85EC3B4278B9DAFF4069D6FF8492
310
75F1B5DADE7D600104CD8FDC0782976B16B9DC83CA75CD4DFC00504B0304140006080800B670623B55019EA25F0000007C00000007000000636E782E786D6C4DCB3B0E80201045D1AD90E915ED2CF8AC45050C11660C8261F98AB1B07AC9C97D42D718D865D3E909258CFD00CCE24AC6E326A164D74DC0B4128928FF326038
310
472BA13128B1252AC747C6BAB984FC68F0B87FE8960A5C09FE86CFB69FBA01504B0304140006080800B670623B3586FFB671010000D40300000C0000006662782F636F72652E786D6CC553ED6E8320147D15C2DF4541A76D6D90A6DDD627D80B50A4CE54C120983EFEAE1F4DD7A55BBA5FF3879273EEE59E7310B6393735EA
310
95ED2AA3731C851423A5A5292A5DE6D8BB63B0C268C39935C67D29C3488B46E578803167A535BE9D2169B453DA01AA4DA16650749D7218C91A1639EEE4876A4428BC838AEE14B6429E44A9C228041AEA38EB9C0501681A32BC313F1ECE8C4C3867DE57C5CC56054CAB8E95B298A7F12E5EEED224C8E87E11242FE936C8DE96
310
AB60BB7F4D295D66D12E5B30323473E6AAE6A24E5A259C2A308F29CD82280A68FC1E256B9AAE93F489AED694323294DF34F9B678B0C957DA3DC7B3DCA9ADC33C022123F1CD2D44E450277AD04338234388F01913BE0D1A0281909D38D4171F27807A259DB1093085F157AA17B557309586747CD0CF0B46A64E983A6E0EAEEF
310
CE881F9EF1FB8E70D44297604238581EBC1B74B249C31C5AAB6CD0BB33D2C636A27ECCC62F0EFF445DC5DF95244D6DEC7F2922F30191F9F720C37DE49F504B0304140006080800B670623B4220A0FF7D0000009D0000000B0000006662782F636E782E786D6C4DCCD10A83201886E15B91FFDCE542CB0335D0EC3E6259C84A
310
C3E9D8E5AF46073BFAE0E1E315DD675BD1DBA5978F41C2FD4600B9F088930F8B849267CC01754AA418F3DF0D50183727E164506249B1EC174D6E1ECB9A0F5D7D785E68DB8151CD286E5A5363CA6B8A39E90D36D40E96B086F55A43A544F52B1D7B86D517504B0304140006080800B670623B2FA3FEDE290100001202000031
310
0000006662782F45374635344235342D363743322D343832342D383044432D4334454645303536354442422F636F72652E786D6C8D515B6EC32010BC0AE22B55850D2E386E848994D7097A0117488A1283C5A3CAF10BB523B57FF961D1ECCCECC0F2ED7DBC816FED8371B687A4C210682B9D32F6D2C314CFA883602BB8772E
310
FEA141608751F7B0C050F08B77695A20E96CD43666D43AA5177008414708E42D5F7A18E4971E876A483133C2B59A06791D2EBA22556E679EE021FA1C00CC43CA09C5717D6274C7286AD7FB06D1AEA1A8C3873DDAD3E3E98859CB0EBB1DAF67A1E02919B5C88DCA71CCD968FFAC49110B1ECDF8882FBD1EA256503418BF2342
310
106E3E08DD60B6A1EC15771B8C795DE8FF4469524F8A92B1F1AD59E2CEB20005E1F5DC105CB9F4797B84D1F7C9F908CABC55D0F2050A5C61CC1AD2F27A26E6E767C7962E8E213A9FBF7775FDCC5CC266DB960A5E970DE5F2BBBE5CCB36C50F504B0304140006080800B670623B1B8617914E01000033030000300000006662
310
782F45374635344235342D363743322D343832342D383044432D4334454645303536354442422F636E782E786D6CD593C16EC32010447F0571AD6CE3D489D20813A9877E410FBD62D82434182CC055F3F75D1292E692438FBD206B7698593D61BEFD1E2DF982108D773D6D6B460938E5B571FB9ECE6957AD29D90A1EBC4F77
310
364A9C1CA1A759A682EF839FA72269D8C9D92654AD71C72206887E0E0A22CAF926B15E498B01E0AA19451807D01A34B919F16B070157417138917400F2F6FA41FCF0092A45DEE414C19BDC21783E4BD39D891265658C3D8DEA00A3ACE59CBC8678ACB54CB26EEB6BD7839D7E9348BE70AD9C8321B9BCA7F9A4A26C542347DE
310
E050F09802D22BA6749A800A394DD62899107273365E3C82CFC6A55557BC06C10774B7ABE7AEC3B0F34CF06446280E154026D0542C187BA9DAB6628BF7B6DBB0E5A65B3EB1F58631DE64BBE083F7B65CC218087E22CABB042E51D1F2268F1FE12B3EA24D40D63E9CFE00120194D60B9D5BC67FE6D39CDF37E20AF817881F50
310
4B0304140006080800B670623B29652116630500003C100000340000006662782F45374635344235342D363743322D343832342D383044432D4334454645303536354442422F6F626A656374732E786D6CAD575D739B3814FD2B0CFB0C989834C90EA1639B24E3E9A6EDD4D3CE3E64C623834CD8006224913AFDF57B040203
310
B65BEF871F0C12D2FD3CF7E8CA7FBFCB33E3957291B2E2D674ED8969D02262715A24B76625B7D6B569BC0F7CCE98EC2D338D82E4F4D654D366E0279C55A59E8AE99654991CCDDECFFF3444440B6A1A514684B83545F44C7362934AB2988A173B2692D8C97667BB76B3702836E1A47C1E092D09A78584A5982F20C5688C7287
310
C389E904BEA3BE07BEFAD7ABA6A75739B53F43FD69212429A20365233153D70BEF2E2E6FAC4BCF9B5ADEBB0BD79ADFCF43CBBD9A4E16EF168B9BD9DD0D140BC921495BC2E9D60C1E101B9E46BED37CEA2CD6861F3329624541A3DA7F7858DBAC25C6B4A4458C3CA654405BCFEBC970E8AAD8F43E4FD558ABEC4F9FE7557F47
310
4F506B7BFBEC5BCA367FC105710E2AB8A00A554D7CB4A30DFE26FBA86D18CBF4B75418399194A72433B274C3097F33032C554B027F2046A1932B842B0FCCC0DDCBEBDB8AD2F835768F59B9ADB24C41D30C6A64AF817F2A456D59FA83F2E3DA60137255A585BCD60EC9B7929AC18DEFD49381AF1ED30BFDB109A4B1CD488294
310
C3CDE6EBC8D185AABD6568061FEE37BB95AAC7E3CA4BCE4ACAA5820FA0D526AE7DAA2869B5EE5999531BE0CC20E6FBA07C41E43FA27CF7A6206F3CDD793B4F6B919C1462CB788EDCD893FA674CDA17AB7B3B7C019F8D561FAEE966FED562DFE98C1D12C6A9FC015C2A35D7FF3D7FC398F591DA4B5FE0BFA2C0189FEA50AE22
310
92817A1ED3020951A03432862970F976B33383259812CC8E5D240BBA801CBCF8CE2BBEE3BF910DB6AAD5F79E05123AE2DB33981FB1ACCB02B69D00CB014FD68AB573A7627EF9BFD4CC2C5C7D58557C4B22FAA88925A4DBB44825CECE3D78FB060D1231F0E885BE7D673C86A3874958F593906B5502D1563157814FDAC3420D
310
F69A070A22EC4B98E23CFF171A1E5311D12C23056555ABA53B8614563B92D17D02AAB009E8F46284624E5F53D5490C560CCCC2591FF1B45421EB0EBD8EA7ED13BE7C5D7E0428CD60FEF60779EB13E6664FF711CB185F6FDED60D139A001FF60CD1FD6D086F1D51474901E26B2CB794A343BC8ED3EDB612E0DD2351FCB65CF4
310
33D511C9E14B5B40ADC6A6263DB0336A8F700DDF56271A024E70B0B3629DE21847591E55DED73D56206AB927E46FAABC5C939C55853C274C93D69FD6FA4E78BF8B11DF898C9ECD60553FAD39283BA6F18984AA23E8884F83F45C5F5F859797B31B2B9C84A1E5B9DE9D35BFF25C6B76152E422F9C5DCC3D847F5801ED09D5AF
310
41441327A25FF15487F9EB725FB666F048A4701E9A827292E6F97569A32DF61DEC01C0BB8DCBBCCC684E0B49147C1FD54BF685A0AB18C868E6973949E819523E3DAC463660E68C7D9F55A9D1EFA3BD7A76A16AE1A810F95CE59B82A4D968A376DC2E8B44BBDD86B27B368CDE0ED548C7137DA860591A83706223A12CA712B4
310
7306DBF39C0A20A6DF95C7FAF670C6EED7A61F946493D1D6926782963813403548A78AE470DEF80D2D9CEAA26E4D1C76F60BFE74219A06527D6B82DF641A51616F703CAAC6A7160E08A00BEB4810A0274592A1B36E3675E36E978A0DE80727A0D6DF2D39A75BD27E0D8837276589537B40ABB56D5A41F48F1C6FCD3188C4EB
310
A6929D2FFB89CE995A4D00AE813BDD032DC48B56BD437DFDDC2DD7AED70C2272D63DE9A72068A45A92F0A4BE17A8A06B9366E16707AD80B1FC649459952097E74BB23805982B55E0401150A165964402AA8BDF9F3E7386BB686EDCA780C0D382E5392BF460A6EFB2C6EA1937D3F809B440D5F5435C4C5CF7A9EEFAF54564BD
310
2182DA24162F98680B4E7930C21A0079709CEAEB99A372305ABE0C0D7D6078105A83F6A0296DAEE1068A47DD1C55A9F4C9B2FC69E3EFD44B81028E963DF81B504B0304140006080000B670623B000000000000000000000000350000006662782F45374635344235342D363743322D343832342D383044432D433445464530
310
3536354442422F76657274696365732E62696E504B0304140006080800B670623BF270F1330600000004000000360000006662782F45374635344235342D363743322D343832342D383044432D4334454645303536354442422F747269616E676C65732E62696E636660600000504B0304140006080000B670623B00000000
310
0000000000000000370000006662782F45374635344235342D363743322D343832342D383044432D4334454645303536354442422F617474726962757465732E62696E504B0304140006080800B670623B08DA0BD19000000041010000360000006662782F45374635344235342D363743322D343832342D383044432D4334
310
454645303536354442422F6469726563746F72792E786D6C858F410AC3201045AF22B36F53E9A60B35CBEEBAE80D244E44489C6234F4F835464A48035D0DF398FF9F8AF63D0E6CC63039F212F8F9020C7D47C6792B21C5FE7403D62A1188E2E60C98D7234A5830286103A55745067B9D86B8A3CF9C7F90C11DE607FB144396
310
D7B6A82D282E9A152AD114D5EF2CB866EEE831B8EEA07A7BB5A8D7D61A2BAAEB7FD5F70921FF497D00504B0304140006080800B670623B6378F24DFF000000A00100003B0000006662782F45374635344235342D363743322D343832342D383044432D4334454645303536354442422F7265736F75726365732F636F72652E
310
786D6C8D504B6E833010BD0A9A6D65B0094E42641C85B639412F6099496225D8C89FAAC7AF09546A77DDCC8CDE47F3F4C4F16B7C149FE88371B603565228D06A37187BED20C50BD9437194C23B177FC9A0B06AC40E6618A4B87A97A615D2CE46B431A3D60DB8822A048C50E8473E3A08FA86A32A558A5911EEE5A4F45D5DB1
310
6465A6B34E8A107D0E502C4FE609D26370C96B0CA25A58295232C3AA3143FE692E063D485EF7F5AEE71BD2D2F39634AFFC44DAF7DD9E9CCE6F9CD25DCBFA762BAAD92C4534E34F46ED51451C40D694B6843142EB0FD61C283F34FC85EE0F948A6A96FF31A569F8A729191B37F51A77B105902C0779125254735F793DCBCC7B
310
EE567E03504B010214000A0000080000B670623B3DEE336E79000000790000001B00000000000000000000000000000000006175746F6465736B2D64657369676E2D7061636B6167652E786D6C504B01021400140006080800B670623BD486FD9CA0000000F40000001300000000000000000000000000B20000005B436F6E
310
74656E745F54797065735D2E786D6C504B01021400140006080800B670623BBC1638F5EC0000007C010000080000000000000000000000000083010000636F72652E786D6C504B01021400140006080800B670623B55019EA25F0000007C000000070000000000000000000000000095020000636E782E786D6C504B010214
310
00140006080800B670623B3586FFB671010000D40300000C00000000000000000000000000190300006662782F636F72652E786D6C504B01021400140006080800B670623B4220A0FF7D0000009D0000000B00000000000000000000000000B40400006662782F636E782E786D6C504B01021400140006080800B670623B2F
310
A3FEDE290100001202000031000000000000000000000000005A0500006662782F45374635344235342D363743322D343832342D383044432D4334454645303536354442422F636F72652E786D6C504B01021400140006080800B670623B1B8617914E010000330300003000000000000000000000000000D2060000666278
310
2F45374635344235342D363743322D343832342D383044432D4334454645303536354442422F636E782E786D6C504B01021400140006080800B670623B29652116630500003C10000034000000000000000000000000006E0800006662782F45374635344235342D363743322D343832342D383044432D4334454645303536
310
354442422F6F626A656374732E786D6C504B01021400140006080000B670623B0000000000000000000000003500000000000000000000000000230E00006662782F45374635344235342D363743322D343832342D383044432D4334454645303536354442422F76657274696365732E62696E504B01021400140006080800
310
B670623BF270F13306000000040000003600000000000000000000000000760E00006662782F45374635344235342D363743322D343832342D383044432D4334454645303536354442422F747269616E676C65732E62696E504B01021400140006080000B670623B0000000000000000000000003700000000000000000000
310
000000D00E00006662782F45374635344235342D363743322D343832342D383044432D4334454645303536354442422F617474726962757465732E62696E504B01021400140006080800B670623B08DA0BD190000000410100003600000000000000000000000000250F00006662782F45374635344235342D363743322D34
310
3832342D383044432D4334454645303536354442422F6469726563746F72792E786D6C504B01021400140006080800B670623B6378F24DFF000000A00100003B00000000000000000000000000091000006662782F45374635344235342D363743322D343832342D383044432D4334454645303536354442422F7265736F75
310
726365732F636F72652E786D6C504B0506000000000E000E0080040000611100000000
  0
XRECORD
  5
112
102
{ACAD_REACTORS
330
110
102
}
330
110
100
AcDbXrecord
280
     1
270
     1
271
     1
  0
XRECORD
  5
111
102
{ACAD_REACTORS
330
110
102
}
330
110
100
AcDbXrecord
280
     1
270
     1
271
     1
  0
XRECORD
  5
18A
102
{ACAD_REACTORS
330
110
102
}
330
110
100
AcDbXrecord
280
     1
 70
     0
 90
1778669749
  1
9BF507EE-FAF7-4A99-A33D-4EE51894BC40
310
504B03040A0000080000B670623B3DEE336E79000000790000001B0000006175746F6465736B2D64657369676E2D7061636B6167652E786D6C3C3F786D6C2076657273696F6E3D22312E302220656E636F64696E673D227574662D3822203F3E3C666F726D6174733E3C666F726D61743E687474703A2F2F736368656D612E
310
6175746F6465736B2E636F6D2F64657369676E2D7061636B6167652F323030393C2F666F726D61743E3C2F666F726D6174733E504B0304140006080800B670623BD486FD9CA0000000F4000000130000005B436F6E74656E745F54797065735D2E786D6C7D8EC10E82300C865F65E91D8A1E8C310C0EEA1BF002731658846E
310
D98AC1B77784ABF1D8FE5FBFBF75BBCE937A534CCEB38643598122B6FEE978D0B0485F9C41B54DDD7D022595594E1A469170414C76A4D9A4D207E29CF43ECE46F218070CC6BECC4078ACAA135ACF422C856C0E68EA1BF5669944DDD7BCDE7B1F8E415D77AECB980613C2E4AC91FC167A2B244592486606FC29C8FD7F045B9A
310
EF7053A7E60B504B0304140006080800B670623BCA089DFFEC0000007C01000008000000636F72652E786D6C8D90416E83301045AF62CDB632D8402020E32882F604BD80653BC44AB011B6AB1EBF262152BBEB6A467FFE9B197D76FA9EEFE84BAFDE38DB03CD08206DA553C64E3DC470C1474027CE56E7C22F1B202B66DDC3
310
260367D3EAE2B24BD2D9A06D48AA754AEFA2F05E0740F29E9A1EBCBCEA59642286E4F0B76C11F226269DD15797E0188D42CF2346A57DE662F40ABCAEC77628C6120F654571D50C04B7F5B9C1E3997CD4F550BE3745C3F20DE62C98F9755FAE5A04AD801784B498524C8A4F5A75E4D055873772EC0861F966FF03C545FD138A
310
C686B2D8DF7D621E384D8F3C069CE55B16A93C824A75CB8DFF00504B0304140006080800B670623B55019EA25F0000007C00000007000000636E782E786D6C4DCB3B0E80201045D1AD90E915ED2CF8AC45050C11660C8261F98AB1B07AC9C97D42D718D865D3E909258CFD00CCE24AC6E326A164D74DC0B4128928FF326038
310
472BA13128B1252AC747C6BAB984FC68F0B87FE8960A5C09FE86CFB69FBA01504B0304140006080800B670623B68FC0B7272010000D40300000C0000006662782F636F72652E786D6CC5535B6E833010BC8AE5DF0A6C1E8124328E22D29EA01770C0A128602363A31CBFCB234A53A555FA553EC09AD9F5CE8C31DB5DDA060D
310
D2F4B556190E7C8A9154852E6B5565D8D993B7C668C799D1DA7E29C3488956667884316795D1AE5BA0422B2B950554E9522EA0E87B69312A1A5864B82F3E642B7CE12C54F467BF13C55954D20F7CA0A18EB3DE1A1080E621E31BF3D3F1C2C88C73E65C5D2E6C5DC2B4FA544B8379921C36797888BC3C8A032F4E73EA6D927D
310
EA1DF6F42D49F2E8350D5346C666CE6CDD5ED515460A2B4BCC434A375E1078347C0FE22D5D6DE3D50B5D6F2965642CBF6B725DF96493AB958DC245EEDCD6631E809089F8E61622B2A81703E8219C913144F84C09DF070D8140C8561C9BAB8F3340832CAC363130A576376A108D933095FA747AD0CF0B46E64E983A6D0EAE1F
310
CE089F9EF1FB8E70D44255604258581E9D1D75B259C3125A278D37D80B52DAB4A279CEC62F0EFF44DDC43F9454E8469BFF5244960322CBEF41C6FBC83F01504B0304140006080800B670623B0F71DDB67E0000009D0000000B0000006662782F636E782E786D6C4DCCD10A83201886E15B91FFDCA54DB73F502386BB8F5816
310
32D3703976F9ABD1C18E3E78F87855FB990379BBFCF2296AE02706C4C5471A7C9C349475A408A4352AA7B4FEDD80C47E761A7606A3A69CCA72D0E0C6BE8475D3E0E3F3409428EA6B27A84079A782899AA2EC1A7AE3ECCC2FD858CB2D544655BFD2B67BD87C01504B0304140006080800B670623BE134B4FB28010000120200
310
00310000006662782F38353834323741342D343835462D343034322D383541392D4331303331363839454531452F636F72652E786D6C8D515B6EC32010BC0AE22B55850D0EA424C24451959EA0172086A42831583CAA1CBF503B52FB971F16CDCECC0EACD8DFC71BF836215AEF7A481A0C817183D7D65D7A98D3197108F652
310
04EFD31F1A044E8DA6871586525C82CFD3020DDE25E352419DD76601558C264130DCCAA58771F832A36A544E8511AFCDA486ABBA988634A55D7852C4144A00300FA927949C71DABD1D28A29C7D208A6987383B6CD13BC16BB2E1DBE3911C453B0BA5C8D9EA456E758963CFD684674DAA588A64C747FC2118958C86B2C3788B
310
0841B8FB247487D98EB257CC77188BB6D2FF89F2A49F1465EBD2BA5BE2CEB2082511EDDC9042FB7CBA3DC298FBE4430275DE2A9AE1054ADC60CC08E3A29D89E5F9C5714317C7987C28DFBBBA9E0A97B0D97643A568EB864AF95D5FA9759BF207504B0304140006080800B670623B1B8617914E010000330300003000000066
310
62782F38353834323741342D343835462D343034322D383541392D4331303331363839454531452F636E782E786D6CD593C16EC32010447F0571AD6CE3D489D20813A9877E410FBD62D82434182CC055F3F75D1292E692438FBD206B7698593D61BEFD1E2DF982108D773D6D6B460938E5B571FB9ECE6957AD29D90A1EBC4F
310
77364A9C1CA1A759A682EF839FA72269D8C9D92654AD71C72206887E0E0A22CAF926B15E498B01E0AA19451807D01A34B919F16B070157417138917400F2F6FA41FCF0092A45DEE414C19BDC21783E4BD39D891265658C3D8DEA00A3ACE59CBC8678ACB54CB26EEB6BD7839D7E9348BE70AD9C8321B9BCA7F9A4A26C542347
310
DEE050F09802D22BA6749A800A394DD62899107273365E3C82CFC6A55557BC06C10774B7ABE7AEC3B0F34CF06446280E154026D0542C187BA9DAB6628BF7B6DBB0E5A65B3EB1F58631DE64BBE083F7B65CC218087E22CABB042E51D1F2268F1FE12B3EA24D40D63E9CFE00120194D60B9D5BC67FE6D39CDF37E20AF817881F
310
504B0304140006080800B670623B5933D422630500003B100000340000006662782F38353834323741342D343835462D343034322D383541392D4331303331363839454531452F6F626A656374732E786D6CAD575B6FA33814FE2B887D0642934E9B156594264D158D3A534DD4D13E548A0C38942D60649B4EBABF7E3F8321
310
40924EF6928780CDF1B97EE762EFF32E4B8D37CA45C2F21BD3B547A641F39045491EDF98A5DC5AD7A6F1D9F73863B243661A39C9E88DA9B64DDF8B392B0BBD15D12D295339D85DDEFE618890E6D434C2940871638AF08566C426A5641115AF764424B1E3EDCE76ED9AB0CF36E6A47819302D08A7B984A6D8CFC1C5A89572FB
310
CB91E9F89EA3BEFB9EFAD754E3D3544E654F5F7E920B49F2F040D880CDD89D2CEE2E2EA7D6E56432B6269F2E5CEB7679BBB0DCABF168FE693E9FCEEEA6102C240727AD09A75BD3BF876F78127A4EFDA9D5582B7E4CA590E5390D2BFB6161A5B3E618D182E611E2985001691DAB47FDA5AB7CD3F93C566B2DB2BB7D9E55DD13
310
1D468DEECDB3AB290BFE8409E21C54704115AA6AFF68436BFC8DF65E0B184BF5B74418199194272435D224E084BF9B3E481589EFF5D828747285706581E9BB7B7E5D5D911ABFC6EE312DB7659A2A689A7E85EC0DF04FA5A8344BFEA2FCB834E8845895492EAFB541F2BDA0A63FF59C6AD3F7D4637CA13FD68E34B629891172
310
98597F1D183A57B9B75A98FE9765B05BAB7C3C2EBCE0ACA05C2AF8005A4DE09AA7F29216EB9E15397500C6F47CBE77CA7778FE2BD277AF0AE2C693DD6437D1522427B9D8329E2136F6A8FA19A3E6C56ADF0E5F50CF06D48734EDCEBF22F69C56D97EC138153F804B85E6FABFC7AFEFB32E523BE1F3BD372418E363EDCA7548
310
52949E8724474014288D94610BB57C1BEC4C7F854A89CA8E5324F55B871CBC78CE1BBEE3BFE68D6A5589EF3C730474506FCFA8FCF0659516D0ED04580EEA6425581B77CAE797FF4BCECC16EB2FEB926F49481F746159D06D922712BD730FDEAE42BD40F42C7AA5EF3F198F60E86110D6DD20645A9480B795CF95E3E3A659A8
310
C55E724F408873315335CFFB8584874484344D494E59D94869DB90C26A5B64F49C802CAC1D3ABE18A098D3B7444D123D8A9E5AE8F5214F0AE5B2B6E9B575DA3E61CBD3EA2B4009FA940524DD1305FB6A1FB294F14DF0BEA90BA109ECE1481FDC3FFAE8D60E75141700BE82725371B4873751B2DD960265F788137FACE6DD40
310
B575E4F0A5C99F46629D92131467A41EE11ABD8D4CCC039CA0AFB37C93A08B232B8F0AEFCA1E0A1015DF13FC83322B362463652ECF71D3A8B1A7D1BE65DE1D62C44F22C317D35F574FEB16153BA2D13E543D10A80E74C4A65E78A6B7CBCBD1D5DD9DB59C2DAFACC96C3AB566E3F1C29ADCDD5DBAD7D3C9ED7C822ED74F80A6
310
41755310DE4443F44A9E68373FADF6596BFA0F440AE7BECE2727AE9F4F2B1B53B1E7E00CF0DD1E5C65454A339A4BA2D0FBA05ED2EF0443458F47BDBFCA484CCFE0F2ED7E3DD0013B679C7B5499467F0ECEEADDB9CA85A34CE44B99053949D2C1416DB85DE4B136BB7165FBAC0B7AB3542BED4F8CA182A549847A1319316519
310
95A83A67147B9E5101C47487F2485F1ECE38FD568F839204296D3479219888530154036E6528FBFBC66F98E0D4107563A2D7D9AFF8D389681A08F58D89F22693900A3B407754734FC51C10C010D6D640809EE4718AC1BA3ED4AEDB53CA37283F68805A7E4B72CEB0A4EDEAD5DD8C14059A76AFAA56BA6901E13F32BC51C720
310
12AF41295B5BF61BAD3195181FB506E6B40F4C10AF5AF40EF9F5B159AE5DD1F43C72D635E94310D45C2D49785C5D0B94D3B54AB3C5A38349C0587D338AB48C11CBF339599C02CCA54A70A008A8D03C0B2201D5F9EFCF8F9CE12A9A19CB0410789EB32C63B95ECCF455D658BFE0621A3DA32C5075FB101723D77DAE867E7D0F
310
D90444509B44E2151B4DC2290B065803200FBAA9BE9D392A0603F2D5C2D00D6302A615680F66D2FA166E2079D4C551A54AB758161FCEFD4E450A14704CECFEDF504B0304140006080000B670623B000000000000000000000000350000006662782F38353834323741342D343835462D343034322D383541392D4331303331
310
363839454531452F76657274696365732E62696E504B0304140006080800B670623BF270F1330600000004000000360000006662782F38353834323741342D343835462D343034322D383541392D4331303331363839454531452F747269616E676C65732E62696E636660600000504B0304140006080000B670623B000000
310
000000000000000000370000006662782F38353834323741342D343835462D343034322D383541392D4331303331363839454531452F617474726962757465732E62696E504B0304140006080800B670623B08DA0BD19000000041010000360000006662782F38353834323741342D343835462D343034322D383541392D43
310
31303331363839454531452F6469726563746F72792E786D6C858F410AC3201045AF22B36F53E9A60B35CBEEBAE80D244E44489C6234F4F835464A48035D0DF398FF9F8AF63D0E6CC63039F212F8F9020C7D47C6792B21C5FE7403D62A1188E2E60C98D7234A5830286103A55745067B9D86B8A3CF9C7F90C11DE607FB1443
310
96D7B6A82D282E9A152AD114D5EF2CB866EEE831B8EEA07A7BB5A8D7D61A2BAAEB7FD5F70921FF497D00504B0304140006080800B670623BD9A3B367FE000000A00100003B0000006662782F38353834323741342D343835462D343034322D383541392D4331303331363839454531452F7265736F75726365732F636F7265
310
2E786D6C8D504B6E833010BD0A9A6D65B01D0201194711694FD00B586642AD043BF2A7EAF16B122AB5BB6E6646EFA3797AE2F8B5DC8A4FF4C1383B002B291468B59B8C9D0748F1420E501CA5F0CEC55F3228AC5A708015062966EFD27D83B4B3116DCCA875136EA00A012314FA968F0182FEC045952AC5AC08D7F2AEF455CD
310
58B232D3592745883E07289E4FD609D26370C96B0CA27AB252A464A64D63A6FCD35C0C7A904D73EE467EE664DCD58CD4ED4849D79C5A723ED1B7A61977AF2D6F45B59AA58866F9C9A83DAA8813484E6947182394BFB3BAA7FBBEDEBFD0434FA9A856F91F53BA4FFF342563E38E6F719FB60092E5200F428A6AED2BAF479979
310
AFDDCA6F504B010214000A0000080000B670623B3DEE336E79000000790000001B00000000000000000000000000000000006175746F6465736B2D64657369676E2D7061636B6167652E786D6C504B01021400140006080800B670623BD486FD9CA0000000F40000001300000000000000000000000000B20000005B436F6E
310
74656E745F54797065735D2E786D6C504B01021400140006080800B670623BCA089DFFEC0000007C010000080000000000000000000000000083010000636F72652E786D6C504B01021400140006080800B670623B55019EA25F0000007C000000070000000000000000000000000095020000636E782E786D6C504B010214
310
00140006080800B670623B68FC0B7272010000D40300000C00000000000000000000000000190300006662782F636F72652E786D6C504B01021400140006080800B670623B0F71DDB67E0000009D0000000B00000000000000000000000000B50400006662782F636E782E786D6C504B01021400140006080800B670623BE1
310
34B4FB280100001202000031000000000000000000000000005C0500006662782F38353834323741342D343835462D343034322D383541392D4331303331363839454531452F636F72652E786D6C504B01021400140006080800B670623B1B8617914E010000330300003000000000000000000000000000D3060000666278
310
2F38353834323741342D343835462D343034322D383541392D4331303331363839454531452F636E782E786D6C504B01021400140006080800B670623B5933D422630500003B10000034000000000000000000000000006F0800006662782F38353834323741342D343835462D343034322D383541392D4331303331363839
310
454531452F6F626A656374732E786D6C504B01021400140006080000B670623B0000000000000000000000003500000000000000000000000000240E00006662782F38353834323741342D343835462D343034322D383541392D4331303331363839454531452F76657274696365732E62696E504B01021400140006080800
310
B670623BF270F13306000000040000003600000000000000000000000000770E00006662782F38353834323741342D343835462D343034322D383541392D4331303331363839454531452F747269616E676C65732E62696E504B01021400140006080000B670623B0000000000000000000000003700000000000000000000
310
000000D10E00006662782F38353834323741342D343835462D343034322D383541392D4331303331363839454531452F617474726962757465732E62696E504B01021400140006080800B670623B08DA0BD190000000410100003600000000000000000000000000260F00006662782F38353834323741342D343835462D34
310
3034322D383541392D4331303331363839454531452F6469726563746F72792E786D6C504B01021400140006080800B670623BD9A3B367FE000000A00100003B000000000000000000000000000A1000006662782F38353834323741342D343835462D343034322D383541392D4331303331363839454531452F7265736F75
310
726365732F636F72652E786D6C504B0506000000000E000E0080040000611100000000
  0
XRECORD
  5
113
102
{ACAD_REACTORS
330
110
102
}
330
110
100
AcDbXrecord
280
     1
270
     1
271
     1
  0
XRECORD
  5
114
102
{ACAD_REACTORS
330
110
102
}
330
110
100
AcDbXrecord
280
     1
270
     1
271
     1
  0
CELLSTYLEMAP
  5
5830F
102
{ACAD_REACTORS
330
104
102
}
330
104
100
AcDbCellStyleMap
 90
        3
300
CELLSTYLE
  1
TABLEFORMAT_BEGIN
 90
        5
170
     1
 91
        0
 92
    32768
 62
   257
 93
        1
300
CONTENTFORMAT
  1
CONTENTFORMAT_BEGIN
 90
        0
 91
        0
 92
      512
 93
        0
300

 40
0.0
140
1.0
 94
        5
 62
     0
340
11
144
0.25
309
CONTENTFORMAT_END
171
     1
301
MARGIN
  1
CELLMARGIN_BEGIN
 40
0.06
 40
0.06
 40
0.06
 40
0.06
 40
0.18
 40
0.18
309
CELLMARGIN_END
 94
        6
 95
        1
302
GRIDFORMAT
  1
GRIDFORMAT_BEGIN
 90
        0
 91
        1
 62
     0
 92
       -2
340
0
 93
        0
 40
0.045
309
GRIDFORMAT_END
 95
        2
302
GRIDFORMAT
  1
GRIDFORMAT_BEGIN
 90
        0
 91
        1
 62
     0
 92
       -2
340
0
 93
        0
 40
0.045
309
GRIDFORMAT_END
 95
        4
302
GRIDFORMAT
  1
GRIDFORMAT_BEGIN
 90
        0
 91
        1
 62
     0
 92
       -2
340
0
 93
        0
 40
0.045
309
GRIDFORMAT_END
 95
        8
302
GRIDFORMAT
  1
GRIDFORMAT_BEGIN
 90
        0
 91
        1
 62
     0
 92
       -2
340
0
 93
        0
 40
0.045
309
GRIDFORMAT_END
 95
       16
302
GRIDFORMAT
  1
GRIDFORMAT_BEGIN
 90
        0
 91
        1
 62
     0
 92
       -2
340
0
 93
        0
 40
0.045
309
GRIDFORMAT_END
 95
       32
302
GRIDFORMAT
  1
GRIDFORMAT_BEGIN
 90
        0
 91
        1
 62
     0
 92
       -2
340
0
 93
        0
 40
0.045
309
GRIDFORMAT_END
309
TABLEFORMAT_END
  1
CELLSTYLE_BEGIN
 90
        1
 91
        1
300
_TITLE
309
CELLSTYLE_END
300
CELLSTYLE
  1
TABLEFORMAT_BEGIN
 90
        5
170
     1
 91
        0
 92
        0
 62
   257
 93
        1
300
CONTENTFORMAT
  1
CONTENTFORMAT_BEGIN
 90
        0
 91
        0
 92
      512
 93
        0
300

 40
0.0
140
1.0
 94
        5
 62
     0
340
11
144
0.18
309
CONTENTFORMAT_END
171
     1
301
MARGIN
  1
CELLMARGIN_BEGIN
 40
0.06
 40
0.06
 40
0.06
 40
0.06
 40
0.18
 40
0.18
309
CELLMARGIN_END
 94
        6
 95
        1
302
GRIDFORMAT
  1
GRIDFORMAT_BEGIN
 90
        0
 91
        1
 62
     0
 92
       -2
340
0
 93
        0
 40
0.045
309
GRIDFORMAT_END
 95
        2
302
GRIDFORMAT
  1
GRIDFORMAT_BEGIN
 90
        0
 91
        1
 62
     0
 92
       -2
340
0
 93
        0
 40
0.045
309
GRIDFORMAT_END
 95
        4
302
GRIDFORMAT
  1
GRIDFORMAT_BEGIN
 90
        0
 91
        1
 62
     0
 92
       -2
340
0
 93
        0
 40
0.045
309
GRIDFORMAT_END
 95
        8
302
GRIDFORMAT
  1
GRIDFORMAT_BEGIN
 90
        0
 91
        1
 62
     0
 92
       -2
340
0
 93
        0
 40
0.045
309
GRIDFORMAT_END
 95
       16
302
GRIDFORMAT
  1
GRIDFORMAT_BEGIN
 90
        0
 91
        1
 62
     0
 92
       -2
340
0
 93
        0
 40
0.045
309
GRIDFORMAT_END
 95
       32
302
GRIDFORMAT
  1
GRIDFORMAT_BEGIN
 90
        0
 91
        1
 62
     0
 92
       -2
340
0
 93
        0
 40
0.045
309
GRIDFORMAT_END
309
TABLEFORMAT_END
  1
CELLSTYLE_BEGIN
 90
        2
 91
        1
300
_HEADER
309
CELLSTYLE_END
300
CELLSTYLE
  1
TABLEFORMAT_BEGIN
 90
        5
170
     1
 91
        0
 92
        0
 62
   257
 93
        1
300
CONTENTFORMAT
  1
CONTENTFORMAT_BEGIN
 90
        0
 91
        0
 92
      512
 93
        0
300

 40
0.0
140
1.0
 94
        2
 62
     0
340
11
144
0.18
309
CONTENTFORMAT_END
171
     1
301
MARGIN
  1
CELLMARGIN_BEGIN
 40
0.06
 40
0.06
 40
0.06
 40
0.06
 40
0.18
 40
0.18
309
CELLMARGIN_END
 94
        6
 95
        1
302
GRIDFORMAT
  1
GRIDFORMAT_BEGIN
 90
        0
 91
        1
 62
     0
 92
       -2
340
0
 93
        0
 40
0.045
309
GRIDFORMAT_END
 95
        2
302
GRIDFORMAT
  1
GRIDFORMAT_BEGIN
 90
        0
 91
        1
 62
     0
 92
       -2
340
0
 93
        0
 40
0.045
309
GRIDFORMAT_END
 95
        4
302
GRIDFORMAT
  1
GRIDFORMAT_BEGIN
 90
        0
 91
        1
 62
     0
 92
       -2
340
0
 93
        0
 40
0.045
309
GRIDFORMAT_END
 95
        8
302
GRIDFORMAT
  1
GRIDFORMAT_BEGIN
 90
        0
 91
        1
 62
     0
 92
       -2
340
0
 93
        0
 40
0.045
309
GRIDFORMAT_END
 95
       16
302
GRIDFORMAT
  1
GRIDFORMAT_BEGIN
 90
        0
 91
        1
 62
     0
 92
       -2
340
0
 93
        0
 40
0.045
309
GRIDFORMAT_END
 95
       32
302
GRIDFORMAT
  1
GRIDFORMAT_BEGIN
 90
        0
 91
        1
 62
     0
 92
       -2
340
0
 93
        0
 40
0.045
309
GRIDFORMAT_END
309
TABLEFORMAT_END
  1
CELLSTYLE_BEGIN
 90
        3
 91
        2
300
_DATA
309
CELLSTYLE_END
  0
ENDSEC
  0
SECTION
  2
ACDSDATA
 70
     2
 71
     8
  0
ACDSSCHEMA
 90
        0
  1
AcDb_Thumbnail_Schema
  2
AcDbDs::ID
280
    10
 91
        8
  2
Thumbnail_Data
280
    15
 91
        0
101
ACDSRECORD
 95
        0
 90
        1
  2
AcDbDs::TreatedAsObjectData
280
     1
291
     1
101
ACDSRECORD
 95
        0
 90
        2
  2
AcDbDs::Legacy
280
     1
291
     1
101
ACDSRECORD
  1
AcDbDs::ID
 90
        3
  2
AcDs:Indexable
280
     1
291
     1
101
ACDSRECORD
  1
AcDbDs::ID
 90
        4
  2
AcDbDs::HandleAttribute
280
     7
282
     1
  0
ACDSSCHEMA
 90
        1
  1
AcDbDs::TreatedAsObjectDataSchema
  2
AcDbDs::TreatedAsObjectData
280
     1
 91
        0
  0
ACDSSCHEMA
 90
        2
  1
AcDbDs::LegacySchema
  2
AcDbDs::Legacy
280
     1
 91
        0
  0
ACDSSCHEMA
 90
        3
  1
AcDbDs::IndexedPropertySchema
  2
AcDs:Indexable
280
     1
 91
        0
  0
ACDSSCHEMA
 90
        4
  1
AcDbDs::HandleAttributeSchema
  2
AcDbDs::HandleAttribute
280
     7
 91
        1
284
     1
  0
ACDSSCHEMA
 90
        5
  1
AcDb3DSolid_ASM_Data
  2
AcDbDs::ID
280
    10
 91
        8
  2
ASM_Data
280
    15
 91
        0
101
ACDSRECORD
 95
        5
 90
        1
  2
AcDbDs::TreatedAsObjectData
280
     1
291
     1
101
ACDSRECORD
 95
        5
 90
        2
  2
AcDbDs::Legacy
280
     1
291
     1
101
ACDSRECORD
  1
AcDbDs::ID
 90
        3
  2
AcDs:Indexable
280
     1
291
     1
101
ACDSRECORD
  1
AcDbDs::ID
 90
        4
  2
AcDbDs::HandleAttribute
280
     7
282
     1
  0
ACDSRECORD
 90
        0
  2
AcDbDs::ID
280
    10
320
22
  2
Thumbnail_Data
280
    15
 94
     1666
310
89504E470D0A1A0A0000000D49484452000001000000006C0803000000B2ED9CC100000300504C5445212830FFFFFF2128300000000000000000000000000000000000000000000000000000330000660000990000CC0000FF0033000033330033660033990033CC0033FF0066000066330066660066990066CC0066FF0099
310
000099330099660099990099CC0099FF00CC0000CC3300CC6600CC9900CCCC00CCFF00FF0000FF3300FF6600FF9900FFCC00FFFF3300003300333300663300993300CC3300FF3333003333333333663333993333CC3333FF3366003366333366663366993366CC3366FF3399003399333399663399993399CC3399FF33CC00
310
33CC3333CC6633CC9933CCCC33CCFF33FF0033FF3333FF6633FF9933FFCC33FFFF6600006600336600666600996600CC6600FF6633006633336633666633996633CC6633FF6666006666336666666666996666CC6666FF6699006699336699666699996699CC6699FF66CC0066CC3366CC6666CC9966CCCC66CCFF66FF0066
310
FF3366FF6666FF9966FFCC66FFFF9900009900339900669900999900CC9900FF9933009933339933669933999933CC9933FF9966009966339966669966999966CC9966FF9999009999339999669999999999CC9999FF99CC0099CC3399CC6699CC9999CCCC99CCFF99FF0099FF3399FF6699FF9999FFCC99FFFFCC0000CC00
310
33CC0066CC0099CC00CCCC00FFCC3300CC3333CC3366CC3399CC33CCCC33FFCC6600CC6633CC6666CC6699CC66CCCC66FFCC9900CC9933CC9966CC9999CC99CCCC99FFCCCC00CCCC33CCCC66CCCC99CCCCCCCCCCFFCCFF00CCFF33CCFF66CCFF99CCFFCCCCFFFFFF0000FF0033FF0066FF0099FF00CCFF00FFFF3300FF3333
310
FF3366FF3399FF33CCFF33FFFF6600FF6633FF6666FF6699FF66CCFF66FFFF9900FF9933FF9966FF9999FF99CCFF99FFFFCC00FFCC33FFCC66FFCC99FFCCCCFFCCFFFFFF00FFFF33FFFF66FFFF99FFFFCCFFFFFF0000000D0D0D1A1A1A2828283535354343435050505D5D5D6B6B6B787878868686939393A1A1A1AEAEAEBB
310
BBBBC9C9C9D6D6D6E4E4E4F1F1F1FFFFFF0000000000000000000000000000000000000000000000000000000000002E4550F1000001634944415478DAED9BCB72C2301004F7FFFF77EE297044EC5816962E2133DD557040EC615BD25A0FA802000000000000000000804F43F2C842F3110D8FFC67F390D30858E848598D80
310
4712D302DACB640AD4FC14D056396C04AC960D93A7C08280168200042020514021000108400002C205F89C07AC0B28135605140210902D20BD06B4F7D875809C044CF37D969A2DC0A6126E53E094CB28B96788998053215085093876F938B526C0EC31B84B5A3742FC04B48BE2F723DB56C0D6F5BA17622AE0E7D66BB0E537
310
16703481808B9BD30C01BBB28880500117FB80B422D8DB0AA508B80890CAE7507CD4931A9E08D99C896994E8E808A122050C56072102DE8420C04A40A70501084040928073539A80F369F96B2F902AA0967E60FE7F05FC6E8C9B0217AB2104244D01E9CE67CE35205A40F7BF417102E247C07125142540DD6F070B50190AD0
310
FDDDE0EEBAC428FD4136FD7B212B0100000000000000000000F0F77C015593AD5B220BCA400000000049454E44AE4260829E009C02AB882400670008AA1A09C01F803DB482842B007804B0C60D91CF2F9E2F7FB1C23DC1579225015C3F890CE05202B8F9242E001C5FF3827301006B5440D9FC87A325E680CBB4BF3A80E341
310
024800126BCED8DCCAFE0BC89323148B0004169DB1773E315BC236EF7D16429C74C0FC8810FAB822E4686C54F4D26BA9A9E2DD7790D975BD451A1FD53D220800A0797E05CB04E203000DE41FA502A8BD05F61574D1160836078CE58FF12DE253CECF072C2F70EA6F011040B1F60060AF8009C658FE140940F746886607B0F5
310
F2D84660BD1618B88A08D2027100640B8C5D0B2DBC0AC45A06BBF6C2581840B855A0358D18E98F251203406F1A612A80B202BAD38891FF580B500000D49D4988F37FAC813E72214627000A3582A5C338FE00598ED82311F33F3A0000000049454E44AE4260820F467818FD4AC64A010000000049454E44AE42608200187F52
310
539FF6AC0FF2D01229B97F7B56AE64E8787DBF9E93B283504D4929EEDB336DE133B927D0B706F146D8FDD54728002424931276690CDE5FFA471401522320E6FA719CDCC9E90D234F422DA512220CD4066298BF969A4028B717C4D481E25C1BC6C59A99842240E2F24B1F92F8AC20F021F00EFE737AFD0FDF7E00E9E9886BC5
310
1247A50000000049454E44AE426082
  0
ENDSEC
  0
EOF
