  0
SECTION
  2
HEADER
  9
$ACADVER
  1
AC1032
  9
$ACADMAINTVER
 90
      197
  9
$DWGCODEPAGE
  3
ANSI_1252
  9
$LASTSAVEDBY
  1
gregb
  9
$REQUIREDVERSIONS
160
                 0
  9
$INSBASE
 10
0.0
 20
0.0
 30
0.0
  9
$EXTMIN
 10
107010.3138535647
 20
97428.35785725324
 30
0.0
  9
$EXTMAX
 10
107012.7497108932
 20
97429.69788680706
 30
0.0
  9
$LIMMIN
 10
0.0
 20
0.0
  9
$LIMMAX
 10
12.0
 20
9.0
  9
$ORTHOMODE
 70
     1
  9
$REGENMODE
 70
     1
  9
$FILLMODE
 70
     1
  9
$QTEXTMODE
 70
     0
  9
$MIRRTEXT
 70
     0
  9
$LTSCALE
 40
1.0
  9
$ATTMODE
 70
     1
  9
$TEXTSIZE
 40
0.2
  9
$TRACEWID
 40
0.05
  9
$TEXTSTYLE
  7
Standard
  9
$CLAYER
  8
freecads.com
  9
$CELTYPE
  6
ByLayer
  9
$CECOLOR
 62
   256
  9
$CELTSCALE
 40
1.0
  9
$DISPSILH
 70
     1
  9
$DIMSCALE
 40
1.0
  9
$DIMASZ
 40
0.18
  9
$DIMEXO
 40
0.0625
  9
$DIMDLI
 40
0.38
  9
$DIMRND
 40
0.0
  9
$DIMDLE
 40
0.0
  9
$DIMEXE
 40
0.18
  9
$DIMTP
 40
0.0
  9
$DIMTM
 40
0.0
  9
$DIMTXT
 40
0.18
  9
$DIMCEN
 40
0.09
  9
$DIMTSZ
 40
0.0
  9
$DIMTOL
 70
     0
  9
$DIMLIM
 70
     0
  9
$DIMTIH
 70
     1
  9
$DIMTOH
 70
     1
  9
$DIMSE1
 70
     0
  9
$DIMSE2
 70
     0
  9
$DIMTAD
 70
     0
  9
$DIMZIN
 70
     0
  9
$DIMBLK
  1

  9
$DIMASO
 70
     1
  9
$DIMSHO
 70
     1
  9
$DIMPOST
  1

  9
$DIMAPOST
  1

  9
$DIMALT
 70
     0
  9
$DIMALTD
 70
     2
  9
$DIMALTF
 40
25.4
  9
$DIMLFAC
 40
1.0
  9
$DIMTOFL
 70
     0
  9
$DIMTVP
 40
0.0
  9
$DIMTIX
 70
     0
  9
$DIMSOXD
 70
     0
  9
$DIMSAH
 70
     0
  9
$DIMBLK1
  1

  9
$DIMBLK2
  1

  9
$DIMSTYLE
  2
Standard
  9
$DIMCLRD
 70
     0
  9
$DIMCLRE
 70
     0
  9
$DIMCLRT
 70
     0
  9
$DIMTFAC
 40
1.0
  9
$DIMGAP
 40
0.09
  9
$DIMJUST
 70
     0
  9
$DIMSD1
 70
     0
  9
$DIMSD2
 70
     0
  9
$DIMTOLJ
 70
     1
  9
$DIMTZIN
 70
     0
  9
$DIMALTZ
 70
     0
  9
$DIMALTTZ
 70
     0
  9
$DIMUPT
 70
     0
  9
$DIMDEC
 70
     4
  9
$DIMTDEC
 70
     4
  9
$DIMALTU
 70
     2
  9
$DIMALTTD
 70
     2
  9
$DIMTXSTY
  7
Standard
  9
$DIMAUNIT
 70
     0
  9
$DIMADEC
 70
     0
  9
$DIMALTRND
 40
0.0
  9
$DIMAZIN
 70
     0
  9
$DIMDSEP
 70
    46
  9
$DIMATFIT
 70
     3
  9
$DIMFRAC
 70
     0
  9
$DIMLDRBLK
  1

  9
$DIMLUNIT
 70
     2
  9
$DIMLWD
 70
    -2
  9
$DIMLWE
 70
    -2
  9
$DIMTMOVE
 70
     0
  9
$DIMFXL
 40
1.0
  9
$DIMFXLON
 70
     0
  9
$DIMJOGANG
 40
0.7853981633974483
  9
$DIMTFILL
 70
     0
  9
$DIMTFILLCLR
 70
     0
  9
$DIMARCSYM
 70
     0
  9
$DIMLTYPE
  6

  9
$DIMLTEX1
  6

  9
$DIMLTEX2
  6

  9
$DIMTXTDIRECTION
 70
     0
  9
$LUNITS
 70
     2
  9
$LUPREC
 70
     4
  9
$SKETCHINC
 40
0.1
  9
$FILLETRAD
 40
0.0
  9
$AUNITS
 70
     0
  9
$AUPREC
 70
     0
  9
$MENU
  1
.
  9
$ELEVATION
 40
0.0
  9
$PELEVATION
 40
0.0
  9
$THICKNESS
 40
0.0
  9
$LIMCHECK
 70
     0
  9
$CHAMFERA
 40
0.0
  9
$CHAMFERB
 40
0.0
  9
$CHAMFERC
 40
0.0
  9
$CHAMFERD
 40
0.0
  9
$SKPOLY
 70
     0
  9
$TDCREATE
 40
2458157.371250000
  9
$TDUCREATE
 40
2458157.287916667
  9
$TDUPDATE
 40
2461018.014062500
  9
$TDUUPDATE
 40
2461017.930729167
  9
$TDINDWG
 40
0.2286342593
  9
$TDUSRTIMER
 40
0.2286342593
  9
$USRTIMER
 70
     1
  9
$ANGBASE
 50
0.0
  9
$ANGDIR
 70
     0
  9
$PDMODE
 70
     0
  9
$PDSIZE
 40
0.0
  9
$PLINEWID
 40
0.0
  9
$SPLFRAME
 70
     0
  9
$SPLINETYPE
 70
     6
  9
$SPLINESEGS
 70
     8
  9
$HANDSEED
  5
F86BD
  9
$SURFTAB1
 70
     6
  9
$SURFTAB2
 70
     6
  9
$SURFTYPE
 70
     6
  9
$SURFU
 70
     6
  9
$SURFV
 70
     6
  9
$UCSBASE
  2

  9
$UCSNAME
  2

  9
$UCSORG
 10
0.0
 20
0.0
 30
0.0
  9
$UCSXDIR
 10
1.0
 20
0.0
 30
0.0
  9
$UCSYDIR
 10
0.0
 20
1.0
 30
0.0
  9
$UCSORTHOREF
  2

  9
$UCSORTHOVIEW
 70
     0
  9
$UCSORGTOP
 10
0.0
 20
0.0
 30
0.0
  9
$UCSORGBOTTOM
 10
0.0
 20
0.0
 30
0.0
  9
$UCSORGLEFT
 10
0.0
 20
0.0
 30
0.0
  9
$UCSORGRIGHT
 10
0.0
 20
0.0
 30
0.0
  9
$UCSORGFRONT
 10
0.0
 20
0.0
 30
0.0
  9
$UCSORGBACK
 10
0.0
 20
0.0
 30
0.0
  9
$PUCSBASE
  2

  9
$PUCSNAME
  2

  9
$PUCSORG
 10
0.0
 20
0.0
 30
0.0
  9
$PUCSXDIR
 10
1.0
 20
0.0
 30
0.0
  9
$PUCSYDIR
 10
0.0
 20
1.0
 30
0.0
  9
$PUCSORTHOREF
  2

  9
$PUCSORTHOVIEW
 70
     0
  9
$PUCSORGTOP
 10
0.0
 20
0.0
 30
0.0
  9
$PUCSORGBOTTOM
 10
0.0
 20
0.0
 30
0.0
  9
$PUCSORGLEFT
 10
0.0
 20
0.0
 30
0.0
  9
$PUCSORGRIGHT
 10
0.0
 20
0.0
 30
0.0
  9
$PUCSORGFRONT
 10
0.0
 20
0.0
 30
0.0
  9
$PUCSORGBACK
 10
0.0
 20
0.0
 30
0.0
  9
$USERI1
 70
     0
  9
$USERI2
 70
     0
  9
$USERI3
 70
     0
  9
$USERI4
 70
     0
  9
$USERI5
 70
     0
  9
$USERR1
 40
0.0
  9
$USERR2
 40
0.0
  9
$USERR3
 40
0.0
  9
$USERR4
 40
0.0
  9
$USERR5
 40
0.0
  9
$WORLDVIEW
 70
     1
  9
$SHADEDGE
 70
     3
  9
$SHADEDIF
 70
    70
  9
$TILEMODE
 70
     1
  9
$MAXACTVP
 70
    64
  9
$PINSBASE
 10
0.0
 20
0.0
 30
0.0
  9
$PLIMCHECK
 70
     0
  9
$PEXTMIN
 10
0.0
 20
0.0
 30
0.0
  9
$PEXTMAX
 10
0.0
 20
0.0
 30
0.0
  9
$PLIMMIN
 10
0.0
 20
0.0
  9
$PLIMMAX
 10
12.0
 20
9.0
  9
$UNITMODE
 70
     0
  9
$VISRETAIN
 70
     1
  9
$PLINEGEN
 70
     0
  9
$PSLTSCALE
 70
     1
  9
$TREEDEPTH
 70
  3020
  9
$CMLSTYLE
  2
Standard
  9
$CMLJUST
 70
     0
  9
$CMLSCALE
 40
1.0
  9
$PROXYGRAPHICS
 70
     1
  9
$MEASUREMENT
 70
     0
  9
$CELWEIGHT
370
    -1
  9
$ENDCAPS
280
     0
  9
$JOINSTYLE
280
     0
  9
$LWDISPLAY
290
     0
  9
$INSUNITS
 70
     1
  9
$HYPERLINKBASE
  1

  9
$STYLESHEET
  1
monochrome.ctb
  9
$XEDIT
290
     1
  9
$CEPSNTYPE
380
     0
  9
$PSTYLEMODE
290
     1
  9
$FINGERPRINTGUID
  2
{358EB121-6EE0-9143-8A3E-6E8E8869FDA6}
  9
$VERSIONGUID
  2
{452C689D-BC86-8A44-A1C2-6FD706C5BFF7}
  9
$EXTNAMES
290
     1
  9
$PSVPSCALE
 40
0.0
  9
$OLESTARTUP
290
     0
  9
$SORTENTS
280
   127
  9
$INDEXCTL
280
     0
  9
$HIDETEXT
280
     1
  9
$XCLIPFRAME
280
     2
  9
$HALOGAP
280
     0
  9
$OBSCOLOR
 70
   257
  9
$OBSLTYPE
280
     0
  9
$INTERSECTIONDISPLAY
280
     0
  9
$INTERSECTIONCOLOR
 70
   257
  9
$DIMASSOC
280
     2
  9
$PROJECTNAME
  1

  9
$CAMERADISPLAY
290
     0
  9
$LENSLENGTH
 40
50.0
  9
$CAMERAHEIGHT
 40
0.0
  9
$STEPSPERSEC
 40
2.0
  9
$STEPSIZE
 40
6.0
  9
$3DDWFPREC
 40
2.0
  9
$PSOLWIDTH
 40
0.25
  9
$PSOLHEIGHT
 40
4.0
  9
$LOFTANG1
 40
1.570796326794896
  9
$LOFTANG2
 40
1.570796326794896
  9
$LOFTMAG1
 40
0.0
  9
$LOFTMAG2
 40
0.0
  9
$LOFTPARAM
 70
     7
  9
$LOFTNORMALS
280
     1
  9
$LATITUDE
 40
37.795
  9
$LONGITUDE
 40
-122.394
  9
$NORTHDIRECTION
 40
0.0
  9
$TIMEZONE
 70
 -8000
  9
$LIGHTGLYPHDISPLAY
280
     1
  9
$TILEMODELIGHTSYNCH
280
     1
  9
$CMATERIAL
347
96
  9
$SOLIDHIST
280
     0
  9
$SHOWHIST
280
     1
  9
$DWFFRAME
280
     2
  9
$DGNFRAME
280
     0
  9
$REALWORLDSCALE
290
     1
  9
$INTERFERECOLOR
 62
     1
  9
$INTERFEREOBJVS
345
A3
  9
$INTERFEREVPVS
346
A0
  9
$CSHADOW
280
     0
  9
$SHADOWPLANELOCATION
 40
0.0
  0
ENDSEC
  0
SECTION
  2
CLASSES
  0
CLASS
  1
ACDBDICTIONARYWDFLT
  2
AcDbDictionaryWithDefault
  3
ObjectDBX Classes
 90
        0
 91
        1
280
     0
281
     0
  0
CLASS
  1
DICTIONARYVAR
  2
AcDbDictionaryVar
  3
ObjectDBX Classes
 90
        0
 91
       27
280
     0
281
     0
  0
CLASS
  1
TABLESTYLE
  2
AcDbTableStyle
  3
ObjectDBX Classes
 90
     4095
 91
        1
280
     0
281
     0
  0
CLASS
  1
MATERIAL
  2
AcDbMaterial
  3
ObjectDBX Classes
 90
     1153
 91
        3
280
     0
281
     0
  0
CLASS
  1
VISUALSTYLE
  2
AcDbVisualStyle
  3
ObjectDBX Classes
 90
     4095
 91
       25
280
     0
281
     0
  0
CLASS
  1
SCALE
  2
AcDbScale
  3
ObjectDBX Classes
 90
     1153
 91
       34
280
     0
281
     0
  0
CLASS
  1
MLEADERSTYLE
  2
AcDbMLeaderStyle
  3
ACDB_MLEADERSTYLE_CLASS
 90
     4095
 91
        1
280
     0
281
     0
  0
CLASS
  1
CELLSTYLEMAP
  2
AcDbCellStyleMap
  3
ObjectDBX Classes
 90
     1152
 91
        1
280
     0
281
     0
  0
CLASS
  1
EXACXREFPANELOBJECT
  2
ExAcXREFPanelObject
  3
EXAC_ESW
 90
     1025
 91
        0
280
     0
281
     0
  0
CLASS
  1
NPOCOLLECTION
  2
AcDbImpNonPersistentObjectsCollection
  3
ObjectDBX Classes
 90
     1153
 91
        0
280
     0
281
     0
  0
CLASS
  1
LAYER_INDEX
  2
AcDbLayerIndex
  3
ObjectDBX Classes
 90
        0
 91
        0
280
     0
281
     0
  0
CLASS
  1
SPATIAL_INDEX
  2
AcDbSpatialIndex
  3
ObjectDBX Classes
 90
        0
 91
        0
280
     0
281
     0
  0
CLASS
  1
IDBUFFER
  2
AcDbIdBuffer
  3
ObjectDBX Classes
 90
        0
 91
        0
280
     0
281
     0
  0
CLASS
  1
ACDBSECTIONVIEWSTYLE
  2
AcDbSectionViewStyle
  3
ObjectDBX Classes
 90
     1025
 91
        2
280
     0
281
     0
  0
CLASS
  1
ACDBDETAILVIEWSTYLE
  2
AcDbDetailViewStyle
  3
ObjectDBX Classes
 90
     1025
 91
        2
280
     0
281
     0
  0
CLASS
  1
SORTENTSTABLE
  2
AcDbSortentsTable
  3
ObjectDBX Classes
 90
        0
 91
        1
280
     0
281
     0
  0
CLASS
  1
ACAD_EVALUATION_GRAPH
  2
AcDbEvalGraph
  3
ObjectDBX Classes
 90
     1153
 91
        0
280
     0
281
     0
  0
CLASS
  1
BLOCKLINEARPARAMETER
  2
AcDbBlockLinearParameter
  3
ObjectDBX Classes
 90
     1153
 91
        0
280
     0
281
     0
  0
CLASS
  1
BLOCKLINEARGRIP
  2
AcDbBlockLinearGrip
  3
ObjectDBX Classes
 90
     1153
 91
        0
280
     0
281
     0
  0
CLASS
  1
BLOCKGRIPLOCATIONCOMPONENT
  2
AcDbBlockGripExpr
  3
ObjectDBX Classes
 90
     1153
 91
        0
280
     0
281
     0
  0
CLASS
  1
BLOCKSTRETCHACTION
  2
AcDbBlockStretchAction
  3
ObjectDBX Classes
 90
     1153
 91
        0
280
     0
281
     0
  0
CLASS
  1
ACDB_DYNAMICBLOCKPURGEPREVENTER_VERSION
  2
AcDbDynamicBlockPurgePreventer
  3
ObjectDBX Classes
 90
     1153
 91
        0
280
     0
281
     0
  0
CLASS
  1
BLOCKVISIBILITYPARAMETER
  2
AcDbBlockVisibilityParameter
  3
ObjectDBX Classes
 90
     1153
 91
        0
280
     0
281
     0
  0
CLASS
  1
BLOCKVISIBILITYGRIP
  2
AcDbBlockVisibilityGrip
  3
ObjectDBX Classes
 90
     1153
 91
        0
280
     0
281
     0
  0
CLASS
  1
ACDB_BLOCKREPRESENTATION_DATA
  2
AcDbBlockRepresentationData
  3
ObjectDBX Classes
 90
     1153
 91
        0
280
     0
281
     0
  0
CLASS
  1
SURFACE
  2
AcDbSurface
  3
ObjectDBX Classes
 90
     4095
 91
        0
280
     0
281
     1
  0
CLASS
  1
ACDBASSOCPERSSUBENTMANAGER
  2
AcDbAssocPersSubentManager
  3
ObjectDBX Classes
 90
     1024
 91
        1
280
     0
281
     0
  0
CLASS
  1
BLOCKARRAYACTION
  2
AcDbBlockArrayAction
  3
ObjectDBX Classes
 90
     1153
 91
        0
280
     0
281
     0
  0
CLASS
  1
BLOCKLOOKUPPARAMETER
  2
AcDbBlockLookupParameter
  3
ObjectDBX Classes
 90
     1153
 91
        0
280
     0
281
     0
  0
CLASS
  1
BLOCKLOOKUPGRIP
  2
AcDbBlockLookupGrip
  3
ObjectDBX Classes
 90
     1153
 91
        0
280
     0
281
     0
  0
CLASS
  1
BLOCKLOOKUPACTION
  2
AcDbBlockLookupAction
  3
ObjectDBX Classes
 90
     1153
 91
        0
280
     0
281
     0
  0
ENDSEC
  0
SECTION
  2
TABLES
  0
TABLE
  2
VPORT
  5
8
330
0
100
AcDbSymbolTable
 70
     1
  0
VPORT
  5
94
330
8
100
AcDbSymbolTableRecord
100
AcDbViewportTableRecord
  2
*Active
 70
     0
 10
0.0
 20
0.0
 11
1.0
 21
1.0
 12
107011.4781376911
 22
97428.99187419162
 13
0.0
 23
0.0
 14
0.5
 24
0.5
 15
0.5
 25
0.5
 16
0.0
 26
0.0
 36
1.0
 17
0.0
 27
0.0
 37
0.0
 40
4.026091817342731
 41
2.114740368509212
 42
50.0
 43
0.0
 44
0.0
 50
0.0
 51
0.0
 71
     0
 72
  1000
 73
     1
 74
     3
 75
     0
 76
     0
 77
     0
 78
     0
281
     0
 65
     1
110
0.0
120
0.0
130
0.0
111
1.0
121
0.0
131
0.0
112
0.0
122
1.0
132
0.0
 79
     0
146
0.0
348
9F
 60
     3
 61
     5
292
     1
282
     1
141
0.0
142
0.0
 63
   250
421
  3355443
1001
ACAD_NAV_VCDISPLAY
1070
     3
  0
ENDTAB
  0
TABLE
  2
LTYPE
  5
5
330
0
100
AcDbSymbolTable
 70
     1
  0
LTYPE
  5
14
330
5
100
AcDbSymbolTableRecord
100
AcDbLinetypeTableRecord
  2
ByBlock
 70
     0
  3

 72
    65
 73
     0
 40
0.0
  0
LTYPE
  5
15
330
5
100
AcDbSymbolTableRecord
100
AcDbLinetypeTableRecord
  2
ByLayer
 70
     0
  3

 72
    65
 73
     0
 40
0.0
  0
LTYPE
  5
16
330
5
100
AcDbSymbolTableRecord
100
AcDbLinetypeTableRecord
  2
Continuous
 70
     0
  3
Solid line
 72
    65
 73
     0
 40
0.0
  0
ENDTAB
  0
TABLE
  2
LAYER
  5
2
102
{ACAD_XDICTIONARY
360
18E
102
}
330
0
100
AcDbSymbolTable
 70
     2
  0
LAYER
  5
10
102
{ACAD_XDICTIONARY
360
E6
102
}
330
2
100
AcDbSymbolTableRecord
100
AcDbLayerTableRecord
  2
0
 70
     0
 62
     7
  6
Continuous
370
    -3
390
F
347
98
348
0
  0
LAYER
  5
204
330
2
100
AcDbSymbolTableRecord
100
AcDbLayerTableRecord
  2
freecads.com
 70
     0
 62
     7
  6
Continuous
370
    -3
390
F
347
98
348
0
1001
AcAecLayerStandard
1000

1000

1001
AcCmTransparency
1071
        0
  0
ENDTAB
  0
TABLE
  2
STYLE
  5
3
330
0
100
AcDbSymbolTable
 70
     1
  0
STYLE
  5
11
330
3
100
AcDbSymbolTableRecord
100
AcDbTextStyleTableRecord
  2
Standard
 70
     0
 40
0.0
 41
1.0
 50
0.0
 71
     0
 42
0.2
  3
arial.ttf
  4

1001
ACAD
1000
Arial
1071
       34
  0
ENDTAB
  0
TABLE
  2
VIEW
  5
6
330
0
100
AcDbSymbolTable
 70
     0
  0
ENDTAB
  0
TABLE
  2
UCS
  5
7
330
0
100
AcDbSymbolTable
 70
     0
  0
ENDTAB
  0
TABLE
  2
APPID
  5
9
330
0
100
AcDbSymbolTable
 70
    32
  0
APPID
  5
12
330
9
100
AcDbSymbolTableRecord
100
AcDbRegAppTableRecord
  2
ACAD
 70
     0
  0
APPID
  5
DD
330
9
100
AcDbSymbolTableRecord
100
AcDbRegAppTableRecord
  2
AcadAnnoPO
 70
     0
  0
APPID
  5
DE
330
9
100
AcDbSymbolTableRecord
100
AcDbRegAppTableRecord
  2
AcadAnnotative
 70
     0
  0
APPID
  5
DF
330
9
100
AcDbSymbolTableRecord
100
AcDbRegAppTableRecord
  2
ACAD_DSTYLE_DIMJAG
 70
     0
  0
APPID
  5
E0
330
9
100
AcDbSymbolTableRecord
100
AcDbRegAppTableRecord
  2
ACAD_DSTYLE_DIMTALN
 70
     0
  0
APPID
  5
107
330
9
100
AcDbSymbolTableRecord
100
AcDbRegAppTableRecord
  2
ACAD_MLEADERVER
 70
     0
  0
APPID
  5
1A6
330
9
100
AcDbSymbolTableRecord
100
AcDbRegAppTableRecord
  2
ACAD_NAV_VCDISPLAY
 70
     0
  0
APPID
  5
205
330
9
100
AcDbSymbolTableRecord
100
AcDbRegAppTableRecord
  2
AcAecLayerStandard
 70
     0
  0
APPID
  5
206
330
9
100
AcDbSymbolTableRecord
100
AcDbRegAppTableRecord
  2
AcCmTransparency
 70
     0
  0
APPID
  5
222
330
9
100
AcDbSymbolTableRecord
100
AcDbRegAppTableRecord
  2
ACAD_PSEXT
 70
     0
  0
APPID
  5
2DA
330
9
100
AcDbSymbolTableRecord
100
AcDbRegAppTableRecord
  2
GradientColor1ACI
 70
     0
  0
APPID
  5
2DB
330
9
100
AcDbSymbolTableRecord
100
AcDbRegAppTableRecord
  2
GradientColor2ACI
 70
     0
  0
APPID
  5
2F3
330
9
100
AcDbSymbolTableRecord
100
AcDbRegAppTableRecord
  2
ACAD_EXEMPT_FROM_CAD_STANDARDS
 70
     0
  0
APPID
  5
A1A
330
9
100
AcDbSymbolTableRecord
100
AcDbRegAppTableRecord
  2
AcDbBlockRepETag
 70
     0
  0
APPID
  5
2282
330
9
100
AcDbSymbolTableRecord
100
AcDbRegAppTableRecord
  2
RAK
 70
     0
  0
APPID
  5
39F4
330
9
100
AcDbSymbolTableRecord
100
AcDbRegAppTableRecord
  2
ACAD_DSTYLE_DIMJOGGED_JOGANGLE_SYMBOL
 70
     0
  0
APPID
  5
39F5
330
9
100
AcDbSymbolTableRecord
100
AcDbRegAppTableRecord
  2
AcDbDynamicBlockGUID
 70
     0
  0
APPID
  5
39F6
330
9
100
AcDbSymbolTableRecord
100
AcDbRegAppTableRecord
  2
ACAD_DSTYLE_DIMBREAK
 70
     0
  0
APPID
  5
3B59
330
9
100
AcDbSymbolTableRecord
100
AcDbRegAppTableRecord
  2
AEC_XDATA_BOUND_SPACE
 70
     0
  0
APPID
  5
75C5
330
9
100
AcDbSymbolTableRecord
100
AcDbRegAppTableRecord
  2
AcDbDynamicBlockTrueName
 70
     0
  0
APPID
  5
75C6
330
9
100
AcDbSymbolTableRecord
100
AcDbRegAppTableRecord
  2
AcDbBlockRepBTag
 70
     0
  0
APPID
  5
75C7
330
9
100
AcDbSymbolTableRecord
100
AcDbRegAppTableRecord
  2
ACAUTHENVIRON
 70
     0
  0
APPID
  5
AA90
330
9
100
AcDbSymbolTableRecord
100
AcDbRegAppTableRecord
  2
Acad_TC
 70
     0
  0
APPID
  5
AA9C
330
9
100
AcDbSymbolTableRecord
100
AcDbRegAppTableRecord
  2
AcDbBlockArrayActionTag
 70
     0
  0
APPID
  5
BEE4
330
9
100
AcDbSymbolTableRecord
100
AcDbRegAppTableRecord
  2
ACAD_DSTYLE_DIMTEXT_FILL
 70
     0
  0
APPID
  5
219E5
330
9
100
AcDbSymbolTableRecord
100
AcDbRegAppTableRecord
  2
AECLAY
 70
     0
  0
APPID
  5
26B46
330
9
100
AcDbSymbolTableRecord
100
AcDbRegAppTableRecord
  2
REVIT
 70
     0
  0
APPID
  5
280A5
330
9
100
AcDbSymbolTableRecord
100
AcDbRegAppTableRecord
  2
HATCHBACKGROUNDCOLOR
 70
     0
  0
APPID
  5
29EE0
330
9
100
AcDbSymbolTableRecord
100
AcDbRegAppTableRecord
  2
ACAD_STEPID
 70
     0
  0
APPID
  5
29EE1
330
9
100
AcDbSymbolTableRecord
100
AcDbRegAppTableRecord
  2
AcLayerTools
 70
     0
  0
APPID
  5
4D86C
330
9
100
AcDbSymbolTableRecord
100
AcDbRegAppTableRecord
  2
PE_URL
 70
     0
  0
APPID
  5
502C4
330
9
100
AcDbSymbolTableRecord
100
AcDbRegAppTableRecord
  2
_KTI_ARE
 70
     0
  0
ENDTAB
  0
TABLE
  2
DIMSTYLE
  5
A
330
0
100
AcDbSymbolTable
 70
     1
100
AcDbDimStyleTable
 71
     1
340
27
  0
DIMSTYLE
105
27
330
A
100
AcDbSymbolTableRecord
100
AcDbDimStyleTableRecord
  2
Standard
 70
     0
340
11
  0
ENDTAB
  0
TABLE
  2
BLOCK_RECORD
  5
1
330
0
100
AcDbSymbolTable
 70
     1
  0
BLOCK_RECORD
  5
1F
102
{ACAD_XDICTIONARY
360
15D
102
}
330
1
100
AcDbSymbolTableRecord
100
AcDbBlockTableRecord
  2
*Model_Space
340
22
 70
     0
280
     1
281
     0
  0
BLOCK_RECORD
  5
58
330
1
100
AcDbSymbolTableRecord
100
AcDbBlockTableRecord
  2
*Paper_Space
340
59
 70
     0
280
     1
281
     0
  0
BLOCK_RECORD
  5
5D
330
1
100
AcDbSymbolTableRecord
100
AcDbBlockTableRecord
  2
*Paper_Space0
340
5E
 70
     0
280
     1
281
     0
  0
ENDTAB
  0
ENDSEC
  0
SECTION
  2
BLOCKS
  0
BLOCK
  5
20
330
1F
100
AcDbEntity
  8
0
100
AcDbBlockBegin
  2
*Model_Space
 70
     0
 10
0.0
 20
0.0
 30
0.0
  3
*Model_Space
  1

  0
ENDBLK
  5
21
330
1F
100
AcDbEntity
  8
0
100
AcDbBlockEnd
  0
BLOCK
  5
5A
330
58
100
AcDbEntity
 67
     1
  8
0
100
AcDbBlockBegin
  2
*Paper_Space
 70
     0
 10
0.0
 20
0.0
 30
0.0
  3
*Paper_Space
  1

  0
ENDBLK
  5
5B
330
58
100
AcDbEntity
 67
     1
  8
0
100
AcDbBlockEnd
  0
BLOCK
  5
5F
330
5D
100
AcDbEntity
 67
     1
  8
0
100
AcDbBlockBegin
  2
*Paper_Space0
 70
     0
 10
0.0
 20
0.0
 30
0.0
  3
*Paper_Space0
  1

  0
ENDBLK
  5
60
330
5D
100
AcDbEntity
 67
     1
  8
0
100
AcDbBlockEnd
  0
ENDSEC
  0
SECTION
  2
ENTITIES
  0
LINE
  5
F6C3E
330
1F
100
AcDbEntity
  8
freecads.com
100
AcDbLine
 10
107010.4274342416
 20
97429.39105111638
 30
0.0
 11
107010.4773041092
 21
97429.36729082702
 31
0.0
  0
LINE
  5
F6C3F
330
1F
100
AcDbEntity
  8
freecads.com
100
AcDbLine
 10
107010.4274342416
 20
97429.39105111638
 30
0.0
 11
107010.4384600254
 21
97429.42619494218
 31
0.0
  0
LINE
  5
F6C40
330
1F
100
AcDbEntity
  8
freecads.com
100
AcDbLine
 10
107010.4474511712
 20
97428.89063415747
 30
0.0
 11
107010.425465791
 21
97428.90615276886
 31
0.0
  0
LINE
  5
F6C41
330
1F
100
AcDbEntity
  8
freecads.com
100
AcDbLine
 10
107010.4363507959
 20
97428.87381026353
 30
0.0
 11
107010.4134343772
 21
97428.88791777906
 31
0.0
  0
LINE
  5
F6C42
330
1F
100
AcDbEntity
  8
freecads.com
100
AcDbLine
 10
107010.3724563607
 20
97429.25047581318
 30
0.0
 11
107010.4384600254
 21
97429.25047581318
 31
0.0
  0
ARC
  5
F6C43
330
1F
100
AcDbEntity
  8
freecads.com
100
AcDbCircle
 10
107010.7323810649
 20
97428.71050149728
 30
0.0
 40
0.4851092274269336
100
AcDbArc
 50
101.8694274724461
 51
143.354845868496
  0
LINE
  5
F6C44
330
1F
100
AcDbEntity
  8
freecads.com
100
AcDbLine
 10
107010.4384600254
 20
97429.25047581318
 30
0.0
 11
107010.317629518
 21
97429.00004252016
 31
0.0
  0
LINE
  5
F6C45
330
1F
100
AcDbEntity
  8
freecads.com
100
AcDbLine
 10
107010.4384600254
 20
97429.25047581318
 30
0.0
 11
107010.3359051323
 21
97429.32076346477
 31
0.0
  0
LINE
  5
F6C46
330
1F
100
AcDbEntity
  8
freecads.com
100
AcDbLine
 10
107010.4305545142
 20
97428.54721546663
 30
0.0
 11
107010.4071519352
 21
97428.53393000327
 31
0.0
  0
LINE
  5
F6C47
330
1F
100
AcDbEntity
  8
freecads.com
100
AcDbLine
 10
107010.4410509187
 20
97428.53000828116
 30
0.0
 11
107010.4185287204
 21
97428.51527957354
 31
0.0
  0
ARC
  5
F6C48
330
1F
100
AcDbEntity
  8
freecads.com
100
AcDbCircle
 10
107010.7095734763
 20
97428.70561237653
 30
0.0
 40
0.3477551232983834
100
AcDbArc
 50
72.30947990239815
 51
341.9582651753712
  0
LINE
  5
F6C49
330
1F
100
AcDbEntity
  8
freecads.com
100
AcDbLine
 10
107010.3798572293
 20
97429.34718840249
 30
0.0
 11
107010.4274342416
 21
97429.39105111638
 31
0.0
  0
LINE
  5
F6C4A
330
1F
100
AcDbEntity
  8
freecads.com
100
AcDbLine
 10
107010.3999286983
 20
97428.62158099102
 30
0.0
 11
107010.373957394
 21
97428.61453289965
 31
0.0
  0
LINE
  5
F6C4B
330
1F
100
AcDbEntity
  8
freecads.com
100
AcDbLine
 10
107010.4058160859
 20
97428.60230405128
 30
0.0
 11
107010.3803385833
 21
97428.59363911602
 31
0.0
  0
LINE
  5
F6C4C
330
1F
100
AcDbEntity
  8
freecads.com
100
AcDbLine
 10
107010.3952633372
 20
97428.64118956424
 30
0.0
 11
107010.368900728
 21
97428.63578613237
 31
0.0
  0
LINE
  5
F6C4D
330
1F
100
AcDbEntity
  8
freecads.com
100
AcDbLine
 10
107010.4263287057
 20
97428.85632256937
 30
0.0
 11
107010.4025716891
 21
97428.86896331309
 31
0.0
  0
LINE
  5
F6C4E
330
1F
100
AcDbEntity
  8
freecads.com
100
AcDbLine
 10
107010.4174244533
 20
97428.83824009092
 30
0.0
 11
107010.3929205968
 21
97428.84936417562
 31
0.0
  0
LINE
  5
F6C4F
330
1F
100
AcDbEntity
  8
freecads.com
100
AcDbLine
 10
107010.4096731796
 20
97428.81963419151
 30
0.0
 11
107010.3845191888
 21
97428.82919771547
 31
0.0
  0
LINE
  5
F6C50
330
1F
100
AcDbEntity
  8
freecads.com
100
AcDbLine
 10
107010.4031054753
 20
97428.80057830005
 30
0.0
 11
107010.3774006216
 21
97428.80854352046
 31
0.0
  0
LINE
  5
F6C51
330
1F
100
AcDbEntity
  8
freecads.com
100
AcDbLine
 10
107010.3977472602
 20
97428.78114762151
 30
0.0
 11
107010.3715929888
 21
97428.78748310324
 31
0.0
  0
LINE
  5
F6C52
330
1F
100
AcDbEntity
  8
freecads.com
100
AcDbLine
 10
107010.3936196807
 20
97428.76141883984
 30
0.0
 11
107010.3671192106
 21
97428.76609957965
 31
0.0
  0
LINE
  5
F6C53
330
1F
100
AcDbEntity
  8
freecads.com
100
AcDbLine
 10
107010.3907390266
 20
97428.74146981556
 30
0.0
 11
107010.363996943
 21
97428.74447734074
 31
0.0
  0
LINE
  5
F6C54
330
1F
100
AcDbEntity
  8
freecads.com
100
AcDbLine
 10
107010.3891166663
 20
97428.72137927836
 30
0.0
 11
107010.362238508
 21
97428.72270171954
 31
0.0
  0
LINE
  5
F6C55
330
1F
100
AcDbEntity
  8
freecads.com
100
AcDbLine
 10
107010.3887590026
 20
97428.70122651639
 30
0.0
 11
107010.3618508456
 21
97428.70085865453
 31
0.0
  0
LINE
  5
F6C56
330
1F
100
AcDbEntity
  8
freecads.com
100
AcDbLine
 10
107010.3896674472
 20
97428.68109106343
 30
0.0
 11
107010.3628354854
 21
97428.67903435028
 31
0.0
  0
LINE
  5
F6C57
330
1F
100
AcDbEntity
  8
freecads.com
100
AcDbLine
 10
107010.3918384146
 20
97428.66105238487
 30
0.0
 11
107010.3651885417
 21
97428.65731493736
 31
0.0
  0
LINE
  5
F6C58
330
1F
100
AcDbEntity
  8
freecads.com
100
AcDbLine
 10
107010.406475421
 20
97429.21083872968
 30
0.0
 11
107010.4012595092
 21
97429.21335533306
 31
0.0
  0
LINE
  5
F6C59
330
1F
100
AcDbEntity
  8
freecads.com
100
AcDbLine
 10
107010.3615816151
 20
97429.24175692509
 30
0.0
 11
107010.3724563607
 21
97429.25047581318
 31
0.0
  0
LINE
  5
F6C5A
330
1F
100
AcDbEntity
  8
freecads.com
100
AcDbLine
 10
107010.3426240497
 20
97429.07850038616
 30
0.0
 11
107010.3374081378
 21
97429.08101698954
 31
0.0
  0
LINE
  5
F6C5B
330
1F
100
AcDbEntity
  8
freecads.com
100
AcDbLine
 10
107010.317629518
 20
97429.00004252016
 30
0.0
 11
107010.3431549627
 21
97429.00004252016
 31
0.0
  0
LINE
  5
F6C5C
330
1F
100
AcDbEntity
  8
freecads.com
100
AcDbLine
 10
107010.3138535647
 20
97429.259328838
 30
0.0
 11
107010.3359051323
 21
97429.32076346477
 31
0.0
  0
LINE
  5
F6C5D
330
1F
100
AcDbEntity
  8
freecads.com
100
AcDbLine
 10
107010.3359051323
 20
97429.32076346477
 30
0.0
 11
107010.3798572293
 21
97429.34718840249
 31
0.0
  0
LINE
  5
F6C5E
330
1F
100
AcDbEntity
  8
freecads.com
100
AcDbLine
 10
107010.406475421
 20
97429.21083872968
 30
0.0
 11
107010.3426240497
 21
97429.07850038616
 31
0.0
  0
LINE
  5
F6C5F
330
1F
100
AcDbEntity
  8
freecads.com
100
AcDbLine
 10
107010.4012595092
 20
97429.21335533306
 30
0.0
 11
107010.3374081378
 21
97429.08101698954
 31
0.0
  0
LINE
  5
F6C60
330
1F
100
AcDbEntity
  8
freecads.com
100
AcDbLine
 10
107010.3138535647
 20
97429.259328838
 30
0.0
 11
107010.3615816151
 21
97429.24175692509
 31
0.0
  0
LINE
  5
F6C61
330
1F
100
AcDbEntity
  8
freecads.com
100
AcDbLine
 10
107010.4211592701
 20
97428.56504777234
 30
0.0
 11
107010.3969686696
 21
97428.55325798489
 31
0.0
  0
LINE
  5
F6C62
330
1F
100
AcDbEntity
  8
freecads.com
100
AcDbLine
 10
107010.4129022652
 20
97428.58343482231
 30
0.0
 11
107010.3880191124
 21
97428.5731872397
 31
0.0
  0
ARC
  5
F6C63
330
1F
100
AcDbEntity
  8
freecads.com
100
AcDbCircle
 10
107012.384899457
 20
97429.51225317028
 30
0.0
 40
0.0115825781249998
100
AcDbArc
 50
284.78945200346
 51
12.71224840150287
  0
LINE
  5
F6C64
330
1F
100
AcDbEntity
  8
freecads.com
100
AcDbLine
 10
107012.3751180007
 20
97429.40926014902
 30
0.0
 11
107012.3709927045
 21
97429.3707769652
 31
0.0
  0
LINE
  5
F6C65
330
1F
100
AcDbEntity
  8
freecads.com
100
AcDbLine
 10
107012.3751180007
 20
97429.40926014902
 30
0.0
 11
107012.3891385613
 21
97429.41457311635
 31
0.0
  0
LINE
  5
F6C66
330
1F
100
AcDbEntity
  8
freecads.com
100
AcDbLine
 10
107012.7084237709
 20
97428.610646453
 30
0.0
 11
107012.7341286246
 21
97428.6026812326
 31
0.0
  0
LINE
  5
F6C67
330
1F
100
AcDbEntity
  8
freecads.com
100
AcDbLine
 10
107012.7137819859
 20
97428.63007713156
 30
0.0
 11
107012.7399362573
 21
97428.62374164982
 31
0.0
  0
LINE
  5
F6C68
330
1F
100
AcDbEntity
  8
freecads.com
100
AcDbLine
 10
107012.7179095654
 20
97428.64980591321
 30
0.0
 11
107012.7444100355
 21
97428.64512517339
 31
0.0
  0
LINE
  5
F6C69
330
1F
100
AcDbEntity
  8
freecads.com
100
AcDbLine
 10
107012.7207902196
 20
97428.66975493749
 30
0.0
 11
107012.7475323031
 21
97428.66674741232
 31
0.0
  0
LINE
  5
F6C6A
330
1F
100
AcDbEntity
  8
freecads.com
100
AcDbLine
 10
107012.7224125799
 20
97428.6898454747
 30
0.0
 11
107012.7492907381
 21
97428.68852303352
 31
0.0
  0
LINE
  5
F6C6B
330
1F
100
AcDbEntity
  8
freecads.com
100
AcDbLine
 10
107012.7227702435
 20
97428.70999823667
 30
0.0
 11
107012.7496784006
 21
97428.71036609853
 31
0.0
  0
LINE
  5
F6C6C
330
1F
100
AcDbEntity
  8
freecads.com
100
AcDbLine
 10
107012.721861799
 20
97428.73013368964
 30
0.0
 11
107012.7486937607
 21
97428.73219040278
 31
0.0
  0
LINE
  5
F6C6D
330
1F
100
AcDbEntity
  8
freecads.com
100
AcDbLine
 10
107012.7196908315
 20
97428.75017236819
 30
0.0
 11
107012.7463407044
 21
97428.75390981572
 31
0.0
  0
LINE
  5
F6C6E
330
1F
100
AcDbEntity
  8
freecads.com
100
AcDbLine
 10
107012.7162659089
 20
97428.77003518882
 30
0.0
 11
107012.7426285181
 21
97428.77543862071
 31
0.0
  0
LINE
  5
F6C6F
330
1F
100
AcDbEntity
  8
freecads.com
100
AcDbLine
 10
107012.7116005478
 20
97428.78964376204
 30
0.0
 11
107012.7375718521
 21
97428.79669185342
 31
0.0
  0
LINE
  5
F6C70
330
1F
100
AcDbEntity
  8
freecads.com
100
AcDbLine
 10
107012.7057131602
 20
97428.80892070177
 30
0.0
 11
107012.7311906628
 21
97428.81758563704
 31
0.0
  0
LINE
  5
F6C71
330
1F
100
AcDbEntity
  8
freecads.com
100
AcDbLine
 10
107012.698626981
 20
97428.82778993074
 30
0.0
 11
107012.7235101337
 21
97428.83803751336
 31
0.0
  0
LINE
  5
F6C72
330
1F
100
AcDbEntity
  8
freecads.com
100
AcDbLine
 10
107012.690369976
 20
97428.84617698072
 30
0.0
 11
107012.7145605765
 21
97428.85796676816
 31
0.0
  0
LINE
  5
F6C73
330
1F
100
AcDbEntity
  8
freecads.com
100
AcDbLine
 10
107012.3581341023
 20
97428.86352346159
 30
0.0
 11
107012.5759591786
 21
97429.01762414859
 31
0.0
  0
LINE
  5
F6C74
330
1F
100
AcDbEntity
  8
freecads.com
100
AcDbLine
 10
107012.6030712483
 20
97428.9555998294
 30
0.0
 11
107012.6199397107
 21
97428.97656740476
 31
0.0
  0
LINE
  5
F6C75
330
1F
100
AcDbEntity
  8
freecads.com
100
AcDbLine
 10
107012.5869775508
 20
97428.96773468164
 30
0.0
 11
107012.6024961622
 21
97428.98972006178
 31
0.0
  0
ARC
  5
F6C76
330
1F
100
AcDbEntity
  8
freecads.com
100
AcDbCircle
 10
107012.4019557699
 20
97428.70561237653
 30
0.0
 40
0.2093234308863546
100
AcDbArc
 50
350.9885118700986
 51
80.90758898683217
  0
CIRCLE
  5
F6C77
330
1F
100
AcDbEntity
  8
freecads.com
100
AcDbCircle
 10
107012.4793455007
 20
97428.67999109559
 30
0.0
 40
0.0085525283632787
  0
CIRCLE
  5
F6C78
330
1F
100
AcDbEntity
  8
freecads.com
100
AcDbCircle
 10
107012.4817878832
 20
97428.72211856175
 30
0.0
 40
0.0085525283632787
  0
CIRCLE
  5
F6C79
330
1F
100
AcDbEntity
  8
freecads.com
100
AcDbCircle
 10
107012.4760842563
 20
97428.60070756352
 30
0.0
 40
0.0042386909827818
  0
CIRCLE
  5
F6C7A
330
1F
100
AcDbEntity
  8
freecads.com
100
AcDbCircle
 10
107012.4802922185
 20
97428.63473310432
 30
0.0
 40
0.0042386909827818
  0
CIRCLE
  5
F6C7B
330
1F
100
AcDbEntity
  8
freecads.com
100
AcDbCircle
 10
107012.4819019473
 20
97428.81817692275
 30
0.0
 40
0.0042386909827818
  0
CIRCLE
  5
F6C7C
330
1F
100
AcDbEntity
  8
freecads.com
100
AcDbCircle
 10
107012.4184619551
 20
97428.62578026322
 30
0.0
 40
0.0085525283632787
  0
CIRCLE
  5
F6C7D
330
1F
100
AcDbEntity
  8
freecads.com
100
AcDbCircle
 10
107012.4730886264
 20
97428.61907151889
 30
0.0
 40
0.0042386909827818
  0
CIRCLE
  5
F6C7E
330
1F
100
AcDbEntity
  8
freecads.com
100
AcDbCircle
 10
107012.4592780632
 20
97428.61687329213
 30
0.0
 40
0.0042386909827818
  0
CIRCLE
  5
F6C7F
330
1F
100
AcDbEntity
  8
freecads.com
100
AcDbCircle
 10
107012.3797407439
 20
97428.60233138589
 30
0.0
 40
0.0042386909827818
  0
CIRCLE
  5
F6C80
330
1F
100
AcDbEntity
  8
freecads.com
100
AcDbCircle
 10
107012.3910606678
 20
97428.59412022403
 30
0.0
 40
0.0042386909827818
  0
CIRCLE
  5
F6C81
330
1F
100
AcDbEntity
  8
freecads.com
100
AcDbCircle
 10
107012.4333476139
 20
97428.59009780568
 30
0.0
 40
0.0042386909827818
  0
CIRCLE
  5
F6C82
330
1F
100
AcDbEntity
  8
freecads.com
100
AcDbCircle
 10
107012.4202882019
 20
97428.59509936709
 30
0.0
 40
0.0042386909827818
  0
CIRCLE
  5
F6C83
330
1F
100
AcDbEntity
  8
freecads.com
100
AcDbCircle
 10
107012.4072287899
 20
97428.60010092847
 30
0.0
 40
0.0042386909827818
  0
CIRCLE
  5
F6C84
330
1F
100
AcDbEntity
  8
freecads.com
100
AcDbCircle
 10
107012.4621753336
 20
97428.60215867631
 30
0.0
 40
0.0042386909827818
  0
CIRCLE
  5
F6C85
330
1F
100
AcDbEntity
  8
freecads.com
100
AcDbCircle
 10
107012.448266411
 20
97428.60360978911
 30
0.0
 40
0.0042386909827818
  0
CIRCLE
  5
F6C86
330
1F
100
AcDbEntity
  8
freecads.com
100
AcDbCircle
 10
107012.4343574883
 20
97428.6050609019
 30
0.0
 40
0.0042386909827818
  0
CIRCLE
  5
F6C87
330
1F
100
AcDbEntity
  8
freecads.com
100
AcDbCircle
 10
107012.3713846188
 20
97428.58987790169
 30
0.0
 40
0.0042386909827818
  0
CIRCLE
  5
F6C88
330
1F
100
AcDbEntity
  8
freecads.com
100
AcDbCircle
 10
107012.362575617
 20
97428.60073908691
 30
0.0
 40
0.0042386909827818
  0
CIRCLE
  5
F6C89
330
1F
100
AcDbEntity
  8
freecads.com
100
AcDbCircle
 10
107012.3537666151
 20
97428.61160027214
 30
0.0
 40
0.0042386909827818
  0
ARC
  5
F6C8A
330
1F
100
AcDbEntity
  8
freecads.com
100
AcDbCircle
 10
107012.3364724191
 20
97428.84874787078
 30
0.0
 40
0.0463303124999992
100
AcDbArc
 50
20.89191237574243
 51
34.72328746406687
  0
LINE
  5
F6C8B
330
1F
100
AcDbEntity
  8
freecads.com
100
AcDbLine
 10
107012.3797567369
 20
97428.86526954411
 30
0.0
 11
107012.3824261303
 21
97428.85827613177
 31
0.0
  0
LINE
  5
F6C8C
330
1F
100
AcDbEntity
  8
freecads.com
100
AcDbLine
 10
107012.4094840392
 20
97428.89985105382
 30
0.0
 11
107012.4356377583
 21
97428.85578944749
 31
0.0
  0
ARC
  5
F6C8D
330
1F
100
AcDbEntity
  8
freecads.com
100
AcDbCircle
 10
107012.4306710944
 20
97428.89913076368
 30
0.0
 40
0.0115825781249998
100
AcDbArc
 50
124.451325135917
 51
210.6921655813585
  0
LINE
  5
F6C8E
330
1F
100
AcDbEntity
  8
freecads.com
100
AcDbLine
 10
107012.4207109798
 20
97428.8932187223
 30
0.0
 11
107012.4442265857
 21
97428.85360158936
 31
0.0
  0
ARC
  5
F6C8F
330
1F
100
AcDbEntity
  8
freecads.com
100
AcDbCircle
 10
107012.433204219
 20
97428.90086856537
 30
0.0
 40
0.0115825781249998
100
AcDbArc
 50
80.90758898683217
 51
124.451325135917
  0
CIRCLE
  5
F6C90
330
1F
100
AcDbEntity
  8
freecads.com
100
AcDbCircle
 10
107012.399843407
 20
97428.64763382765
 30
0.0
 40
0.0037905526419322
  0
CIRCLE
  5
F6C91
330
1F
100
AcDbEntity
  8
freecads.com
100
AcDbCircle
 10
107012.4561666023
 20
97428.64472883097
 30
0.0
 40
0.0085525283632787
  0
CIRCLE
  5
F6C92
330
1F
100
AcDbEntity
  8
freecads.com
100
AcDbCircle
 10
107012.4628393154
 20
97428.75982320891
 30
0.0
 40
0.0085525283632787
  0
CIRCLE
  5
F6C93
330
1F
100
AcDbEntity
  8
freecads.com
100
AcDbCircle
 10
107012.4275770508
 20
97428.78300210731
 30
0.0
 40
0.0085525283632787
  0
CIRCLE
  5
F6C94
330
1F
100
AcDbEntity
  8
freecads.com
100
AcDbCircle
 10
107012.376334489
 20
97428.62822264575
 30
0.0
 40
0.0085525283632787
  0
CIRCLE
  5
F6C95
330
1F
100
AcDbEntity
  8
freecads.com
100
AcDbCircle
 10
107012.4343257684
 20
97428.65746512944
 30
0.0
 40
0.0037905526419322
  0
CIRCLE
  5
F6C96
330
1F
100
AcDbEntity
  8
freecads.com
100
AcDbCircle
 10
107012.4564438906
 20
97428.68568704313
 30
0.0
 40
0.0037905526419322
  0
CIRCLE
  5
F6C97
330
1F
100
AcDbEntity
  8
freecads.com
100
AcDbCircle
 10
107012.4577494026
 20
97428.72151975696
 30
0.0
 40
0.0037905526419322
  0
CIRCLE
  5
F6C98
330
1F
100
AcDbEntity
  8
freecads.com
100
AcDbCircle
 10
107012.4377436433
 20
97428.75127639212
 30
0.0
 40
0.0037905526419322
  0
CIRCLE
  5
F6C99
330
1F
100
AcDbEntity
  8
freecads.com
100
AcDbCircle
 10
107012.3661678964
 20
97428.65994836094
 30
0.0
 40
0.0037905526419322
  0
CIRCLE
  5
F6C9A
330
1F
100
AcDbEntity
  8
freecads.com
100
AcDbCircle
 10
107012.4614395205
 20
97428.80949089864
 30
0.0
 40
0.0042386909827818
  0
CIRCLE
  5
F6C9B
330
1F
100
AcDbEntity
  8
freecads.com
100
AcDbCircle
 10
107012.4671372813
 20
97428.79671986189
 30
0.0
 40
0.0042386909827818
  0
CIRCLE
  5
F6C9C
330
1F
100
AcDbEntity
  8
freecads.com
100
AcDbCircle
 10
107012.4728350421
 20
97428.78394882513
 30
0.0
 40
0.0042386909827818
  0
CIRCLE
  5
F6C9D
330
1F
100
AcDbEntity
  8
freecads.com
100
AcDbCircle
 10
107012.450043999
 20
97428.83503297212
 30
0.0
 40
0.0042386909827818
  0
CIRCLE
  5
F6C9E
330
1F
100
AcDbEntity
  8
freecads.com
100
AcDbCircle
 10
107012.4557417597
 20
97428.82226193538
 30
0.0
 40
0.0042386909827818
  0
CIRCLE
  5
F6C9F
330
1F
100
AcDbEntity
  8
freecads.com
100
AcDbCircle
 10
107012.432526921
 20
97428.82134685137
 30
0.0
 40
0.0042386909827818
  0
CIRCLE
  5
F6CA0
330
1F
100
AcDbEntity
  8
freecads.com
100
AcDbCircle
 10
107012.4413359228
 20
97428.81048566616
 30
0.0
 40
0.0042386909827818
  0
CIRCLE
  5
F6CA1
330
1F
100
AcDbEntity
  8
freecads.com
100
AcDbCircle
 10
107012.4501449246
 20
97428.79962448093
 30
0.0
 40
0.0042386909827818
  0
CIRCLE
  5
F6CA2
330
1F
100
AcDbEntity
  8
freecads.com
100
AcDbCircle
 10
107012.4149089173
 20
97428.84306922181
 30
0.0
 40
0.0042386909827818
  0
CIRCLE
  5
F6CA3
330
1F
100
AcDbEntity
  8
freecads.com
100
AcDbCircle
 10
107012.4237179191
 20
97428.83220803658
 30
0.0
 40
0.0042386909827818
  0
CIRCLE
  5
F6CA4
330
1F
100
AcDbEntity
  8
freecads.com
100
AcDbCircle
 10
107012.401530948
 20
97428.8253156909
 30
0.0
 40
0.0042386909827818
  0
CIRCLE
  5
F6CA5
330
1F
100
AcDbEntity
  8
freecads.com
100
AcDbCircle
 10
107012.4128508719
 20
97428.81710452904
 30
0.0
 40
0.0042386909827818
  0
CIRCLE
  5
F6CA6
330
1F
100
AcDbEntity
  8
freecads.com
100
AcDbCircle
 10
107012.4241707959
 20
97428.80889336717
 30
0.0
 40
0.0042386909827818
  0
CIRCLE
  5
F6CA7
330
1F
100
AcDbEntity
  8
freecads.com
100
AcDbCircle
 10
107012.3788911001
 20
97428.84173801463
 30
0.0
 40
0.0042386909827818
  0
CIRCLE
  5
F6CA8
330
1F
100
AcDbEntity
  8
freecads.com
100
AcDbCircle
 10
107012.390211024
 20
97428.83352685275
 30
0.0
 40
0.0042386909827818
  0
ARC
  5
F6CA9
330
1F
100
AcDbEntity
  8
freecads.com
100
AcDbCircle
 10
107012.3836233379
 20
97428.81612538598
 30
0.0
 40
0.0042386909827818
100
AcDbArc
 50
291.1511998300384
 51
124.3514291739939
  0
CIRCLE
  5
F6CAA
330
1F
100
AcDbEntity
  8
freecads.com
100
AcDbCircle
 10
107012.3966827499
 20
97428.81112382457
 30
0.0
 40
0.0042386909827818
  0
CIRCLE
  5
F6CAB
330
1F
100
AcDbEntity
  8
freecads.com
100
AcDbCircle
 10
107012.4019557699
 20
97428.70561237653
 30
0.0
 40
0.0118378698024226
  0
LINE
  5
F6CAC
330
1F
100
AcDbEntity
  8
freecads.com
100
AcDbLine
 10
107012.3565009737
 20
97428.71737849126
 30
0.0
 11
107012.418002862
 21
97428.7497380016
 31
0.0
  0
CIRCLE
  5
F6CAD
330
1F
100
AcDbEntity
  8
freecads.com
100
AcDbCircle
 10
107012.4019557699
 20
97428.70561237653
 30
0.0
 40
0.0241895482437508
  0
ARC
  5
F6CAE
330
1F
100
AcDbEntity
  8
freecads.com
100
AcDbCircle
 10
107012.3984050447
 20
97428.71236081922
 30
0.0
 40
0.0347477343749996
100
AcDbArc
 50
207.7513145020787
 51
27.75131450207872
  0
CIRCLE
  5
F6CAF
330
1F
100
AcDbEntity
  8
freecads.com
100
AcDbCircle
 10
107012.4019557699
 20
97428.70561237653
 30
0.0
 40
0.0062128240625401
  0
CIRCLE
  5
F6CB0
330
1F
100
AcDbEntity
  8
freecads.com
100
AcDbCircle
 10
107012.4868991896
 20
97428.62126974564
 30
0.0
 40
0.0042386909827818
  0
LINE
  5
F6CB1
330
1F
100
AcDbEntity
  8
freecads.com
100
AcDbLine
 10
107012.5839423625
 20
97428.60218520968
 30
0.0
 11
107012.5151719341
 21
97428.60135438341
 31
0.0
  0
ARC
  5
F6CB2
330
1F
100
AcDbEntity
  8
freecads.com
100
AcDbCircle
 10
107012.555189947
 20
97428.58398498244
 30
0.0
 40
0.0115825781249998
100
AcDbArc
 50
4.451325136148772
 51
90.69216558115634
  0
LINE
  5
F6CB3
330
1F
100
AcDbEntity
  8
freecads.com
100
AcDbLine
 10
107012.5550500263
 20
97428.5955667154
 30
0.0
 11
107012.5089827798
 21
97428.59501016981
 31
0.0
  0
CIRCLE
  5
F6CB4
330
1F
100
AcDbEntity
  8
freecads.com
100
AcDbCircle
 10
107012.5749905374
 20
97428.61046527284
 30
0.0
 40
0.0045710774508125
  0
CIRCLE
  5
F6CB5
330
1F
100
AcDbEntity
  8
freecads.com
100
AcDbCircle
 10
107012.4899931789
 20
97428.59925645074
 30
0.0
 40
0.0042386909827818
  0
LINE
  5
F6CB6
330
1F
100
AcDbEntity
  8
freecads.com
100
AcDbLine
 10
107012.6183712349
 20
97428.94247839087
 30
0.0
 11
107012.6365229762
 21
97428.962345412
 31
0.0
  0
LINE
  5
F6CB7
330
1F
100
AcDbEntity
  8
freecads.com
100
AcDbLine
 10
107012.6036508524
 20
97428.66498257573
 30
0.0
 11
107012.5842362356
 21
97428.65212624716
 31
0.0
  0
ARC
  5
F6CB8
330
1F
100
AcDbEntity
  8
freecads.com
100
AcDbCircle
 10
107012.5586564195
 20
97428.69075487471
 30
0.0
 40
0.0463303124999992
100
AcDbArc
 50
260.8919123757875
 51
303.5124629056086
  0
LINE
  5
F6CB9
330
1F
100
AcDbEntity
  8
freecads.com
100
AcDbLine
 10
107012.5513224494
 20
97428.64500871926
 30
0.0
 11
107012.5439312799
 21
97428.64619366288
 31
0.0
  0
ARC
  5
F6CBA
330
1F
100
AcDbEntity
  8
freecads.com
100
AcDbCircle
 10
107012.5972558984
 20
97428.6746397326
 30
0.0
 40
0.0115825781249998
100
AcDbArc
 50
303.5124629056086
 51
350.9885118700986
  0
CIRCLE
  5
F6CBB
330
1F
100
AcDbEntity
  8
freecads.com
100
AcDbCircle
 10
107012.5145203161
 20
97428.62566619916
 30
0.0
 40
0.0042386909827818
  0
CIRCLE
  5
F6CBC
330
1F
100
AcDbEntity
  8
freecads.com
100
AcDbCircle
 10
107012.5007097529
 20
97428.6234679724
 30
0.0
 40
0.0042386909827818
  0
CIRCLE
  5
F6CBD
330
1F
100
AcDbEntity
  8
freecads.com
100
AcDbCircle
 10
107012.505834292
 20
97428.64612862588
 30
0.0
 40
0.0042386909827818
  0
CIRCLE
  5
F6CBE
330
1F
100
AcDbEntity
  8
freecads.com
100
AcDbCircle
 10
107012.4930632552
 20
97428.64043086511
 30
0.0
 40
0.0042386909827818
  0
CIRCLE
  5
F6CBF
330
1F
100
AcDbEntity
  8
freecads.com
100
AcDbCircle
 10
107012.5313763655
 20
97428.65752414745
 30
0.0
 40
0.0042386909827818
  0
CIRCLE
  5
F6CC0
330
1F
100
AcDbEntity
  8
freecads.com
100
AcDbCircle
 10
107012.5186053287
 20
97428.65182638668
 30
0.0
 40
0.0042386909827818
  0
CIRCLE
  5
F6CC1
330
1F
100
AcDbEntity
  8
freecads.com
100
AcDbCircle
 10
107012.5176902447
 20
97428.67504122544
 30
0.0
 40
0.0042386909827818
  0
CIRCLE
  5
F6CC2
330
1F
100
AcDbEntity
  8
freecads.com
100
AcDbCircle
 10
107012.5068290595
 20
97428.66623222361
 30
0.0
 40
0.0042386909827818
  0
CIRCLE
  5
F6CC3
330
1F
100
AcDbEntity
  8
freecads.com
100
AcDbCircle
 10
107012.4959678743
 20
97428.65742322178
 30
0.0
 40
0.0042386909827818
  0
CIRCLE
  5
F6CC4
330
1F
100
AcDbEntity
  8
freecads.com
100
AcDbCircle
 10
107012.5394126152
 20
97428.69265922911
 30
0.0
 40
0.0042386909827818
  0
CIRCLE
  5
F6CC5
330
1F
100
AcDbEntity
  8
freecads.com
100
AcDbCircle
 10
107012.5285514299
 20
97428.68385022728
 30
0.0
 40
0.0042386909827818
  0
CIRCLE
  5
F6CC6
330
1F
100
AcDbEntity
  8
freecads.com
100
AcDbCircle
 10
107012.5216590843
 20
97428.70603719842
 30
0.0
 40
0.0042386909827818
  0
CIRCLE
  5
F6CC7
330
1F
100
AcDbEntity
  8
freecads.com
100
AcDbCircle
 10
107012.5134479224
 20
97428.69471727445
 30
0.0
 40
0.0042386909827818
  0
CIRCLE
  5
F6CC8
330
1F
100
AcDbEntity
  8
freecads.com
100
AcDbCircle
 10
107012.5052367605
 20
97428.6833973505
 30
0.0
 40
0.0042386909827818
  0
CIRCLE
  5
F6CC9
330
1F
100
AcDbEntity
  8
freecads.com
100
AcDbCircle
 10
107012.538081408
 20
97428.72867704633
 30
0.0
 40
0.0042386909827818
  0
CIRCLE
  5
F6CCA
330
1F
100
AcDbEntity
  8
freecads.com
100
AcDbCircle
 10
107012.5298702461
 20
97428.71735712236
 30
0.0
 40
0.0042386909827818
  0
CIRCLE
  5
F6CCB
330
1F
100
AcDbEntity
  8
freecads.com
100
AcDbCircle
 10
107012.5174703407
 20
97428.73700422048
 30
0.0
 40
0.0042386909827818
  0
CIRCLE
  5
F6CCC
330
1F
100
AcDbEntity
  8
freecads.com
100
AcDbCircle
 10
107012.5124687793
 20
97428.72394480849
 30
0.0
 40
0.0042386909827818
  0
CIRCLE
  5
F6CCD
330
1F
100
AcDbEntity
  8
freecads.com
100
AcDbCircle
 10
107012.5074672179
 20
97428.71088539653
 30
0.0
 40
0.0042386909827818
  0
CIRCLE
  5
F6CCE
330
1F
100
AcDbEntity
  8
freecads.com
100
AcDbCircle
 10
107012.5274734635
 20
97428.76312304442
 30
0.0
 40
0.0042386909827818
  0
CIRCLE
  5
F6CCF
330
1F
100
AcDbEntity
  8
freecads.com
100
AcDbCircle
 10
107012.5224719021
 20
97428.75006363245
 30
0.0
 40
0.0042386909827818
  0
CIRCLE
  5
F6CD0
330
1F
100
AcDbEntity
  8
freecads.com
100
AcDbCircle
 10
107012.5054094701
 20
97428.76583194025
 30
0.0
 40
0.0042386909827818
  0
CIRCLE
  5
F6CD1
330
1F
100
AcDbEntity
  8
freecads.com
100
AcDbCircle
 10
107012.5039583573
 20
97428.75192301761
 30
0.0
 40
0.0042386909827818
  0
CIRCLE
  5
F6CD2
330
1F
100
AcDbEntity
  8
freecads.com
100
AcDbCircle
 10
107012.5025072445
 20
97428.73801409496
 30
0.0
 40
0.0042386909827818
  0
CIRCLE
  5
F6CD3
330
1F
100
AcDbEntity
  8
freecads.com
100
AcDbCircle
 10
107012.5083116957
 20
97428.79364978556
 30
0.0
 40
0.0042386909827818
  0
CIRCLE
  5
F6CD4
330
1F
100
AcDbEntity
  8
freecads.com
100
AcDbCircle
 10
107012.5068605829
 20
97428.77974086292
 30
0.0
 40
0.0042386909827818
  0
CIRCLE
  5
F6CD5
330
1F
100
AcDbEntity
  8
freecads.com
100
AcDbCircle
 10
107012.4862984008
 20
97428.7905557963
 30
0.0
 40
0.0042386909827818
  0
CIRCLE
  5
F6CD6
330
1F
100
AcDbEntity
  8
freecads.com
100
AcDbCircle
 10
107012.4884966275
 20
97428.77674523306
 30
0.0
 40
0.0042386909827818
  0
CIRCLE
  5
F6CD7
330
1F
100
AcDbEntity
  8
freecads.com
100
AcDbCircle
 10
107012.4906948543
 20
97428.76293466983
 30
0.0
 40
0.0042386909827818
  0
CIRCLE
  5
F6CD8
330
1F
100
AcDbEntity
  8
freecads.com
100
AcDbCircle
 10
107012.484100174
 20
97428.80436635951
 30
0.0
 40
0.0042386909827818
  0
LINE
  5
F6CD9
330
1F
100
AcDbEntity
  8
freecads.com
100
AcDbLine
 10
107012.6589221872
 20
97428.89773062822
 30
0.0
 11
107012.6804751198
 21
97428.91384445263
 31
0.0
  0
LINE
  5
F6CDA
330
1F
100
AcDbEntity
  8
freecads.com
100
AcDbLine
 10
107012.6463519178
 20
97428.91348658158
 30
0.0
 11
107012.6668505252
 21
97428.93092192888
 31
0.0
  0
LINE
  5
F6CDB
330
1F
100
AcDbEntity
  8
freecads.com
100
AcDbLine
 10
107012.6328171285
 20
97428.92842215042
 30
0.0
 11
107012.6521805121
 21
97428.94711021126
 31
0.0
  0
ARC
  5
F6CDC
330
1F
100
AcDbEntity
  8
freecads.com
100
AcDbCircle
 10
107012.37709628
 20
97429.23476166383
 30
0.0
 40
0.0463303124999992
100
AcDbArc
 50
316.766497615255
 51
0.9224523943852194
  0
LINE
  5
F6CDD
330
1F
100
AcDbEntity
  8
freecads.com
100
AcDbLine
 10
107012.5701536569
 20
97428.97883505689
 30
0.0
 11
107012.5842611724
 21
97429.00175147559
 31
0.0
  0
LINE
  5
F6CDE
330
1F
100
AcDbEntity
  8
freecads.com
100
AcDbLine
 10
107012.5526659627
 20
97428.98885714705
 30
0.0
 11
107012.5653067065
 21
97429.01261416365
 31
0.0
  0
LINE
  5
F6CDF
330
1F
100
AcDbEntity
  8
freecads.com
100
AcDbLine
 10
107012.6809747319
 20
97428.86400928643
 30
0.0
 11
107012.7043773109
 21
97428.87729474979
 31
0.0
  0
LINE
  5
F6CE0
330
1F
100
AcDbEntity
  8
freecads.com
100
AcDbLine
 10
107012.6704783275
 20
97428.8812164719
 30
0.0
 11
107012.6930005257
 21
97428.89594517953
 31
0.0
  0
ARC
  5
F6CE1
330
1F
100
AcDbEntity
  8
freecads.com
100
AcDbCircle
 10
107011.8941060593
 20
97429.22698493073
 30
0.0
 40
0.5293831366147587
100
AcDbArc
 50
0.9224523943852194
 51
30.20744542926109
  0
ARC
  5
F6CE2
330
1F
100
AcDbEntity
  8
freecads.com
100
AcDbCircle
 10
107011.3939775784
 20
97429.02644959681
 30
0.0
 40
1.035915002945485
100
AcDbArc
 50
10.59081139038544
 51
19.41387852319931
  0
ARC
  5
F6CE3
330
1F
100
AcDbEntity
  8
freecads.com
100
AcDbCircle
 10
107011.8941060593
 20
97429.22698493073
 30
0.0
 40
0.5293831366147587
100
AcDbArc
 50
43.41619885080116
 51
62.50589408128829
  0
LINE
  5
F6CE4
330
1F
100
AcDbEntity
  8
freecads.com
100
AcDbLine
 10
107012.1227706027
 20
97429.69143962874
 30
0.0
 11
107012.1136761001
 21
97429.67305387614
 31
0.0
  0
LINE
  5
F6CE5
330
1F
100
AcDbEntity
  8
freecads.com
100
AcDbLine
 10
107012.124450332
 20
97429.30765852371
 30
0.0
 11
107012.0670545166
 21
97429.41674395162
 31
0.0
  0
LINE
  5
F6CE6
330
1F
100
AcDbEntity
  8
freecads.com
100
AcDbLine
 10
107012.1951827798
 20
97429.39349084911
 30
0.0
 11
107012.1731572857
 21
97429.32120790269
 31
0.0
  0
LINE
  5
F6CE7
330
1F
100
AcDbEntity
  8
freecads.com
100
AcDbLine
 10
107012.019070797
 20
97429.328479753
 30
0.0
 11
107012.0360891898
 21
97429.3103359982
 31
0.0
  0
LINE
  5
F6CE8
330
1F
100
AcDbEntity
  8
freecads.com
100
AcDbLine
 10
107012.1166429396
 20
97429.36136530358
 30
0.0
 11
107012.1427378277
 21
97429.31940788361
 31
0.0
  0
ARC
  5
F6CE9
330
1F
100
AcDbEntity
  8
freecads.com
100
AcDbCircle
 10
107012.3793889055
 20
97429.3624332993
 30
0.0
 40
0.2299152944368327
100
AcDbArc
 50
179.4363352545913
 51
191.8085223870237
  0
ARC
  5
F6CEA
330
1F
100
AcDbEntity
  8
freecads.com
100
AcDbCircle
 10
107012.3793889055
 20
97429.3624332993
 30
0.0
 40
0.2229657475618328
100
AcDbArc
 50
179.4363352545913
 51
191.8085223870237
  0
LINE
  5
F6CEB
330
1F
100
AcDbEntity
  8
freecads.com
100
AcDbLine
 10
107012.3250327241
 20
97429.30068261186
 30
0.0
 11
107012.2960182698
 21
97429.30068261186
 31
0.0
  0
ARC
  5
F6CEC
330
1F
100
AcDbEntity
  8
freecads.com
100
AcDbCircle
 10
107012.3250327241
 20
97429.28910003374
 30
0.0
 40
0.0115825781249998
100
AcDbArc
 50
0.0
 51
90.0
  0
ARC
  5
F6CED
330
1F
100
AcDbEntity
  8
freecads.com
100
AcDbCircle
 10
107011.8700524521
 20
97429.23651553907
 30
0.0
 40
0.4890447637698711
100
AcDbArc
 50
34.55991472840462
 51
59.52233999164949
  0
ARC
  5
F6CEE
330
1F
100
AcDbEntity
  8
freecads.com
100
AcDbCircle
 10
107012.093191816
 20
97429.44600379678
 30
0.0
 40
0.0750160683516095
100
AcDbArc
 50
334.4039676464372
 51
81.62407908831911
  0
ARC
  5
F6CEF
330
1F
100
AcDbEntity
  8
freecads.com
100
AcDbCircle
 10
107012.093191816
 20
97429.44600379678
 30
0.0
 40
0.0819656152266093
100
AcDbArc
 50
334.4039676464372
 51
81.62407908831911
  0
ARC
  5
F6CF0
330
1F
100
AcDbEntity
  8
freecads.com
100
AcDbCircle
 10
107012.124057997
 20
97429.66791847635
 30
0.0
 40
0.0115825781249998
100
AcDbArc
 50
153.6807238495285
 51
239.0264668420357
  0
LINE
  5
F6CF1
330
1F
100
AcDbEntity
  8
freecads.com
100
AcDbLine
 10
107012.0248135488
 20
97429.46133876797
 30
0.0
 11
107012.0174126802
 21
97429.5449059568
 31
0.0
  0
LINE
  5
F6CF2
330
1F
100
AcDbEntity
  8
freecads.com
100
AcDbLine
 10
107012.0387423913
 20
97429.46207165141
 30
0.0
 11
107012.0248135488
 21
97429.46133876797
 31
0.0
  0
LINE
  5
F6CF3
330
1F
100
AcDbEntity
  8
freecads.com
100
AcDbLine
 10
107012.0343829557
 20
97429.41903523819
 30
0.0
 11
107012.0644531941
 21
97429.4520840456
 31
0.0
  0
LINE
  5
F6CF4
330
1F
100
AcDbEntity
  8
freecads.com
100
AcDbLine
 10
107012.0644531941
 20
97429.4520840456
 30
0.0
 11
107012.1393341535
 21
97429.4792996698
 31
0.0
  0
LINE
  5
F6CF5
330
1F
100
AcDbEntity
  8
freecads.com
100
AcDbLine
 10
107012.1393341535
 20
97429.4792996698
 30
0.0
 11
107012.1279885509
 21
97429.50197934327
 31
0.0
  0
LINE
  5
F6CF6
330
1F
100
AcDbEntity
  8
freecads.com
100
AcDbLine
 10
107012.1279885509
 20
97429.50197934327
 30
0.0
 11
107012.0860098455
 21
97429.50424731063
 31
0.0
  0
LINE
  5
F6CF7
330
1F
100
AcDbEntity
  8
freecads.com
100
AcDbLine
 10
107012.025746797
 20
97429.42911985567
 30
0.0
 11
107012.0485693548
 21
97429.45435201294
 31
0.0
  0
LINE
  5
F6CF8
330
1F
100
AcDbEntity
  8
freecads.com
100
AcDbLine
 10
107012.0485693548
 20
97429.45435201294
 30
0.0
 11
107012.0962208725
 21
97429.48383560449
 31
0.0
  0
LINE
  5
F6CF9
330
1F
100
AcDbEntity
  8
freecads.com
100
AcDbLine
 10
107012.0962208725
 20
97429.48383560449
 30
0.0
 11
107012.074664243
 21
97429.4872375475
 31
0.0
  0
LINE
  5
F6CFA
330
1F
100
AcDbEntity
  8
freecads.com
100
AcDbLine
 10
107012.074664243
 20
97429.4872375475
 30
0.0
 11
107012.0860098455
 21
97429.50424731063
 31
0.0
  0
LINE
  5
F6CFB
330
1F
100
AcDbEntity
  8
freecads.com
100
AcDbLine
 10
107012.1056276132
 20
97429.50318742904
 30
0.0
 11
107012.101540921
 21
97429.54933246922
 31
0.0
  0
LINE
  5
F6CFC
330
1F
100
AcDbEntity
  8
freecads.com
100
AcDbLine
 10
107012.0340545501
 20
97429.33021421436
 30
0.0
 11
107012.0955564385
 21
97429.3625737247
 31
0.0
  0
LINE
  5
F6CFD
330
1F
100
AcDbEntity
  8
freecads.com
100
AcDbLine
 10
107012.0232680467
 20
97429.3507148438
 30
0.0
 11
107012.084769935
 21
97429.38307435414
 31
0.0
  0
LINE
  5
F6CFE
330
1F
100
AcDbEntity
  8
freecads.com
100
AcDbLine
 10
107012.0860098455
 20
97429.50424731063
 30
0.0
 11
107012.0678568683
 21
97429.51898910641
 31
0.0
  0
LINE
  5
F6CFF
330
1F
100
AcDbEntity
  8
freecads.com
100
AcDbLine
 10
107012.0678568683
 20
97429.51898910641
 30
0.0
 11
107012.0338200825
 21
97429.50878326134
 31
0.0
  0
LINE
  5
F6D00
330
1F
100
AcDbEntity
  8
freecads.com
100
AcDbLine
 10
107012.0338200825
 20
97429.50878326134
 30
0.0
 11
107012.0224110741
 21
97429.48846640206
 31
0.0
  0
LINE
  5
F6D01
330
1F
100
AcDbEntity
  8
freecads.com
100
AcDbLine
 10
107012.0224110741
 20
97429.48846640206
 30
0.0
 11
107012.0449170186
 21
97429.45209219005
 31
0.0
  0
LINE
  5
F6D02
330
1F
100
AcDbEntity
  8
freecads.com
100
AcDbLine
 10
107012.0292818459
 20
97429.48610357183
 30
0.0
 11
107012.0689914219
 21
97429.48610357183
 31
0.0
  0
LINE
  5
F6D03
330
1F
100
AcDbEntity
  8
freecads.com
100
AcDbLine
 10
107012.0417620021
 20
97429.50538130232
 30
0.0
 11
107012.0814716001
 21
97429.50538130232
 31
0.0
  0
LINE
  5
F6D04
330
1F
100
AcDbEntity
  8
freecads.com
100
AcDbLine
 10
107012.0962208637
 20
97429.53259692651
 30
0.0
 11
107012.0304163996
 21
97429.53032895917
 31
0.0
  0
LINE
  5
F6D05
330
1F
100
AcDbEntity
  8
freecads.com
100
AcDbLine
 10
107012.1151388643
 20
97429.39579077541
 30
0.0
 11
107012.098489993
 21
97429.37043717299
 31
0.0
  0
ARC
  5
F6D06
330
1F
100
AcDbEntity
  8
freecads.com
100
AcDbCircle
 10
107012.2653049132
 20
97429.36355567167
 30
0.0
 40
0.1158257812499979
100
AcDbArc
 50
154.4039676464372
 51
179.4363352545913
  0
ARC
  5
F6D07
330
1F
100
AcDbEntity
  8
freecads.com
100
AcDbCircle
 10
107012.2653049132
 20
97429.36355567167
 30
0.0
 40
0.108876234374998
100
AcDbArc
 50
154.4039676464372
 51
179.4363352545913
  0
LINE
  5
F6D08
330
1F
100
AcDbEntity
  8
freecads.com
100
AcDbLine
 10
107012.1180971151
 20
97429.65798751452
 30
0.0
 11
107012.130842319
 21
97429.65033743422
 31
0.0
  0
LINE
  5
F6D09
330
1F
100
AcDbEntity
  8
freecads.com
100
AcDbLine
 10
107012.1506747857
 20
97429.33896216817
 30
0.0
 11
107012.1151388643
 21
97429.39579077541
 31
0.0
  0
LINE
  5
F6D0A
330
1F
100
AcDbEntity
  8
freecads.com
100
AcDbLine
 10
107012.1151388643
 20
97429.39579077541
 30
0.0
 11
107012.1087282992
 21
97429.46817591503
 31
0.0
  0
LINE
  5
F6D0B
330
1F
100
AcDbEntity
  8
freecads.com
100
AcDbLine
 10
107012.101540921
 20
97429.54933246922
 30
0.0
 11
107012.0174126802
 21
97429.5449059568
 31
0.0
  0
ARC
  5
F6D0C
330
1F
100
AcDbEntity
  8
freecads.com
100
AcDbCircle
 10
107012.0366391595
 20
97429.4183524031
 30
0.0
 40
0.2574114813185647
100
AcDbArc
 50
354.6836050441033
 51
15.78646803047757
  0
ARC
  5
F6D0D
330
1F
100
AcDbEntity
  8
freecads.com
100
AcDbCircle
 10
107012.2698778098
 20
97429.39664819125
 30
0.0
 40
0.0231651562499996
100
AcDbArc
 50
310.6454994544545
 51
354.6836050441033
  0
ARC
  5
F6D0E
330
1F
100
AcDbEntity
  8
freecads.com
100
AcDbCircle
 10
107012.538777276
 20
97429.53239258625
 30
0.0
 40
0.2666197761598909
100
AcDbArc
 50
161.111541883644
 51
187.3089833223886
  0
ARC
  5
F6D0F
330
1F
100
AcDbEntity
  8
freecads.com
100
AcDbCircle
 10
107012.2858123806
 20
97429.49994672208
 30
0.0
 40
0.0115825781249998
100
AcDbArc
 50
187.3089833223886
 51
269.3701190808334
  0
ARC
  5
F6D10
330
1F
100
AcDbEntity
  8
freecads.com
100
AcDbCircle
 10
107012.2974736803
 20
97429.61495496953
 30
0.0
 40
0.0115825781249998
100
AcDbArc
 50
68.10049423173921
 51
161.111541883644
  0
LINE
  5
F6D11
330
1F
100
AcDbEntity
  8
freecads.com
100
AcDbLine
 10
107012.3393654777
 20
97429.39276736281
 30
0.0
 11
107012.3091133496
 21
97429.43949693172
 31
0.0
  0
LINE
  5
F6D12
330
1F
100
AcDbEntity
  8
freecads.com
100
AcDbLine
 10
107012.3091133496
 20
97429.43949693172
 30
0.0
 11
107012.319260008
 21
97429.4699214238
 31
0.0
  0
LINE
  5
F6D13
330
1F
100
AcDbEntity
  8
freecads.com
100
AcDbLine
 10
107012.3091209779
 20
97429.48882317968
 30
0.0
 11
107012.3407405765
 21
97429.42987612776
 31
0.0
  0
LINE
  5
F6D14
330
1F
100
AcDbEntity
  8
freecads.com
100
AcDbLine
 10
107012.3407405765
 20
97429.42987612776
 30
0.0
 11
107012.3434907739
 21
97429.41475774442
 31
0.0
  0
LINE
  5
F6D15
330
1F
100
AcDbEntity
  8
freecads.com
100
AcDbLine
 10
107012.1951827798
 20
97429.39349084911
 30
0.0
 11
107012.2584325955
 21
97429.46935209307
 31
0.0
  0
LINE
  5
F6D16
330
1F
100
AcDbEntity
  8
freecads.com
100
AcDbLine
 10
107012.1843668528
 20
97429.40250870001
 30
0.0
 11
107012.1951827798
 21
97429.39349084911
 31
0.0
  0
ARC
  5
F6D17
330
1F
100
AcDbEntity
  8
freecads.com
100
AcDbCircle
 10
107012.2150992529
 20
97429.44118345628
 30
0.0
 40
0.0516841433951025
100
AcDbArc
 50
247.334543484605
 51
33.02569314879817
  0
LINE
  5
F6D18
330
1F
100
AcDbEntity
  8
freecads.com
100
AcDbLine
 10
107012.2437449399
 20
97429.55198139384
 30
0.0
 11
107012.2727237347
 21
97429.54975974585
 31
0.0
  0
LINE
  5
F6D19
330
1F
100
AcDbEntity
  8
freecads.com
100
AcDbLine
 10
107012.1843668528
 20
97429.40250870001
 30
0.0
 11
107012.2529147842
 21
97429.4847244549
 31
0.0
  0
LINE
  5
F6D1A
330
1F
100
AcDbEntity
  8
freecads.com
100
AcDbLine
 10
107012.2584325955
 20
97429.46935209307
 30
0.0
 11
107012.2407980807
 21
97429.51848101908
 31
0.0
  0
LINE
  5
F6D1B
330
1F
100
AcDbEntity
  8
freecads.com
100
AcDbLine
 10
107012.2407980807
 20
97429.51848101908
 30
0.0
 11
107012.2371731655
 21
97429.53605293198
 31
0.0
  0
LINE
  5
F6D1C
330
1F
100
AcDbEntity
  8
freecads.com
100
AcDbLine
 10
107012.2371731655
 20
97429.53605293198
 30
0.0
 11
107012.2437449399
 21
97429.55198139384
 31
0.0
  0
ARC
  5
F6D1D
330
1F
100
AcDbEntity
  8
freecads.com
100
AcDbCircle
 10
107012.1331524997
 20
97429.68630422895
 30
0.0
 40
0.0115825781249998
100
AcDbArc
 50
62.50589408128829
 51
153.6807238495285
  0
ARC
  5
F6D1E
330
1F
100
AcDbEntity
  8
freecads.com
100
AcDbCircle
 10
107011.7098851171
 20
97429.03352682487
 30
0.0
 40
0.3840127206261581
100
AcDbArc
 50
42.80645363380992
 51
79.28621141088787
  0
LINE
  5
F6D1F
330
1F
100
AcDbEntity
  8
freecads.com
100
AcDbLine
 10
107011.7935153326
 20
97429.2937895648
 30
0.0
 11
107011.9916173282
 21
97429.2944726638
 31
0.0
  0
CIRCLE
  5
F6D20
330
1F
100
AcDbEntity
  8
freecads.com
100
AcDbCircle
 10
107011.8750112352
 20
97429.41502974055
 30
0.0
 40
0.0128961753520812
  0
ARC
  5
F6D21
330
1F
100
AcDbEntity
  8
freecads.com
100
AcDbCircle
 10
107011.8797026042
 20
97429.41745508028
 30
0.0
 40
0.025083905425972
100
AcDbArc
 50
84.69577804168007
 51
329.9802596660569
  0
CIRCLE
  5
F6D22
330
1F
100
AcDbEntity
  8
freecads.com
100
AcDbCircle
 10
107011.8797026042
 20
97429.41745508028
 30
0.0
 40
0.022624258679154
  0
ARC
  5
F6D23
330
1F
100
AcDbEntity
  8
freecads.com
100
AcDbCircle
 10
107011.8243390048
 20
97429.63845890132
 30
0.0
 40
0.2316515624999958
100
AcDbArc
 50
253.6081647726977
 51
259.2862114108879
  0
LINE
  5
F6D24
330
1F
100
AcDbEntity
  8
freecads.com
100
AcDbLine
 10
107011.7668589809
 20
97429.42582402696
 30
0.0
 11
107011.7957210099
 21
97429.40782345739
 31
0.0
  0
LINE
  5
F6D25
330
1F
100
AcDbEntity
  8
freecads.com
100
AcDbLine
 10
107011.9953611126
 20
97429.34718840249
 30
0.0
 11
107012.0100118116
 21
97429.32518997719
 31
0.0
  0
LINE
  5
F6D26
330
1F
100
AcDbEntity
  8
freecads.com
100
AcDbLine
 10
107012.0100118116
 20
97429.32518997719
 30
0.0
 11
107011.9843353288
 21
97429.30319155188
 31
0.0
  0
ARC
  5
F6D27
330
1F
100
AcDbEntity
  8
freecads.com
100
AcDbCircle
 10
107011.9749027328
 20
97429.4666715571
 30
0.0
 40
0.0386335344280943
100
AcDbArc
 50
237.2966694205374
 51
177.3793682865693
  0
LINE
  5
F6D28
330
1F
100
AcDbEntity
  8
freecads.com
100
AcDbLine
 10
107011.9061312194
 20
97429.40939985047
 30
0.0
 11
107011.9661939652
 21
97429.44045103472
 31
0.0
  0
LINE
  5
F6D29
330
1F
100
AcDbEntity
  8
freecads.com
100
AcDbLine
 10
107011.8884113719
 20
97429.44367560266
 30
0.0
 11
107011.9484741177
 21
97429.47472678691
 31
0.0
  0
ARC
  5
F6D2A
330
1F
100
AcDbEntity
  8
freecads.com
100
AcDbCircle
 10
107011.9749027328
 20
97429.4666715571
 30
0.0
 40
0.025083905425972
100
AcDbArc
 50
264.6957780425103
 51
149.980259665335
  0
ARC
  5
F6D2B
330
1F
100
AcDbEntity
  8
freecads.com
100
AcDbCircle
 10
107011.8830921991
 20
97429.4539645539
 30
0.0
 40
0.0115825781249998
100
AcDbArc
 50
264.6957780416801
 51
297.3380188536802
  0
ARC
  5
F6D2C
330
1F
100
AcDbEntity
  8
freecads.com
100
AcDbCircle
 10
107011.9114503921
 20
97429.39911089923
 30
0.0
 40
0.0115825781249998
100
AcDbArc
 50
117.3380188536802
 51
149.9802596660569
  0
ARC
  5
F6D2D
330
1F
100
AcDbEntity
  8
freecads.com
100
AcDbCircle
 10
107011.9715131379
 20
97429.43016208348
 30
0.0
 40
0.0115825781249998
100
AcDbArc
 50
84.69577804251027
 51
117.3380188536802
  0
ARC
  5
F6D2E
330
1F
100
AcDbEntity
  8
freecads.com
100
AcDbCircle
 10
107011.9431549449
 20
97429.48501573815
 30
0.0
 40
0.0115825781249998
100
AcDbArc
 50
297.3380188536802
 51
329.980259665335
  0
ARC
  5
F6D2F
330
1F
100
AcDbEntity
  8
freecads.com
100
AcDbCircle
 10
107011.9632271272
 20
97429.460635513
 30
0.0
 40
0.0186874644145811
100
AcDbArc
 50
297.3380188536802
 51
117.3380188536802
  0
LINE
  5
F6D30
330
1F
100
AcDbEntity
  8
freecads.com
100
AcDbLine
 10
107011.9917361974
 20
97429.3867587407
 30
0.0
 11
107011.9797344848
 21
97429.40997382355
 31
0.0
  0
LINE
  5
F6D31
330
1F
100
AcDbEntity
  8
freecads.com
100
AcDbLine
 10
107011.9797344848
 20
97429.40997382355
 30
0.0
 11
107012.0018426618
 21
97429.42140328899
 31
0.0
  0
LINE
  5
F6D32
330
1F
100
AcDbEntity
  8
freecads.com
100
AcDbLine
 10
107012.0018426618
 20
97429.42140328899
 30
0.0
 11
107011.9948557893
 21
97429.43314361754
 31
0.0
  0
LINE
  5
F6D33
330
1F
100
AcDbEntity
  8
freecads.com
100
AcDbLine
 10
107011.9917361974
 20
97429.3867587407
 30
0.0
 11
107011.9953611126
 21
97429.34718840249
 31
0.0
  0
LINE
  5
F6D34
330
1F
100
AcDbEntity
  8
freecads.com
100
AcDbLine
 10
107012.0519005286
 20
97429.2962964771
 30
0.0
 11
107012.0021268571
 21
97429.39089539865
 31
0.0
  0
CIRCLE
  5
F6D35
330
1F
100
AcDbEntity
  8
freecads.com
100
AcDbCircle
 10
107012.0190708057
 20
97429.41466256032
 30
0.0
 40
0.0159242660374662
  0
LINE
  5
F6D36
330
1F
100
AcDbEntity
  8
freecads.com
100
AcDbLine
 10
107011.959864333
 20
97429.50225802237
 30
0.0
 11
107012.018977348
 21
97429.52723845105
 31
0.0
  0
LINE
  5
F6D37
330
1F
100
AcDbEntity
  8
freecads.com
100
AcDbLine
 10
107011.9898294559
 20
97429.43103810484
 30
0.0
 11
107012.0439235083
 21
97429.453697906
 31
0.0
  0
LINE
  5
F6D38
330
1F
100
AcDbEntity
  8
freecads.com
100
AcDbLine
 10
107012.1117088059
 20
97429.43452141002
 30
0.0
 11
107011.9917361974
 21
97429.3867587407
 31
0.0
  0
ARC
  5
F6D39
330
1F
100
AcDbEntity
  8
freecads.com
100
AcDbCircle
 10
107011.8560859516
 20
97428.73336387122
 30
0.0
 40
0.4193107857362088
100
AcDbArc
 50
14.89370475542006
 51
35.4225333509515
  0
ARC
  5
F6D3A
330
1F
100
AcDbEntity
  8
freecads.com
100
AcDbCircle
 10
107011.8560859516
 20
97428.73336387122
 30
0.0
 40
0.4123612388612089
100
AcDbArc
 50
14.89370475542006
 51
35.22874889456928
  0
LINE
  5
F6D3B
330
1F
100
AcDbEntity
  8
freecads.com
100
AcDbLine
 10
107012.2213919197
 20
97428.59972094763
 30
0.0
 11
107012.2550576172
 21
97428.65969329869
 31
0.0
  0
LINE
  5
F6D3C
330
1F
100
AcDbEntity
  8
freecads.com
100
AcDbLine
 10
107012.092310992
 20
97428.62158099102
 30
0.0
 11
107012.0663396876
 21
97428.61453289965
 31
0.0
  0
CIRCLE
  5
F6D3D
330
1F
100
AcDbEntity
  8
freecads.com
100
AcDbCircle
 10
107012.2955998441
 20
97428.61757496751
 30
0.0
 40
0.0042386909827818
  0
CIRCLE
  5
F6D3E
330
1F
100
AcDbEntity
  8
freecads.com
100
AcDbCircle
 10
107012.317613139
 20
97428.62066895678
 30
0.0
 40
0.0042386909827818
  0
CIRCLE
  5
F6D3F
330
1F
100
AcDbEntity
  8
freecads.com
100
AcDbCircle
 10
107012.3367742585
 20
97428.61450489117
 30
0.0
 40
0.0042386909827818
  0
LINE
  5
F6D40
330
1F
100
AcDbEntity
  8
freecads.com
100
AcDbLine
 10
107012.0981983795
 20
97428.60230405128
 30
0.0
 11
107012.072720877
 21
97428.59363911602
 31
0.0
  0
LINE
  5
F6D41
330
1F
100
AcDbEntity
  8
freecads.com
100
AcDbLine
 10
107012.2747881234
 20
97428.60655886621
 30
0.0
 11
107012.2795098994
 21
97428.61236733494
 31
0.0
  0
CIRCLE
  5
F6D42
330
1F
100
AcDbEntity
  8
freecads.com
100
AcDbCircle
 10
107012.2330385772
 20
97428.60333342397
 30
0.0
 40
0.0045710774508125
  0
CIRCLE
  5
F6D43
330
1F
100
AcDbEntity
  8
freecads.com
100
AcDbCircle
 10
107012.3220095925
 20
97428.59304783031
 30
0.0
 40
0.0042386909827818
  0
CIRCLE
  5
F6D44
330
1F
100
AcDbEntity
  8
freecads.com
100
AcDbCircle
 10
107012.3198113658
 20
97428.60685839355
 30
0.0
 40
0.0042386909827818
  0
CIRCLE
  5
F6D45
330
1F
100
AcDbEntity
  8
freecads.com
100
AcDbCircle
 10
107012.3424720192
 20
97428.60173385443
 30
0.0
 40
0.0042386909827818
  0
LINE
  5
F6D46
330
1F
100
AcDbEntity
  8
freecads.com
100
AcDbLine
 10
107012.0487789465
 20
97428.75941445456
 30
0.0
 11
107012.2365936437
 21
97428.89228425244
 31
0.0
  0
ARC
  5
F6D47
330
1F
100
AcDbEntity
  8
freecads.com
100
AcDbCircle
 10
107012.4019557699
 20
97428.70561237653
 30
0.0
 40
0.3140706871171848
100
AcDbArc
 50
128.5557295376843
 51
156.2520076667981
  0
ARC
  5
F6D48
330
1F
100
AcDbEntity
  8
freecads.com
100
AcDbCircle
 10
107012.4019557699
 20
97428.70561237653
 30
0.0
 40
0.3572513571028926
100
AcDbArc
 50
157.4456288532368
 51
171.3382971367812
  0
LINE
  5
F6D49
330
1F
100
AcDbEntity
  8
freecads.com
100
AcDbLine
 10
107012.0860019744
 20
97428.76141883984
 30
0.0
 11
107012.0595015043
 21
97428.76609957965
 31
0.0
  0
LINE
  5
F6D4A
330
1F
100
AcDbEntity
  8
freecads.com
100
AcDbLine
 10
107012.0831213202
 20
97428.74146981556
 30
0.0
 11
107012.0563792366
 21
97428.74447734074
 31
0.0
  0
LINE
  5
F6D4B
330
1F
100
AcDbEntity
  8
freecads.com
100
AcDbLine
 10
107012.0814989599
 20
97428.72137927836
 30
0.0
 11
107012.0546208017
 21
97428.72270171954
 31
0.0
  0
LINE
  5
F6D4C
330
1F
100
AcDbEntity
  8
freecads.com
100
AcDbLine
 10
107012.0811412963
 20
97428.70122651639
 30
0.0
 11
107012.0542331392
 21
97428.70085865453
 31
0.0
  0
LINE
  5
F6D4D
330
1F
100
AcDbEntity
  8
freecads.com
100
AcDbLine
 10
107012.0820497408
 20
97428.68109106343
 30
0.0
 11
107012.055217779
 21
97428.67903435028
 31
0.0
  0
LINE
  5
F6D4E
330
1F
100
AcDbEntity
  8
freecads.com
100
AcDbLine
 10
107012.0842207082
 20
97428.66105238487
 30
0.0
 11
107012.0575708353
 21
97428.65731493736
 31
0.0
  0
LINE
  5
F6D4F
330
1F
100
AcDbEntity
  8
freecads.com
100
AcDbLine
 10
107012.0876456308
 20
97428.64118956424
 30
0.0
 11
107012.0612830216
 21
97428.63578613237
 31
0.0
  0
ARC
  5
F6D50
330
1F
100
AcDbEntity
  8
freecads.com
100
AcDbCircle
 10
107012.4019557699
 20
97428.70561237653
 30
0.0
 40
0.2136636384815667
100
AcDbArc
 50
127.1107942952772
 51
133.2881338983274
  0
ARC
  5
F6D51
330
1F
100
AcDbEntity
  8
freecads.com
100
AcDbCircle
 10
107012.4019557699
 20
97428.70561237653
 30
0.0
 40
0.2355454952082673
100
AcDbArc
 50
126.234564144625
 51
130.9472167124872
  0
ARC
  5
F6D52
330
1F
100
AcDbEntity
  8
freecads.com
100
AcDbCircle
 10
107012.4019557699
 20
97428.70561237653
 30
0.0
 40
0.2445416928795866
100
AcDbArc
 50
125.9203087393166
 51
130.2101711628239
  0
ARC
  5
F6D53
330
1F
100
AcDbEntity
  8
freecads.com
100
AcDbCircle
 10
107012.2200062683
 20
97428.63372138346
 30
0.0
 40
0.0115825781249998
100
AcDbArc
 50
244.451325135646
 51
330.6921655807175
  0
ARC
  5
F6D54
330
1F
100
AcDbEntity
  8
freecads.com
100
AcDbCircle
 10
107012.2172347256
 20
97428.63504623288
 30
0.0
 40
0.0115825781249998
100
AcDbArc
 50
200.907588986881
 51
244.451325135646
  0
LINE
  5
F6D55
330
1F
100
AcDbEntity
  8
freecads.com
100
AcDbLine
 10
107012.2150109604
 20
97428.62327135881
 30
0.0
 11
107012.2122394177
 21
97428.62459620825
 31
0.0
  0
ARC
  5
F6D56
330
1F
100
AcDbEntity
  8
freecads.com
100
AcDbCircle
 10
107012.4019557699
 20
97428.70561237653
 30
0.0
 40
0.2093234308863546
100
AcDbArc
 50
127.3066583707744
 51
133.8658138693455
  0
LINE
  5
F6D57
330
1F
100
AcDbEntity
  8
freecads.com
100
AcDbLine
 10
107012.2301063036
 20
97428.6280516919
 30
0.0
 11
107012.2526579442
 21
97428.66822537042
 31
0.0
  0
ARC
  5
F6D58
330
1F
100
AcDbEntity
  8
freecads.com
100
AcDbCircle
 10
107012.4019557699
 20
97428.70561237653
 30
0.0
 40
0.3140706871171848
100
AcDbArc
 50
124.1033324882004
 51
127.2809706591875
  0
ARC
  5
F6D59
330
1F
100
AcDbEntity
  8
freecads.com
100
AcDbCircle
 10
107012.4019557699
 20
97428.70561237653
 30
0.0
 40
0.0966464562895568
100
AcDbArc
 50
138.8229247233289
 51
143.0107725043085
  0
CIRCLE
  5
F6D5A
330
1F
100
AcDbEntity
  8
freecads.com
100
AcDbCircle
 10
107012.3221236566
 20
97428.68910619131
 30
0.0
 40
0.0085525283632787
  0
CIRCLE
  5
F6D5B
330
1F
100
AcDbEntity
  8
freecads.com
100
AcDbCircle
 10
107012.2658301318
 20
97428.68254770673
 30
0.0
 40
0.0042386909827818
  0
ARC
  5
F6D5C
330
1F
100
AcDbEntity
  8
freecads.com
100
AcDbCircle
 10
107012.2740412936
 20
97428.6938676307
 30
0.0
 40
0.0042386909827818
100
AcDbArc
 50
169.4795827986002
 51
0.9363524074119398
  0
CIRCLE
  5
F6D5D
330
1F
100
AcDbEntity
  8
freecads.com
100
AcDbCircle
 10
107012.286441199
 20
97428.67422053258
 30
0.0
 40
0.0042386909827818
  0
CIRCLE
  5
F6D5E
330
1F
100
AcDbEntity
  8
freecads.com
100
AcDbCircle
 10
107012.2914427604
 20
97428.68727994455
 30
0.0
 40
0.0042386909827818
  0
CIRCLE
  5
F6D5F
330
1F
100
AcDbEntity
  8
freecads.com
100
AcDbCircle
 10
107012.2964443219
 20
97428.70033935652
 30
0.0
 40
0.0042386909827818
  0
CIRCLE
  5
F6D60
330
1F
100
AcDbEntity
  8
freecads.com
100
AcDbCircle
 10
107012.2764380762
 20
97428.64810170864
 30
0.0
 40
0.0042386909827818
  0
CIRCLE
  5
F6D61
330
1F
100
AcDbEntity
  8
freecads.com
100
AcDbCircle
 10
107012.2814396376
 20
97428.66116112061
 30
0.0
 40
0.0042386909827818
  0
CIRCLE
  5
F6D62
330
1F
100
AcDbEntity
  8
freecads.com
100
AcDbCircle
 10
107012.2985020697
 20
97428.6453928128
 30
0.0
 40
0.0042386909827818
  0
CIRCLE
  5
F6D63
330
1F
100
AcDbEntity
  8
freecads.com
100
AcDbCircle
 10
107012.2999531825
 20
97428.65930173545
 30
0.0
 40
0.0042386909827818
  0
CIRCLE
  5
F6D64
330
1F
100
AcDbEntity
  8
freecads.com
100
AcDbCircle
 10
107012.3014042953
 20
97428.67321065808
 30
0.0
 40
0.0042386909827818
  0
CIRCLE
  5
F6D65
330
1F
100
AcDbEntity
  8
freecads.com
100
AcDbCircle
 10
107012.2970509569
 20
97428.63148389014
 30
0.0
 40
0.0042386909827818
  0
CIRCLE
  5
F6D66
330
1F
100
AcDbEntity
  8
freecads.com
100
AcDbCircle
 10
107012.3154149122
 20
97428.63447952
 30
0.0
 40
0.0042386909827818
  0
CIRCLE
  5
F6D67
330
1F
100
AcDbEntity
  8
freecads.com
100
AcDbCircle
 10
107012.3132166855
 20
97428.64829008324
 30
0.0
 40
0.0042386909827818
  0
CIRCLE
  5
F6D68
330
1F
100
AcDbEntity
  8
freecads.com
100
AcDbCircle
 10
107012.3310764977
 20
97428.62727592793
 30
0.0
 40
0.0042386909827818
  0
CIRCLE
  5
F6D69
330
1F
100
AcDbEntity
  8
freecads.com
100
AcDbCircle
 10
107012.2721709457
 20
97428.72504490216
 30
0.0
 40
0.0189508714769403
  0
LINE
  5
F6D6A
330
1F
100
AcDbEntity
  8
freecads.com
100
AcDbLine
 10
107012.3131292543
 20
97428.71804172052
 30
0.0
 11
107012.3299816021
 21
97428.753836205
 31
0.0
  0
LINE
  5
F6D6B
330
1F
100
AcDbEntity
  8
freecads.com
100
AcDbLine
 10
107012.3299816021
 20
97428.753836205
 30
0.0
 11
107012.2744363056
 21
97428.85940457062
 31
0.0
  0
LINE
  5
F6D6C
330
1F
100
AcDbEntity
  8
freecads.com
100
AcDbLine
 10
107012.2426758665
 20
97428.69692162601
 30
0.0
 11
107012.2397897846
 21
97428.75461357771
 31
0.0
  0
LINE
  5
F6D6D
330
1F
100
AcDbEntity
  8
freecads.com
100
AcDbLine
 10
107012.2397897846
 20
97428.75461357771
 30
0.0
 11
107012.2550674448
 21
97428.78706341668
 31
0.0
  0
LINE
  5
F6D6E
330
1F
100
AcDbEntity
  8
freecads.com
100
AcDbLine
 10
107012.3022994708
 20
97428.82228603148
 30
0.0
 11
107012.2550674448
 21
97428.78706341668
 31
0.0
  0
CIRCLE
  5
F6D6F
330
1F
100
AcDbEntity
  8
freecads.com
100
AcDbCircle
 10
107012.2721709457
 20
97428.72504490216
 30
0.0
 40
0.0165724434509112
  0
CIRCLE
  5
F6D70
330
1F
100
AcDbEntity
  8
freecads.com
100
AcDbCircle
 10
107012.2919534176
 20
97428.76706298698
 30
0.0
 40
0.0189508714769403
  0
CIRCLE
  5
F6D71
330
1F
100
AcDbEntity
  8
freecads.com
100
AcDbCircle
 10
107012.2919534176
 20
97428.76706298698
 30
0.0
 40
0.0165724434509112
  0
CIRCLE
  5
F6D72
330
1F
100
AcDbEntity
  8
freecads.com
100
AcDbCircle
 10
107012.2812001922
 20
97428.8272589049
 30
0.0
 40
0.0063363477743141
  0
LINE
  5
F6D73
330
1F
100
AcDbEntity
  8
freecads.com
100
AcDbLine
 10
107012.2744363056
 20
97428.85940457062
 30
0.0
 11
107012.2690496677
 21
97428.84674547335
 31
0.0
  0
LINE
  5
F6D74
330
1F
100
AcDbEntity
  8
freecads.com
100
AcDbLine
 10
107012.2690496677
 20
97428.84674547335
 30
0.0
 11
107012.2693752742
 21
97428.82558732345
 31
0.0
  0
LINE
  5
F6D75
330
1F
100
AcDbEntity
  8
freecads.com
100
AcDbLine
 10
107012.2799008618
 20
97428.80558258587
 30
0.0
 11
107012.2608584642
 21
97428.84177421533
 31
0.0
  0
LINE
  5
F6D76
330
1F
100
AcDbEntity
  8
freecads.com
100
AcDbLine
 10
107012.2745696669
 20
97428.80160692278
 30
0.0
 11
107012.2550448809
 21
97428.83871537088
 31
0.0
  0
LINE
  5
F6D77
330
1F
100
AcDbEntity
  8
freecads.com
100
AcDbLine
 10
107012.2550448809
 20
97428.83871537088
 30
0.0
 11
107012.2608584642
 21
97428.84177421533
 31
0.0
  0
LINE
  5
F6D78
330
1F
100
AcDbEntity
  8
freecads.com
100
AcDbLine
 10
107012.2596544273
 20
97428.82995455211
 30
0.0
 11
107012.2654680106
 21
97428.83301339656
 31
0.0
  0
LINE
  5
F6D79
330
1F
100
AcDbEntity
  8
freecads.com
100
AcDbLine
 10
107012.2695989267
 20
97428.81105421997
 30
0.0
 11
107012.2697990615
 21
97428.79804931131
 31
0.0
  0
LINE
  5
F6D7A
330
1F
100
AcDbEntity
  8
freecads.com
100
AcDbLine
 10
107012.2424048148
 20
97428.89639537438
 30
0.0
 11
107012.2569108313
 21
97428.90665767824
 31
0.0
  0
ARC
  5
F6D7B
330
1F
100
AcDbEntity
  8
freecads.com
100
AcDbCircle
 10
107012.4019557699
 20
97428.70561237653
 30
0.0
 40
0.2093234308863546
100
AcDbArc
 50
136.0227026168167
 51
200.907588986881
  0
LINE
  5
F6D7C
330
1F
100
AcDbEntity
  8
freecads.com
100
AcDbLine
 10
107012.2662912536
 20
97428.76195780633
 30
0.0
 11
107012.2474286147
 21
97428.7708384972
 31
0.0
  0
LINE
  5
F6D7D
330
1F
100
AcDbEntity
  8
freecads.com
100
AcDbLine
 10
107012.2633310233
 20
97428.75567026004
 30
0.0
 11
107012.2444683844
 21
97428.76455095091
 31
0.0
  0
LINE
  5
F6D7E
330
1F
100
AcDbEntity
  8
freecads.com
100
AcDbLine
 10
107012.260370793
 20
97428.74938271373
 30
0.0
 11
107012.2415081541
 21
97428.7582634046
 31
0.0
  0
LINE
  5
F6D7F
330
1F
100
AcDbEntity
  8
freecads.com
100
AcDbLine
 10
107012.2574105627
 20
97428.74309516745
 30
0.0
 11
107012.2399548757
 21
97428.75131345341
 31
0.0
  0
LINE
  5
F6D80
330
1F
100
AcDbEntity
  8
freecads.com
100
AcDbLine
 10
107012.2692514839
 20
97428.76824535262
 30
0.0
 11
107012.250388845
 21
97428.77712604348
 31
0.0
  0
LINE
  5
F6D81
330
1F
100
AcDbEntity
  8
freecads.com
100
AcDbLine
 10
107012.2722117141
 20
97428.77453289892
 30
0.0
 11
107012.2533490753
 21
97428.78341358979
 31
0.0
  0
LINE
  5
F6D82
330
1F
100
AcDbEntity
  8
freecads.com
100
AcDbLine
 10
107012.2751719444
 20
97428.78082044521
 30
0.0
 11
107012.2577162574
 21
97428.78903873117
 31
0.0
  0
CIRCLE
  5
F6D83
330
1F
100
AcDbEntity
  8
freecads.com
100
AcDbCircle
 10
107012.3179750482
 20
97428.75072544718
 30
0.0
 40
0.0063363477743141
  0
ARC
  5
F6D84
330
1F
100
AcDbEntity
  8
freecads.com
100
AcDbCircle
 10
107012.4019557699
 20
97428.70561237653
 30
0.0
 40
0.1539078587422378
100
AcDbArc
 50
130.799459164168
 51
133.2940848581439
  0
LINE
  5
F6D85
330
1F
100
AcDbEntity
  8
freecads.com
100
AcDbLine
 10
107012.2426758665
 20
97428.69692162601
 30
0.0
 11
107012.2799862335
 21
97428.6937938119
 31
0.0
  0
LINE
  5
F6D86
330
1F
100
AcDbEntity
  8
freecads.com
100
AcDbLine
 10
107012.2799862335
 20
97428.6937938119
 30
0.0
 11
107012.3131292543
 21
97428.71804172052
 31
0.0
  0
LINE
  5
F6D87
330
1F
100
AcDbEntity
  8
freecads.com
100
AcDbLine
 10
107012.147420093
 20
97429.0810874379
 30
0.0
 11
107012.2518238645
 21
97429.06161128368
 31
0.0
  0
ARC
  5
F6D88
330
1F
100
AcDbEntity
  8
freecads.com
100
AcDbCircle
 10
107012.1452960459
 20
97429.06970128228
 30
0.0
 40
0.0115825781249998
100
AcDbArc
 50
79.43313202998793
 51
138.0823348320655
  0
CIRCLE
  5
F6D89
330
1F
100
AcDbEntity
  8
freecads.com
100
AcDbCircle
 10
107012.2342006751
 20
97429.1455417514
 30
0.0
 40
0.0084252317666369
  0
LINE
  5
F6D8A
330
1F
100
AcDbEntity
  8
freecads.com
100
AcDbLine
 10
107012.1858201998
 20
97429.12304591047
 30
0.0
 11
107012.2188975513
 21
97429.1714692735
 31
0.0
  0
LINE
  5
F6D8B
330
1F
100
AcDbEntity
  8
freecads.com
100
AcDbLine
 10
107012.22607577
 20
97428.97521215118
 30
0.0
 11
107012.2793774066
 21
97429.00325706015
 31
0.0
  0
LINE
  5
F6D8C
330
1F
100
AcDbEntity
  8
freecads.com
100
AcDbLine
 10
107012.222839819
 20
97428.98136234002
 30
0.0
 11
107012.2761414555
 21
97429.00940724899
 31
0.0
  0
LINE
  5
F6D8D
330
1F
100
AcDbEntity
  8
freecads.com
100
AcDbLine
 10
107012.2196038679
 20
97428.98751252884
 30
0.0
 11
107012.2729055045
 21
97429.01555743781
 31
0.0
  0
LINE
  5
F6D8E
330
1F
100
AcDbEntity
  8
freecads.com
100
AcDbLine
 10
107012.2163679169
 20
97428.99366271766
 30
0.0
 11
107012.2696695534
 21
97429.02170762665
 31
0.0
  0
LINE
  5
F6D8F
330
1F
100
AcDbEntity
  8
freecads.com
100
AcDbLine
 10
107012.2263213636
 20
97429.0067525707
 30
0.0
 11
107012.2664336024
 21
97429.02785781549
 31
0.0
  0
LINE
  5
F6D90
330
1F
100
AcDbEntity
  8
freecads.com
100
AcDbLine
 10
107012.273724394
 20
97429.10547399757
 30
0.0
 11
107012.1858201998
 21
97429.12304591047
 31
0.0
  0
LINE
  5
F6D91
330
1F
100
AcDbEntity
  8
freecads.com
100
AcDbLine
 10
107012.2774861448
 20
97429.28215048687
 30
0.0
 11
107012.2774861448
 21
97429.2518691732
 31
0.0
  0
LINE
  5
F6D92
330
1F
100
AcDbEntity
  8
freecads.com
100
AcDbLine
 10
107012.3250327241
 20
97429.23333704819
 30
0.0
 11
107012.2960182698
 21
97429.23333704819
 31
0.0
  0
ARC
  5
F6D93
330
1F
100
AcDbEntity
  8
freecads.com
100
AcDbCircle
 10
107012.3250327241
 20
97429.24491962632
 30
0.0
 40
0.0115825781249998
100
AcDbArc
 50
270.0
 51
0.0
  0
ARC
  5
F6D94
330
1F
100
AcDbEntity
  8
freecads.com
100
AcDbCircle
 10
107012.2960182698
 20
97429.2518691732
 30
0.0
 40
0.0185321249999997
100
AcDbArc
 50
180.0
 51
270.0
  0
LINE
  5
F6D95
330
1F
100
AcDbEntity
  8
freecads.com
100
AcDbLine
 10
107012.2188975513
 20
97429.1714692735
 30
0.0
 11
107012.2994008768
 21
97429.1538973606
 31
0.0
  0
ARC
  5
F6D96
330
1F
100
AcDbEntity
  8
freecads.com
100
AcDbCircle
 10
107011.740940068
 20
97429.0485064081
 30
0.0
 40
0.0926606249999984
100
AcDbArc
 50
258.6040998361113
 51
317.034392178028
  0
ARC
  5
F6D97
330
1F
100
AcDbEntity
  8
freecads.com
100
AcDbCircle
 10
107012.3553803747
 20
97431.02013129002
 30
0.0
 40
2.447446559275588
100
AcDbArc
 50
255.151898034447
 51
255.7888923409818
  0
ARC
  5
F6D98
330
1F
100
AcDbEntity
  8
freecads.com
100
AcDbCircle
 10
107012.3553803747
 20
97431.02013129002
 30
0.0
 40
2.447446559275588
100
AcDbArc
 50
256.4216057167956
 51
257.050198981188
  0
ARC
  5
F6D99
330
1F
100
AcDbEntity
  8
freecads.com
100
AcDbCircle
 10
107012.3553803747
 20
97431.02013129002
 30
0.0
 40
2.447446559275588
100
AcDbArc
 50
257.6748258192294
 51
258.2956332569657
  0
ARC
  5
F6D9A
330
1F
100
AcDbEntity
  8
freecads.com
100
AcDbCircle
 10
107011.9617977307
 20
97428.62393617775
 30
0.0
 40
0.0694954687499988
100
AcDbArc
 50
136.766497615255
 51
188.4057682174974
  0
ARC
  5
F6D9B
330
1F
100
AcDbEntity
  8
freecads.com
100
AcDbCircle
 10
107012.0068299238
 20
97428.91547395467
 30
0.0
 40
0.0115825781249998
100
AcDbArc
 50
138.0823348320655
 51
261.2041349483898
  0
LINE
  5
F6D9C
330
1F
100
AcDbEntity
  8
freecads.com
100
AcDbLine
 10
107011.717230064
 20
97429.15098232996
 30
0.0
 11
107011.9082055706
 21
97429.11964073577
 31
0.0
  0
LINE
  5
F6D9D
330
1F
100
AcDbEntity
  8
freecads.com
100
AcDbLine
 10
107011.8087456798
 20
97428.9853527032
 30
0.0
 11
107011.9157175305
 21
97429.1002041088
 31
0.0
  0
ARC
  5
F6D9E
330
1F
100
AcDbEntity
  8
freecads.com
100
AcDbCircle
 10
107011.9378372422
 20
97429.85747973776
 30
0.0
 40
0.634015096287129
100
AcDbArc
 50
247.1557237777592
 51
272.3402793382178
  0
CIRCLE
  5
F6D9F
330
1F
100
AcDbEntity
  8
freecads.com
100
AcDbCircle
 10
107011.772466113
 20
97429.20975050033
 30
0.0
 40
0.0084252317666369
  0
ARC
  5
F6DA0
330
1F
100
AcDbEntity
  8
freecads.com
100
AcDbCircle
 10
107011.907241829
 20
97429.1080983219
 30
0.0
 40
0.0115825781249998
100
AcDbArc
 50
317.034392178028
 51
85.22712137425518
  0
ARC
  5
F6DA1
330
1F
100
AcDbEntity
  8
freecads.com
100
AcDbCircle
 10
107011.9779157236
 20
97428.87680592595
 30
0.0
 40
0.3474773437499938
100
AcDbArc
 50
84.94452085531255
 51
92.34027933821787
  0
ARC
  5
F6DA2
330
1F
100
AcDbEntity
  8
freecads.com
100
AcDbCircle
 10
107012.701217639
 20
97432.69984523287
 30
0.0
 40
3.767916881693218
100
AcDbArc
 50
256.9398022625235
 51
262.185005257113
  0
LINE
  5
F6DA3
330
1F
100
AcDbEntity
  8
freecads.com
100
AcDbLine
 10
107011.9982112625
 20
97428.92321183505
 30
0.0
 11
107012.1366773846
 21
97429.07743916266
 31
0.0
  0
ARC
  5
F6DA4
330
1F
100
AcDbEntity
  8
freecads.com
100
AcDbCircle
 10
107012.5540841482
 20
97432.69902599626
 30
0.0
 40
3.823063121242803
100
AcDbArc
 50
258.064361381194
 51
263.5703514034448
  0
ARC
  5
F6DA5
330
1F
100
AcDbEntity
  8
freecads.com
100
AcDbCircle
 10
107012.0707435463
 20
97429.3285280085
 30
0.0
 40
0.4295521972413749
100
AcDbArc
 50
261.2041349483898
 51
271.6378127063431
  0
ARC
  5
F6DA6
330
1F
100
AcDbEntity
  8
freecads.com
100
AcDbCircle
 10
107012.0056092775
 20
97429.82918517435
 30
0.0
 40
0.5348955445620131
100
AcDbArc
 50
268.5010697855775
 51
298.3109702639138
  0
ARC
  5
F6DA7
330
1F
100
AcDbEntity
  8
freecads.com
100
AcDbCircle
 10
107011.908292358
 20
97429.8178397975
 30
0.0
 40
0.5782745221277703
100
AcDbArc
 50
276.2093618662797
 51
310.6454994544545
  0
LINE
  5
F6DA8
330
1F
100
AcDbEntity
  8
freecads.com
100
AcDbLine
 10
107012.3366153022
 20
97429.28910003374
 30
0.0
 11
107012.3366153022
 21
97429.24491962632
 31
0.0
  0
LINE
  5
F6DA9
330
1F
100
AcDbEntity
  8
freecads.com
100
AcDbLine
 10
107012.3036129767
 20
97429.30068261186
 30
0.0
 11
107012.3036129767
 21
97429.23333704819
 31
0.0
  0
ARC
  5
F6DAA
330
1F
100
AcDbEntity
  8
freecads.com
100
AcDbCircle
 10
107012.2960182698
 20
97429.28215048687
 30
0.0
 40
0.0185321249999997
100
AcDbArc
 50
90.0
 51
180.0
  0
LINE
  5
F6DAB
330
1F
100
AcDbEntity
  8
freecads.com
100
AcDbLine
 10
107012.2912371101
 20
97429.28556421249
 30
0.0
 11
107012.2912371101
 21
97429.24433223901
 31
0.0
  0
LINE
  5
F6DAC
330
1F
100
AcDbEntity
  8
freecads.com
100
AcDbLine
 10
107012.3283647099
 20
97429.2938106136
 30
0.0
 11
107012.3283647099
 21
97429.24020904645
 31
0.0
  0
LINE
  5
F6DAD
330
1F
100
AcDbEntity
  8
freecads.com
100
AcDbLine
 10
107011.9111655401
 20
97428.6715387139
 30
0.0
 11
107012.4108510738
 21
97429.20302663973
 31
0.0
  0
LINE
  5
F6DAE
330
1F
100
AcDbEntity
  8
freecads.com
100
AcDbLine
 10
107012.4291559889
 20
97428.7285405744
 30
0.0
 11
107012.2625168956
 21
97429.04525176051
 31
0.0
  0
LINE
  5
F6DAF
330
1F
100
AcDbEntity
  8
freecads.com
100
AcDbLine
 10
107012.3676541006
 20
97428.69618106405
 30
0.0
 11
107012.2121668729
 21
97428.99169722008
 31
0.0
  0
ARC
  5
F6DB0
330
1F
100
AcDbEntity
  8
freecads.com
100
AcDbCircle
 10
107012.4019557699
 20
97428.70561237653
 30
0.0
 40
0.0966464562895568
100
AcDbArc
 50
175.9130796925609
 51
96.67970428093418
  0
CIRCLE
  5
F6DB1
330
1F
100
AcDbEntity
  8
freecads.com
100
AcDbCircle
 10
107012.34816978
 20
97428.58896281768
 30
0.0
 40
0.0042386909827818
  0
ARC
  5
F6DB2
330
1F
100
AcDbEntity
  8
freecads.com
100
AcDbCircle
 10
107012.4019557699
 20
97428.70561237653
 30
0.0
 40
0.0667324967755571
100
AcDbArc
 50
149.1306563407474
 51
86.37197266395769
  0
CIRCLE
  5
F6DB3
330
1F
100
AcDbEntity
  8
freecads.com
100
AcDbCircle
 10
107012.3410722243
 20
97428.65140154416
 30
0.0
 40
0.0085525283632787
  0
CIRCLE
  5
F6DB4
330
1F
100
AcDbEntity
  8
freecads.com
100
AcDbCircle
 10
107012.3461621371
 20
97428.6897049961
 30
0.0
 40
0.0037905526419322
  0
LINE
  5
F6DB5
330
1F
100
AcDbEntity
  8
freecads.com
100
AcDbLine
 10
107012.3612014763
 20
97428.7465136231
 30
0.0
 11
107012.2504716274
 21
97428.95696473073
 31
0.0
  0
ARC
  5
F6DB6
330
1F
100
AcDbEntity
  8
freecads.com
100
AcDbCircle
 10
107012.4019557699
 20
97428.70561237653
 30
0.0
 40
0.3572513571028926
100
AcDbArc
 50
60.85237027735287
 51
112.1696672608449
  0
ARC
  5
F6DB7
330
1F
100
AcDbEntity
  8
freecads.com
100
AcDbCircle
 10
107012.4019557699
 20
97428.70561237653
 30
0.0
 40
0.3140706871171848
100
AcDbArc
 50
69.42589167190141
 51
111.3992965162619
  0
ARC
  5
F6DB8
330
1F
100
AcDbEntity
  8
freecads.com
100
AcDbCircle
 10
107011.718777375
 20
97426.76808717153
 30
0.0
 40
2.487673643296999
100
AcDbArc
 50
74.80061527927407
 51
84.18455603444737
  0
ARC
  5
F6DB9
330
1F
100
AcDbEntity
  8
freecads.com
100
AcDbCircle
 10
107011.4746514727
 20
97424.41281846494
 30
0.0
 40
4.839650799400604
100
AcDbArc
 50
79.32675031009212
 51
83.66654975617128
  0
ARC
  5
F6DBA
330
1F
100
AcDbEntity
  8
freecads.com
100
AcDbCircle
 10
107012.2433531365
 20
97429.48032253194
 30
0.0
 40
0.1566857363355568
100
AcDbArc
 50
12.71224840150287
 51
68.10049423173921
  0
ARC
  5
F6DBB
330
1F
100
AcDbEntity
  8
freecads.com
100
AcDbCircle
 10
107012.2899034464
 20
97429.87206683892
 30
0.0
 40
0.383725182729882
100
AcDbArc
 50
269.3701190808334
 51
284.78945200346
  0
LINE
  5
F6DBC
330
1F
100
AcDbEntity
  8
freecads.com
100
AcDbLine
 10
107012.3312394622
 20
97429.49057457209
 30
0.0
 11
107012.3751180007
 21
97429.40926014902
 31
0.0
  0
LINE
  5
F6DBD
330
1F
100
AcDbEntity
  8
freecads.com
100
AcDbLine
 10
107012.3709927045
 20
97429.3707769652
 30
0.0
 11
107012.3393654777
 21
97429.39276736281
 31
0.0
  0
LINE
  5
F6DBE
330
1F
100
AcDbEntity
  8
freecads.com
100
AcDbLine
 10
107012.6852005404
 20
97428.55490218369
 30
0.0
 11
107012.708957557
 21
97428.54226143997
 31
0.0
  0
LINE
  5
F6DBF
330
1F
100
AcDbEntity
  8
freecads.com
100
AcDbLine
 10
107012.6941047929
 20
97428.57298466212
 30
0.0
 11
107012.7186086493
 21
97428.56186057744
 31
0.0
  0
LINE
  5
F6DC0
330
1F
100
AcDbEntity
  8
freecads.com
100
AcDbLine
 10
107012.3660983308
 20
97428.38677792683
 30
0.0
 11
107012.3630908057
 21
97428.36003584327
 31
0.0
  0
LINE
  5
F6DC1
330
1F
100
AcDbEntity
  8
freecads.com
100
AcDbLine
 10
107012.3861888681
 20
97428.38515556655
 30
0.0
 11
107012.3848664269
 21
97428.35827740833
 31
0.0
  0
LINE
  5
F6DC2
330
1F
100
AcDbEntity
  8
freecads.com
100
AcDbLine
 10
107012.40634163
 20
97428.38479790291
 30
0.0
 11
107012.4067094919
 21
97428.35788974582
 31
0.0
  0
LINE
  5
F6DC3
330
1F
100
AcDbEntity
  8
freecads.com
100
AcDbLine
 10
107012.426477083
 20
97428.38570634743
 30
0.0
 11
107012.4285337962
 21
97428.35887438568
 31
0.0
  0
LINE
  5
F6DC4
330
1F
100
AcDbEntity
  8
freecads.com
100
AcDbLine
 10
107012.4465157616
 20
97428.38787731489
 30
0.0
 11
107012.4502532091
 21
97428.36122744197
 31
0.0
  0
LINE
  5
F6DC5
330
1F
100
AcDbEntity
  8
freecads.com
100
AcDbLine
 10
107012.4663785822
 20
97428.3913022375
 30
0.0
 11
107012.471782014
 21
97428.36493962826
 31
0.0
  0
CIRCLE
  5
F6DC6
330
1F
100
AcDbEntity
  8
freecads.com
100
AcDbCircle
 10
107012.4137005157
 20
97428.57769790029
 30
0.0
 40
0.0042386909827818
  0
CIRCLE
  5
F6DC7
330
1F
100
AcDbEntity
  8
freecads.com
100
AcDbCircle
 10
107012.4250204397
 20
97428.56948673843
 30
0.0
 40
0.0042386909827818
  0
CIRCLE
  5
F6DC8
330
1F
100
AcDbEntity
  8
freecads.com
100
AcDbCircle
 10
107012.3538675408
 20
97428.57619178092
 30
0.0
 40
0.0042386909827818
  0
CIRCLE
  5
F6DC9
330
1F
100
AcDbEntity
  8
freecads.com
100
AcDbCircle
 10
107012.3890026224
 20
97428.56815553125
 30
0.0
 40
0.0042386909827818
  0
LINE
  5
F6DCA
330
1F
100
AcDbEntity
  8
freecads.com
100
AcDbLine
 10
107012.6098299749
 20
97428.46121622859
 30
0.0
 11
107012.6272653222
 21
97428.44071762119
 31
0.0
  0
LINE
  5
F6DCB
330
1F
100
AcDbEntity
  8
freecads.com
100
AcDbLine
 10
107012.6247655438
 20
97428.4747510179
 30
0.0
 11
107012.6434536046
 21
97428.45538763434
 31
0.0
  0
LINE
  5
F6DCC
330
1F
100
AcDbEntity
  8
freecads.com
100
AcDbLine
 10
107012.5241333241
 20
97428.40894116543
 30
0.0
 11
107012.5343809067
 21
97428.38405801267
 31
0.0
  0
ARC
  5
F6DCD
330
1F
100
AcDbEntity
  8
freecads.com
100
AcDbCircle
 10
107012.5554283651
 20
97428.58092233134
 30
0.0
 40
0.0115825781249998
100
AcDbArc
 50
320.9075889869161
 51
4.451325136148772
  0
LINE
  5
F6DCE
330
1F
100
AcDbEntity
  8
freecads.com
100
AcDbLine
 10
107012.5425203741
 20
97428.4171981704
 30
0.0
 11
107012.5543101615
 21
97428.3930075699
 31
0.0
  0
LINE
  5
F6DCF
330
1F
100
AcDbEntity
  8
freecads.com
100
AcDbLine
 10
107012.5603526798
 20
97428.42659341448
 30
0.0
 11
107012.5736381432
 21
97428.40319083548
 31
0.0
  0
LINE
  5
F6DD0
330
1F
100
AcDbEntity
  8
freecads.com
100
AcDbLine
 10
107012.5775598652
 20
97428.43708981892
 30
0.0
 11
107012.5922885729
 21
97428.41456762072
 31
0.0
  0
LINE
  5
F6DD1
330
1F
100
AcDbEntity
  8
freecads.com
100
AcDbLine
 10
107012.5940740216
 20
97428.44864595923
 30
0.0
 11
107012.610187846
 21
97428.42709302665
 31
0.0
  0
LINE
  5
F6DD2
330
1F
100
AcDbEntity
  8
freecads.com
100
AcDbLine
 10
107012.4859871554
 20
97428.39596759859
 30
0.0
 11
107012.4930352468
 21
97428.36999629426
 31
0.0
  0
LINE
  5
F6DD3
330
1F
100
AcDbEntity
  8
freecads.com
100
AcDbLine
 10
107012.5052640951
 20
97428.4018549862
 30
0.0
 11
107012.5139290304
 21
97428.37637748362
 31
0.0
  0
LINE
  5
F6DD4
330
1F
100
AcDbEntity
  8
freecads.com
100
AcDbLine
 10
107012.6388217842
 20
97428.48919691152
 30
0.0
 11
107012.6586888054
 21
97428.47104517021
 31
0.0
  0
LINE
  5
F6DD5
330
1F
100
AcDbEntity
  8
freecads.com
100
AcDbLine
 10
107012.6519432228
 20
97428.50449689809
 30
0.0
 11
107012.6729107981
 21
97428.4876284357
 31
0.0
  0
LINE
  5
F6DD6
330
1F
100
AcDbEntity
  8
freecads.com
100
AcDbLine
 10
107012.664078075
 20
97428.52059059559
 30
0.0
 11
107012.6860634551
 21
97428.5050719842
 31
0.0
  0
LINE
  5
F6DD7
330
1F
100
AcDbEntity
  8
freecads.com
100
AcDbLine
 10
107012.6751784503
 20
97428.53741448953
 30
0.0
 11
107012.6980948689
 21
97428.52330697402
 31
0.0
  0
LINE
  5
F6DD8
330
1F
100
AcDbEntity
  8
freecads.com
100
AcDbLine
 10
107012.1855403049
 20
97428.46874636217
 30
0.0
 11
107012.1673885636
 21
97428.44887934106
 31
0.0
  0
LINE
  5
F6DD9
330
1F
100
AcDbEntity
  8
freecads.com
100
AcDbLine
 10
107012.1135415638
 20
97428.56504777234
 30
0.0
 11
107012.0893509633
 21
97428.55325798489
 31
0.0
  0
LINE
  5
F6DDA
330
1F
100
AcDbEntity
  8
freecads.com
100
AcDbLine
 10
107012.1229368078
 20
97428.54721546663
 30
0.0
 11
107012.0995342288
 21
97428.53393000327
 31
0.0
  0
LINE
  5
F6DDB
330
1F
100
AcDbEntity
  8
freecads.com
100
AcDbLine
 10
107012.1334332123
 20
97428.53000828116
 30
0.0
 11
107012.1109110141
 21
97428.51527957354
 31
0.0
  0
LINE
  5
F6DDC
330
1F
100
AcDbEntity
  8
freecads.com
100
AcDbLine
 10
107012.1449893526
 20
97428.51349412484
 30
0.0
 11
107012.12343642
 21
97428.49738030043
 31
0.0
  0
LINE
  5
F6DDD
330
1F
100
AcDbEntity
  8
freecads.com
100
AcDbLine
 10
107012.1575596219
 20
97428.49773817146
 30
0.0
 11
107012.1370610146
 21
97428.48030282416
 31
0.0
  0
LINE
  5
F6DDE
330
1F
100
AcDbEntity
  8
freecads.com
100
AcDbLine
 10
107012.1710944113
 20
97428.48280260263
 30
0.0
 11
107012.1517310277
 21
97428.46411454181
 31
0.0
  0
LINE
  5
F6DDF
330
1F
100
AcDbEntity
  8
freecads.com
100
AcDbLine
 10
107012.265921789
 20
97428.55125421169
 30
0.0
 11
107012.2644951903
 21
97428.57449592733
 31
0.0
  0
ARC
  5
F6DE0
330
1F
100
AcDbEntity
  8
freecads.com
100
AcDbCircle
 10
107012.2774826092
 20
97428.55196382588
 30
0.0
 40
0.0115825781249998
100
AcDbArc
 50
183.5124629054818
 51
230.9885118699943
  0
LINE
  5
F6DE1
330
1F
100
AcDbEntity
  8
freecads.com
100
AcDbLine
 10
107012.2008402915
 20
97428.45562492368
 30
0.0
 11
107012.1839718291
 21
97428.4346573483
 31
0.0
  0
LINE
  5
F6DE2
330
1F
100
AcDbEntity
  8
freecads.com
100
AcDbLine
 10
107012.216933989
 20
97428.44349007143
 30
0.0
 11
107012.2014153775
 21
97428.42150469128
 31
0.0
  0
LINE
  5
F6DE3
330
1F
100
AcDbEntity
  8
freecads.com
100
AcDbLine
 10
107012.2337578829
 20
97428.43238969618
 30
0.0
 11
107012.2196503674
 21
97428.40947327747
 31
0.0
  0
LINE
  5
F6DE4
330
1F
100
AcDbEntity
  8
freecads.com
100
AcDbLine
 10
107012.251245577
 20
97428.42236760601
 30
0.0
 11
107012.2386048333
 21
97428.39861058939
 31
0.0
  0
LINE
  5
F6DE5
330
1F
100
AcDbEntity
  8
freecads.com
100
AcDbLine
 10
107012.2693280555
 20
97428.41346335355
 30
0.0
 11
107012.2582039708
 21
97428.38895949713
 31
0.0
  0
LINE
  5
F6DE6
330
1F
100
AcDbEntity
  8
freecads.com
100
AcDbLine
 10
107012.2879339549
 20
97428.40571207983
 30
0.0
 11
107012.2783704309
 21
97428.3805580891
 31
0.0
  0
LINE
  5
F6DE7
330
1F
100
AcDbEntity
  8
freecads.com
100
AcDbLine
 10
107012.3069898464
 20
97428.39914437556
 30
0.0
 11
107012.299024626
 21
97428.37343952185
 31
0.0
  0
LINE
  5
F6DE8
330
1F
100
AcDbEntity
  8
freecads.com
100
AcDbLine
 10
107012.3264205249
 20
97428.39378616048
 30
0.0
 11
107012.3200850432
 21
97428.36763188909
 31
0.0
  0
LINE
  5
F6DE9
330
1F
100
AcDbEntity
  8
freecads.com
100
AcDbLine
 10
107012.3461493066
 20
97428.38965858101
 30
0.0
 11
107012.3414685667
 21
97428.36315811093
 31
0.0
  0
ARC
  5
F6DEA
330
1F
100
AcDbEntity
  8
freecads.com
100
AcDbCircle
 10
107011.8260886999
 20
97432.92568475665
 30
0.0
 40
4.369093908611708
100
AcDbArc
 50
270.3822798387955
 51
270.6992277794748
  0
ARC
  5
F6DEB
330
1F
100
AcDbEntity
  8
freecads.com
100
AcDbCircle
 10
107011.8260886999
 20
97432.92568475665
 30
0.0
 40
4.369093908611708
100
AcDbArc
 50
269.7467879599194
 51
270.0648040465816
  0
LINE
  5
F6DEC
330
1F
100
AcDbEntity
  8
freecads.com
100
AcDbLine
 10
107011.7191198265
 20
97428.49848810683
 30
0.0
 11
107011.8392197959
 21
97428.53344532019
 31
0.0
  0
ARC
  5
F6DED
330
1F
100
AcDbEntity
  8
freecads.com
100
AcDbCircle
 10
107011.8260886999
 20
97432.92568475665
 30
0.0
 40
4.369093908611708
100
AcDbArc
 50
269.1090842601714
 51
269.4282189622497
  0
ARC
  5
F6DEE
330
1F
100
AcDbEntity
  8
freecads.com
100
AcDbCircle
 10
107012.4019557699
 20
97428.70561237653
 30
0.0
 40
0.2093234308863546
100
AcDbArc
 50
230.9885118699943
 51
320.9075889869161
  0
ARC
  5
F6DEF
330
1F
100
AcDbEntity
  8
freecads.com
100
AcDbCircle
 10
107012.4019557699
 20
97428.70561237653
 30
0.0
 40
0.3477551232983834
100
AcDbArc
 50
169.8107913725953
 51
61.60352859985628
  0
ARC
  5
F6DF0
330
1F
100
AcDbEntity
  8
freecads.com
100
AcDbCircle
 10
107012.4019557699
 20
97428.70561237653
 30
0.0
 40
0.2445416928795866
100
AcDbArc
 50
131.9318197023654
 51
74.37606214519646
  0
ARC
  5
F6DF1
330
1F
100
AcDbEntity
  8
freecads.com
100
AcDbCircle
 10
107012.4019557699
 20
97428.70561237653
 30
0.0
 40
0.2355454952082673
100
AcDbArc
 50
132.7586530443539
 51
76.1776629309101
  0
ARC
  5
F6DF2
330
1F
100
AcDbEntity
  8
freecads.com
100
AcDbCircle
 10
107012.4019557699
 20
97428.70561237653
 30
0.0
 40
0.1539078587422378
100
AcDbArc
 50
183.4135284959498
 51
104.7031698399167
  0
ARC
  5
F6DF3
330
1F
100
AcDbEntity
  8
freecads.com
100
AcDbCircle
 10
107012.4019557699
 20
97428.70561237653
 30
0.0
 40
0.2136636384815667
100
AcDbArc
 50
135.3766767455586
 51
81.48052563978804
  0
LINE
  5
F6DF4
330
1F
100
AcDbEntity
  8
freecads.com
100
AcDbLine
 10
107011.8588866536
 20
97428.62357362422
 30
0.0
 11
107011.8794070425
 21
97428.55691619597
 31
0.0
  0
LINE
  5
F6DF5
330
1F
100
AcDbEntity
  8
freecads.com
100
AcDbLine
 10
107011.8069142433
 20
97428.63493118035
 30
0.0
 11
107011.8310303362
 21
97428.55659364263
 31
0.0
  0
LINE
  5
F6DF6
330
1F
100
AcDbEntity
  8
freecads.com
100
AcDbLine
 10
107011.7545436911
 20
97428.64758204076
 30
0.0
 11
107011.7824882182
 21
97428.55680840449
 31
0.0
  0
LINE
  5
F6DF7
330
1F
100
AcDbEntity
  8
freecads.com
100
AcDbLine
 10
107011.7938595255
 20
97428.63797071683
 30
0.0
 11
107011.8189103802
 21
97428.55659674493
 31
0.0
  0
LINE
  5
F6DF8
330
1F
100
AcDbEntity
  8
freecads.com
100
AcDbLine
 10
107011.7413870131
 20
97428.65095277998
 30
0.0
 11
107011.7703266421
 21
97428.55694670369
 31
0.0
  0
LINE
  5
F6DF9
330
1F
100
AcDbEntity
  8
freecads.com
100
AcDbLine
 10
107011.8459300651
 20
97428.62629440281
 30
0.0
 11
107011.8673282819
 21
97428.55678548117
 31
0.0
  0
ARC
  5
F6DFA
330
1F
100
AcDbEntity
  8
freecads.com
100
AcDbCircle
 10
107012.2350308106
 20
97428.66431183646
 30
0.0
 40
0.3456955950662893
100
AcDbArc
 50
188.4057682174974
 51
202.0880163972157
  0
LINE
  5
F6DFB
330
1F
100
AcDbEntity
  8
freecads.com
100
AcDbLine
 10
107012.1052845588
 20
97428.58343482231
 30
0.0
 11
107012.080401406
 21
97428.5731872397
 31
0.0
  0
ARC
  5
F6DFC
330
1F
100
AcDbEntity
  8
freecads.com
100
AcDbCircle
 10
107012.3107384711
 20
97428.57733438409
 30
0.0
 40
0.0463303124999992
100
AcDbArc
 50
140.8919123755429
 51
183.5124629054818
  0
CIRCLE
  5
F6DFD
330
1F
100
AcDbEntity
  8
freecads.com
100
AcDbCircle
 10
107012.4023805917
 20
97428.58590906216
 30
0.0
 40
0.0042386909827818
  0
CIRCLE
  5
F6DFE
330
1F
100
AcDbEntity
  8
freecads.com
100
AcDbCircle
 10
107012.4594664378
 20
97428.58009468289
 30
0.0
 40
0.0042386909827818
  0
CIRCLE
  5
F6DFF
330
1F
100
AcDbEntity
  8
freecads.com
100
AcDbCircle
 10
107012.4464070258
 20
97428.58509624428
 30
0.0
 40
0.0042386909827818
  0
CIRCLE
  5
F6E00
330
1F
100
AcDbEntity
  8
freecads.com
100
AcDbCircle
 10
107012.3801936206
 20
97428.57901671646
 30
0.0
 40
0.0042386909827818
  0
LINE
  5
F6E01
330
1F
100
AcDbEntity
  8
freecads.com
100
AcDbLine
 10
107012.7018560666
 20
97428.59159056155
 30
0.0
 11
107012.7270100573
 21
97428.58202703759
 31
0.0
  0
ARC
  5
F6E02
330
1F
100
AcDbEntity
  8
freecads.com
100
AcDbCircle
 10
107011.5814914164
 20
97429.07328215819
 30
0.0
 40
0.3040662419276391
100
AcDbArc
 50
105.6022338067309
 51
132.2639411631675
  0
ARC
  5
F6E03
330
1F
100
AcDbEntity
  8
freecads.com
100
AcDbCircle
 10
107011.4632827994
 20
97429.06602696365
 30
0.0
 40
0.3064597606482675
100
AcDbArc
 50
48.90355229677696
 51
79.16743080070756
  0
ARC
  5
F6E04
330
1F
100
AcDbEntity
  8
freecads.com
100
AcDbCircle
 10
107011.5121714382
 20
97429.32152105513
 30
0.0
 40
0.0463303124999992
100
AcDbArc
 50
79.16743080070756
 51
105.6022338067309
  0
ARC
  5
F6E05
330
1F
100
AcDbEntity
  8
freecads.com
100
AcDbCircle
 10
107011.5757568209
 20
97428.61053369283
 30
0.0
 40
0.0231651562499996
100
AcDbArc
 50
300.2278590485679
 51
35.19641458550986
  0
ARC
  5
F6E06
330
1F
100
AcDbEntity
  8
freecads.com
100
AcDbCircle
 10
107011.6742249423
 20
97429.53510025696
 30
0.0
 40
0.9373520481138633
100
AcDbArc
 50
250.6768254846097
 51
265.2647788649658
  0
CIRCLE
  5
F6E07
330
1F
100
AcDbEntity
  8
freecads.com
100
AcDbCircle
 10
107011.6399683829
 20
97428.59575438671
 30
0.0
 40
0.0084252317666369
  0
CIRCLE
  5
F6E08
330
1F
100
AcDbEntity
  8
freecads.com
100
AcDbCircle
 10
107011.3616051016
 20
97428.88146564228
 30
0.0
 40
0.0077650578283885
  0
LINE
  5
F6E09
330
1F
100
AcDbEntity
  8
freecads.com
100
AcDbLine
 10
107011.3717008724
 20
97428.74182751064
 30
0.0
 11
107011.4217932557
 21
97428.67212643654
 31
0.0
  0
LINE
  5
F6E0A
330
1F
100
AcDbEntity
  8
freecads.com
100
AcDbLine
 10
107011.4217932557
 20
97428.67212643654
 30
0.0
 11
107011.4512593557
 21
97428.66623621868
 31
0.0
  0
LINE
  5
F6E0B
330
1F
100
AcDbEntity
  8
freecads.com
100
AcDbLine
 10
107011.4512593557
 20
97428.66623621868
 30
0.0
 11
107011.4551881778
 21
97428.65445575093
 31
0.0
  0
LINE
  5
F6E0C
330
1F
100
AcDbEntity
  8
freecads.com
100
AcDbLine
 10
107011.4551881778
 20
97428.65445575093
 30
0.0
 11
107011.3864339224
 21
97428.65641915154
 31
0.0
  0
LINE
  5
F6E0D
330
1F
100
AcDbEntity
  8
freecads.com
100
AcDbLine
 10
107011.3864339224
 20
97428.65641915154
 30
0.0
 11
107011.3864339224
 21
97428.66525450235
 31
0.0
  0
LINE
  5
F6E0E
330
1F
100
AcDbEntity
  8
freecads.com
100
AcDbLine
 10
107011.3864339224
 20
97428.66525450235
 30
0.0
 11
107011.4060779891
 21
97428.67016303591
 31
0.0
  0
LINE
  5
F6E0F
330
1F
100
AcDbEntity
  8
freecads.com
100
AcDbLine
 10
107011.4060779891
 20
97428.67016303591
 30
0.0
 11
107011.3612859157
 21
97428.72567703907
 31
0.0
  0
ARC
  5
F6E10
330
1F
100
AcDbEntity
  8
freecads.com
100
AcDbCircle
 10
107011.3252290071
 20
97428.69658413269
 30
0.0
 40
0.0463303124999992
100
AcDbArc
 50
38.8986996522514
 51
58.54801605925176
  0
CIRCLE
  5
F6E11
330
1F
100
AcDbEntity
  8
freecads.com
100
AcDbCircle
 10
107011.3616051016
 20
97428.88146564228
 30
0.0
 40
0.0110257837960581
  0
CIRCLE
  5
F6E12
330
1F
100
AcDbEntity
  8
freecads.com
100
AcDbCircle
 10
107011.4715608633
 20
97428.71446540135
 30
0.0
 40
0.0153048029648529
  0
CIRCLE
  5
F6E13
330
1F
100
AcDbEntity
  8
freecads.com
100
AcDbCircle
 10
107011.5118880451
 20
97428.91660946806
 30
0.0
 40
0.0118811582109258
  0
LINE
  5
F6E14
330
1F
100
AcDbEntity
  8
freecads.com
100
AcDbLine
 10
107011.4904229256
 20
97429.02530801879
 30
0.0
 11
107011.6647803268
 21
97429.13978697318
 31
0.0
  0
ARC
  5
F6E15
330
1F
100
AcDbEntity
  8
freecads.com
100
AcDbCircle
 10
107075.740819436
 20
97260.85149907877
 30
0.0
 40
180.2027979972327
100
AcDbArc
 50
110.8362353540401
 51
110.9188619321636
  0
CIRCLE
  5
F6E16
330
1F
100
AcDbEntity
  8
freecads.com
100
AcDbCircle
 10
107011.4384883498
 20
97429.16321798698
 30
0.0
 40
0.0116358949809429
  0
LINE
  5
F6E17
330
1F
100
AcDbEntity
  8
freecads.com
100
AcDbLine
 10
107011.4002172287
 20
97429.17658726717
 30
0.0
 11
107011.3945314148
 21
97429.1363254477
 31
0.0
  0
CIRCLE
  5
F6E18
330
1F
100
AcDbEntity
  8
freecads.com
100
AcDbCircle
 10
107011.4384883498
 20
97429.16321798698
 30
0.0
 40
0.0171177986359177
  0
ARC
  5
F6E19
330
1F
100
AcDbEntity
  8
freecads.com
100
AcDbCircle
 10
107011.4960154012
 20
97429.01516502451
 30
0.0
 40
0.0115825781249998
100
AcDbArc
 50
118.8707328749318
 51
258.6040998361113
  0
LINE
  5
F6E1A
330
1F
100
AcDbEntity
  8
freecads.com
100
AcDbLine
 10
107011.3945314148
 20
97429.1363254477
 30
0.0
 11
107011.3762558006
 21
97429.10547399757
 31
0.0
  0
LINE
  5
F6E1B
330
1F
100
AcDbEntity
  8
freecads.com
100
AcDbLine
 10
107011.3762558006
 20
97429.10547399757
 30
0.0
 11
107011.3616051016
 21
97429.07475668417
 31
0.0
  0
LINE
  5
F6E1C
330
1F
100
AcDbEntity
  8
freecads.com
100
AcDbLine
 10
107011.4002172287
 20
97429.17658726717
 30
0.0
 11
107011.3909064996
 21
97429.1890411864
 31
0.0
  0
LINE
  5
F6E1D
330
1F
100
AcDbEntity
  8
freecads.com
100
AcDbLine
 10
107011.3909064996
 20
97429.2769007509
 30
0.0
 11
107011.4019322834
 21
97429.259328838
 31
0.0
  0
LINE
  5
F6E1E
330
1F
100
AcDbEntity
  8
freecads.com
100
AcDbLine
 10
107011.4019322834
 20
97429.259328838
 30
0.0
 11
107011.3909064996
 21
97429.1890411864
 31
0.0
  0
ARC
  5
F6E1F
330
1F
100
AcDbEntity
  8
freecads.com
100
AcDbCircle
 10
107011.1675711321
 20
97429.51898892799
 30
0.0
 40
0.3802344601892469
100
AcDbArc
 50
247.2250496298167
 51
286.9584331519622
  0
LINE
  5
F6E20
330
1F
100
AcDbEntity
  8
freecads.com
100
AcDbLine
 10
107011.2364102566
 20
97428.73570572056
 30
0.0
 11
107011.2991078066
 21
97428.74712044853
 31
0.0
  0
LINE
  5
F6E21
330
1F
100
AcDbEntity
  8
freecads.com
100
AcDbLine
 10
107011.3049809123
 20
97428.85867676168
 30
0.0
 11
107011.1749018862
 21
97428.80339643184
 31
0.0
  0
LINE
  5
F6E22
330
1F
100
AcDbEntity
  8
freecads.com
100
AcDbLine
 10
107011.2849866174
 20
97428.8813632474
 30
0.0
 11
107011.1235690021
 21
97428.81547036635
 31
0.0
  0
LINE
  5
F6E23
330
1F
100
AcDbEntity
  8
freecads.com
100
AcDbLine
 10
107011.3066272207
 20
97428.94732678147
 30
0.0
 11
107011.1675210991
 21
97429.00004252016
 31
0.0
  0
LINE
  5
F6E24
330
1F
100
AcDbEntity
  8
freecads.com
100
AcDbLine
 10
107011.2718952546
 20
97429.00810078523
 30
0.0
 11
107011.1950168443
 21
97429.0168196733
 31
0.0
  0
LINE
  5
F6E25
330
1F
100
AcDbEntity
  8
freecads.com
100
AcDbLine
 10
107011.2932895867
 20
97428.87887847816
 30
0.0
 11
107011.1235690021
 21
97428.80675147826
 31
0.0
  0
LINE
  5
F6E26
330
1F
100
AcDbEntity
  8
freecads.com
100
AcDbLine
 10
107011.2004474124
 20
97428.70561237653
 30
0.0
 11
107011.3212779197
 21
97428.72761080183
 31
0.0
  0
LINE
  5
F6E27
330
1F
100
AcDbEntity
  8
freecads.com
100
AcDbLine
 10
107011.0208630708
 20
97428.77590002814
 30
0.0
 11
107011.1955053471
 21
97428.71211402041
 31
0.0
  0
LINE
  5
F6E28
330
1F
100
AcDbEntity
  8
freecads.com
100
AcDbLine
 10
107011.0255272718
 20
97428.64980591321
 30
0.0
 11
107011.0520277419
 21
97428.64512517339
 31
0.0
  0
LINE
  5
F6E29
330
1F
100
AcDbEntity
  8
freecads.com
100
AcDbLine
 10
107011.028407926
 20
97428.66975493749
 30
0.0
 11
107011.0551500095
 21
97428.66674741232
 31
0.0
  0
LINE
  5
F6E2A
330
1F
100
AcDbEntity
  8
freecads.com
100
AcDbLine
 10
107011.0300302862
 20
97428.6898454747
 30
0.0
 11
107011.0569084445
 21
97428.68852303352
 31
0.0
  0
LINE
  5
F6E2B
330
1F
100
AcDbEntity
  8
freecads.com
100
AcDbLine
 10
107011.1170279603
 20
97428.74077694962
 30
0.0
 11
107011.167134615
 21
97428.74943776769
 31
0.0
  0
CIRCLE
  5
F6E2C
330
1F
100
AcDbEntity
  8
freecads.com
100
AcDbCircle
 10
107011.2076889318
 20
97428.73456806968
 30
0.0
 40
0.018275614237302
  0
LINE
  5
F6E2D
330
1F
100
AcDbEntity
  8
freecads.com
100
AcDbLine
 10
107011.1616691255
 20
97428.62538220245
 30
0.0
 11
107011.2013616489
 21
97428.6452183977
 31
0.0
  0
ARC
  5
F6E2E
330
1F
100
AcDbEntity
  8
freecads.com
100
AcDbCircle
 10
107010.7095734763
 20
97428.70561237653
 30
0.0
 40
0.3477551232983834
100
AcDbArc
 50
348.9817725569484
 51
358.7220181181284
  0
LINE
  5
F6E2F
330
1F
100
AcDbEntity
  8
freecads.com
100
AcDbLine
 10
107011.225964546
 20
97428.73456806968
 30
0.0
 11
107011.1894133175
 21
97428.73456806968
 31
0.0
  0
LINE
  5
F6E30
330
1F
100
AcDbEntity
  8
freecads.com
100
AcDbLine
 10
107011.2186506985
 20
97428.7199448776
 30
0.0
 11
107011.218889519
 21
97428.71963069202
 31
0.0
  0
LINE
  5
F6E31
330
1F
100
AcDbEntity
  8
freecads.com
100
AcDbLine
 10
107011.1698370871
 20
97428.7841627092
 30
0.0
 11
107011.1965323427
 21
97428.74904317229
 31
0.0
  0
LINE
  5
F6E32
330
1F
100
AcDbEntity
  8
freecads.com
100
AcDbLine
 10
107011.2399413993
 20
97428.83103659677
 30
0.0
 11
107011.2558864608
 21
97428.7849584455
 31
0.0
  0
LINE
  5
F6E33
330
1F
100
AcDbEntity
  8
freecads.com
100
AcDbLine
 10
107011.1235690021
 20
97428.81547036635
 30
0.0
 11
107011.079616905
 21
97428.85504070455
 31
0.0
  0
LINE
  5
F6E34
330
1F
100
AcDbEntity
  8
freecads.com
100
AcDbLine
 10
107011.1235690021
 20
97428.80675147826
 30
0.0
 11
107011.2004474124
 21
97428.70561237653
 31
0.0
  0
CIRCLE
  5
F6E35
330
1F
100
AcDbEntity
  8
freecads.com
100
AcDbCircle
 10
107011.2079049084
 20
97428.78453867504
 30
0.0
 40
0.0151296447568131
  0
CIRCLE
  5
F6E36
330
1F
100
AcDbEntity
  8
freecads.com
100
AcDbCircle
 10
107011.1575419541
 20
97428.79768409155
 30
0.0
 40
0.018275614237302
  0
LINE
  5
F6E37
330
1F
100
AcDbEntity
  8
freecads.com
100
AcDbLine
 10
107011.079616905
 20
97428.92090184374
 30
0.0
 11
107011.1344437477
 21
97428.85061419213
 31
0.0
  0
LINE
  5
F6E38
330
1F
100
AcDbEntity
  8
freecads.com
100
AcDbLine
 10
107011.1344437477
 20
97428.85061419213
 30
0.0
 11
107011.2114731962
 21
97428.88146564228
 31
0.0
  0
LINE
  5
F6E39
330
1F
100
AcDbEntity
  8
freecads.com
100
AcDbLine
 10
107011.2114731962
 20
97428.88146564228
 30
0.0
 11
107011.079616905
 21
97428.92090184374
 31
0.0
  0
ARC
  5
F6E3A
330
1F
100
AcDbEntity
  8
freecads.com
100
AcDbCircle
 10
107011.1213259052
 20
97429.03560810642
 30
0.0
 40
0.0115825781249998
100
AcDbArc
 50
102.8752713166965
 51
243.8666824559606
  0
LINE
  5
F6E3B
330
1F
100
AcDbEntity
  8
freecads.com
100
AcDbLine
 10
107011.0978925193
 20
97429.07918319657
 30
0.0
 11
107011.1601202306
 21
97429.08347557225
 31
0.0
  0
LINE
  5
F6E3C
330
1F
100
AcDbEntity
  8
freecads.com
100
AcDbLine
 10
107011.1675210991
 20
97429.00004252016
 30
0.0
 11
107011.1162242278
 21
97429.02520959674
 31
0.0
  0
LINE
  5
F6E3D
330
1F
100
AcDbEntity
  8
freecads.com
100
AcDbLine
 10
107011.3103422721
 20
97428.8855332141
 30
0.0
 11
107011.3370366362
 21
97428.87746786966
 31
0.0
  0
LINE
  5
F6E3E
330
1F
100
AcDbEntity
  8
freecads.com
100
AcDbLine
 10
107011.3366037087
 20
97428.87759867292
 30
0.0
 11
107011.3347533736
 21
97428.84245260597
 31
0.0
  0
CIRCLE
  5
F6E3F
330
1F
100
AcDbEntity
  8
freecads.com
100
AcDbCircle
 10
107011.2736064997
 20
97428.73515653498
 30
0.0
 40
0.0084252317666369
  0
LINE
  5
F6E40
330
1F
100
AcDbEntity
  8
freecads.com
100
AcDbLine
 10
107011.3223467282
 20
97428.74791221257
 30
0.0
 11
107011.3212779197
 21
97428.72761080183
 31
0.0
  0
LINE
  5
F6E41
330
1F
100
AcDbEntity
  8
freecads.com
100
AcDbLine
 10
107011.3049809123
 20
97428.85867676168
 30
0.0
 11
107011.3034423769
 21
97428.82945315395
 31
0.0
  0
LINE
  5
F6E42
330
1F
100
AcDbEntity
  8
freecads.com
100
AcDbLine
 10
107011.3024365069
 20
97428.8103472227
 30
0.0
 11
107011.3013299713
 21
97428.78932920572
 31
0.0
  0
LINE
  5
F6E43
330
1F
100
AcDbEntity
  8
freecads.com
100
AcDbLine
 10
107011.3354885538
 20
97428.74328390614
 30
0.0
 11
107011.3324127391
 21
97428.72513852535
 31
0.0
  0
LINE
  5
F6E44
330
1F
100
AcDbEntity
  8
freecads.com
100
AcDbLine
 10
107011.2932895867
 20
97428.87887847816
 30
0.0
 11
107011.3286787883
 21
97428.86818610504
 31
0.0
  0
LINE
  5
F6E45
330
1F
100
AcDbEntity
  8
freecads.com
100
AcDbLine
 10
107011.3286787883
 20
97428.86818610504
 30
0.0
 11
107011.3242021672
 21
97428.78315522457
 31
0.0
  0
CIRCLE
  5
F6E46
330
1F
100
AcDbEntity
  8
freecads.com
100
AcDbCircle
 10
107011.3030023055
 20
97428.81989687875
 30
0.0
 40
0.0095664026059525
  0
ARC
  5
F6E47
330
1F
100
AcDbEntity
  8
freecads.com
100
AcDbCircle
 10
107011.2331255414
 20
97429.30929286893
 30
0.0
 40
0.0926606249999984
100
AcDbArc
 50
289.2739778634728
 51
315.441926780835
  0
LINE
  5
F6E48
330
1F
100
AcDbEntity
  8
freecads.com
100
AcDbLine
 10
107011.3250538731
 20
97429.16704276108
 30
0.0
 11
107011.2784771018
 21
97429.15528834974
 31
0.0
  0
LINE
  5
F6E49
330
1F
100
AcDbEntity
  8
freecads.com
100
AcDbLine
 10
107011.2090288639
 20
97428.70717471724
 30
0.0
 11
107011.3640587994
 21
97428.65055188302
 31
0.0
  0
ARC
  5
F6E4A
330
1F
100
AcDbEntity
  8
freecads.com
100
AcDbCircle
 10
107012.5540841482
 20
97432.69902599626
 30
0.0
 40
3.823063121242803
100
AcDbArc
 50
248.6299872981647
 51
253.872288205362
  0
ARC
  5
F6E4B
330
1F
100
AcDbEntity
  8
freecads.com
100
AcDbCircle
 10
107011.2876456003
 20
97428.69318065997
 30
0.0
 40
0.0971174796757522
100
AcDbArc
 50
30.06004204120312
 51
142.2962989569366
  0
ARC
  5
F6E4C
330
1F
100
AcDbEntity
  8
freecads.com
100
AcDbCircle
 10
107011.2932326598
 20
97428.64427248623
 30
0.0
 40
0.1076513903864526
100
AcDbArc
 50
58.54801605925176
 51
137.0934218907612
  0
LINE
  5
F6E4D
330
1F
100
AcDbEntity
  8
freecads.com
100
AcDbLine
 10
107011.1187449664
 20
97429.04689946909
 30
0.0
 11
107011.3598935777
 21
97429.10202034636
 31
0.0
  0
LINE
  5
F6E4E
330
1F
100
AcDbEntity
  8
freecads.com
100
AcDbLine
 10
107011.3616051016
 20
97429.07475668417
 30
0.0
 11
107011.3103422721
 21
97428.8855332141
 31
0.0
  0
ARC
  5
F6E4F
330
1F
100
AcDbEntity
  8
freecads.com
100
AcDbCircle
 10
107011.5445551007
 20
97428.80833886893
 30
0.0
 40
0.1631161237319156
100
AcDbArc
 50
176.6364932088039
 51
281.3117772817179
  0
ARC
  5
F6E50
330
1F
100
AcDbEntity
  8
freecads.com
100
AcDbCircle
 10
107011.0494720388
 20
97428.23932993784
 30
0.0
 40
0.667189922572788
100
AcDbArc
 50
35.19641458550986
 51
64.68551596084122
  0
ARC
  5
F6E51
330
1F
100
AcDbEntity
  8
freecads.com
100
AcDbCircle
 10
107012.3293353576
 20
97431.11466785688
 30
0.0
 40
2.435863981150588
100
AcDbArc
 50
245.3746907717589
 51
246.3159579757989
  0
ARC
  5
F6E52
330
1F
100
AcDbEntity
  8
freecads.com
100
AcDbCircle
 10
107012.3293353576
 20
97431.11466785688
 30
0.0
 40
2.424281403025589
100
AcDbArc
 50
245.3290404234087
 51
246.4424693591637
  0
LINE
  5
F6E53
330
1F
100
AcDbEntity
  8
freecads.com
100
AcDbLine
 10
107011.3629107029
 20
97428.82831091938
 30
0.0
 11
107011.3407759507
 21
97428.77447623625
 31
0.0
  0
LINE
  5
F6E54
330
1F
100
AcDbEntity
  8
freecads.com
100
AcDbLine
 10
107011.3324127391
 20
97428.72513852535
 30
0.0
 11
107011.3545773099
 21
97428.65401488391
 31
0.0
  0
LINE
  5
F6E55
330
1F
100
AcDbEntity
  8
freecads.com
100
AcDbLine
 10
107011.3214756743
 20
97429.16613974399
 30
0.0
 11
107011.5991561094
 21
97429.09669966095
 31
0.0
  0
ARC
  5
F6E56
330
1F
100
AcDbEntity
  8
freecads.com
100
AcDbCircle
 10
107011.343902332
 20
97429.21457594187
 30
0.0
 40
0.053712792845269
100
AcDbArc
 50
51.63545271481669
 51
146.4267911383081
  0
LINE
  5
F6E57
330
1F
100
AcDbEntity
  8
freecads.com
100
AcDbLine
 10
107011.3909064996
 20
97429.1890411864
 30
0.0
 11
107011.3250538731
 21
97429.16704276108
 31
0.0
  0
LINE
  5
F6E58
330
1F
100
AcDbEntity
  8
freecads.com
100
AcDbLine
 10
107011.3212779197
 20
97429.29004615138
 30
0.0
 11
107011.3909064996
 21
97429.2769007509
 31
0.0
  0
LINE
  5
F6E59
330
1F
100
AcDbEntity
  8
freecads.com
100
AcDbLine
 10
107010.9110583473
 20
97429.35161491491
 30
0.0
 11
107010.9476095757
 21
97429.2988991762
 31
0.0
  0
LINE
  5
F6E5A
330
1F
100
AcDbEntity
  8
freecads.com
100
AcDbLine
 10
107010.9000325635
 20
97429.35590729057
 30
0.0
 11
107010.9110583473
 21
97429.35161491491
 31
0.0
  0
ARC
  5
F6E5B
330
1F
100
AcDbEntity
  8
freecads.com
100
AcDbCircle
 10
107010.910085763
 20
97429.69002403427
 30
0.0
 40
0.475622696668795
100
AcDbArc
 50
206.9293856047948
 51
229.4228036087686
  0
LINE
  5
F6E5C
330
1F
100
AcDbEntity
  8
freecads.com
100
AcDbLine
 10
107010.4384600254
 20
97429.42619494218
 30
0.0
 11
107010.4704072174
 21
97429.43130038883
 31
0.0
  0
LINE
  5
F6E5D
330
1F
100
AcDbEntity
  8
freecads.com
100
AcDbLine
 10
107010.5072338287
 20
97429.43718561027
 30
0.0
 11
107010.5484157871
 21
97429.44376685509
 31
0.0
  0
ARC
  5
F6E5E
330
1F
100
AcDbEntity
  8
freecads.com
100
AcDbCircle
 10
107010.9404410508
 20
97429.48174911562
 30
0.0
 40
0.4727334117249059
100
AcDbArc
 50
180.8642943915826
 51
194.3280331616165
  0
LINE
  5
F6E5F
330
1F
100
AcDbEntity
  8
freecads.com
100
AcDbLine
 10
107010.4677614234
 20
97429.47461830521
 30
0.0
 11
107010.4860370377
 21
97429.47461830521
 31
0.0
  0
LINE
  5
F6E60
330
1F
100
AcDbEntity
  8
freecads.com
100
AcDbLine
 10
107010.4824121224
 20
97429.36476031539
 30
0.0
 11
107010.5703163165
 21
97429.33404300201
 31
0.0
  0
LINE
  5
F6E61
330
1F
100
AcDbEntity
  8
freecads.com
100
AcDbLine
 10
107010.5703163165
 20
97429.33404300201
 30
0.0
 11
107010.5850290721
 21
97429.34281358323
 31
0.0
  0
LINE
  5
F6E62
330
1F
100
AcDbEntity
  8
freecads.com
100
AcDbLine
 10
107010.5446398337
 20
97429.42619494218
 30
0.0
 11
107010.6106434984
 21
97429.39105111638
 31
0.0
  0
LINE
  5
F6E63
330
1F
100
AcDbEntity
  8
freecads.com
100
AcDbLine
 10
107010.6106434984
 20
97429.39105111638
 30
0.0
 11
107010.6363199812
 21
97429.3867587407
 31
0.0
  0
ARC
  5
F6E64
330
1F
100
AcDbEntity
  8
freecads.com
100
AcDbCircle
 10
107011.036248981
 20
97430.8380082134
 30
0.0
 40
1.477122266561875
100
AcDbArc
 50
250.7154923650932
 51
265.8492665423808
  0
LINE
  5
F6E65
330
1F
100
AcDbEntity
  8
freecads.com
100
AcDbLine
 10
107010.6363199812
 20
97429.3867587407
 30
0.0
 11
107010.9000325635
 21
97429.35590729057
 31
0.0
  0
LINE
  5
F6E66
330
1F
100
AcDbEntity
  8
freecads.com
100
AcDbLine
 10
107010.8150676254
 20
97428.98957815828
 30
0.0
 11
107010.878132034
 21
97428.91660946806
 31
0.0
  0
LINE
  5
F6E67
330
1F
100
AcDbEntity
  8
freecads.com
100
AcDbLine
 10
107010.938185652
 20
97428.96136675749
 30
0.0
 11
107010.8513006459
 21
97429.0080919896
 31
0.0
  0
LINE
  5
F6E68
330
1F
100
AcDbEntity
  8
freecads.com
100
AcDbLine
 10
107010.8671062502
 20
97428.96932520677
 30
0.0
 11
107010.7828269713
 21
97429.07918319657
 31
0.0
  0
LINE
  5
F6E69
330
1F
100
AcDbEntity
  8
freecads.com
100
AcDbLine
 10
107010.9762513634
 20
97428.98668274175
 30
0.0
 11
107010.938185652
 21
97428.96136675749
 31
0.0
  0
LINE
  5
F6E6A
330
1F
100
AcDbEntity
  8
freecads.com
100
AcDbLine
 10
107010.8011025856
 20
97428.98247060727
 30
0.0
 11
107010.848830636
 21
97428.91218295566
 31
0.0
  0
LINE
  5
F6E6B
330
1F
100
AcDbEntity
  8
freecads.com
100
AcDbLine
 10
107010.8853818644
 20
97428.92975486856
 30
0.0
 11
107010.8085034542
 21
97429.01761443306
 31
0.0
  0
CIRCLE
  5
F6E6C
330
1F
100
AcDbEntity
  8
freecads.com
100
AcDbCircle
 10
107010.7260796615
 20
97428.62578026322
 30
0.0
 40
0.0085525283632787
  0
CIRCLE
  5
F6E6D
330
1F
100
AcDbEntity
  8
freecads.com
100
AcDbCircle
 10
107010.794516896
 20
97428.62126974564
 30
0.0
 40
0.0042386909827818
  0
CIRCLE
  5
F6E6E
330
1F
100
AcDbEntity
  8
freecads.com
100
AcDbCircle
 10
107010.7807063328
 20
97428.61907151889
 30
0.0
 40
0.0042386909827818
  0
CIRCLE
  5
F6E6F
330
1F
100
AcDbEntity
  8
freecads.com
100
AcDbCircle
 10
107010.7668957696
 20
97428.61687329213
 30
0.0
 40
0.0042386909827818
  0
ARC
  5
F6E70
330
1F
100
AcDbEntity
  8
freecads.com
100
AcDbCircle
 10
107011.0005407538
 20
97428.62234826427
 30
0.0
 40
0.0377776910339536
100
AcDbArc
 50
96.78875620187278
 51
228.5747050517824
  0
LINE
  5
F6E71
330
1F
100
AcDbEntity
  8
freecads.com
100
AcDbLine
 10
107010.8915600688
 20
97428.60218520968
 30
0.0
 11
107010.7988965598
 21
97428.60106572738
 31
0.0
  0
ARC
  5
F6E72
330
1F
100
AcDbEntity
  8
freecads.com
100
AcDbCircle
 10
107010.8628076534
 20
97428.58398498244
 30
0.0
 40
0.0115825781249998
100
AcDbArc
 50
4.451325136148772
 51
90.69216558115634
  0
CIRCLE
  5
F6E73
330
1F
100
AcDbEntity
  8
freecads.com
100
AcDbCircle
 10
107010.8826082438
 20
97428.61046527284
 30
0.0
 40
0.0045710774508125
  0
LINE
  5
F6E74
330
1F
100
AcDbEntity
  8
freecads.com
100
AcDbLine
 10
107010.8626677326
 20
97428.5955667154
 30
0.0
 11
107010.7908561368
 21
97428.59469914831
 31
0.0
  0
CIRCLE
  5
F6E75
330
1F
100
AcDbEntity
  8
freecads.com
100
AcDbCircle
 10
107010.6986783742
 20
97428.59412022403
 30
0.0
 40
0.0042386909827818
  0
CIRCLE
  5
F6E76
330
1F
100
AcDbEntity
  8
freecads.com
100
AcDbCircle
 10
107010.6873584502
 20
97428.60233138589
 30
0.0
 40
0.0042386909827818
  0
CIRCLE
  5
F6E77
330
1F
100
AcDbEntity
  8
freecads.com
100
AcDbCircle
 10
107010.7409653202
 20
97428.59009780568
 30
0.0
 40
0.0042386909827818
  0
CIRCLE
  5
F6E78
330
1F
100
AcDbEntity
  8
freecads.com
100
AcDbCircle
 10
107010.7279059082
 20
97428.59509936709
 30
0.0
 40
0.0042386909827818
  0
CIRCLE
  5
F6E79
330
1F
100
AcDbEntity
  8
freecads.com
100
AcDbCircle
 10
107010.7148464963
 20
97428.60010092847
 30
0.0
 40
0.0042386909827818
  0
CIRCLE
  5
F6E7A
330
1F
100
AcDbEntity
  8
freecads.com
100
AcDbCircle
 10
107010.7837019626
 20
97428.60070756352
 30
0.0
 40
0.0042386909827818
  0
CIRCLE
  5
F6E7B
330
1F
100
AcDbEntity
  8
freecads.com
100
AcDbCircle
 10
107010.76979304
 20
97428.60215867631
 30
0.0
 40
0.0042386909827818
  0
CIRCLE
  5
F6E7C
330
1F
100
AcDbEntity
  8
freecads.com
100
AcDbCircle
 10
107010.7558841173
 20
97428.60360978911
 30
0.0
 40
0.0042386909827818
  0
CIRCLE
  5
F6E7D
330
1F
100
AcDbEntity
  8
freecads.com
100
AcDbCircle
 10
107010.7419751947
 20
97428.6050609019
 30
0.0
 40
0.0042386909827818
  0
LINE
  5
F6E7E
330
1F
100
AcDbEntity
  8
freecads.com
100
AcDbLine
 10
107010.9755454104
 20
97428.59402183222
 30
0.0
 11
107010.9941280727
 21
97428.60363988921
 31
0.0
  0
LINE
  5
F6E7F
330
1F
100
AcDbEntity
  8
freecads.com
100
AcDbLine
 10
107010.8809597615
 20
97428.92173670659
 30
0.0
 11
107010.9550104443
 21
97428.90775644324
 31
0.0
  0
LINE
  5
F6E80
330
1F
100
AcDbEntity
  8
freecads.com
100
AcDbLine
 10
107010.9615505798
 20
97428.91853470311
 30
0.0
 11
107010.9178024863
 21
97428.84643706517
 31
0.0
  0
ARC
  5
F6E81
330
1F
100
AcDbEntity
  8
freecads.com
100
AcDbCircle
 10
107010.8662741259
 20
97428.69075487471
 30
0.0
 40
0.0463303124999992
100
AcDbArc
 50
260.8919123757875
 51
303.5124629056086
  0
ARC
  5
F6E82
330
1F
100
AcDbEntity
  8
freecads.com
100
AcDbCircle
 10
107010.9048736047
 20
97428.6746397326
 30
0.0
 40
0.0115825781249998
100
AcDbArc
 50
303.5124629056086
 51
350.9885118700986
  0
LINE
  5
F6E83
330
1F
100
AcDbEntity
  8
freecads.com
100
AcDbLine
 10
107010.9112685587
 20
97428.66498257573
 30
0.0
 11
107010.8918539419
 21
97428.65212624716
 31
0.0
  0
LINE
  5
F6E84
330
1F
100
AcDbEntity
  8
freecads.com
100
AcDbLine
 10
107010.8589401558
 20
97428.64500871926
 30
0.0
 11
107010.8348306644
 21
97428.64887392469
 31
0.0
  0
ARC
  5
F6E85
330
1F
100
AcDbEntity
  8
freecads.com
100
AcDbCircle
 10
107010.7095734763
 20
97428.70561237653
 30
0.0
 40
0.2093234308863546
100
AcDbArc
 50
350.9885118700986
 51
0.2512025692868578
  0
ARC
  5
F6E86
330
1F
100
AcDbEntity
  8
freecads.com
100
AcDbCircle
 10
107010.7095734763
 20
97428.70561237653
 30
0.0
 40
0.2136636384815667
100
AcDbArc
 50
52.38311778208441
 51
87.48864628256978
  0
LINE
  5
F6E87
330
1F
100
AcDbEntity
  8
freecads.com
100
AcDbLine
 10
107010.8671062502
 20
97428.96932520677
 30
0.0
 11
107010.868538093
 21
97428.9490045697
 31
0.0
  0
LINE
  5
F6E88
330
1F
100
AcDbEntity
  8
freecads.com
100
AcDbLine
 10
107010.8727963794
 20
97428.88857119483
 30
0.0
 11
107010.874654825
 21
97428.86219623363
 31
0.0
  0
ARC
  5
F6E89
330
1F
100
AcDbEntity
  8
freecads.com
100
AcDbCircle
 10
107010.7095734763
 20
97428.70561237653
 30
0.0
 40
0.2093234308863546
100
AcDbArc
 50
56.64330678877391
 51
83.22845727640986
  0
CIRCLE
  5
F6E8A
330
1F
100
AcDbEntity
  8
freecads.com
100
AcDbCircle
 10
107010.7095734763
 20
97428.70561237653
 30
0.0
 40
0.0174035441271173
  0
LINE
  5
F6E8B
330
1F
100
AcDbEntity
  8
freecads.com
100
AcDbLine
 10
107010.7180754228
 20
97428.69042684876
 30
0.0
 11
107010.7211984522
 21
97428.67235874506
 31
0.0
  0
LINE
  5
F6E8C
330
1F
100
AcDbEntity
  8
freecads.com
100
AcDbLine
 10
107010.7231992144
 20
97428.69478543759
 30
0.0
 11
107010.7269051216
 21
97428.67334512949
 31
0.0
  0
LINE
  5
F6E8D
330
1F
100
AcDbEntity
  8
freecads.com
100
AcDbLine
 10
107010.7066620841
 20
97428.68845407988
 30
0.0
 11
107010.7097851136
 21
97428.67038597616
 31
0.0
  0
LINE
  5
F6E8E
330
1F
100
AcDbEntity
  8
freecads.com
100
AcDbLine
 10
107010.7003725372
 20
97428.69083989981
 30
0.0
 11
107010.7040784443
 21
97428.66939959171
 31
0.0
  0
CIRCLE
  5
F6E8F
330
1F
100
AcDbEntity
  8
freecads.com
100
AcDbCircle
 10
107010.7095734763
 20
97428.70561237653
 30
0.0
 40
0.010695417909
  0
CIRCLE
  5
F6E90
330
1F
100
AcDbEntity
  8
freecads.com
100
AcDbCircle
 10
107010.7095734763
 20
97428.70561237653
 30
0.0
 40
0.0051465886270531
  0
LINE
  5
F6E91
330
1F
100
AcDbEntity
  8
freecads.com
100
AcDbLine
 10
107010.7087987292
 20
97428.67609264548
 30
0.0
 11
107010.7202120678
 21
97428.67806541436
 31
0.0
  0
ARC
  5
F6E92
330
1F
100
AcDbEntity
  8
freecads.com
100
AcDbCircle
 10
107010.7095734763
 20
97428.70561237653
 30
0.0
 40
0.0966464562895568
100
AcDbArc
 50
30.87815665795024
 51
36.97552879016889
  0
CIRCLE
  5
F6E93
330
1F
100
AcDbEntity
  8
freecads.com
100
AcDbCircle
 10
107010.7637843086
 20
97428.64472883097
 30
0.0
 40
0.0085525283632787
  0
ARC
  5
F6E94
330
1F
100
AcDbEntity
  8
freecads.com
100
AcDbCircle
 10
107010.786963207
 20
97428.67999109559
 30
0.0
 40
0.0085525283632787
100
AcDbArc
 50
164.3184072061354
 51
35.29468566868972
  0
CIRCLE
  5
F6E95
330
1F
100
AcDbEntity
  8
freecads.com
100
AcDbCircle
 10
107010.7704570218
 20
97428.75982320891
 30
0.0
 40
0.0085525283632787
  0
ARC
  5
F6E96
330
1F
100
AcDbEntity
  8
freecads.com
100
AcDbCircle
 10
107010.7351947572
 20
97428.78300210731
 30
0.0
 40
0.0085525283632787
100
AcDbArc
 50
162.5621297639237
 51
337.3096343008418
  0
CIRCLE
  5
F6E97
330
1F
100
AcDbEntity
  8
freecads.com
100
AcDbCircle
 10
107010.693067291
 20
97428.78544448984
 30
0.0
 40
0.0085525283632787
  0
CIRCLE
  5
F6E98
330
1F
100
AcDbEntity
  8
freecads.com
100
AcDbCircle
 10
107010.8083274592
 20
97428.6234679724
 30
0.0
 40
0.0042386909827818
  0
CIRCLE
  5
F6E99
330
1F
100
AcDbEntity
  8
freecads.com
100
AcDbCircle
 10
107010.8262230351
 20
97428.65182638668
 30
0.0
 40
0.0042386909827818
  0
CIRCLE
  5
F6E9A
330
1F
100
AcDbEntity
  8
freecads.com
100
AcDbCircle
 10
107010.8134519983
 20
97428.64612862588
 30
0.0
 40
0.0042386909827818
  0
CIRCLE
  5
F6E9B
330
1F
100
AcDbEntity
  8
freecads.com
100
AcDbCircle
 10
107010.8006809616
 20
97428.64043086511
 30
0.0
 40
0.0042386909827818
  0
CIRCLE
  5
F6E9C
330
1F
100
AcDbEntity
  8
freecads.com
100
AcDbCircle
 10
107010.7879099249
 20
97428.63473310432
 30
0.0
 40
0.0042386909827818
  0
CIRCLE
  5
F6E9D
330
1F
100
AcDbEntity
  8
freecads.com
100
AcDbCircle
 10
107010.8361691363
 20
97428.68385022728
 30
0.0
 40
0.0042386909827818
  0
CIRCLE
  5
F6E9E
330
1F
100
AcDbEntity
  8
freecads.com
100
AcDbCircle
 10
107010.8253079511
 20
97428.67504122544
 30
0.0
 40
0.0042386909827818
  0
CIRCLE
  5
F6E9F
330
1F
100
AcDbEntity
  8
freecads.com
100
AcDbCircle
 10
107010.8144467659
 20
97428.66623222361
 30
0.0
 40
0.0042386909827818
  0
CIRCLE
  5
F6EA0
330
1F
100
AcDbEntity
  8
freecads.com
100
AcDbCircle
 10
107010.8035855807
 20
97428.65742322178
 30
0.0
 40
0.0042386909827818
  0
CIRCLE
  5
F6EA1
330
1F
100
AcDbEntity
  8
freecads.com
100
AcDbCircle
 10
107010.8128544669
 20
97428.6833973505
 30
0.0
 40
0.0042386909827818
  0
CIRCLE
  5
F6EA2
330
1F
100
AcDbEntity
  8
freecads.com
100
AcDbCircle
 10
107010.7074611134
 20
97428.64763382765
 30
0.0
 40
0.0037905526419322
  0
CIRCLE
  5
F6EA3
330
1F
100
AcDbEntity
  8
freecads.com
100
AcDbCircle
 10
107010.758728191
 20
97428.67479374217
 30
0.0
 40
0.0037905526419322
  0
CIRCLE
  5
F6EA4
330
1F
100
AcDbEntity
  8
freecads.com
100
AcDbCircle
 10
107010.7116858391
 20
97428.76359092541
 30
0.0
 40
0.0037905526419322
  0
ARC
  5
F6EA5
330
1F
100
AcDbEntity
  8
freecads.com
100
AcDbCircle
 10
107010.7095734763
 20
97428.70561237653
 30
0.0
 40
0.0478032213602534
100
AcDbArc
 50
236.4329365651604
 51
323.1801563099586
  0
CIRCLE
  5
F6EA6
330
1F
100
AcDbEntity
  8
freecads.com
100
AcDbCircle
 10
107010.9487454942
 20
97428.71505353051
 30
0.0
 40
0.005024146581366
  0
LINE
  5
F6EA7
330
1F
100
AcDbEntity
  8
freecads.com
100
AcDbLine
 10
107010.878132034
 20
97428.91660946806
 30
0.0
 11
107010.8597053816
 21
97428.91218295566
 31
0.0
  0
LINE
  5
F6EA8
330
1F
100
AcDbEntity
  8
freecads.com
100
AcDbLine
 10
107010.892782733
 20
97428.89461104276
 30
0.0
 11
107010.8921659538
 21
97428.91063945153
 31
0.0
  0
LINE
  5
F6EA9
330
1F
100
AcDbEntity
  8
freecads.com
100
AcDbLine
 10
107010.8921659538
 20
97428.91063945153
 30
0.0
 11
107010.8809597615
 21
97428.92173670659
 31
0.0
  0
CIRCLE
  5
F6EAA
330
1F
100
AcDbEntity
  8
freecads.com
100
AcDbCircle
 10
107010.9095846459
 20
97428.88021089775
 30
0.0
 40
0.0087115087435118
  0
LINE
  5
F6EAB
330
1F
100
AcDbEntity
  8
freecads.com
100
AcDbLine
 10
107010.848830636
 20
97428.91218295566
 30
0.0
 11
107010.8597053816
 21
97428.91218295566
 31
0.0
  0
LINE
  5
F6EAC
330
1F
100
AcDbEntity
  8
freecads.com
100
AcDbLine
 10
107010.8597053816
 20
97428.91218295566
 30
0.0
 11
107010.8743560806
 21
97428.88575801794
 31
0.0
  0
LINE
  5
F6EAD
330
1F
100
AcDbEntity
  8
freecads.com
100
AcDbLine
 10
107010.8743560806
 20
97428.88575801794
 30
0.0
 11
107010.892782733
 21
97428.89461104276
 31
0.0
  0
LINE
  5
F6EAE
330
1F
100
AcDbEntity
  8
freecads.com
100
AcDbLine
 10
107010.892782733
 20
97428.89461104276
 30
0.0
 11
107010.878132034
 21
97428.91660946806
 31
0.0
  0
LINE
  5
F6EAF
330
1F
100
AcDbEntity
  8
freecads.com
100
AcDbLine
 10
107010.878132034
 20
97428.91660946806
 30
0.0
 11
107010.8853818644
 21
97428.92975486856
 31
0.0
  0
CIRCLE
  5
F6EB0
330
1F
100
AcDbEntity
  8
freecads.com
100
AcDbCircle
 10
107010.9095846459
 20
97428.88021089775
 30
0.0
 40
0.0153048029648529
  0
LINE
  5
F6EB1
330
1F
100
AcDbEntity
  8
freecads.com
100
AcDbLine
 10
107011.0025874566
 20
97428.81547036635
 30
0.0
 11
107010.9605185059
 21
97428.70028809401
 31
0.0
  0
LINE
  5
F6EB2
330
1F
100
AcDbEntity
  8
freecads.com
100
AcDbLine
 10
107010.9605185059
 20
97428.70028809401
 30
0.0
 11
107010.9999952146
 21
97428.71876508528
 31
0.0
  0
LINE
  5
F6EB3
330
1F
100
AcDbEntity
  8
freecads.com
100
AcDbLine
 10
107010.9885924383
 20
97428.86400928643
 30
0.0
 11
107011.0119950173
 21
97428.87729474979
 31
0.0
  0
LINE
  5
F6EB4
330
1F
100
AcDbEntity
  8
freecads.com
100
AcDbLine
 10
107010.9780960339
 20
97428.8812164719
 30
0.0
 11
107011.000618232
 21
97428.89594517953
 31
0.0
  0
LINE
  5
F6EB5
330
1F
100
AcDbEntity
  8
freecads.com
100
AcDbLine
 10
107010.9665398935
 20
97428.89773062822
 30
0.0
 11
107010.9806371391
 21
97428.90827028631
 31
0.0
  0
CIRCLE
  5
F6EB6
330
1F
100
AcDbEntity
  8
freecads.com
100
AcDbCircle
 10
107010.9840694348
 20
97428.8117683684
 30
0.0
 40
0.005024146581366
  0
CIRCLE
  5
F6EB7
330
1F
100
AcDbEntity
  8
freecads.com
100
AcDbCircle
 10
107010.9667320688
 20
97428.76429969674
 30
0.0
 40
0.005024146581366
  0
LINE
  5
F6EB8
330
1F
100
AcDbEntity
  8
freecads.com
100
AcDbLine
 10
107010.9960750867
 20
97428.65986108549
 30
0.0
 11
107010.9993682472
 21
97428.64555684246
 31
0.0
  0
LINE
  5
F6EB9
330
1F
100
AcDbEntity
  8
freecads.com
100
AcDbLine
 10
107010.9652135298
 20
97428.94683163896
 30
0.0
 11
107011.0025874566
 21
97428.96932520677
 31
0.0
  0
LINE
  5
F6EBA
330
1F
100
AcDbEntity
  8
freecads.com
100
AcDbLine
 10
107010.8513006459
 20
97429.0080919896
 30
0.0
 11
107010.9762513634
 21
97428.98668274175
 31
0.0
  0
LINE
  5
F6EBB
330
1F
100
AcDbEntity
  8
freecads.com
100
AcDbLine
 10
107010.8235952912
 20
97429.00551267323
 30
0.0
 11
107010.8288140523
 21
97429.01923906398
 31
0.0
  0
LINE
  5
F6EBC
330
1F
100
AcDbEntity
  8
freecads.com
100
AcDbLine
 10
107010.8045393998
 20
97429.0120803775
 30
0.0
 11
107010.8125046202
 21
97429.03778523121
 31
0.0
  0
LINE
  5
F6EBD
330
1F
100
AcDbEntity
  8
freecads.com
100
AcDbLine
 10
107010.7851087212
 20
97429.01743859258
 30
0.0
 11
107010.791444203
 21
97429.04359286397
 31
0.0
  0
LINE
  5
F6EBE
330
1F
100
AcDbEntity
  8
freecads.com
100
AcDbLine
 10
107010.7653799396
 20
97429.02156617205
 30
0.0
 11
107010.7700606794
 21
97429.04806664215
 31
0.0
  0
LINE
  5
F6EBF
330
1F
100
AcDbEntity
  8
freecads.com
100
AcDbLine
 10
107010.7454309153
 20
97429.02444682622
 30
0.0
 11
107010.7484384405
 21
97429.05118890979
 31
0.0
  0
LINE
  5
F6EC0
330
1F
100
AcDbEntity
  8
freecads.com
100
AcDbLine
 10
107010.7253403781
 20
97429.02606918649
 30
0.0
 11
107010.7266628193
 21
97429.05294734473
 31
0.0
  0
LINE
  5
F6EC1
330
1F
100
AcDbEntity
  8
freecads.com
100
AcDbLine
 10
107010.7051876161
 20
97429.02642685015
 30
0.0
 11
107010.7048197542
 21
97429.05333500724
 31
0.0
  0
LINE
  5
F6EC2
330
1F
100
AcDbEntity
  8
freecads.com
100
AcDbLine
 10
107010.6850521632
 20
97429.02551840563
 30
0.0
 11
107010.68299545
 21
97429.05235036738
 31
0.0
  0
LINE
  5
F6EC3
330
1F
100
AcDbEntity
  8
freecads.com
100
AcDbLine
 10
107010.8011025856
 20
97428.98247060727
 30
0.0
 11
107010.8150676254
 21
97428.98957815828
 31
0.0
  0
LINE
  5
F6EC4
330
1F
100
AcDbEntity
  8
freecads.com
100
AcDbLine
 10
107010.8085034542
 20
97429.01761443306
 30
0.0
 11
107010.8011025856
 21
97428.98247060727
 31
0.0
  0
LINE
  5
F6EC5
330
1F
100
AcDbEntity
  8
freecads.com
100
AcDbLine
 10
107010.9586353595
 20
97429.28119312656
 30
0.0
 11
107010.9843118424
 21
97429.259328838
 31
0.0
  0
LINE
  5
F6EC6
330
1F
100
AcDbEntity
  8
freecads.com
100
AcDbLine
 10
107010.5174552246
 20
97428.96257879383
 30
0.0
 11
107010.5013414001
 21
97428.98413172641
 31
0.0
  0
CIRCLE
  5
F6EC7
330
1F
100
AcDbEntity
  8
freecads.com
100
AcDbCircle
 10
107010.6553626439
 20
97428.76649592208
 30
0.0
 40
0.0085525283632787
  0
CIRCLE
  5
F6EC8
330
1F
100
AcDbEntity
  8
freecads.com
100
AcDbCircle
 10
107010.6486899307
 20
97428.65140154416
 30
0.0
 40
0.0085525283632787
  0
CIRCLE
  5
F6EC9
330
1F
100
AcDbEntity
  8
freecads.com
100
AcDbCircle
 10
107010.6500897256
 20
97428.60173385443
 30
0.0
 40
0.0042386909827818
  0
CIRCLE
  5
F6ECA
330
1F
100
AcDbEntity
  8
freecads.com
100
AcDbCircle
 10
107010.6493539125
 20
97428.80906607675
 30
0.0
 40
0.0042386909827818
  0
CIRCLE
  5
F6ECB
330
1F
100
AcDbEntity
  8
freecads.com
100
AcDbCircle
 10
107010.652251183
 20
97428.79435146091
 30
0.0
 40
0.0042386909827818
  0
LINE
  5
F6ECC
330
1F
100
AcDbEntity
  8
freecads.com
100
AcDbLine
 10
107010.5824058297
 20
97428.60655886621
 30
0.0
 11
107010.5978079415
 21
97428.62550569549
 31
0.0
  0
LINE
  5
F6ECD
330
1F
100
AcDbEntity
  8
freecads.com
100
AcDbLine
 10
107010.529009626
 20
97428.59972094763
 30
0.0
 11
107010.5743718804
 21
97428.6805296416
 31
0.0
  0
CIRCLE
  5
F6ECE
330
1F
100
AcDbEntity
  8
freecads.com
100
AcDbCircle
 10
107010.6252308454
 20
97428.62066895678
 30
0.0
 40
0.0042386909827818
  0
CIRCLE
  5
F6ECF
330
1F
100
AcDbEntity
  8
freecads.com
100
AcDbCircle
 10
107010.6443919648
 20
97428.61450489117
 30
0.0
 40
0.0042386909827818
  0
CIRCLE
  5
F6ED0
330
1F
100
AcDbEntity
  8
freecads.com
100
AcDbCircle
 10
107010.5406562836
 20
97428.60333342397
 30
0.0
 40
0.0045710774508125
  0
CIRCLE
  5
F6ED1
330
1F
100
AcDbEntity
  8
freecads.com
100
AcDbCircle
 10
107010.6274290721
 20
97428.60685839355
 30
0.0
 40
0.0042386909827818
  0
LINE
  5
F6ED2
330
1F
100
AcDbEntity
  8
freecads.com
100
AcDbLine
 10
107010.5438256782
 20
97428.85248017769
 30
0.0
 11
107010.5281100296
 21
97428.89624721263
 31
0.0
  0
LINE
  5
F6ED3
330
1F
100
AcDbEntity
  8
freecads.com
100
AcDbLine
 10
107010.5377240099
 20
97428.6280516919
 30
0.0
 11
107010.5728784727
 21
97428.6906761417
 31
0.0
  0
LINE
  5
F6ED4
330
1F
100
AcDbEntity
  8
freecads.com
100
AcDbLine
 10
107010.5226286667
 20
97428.62327135881
 30
0.0
 11
107010.519857124
 21
97428.62459620825
 31
0.0
  0
ARC
  5
F6ED5
330
1F
100
AcDbEntity
  8
freecads.com
100
AcDbCircle
 10
107010.5276239746
 20
97428.63372138346
 30
0.0
 40
0.0115825781249998
100
AcDbArc
 50
244.451325135646
 51
330.6921655807175
  0
ARC
  5
F6ED6
330
1F
100
AcDbEntity
  8
freecads.com
100
AcDbCircle
 10
107010.5248524319
 20
97428.63504623288
 30
0.0
 40
0.0115825781249998
100
AcDbArc
 50
200.907588986881
 51
244.451325135646
  0
ARC
  5
F6ED7
330
1F
100
AcDbEntity
  8
freecads.com
100
AcDbCircle
 10
107010.7095734763
 20
97428.70561237653
 30
0.0
 40
0.2093234308863546
100
AcDbArc
 50
137.1433492754997
 51
200.907588986881
  0
LINE
  5
F6ED8
330
1F
100
AcDbEntity
  8
freecads.com
100
AcDbLine
 10
107010.5016992712
 20
97428.95000852447
 30
0.0
 11
107010.4842639239
 21
97428.97050713185
 31
0.0
  0
LINE
  5
F6ED9
330
1F
100
AcDbEntity
  8
freecads.com
100
AcDbLine
 10
107010.4867637024
 20
97428.93647373517
 30
0.0
 11
107010.4680756415
 21
97428.95583711872
 31
0.0
  0
LINE
  5
F6EDA
330
1F
100
AcDbEntity
  8
freecads.com
100
AcDbLine
 10
107010.4727074619
 20
97428.92202784155
 30
0.0
 11
107010.4528404408
 21
97428.94017958285
 31
0.0
  0
LINE
  5
F6EDB
330
1F
100
AcDbEntity
  8
freecads.com
100
AcDbLine
 10
107010.4595860234
 20
97428.90672785497
 30
0.0
 11
107010.438618448
 21
97428.92359631737
 31
0.0
  0
CIRCLE
  5
F6EDC
330
1F
100
AcDbEntity
  8
freecads.com
100
AcDbCircle
 10
107010.6321837455
 20
97428.73123365747
 30
0.0
 40
0.0085525283632787
  0
CIRCLE
  5
F6EDD
330
1F
100
AcDbEntity
  8
freecads.com
100
AcDbCircle
 10
107010.6297413629
 20
97428.68910619131
 30
0.0
 40
0.0085525283632787
  0
CIRCLE
  5
F6EDE
330
1F
100
AcDbEntity
  8
freecads.com
100
AcDbCircle
 10
107010.6040620282
 20
97428.70033935652
 30
0.0
 40
0.0042386909827818
  0
CIRCLE
  5
F6EDF
330
1F
100
AcDbEntity
  8
freecads.com
100
AcDbCircle
 10
107010.5990604668
 20
97428.68727994455
 30
0.0
 40
0.0042386909827818
  0
CIRCLE
  5
F6EE0
330
1F
100
AcDbEntity
  8
freecads.com
100
AcDbCircle
 10
107010.5940589054
 20
97428.67422053258
 30
0.0
 40
0.0042386909827818
  0
CIRCLE
  5
F6EE1
330
1F
100
AcDbEntity
  8
freecads.com
100
AcDbCircle
 10
107010.589057344
 20
97428.66116112061
 30
0.0
 40
0.0042386909827818
  0
CIRCLE
  5
F6EE2
330
1F
100
AcDbEntity
  8
freecads.com
100
AcDbCircle
 10
107010.6046686633
 20
97428.63148389014
 30
0.0
 40
0.0042386909827818
  0
CIRCLE
  5
F6EE3
330
1F
100
AcDbEntity
  8
freecads.com
100
AcDbCircle
 10
107010.606119776
 20
97428.6453928128
 30
0.0
 40
0.0042386909827818
  0
CIRCLE
  5
F6EE4
330
1F
100
AcDbEntity
  8
freecads.com
100
AcDbCircle
 10
107010.6075708888
 20
97428.65930173545
 30
0.0
 40
0.0042386909827818
  0
CIRCLE
  5
F6EE5
330
1F
100
AcDbEntity
  8
freecads.com
100
AcDbCircle
 10
107010.6090220016
 20
97428.67321065808
 30
0.0
 40
0.0042386909827818
  0
CIRCLE
  5
F6EE6
330
1F
100
AcDbEntity
  8
freecads.com
100
AcDbCircle
 10
107010.6230326186
 20
97428.63447952
 30
0.0
 40
0.0042386909827818
  0
CIRCLE
  5
F6EE7
330
1F
100
AcDbEntity
  8
freecads.com
100
AcDbCircle
 10
107010.6208343919
 20
97428.64829008324
 30
0.0
 40
0.0042386909827818
  0
CIRCLE
  5
F6EE8
330
1F
100
AcDbEntity
  8
freecads.com
100
AcDbCircle
 10
107010.6386942041
 20
97428.62727592793
 30
0.0
 40
0.0042386909827818
  0
CIRCLE
  5
F6EE9
330
1F
100
AcDbEntity
  8
freecads.com
100
AcDbCircle
 10
107010.6354449899
 20
97428.81051718955
 30
0.0
 40
0.0042386909827818
  0
CIRCLE
  5
F6EEA
330
1F
100
AcDbEntity
  8
freecads.com
100
AcDbCircle
 10
107010.6108194933
 20
97428.78775678066
 30
0.0
 40
0.0042386909827818
  0
CIRCLE
  5
F6EEB
330
1F
100
AcDbEntity
  8
freecads.com
100
AcDbCircle
 10
107010.6246300565
 20
97428.7899550074
 30
0.0
 40
0.0042386909827818
  0
CIRCLE
  5
F6EEC
330
1F
100
AcDbEntity
  8
freecads.com
100
AcDbCircle
 10
107010.6384406197
 20
97428.79215323418
 30
0.0
 40
0.0042386909827818
  0
CIRCLE
  5
F6EED
330
1F
100
AcDbEntity
  8
freecads.com
100
AcDbCircle
 10
107010.5929239174
 20
97428.75939836638
 30
0.0
 40
0.0042386909827818
  0
CIRCLE
  5
F6EEE
330
1F
100
AcDbEntity
  8
freecads.com
100
AcDbCircle
 10
107010.6056949541
 20
97428.76509612717
 30
0.0
 40
0.0042386909827818
  0
CIRCLE
  5
F6EEF
330
1F
100
AcDbEntity
  8
freecads.com
100
AcDbCircle
 10
107010.6184659909
 20
97428.77079388795
 30
0.0
 40
0.0042386909827818
  0
CIRCLE
  5
F6EF0
330
1F
100
AcDbEntity
  8
freecads.com
100
AcDbCircle
 10
107010.6312370277
 20
97428.77649164874
 30
0.0
 40
0.0042386909827818
  0
CIRCLE
  5
F6EF1
330
1F
100
AcDbEntity
  8
freecads.com
100
AcDbCircle
 10
107010.5829778162
 20
97428.72737452579
 30
0.0
 40
0.0042386909827818
  0
CIRCLE
  5
F6EF2
330
1F
100
AcDbEntity
  8
freecads.com
100
AcDbCircle
 10
107010.5938390014
 20
97428.73618352762
 30
0.0
 40
0.0042386909827818
  0
CIRCLE
  5
F6EF3
330
1F
100
AcDbEntity
  8
freecads.com
100
AcDbCircle
 10
107010.6047001866
 20
97428.74499252945
 30
0.0
 40
0.0042386909827818
  0
CIRCLE
  5
F6EF4
330
1F
100
AcDbEntity
  8
freecads.com
100
AcDbCircle
 10
107010.6155613719
 20
97428.75380153128
 30
0.0
 40
0.0042386909827818
  0
CIRCLE
  5
F6EF5
330
1F
100
AcDbEntity
  8
freecads.com
100
AcDbCircle
 10
107010.581659
 20
97428.6938676307
 30
0.0
 40
0.0042386909827818
  0
CIRCLE
  5
F6EF6
330
1F
100
AcDbEntity
  8
freecads.com
100
AcDbCircle
 10
107010.5898701619
 20
97428.70518755465
 30
0.0
 40
0.0042386909827818
  0
CIRCLE
  5
F6EF7
330
1F
100
AcDbEntity
  8
freecads.com
100
AcDbCircle
 10
107010.5980813238
 20
97428.7165074786
 30
0.0
 40
0.0042386909827818
  0
CIRCLE
  5
F6EF8
330
1F
100
AcDbEntity
  8
freecads.com
100
AcDbCircle
 10
107010.6062924856
 20
97428.72782740256
 30
0.0
 40
0.0042386909827818
  0
CIRCLE
  5
F6EF9
330
1F
100
AcDbEntity
  8
freecads.com
100
AcDbCircle
 10
107010.5797172294
 20
97428.9056522493
 30
0.0
 40
0.005024146581366
  0
CIRCLE
  5
F6EFA
330
1F
100
AcDbEntity
  8
freecads.com
100
AcDbCircle
 10
107010.5970545954
 20
97428.95312092096
 30
0.0
 40
0.005024146581366
  0
CIRCLE
  5
F6EFB
330
1F
100
AcDbEntity
  8
freecads.com
100
AcDbCircle
 10
107010.5617306548
 20
97428.85640608305
 30
0.0
 40
0.005024146581366
  0
LINE
  5
F6EFC
330
1F
100
AcDbEntity
  8
freecads.com
100
AcDbLine
 10
107010.5858946289
 20
97428.96766245003
 30
0.0
 11
107010.5456705066
 21
97428.94432674898
 31
0.0
  0
LINE
  5
F6EFD
330
1F
100
AcDbEntity
  8
freecads.com
100
AcDbLine
 10
107010.5858946289
 20
97428.96766245003
 30
0.0
 11
107010.5438256782
 21
97428.85248017769
 31
0.0
  0
LINE
  5
F6EFE
330
1F
100
AcDbEntity
  8
freecads.com
100
AcDbLine
 10
107010.5456705066
 20
97428.94432674898
 30
0.0
 11
107010.5070961228
 21
97428.9584155824
 31
0.0
  0
LINE
  5
F6EFF
330
1F
100
AcDbEntity
  8
freecads.com
100
AcDbLine
 10
107010.5456705066
 20
97428.94432674898
 30
0.0
 11
107010.5281100296
 21
97428.89624721263
 31
0.0
  0
LINE
  5
F6F00
330
1F
100
AcDbEntity
  8
freecads.com
100
AcDbLine
 10
107010.5070961228
 20
97428.9584155824
 30
0.0
 11
107010.5023540213
 21
97428.90565428734
 31
0.0
  0
LINE
  5
F6F01
330
1F
100
AcDbEntity
  8
freecads.com
100
AcDbLine
 10
107010.5281100296
 20
97428.89624721263
 30
0.0
 11
107010.5023540213
 21
97428.90565428734
 31
0.0
  0
CIRCLE
  5
F6F02
330
1F
100
AcDbEntity
  8
freecads.com
100
AcDbCircle
 10
107010.6557874864
 20
97428.58896281768
 30
0.0
 40
0.0042386909827818
  0
CIRCLE
  5
F6F03
330
1F
100
AcDbEntity
  8
freecads.com
100
AcDbCircle
 10
107010.6701933233
 20
97428.60073908691
 30
0.0
 40
0.0042386909827818
  0
CIRCLE
  5
F6F04
330
1F
100
AcDbEntity
  8
freecads.com
100
AcDbCircle
 10
107010.6613843215
 20
97428.61160027214
 30
0.0
 40
0.0042386909827818
  0
LINE
  5
F6F05
330
1F
100
AcDbEntity
  8
freecads.com
100
AcDbLine
 10
107010.662011747
 20
97428.73265442426
 30
0.0
 11
107010.6738483603
 21
97428.66417439243
 31
0.0
  0
LINE
  5
F6F06
330
1F
100
AcDbEntity
  8
freecads.com
100
AcDbLine
 10
107010.6677184163
 20
97428.73364080871
 30
0.0
 11
107010.6795550297
 21
97428.66516077688
 31
0.0
  0
LINE
  5
F6F07
330
1F
100
AcDbEntity
  8
freecads.com
100
AcDbLine
 10
107010.6616315537
 20
97428.70085202548
 30
0.0
 11
107010.662815215
 21
97428.69400402231
 31
0.0
  0
LINE
  5
F6F08
330
1F
100
AcDbEntity
  8
freecads.com
100
AcDbLine
 10
107010.6559248844
 20
97428.69986564105
 30
0.0
 11
107010.6571085457
 21
97428.69301763787
 31
0.0
  0
LINE
  5
F6F09
330
1F
100
AcDbEntity
  8
freecads.com
100
AcDbLine
 10
107010.667338223
 20
97428.70183840993
 30
0.0
 11
107010.6559248844
 21
97428.69986564105
 31
0.0
  0
LINE
  5
F6F0A
330
1F
100
AcDbEntity
  8
freecads.com
100
AcDbLine
 10
107010.6685218843
 20
97428.69499040676
 30
0.0
 11
107010.6571085457
 21
97428.69301763787
 31
0.0
  0
ARC
  5
F6F0B
330
1F
100
AcDbEntity
  8
freecads.com
100
AcDbCircle
 10
107010.6632628352
 20
97428.80761496396
 30
0.0
 40
0.0042386909827818
100
AcDbArc
 50
143.9571912701361
 51
355.914572794395
  0
ARC
  5
F6F0C
330
1F
100
AcDbEntity
  8
freecads.com
100
AcDbCircle
 10
107010.6771717578
 20
97428.80616385116
 30
0.0
 40
0.0042386909827818
100
AcDbArc
 50
191.8677068343174
 51
308.0040572298635
  0
CIRCLE
  5
F6F0D
330
1F
100
AcDbEntity
  8
freecads.com
100
AcDbCircle
 10
107010.6604187615
 20
97428.73643101088
 30
0.0
 40
0.0037905526419322
  0
CIRCLE
  5
F6F0E
330
1F
100
AcDbEntity
  8
freecads.com
100
AcDbCircle
 10
107010.6583063986
 20
97428.678452462
 30
0.0
 40
0.0037905526419322
  0
ARC
  5
F6F0F
330
1F
100
AcDbEntity
  8
freecads.com
100
AcDbCircle
 10
107010.7095734763
 20
97428.70561237653
 30
0.0
 40
0.0478032213602534
100
AcDbArc
 50
161.9426235725227
 51
217.6704693019
  0
LINE
  5
F6F10
330
1F
100
AcDbEntity
  8
freecads.com
100
AcDbLine
 10
107010.4781957891
 20
97429.22042167569
 30
0.0
 11
107010.4781957891
 21
97429.15307611204
 31
0.0
  0
ARC
  5
F6F11
330
1F
100
AcDbEntity
  8
freecads.com
100
AcDbCircle
 10
107010.4567760417
 20
97429.16465869017
 30
0.0
 40
0.0115825781249998
100
AcDbArc
 50
180.0
 51
270.0
  0
ARC
  5
F6F12
330
1F
100
AcDbEntity
  8
freecads.com
100
AcDbCircle
 10
107010.485790496
 20
97429.17160823703
 30
0.0
 40
0.0185321249999997
100
AcDbArc
 50
270.0
 51
0.0
  0
LINE
  5
F6F13
330
1F
100
AcDbEntity
  8
freecads.com
100
AcDbLine
 10
107010.645150664
 20
97429.01992251558
 30
0.0
 11
107010.6397472321
 21
97429.04628512478
 31
0.0
  0
LINE
  5
F6F14
330
1F
100
AcDbEntity
  8
freecads.com
100
AcDbLine
 10
107010.6255420907
 20
97429.01525715446
 30
0.0
 11
107010.6184939993
 21
97429.0412284588
 31
0.0
  0
LINE
  5
F6F15
330
1F
100
AcDbEntity
  8
freecads.com
100
AcDbLine
 10
107010.606265151
 20
97429.00936976687
 30
0.0
 11
107010.5976002158
 21
97429.03484726944
 31
0.0
  0
LINE
  5
F6F16
330
1F
100
AcDbEntity
  8
freecads.com
100
AcDbLine
 10
107010.587395922
 20
97429.00228358763
 30
0.0
 11
107010.5771483394
 21
97429.02716674038
 31
0.0
  0
LINE
  5
F6F17
330
1F
100
AcDbEntity
  8
freecads.com
100
AcDbLine
 10
107010.5690088721
 20
97428.99402658267
 30
0.0
 11
107010.5572190846
 21
97429.01821718316
 31
0.0
  0
LINE
  5
F6F18
330
1F
100
AcDbEntity
  8
freecads.com
100
AcDbLine
 10
107010.5511765663
 20
97428.98463133858
 30
0.0
 11
107010.537891103
 21
97429.00803391757
 31
0.0
  0
LINE
  5
F6F19
330
1F
100
AcDbEntity
  8
freecads.com
100
AcDbLine
 10
107010.5339693809
 20
97428.97413493414
 30
0.0
 11
107010.5192406733
 21
97428.99665713235
 31
0.0
  0
LINE
  5
F6F1A
330
1F
100
AcDbEntity
  8
freecads.com
100
AcDbLine
 10
107010.4567760417
 20
97429.15307611204
 30
0.0
 11
107010.485790496
 21
97429.15307611204
 31
0.0
  0
ARC
  5
F6F1B
330
1F
100
AcDbEntity
  8
freecads.com
100
AcDbCircle
 10
107010.4567760417
 20
97429.20883909757
 30
0.0
 40
0.0115825781249998
100
AcDbArc
 50
90.0
 51
180.0
  0
ARC
  5
F6F1C
330
1F
100
AcDbEntity
  8
freecads.com
100
AcDbCircle
 10
107010.485790496
 20
97429.2018895507
 30
0.0
 40
0.0185321249999997
100
AcDbArc
 50
0.0
 51
90.0
  0
LINE
  5
F6F1D
330
1F
100
AcDbEntity
  8
freecads.com
100
AcDbLine
 10
107010.504322621
 20
97429.2018895507
 30
0.0
 11
107010.504322621
 21
97429.17160823703
 31
0.0
  0
LINE
  5
F6F1E
330
1F
100
AcDbEntity
  8
freecads.com
100
AcDbLine
 10
107010.4905716557
 20
97429.20530327634
 30
0.0
 11
107010.4905716557
 21
97429.16407130284
 31
0.0
  0
LINE
  5
F6F1F
330
1F
100
AcDbEntity
  8
freecads.com
100
AcDbLine
 10
107010.4451934635
 20
97429.20883909757
 30
0.0
 11
107010.4451934635
 21
97429.16465869017
 31
0.0
  0
LINE
  5
F6F20
330
1F
100
AcDbEntity
  8
freecads.com
100
AcDbLine
 10
107010.4534440559
 20
97429.21354967744
 30
0.0
 11
107010.4534440559
 21
97429.15994811029
 31
0.0
  0
LINE
  5
F6F21
330
1F
100
AcDbEntity
  8
freecads.com
100
AcDbLine
 10
107010.4567760417
 20
97429.22042167569
 30
0.0
 11
107010.485790496
 21
97429.22042167569
 31
0.0
  0
LINE
  5
F6F22
330
1F
100
AcDbEntity
  8
freecads.com
100
AcDbLine
 10
107010.6650134846
 20
97429.02334743817
 30
0.0
 11
107010.6612760371
 21
97429.04999731109
 31
0.0
  0
ARC
  5
F6F23
330
1F
100
AcDbEntity
  8
freecads.com
100
AcDbCircle
 10
107010.7095734763
 20
97428.70561237653
 30
0.0
 40
0.0667324967755571
100
AcDbArc
 50
41.18588827544352
 51
338.4272045988025
  0
ARC
  5
F6F24
330
1F
100
AcDbEntity
  8
freecads.com
100
AcDbCircle
 10
107010.7095734763
 20
97428.70561237653
 30
0.0
 40
0.0966464562895568
100
AcDbArc
 50
102.8962352741195
 51
348.7349362163347
  0
LINE
  5
F6F25
330
1F
100
AcDbEntity
  8
freecads.com
100
AcDbLine
 10
107010.5858946289
 20
97428.96766245003
 30
0.0
 11
107011.0025874566
 21
97428.81547036635
 31
0.0
  0
LINE
  5
F6F26
330
1F
100
AcDbEntity
  8
freecads.com
100
AcDbLine
 10
107010.5438256782
 20
97428.85248017769
 30
0.0
 11
107010.9599054607
 21
97428.70051200146
 31
0.0
  0
CIRCLE
  5
F6F27
330
1F
100
AcDbEntity
  8
freecads.com
100
AcDbCircle
 10
107010.6790023252
 20
97428.58987790169
 30
0.0
 40
0.0042386909827818
  0
ARC
  5
F6F28
330
1F
100
AcDbEntity
  8
freecads.com
100
AcDbCircle
 10
107010.7095734763
 20
97428.70561237653
 30
0.0
 40
0.2445416928795866
100
AcDbArc
 50
48.10789991004948
 51
103.5225816512022
  0
LINE
  5
F6F29
330
1F
100
AcDbEntity
  8
freecads.com
100
AcDbLine
 10
107010.662011747
 20
97428.73265442426
 30
0.0
 11
107010.8044791972
 21
97428.75727958979
 31
0.0
  0
LINE
  5
F6F2A
330
1F
100
AcDbEntity
  8
freecads.com
100
AcDbLine
 10
107010.6738483603
 20
97428.66417439243
 30
0.0
 11
107010.9355474617
 21
97428.70940846994
 31
0.0
  0
CIRCLE
  5
F6F2B
330
1F
100
AcDbEntity
  8
freecads.com
100
AcDbCircle
 10
107010.6839521953
 20
97428.62822264575
 30
0.0
 40
0.0085525283632787
  0
ARC
  5
F6F2C
330
1F
100
AcDbEntity
  8
freecads.com
100
AcDbCircle
 10
107010.7095734763
 20
97428.70561237653
 30
0.0
 40
0.0478032213602534
100
AcDbArc
 50
56.43293656516036
 51
143.1801563099586
  0
ARC
  5
F6F2D
330
1F
100
AcDbEntity
  8
freecads.com
100
AcDbCircle
 10
107010.7095734763
 20
97428.70561237653
 30
0.0
 40
0.2355454952082673
100
AcDbArc
 50
45.79931341239936
 51
100.0684312989972
  0
LINE
  5
F6F2E
330
1F
100
AcDbEntity
  8
freecads.com
100
AcDbLine
 10
107010.6326028131
 20
97429.18523854346
 30
0.0
 11
107010.7828269713
 21
97429.07918319657
 31
0.0
  0
LINE
  5
F6F2F
330
1F
100
AcDbEntity
  8
freecads.com
100
AcDbLine
 10
107010.9476095757
 20
97429.2988991762
 30
0.0
 11
107010.9586353595
 21
97429.28119312656
 31
0.0
  0
ARC
  5
F6F30
330
1F
100
AcDbEntity
  8
freecads.com
100
AcDbCircle
 10
107007.7863418614
 20
97421.03640925433
 30
0.0
 40
8.631605887038931
100
AcDbArc
 50
65.8506561862677
 51
72.10601999950374
  0
ARC
  5
F6F31
330
1F
100
AcDbEntity
  8
freecads.com
100
AcDbCircle
 10
107007.7863418614
 20
97421.03640925433
 30
0.0
 40
8.620023308913932
100
AcDbArc
 50
65.83847464124002
 51
70.47517298130653
  0
LINE
  5
F6F32
330
1F
100
AcDbEntity
  8
freecads.com
100
AcDbLine
 10
107010.9999952146
 20
97428.71876508528
 30
0.0
 11
107011.3431909432
 21
97428.59341694016
 31
0.0
  0
ARC
  5
F6F33
330
1F
100
AcDbEntity
  8
freecads.com
100
AcDbCircle
 10
107007.7863418614
 20
97421.03640925433
 30
0.0
 40
8.608440730788933
100
AcDbArc
 50
65.82625990401253
 51
70.19847068756583
  0
ARC
  5
F6F34
330
1F
100
AcDbEntity
  8
freecads.com
100
AcDbCircle
 10
107011.1224981281
 20
97429.56928813004
 30
0.0
 40
0.4883215115702578
100
AcDbArc
 50
254.6365989569352
 51
299.6771088250218
  0
LINE
  5
F6F35
330
1F
100
AcDbEntity
  8
freecads.com
100
AcDbLine
 10
107010.7828269713
 20
97429.07918319657
 30
0.0
 11
107011.2849866174
 21
97428.8813632474
 31
0.0
  0
ARC
  5
F6F36
330
1F
100
AcDbEntity
  8
freecads.com
100
AcDbCircle
 10
107011.1609426839
 20
97429.51571524903
 30
0.0
 40
0.3113397596411624
100
AcDbArc
 50
235.4360975084103
 51
289.2739778634728
  0
LINE
  5
F6F37
330
1F
100
AcDbEntity
  8
freecads.com
100
AcDbLine
 10
107011.079616905
 20
97428.85504070455
 30
0.0
 11
107010.8671062502
 21
97428.96932520677
 31
0.0
  0
LINE
  5
F6F38
330
1F
100
AcDbEntity
  8
freecads.com
100
AcDbLine
 10
107011.0133308666
 20
97428.80892070177
 30
0.0
 11
107011.0388083692
 21
97428.81758563704
 31
0.0
  0
LINE
  5
F6F39
330
1F
100
AcDbEntity
  8
freecads.com
100
AcDbLine
 10
107011.0062446874
 20
97428.82778993074
 30
0.0
 11
107011.0311278401
 21
97428.83803751336
 31
0.0
  0
LINE
  5
F6F3A
330
1F
100
AcDbEntity
  8
freecads.com
100
AcDbLine
 10
107011.0128302929
 20
97428.79329258933
 30
0.0
 11
107011.1461053866
 21
97428.81632887751
 31
0.0
  0
LINE
  5
F6F3B
330
1F
100
AcDbEntity
  8
freecads.com
100
AcDbLine
 10
107011.0757580649
 20
97428.8873827272
 30
0.0
 11
107010.9652135298
 21
97428.94683163896
 31
0.0
  0
LINE
  5
F6F3C
330
1F
100
AcDbEntity
  8
freecads.com
100
AcDbLine
 10
107011.1616691255
 20
97428.62538220245
 30
0.0
 11
107010.9993682472
 21
97428.64555684246
 31
0.0
  0
ARC
  5
F6F3D
330
1F
100
AcDbEntity
  8
freecads.com
100
AcDbCircle
 10
107010.7095734763
 20
97428.70561237653
 30
0.0
 40
0.3477551232983834
100
AcDbArc
 50
15.54111720902245
 51
33.66665841886991
  0
LINE
  5
F6F3E
330
1F
100
AcDbEntity
  8
freecads.com
100
AcDbLine
 10
107011.0025874566
 20
97428.96932520677
 30
0.0
 11
107011.0757580649
 21
97428.8873827272
 31
0.0
  0
LINE
  5
F6F3F
330
1F
100
AcDbEntity
  8
freecads.com
100
AcDbLine
 10
107011.0208630708
 20
97428.77590002814
 30
0.0
 11
107010.9999952146
 21
97428.71876508528
 31
0.0
  0
LINE
  5
F6F40
330
1F
100
AcDbEntity
  8
freecads.com
100
AcDbLine
 10
107010.9979876824
 20
97428.84617698072
 30
0.0
 11
107011.0221782829
 21
97428.85796676816
 31
0.0
  0
LINE
  5
F6F41
330
1F
100
AcDbEntity
  8
freecads.com
100
AcDbLine
 10
107011.0025874566
 20
97428.81547036635
 30
0.0
 11
107011.0208630708
 21
97428.77590002814
 31
0.0
  0
LINE
  5
F6F42
330
1F
100
AcDbEntity
  8
freecads.com
100
AcDbLine
 10
107011.020377615
 20
97429.16840040388
 30
0.0
 11
107010.6007065271
 21
97429.32877420662
 31
0.0
  0
LINE
  5
F6F43
330
1F
100
AcDbEntity
  8
freecads.com
100
AcDbLine
 10
107011.4605350795
 20
97428.53874627234
 30
0.0
 11
107011.6493841675
 21
97428.51397707067
 31
0.0
  0
LINE
  5
F6F44
330
1F
100
AcDbEntity
  8
freecads.com
100
AcDbLine
 10
107011.4747693543
 20
97428.56943562511
 30
0.0
 11
107011.4751857785
 21
97428.54746516043
 31
0.0
  0
LINE
  5
F6F45
330
1F
100
AcDbEntity
  8
freecads.com
100
AcDbLine
 10
107011.4605350795
 20
97428.53874627234
 30
0.0
 11
107011.3787609873
 21
97428.56410370714
 31
0.0
  0
LINE
  5
F6F46
330
1F
100
AcDbEntity
  8
freecads.com
100
AcDbLine
 10
107011.3787609873
 20
97428.56410370714
 30
0.0
 11
107011.3603343349
 21
97428.55525068232
 31
0.0
  0
LINE
  5
F6F47
330
1F
100
AcDbEntity
  8
freecads.com
100
AcDbLine
 10
107011.3173613786
 20
97428.57529182623
 30
0.0
 11
107011.2697843663
 21
97428.56937472351
 31
0.0
  0
LINE
  5
F6F48
330
1F
100
AcDbEntity
  8
freecads.com
100
AcDbLine
 10
107011.3603343349
 20
97428.55525068232
 30
0.0
 11
107011.3173613786
 21
97428.57529182623
 31
0.0
  0
LINE
  5
F6F49
330
1F
100
AcDbEntity
  8
freecads.com
100
AcDbLine
 10
107010.9464394906
 20
97428.48919691152
 30
0.0
 11
107010.9663065117
 21
97428.47104517021
 31
0.0
  0
ARC
  5
F6F4A
330
1F
100
AcDbEntity
  8
freecads.com
100
AcDbCircle
 10
107010.8630460715
 20
97428.58092233134
 30
0.0
 40
0.0115825781249998
100
AcDbArc
 50
320.9075889869161
 51
4.451325136148772
  0
LINE
  5
F6F4B
330
1F
100
AcDbEntity
  8
freecads.com
100
AcDbLine
 10
107010.6938065744
 20
97428.38515556655
 30
0.0
 11
107010.6924841333
 21
97428.35827740833
 31
0.0
  0
LINE
  5
F6F4C
330
1F
100
AcDbEntity
  8
freecads.com
100
AcDbLine
 10
107010.7139593364
 20
97428.38479790291
 30
0.0
 11
107010.7143271983
 21
97428.35788974582
 31
0.0
  0
LINE
  5
F6F4D
330
1F
100
AcDbEntity
  8
freecads.com
100
AcDbLine
 10
107010.7340947894
 20
97428.38570634743
 30
0.0
 11
107010.7361515025
 21
97428.35887438568
 31
0.0
  0
LINE
  5
F6F4E
330
1F
100
AcDbEntity
  8
freecads.com
100
AcDbLine
 10
107010.7541334679
 20
97428.38787731489
 30
0.0
 11
107010.7578709154
 21
97428.36122744197
 31
0.0
  0
LINE
  5
F6F4F
330
1F
100
AcDbEntity
  8
freecads.com
100
AcDbLine
 10
107010.7739962885
 20
97428.3913022375
 30
0.0
 11
107010.7793997204
 21
97428.36493962826
 31
0.0
  0
LINE
  5
F6F50
330
1F
100
AcDbEntity
  8
freecads.com
100
AcDbLine
 10
107010.7936048618
 20
97428.39596759859
 30
0.0
 11
107010.8006529531
 21
97428.36999629426
 31
0.0
  0
LINE
  5
F6F51
330
1F
100
AcDbEntity
  8
freecads.com
100
AcDbLine
 10
107010.8128818015
 20
97428.4018549862
 30
0.0
 11
107010.8215467368
 21
97428.37637748362
 31
0.0
  0
LINE
  5
F6F52
330
1F
100
AcDbEntity
  8
freecads.com
100
AcDbLine
 10
107010.8317510305
 20
97428.40894116543
 30
0.0
 11
107010.8419986131
 21
97428.38405801267
 31
0.0
  0
LINE
  5
F6F53
330
1F
100
AcDbEntity
  8
freecads.com
100
AcDbLine
 10
107010.8501380804
 20
97428.4171981704
 30
0.0
 11
107010.8619278679
 21
97428.3930075699
 31
0.0
  0
LINE
  5
F6F54
330
1F
100
AcDbEntity
  8
freecads.com
100
AcDbLine
 10
107010.8679703862
 20
97428.42659341448
 30
0.0
 11
107010.8812558495
 21
97428.40319083548
 31
0.0
  0
LINE
  5
F6F55
330
1F
100
AcDbEntity
  8
freecads.com
100
AcDbLine
 10
107010.8851775716
 20
97428.43708981892
 30
0.0
 11
107010.8999062792
 21
97428.41456762072
 31
0.0
  0
LINE
  5
F6F56
330
1F
100
AcDbEntity
  8
freecads.com
100
AcDbLine
 10
107010.9016917279
 20
97428.44864595923
 30
0.0
 11
107010.9178055524
 21
97428.42709302665
 31
0.0
  0
LINE
  5
F6F57
330
1F
100
AcDbEntity
  8
freecads.com
100
AcDbLine
 10
107010.9174476813
 20
97428.46121622859
 30
0.0
 11
107010.9348830286
 21
97428.44071762119
 31
0.0
  0
LINE
  5
F6F58
330
1F
100
AcDbEntity
  8
freecads.com
100
AcDbLine
 10
107010.9323832501
 20
97428.4747510179
 30
0.0
 11
107010.951071311
 21
97428.45538763434
 31
0.0
  0
CIRCLE
  5
F6F59
330
1F
100
AcDbEntity
  8
freecads.com
100
AcDbCircle
 10
107010.7213182221
 20
97428.57769790029
 30
0.0
 40
0.0042386909827818
  0
LINE
  5
F6F5A
330
1F
100
AcDbEntity
  8
freecads.com
100
AcDbLine
 10
107010.9595609291
 20
97428.50449689809
 30
0.0
 11
107010.9805285045
 21
97428.4876284357
 31
0.0
  0
LINE
  5
F6F5B
330
1F
100
AcDbEntity
  8
freecads.com
100
AcDbLine
 10
107010.9716957814
 20
97428.52059059559
 30
0.0
 11
107010.9936811615
 21
97428.5050719842
 31
0.0
  0
LINE
  5
F6F5C
330
1F
100
AcDbEntity
  8
freecads.com
100
AcDbLine
 10
107010.9827961566
 20
97428.53741448953
 30
0.0
 11
107011.0057125753
 21
97428.52330697402
 31
0.0
  0
LINE
  5
F6F5D
330
1F
100
AcDbEntity
  8
freecads.com
100
AcDbLine
 10
107010.6537670129
 20
97428.38965858101
 30
0.0
 11
107010.6490862731
 21
97428.36315811093
 31
0.0
  0
LINE
  5
F6F5E
330
1F
100
AcDbEntity
  8
freecads.com
100
AcDbLine
 10
107010.5735394954
 20
97428.55125421169
 30
0.0
 11
107010.5721128967
 21
97428.57449592733
 31
0.0
  0
ARC
  5
F6F5F
330
1F
100
AcDbEntity
  8
freecads.com
100
AcDbCircle
 10
107010.5851003156
 20
97428.55196382588
 30
0.0
 40
0.0115825781249998
100
AcDbArc
 50
183.5124629054818
 51
230.9885118699943
  0
LINE
  5
F6F60
330
1F
100
AcDbEntity
  8
freecads.com
100
AcDbLine
 10
107010.452607059
 20
97428.51349412484
 30
0.0
 11
107010.4310541264
 21
97428.49738030043
 31
0.0
  0
LINE
  5
F6F61
330
1F
100
AcDbEntity
  8
freecads.com
100
AcDbLine
 10
107010.4651773283
 20
97428.49773817146
 30
0.0
 11
107010.4446787209
 21
97428.48030282416
 31
0.0
  0
LINE
  5
F6F62
330
1F
100
AcDbEntity
  8
freecads.com
100
AcDbLine
 10
107010.4787121176
 20
97428.48280260263
 30
0.0
 11
107010.4593487341
 21
97428.46411454181
 31
0.0
  0
LINE
  5
F6F63
330
1F
100
AcDbEntity
  8
freecads.com
100
AcDbLine
 10
107010.4931580112
 20
97428.46874636217
 30
0.0
 11
107010.4750062699
 21
97428.44887934106
 31
0.0
  0
LINE
  5
F6F64
330
1F
100
AcDbEntity
  8
freecads.com
100
AcDbLine
 10
107010.5084579978
 20
97428.45562492368
 30
0.0
 11
107010.4915895354
 21
97428.4346573483
 31
0.0
  0
LINE
  5
F6F65
330
1F
100
AcDbEntity
  8
freecads.com
100
AcDbLine
 10
107010.5245516953
 20
97428.44349007143
 30
0.0
 11
107010.5090330839
 21
97428.42150469128
 31
0.0
  0
LINE
  5
F6F66
330
1F
100
AcDbEntity
  8
freecads.com
100
AcDbLine
 10
107010.5413755893
 20
97428.43238969618
 30
0.0
 11
107010.5272680737
 21
97428.40947327747
 31
0.0
  0
LINE
  5
F6F67
330
1F
100
AcDbEntity
  8
freecads.com
100
AcDbLine
 10
107010.5588632834
 20
97428.42236760601
 30
0.0
 11
107010.5462225397
 21
97428.39861058939
 31
0.0
  0
LINE
  5
F6F68
330
1F
100
AcDbEntity
  8
freecads.com
100
AcDbLine
 10
107010.5769457619
 20
97428.41346335355
 30
0.0
 11
107010.5658216772
 21
97428.38895949713
 31
0.0
  0
LINE
  5
F6F69
330
1F
100
AcDbEntity
  8
freecads.com
100
AcDbLine
 10
107010.5955516613
 20
97428.40571207983
 30
0.0
 11
107010.5859881373
 21
97428.3805580891
 31
0.0
  0
LINE
  5
F6F6A
330
1F
100
AcDbEntity
  8
freecads.com
100
AcDbLine
 10
107010.6146075527
 20
97428.39914437556
 30
0.0
 11
107010.6066423323
 21
97428.37343952185
 31
0.0
  0
LINE
  5
F6F6B
330
1F
100
AcDbEntity
  8
freecads.com
100
AcDbLine
 10
107010.6340382313
 20
97428.39378616048
 30
0.0
 11
107010.6277027496
 21
97428.36763188909
 31
0.0
  0
LINE
  5
F6F6C
330
1F
100
AcDbEntity
  8
freecads.com
100
AcDbLine
 10
107010.6737160372
 20
97428.38677792683
 30
0.0
 11
107010.6707085121
 21
97428.36003584327
 31
0.0
  0
ARC
  5
F6F6D
330
1F
100
AcDbEntity
  8
freecads.com
100
AcDbCircle
 10
107010.7095734763
 20
97428.70561237653
 30
0.0
 40
0.2093234308863546
100
AcDbArc
 50
230.9885118699943
 51
320.9075889869161
  0
LINE
  5
F6F6E
330
1F
100
AcDbEntity
  8
freecads.com
100
AcDbLine
 10
107010.9928182468
 20
97428.55490218369
 30
0.0
 11
107011.0165752634
 21
97428.54226143997
 31
0.0
  0
LINE
  5
F6F6F
330
1F
100
AcDbEntity
  8
freecads.com
100
AcDbLine
 10
107011.0017224992
 20
97428.57298466212
 30
0.0
 11
107011.0262263557
 21
97428.56186057744
 31
0.0
  0
LINE
  5
F6F70
330
1F
100
AcDbEntity
  8
freecads.com
100
AcDbLine
 10
107011.2697843663
 20
97428.56937472351
 30
0.0
 11
107010.9941280727
 21
97428.60363988921
 31
0.0
  0
ARC
  5
F6F71
330
1F
100
AcDbEntity
  8
freecads.com
100
AcDbCircle
 10
107010.7095734763
 20
97428.70561237653
 30
0.0
 40
0.2355454952082673
100
AcDbArc
 50
136.5955563801028
 51
0.0730431591678026
  0
ARC
  5
F6F72
330
1F
100
AcDbEntity
  8
freecads.com
100
AcDbCircle
 10
107010.7095734763
 20
97428.70561237653
 30
0.0
 40
0.2136636384815667
100
AcDbArc
 50
137.6315464217173
 51
0.4470666436831916
  0
ARC
  5
F6F73
330
1F
100
AcDbEntity
  8
freecads.com
100
AcDbCircle
 10
107010.7095734763
 20
97428.70561237653
 30
0.0
 40
0.2445416928795866
100
AcDbArc
 50
135.5337356683324
 51
359.3020275378517
  0
ARC
  5
F6F74
330
1F
100
AcDbEntity
  8
freecads.com
100
AcDbCircle
 10
107010.7095734763
 20
97428.70561237653
 30
0.0
 40
0.1375086001098132
100
AcDbArc
 50
123.7990656584082
 51
355.1695011136906
  0
ARC
  5
F6F75
330
1F
100
AcDbEntity
  8
freecads.com
100
AcDbCircle
 10
107010.6183561774
 20
97428.57733438409
 30
0.0
 40
0.0463303124999992
100
AcDbArc
 50
140.8919123755429
 51
183.5124629054818
  0
LINE
  5
F6F76
330
1F
100
AcDbEntity
  8
freecads.com
100
AcDbLine
 10
107010.8743552941
 20
97428.58488393125
 30
0.0
 11
107010.8745937122
 21
97428.58182128012
 31
0.0
  0
CIRCLE
  5
F6F77
330
1F
100
AcDbEntity
  8
freecads.com
100
AcDbCircle
 10
107010.687811327
 20
97428.57901671646
 30
0.0
 40
0.0042386909827818
  0
CIRCLE
  5
F6F78
330
1F
100
AcDbEntity
  8
freecads.com
100
AcDbCircle
 10
107010.7099982982
 20
97428.58590906216
 30
0.0
 40
0.0042386909827818
  0
CIRCLE
  5
F6F79
330
1F
100
AcDbEntity
  8
freecads.com
100
AcDbCircle
 10
107010.7540247322
 20
97428.58509624428
 30
0.0
 40
0.0042386909827818
  0
LINE
  5
F6F7A
330
1F
100
AcDbEntity
  8
freecads.com
100
AcDbLine
 10
107011.0094737729
 20
97428.59159056155
 30
0.0
 11
107011.0346277637
 21
97428.58202703759
 31
0.0
  0
ARC
  5
F6F7B
330
1F
100
AcDbEntity
  8
freecads.com
100
AcDbCircle
 10
107011.501535513
 20
97428.73791616004
 30
0.0
 40
0.1705934286587654
100
AcDbArc
 50
260.9729764121943
 51
300.2278590485679
  0
ARC
  5
F6F7C
330
1F
100
AcDbEntity
  8
freecads.com
100
AcDbCircle
 10
107011.6533570862
 20
97429.4779653141
 30
0.0
 40
0.9373520481138633
100
AcDbArc
 50
250.6768254846097
 51
259.0304571152271
  0
ARC
  5
F6F7D
330
1F
100
AcDbEntity
  8
freecads.com
100
AcDbCircle
 10
107011.4490894384
 20
97429.50661580362
 30
0.0
 40
0.5485562021078544
100
AcDbArc
 50
286.6649514641317
 51
316.5835658934076
  0
LINE
  5
F6F7E
330
1F
100
AcDbEntity
  8
freecads.com
100
AcDbLine
 10
107011.722631515
 20
97428.95767255808
 30
0.0
 11
107011.493726832
 21
97429.00381079326
 31
0.0
  0
ARC
  5
F6F7F
330
1F
100
AcDbEntity
  8
freecads.com
100
AcDbCircle
 10
107011.8260886999
 20
97432.92568475665
 30
0.0
 40
4.392259064861709
100
AcDbArc
 50
265.4176870940613
 51
271.156075875357
  0
ARC
  5
F6F80
330
1F
100
AcDbEntity
  8
freecads.com
100
AcDbCircle
 10
107012.3293353576
 20
97431.11466785688
 30
0.0
 40
2.447446559275588
100
AcDbArc
 50
246.0700562416647
 51
260.7726561400462
  0
ARC
  5
F6F81
330
1F
100
AcDbEntity
  8
freecads.com
100
AcDbCircle
 10
107012.3293353576
 20
97431.11466785688
 30
0.0
 40
2.424281403025589
100
AcDbArc
 50
246.6997434174835
 51
261.1428366494916
  0
ARC
  5
F6F82
330
1F
100
AcDbEntity
  8
freecads.com
100
AcDbCircle
 10
107012.3293353576
 20
97431.11466785688
 30
0.0
 40
2.435863981150588
100
AcDbArc
 50
246.8262548002993
 51
260.9566631889313
  0
ARC
  5
F6F83
330
1F
100
AcDbEntity
  8
freecads.com
100
AcDbCircle
 10
107012.0484162532
 20
97429.81103329697
 30
0.0
 40
1.182343593291639
100
AcDbArc
 50
241.7751786933577
 51
261.3723646815536
  0
LINE
  5
F6F84
330
1F
100
AcDbEntity
  8
freecads.com
100
AcDbLine
 10
107011.6493841675
 20
97428.51397707067
 30
0.0
 11
107011.7191198265
 21
97428.49848810683
 31
0.0
  0
ARC
  5
F6F85
330
1F
100
AcDbEntity
  8
freecads.com
100
AcDbCircle
 10
107011.604940952
 20
97428.71739299891
 30
0.0
 40
0.6703894108925333
100
AcDbArc
 50
61.61772271002691
 51
95.74706079644942
  0
ARC
  5
F6F86
330
1F
100
AcDbEntity
  8
freecads.com
100
AcDbCircle
 10
107011.0202915504
 20
97424.89445926382
 30
0.0
 40
4.347386169225038
100
AcDbArc
 50
73.47718991946563
 51
85.03388737510514
  0
ARC
  5
F6F87
330
1F
100
AcDbEntity
  8
freecads.com
100
AcDbCircle
 10
107011.6487950282
 20
97429.04169767999
 30
0.0
 40
0.3903931649883377
100
AcDbArc
 50
73.60816477269769
 51
141.3088987876047
  0
ARC
  5
F6F88
330
1F
100
AcDbEntity
  8
freecads.com
100
AcDbCircle
 10
107011.3883002323
 20
97429.5253588769
 30
0.0
 40
0.533215870265201
100
AcDbArc
 50
281.7118873629226
 51
314.3141103615828
  0
ARC
  5
F6F89
330
1F
100
AcDbEntity
  8
freecads.com
100
AcDbCircle
 10
107011.7095201314
 20
97429.05864301892
 30
0.0
 40
0.0926606249999984
100
AcDbArc
 50
85.22712137425518
 51
118.8707328749318
  0
ARC
  5
F6F8A
330
1F
100
AcDbEntity
  8
freecads.com
100
AcDbCircle
 10
107011.7797469256
 20
97428.90528783565
 30
0.0
 40
0.3887456271117841
100
AcDbArc
 50
87.97030094586736
 51
110.5910860108568
  0
LINE
  5
F6F8B
330
1F
100
AcDbEntity
  8
freecads.com
100
AcDbLine
 10
107011.6717063036
 20
97429.43141796011
 30
0.0
 11
107011.7668589809
 21
97429.42582402696
 31
0.0
  0
ARC
  5
F6F8C
330
1F
100
AcDbEntity
  8
freecads.com
100
AcDbCircle
 10
107011.1638769507
 20
97429.52974337253
 30
0.0
 40
0.2867574286626597
100
AcDbArc
 50
215.1234553931999
 51
303.2915371955425
  0
ENDSEC
  0
SECTION
  2
OBJECTS
  0
DICTIONARY
  5
C
330
0
100
AcDbDictionary
281
     1
  3
ACAD_ASSOCPERSSUBENTMANAGER
350
2C1D4
  3
ACAD_CIP_PREVIOUS_PRODUCT_INFO
350
1A5
  3
ACAD_COLOR
350
73
  3
ACAD_DETAILVIEWSTYLE
350
1AB
  3
ACAD_GROUP
350
D
  3
ACAD_LAYOUT
350
1A
  3
ACAD_MATERIAL
350
72
  3
ACAD_MLEADERSTYLE
350
D7
  3
ACAD_MLINESTYLE
350
17
  3
ACAD_PLOTSETTINGS
350
19
  3
ACAD_PLOTSTYLENAME
350
E
  3
ACAD_SCALELIST
350
B6
  3
ACAD_SECTIONVIEWSTYLE
350
1A8
  3
ACAD_TABLESTYLE
350
86
  3
ACAD_VISUALSTYLE
350
99
  3
ACDB_RECOMPOSE_DATA
350
F86BC
  3
ACDBVARIABLEDICTIONARY
350
502C5
  3
AEC_PROPERTY_SET_DEFS
350
22D1
  0
DICTIONARY
  5
18E
330
2
100
AcDbDictionary
280
     1
281
     1
  3
ACAD_LAYERSTATES
360
18F
  0
DICTIONARY
  5
E6
330
10
100
AcDbDictionary
280
     1
281
     1
  0
DICTIONARY
  5
15D
330
1F
100
AcDbDictionary
280
     1
281
     1
  3
ACAD_SORTENTS
360
28E
  0
ACDBASSOCPERSSUBENTMANAGER
  5
2C1D4
102
{ACAD_REACTORS
330
C
102
}
330
C
100
AcDbAssocPersSubentManager
 90
        2
 90
        3
 90
        0
 90
        2
 90
     1260
 90
        0
 90
     1260
 90
        1
 90
        2
 90
        3
 90
        4
 90
        5
 90
        6
 90
        7
 90
        8
 90
        9
 90
       10
 90
       11
 90
       12
 90
       13
 90
       14
 90
       15
 90
       16
 90
       17
 90
       18
 90
       19
 90
       20
 90
       21
 90
       22
 90
       23
 90
       24
 90
       25
 90
       26
 90
       27
 90
       28
 90
       29
 90
       30
 90
       31
 90
       32
 90
       33
 90
       34
 90
       35
 90
       36
 90
       37
 90
       38
 90
       39
 90
       40
 90
       41
 90
       42
 90
       43
 90
       44
 90
       45
 90
       46
 90
       47
 90
       48
 90
       49
 90
       50
 90
       51
 90
       52
 90
       53
 90
       54
 90
       55
 90
       56
 90
       57
 90
       58
 90
       59
 90
       60
 90
       61
 90
       62
 90
       63
 90
       64
 90
       65
 90
       66
 90
       67
 90
       68
 90
       69
 90
       70
 90
       71
 90
       72
 90
       73
 90
       74
 90
       75
 90
       76
 90
       77
 90
       78
 90
       79
 90
       80
 90
       81
 90
       82
 90
       83
 90
       84
 90
       85
 90
       86
 90
       87
 90
       88
 90
       89
 90
       90
 90
       91
 90
       92
 90
       93
 90
       94
 90
       95
 90
       96
 90
       97
 90
       98
 90
       99
 90
      100
 90
      101
 90
      102
 90
      103
 90
      104
 90
      105
 90
      106
 90
      107
 90
      108
 90
      109
 90
      110
 90
      111
 90
      112
 90
      113
 90
      114
 90
      115
 90
      116
 90
      117
 90
      118
 90
      119
 90
      120
 90
      121
 90
      122
 90
      123
 90
      124
 90
      125
 90
      126
 90
      127
 90
      128
 90
      129
 90
      130
 90
      131
 90
      132
 90
      133
 90
      134
 90
      135
 90
      136
 90
      137
 90
      138
 90
      139
 90
      140
 90
      141
 90
      142
 90
      143
 90
      144
 90
      145
 90
      146
 90
      147
 90
      148
 90
      149
 90
      150
 90
      151
 90
      152
 90
      153
 90
      154
 90
      155
 90
      156
 90
      157
 90
      158
 90
      159
 90
      160
 90
      161
 90
      162
 90
      163
 90
      164
 90
      165
 90
      166
 90
      167
 90
      168
 90
      169
 90
      170
 90
      171
 90
      172
 90
      173
 90
      174
 90
      175
 90
      176
 90
      177
 90
      178
 90
      179
 90
      180
 90
      181
 90
      182
 90
      183
 90
      184
 90
      185
 90
      186
 90
      187
 90
      188
 90
      189
 90
      190
 90
      191
 90
      192
 90
      193
 90
      194
 90
      195
 90
      196
 90
      197
 90
      198
 90
      199
 90
      200
 90
      201
 90
      202
 90
      203
 90
      204
 90
      205
 90
      206
 90
      207
 90
      208
 90
      209
 90
      210
 90
      211
 90
      212
 90
      213
 90
      214
 90
      215
 90
      216
 90
      217
 90
      218
 90
      219
 90
      220
 90
      221
 90
      222
 90
      223
 90
      224
 90
      225
 90
      226
 90
      227
 90
      228
 90
      229
 90
      230
 90
      231
 90
      232
 90
      233
 90
      234
 90
      235
 90
      236
 90
      237
 90
      238
 90
      239
 90
      240
 90
      241
 90
      242
 90
      243
 90
      244
 90
      245
 90
      246
 90
      247
 90
      248
 90
      249
 90
      250
 90
      251
 90
      252
 90
      253
 90
      254
 90
      255
 90
      256
 90
      257
 90
      258
 90
      259
 90
      260
 90
      261
 90
      262
 90
      263
 90
      264
 90
      265
 90
      266
 90
      267
 90
      268
 90
      269
 90
      270
 90
      271
 90
      272
 90
      273
 90
      274
 90
      275
 90
      276
 90
      277
 90
      278
 90
      279
 90
      280
 90
      281
 90
      282
 90
      283
 90
      284
 90
      285
 90
      286
 90
      287
 90
      288
 90
      289
 90
      290
 90
      291
 90
      292
 90
      293
 90
      294
 90
      295
 90
      296
 90
      297
 90
      298
 90
      299
 90
      300
 90
      301
 90
      302
 90
      303
 90
      304
 90
      305
 90
      306
 90
      307
 90
      308
 90
      309
 90
      310
 90
      311
 90
      312
 90
      313
 90
      314
 90
      315
 90
      316
 90
      317
 90
      318
 90
      319
 90
      320
 90
      321
 90
      322
 90
      323
 90
      324
 90
      325
 90
      326
 90
      327
 90
      328
 90
      329
 90
      330
 90
      331
 90
      332
 90
      333
 90
      334
 90
      335
 90
      336
 90
      337
 90
      338
 90
      339
 90
      340
 90
      341
 90
      342
 90
      343
 90
      344
 90
      345
 90
      346
 90
      347
 90
      348
 90
      349
 90
      350
 90
      351
 90
      352
 90
      353
 90
      354
 90
      355
 90
      356
 90
      357
 90
      358
 90
      359
 90
      360
 90
      361
 90
      362
 90
      363
 90
      364
 90
      365
 90
      366
 90
      367
 90
      368
 90
      369
 90
      370
 90
      371
 90
      372
 90
      373
 90
      374
 90
      375
 90
      376
 90
      377
 90
      378
 90
      379
 90
      380
 90
      381
 90
      382
 90
      383
 90
      384
 90
      385
 90
      386
 90
      387
 90
      388
 90
      389
 90
      390
 90
      391
 90
      392
 90
      393
 90
      394
 90
      395
 90
      396
 90
      397
 90
      398
 90
      399
 90
      400
 90
      401
 90
      402
 90
      403
 90
      404
 90
      405
 90
      406
 90
      407
 90
      408
 90
      409
 90
      410
 90
      411
 90
      412
 90
      413
 90
      414
 90
      415
 90
      416
 90
      417
 90
      418
 90
      419
 90
      420
 90
      421
 90
      422
 90
      423
 90
      424
 90
      425
 90
      426
 90
      427
 90
      428
 90
      429
 90
      430
 90
      431
 90
      432
 90
      433
 90
      434
 90
      435
 90
      436
 90
      437
 90
      438
 90
      439
 90
      440
 90
      441
 90
      442
 90
      443
 90
      444
 90
      445
 90
      446
 90
      447
 90
      448
 90
      449
 90
      450
 90
      451
 90
      452
 90
      453
 90
      454
 90
      455
 90
      456
 90
      457
 90
      458
 90
      459
 90
      460
 90
      461
 90
      462
 90
      463
 90
      464
 90
      465
 90
      466
 90
      467
 90
      468
 90
      469
 90
      470
 90
      471
 90
      472
 90
      473
 90
      474
 90
      475
 90
      476
 90
      477
 90
      478
 90
      479
 90
      480
 90
      481
 90
      482
 90
      483
 90
      484
 90
      485
 90
      486
 90
      487
 90
      488
 90
      489
 90
      490
 90
      491
 90
      492
 90
      493
 90
      494
 90
      495
 90
      496
 90
      497
 90
      498
 90
      499
 90
      500
 90
      501
 90
      502
 90
      503
 90
      504
 90
      505
 90
      506
 90
      507
 90
      508
 90
      509
 90
      510
 90
      511
 90
      512
 90
      513
 90
      514
 90
      515
 90
      516
 90
      517
 90
      518
 90
      519
 90
      520
 90
      521
 90
      522
 90
      523
 90
      524
 90
      525
 90
      526
 90
      527
 90
      528
 90
      529
 90
      530
 90
      531
 90
      532
 90
      533
 90
      534
 90
      535
 90
      536
 90
      537
 90
      538
 90
      539
 90
      540
 90
      541
 90
      542
 90
      543
 90
      544
 90
      545
 90
      546
 90
      547
 90
      548
 90
      549
 90
      550
 90
      551
 90
      552
 90
      553
 90
      554
 90
      555
 90
      556
 90
      557
 90
      558
 90
      559
 90
      560
 90
      561
 90
      562
 90
      563
 90
      564
 90
      565
 90
      566
 90
      567
 90
      568
 90
      569
 90
      570
 90
      571
 90
      572
 90
      573
 90
      574
 90
      575
 90
      576
 90
      577
 90
      578
 90
      579
 90
      580
 90
      581
 90
      582
 90
      583
 90
      584
 90
      585
 90
      586
 90
      587
 90
      588
 90
      589
 90
      590
 90
      591
 90
      592
 90
      593
 90
      594
 90
      595
 90
      596
 90
      597
 90
      598
 90
      599
 90
      600
 90
      601
 90
      602
 90
      603
 90
      604
 90
      605
 90
      606
 90
      607
 90
      608
 90
      609
 90
      610
 90
      611
 90
      612
 90
      613
 90
      614
 90
      615
 90
      616
 90
      617
 90
      618
 90
      619
 90
      620
 90
      621
 90
      622
 90
      623
 90
      624
 90
      625
 90
      626
 90
      627
 90
      628
 90
      629
 90
      630
 90
      631
 90
      632
 90
      633
 90
      634
 90
      635
 90
      636
 90
      637
 90
      638
 90
      639
 90
      640
 90
      641
 90
      642
 90
      643
 90
      644
 90
      645
 90
      646
 90
      647
 90
      648
 90
      649
 90
      650
 90
      651
 90
      652
 90
      653
 90
      654
 90
      655
 90
      656
 90
      657
 90
      658
 90
      659
 90
      660
 90
      661
 90
      662
 90
      663
 90
      664
 90
      665
 90
      666
 90
      667
 90
      668
 90
      669
 90
      670
 90
      671
 90
      672
 90
      673
 90
      674
 90
      675
 90
      676
 90
      677
 90
      678
 90
      679
 90
      680
 90
      681
 90
      682
 90
      683
 90
      684
 90
      685
 90
      686
 90
      687
 90
      688
 90
      689
 90
      690
 90
      691
 90
      692
 90
      693
 90
      694
 90
      695
 90
      696
 90
      697
 90
      698
 90
      699
 90
      700
 90
      701
 90
      702
 90
      703
 90
      704
 90
      705
 90
      706
 90
      707
 90
      708
 90
      709
 90
      710
 90
      711
 90
      712
 90
      713
 90
      714
 90
      715
 90
      716
 90
      717
 90
      718
 90
      719
 90
      720
 90
      721
 90
      722
 90
      723
 90
      724
 90
      725
 90
      726
 90
      727
 90
      728
 90
      729
 90
      730
 90
      731
 90
      732
 90
      733
 90
      734
 90
      735
 90
      736
 90
      737
 90
      738
 90
      739
 90
      740
 90
      741
 90
      742
 90
      743
 90
      744
 90
      745
 90
      746
 90
      747
 90
      748
 90
      749
 90
      750
 90
      751
 90
      752
 90
      753
 90
      754
 90
      755
 90
      756
 90
      757
 90
      758
 90
      759
 90
      760
 90
      761
 90
      762
 90
      763
 90
      764
 90
      765
 90
      766
 90
      767
 90
      768
 90
      769
 90
      770
 90
      771
 90
      772
 90
      773
 90
      774
 90
      775
 90
      776
 90
      777
 90
      778
 90
      779
 90
      780
 90
      781
 90
      782
 90
      783
 90
      784
 90
      785
 90
      786
 90
      787
 90
      788
 90
      789
 90
      790
 90
      791
 90
      792
 90
      793
 90
      794
 90
      795
 90
      796
 90
      797
 90
      798
 90
      799
 90
      800
 90
      801
 90
      802
 90
      803
 90
      804
 90
      805
 90
      806
 90
      807
 90
      808
 90
      809
 90
      810
 90
      811
 90
      812
 90
      813
 90
      814
 90
      815
 90
      816
 90
      817
 90
      818
 90
      819
 90
      820
 90
      821
 90
      822
 90
      823
 90
      824
 90
      825
 90
      826
 90
      827
 90
      828
 90
      829
 90
      830
 90
      831
 90
      832
 90
      833
 90
      834
 90
      835
 90
      836
 90
      837
 90
      838
 90
      839
 90
      840
 90
      841
 90
      842
 90
      843
 90
      844
 90
      845
 90
      846
 90
      847
 90
      848
 90
      849
 90
      850
 90
      851
 90
      852
 90
      853
 90
      854
 90
      855
 90
      856
 90
      857
 90
      858
 90
      859
 90
      860
 90
      861
 90
      862
 90
      863
 90
      864
 90
      865
 90
      866
 90
      867
 90
      868
 90
      869
 90
      870
 90
      871
 90
      872
 90
      873
 90
      874
 90
      875
 90
      876
 90
      877
 90
      878
 90
      879
 90
      880
 90
      881
 90
      882
 90
      883
 90
      884
 90
      885
 90
      886
 90
      887
 90
      888
 90
      889
 90
      890
 90
      891
 90
      892
 90
      893
 90
      894
 90
      895
 90
      896
 90
      897
 90
      898
 90
      899
 90
      900
 90
      901
 90
      902
 90
      903
 90
      904
 90
      905
 90
      906
 90
      907
 90
      908
 90
      909
 90
      910
 90
      911
 90
      912
 90
      913
 90
      914
 90
      915
 90
      916
 90
      917
 90
      918
 90
      919
 90
      920
 90
      921
 90
      922
 90
      923
 90
      924
 90
      925
 90
      926
 90
      927
 90
      928
 90
      929
 90
      930
 90
      931
 90
      932
 90
      933
 90
      934
 90
      935
 90
      936
 90
      937
 90
      938
 90
      939
 90
      940
 90
      941
 90
      942
 90
      943
 90
      944
 90
      945
 90
      946
 90
      947
 90
      948
 90
      949
 90
      950
 90
      951
 90
      952
 90
      953
 90
      954
 90
      955
 90
      956
 90
      957
 90
      958
 90
      959
 90
      960
 90
      961
 90
      962
 90
      963
 90
      964
 90
      965
 90
      966
 90
      967
 90
      968
 90
      969
 90
      970
 90
      971
 90
      972
 90
      973
 90
      974
 90
      975
 90
      976
 90
      977
 90
      978
 90
      979
 90
      980
 90
      981
 90
      982
 90
      983
 90
      984
 90
      985
 90
      986
 90
      987
 90
      988
 90
      989
 90
      990
 90
      991
 90
      992
 90
      993
 90
      994
 90
      995
 90
      996
 90
      997
 90
      998
 90
      999
 90
     1000
 90
     1001
 90
     1002
 90
     1003
 90
     1004
 90
     1005
 90
     1006
 90
     1007
 90
     1008
 90
     1009
 90
     1010
 90
     1011
 90
     1012
 90
     1013
 90
     1014
 90
     1015
 90
     1016
 90
     1017
 90
     1018
 90
     1019
 90
     1020
 90
     1021
 90
     1022
 90
     1023
 90
     1024
 90
     1025
 90
     1026
 90
     1027
 90
     1028
 90
     1029
 90
     1030
 90
     1031
 90
     1032
 90
     1033
 90
     1034
 90
     1035
 90
     1036
 90
     1037
 90
     1038
 90
     1039
 90
     1040
 90
     1041
 90
     1042
 90
     1043
 90
     1044
 90
     1045
 90
     1046
 90
     1047
 90
     1048
 90
     1049
 90
     1050
 90
     1051
 90
     1052
 90
     1053
 90
     1054
 90
     1055
 90
     1056
 90
     1057
 90
     1058
 90
     1059
 90
     1060
 90
     1061
 90
     1062
 90
     1063
 90
     1064
 90
     1065
 90
     1066
 90
     1067
 90
     1068
 90
     1069
 90
     1070
 90
     1071
 90
     1072
 90
     1073
 90
     1074
 90
     1075
 90
     1076
 90
     1077
 90
     1078
 90
     1079
 90
     1080
 90
     1081
 90
     1082
 90
     1083
 90
     1084
 90
     1085
 90
     1086
 90
     1087
 90
     1088
 90
     1089
 90
     1090
 90
     1091
 90
     1092
 90
     1093
 90
     1094
 90
     1095
 90
     1096
 90
     1097
 90
     1098
 90
     1099
 90
     1100
 90
     1101
 90
     1102
 90
     1103
 90
     1104
 90
     1105
 90
     1106
 90
     1107
 90
     1108
 90
     1109
 90
     1110
 90
     1111
 90
     1112
 90
     1113
 90
     1114
 90
     1115
 90
     1116
 90
     1117
 90
     1118
 90
     1119
 90
     1120
 90
     1121
 90
     1122
 90
     1123
 90
     1124
 90
     1125
 90
     1126
 90
     1127
 90
     1128
 90
     1129
 90
     1130
 90
     1131
 90
     1132
 90
     1133
 90
     1134
 90
     1135
 90
     1136
 90
     1137
 90
     1138
 90
     1139
 90
     1140
 90
     1141
 90
     1142
 90
     1143
 90
     1144
 90
     1145
 90
     1146
 90
     1147
 90
     1148
 90
     1149
 90
     1150
 90
     1151
 90
     1152
 90
     1153
 90
     1154
 90
     1155
 90
     1156
 90
     1157
 90
     1158
 90
     1159
 90
     1160
 90
     1161
 90
     1162
 90
     1163
 90
     1164
 90
     1165
 90
     1166
 90
     1167
 90
     1168
 90
     1169
 90
     1170
 90
     1171
 90
     1172
 90
     1173
 90
     1174
 90
     1175
 90
     1176
 90
     1177
 90
     1178
 90
     1179
 90
     1180
 90
     1181
 90
     1182
 90
     1183
 90
     1184
 90
     1185
 90
     1186
 90
     1187
 90
     1188
 90
     1189
 90
     1190
 90
     1191
 90
     1192
 90
     1193
 90
     1194
 90
     1195
 90
     1196
 90
     1197
 90
     1198
 90
     1199
 90
     1200
 90
     1201
 90
     1202
 90
     1203
 90
     1204
 90
     1205
 90
     1206
 90
     1207
 90
     1208
 90
     1209
 90
     1210
 90
     1211
 90
     1212
 90
     1213
 90
     1214
 90
     1215
 90
     1216
 90
     1217
 90
     1218
 90
     1219
 90
     1220
 90
     1221
 90
     1222
 90
     1223
 90
     1224
 90
     1225
 90
     1226
 90
     1227
 90
     1228
 90
     1229
 90
     1230
 90
     1231
 90
     1232
 90
     1233
 90
     1234
 90
     1235
 90
     1236
 90
     1237
 90
     1238
 90
     1239
 90
     1240
 90
     1241
 90
     1242
 90
     1243
 90
     1244
 90
     1245
 90
     1246
 90
     1247
 90
     1248
 90
     1249
 90
     1250
 90
     1251
 90
     1252
 90
     1253
 90
     1254
 90
     1255
 90
     1256
 90
     1257
 90
     1258
 90
     1259
 90
     1260
 90
        0
 90
        0
290
     0
  0
XRECORD
  5
1A5
102
{ACAD_REACTORS
330
C
102
}
330
C
100
AcDbXrecord
280
     1
300
ACD
300
2022
300

  0
DICTIONARY
  5
73
102
{ACAD_REACTORS
330
C
102
}
330
C
100
AcDbDictionary
281
     1
  0
DICTIONARY
  5
1AB
102
{ACAD_REACTORS
330
C
102
}
330
C
100
AcDbDictionary
281
     1
  3
Imperial24
350
1AC
  3
Metric50
350
224
  0
DICTIONARY
  5
D
102
{ACAD_REACTORS
330
C
102
}
330
C
100
AcDbDictionary
281
     1
  0
DICTIONARY
  5
1A
102
{ACAD_REACTORS
330
C
102
}
330
C
100
AcDbDictionary
281
     1
  3
Layout1
350
59
  3
Layout2
350
5E
  3
Model
350
22
  0
DICTIONARY
  5
72
102
{ACAD_REACTORS
330
C
102
}
330
C
100
AcDbDictionary
281
     1
  3
ByBlock
350
97
  3
ByLayer
350
96
  3
Global
350
98
  0
DICTIONARY
  5
D7
102
{ACAD_REACTORS
330
C
102
}
330
C
100
AcDbDictionary
281
     1
  3
Standard
350
D8
  0
DICTIONARY
  5
17
102
{ACAD_REACTORS
330
C
102
}
330
C
100
AcDbDictionary
281
     1
  3
Standard
350
18
  0
DICTIONARY
  5
19
102
{ACAD_REACTORS
330
C
102
}
330
C
100
AcDbDictionary
281
     1
  0
ACDBDICTIONARYWDFLT
  5
E
102
{ACAD_REACTORS
330
C
102
}
330
C
100
AcDbDictionary
281
     1
  3
Normal
350
F
100
AcDbDictionaryWithDefault
340
F
  0
DICTIONARY
  5
B6
102
{ACAD_REACTORS
330
C
102
}
330
C
100
AcDbDictionary
281
     1
  3
*A1
350
2283
  3
A0
350
B7
  3
A1
350
124
  3
A2
350
125
  3
A3
350
126
  3
A4
350
127
  3
A5
350
128
  3
A6
350
129
  3
A7
350
12A
  3
A8
350
12B
  3
A9
350
12C
  3
B0
350
12D
  3
B1
350
12E
  3
B2
350
12F
  3
B3
350
130
  3
B4
350
131
  3
B5
350
132
  3
B6
350
133
  3
B7
350
134
  3
B8
350
135
  3
B9
350
136
  3
C0
350
137
  3
C1
350
138
  3
C2
350
139
  3
C3
350
13A
  3
C4
350
13B
  3
C5
350
13C
  3
C6
350
13D
  3
C7
350
13E
  3
C8
350
13F
  3
C9
350
140
  3
D0
350
141
  3
D1
350
142
  3
D2
350
143
  0
DICTIONARY
  5
1A8
102
{ACAD_REACTORS
330
C
102
}
330
C
100
AcDbDictionary
281
     1
  3
Imperial24
350
1AA
  3
Metric50
350
223
  0
DICTIONARY
  5
86
102
{ACAD_REACTORS
330
C
102
}
330
C
100
AcDbDictionary
281
     1
  3
Standard
350
87
  0
DICTIONARY
  5
99
102
{ACAD_REACTORS
330
C
102
}
330
C
100
AcDbDictionary
281
     1
  3
2dWireframe
350
9F
  3
3dWireframe
350
22946
  3
Basic
350
9E
  3
Brighten
350
A5
  3
ColorChange
350
A9
  3
Conceptual
350
A2
  3
Dim
350
A4
  3
EdgeColorOff
350
175
  3
Facepattern
350
A8
  3
Flat
350
9A
  3
FlatWithEdges
350
9B
  3
Gouraud
350
9C
  3
GouraudWithEdges
350
9D
  3
Hidden
350
A1
  3
JitterOff
350
173
  3
Linepattern
350
A7
  3
OverhangOff
350
174
  3
Realistic
350
A3
  3
Shaded
350
182
  3
Shaded with edges
350
181
  3
Shades of Gray
350
17E
  3
Sketchy
350
17F
  3
Thicken
350
A6
  3
Wireframe
350
A0
  3
X-Ray
350
180
  0
XRECORD
  5
F86BC
102
{ACAD_REACTORS
330
C
102
}
330
C
100
AcDbXrecord
280
     1
 90
        1
330
87
  0
DICTIONARY
  5
502C5
102
{ACAD_REACTORS
330
C
102
}
330
C
100
AcDbDictionary
281
     2
  3
#COMPAREDIFFTOTAL
350
502C6
  3
#REVCLOUDAPPROXARCLEN
350
502C7
  3
ANNOALLVISIBLE
350
502C8
  3
CANNOSCALE
350
502C9
  3
CMLEADERSTYLE
350
502CA
  3
CTABLESTYLE
350
502CB
  3
CVIEWDETAILSTYLE
350
502CC
  3
CVIEWSECTIONSTYLE
350
502CD
  3
DIMADEC
350
502CE
  3
DIMASSOC
350
502CF
  3
DWFFRAME
350
502D0
  3
HIDETEXT
350
502D1
  3
HPCOLOR
350
502D2
  3
HPLAYER
350
502D3
  3
HPTRANSPARENCY
350
502D4
  3
INDEXCTL
350
502D5
  3
LAYEREVAL
350
502D6
  3
LAYERNOTIFY
350
502D7
  3
LIGHTINGUNITS
350
502D8
  3
MLEADERSCALE
350
502D9
  3
MSLTSCALE
350
502DA
  3
MSOLESCALE
350
502DB
  3
PDFFRAME
350
502DC
  3
POINTCLOUDCLIPFRAME
350
502DD
  3
PROJECTNAME
350
502DE
  3
SOLIDHIST
350
502DF
  3
SORTENTS
350
502E0
  0
DICTIONARY
  5
22D1
102
{ACAD_REACTORS
330
C
102
}
330
C
100
AcDbDictionary
281
     1
  0
DICTIONARY
  5
18F
102
{ACAD_REACTORS
330
18E
102
}
330
18E
100
AcDbDictionary
281
     1
  0
SORTENTSTABLE
  5
28E
102
{ACAD_REACTORS
330
15D
102
}
330
15D
100
AcDbSortentsTable
330
1F
  0
ACDBDETAILVIEWSTYLE
  5
1AC
102
{ACAD_REACTORS
330
1AB
102
}
330
1AB
100
AcDbModelDocViewStyle
 70
     0
  3
Imperial24
290
     0
300
Imperial24
 90
        0
100
AcDbDetailViewStyle
 70
     0
 71
     0
 90
        3
 71
     1
340
11
 62
   256
 40
0.24
340
0
 62
   256
 40
0.24
300

 40
0.36
280
     3
 71
     2
340
16
 90
       25
 62
   256
 71
     3
340
11
 62
   256
 40
0.24
 90
        1
 40
0.75
 90
        1
300
%<\AcVar ViewType \f "%tc1">% %<\AcVar ViewDetailId>%\PSCALE %<\AcVar ViewScale \f "%sn">%
 71
     4
340
16
 90
       25
 62
   256
340
16
 90
       25
 62
   256
280
     0
  0
ACDBDETAILVIEWSTYLE
  5
224
102
{ACAD_REACTORS
330
1AB
102
}
330
1AB
100
AcDbModelDocViewStyle
 70
     0
  3
Metric50
290
     0
300
Metric50
 90
        0
100
AcDbDetailViewStyle
 70
     0
 71
     0
 90
        3
 71
     1
340
11
 62
   256
 40
5.0
340
0
 62
   256
 40
5.0
300

 40
0.0
280
     1
 71
     2
340
16
 90
       25
 62
   256
 71
     3
340
11
 62
   256
 40
5.0
 90
        0
 40
15.0
 90
        1
300
%<\AcVar ViewDetailId>% (%<\AcVar ViewScale \f "%sn">%)
 71
     4
340
16
 90
       25
 62
   256
340
16
 90
       25
 62
   256
280
     0
  0
LAYOUT
  5
59
102
{ACAD_REACTORS
330
1A
102
}
330
1A
100
AcDbPlotSettings
  1

  2
None
  4

  6

 40
0.0
 41
0.0
 42
0.0
 43
0.0
 44
0.0
 45
0.0
 46
0.0
 47
0.0
 48
0.0
 49
0.0
140
0.0
141
0.0
142
1.0
143
1.0
 70
   688
 72
     0
 73
     0
 74
     5
  7

 75
    16
147
1.0
 76
     0
 77
     2
 78
   300
148
0.0
149
0.0
100
AcDbLayout
  1
Layout1
 70
     1
 71
     1
 10
0.0
 20
0.0
 11
12.0
 21
9.0
 12
0.0
 22
0.0
 32
0.0
 14
0.0
 24
0.0
 34
0.0
 15
0.0
 25
0.0
 35
0.0
146
0.0
 13
0.0
 23
0.0
 33
0.0
 16
1.0
 26
0.0
 36
0.0
 17
0.0
 27
1.0
 37
0.0
 76
     0
330
58
  0
LAYOUT
  5
5E
102
{ACAD_REACTORS
330
1A
102
}
330
1A
100
AcDbPlotSettings
  1

  2
None
  4

  6

 40
0.0
 41
0.0
 42
0.0
 43
0.0
 44
0.0
 45
0.0
 46
0.0
 47
0.0
 48
0.0
 49
0.0
140
0.0
141
0.0
142
1.0
143
1.0
 70
   688
 72
     0
 73
     0
 74
     5
  7

 75
    16
147
1.0
 76
     0
 77
     2
 78
   300
148
0.0
149
0.0
100
AcDbLayout
  1
Layout2
 70
     1
 71
     2
 10
0.0
 20
0.0
 11
12.0
 21
9.0
 12
0.0
 22
0.0
 32
0.0
 14
0.0
 24
0.0
 34
0.0
 15
0.0
 25
0.0
 35
0.0
146
0.0
 13
0.0
 23
0.0
 33
0.0
 16
1.0
 26
0.0
 36
0.0
 17
0.0
 27
1.0
 37
0.0
 76
     0
330
5D
  0
LAYOUT
  5
22
102
{ACAD_XDICTIONARY
360
194
102
}
102
{ACAD_REACTORS
330
1A
102
}
330
1A
100
AcDbPlotSettings
  1

  2
none_device
  4
ANSI_A_(8.50_x_11.00_Inches)
  6

 40
6.349999904632568
 41
19.04999923706055
 42
6.350006103515625
 43
19.04998779296875
 44
215.8999938964844
 45
279.3999938964844
 46
0.0
 47
0.0
 48
0.0
 49
0.0
140
0.0
141
0.0
142
1.0
143
2.584895464708373
 70
 11952
 72
     0
 73
     1
 74
     0
  7

 75
     0
147
0.3868628397755418
 76
     0
 77
     2
 78
   300
148
0.0
149
0.0
100
AcDbLayout
  1
Model
 70
     1
 71
     0
 10
0.0
 20
0.0
 11
12.0
 21
9.0
 12
0.0
 22
0.0
 32
0.0
 14
0.0
 24
0.0
 34
0.0
 15
0.0
 25
0.0
 35
0.0
146
0.0
 13
0.0
 23
0.0
 33
0.0
 16
1.0
 26
0.0
 36
0.0
 17
0.0
 27
1.0
 37
0.0
 76
     0
330
1F
331
94
  0
MATERIAL
  5
97
102
{ACAD_XDICTIONARY
360
188
102
}
102
{ACAD_REACTORS
330
72
102
}
330
72
100
AcDbMaterial
  1
ByBlock
 94
       63
  0
MATERIAL
  5
96
102
{ACAD_XDICTIONARY
360
186
102
}
102
{ACAD_REACTORS
330
72
102
}
330
72
100
AcDbMaterial
  1
ByLayer
 94
       63
  0
MATERIAL
  5
98
102
{ACAD_XDICTIONARY
360
110
102
}
102
{ACAD_REACTORS
330
72
102
}
330
72
100
AcDbMaterial
  1
Global
 43
0.0208000000566244
 43
0.0
 43
0.0
 43
0.0
 43
0.0
 43
0.0208000000566244
 43
0.0
 43
0.0
 43
0.0
 43
0.0
 43
1.0
 43
0.0
 43
0.0
 43
0.0
 43
0.0
 43
1.0
 49
0.0208000000566244
 49
0.0
 49
0.0
 49
0.0
 49
0.0
 49
0.0208000000566244
 49
0.0
 49
0.0
 49
0.0
 49
0.0
 49
1.0
 49
0.0
 49
0.0
 49
0.0
 49
0.0
 49
1.0
142
0.0208000000566244
142
0.0
142
0.0
142
0.0
142
0.0
142
0.0208000000566244
142
0.0
142
0.0
142
0.0
142
0.0
142
1.0
142
0.0
142
0.0
142
0.0
142
0.0
142
1.0
144
0.0208000000566244
144
0.0
144
0.0
144
0.0
144
0.0
144
0.0208000000566244
144
0.0
144
0.0
144
0.0
144
0.0
144
1.0
144
0.0
144
0.0
144
0.0
144
0.0
144
1.0
 94
       63
1001
ACAD
1070
    -1
1070
     3
1070
     0
1000

1071
        0
1070
     0
  0
MLEADERSTYLE
  5
D8
102
{ACAD_REACTORS
330
D7
102
}
330
D7
100
AcDbMLeaderStyle
179
     2
170
     2
171
     1
172
     0
 90
        2
 40
0.0
 41
0.0
173
     1
 91
-1056964608
340
14
 92
       -2
290
     1
 42
0.09
291
     1
 43
0.36
  3
Standard
 44
0.18
300

342
11
174
     1
178
     1
175
     1
176
     0
 93
-1056964608
 45
0.18
292
     0
297
     0
 46
0.18
 94
-1056964608
 47
1.0
 49
1.0
140
1.0
293
     1
141
0.0
294
     1
177
     0
142
1.0
295
     0
296
     0
143
0.125
271
     0
272
     9
273
     9
298
     0
  0
MLINESTYLE
  5
18
102
{ACAD_REACTORS
330
17
102
}
330
17
100
AcDbMlineStyle
  2
STANDARD
 70
     0
  3

 62
   256
 51
90.0
 52
90.0
 71
     2
 49
0.5
 62
   256
  6
BYLAYER
 49
-0.5
 62
   256
  6
BYLAYER
  0
ACDBPLACEHOLDER
  5
F
102
{ACAD_REACTORS
330
E
102
}
330
E
  0
SCALE
  5
2283
102
{ACAD_REACTORS
330
B6
102
}
330
B6
100
AcDbScale
 70
     0
300
1:75
140
1.0
141
75.0
290
     0
  0
SCALE
  5
B7
102
{ACAD_REACTORS
330
B6
102
}
330
B6
100
AcDbScale
 70
     0
300
1:1
140
1.0
141
1.0
290
     1
  0
SCALE
  5
124
102
{ACAD_REACTORS
330
B6
102
}
330
B6
100
AcDbScale
 70
     0
300
1:2
140
1.0
141
2.0
290
     0
  0
SCALE
  5
125
102
{ACAD_REACTORS
330
B6
102
}
330
B6
100
AcDbScale
 70
     0
300
1:4
140
1.0
141
4.0
290
     0
  0
SCALE
  5
126
102
{ACAD_REACTORS
330
B6
102
}
330
B6
100
AcDbScale
 70
     0
300
1:5
140
1.0
141
5.0
290
     0
  0
SCALE
  5
127
102
{ACAD_REACTORS
330
B6
102
}
330
B6
100
AcDbScale
 70
     0
300
1:8
140
1.0
141
8.0
290
     0
  0
SCALE
  5
128
102
{ACAD_REACTORS
330
B6
102
}
330
B6
100
AcDbScale
 70
     0
300
1:10
140
1.0
141
10.0
290
     0
  0
SCALE
  5
129
102
{ACAD_REACTORS
330
B6
102
}
330
B6
100
AcDbScale
 70
     0
300
1:16
140
1.0
141
16.0
290
     0
  0
SCALE
  5
12A
102
{ACAD_REACTORS
330
B6
102
}
330
B6
100
AcDbScale
 70
     0
300
1:20
140
1.0
141
20.0
290
     0
  0
SCALE
  5
12B
102
{ACAD_REACTORS
330
B6
102
}
330
B6
100
AcDbScale
 70
     0
300
1:30
140
1.0
141
30.0
290
     0
  0
SCALE
  5
12C
102
{ACAD_REACTORS
330
B6
102
}
330
B6
100
AcDbScale
 70
     0
300
1:40
140
1.0
141
40.0
290
     0
  0
SCALE
  5
12D
102
{ACAD_REACTORS
330
B6
102
}
330
B6
100
AcDbScale
 70
     0
300
1:50
140
1.0
141
50.0
290
     0
  0
SCALE
  5
12E
102
{ACAD_REACTORS
330
B6
102
}
330
B6
100
AcDbScale
 70
     0
300
1:100
140
1.0
141
100.0
290
     0
  0
SCALE
  5
12F
102
{ACAD_REACTORS
330
B6
102
}
330
B6
100
AcDbScale
 70
     0
300
2:1
140
2.0
141
1.0
290
     0
  0
SCALE
  5
130
102
{ACAD_REACTORS
330
B6
102
}
330
B6
100
AcDbScale
 70
     0
300
4:1
140
4.0
141
1.0
290
     0
  0
SCALE
  5
131
102
{ACAD_REACTORS
330
B6
102
}
330
B6
100
AcDbScale
 70
     0
300
8:1
140
8.0
141
1.0
290
     0
  0
SCALE
  5
132
102
{ACAD_REACTORS
330
B6
102
}
330
B6
100
AcDbScale
 70
     0
300
10:1
140
10.0
141
1.0
290
     0
  0
SCALE
  5
133
102
{ACAD_REACTORS
330
B6
102
}
330
B6
100
AcDbScale
 70
     0
300
100:1
140
100.0
141
1.0
290
     0
  0
SCALE
  5
134
102
{ACAD_REACTORS
330
B6
102
}
330
B6
100
AcDbScale
 70
     0
300
1/128" = 1'-0"
140
0.0078125
141
12.0
290
     0
  0
SCALE
  5
135
102
{ACAD_REACTORS
330
B6
102
}
330
B6
100
AcDbScale
 70
     0
300
1/64" = 1'-0"
140
0.015625
141
12.0
290
     0
  0
SCALE
  5
136
102
{ACAD_REACTORS
330
B6
102
}
330
B6
100
AcDbScale
 70
     0
300
1/32" = 1'-0"
140
0.03125
141
12.0
290
     0
  0
SCALE
  5
137
102
{ACAD_REACTORS
330
B6
102
}
330
B6
100
AcDbScale
 70
     0
300
1/16" = 1'-0"
140
0.0625
141
12.0
290
     0
  0
SCALE
  5
138
102
{ACAD_REACTORS
330
B6
102
}
330
B6
100
AcDbScale
 70
     0
300
3/32" = 1'-0"
140
0.09375
141
12.0
290
     0
  0
SCALE
  5
139
102
{ACAD_REACTORS
330
B6
102
}
330
B6
100
AcDbScale
 70
     0
300
1/8" = 1'-0"
140
0.125
141
12.0
290
     0
  0
SCALE
  5
13A
102
{ACAD_REACTORS
330
B6
102
}
330
B6
100
AcDbScale
 70
     0
300
3/16" = 1'-0"
140
0.1875
141
12.0
290
     0
  0
SCALE
  5
13B
102
{ACAD_REACTORS
330
B6
102
}
330
B6
100
AcDbScale
 70
     0
300
1/4" = 1'-0"
140
0.25
141
12.0
290
     0
  0
SCALE
  5
13C
102
{ACAD_REACTORS
330
B6
102
}
330
B6
100
AcDbScale
 70
     0
300
3/8" = 1'-0"
140
0.375
141
12.0
290
     0
  0
SCALE
  5
13D
102
{ACAD_REACTORS
330
B6
102
}
330
B6
100
AcDbScale
 70
     0
300
1/2" = 1'-0"
140
0.5
141
12.0
290
     0
  0
SCALE
  5
13E
102
{ACAD_REACTORS
330
B6
102
}
330
B6
100
AcDbScale
 70
     0
300
3/4" = 1'-0"
140
0.75
141
12.0
290
     0
  0
SCALE
  5
13F
102
{ACAD_REACTORS
330
B6
102
}
330
B6
100
AcDbScale
 70
     0
300
1" = 1'-0"
140
1.0
141
12.0
290
     0
  0
SCALE
  5
140
102
{ACAD_REACTORS
330
B6
102
}
330
B6
100
AcDbScale
 70
     0
300
1-1/2" = 1'-0"
140
1.5
141
12.0
290
     0
  0
SCALE
  5
141
102
{ACAD_REACTORS
330
B6
102
}
330
B6
100
AcDbScale
 70
     0
300
3" = 1'-0"
140
3.0
141
12.0
290
     0
  0
SCALE
  5
142
102
{ACAD_REACTORS
330
B6
102
}
330
B6
100
AcDbScale
 70
     0
300
6" = 1'-0"
140
6.0
141
12.0
290
     0
  0
SCALE
  5
143
102
{ACAD_REACTORS
330
B6
102
}
330
B6
100
AcDbScale
 70
     0
300
1'-0" = 1'-0"
140
12.0
141
12.0
290
     0
  0
ACDBSECTIONVIEWSTYLE
  5
1AA
102
{ACAD_REACTORS
330
1A8
102
}
330
1A8
100
AcDbModelDocViewStyle
 70
     0
  3
Imperial24
290
     0
300
Imperial24
 90
        0
100
AcDbSectionViewStyle
 70
     0
 71
     0
 90
       78
 71
     1
340
11
 62
   256
 40
0.24
340
0
340
0
 62
   256
 40
0.24
300
I, O, Q, S, X, Z
 40
0.48
 90
        3
 40
0.18
 90
        1
 71
     2
340
16
 90
       25
 62
   256
340
16
 90
       50
 62
   256
 40
0.24
 40
0.0
 40
0.24
 71
     3
340
11
 62
   256
 40
0.24
 90
        1
 40
0.75
 90
        1
300
%<\AcVar ViewType \f "%tc1">% %<\AcVar ViewSectionStartId>%-%<\AcVar ViewSectionEndId>%\PSCALE %<\AcVar ViewScale \f "%sn">%
 71
     4
 62
   256
 62
   257
300
ANSI31
 40
1.0
 90
        0
290
     0
290
     0
 90
        6
 40
0.0
 40
1.570796326794896
 40
0.2617993877991494
 40
1.308996938995747
 40
-0.2617993877991494
 40
1.832595714594046
  0
ACDBSECTIONVIEWSTYLE
  5
223
102
{ACAD_REACTORS
330
1A8
102
}
330
1A8
100
AcDbModelDocViewStyle
 70
     0
  3
Metric50
290
     0
300
Metric50
 90
        0
100
AcDbSectionViewStyle
 70
     0
 71
     0
 90
      102
 71
     1
340
11
 62
   256
 40
5.0
340
0
340
0
 62
   256
 40
5.0
300
I, O, Q, S, X, Z
 40
10.0
 90
        0
 40
2.5
 90
        0
 71
     2
340
16
 90
       25
 62
   256
340
16
 90
       50
 62
   256
 40
5.0
 40
2.5
 40
5.0
 71
     3
340
11
 62
   256
 40
5.0
 90
        0
 40
15.0
 90
        1
300
%<\AcVar ViewSectionStartId>%-%<\AcVar ViewSectionEndId>% (%<\AcVar ViewScale \f "%sn">%)
 71
     4
 62
   256
 62
   257
300
ANSI31
 40
1.0
 90
        0
290
     0
290
     0
 90
        6
 40
0.0
 40
1.570796326794896
 40
0.2617993877991494
 40
1.308996938995747
 40
-0.2617993877991494
 40
1.832595714594046
  0
TABLESTYLE
  5
87
102
{ACAD_XDICTIONARY
360
104
102
}
102
{ACAD_REACTORS
330
86
102
}
330
86
100
AcDbTableStyle
280
     0
  3
Standard
 70
     0
 71
     0
 40
0.06
 41
0.06
280
     0
281
     0
  7
Standard
140
0.18
170
     2
 62
     0
 63
     7
283
     0
 90
      512
 91
        0
  1

274
    -2
284
     1
 64
     0
275
    -2
285
     1
 65
     0
276
    -2
286
     1
 66
     0
277
    -2
287
     1
 67
     0
278
    -2
288
     1
 68
     0
279
    -2
289
     1
 69
     0
  7
Standard
140
0.25
170
     5
 62
     0
 63
     7
283
     0
 90
      512
 91
        0
  1

274
    -2
284
     1
 64
     0
275
    -2
285
     1
 65
     0
276
    -2
286
     1
 66
     0
277
    -2
287
     1
 67
     0
278
    -2
288
     1
 68
     0
279
    -2
289
     1
 69
     0
  7
Standard
140
0.18
170
     5
 62
     0
 63
     7
283
     0
 90
      512
 91
        0
  1

274
    -2
284
     1
 64
     0
275
    -2
285
     1
 65
     0
276
    -2
286
     1
 66
     0
277
    -2
287
     1
 67
     0
278
    -2
288
     1
 68
     0
279
    -2
289
     1
 69
     0
  0
VISUALSTYLE
  5
9F
102
{ACAD_REACTORS
330
99
102
}
330
99
100
AcDbVisualStyle
  2
2dWireframe
 70
     4
177
     3
291
     0
 70
    58
 90
        0
176
     1
 90
        2
176
     1
 90
        1
176
     1
 90
        0
176
     1
 40
0.6
176
     1
 40
30.0
176
     1
 62
     7
420
 16777215
176
     1
 90
        1
176
     1
 90
        4
176
     1
 62
     7
176
     1
 62
   257
176
     1
 90
        1
176
     1
 90
        1
176
     1
 40
1.0
176
     1
 90
        0
176
     1
 62
   257
176
     1
 40
1.0
176
     1
 90
        1
176
     1
 90
        6
176
     1
 90
        2
176
     1
 62
     7
176
     1
 90
        5
176
     1
 90
        0
176
     1
 90
        0
176
     1
290
     0
176
     1
 90
        1
176
     1
 40
0.0
176
     1
 90
        0
176
     1
290
     1
176
     1
290
     1
176
     1
290
     0
176
     1
290
     0
176
     1
290
     0
176
     1
290
     0
176
     1
290
     0
176
     1
290
     0
176
     1
290
     0
176
     1
 90
       50
176
     1
 40
0.0
176
     1
 40
1.0
176
     1
 90
        0
176
     1
 62
    18
420
        0
176
     1
 90
       50
176
     1
 90
        3
176
     1
 62
     5
420
      255
176
     1
290
     0
176
     1
 90
       50
176
     1
 90
       50
176
     1
 90
       50
176
     1
290
     0
176
     1
 90
       50
176
     1
 62
   256
176
     0
 40
1.0
176
     0
 90
        2
176
     1
  1
strokes_ogs.tif
176
     1
290
     0
176
     1
 40
1.0
176
     1
 40
1.0
176
     1
  0
VISUALSTYLE
  5
22946
102
{ACAD_REACTORS
330
99
102
}
330
99
100
AcDbVisualStyle
  2
3dWireframe
 70
     5
177
     3
291
     0
 70
    58
 90
        0
176
     1
 90
        2
176
     1
 90
        0
176
     1
 90
        0
176
     1
 40
0.6
176
     1
 40
30.0
176
     1
 62
     7
176
     1
 90
        1
176
     1
 90
        4
176
     1
 62
     7
176
     1
 62
   257
176
     1
 90
        1
176
     1
 90
        1
176
     1
 40
1.0
176
     1
 90
        0
176
     1
 62
   257
176
     1
 40
1.0
176
     1
 90
        1
176
     1
 90
        6
176
     1
 90
        2
176
     1
 62
     7
176
     1
 90
        5
176
     1
 90
        0
176
     1
 90
        0
176
     1
290
     0
176
     1
 90
        1
176
     1
 40
0.0
176
     1
 90
        0
176
     1
290
     0
176
     1
290
     1
176
     1
290
     1
176
     1
290
     0
176
     1
290
     0
176
     1
290
     0
176
     1
290
     0
176
     1
290
     0
176
     1
290
     0
176
     1
 90
       50
176
     1
 40
0.0
176
     1
 40
1.0
176
     1
 90
        0
176
     1
 62
    18
420
        0
176
     1
 90
       50
176
     1
 90
        3
176
     1
 62
     5
420
      255
176
     1
290
     0
176
     1
 90
       50
176
     1
 90
       50
176
     1
 90
       50
176
     1
290
     0
176
     1
 90
       50
176
     1
 62
   256
176
     0
 40
1.0
176
     0
 90
        2
176
     1
  1
strokes_ogs.tif
176
     1
290
     0
176
     1
 40
1.0
176
     1
 40
1.0
176
     1
  0
VISUALSTYLE
  5
9E
102
{ACAD_REACTORS
330
99
102
}
330
99
100
AcDbVisualStyle
  2
Basic
 70
     7
177
     3
291
     1
 70
    58
 90
        1
176
     1
 90
        0
176
     1
 90
        1
176
     1
 90
        0
176
     1
 40
0.6
176
     1
 40
30.0
176
     1
 62
     7
420
 16777215
176
     1
 90
        0
176
     1
 90
        4
176
     1
 62
     7
176
     1
 62
   257
176
     1
 90
        1
176
     1
 90
        1
176
     1
 40
1.0
176
     1
 90
        8
176
     1
 62
     7
176
     1
 40
1.0
176
     1
 90
        1
176
     1
 90
        6
176
     1
 90
        2
176
     1
 62
     7
176
     1
 90
        5
176
     1
 90
        0
176
     1
 90
        0
176
     1
290
     0
176
     1
 90
        1
176
     1
 40
0.0
176
     1
 90
        0
176
     1
290
     0
176
     1
290
     1
176
     1
290
     1
176
     1
290
     0
176
     1
290
     0
176
     1
290
     0
176
     1
290
     0
176
     1
290
     0
176
     1
290
     0
176
     1
 90
       50
176
     1
 40
0.0
176
     1
 40
1.0
176
     1
 90
        0
176
     1
 62
    18
420
        0
176
     1
 90
       50
176
     1
 90
        3
176
     1
 62
     5
420
      255
176
     1
290
     0
176
     1
 90
       50
176
     1
 90
       50
176
     1
 90
       50
176
     1
290
     0
176
     1
 90
       50
176
     1
 62
   256
176
     0
 40
1.0
176
     0
 90
        2
176
     1
  1
strokes_ogs.tif
176
     1
290
     0
176
     1
 40
1.0
176
     1
 40
1.0
176
     1
  0
VISUALSTYLE
  5
A5
102
{ACAD_REACTORS
330
99
102
}
330
99
100
AcDbVisualStyle
  2
Brighten
 70
    12
177
     3
291
     1
 70
    58
 90
        2
176
     1
 90
        2
176
     1
 90
        1
176
     1
 90
        0
176
     1
 40
0.6
176
     1
 40
30.0
176
     1
 62
     7
420
 16777215
176
     1
 90
        1
176
     1
 90
        4
176
     1
 62
     7
176
     1
 62
   257
176
     1
 90
        1
176
     1
 90
        1
176
     1
 40
1.0
176
     1
 90
        8
176
     1
 62
     7
176
     1
 40
1.0
176
     1
 90
        1
176
     1
 90
        6
176
     1
 90
        2
176
     1
 62
     7
176
     1
 90
        5
176
     1
 90
        0
176
     1
 90
        0
176
     1
290
     0
176
     1
 90
        1
176
     1
 40
50.0
176
     1
 90
        0
176
     1
290
     0
176
     1
290
     1
176
     1
290
     1
176
     1
290
     0
176
     1
290
     0
176
     1
290
     0
176
     1
290
     0
176
     1
290
     0
176
     1
290
     0
176
     1
 90
       50
176
     1
 40
0.0
176
     1
 40
1.0
176
     1
 90
        0
176
     1
 62
    18
420
        0
176
     1
 90
       50
176
     1
 90
        3
176
     1
 62
     5
420
      255
176
     1
290
     0
176
     1
 90
       50
176
     1
 90
       50
176
     1
 90
       50
176
     1
290
     0
176
     1
 90
       50
176
     1
 62
   256
176
     0
 40
1.0
176
     0
 90
        2
176
     1
  1
strokes_ogs.tif
176
     1
290
     0
176
     1
 40
1.0
176
     1
 40
1.0
176
     1
  0
VISUALSTYLE
  5
A9
102
{ACAD_REACTORS
330
99
102
}
330
99
100
AcDbVisualStyle
  2
ColorChange
 70
    16
177
     3
291
     1
 70
    58
 90
        2
176
     1
 90
        2
176
     1
 90
        3
176
     1
 90
        0
176
     1
 40
0.6
176
     1
 40
30.0
176
     1
 62
     8
420
  8421504
176
     1
 90
        1
176
     1
 90
        4
176
     1
 62
     7
176
     1
 62
   257
176
     1
 90
        1
176
     1
 90
        1
176
     1
 40
1.0
176
     1
 90
        8
176
     1
 62
     8
420
  8421504
176
     1
 40
1.0
176
     1
 90
        1
176
     1
 90
        6
176
     1
 90
        2
176
     1
 62
     7
176
     1
 90
        5
176
     1
 90
        0
176
     1
 90
        0
176
     1
290
     0
176
     1
 90
        1
176
     1
 40
0.0
176
     1
 90
        0
176
     1
290
     0
176
     1
290
     1
176
     1
290
     1
176
     1
290
     0
176
     1
290
     0
176
     1
290
     0
176
     1
290
     0
176
     1
290
     0
176
     1
290
     0
176
     1
 90
       50
176
     1
 40
0.0
176
     1
 40
1.0
176
     1
 90
        0
176
     1
 62
    18
420
        0
176
     1
 90
       50
176
     1
 90
        3
176
     1
 62
     5
420
      255
176
     1
290
     0
176
     1
 90
       50
176
     1
 90
       50
176
     1
 90
       50
176
     1
290
     0
176
     1
 90
       50
176
     1
 62
   256
176
     0
 40
1.0
176
     0
 90
        2
176
     1
  1
strokes_ogs.tif
176
     1
290
     0
176
     1
 40
1.0
176
     1
 40
1.0
176
     1
  0
VISUALSTYLE
  5
A2
102
{ACAD_REACTORS
330
99
102
}
330
99
100
AcDbVisualStyle
  2
Conceptual
 70
     9
177
     3
291
     0
 70
    58
 90
        3
176
     1
 90
        2
176
     1
 90
        1
176
     1
 90
        0
176
     1
 40
0.6
176
     1
 40
30.0
176
     1
 62
     7
420
 16777215
176
     1
 90
        2
176
     1
 90
        2
176
     1
 62
     7
176
     1
 62
   257
176
     1
 90
        1
176
     1
 90
        1
176
     1
 40
40.0
176
     1
 90
        8
176
     1
 62
     7
176
     1
 40
1.0
176
     1
 90
        1
176
     1
 90
        6
176
     1
 90
        2
176
     1
 62
     7
176
     1
 90
        3
176
     1
 90
        0
176
     1
 90
        0
176
     1
290
     0
176
     1
 90
        1
176
     1
 40
0.0
176
     1
 90
        0
176
     1
290
     0
176
     1
290
     1
176
     1
290
     1
176
     1
290
     0
176
     1
290
     0
176
     1
290
     0
176
     1
290
     0
176
     1
290
     0
176
     1
290
     0
176
     1
 90
       50
176
     1
 40
0.0
176
     1
 40
1.0
176
     1
 90
        0
176
     1
 62
    18
420
        0
176
     1
 90
       50
176
     1
 90
        3
176
     1
 62
     5
420
      255
176
     1
290
     0
176
     1
 90
       50
176
     1
 90
       50
176
     1
 90
       50
176
     1
290
     0
176
     1
 90
       50
176
     1
 62
   256
176
     0
 40
1.0
176
     0
 90
        2
176
     1
  1
strokes_ogs.tif
176
     1
290
     0
176
     1
 40
1.0
176
     1
 40
1.0
176
     1
  0
VISUALSTYLE
  5
A4
102
{ACAD_REACTORS
330
99
102
}
330
99
100
AcDbVisualStyle
  2
Dim
 70
    11
177
     3
291
     1
 70
    58
 90
        2
176
     1
 90
        2
176
     1
 90
        1
176
     1
 90
        0
176
     1
 40
0.6
176
     1
 40
30.0
176
     1
 62
     7
420
 16777215
176
     1
 90
        1
176
     1
 90
        4
176
     1
 62
     7
176
     1
 62
   257
176
     1
 90
        1
176
     1
 90
        1
176
     1
 40
1.0
176
     1
 90
        8
176
     1
 62
     7
176
     1
 40
1.0
176
     1
 90
        1
176
     1
 90
        6
176
     1
 90
        2
176
     1
 62
     7
176
     1
 90
        5
176
     1
 90
        0
176
     1
 90
        0
176
     1
290
     0
176
     1
 90
        1
176
     1
 40
-50.0
176
     1
 90
        0
176
     1
290
     0
176
     1
290
     1
176
     1
290
     1
176
     1
290
     0
176
     1
290
     0
176
     1
290
     0
176
     1
290
     0
176
     1
290
     0
176
     1
290
     0
176
     1
 90
       50
176
     1
 40
0.0
176
     1
 40
1.0
176
     1
 90
        0
176
     1
 62
    18
420
        0
176
     1
 90
       50
176
     1
 90
        3
176
     1
 62
     5
420
      255
176
     1
290
     0
176
     1
 90
       50
176
     1
 90
       50
176
     1
 90
       50
176
     1
290
     0
176
     1
 90
       50
176
     1
 62
   256
176
     0
 40
1.0
176
     0
 90
        2
176
     1
  1
strokes_ogs.tif
176
     1
290
     0
176
     1
 40
1.0
176
     1
 40
1.0
176
     1
  0
VISUALSTYLE
  5
175
102
{ACAD_REACTORS
330
99
102
}
330
99
100
AcDbVisualStyle
  2
EdgeColorOff
 70
    22
177
     3
291
     1
 70
    58
 90
        2
176
     0
 90
        2
176
     0
 90
        0
176
     0
 90
        0
176
     0
 40
0.6
176
     0
 40
30.0
176
     0
 62
     7
420
 16777215
176
     0
 90
        1
176
     0
 90
        4
176
     0
 62
     7
176
     0
 62
   257
176
     0
 90
        1
176
     0
 90
        1
176
     0
 40
1.0
176
     0
 90
        8
176
     2
 62
     7
176
     0
 40
1.0
176
     0
 90
        1
176
     0
 90
        6
176
     0
 90
        2
176
     0
 62
     7
176
     0
 90
        5
176
     0
 90
        0
176
     0
 90
        0
176
     0
290
     0
176
     0
 90
        1
176
     0
 40
0.0
176
     0
 90
        0
176
     0
290
     0
176
     1
290
     1
176
     1
290
     1
176
     1
290
     0
176
     1
290
     0
176
     1
290
     0
176
     1
290
     0
176
     1
290
     0
176
     1
290
     0
176
     1
 90
       50
176
     1
 40
0.0
176
     1
 40
1.0
176
     1
 90
        0
176
     1
 62
    18
420
        0
176
     1
 90
       50
176
     1
 90
        3
176
     1
 62
     5
420
      255
176
     1
290
     0
176
     1
 90
       50
176
     1
 90
       50
176
     1
 90
       50
176
     1
290
     0
176
     1
 90
       50
176
     1
 62
   256
176
     0
 40
1.0
176
     0
 90
        2
176
     1
  1
strokes_ogs.tif
176
     1
290
     0
176
     1
 40
1.0
176
     1
 40
1.0
176
     1
  0
VISUALSTYLE
  5
A8
102
{ACAD_REACTORS
330
99
102
}
330
99
100
AcDbVisualStyle
  2
Facepattern
 70
    15
177
     3
291
     1
 70
    58
 90
        2
176
     1
 90
        2
176
     1
 90
        1
176
     1
 90
        0
176
     1
 40
0.6
176
     1
 40
30.0
176
     1
 62
     7
420
 16777215
176
     1
 90
        1
176
     1
 90
        4
176
     1
 62
     7
176
     1
 62
   257
176
     1
 90
        1
176
     1
 90
        1
176
     1
 40
1.0
176
     1
 90
        8
176
     1
 62
     7
176
     1
 40
1.0
176
     1
 90
        1
176
     1
 90
        6
176
     1
 90
        2
176
     1
 62
     7
176
     1
 90
        5
176
     1
 90
        0
176
     1
 90
        0
176
     1
290
     0
176
     1
 90
        1
176
     1
 40
0.0
176
     1
 90
        0
176
     1
290
     0
176
     1
290
     1
176
     1
290
     1
176
     1
290
     0
176
     1
290
     0
176
     1
290
     0
176
     1
290
     0
176
     1
290
     0
176
     1
290
     0
176
     1
 90
       50
176
     1
 40
0.0
176
     1
 40
1.0
176
     1
 90
        0
176
     1
 62
    18
420
        0
176
     1
 90
       50
176
     1
 90
        3
176
     1
 62
     5
420
      255
176
     1
290
     0
176
     1
 90
       50
176
     1
 90
       50
176
     1
 90
       50
176
     1
290
     0
176
     1
 90
       50
176
     1
 62
   256
176
     0
 40
1.0
176
     0
 90
        2
176
     1
  1
strokes_ogs.tif
176
     1
290
     0
176
     1
 40
1.0
176
     1
 40
1.0
176
     1
  0
VISUALSTYLE
  5
9A
102
{ACAD_REACTORS
330
99
102
}
330
99
100
AcDbVisualStyle
  2
Flat
 70
     0
177
     3
291
     1
 70
    58
 90
        2
176
     1
 90
        1
176
     1
 90
        1
176
     1
 90
        2
176
     1
 40
0.6
176
     1
 40
30.0
176
     1
 62
     7
420
 16777215
176
     1
 90
        0
176
     1
 90
        0
176
     1
 62
     7
176
     1
 62
   257
176
     1
 90
        1
176
     1
 90
        1
176
     1
 40
1.0
176
     1
 90
        8
176
     1
 62
     7
176
     1
 40
1.0
176
     1
 90
        1
176
     1
 90
        6
176
     1
 90
        2
176
     1
 62
     7
176
     1
 90
        5
176
     1
 90
        0
176
     1
 90
        0
176
     1
290
     0
176
     1
 90
       13
176
     1
 40
0.0
176
     1
 90
        0
176
     1
290
     0
176
     1
290
     1
176
     1
290
     1
176
     1
290
     0
176
     1
290
     0
176
     1
290
     0
176
     1
290
     0
176
     1
290
     0
176
     1
290
     0
176
     1
 90
       50
176
     1
 40
0.0
176
     1
 40
1.0
176
     1
 90
        0
176
     1
 62
    18
420
        0
176
     1
 90
       50
176
     1
 90
        3
176
     1
 62
     5
420
      255
176
     1
290
     0
176
     1
 90
       50
176
     1
 90
       50
176
     1
 90
       50
176
     1
290
     0
176
     1
 90
       50
176
     1
 62
   256
176
     0
 40
1.0
176
     0
 90
        2
176
     1
  1
strokes_ogs.tif
176
     1
290
     0
176
     1
 40
1.0
176
     1
 40
1.0
176
     1
  0
VISUALSTYLE
  5
9B
102
{ACAD_REACTORS
330
99
102
}
330
99
100
AcDbVisualStyle
  2
FlatWithEdges
 70
     1
177
     3
291
     1
 70
    58
 90
        2
176
     1
 90
        1
176
     1
 90
        1
176
     1
 90
        2
176
     1
 40
0.6
176
     1
 40
30.0
176
     1
 62
     7
420
 16777215
176
     1
 90
        1
176
     1
 90
        0
176
     1
 62
     7
176
     1
 62
   257
176
     1
 90
        1
176
     1
 90
        1
176
     1
 40
1.0
176
     1
 90
        0
176
     1
 62
   257
176
     1
 40
1.0
176
     1
 90
        1
176
     1
 90
        6
176
     1
 90
        2
176
     1
 62
     7
176
     1
 90
        5
176
     1
 90
        0
176
     1
 90
        0
176
     1
290
     0
176
     1
 90
       13
176
     1
 40
0.0
176
     1
 90
        0
176
     1
290
     0
176
     1
290
     1
176
     1
290
     1
176
     1
290
     0
176
     1
290
     0
176
     1
290
     0
176
     1
290
     0
176
     1
290
     0
176
     1
290
     0
176
     1
 90
       50
176
     1
 40
0.0
176
     1
 40
1.0
176
     1
 90
        0
176
     1
 62
    18
420
        0
176
     1
 90
       50
176
     1
 90
        3
176
     1
 62
     5
420
      255
176
     1
290
     0
176
     1
 90
       50
176
     1
 90
       50
176
     1
 90
       50
176
     1
290
     0
176
     1
 90
       50
176
     1
 62
   256
176
     0
 40
1.0
176
     0
 90
        2
176
     1
  1
strokes_ogs.tif
176
     1
290
     0
176
     1
 40
1.0
176
     1
 40
1.0
176
     1
  0
VISUALSTYLE
  5
9C
102
{ACAD_REACTORS
330
99
102
}
330
99
100
AcDbVisualStyle
  2
Gouraud
 70
     2
177
     3
291
     1
 70
    58
 90
        2
176
     1
 90
        2
176
     1
 90
        1
176
     1
 90
        2
176
     1
 40
0.6
176
     1
 40
30.0
176
     1
 62
     7
420
 16777215
176
     1
 90
        0
176
     1
 90
        0
176
     1
 62
     7
176
     1
 62
   257
176
     1
 90
        1
176
     1
 90
        1
176
     1
 40
1.0
176
     1
 90
        0
176
     1
 62
     7
176
     1
 40
1.0
176
     1
 90
        1
176
     1
 90
        6
176
     1
 90
        2
176
     1
 62
     7
176
     1
 90
        5
176
     1
 90
        0
176
     1
 90
        0
176
     1
290
     0
176
     1
 90
       13
176
     1
 40
0.0
176
     1
 90
        0
176
     1
290
     0
176
     1
290
     1
176
     1
290
     1
176
     1
290
     0
176
     1
290
     0
176
     1
290
     0
176
     1
290
     0
176
     1
290
     0
176
     1
290
     0
176
     1
 90
       50
176
     1
 40
0.0
176
     1
 40
1.0
176
     1
 90
        0
176
     1
 62
    18
420
        0
176
     1
 90
       50
176
     1
 90
        3
176
     1
 62
     5
420
      255
176
     1
290
     0
176
     1
 90
       50
176
     1
 90
       50
176
     1
 90
       50
176
     1
290
     0
176
     1
 90
       50
176
     1
 62
   256
176
     0
 40
1.0
176
     0
 90
        2
176
     1
  1
strokes_ogs.tif
176
     1
290
     0
176
     1
 40
1.0
176
     1
 40
1.0
176
     1
  0
VISUALSTYLE
  5
9D
102
{ACAD_REACTORS
330
99
102
}
330
99
100
AcDbVisualStyle
  2
GouraudWithEdges
 70
     3
177
     3
291
     1
 70
    58
 90
        2
176
     1
 90
        2
176
     1
 90
        1
176
     1
 90
        2
176
     1
 40
0.6
176
     1
 40
30.0
176
     1
 62
     7
420
 16777215
176
     1
 90
        1
176
     1
 90
        0
176
     1
 62
     7
176
     1
 62
   257
176
     1
 90
        1
176
     1
 90
        1
176
     1
 40
1.0
176
     1
 90
        0
176
     1
 62
   257
176
     1
 40
1.0
176
     1
 90
        1
176
     1
 90
        6
176
     1
 90
        2
176
     1
 62
     7
176
     1
 90
        5
176
     1
 90
        0
176
     1
 90
        0
176
     1
290
     0
176
     1
 90
       13
176
     1
 40
0.0
176
     1
 90
        0
176
     1
290
     0
176
     1
290
     1
176
     1
290
     1
176
     1
290
     0
176
     1
290
     0
176
     1
290
     0
176
     1
290
     0
176
     1
290
     0
176
     1
290
     0
176
     1
 90
       50
176
     1
 40
0.0
176
     1
 40
1.0
176
     1
 90
        0
176
     1
 62
    18
420
        0
176
     1
 90
       50
176
     1
 90
        3
176
     1
 62
     5
420
      255
176
     1
290
     0
176
     1
 90
       50
176
     1
 90
       50
176
     1
 90
       50
176
     1
290
     0
176
     1
 90
       50
176
     1
 62
   256
176
     0
 40
1.0
176
     0
 90
        2
176
     1
  1
strokes_ogs.tif
176
     1
290
     0
176
     1
 40
1.0
176
     1
 40
1.0
176
     1
  0
VISUALSTYLE
  5
A1
102
{ACAD_REACTORS
330
99
102
}
330
99
100
AcDbVisualStyle
  2
Hidden
 70
     6
177
     3
291
     0
 70
    58
 90
        1
176
     1
 90
        2
176
     1
 90
        2
176
     1
 90
        0
176
     1
 40
0.6
176
     1
 40
30.0
176
     1
 62
     7
420
 16777215
176
     1
 90
        2
176
     1
 90
        2
176
     1
 62
     7
176
     1
 62
   257
176
     1
 90
        2
176
     1
 90
        1
176
     1
 40
40.0
176
     1
 90
        0
176
     1
 62
   257
176
     1
 40
1.0
176
     1
 90
        1
176
     1
 90
        6
176
     1
 90
        2
176
     1
 62
     7
176
     1
 90
        3
176
     1
 90
        0
176
     1
 90
        0
176
     1
290
     0
176
     1
 90
        1
176
     1
 40
0.0
176
     1
 90
        0
176
     1
290
     0
176
     1
290
     1
176
     1
290
     1
176
     1
290
     0
176
     1
290
     0
176
     1
290
     0
176
     1
290
     0
176
     1
290
     0
176
     1
290
     0
176
     1
 90
       50
176
     1
 40
0.0
176
     1
 40
1.0
176
     1
 90
        0
176
     1
 62
    18
420
        0
176
     1
 90
       50
176
     1
 90
        3
176
     1
 62
     5
420
      255
176
     1
290
     0
176
     1
 90
       50
176
     1
 90
       50
176
     1
 90
       50
176
     1
290
     0
176
     1
 90
       50
176
     1
 62
   256
176
     0
 40
1.0
176
     0
 90
        2
176
     1
  1
strokes_ogs.tif
176
     1
290
     0
176
     1
 40
1.0
176
     1
 40
1.0
176
     1
  0
VISUALSTYLE
  5
173
102
{ACAD_REACTORS
330
99
102
}
330
99
100
AcDbVisualStyle
  2
JitterOff
 70
    20
177
     3
291
     1
 70
    58
 90
        2
176
     0
 90
        2
176
     0
 90
        0
176
     0
 90
        0
176
     0
 40
0.6
176
     0
 40
30.0
176
     0
 62
     7
420
 16777215
176
     0
 90
        1
176
     0
 90
        4
176
     0
 62
     7
176
     0
 62
   257
176
     0
 90
        1
176
     0
 90
        1
176
     0
 40
1.0
176
     0
 90
       10
176
     2
 62
     7
176
     0
 40
1.0
176
     0
 90
        1
176
     0
 90
        6
176
     0
 90
        2
176
     0
 62
     7
176
     0
 90
        5
176
     0
 90
        0
176
     0
 90
        0
176
     0
290
     0
176
     0
 90
        1
176
     0
 40
0.0
176
     0
 90
        0
176
     0
290
     0
176
     1
290
     1
176
     1
290
     1
176
     1
290
     0
176
     1
290
     0
176
     1
290
     0
176
     1
290
     0
176
     1
290
     0
176
     1
290
     0
176
     1
 90
       50
176
     1
 40
0.0
176
     1
 40
1.0
176
     1
 90
        0
176
     1
 62
    18
420
        0
176
     1
 90
       50
176
     1
 90
        3
176
     1
 62
     5
420
      255
176
     1
290
     0
176
     1
 90
       50
176
     1
 90
       50
176
     1
 90
       50
176
     1
290
     0
176
     1
 90
       50
176
     1
 62
   256
176
     0
 40
1.0
176
     0
 90
        2
176
     1
  1
strokes_ogs.tif
176
     1
290
     0
176
     1
 40
1.0
176
     1
 40
1.0
176
     1
  0
VISUALSTYLE
  5
A7
102
{ACAD_REACTORS
330
99
102
}
330
99
100
AcDbVisualStyle
  2
Linepattern
 70
    14
177
     3
291
     1
 70
    58
 90
        2
176
     1
 90
        2
176
     1
 90
        1
176
     1
 90
        0
176
     1
 40
0.6
176
     1
 40
30.0
176
     1
 62
     7
420
 16777215
176
     1
 90
        1
176
     1
 90
        4
176
     1
 62
     7
176
     1
 62
   257
176
     1
 90
        7
176
     1
 90
        7
176
     1
 40
1.0
176
     1
 90
        8
176
     1
 62
     7
176
     1
 40
1.0
176
     1
 90
        1
176
     1
 90
        6
176
     1
 90
        2
176
     1
 62
     7
176
     1
 90
        5
176
     1
 90
        0
176
     1
 90
        0
176
     1
290
     0
176
     1
 90
        1
176
     1
 40
0.0
176
     1
 90
        0
176
     1
290
     0
176
     1
290
     1
176
     1
290
     1
176
     1
290
     0
176
     1
290
     0
176
     1
290
     0
176
     1
290
     0
176
     1
290
     0
176
     1
290
     0
176
     1
 90
       50
176
     1
 40
0.0
176
     1
 40
1.0
176
     1
 90
        0
176
     1
 62
    18
420
        0
176
     1
 90
       50
176
     1
 90
        3
176
     1
 62
     5
420
      255
176
     1
290
     0
176
     1
 90
       50
176
     1
 90
       50
176
     1
 90
       50
176
     1
290
     0
176
     1
 90
       50
176
     1
 62
   256
176
     0
 40
1.0
176
     0
 90
        2
176
     1
  1
strokes_ogs.tif
176
     1
290
     0
176
     1
 40
1.0
176
     1
 40
1.0
176
     1
  0
VISUALSTYLE
  5
174
102
{ACAD_REACTORS
330
99
102
}
330
99
100
AcDbVisualStyle
  2
OverhangOff
 70
    21
177
     3
291
     1
 70
    58
 90
        2
176
     0
 90
        2
176
     0
 90
        0
176
     0
 90
        0
176
     0
 40
0.6
176
     0
 40
30.0
176
     0
 62
     7
420
 16777215
176
     0
 90
        1
176
     0
 90
        4
176
     0
 62
     7
176
     0
 62
   257
176
     0
 90
        1
176
     0
 90
        1
176
     0
 40
1.0
176
     0
 90
        9
176
     2
 62
     7
176
     0
 40
1.0
176
     0
 90
        1
176
     0
 90
        6
176
     0
 90
        2
176
     0
 62
     7
176
     0
 90
        5
176
     0
 90
        0
176
     0
 90
        0
176
     0
290
     0
176
     0
 90
        1
176
     0
 40
0.0
176
     0
 90
        0
176
     0
290
     0
176
     1
290
     1
176
     1
290
     1
176
     1
290
     0
176
     1
290
     0
176
     1
290
     0
176
     1
290
     0
176
     1
290
     0
176
     1
290
     0
176
     1
 90
       50
176
     1
 40
0.0
176
     1
 40
1.0
176
     1
 90
        0
176
     1
 62
    18
420
        0
176
     1
 90
       50
176
     1
 90
        3
176
     1
 62
     5
420
      255
176
     1
290
     0
176
     1
 90
       50
176
     1
 90
       50
176
     1
 90
       50
176
     1
290
     0
176
     1
 90
       50
176
     1
 62
   256
176
     0
 40
1.0
176
     0
 90
        2
176
     1
  1
strokes_ogs.tif
176
     1
290
     0
176
     1
 40
1.0
176
     1
 40
1.0
176
     1
  0
VISUALSTYLE
  5
A3
102
{ACAD_REACTORS
330
99
102
}
330
99
100
AcDbVisualStyle
  2
Realistic
 70
     8
177
     3
291
     0
 70
    58
 90
        2
176
     1
 90
        2
176
     1
 90
        0
176
     1
 90
        2
176
     1
 40
0.6
176
     1
 40
30.0
176
     1
 62
     7
420
 16777215
176
     1
 90
        0
176
     1
 90
        0
176
     1
 62
     7
176
     1
 62
   257
176
     1
 90
        1
176
     1
 90
        1
176
     1
 40
1.0
176
     1
 90
        8
176
     1
 62
   257
176
     1
 40
1.0
176
     1
 90
        1
176
     1
 90
        6
176
     1
 90
        2
176
     1
 62
     7
176
     1
 90
        3
176
     1
 90
        0
176
     1
 90
        0
176
     1
290
     0
176
     1
 90
       13
176
     1
 40
0.0
176
     1
 90
        0
176
     1
290
     0
176
     1
290
     1
176
     1
290
     1
176
     1
290
     0
176
     1
290
     0
176
     1
290
     0
176
     1
290
     0
176
     1
290
     0
176
     1
290
     0
176
     1
 90
       50
176
     1
 40
0.0
176
     1
 40
1.0
176
     1
 90
        0
176
     1
 62
    18
420
        0
176
     1
 90
       50
176
     1
 90
        3
176
     1
 62
     5
420
      255
176
     1
290
     0
176
     1
 90
       50
176
     1
 90
       50
176
     1
 90
       50
176
     1
290
     0
176
     1
 90
       50
176
     1
 62
   256
176
     0
 40
1.0
176
     0
 90
        2
176
     1
  1
strokes_ogs.tif
176
     1
290
     0
176
     1
 40
1.0
176
     1
 40
1.0
176
     1
  0
VISUALSTYLE
  5
182
102
{ACAD_REACTORS
330
99
102
}
330
99
100
AcDbVisualStyle
  2
Shaded
 70
    27
177
     3
291
     0
 70
    58
 90
        2
176
     1
 90
        2
176
     1
 90
        1
176
     1
 90
        2
176
     1
 40
0.6
176
     1
 40
30.0
176
     1
 62
     7
420
 16777215
176
     1
 90
        0
176
     1
 90
        4
176
     1
 62
     7
176
     1
 62
   257
176
     1
 90
        1
176
     1
 90
        1
176
     1
 40
1.0
176
     1
 90
        8
176
     1
 62
   257
176
     1
 40
1.0
176
     1
 90
        1
176
     1
 90
        6
176
     1
 90
        2
176
     1
 62
     8
420
  7895160
176
     1
 90
        3
176
     1
 90
        0
176
     1
 90
        0
176
     1
290
     0
176
     1
 90
        5
176
     1
 40
0.0
176
     1
 90
        0
176
     1
290
     0
176
     1
290
     1
176
     1
290
     1
176
     1
290
     0
176
     1
290
     0
176
     1
290
     0
176
     1
290
     0
176
     1
290
     0
176
     1
290
     0
176
     1
 90
       50
176
     1
 40
0.0
176
     1
 40
1.0
176
     1
 90
        0
176
     1
 62
    18
420
        0
176
     1
 90
       50
176
     1
 90
        3
176
     1
 62
     5
420
      255
176
     1
290
     0
176
     1
 90
       50
176
     1
 90
       50
176
     1
 90
       50
176
     1
290
     0
176
     1
 90
       50
176
     1
 62
   256
176
     0
 40
1.0
176
     0
 90
        2
176
     1
  1
strokes_ogs.tif
176
     1
290
     0
176
     1
 40
1.0
176
     1
 40
1.0
176
     1
  0
VISUALSTYLE
  5
181
102
{ACAD_REACTORS
330
99
102
}
330
99
100
AcDbVisualStyle
  2
Shaded with edges
 70
    26
177
     3
291
     0
 70
    58
 90
        2
176
     1
 90
        2
176
     1
 90
        1
176
     1
 90
        2
176
     1
 40
0.6
176
     1
 40
30.0
176
     1
 62
     7
420
 16777215
176
     1
 90
        1
176
     1
 90
        2
176
     1
 62
     7
176
     1
 62
   257
176
     1
 90
        2
176
     1
 90
        1
176
     1
 40
1.0
176
     1
 90
        8
176
     1
 62
   257
176
     1
 40
1.0
176
     1
 90
        1
176
     1
 90
        6
176
     1
 90
        2
176
     1
 62
     7
176
     1
 90
        3
176
     1
 90
        0
176
     1
 90
        0
176
     1
290
     0
176
     1
 90
        5
176
     1
 40
0.0
176
     1
 90
        0
176
     1
290
     0
176
     1
290
     1
176
     1
290
     1
176
     1
290
     0
176
     1
290
     0
176
     1
290
     0
176
     1
290
     0
176
     1
290
     0
176
     1
290
     0
176
     1
 90
       50
176
     1
 40
0.0
176
     1
 40
1.0
176
     1
 90
        0
176
     1
 62
    18
420
        0
176
     1
 90
       50
176
     1
 90
        3
176
     1
 62
     5
420
      255
176
     1
290
     0
176
     1
 90
       50
176
     1
 90
       50
176
     1
 90
       50
176
     1
290
     0
176
     1
 90
       50
176
     1
 62
   256
176
     0
 40
1.0
176
     0
 90
        2
176
     1
  1
strokes_ogs.tif
176
     1
290
     0
176
     1
 40
1.0
176
     1
 40
1.0
176
     1
  0
VISUALSTYLE
  5
17E
102
{ACAD_REACTORS
330
99
102
}
330
99
100
AcDbVisualStyle
  2
Shades of Gray
 70
    23
177
     3
291
     0
 70
    58
 90
        2
176
     1
 90
        2
176
     1
 90
        3
176
     1
 90
        0
176
     1
 40
0.6
176
     1
 40
30.0
176
     1
 62
     7
420
 16777215
176
     1
 90
        2
176
     1
 90
        2
176
     1
 62
     7
176
     1
 62
     7
176
     1
 90
        1
176
     1
 90
        1
176
     1
 40
40.0
176
     1
 90
        8
176
     1
 62
     7
176
     1
 40
1.0
176
     1
 90
        1
176
     1
 90
        6
176
     1
 90
        2
176
     1
 62
     7
176
     1
 90
        3
176
     1
 90
        0
176
     1
 90
        0
176
     1
290
     0
176
     1
 90
        1
176
     1
 40
0.0
176
     1
 90
        0
176
     1
290
     0
176
     1
290
     1
176
     1
290
     1
176
     1
290
     0
176
     1
290
     0
176
     1
290
     0
176
     1
290
     0
176
     1
290
     0
176
     1
290
     0
176
     1
 90
       50
176
     1
 40
0.0
176
     1
 40
1.0
176
     1
 90
        0
176
     1
 62
    18
420
        0
176
     1
 90
       50
176
     1
 90
        3
176
     1
 62
     5
420
      255
176
     1
290
     0
176
     1
 90
       50
176
     1
 90
       50
176
     1
 90
       50
176
     1
290
     0
176
     1
 90
       50
176
     1
 62
   256
176
     0
 40
1.0
176
     0
 90
        2
176
     1
  1
strokes_ogs.tif
176
     1
290
     0
176
     1
 40
1.0
176
     1
 40
1.0
176
     1
  0
VISUALSTYLE
  5
17F
102
{ACAD_REACTORS
330
99
102
}
330
99
100
AcDbVisualStyle
  2
Sketchy
 70
    24
177
     3
291
     0
 70
    58
 90
        1
176
     1
 90
        2
176
     1
 90
        2
176
     1
 90
        0
176
     1
 40
0.6
176
     1
 40
30.0
176
     1
 62
     7
420
 16777215
176
     1
 90
        2
176
     1
 90
        2
176
     1
 62
     7
176
     1
 62
     7
176
     1
 90
        1
176
     1
 90
        1
176
     1
 40
40.0
176
     1
 90
       11
176
     1
 62
     7
176
     1
 40
1.0
176
     1
 90
        1
176
     1
 90
        6
176
     1
 90
        2
176
     1
 62
     7
176
     1
 90
        6
176
     1
 90
        0
176
     1
 90
        0
176
     1
290
     0
176
     1
 90
        1
176
     1
 40
0.0
176
     1
 90
        0
176
     1
290
     0
176
     1
290
     1
176
     1
290
     1
176
     1
290
     0
176
     1
290
     0
176
     1
290
     0
176
     1
290
     0
176
     1
290
     0
176
     1
290
     0
176
     1
 90
       50
176
     1
 40
0.0
176
     1
 40
1.0
176
     1
 90
        0
176
     1
 62
    18
420
        0
176
     1
 90
       50
176
     1
 90
        3
176
     1
 62
     5
420
      255
176
     1
290
     0
176
     1
 90
       50
176
     1
 90
       50
176
     1
 90
       50
176
     1
290
     0
176
     1
 90
       50
176
     1
 62
   256
176
     0
 40
1.0
176
     0
 90
        2
176
     1
  1
strokes_ogs.tif
176
     1
290
     0
176
     1
 40
1.0
176
     1
 40
1.0
176
     1
  0
VISUALSTYLE
  5
A6
102
{ACAD_REACTORS
330
99
102
}
330
99
100
AcDbVisualStyle
  2
Thicken
 70
    13
177
     3
291
     1
 70
    58
 90
        2
176
     1
 90
        2
176
     1
 90
        1
176
     1
 90
        0
176
     1
 40
0.6
176
     1
 40
30.0
176
     1
 62
     7
420
 16777215
176
     1
 90
        1
176
     1
 90
        4
176
     1
 62
     7
176
     1
 62
   257
176
     1
 90
        1
176
     1
 90
        1
176
     1
 40
1.0
176
     1
 90
       12
176
     1
 62
     7
176
     1
 40
1.0
176
     1
 90
        1
176
     1
 90
        6
176
     1
 90
        2
176
     1
 62
     7
176
     1
 90
        5
176
     1
 90
        0
176
     1
 90
        0
176
     1
290
     0
176
     1
 90
        1
176
     1
 40
0.0
176
     1
 90
        0
176
     1
290
     0
176
     1
290
     1
176
     1
290
     1
176
     1
290
     0
176
     1
290
     0
176
     1
290
     0
176
     1
290
     0
176
     1
290
     0
176
     1
290
     0
176
     1
 90
       50
176
     1
 40
0.0
176
     1
 40
1.0
176
     1
 90
        0
176
     1
 62
    18
420
        0
176
     1
 90
       50
176
     1
 90
        3
176
     1
 62
     5
420
      255
176
     1
290
     0
176
     1
 90
       50
176
     1
 90
       50
176
     1
 90
       50
176
     1
290
     0
176
     1
 90
       50
176
     1
 62
   256
176
     0
 40
1.0
176
     0
 90
        2
176
     1
  1
strokes_ogs.tif
176
     1
290
     0
176
     1
 40
1.0
176
     1
 40
1.0
176
     1
  0
VISUALSTYLE
  5
A0
102
{ACAD_REACTORS
330
99
102
}
330
99
100
AcDbVisualStyle
  2
Wireframe
 70
     5
177
     3
291
     0
 70
    58
 90
        0
176
     1
 90
        2
176
     1
 90
        0
176
     1
 90
        0
176
     1
 40
0.6
176
     1
 40
30.0
176
     1
 62
     7
420
 16777215
176
     1
 90
        1
176
     1
 90
        4
176
     1
 62
     7
176
     1
 62
   257
176
     1
 90
        1
176
     1
 90
        1
176
     1
 40
1.0
176
     1
 90
        0
176
     1
 62
   257
176
     1
 40
1.0
176
     1
 90
        1
176
     1
 90
        6
176
     1
 90
        2
176
     1
 62
     7
176
     1
 90
        3
176
     1
 90
        0
176
     1
 90
        0
176
     1
290
     0
176
     1
 90
        1
176
     1
 40
0.0
176
     1
 90
        0
176
     1
290
     0
176
     1
290
     1
176
     1
290
     1
176
     1
290
     0
176
     1
290
     0
176
     1
290
     0
176
     1
290
     0
176
     1
290
     0
176
     1
290
     0
176
     1
 90
       50
176
     1
 40
0.0
176
     1
 40
1.0
176
     1
 90
        0
176
     1
 62
    18
420
        0
176
     1
 90
       50
176
     1
 90
        3
176
     1
 62
     5
420
      255
176
     1
290
     0
176
     1
 90
       50
176
     1
 90
       50
176
     1
 90
       50
176
     1
290
     0
176
     1
 90
       50
176
     1
 62
   256
176
     0
 40
1.0
176
     0
 90
        2
176
     1
  1
strokes_ogs.tif
176
     1
290
     0
176
     1
 40
1.0
176
     1
 40
1.0
176
     1
  0
VISUALSTYLE
  5
180
102
{ACAD_REACTORS
330
99
102
}
330
99
100
AcDbVisualStyle
  2
X-Ray
 70
    25
177
     3
291
     0
 70
    58
 90
        2
176
     1
 90
        2
176
     1
 90
        1
176
     1
 90
        1
176
     1
 40
0.5
176
     1
 40
30.0
176
     1
 62
     7
420
 16777215
176
     1
 90
        1
176
     1
 90
        0
176
     1
 62
     7
176
     1
 62
   257
176
     1
 90
        1
176
     1
 90
        1
176
     1
 40
1.0
176
     1
 90
        8
176
     1
 62
     7
176
     1
 40
1.0
176
     1
 90
        1
176
     1
 90
        6
176
     1
 90
        2
176
     1
 62
     7
176
     1
 90
        3
176
     1
 90
        0
176
     1
 90
        0
176
     1
290
     0
176
     1
 90
       13
176
     1
 40
0.0
176
     1
 90
        0
176
     1
290
     0
176
     1
290
     1
176
     1
290
     1
176
     1
290
     0
176
     1
290
     0
176
     1
290
     0
176
     1
290
     0
176
     1
290
     0
176
     1
290
     0
176
     1
 90
       50
176
     1
 40
0.0
176
     1
 40
1.0
176
     1
 90
        0
176
     1
 62
    18
420
        0
176
     1
 90
       50
176
     1
 90
        3
176
     1
 62
     5
420
      255
176
     1
290
     0
176
     1
 90
       50
176
     1
 90
       50
176
     1
 90
       50
176
     1
290
     0
176
     1
 90
       50
176
     1
 62
   256
176
     0
 40
1.0
176
     0
 90
        2
176
     1
  1
strokes_ogs.tif
176
     1
290
     0
176
     1
 40
1.0
176
     1
 40
1.0
176
     1
  0
DICTIONARYVAR
  5
502C6
102
{ACAD_REACTORS
330
502C5
102
}
330
502C5
100
DictionaryVariables
280
     0
  1
2
  0
DICTIONARYVAR
  5
502C7
102
{ACAD_REACTORS
330
502C5
102
}
330
502C5
100
DictionaryVariables
280
     0
  1
400.000000
  0
DICTIONARYVAR
  5
502C8
102
{ACAD_REACTORS
330
502C5
102
}
330
502C5
100
DictionaryVariables
280
     0
  1
1
  0
DICTIONARYVAR
  5
502C9
102
{ACAD_REACTORS
330
502C5
102
}
330
502C5
100
DictionaryVariables
280
     0
  1
1:1
  0
DICTIONARYVAR
  5
502CA
102
{ACAD_REACTORS
330
502C5
102
}
330
502C5
100
DictionaryVariables
280
     0
  1
STANDARD
  0
DICTIONARYVAR
  5
502CB
102
{ACAD_REACTORS
330
502C5
102
}
330
502C5
100
DictionaryVariables
280
     0
  1
STANDARD
  0
DICTIONARYVAR
  5
502CC
102
{ACAD_REACTORS
330
502C5
102
}
330
502C5
100
DictionaryVariables
280
     0
  1
Imperial24
  0
DICTIONARYVAR
  5
502CD
102
{ACAD_REACTORS
330
502C5
102
}
330
502C5
100
DictionaryVariables
280
     0
  1
Imperial24
  0
DICTIONARYVAR
  5
502CE
102
{ACAD_REACTORS
330
502C5
102
}
330
502C5
100
DictionaryVariables
280
     0
  1
-1
  0
DICTIONARYVAR
  5
502CF
102
{ACAD_REACTORS
330
502C5
102
}
330
502C5
100
DictionaryVariables
280
     0
  1
1
  0
DICTIONARYVAR
  5
502D0
102
{ACAD_REACTORS
330
502C5
102
}
330
502C5
100
DictionaryVariables
280
     0
  1
2
  0
DICTIONARYVAR
  5
502D1
102
{ACAD_REACTORS
330
502C5
102
}
330
502C5
100
DictionaryVariables
280
     0
  1
0
  0
DICTIONARYVAR
  5
502D2
102
{ACAD_REACTORS
330
502C5
102
}
330
502C5
100
DictionaryVariables
280
     0
  1
4
  0
DICTIONARYVAR
  5
502D3
102
{ACAD_REACTORS
330
502C5
102
}
330
502C5
100
DictionaryVariables
280
     0
  1
V-Construction
  0
DICTIONARYVAR
  5
502D4
102
{ACAD_REACTORS
330
502C5
102
}
330
502C5
100
DictionaryVariables
280
     0
  1
ByLayer
  0
DICTIONARYVAR
  5
502D5
102
{ACAD_REACTORS
330
502C5
102
}
330
502C5
100
DictionaryVariables
280
     0
  1
0
  0
DICTIONARYVAR
  5
502D6
102
{ACAD_REACTORS
330
502C5
102
}
330
502C5
100
DictionaryVariables
280
     0
  1
0
  0
DICTIONARYVAR
  5
502D7
102
{ACAD_REACTORS
330
502C5
102
}
330
502C5
100
DictionaryVariables
280
     0
  1
0
  0
DICTIONARYVAR
  5
502D8
102
{ACAD_REACTORS
330
502C5
102
}
330
502C5
100
DictionaryVariables
280
     0
  1
2
  0
DICTIONARYVAR
  5
502D9
102
{ACAD_REACTORS
330
502C5
102
}
330
502C5
100
DictionaryVariables
280
     0
  1
1.000000
  0
DICTIONARYVAR
  5
502DA
102
{ACAD_REACTORS
330
502C5
102
}
330
502C5
100
DictionaryVariables
280
     0
  1
1
  0
DICTIONARYVAR
  5
502DB
102
{ACAD_REACTORS
330
502C5
102
}
330
502C5
100
DictionaryVariables
280
     0
  1
1.000000
  0
DICTIONARYVAR
  5
502DC
102
{ACAD_REACTORS
330
502C5
102
}
330
502C5
100
DictionaryVariables
280
     0
  1
1
  0
DICTIONARYVAR
  5
502DD
102
{ACAD_REACTORS
330
502C5
102
}
330
502C5
100
DictionaryVariables
280
     0
  1
0
  0
DICTIONARYVAR
  5
502DE
102
{ACAD_REACTORS
330
502C5
102
}
330
502C5
100
DictionaryVariables
280
     0
  1

  0
DICTIONARYVAR
  5
502DF
102
{ACAD_REACTORS
330
502C5
102
}
330
502C5
100
DictionaryVariables
280
     0
  1
0
  0
DICTIONARYVAR
  5
502E0
102
{ACAD_REACTORS
330
502C5
102
}
330
502C5
100
DictionaryVariables
280
     0
  1
127
  0
DICTIONARY
  5
194
330
22
100
AcDbDictionary
280
     1
281
     1
  0
DICTIONARY
  5
188
330
97
100
AcDbDictionary
280
     1
281
     1
  3
FBXASSET
360
189
  0
DICTIONARY
  5
186
330
96
100
AcDbDictionary
280
     1
281
     1
  3
FBXASSET
360
187
  0
DICTIONARY
  5
110
330
98
100
AcDbDictionary
280
     1
281
     1
  3
BUMPTILE
360
112
  3
DIFFUSETILE
360
111
  3
FBXASSET
360
18A
  3
OPACITYTILE
360
113
  3
REFLECTIONTILE
360
114
  0
DICTIONARY
  5
104
330
87
100
AcDbDictionary
280
     1
281
     1
  3
ACAD_ROUNDTRIP_2008_TABLESTYLE_CELLSTYLEMAP
360
F86BB
  0
XRECORD
  5
189
102
{ACAD_REACTORS
330
188
102
}
330
188
100
AcDbXrecord
280
     1
 70
     1
 90
429727718
  1
508B35C9-AEE7-456F-BE74-D52651303AC6
310
504B03040A0000080000B670623B3DEE336E79000000790000001B0000006175746F6465736B2D64657369676E2D7061636B6167652E786D6C3C3F786D6C2076657273696F6E3D22312E302220656E636F64696E673D227574662D3822203F3E3C666F726D6174733E3C666F726D61743E687474703A2F2F736368656D612E
310
6175746F6465736B2E636F6D2F64657369676E2D7061636B6167652F323030393C2F666F726D61743E3C2F666F726D6174733E504B0304140006080800B670623BD486FD9CA0000000F4000000130000005B436F6E74656E745F54797065735D2E786D6C7D8EC10E82300C865F65E91D8A1E8C310C0EEA1BF002731658846E
310
D98AC1B77784ABF1D8FE5FBFBF75BBCE937A534CCEB38643598122B6FEE978D0B0485F9C41B54DDD7D022595594E1A469170414C76A4D9A4D207E29CF43ECE46F218070CC6BECC4078ACAA135ACF422C856C0E68EA1BF5669944DDD7BCDE7B1F8E415D77AECB980613C2E4AC91FC167A2B244592486606FC29C8FD7F045B9A
310
EF7053A7E60B504B0304140006080800B670623B28ED286BEB0000007C01000008000000636F72652E786D6C8D90416EC3201045AF82665B6183218D6D61A254764FD00B204C5C94182C03558F5F9C3852BBEB6A467FFE9B197D71FA9E6FE8CBACC17AD7012D0820E3B41FAD9B3A48F1826B40272956EFE32F1B20A766D3C1
310
268314D3EAD3B24BDABB685CCCAAF3A3D94515828980F42D371D04FD696655A814B3235C8B45E9AB9A4C419F5D8653B2237A1CB163DE672FD6AC209BF3C08E0D1B30EB19C3FC9D72FCC6EB231EFA33EDE96BDD341517E5064B11EDFCBCAF57A3A2194156843498524CAA0FCA5B7268F9E185D42D21A2DCEC7FA0B48CFF8492
310
759155FBBB0F2C80A4F991FB408A72CB22977B50B96EB9C91F504B0304140006080800B670623B55019EA25F0000007C00000007000000636E782E786D6C4DCB3B0E80201045D1AD90E915ED2CF8AC45050C11660C8261F98AB1B07AC9C97D42D718D865D3E909258CFD00CCE24AC6E326A164D74DC0B4128928FF32603847
310
2BA13128B1252AC747C6BAB984FC68F0B87FE8960A5C09FE86CFB69FBA01504B0304140006080800B670623B7BC41AC871010000D40300000C0000006662782F636F72652E786D6CC553ED6E8320147D15C2DF4501B56B6D90A64BBB27D80B50A5CE54C120983EFEAE1F4DD7A56BBA5FF3879273EEE59E7310BE393735EA95
310
ED2AA333CC428A91D2B9292A5D66D8BB63B0C26823B835C67D2BC348CB46657880B1E0A535BE9DA1DC68A7B403549B42CDA0EC3AE530CA6B5864B8CB3F552343E91D5474A7B095F949962A6421D0502778E72C0840D390E18DC5F170E664C205F7BE2A66B62A605A75AC94C522DDEEE3651AEF837817C741F2CE92E02D592D
310
83FD6ECB76EC7595A651C2C9D02CB8AB9A8BBADC2AE954814544691A3016D0E883256BBA58278B17BA5A53CAC9507ED3E4DBE2C9265F691747B3DCA9ADC382819091F8E1162272A8933DE82182932144F88C09DF060D8140C84E1EEA8B8F1340BDCA9DB1093085F157AA97B557309586747CD0EF0B4EA64E983A6E0EAEEFCE
310
889E9EF17847386AA94B30211D2C0FDE0D3AF9A4610EAD5536E8DD1969631B593F67E381C33F5157F17725E5A636F6BF1491F980C8FC7B90E13E8A2F504B0304140006080800B670623B70102A487D0000009D0000000B0000006662782F636E782E786D6C4DCCD10A83201886E15B91FFDC95A5C30335ACCDFB886521330D
310
A76397BF1A1DECE883878F57749FD5A3B74D2F17830472A901D9F088930B8B849267CC01754AA418F3DF0D5018572BE160506249B16C274D761E8BCFBB7A179E27F65CB39A0F14D396184C9921B81F34C3ACA1B4B99ABB6E6F062A25AA5F69DF23ACBE504B0304140006080800B670623B3610CA3329010000120200003100
310
00006662782F42384135303843342D343331462D343546312D424341352D3532343432364645413344462F636F72652E786D6C8D515B6EC32010BC0AE22B55850D0E446E848992B43E412FE000495162B07854397EA176A4F62F3F2C9A9D991D58BEBB8F37F0AD7D30CE76905418026DA553C65E3A98E219B510EC04F7CEC5
310
3F3408EC30EA0E16180A7EF12E4D0B249D8DDAC68C5AA7F4020E21E80881BCE54B0783FCD2E3500D296646B856D320AFC34557A4CAEDCC133C449F0380794839A138B47B86DB2345744D7A44594FD0E1B867883594369BFE63BF7EEF793D0B054FC9A8456E548E63CE46FB674D8A58F068C6477CE9F510B582A2C1F80D1182
310
70F349E816B32D65AFB8DD62CCEB42FF274A937A52948C8DEB66893BCB021484D7734370E5D2E9F608A3EF93F3119479ABA0E50B14B8C298119A43CCC4FCFCECB8A18B6388CEE7EF5D5D4F994BD86CBBA182D76543B9FCAE2FD7B24DF103504B0304140006080800B670623B1B8617914E0100003303000030000000666278
310
2F42384135303843342D343331462D343546312D424341352D3532343432364645413344462F636E782E786D6CD593C16EC32010447F0571AD6CE3D489D20813A9877E410FBD62D82434182CC055F3F75D1292E692438FBD206B7698593D61BEFD1E2DF982108D773D6D6B460938E5B571FB9ECE6957AD29D90A1EBC4F7736
310
4A9C1CA1A759A682EF839FA72269D8C9D92654AD71C72206887E0E0A22CAF926B15E498B01E0AA19451807D01A34B919F16B070157417138917400F2F6FA41FCF0092A45DEE414C19BDC21783E4BD39D891265658C3D8DEA00A3ACE59CBC8678ACB54CB26EEB6BD7839D7E9348BE70AD9C8321B9BCA7F9A4A26C542347DEE0
310
50F09802D22BA6749A800A394DD62899107273365E3C82CFC6A55557BC06C10774B7ABE7AEC3B0F34CF06446280E154026D0542C187BA9DAB6628BF7B6DBB0E5A65B3EB1F58631DE64BBE083F7B65CC218087E22CABB042E51D1F2268F1FE12B3EA24D40D63E9CFE00120194D60B9D5BC67FE6D39CDF37E20AF817881F504B
310
0304140006080800B670623BBFEF2E3B690500003C100000340000006662782F42384135303843342D343331462D343546312D424341352D3532343432364645413344462F6F626A656374732E786D6CAD575D739B3814FD2B0CFB0C98D84E931D4227B6938EA793B6534F3BFB90198F0099B001899144EAECAFDF231018B0
310
D37A3FFC609090EEE7B94757C1FB7D915B2F54C88CB31BDB7727B64559CC938CA53776A576CE956DBD0F03C1B9EA2DB32D460A7A63EB693B0C52C1ABD24C257447AA5C8D66EF177F5832A68CDA569C13296F6C193FD182B8A4523CA1F2D94D88226EBADBBBBEDB2C1C8A4D05299F46424B222853B014F30C52ACC6287F389C
310
D85E1878FA7B18E87FB36AFAF62AAFF667A83F635211161F291B8999FAB3D5DDC5FCDA99CF6653677679E13B8BFBC5CAF1DF4D27CBCBE5F2FAF6EE1A8AA51290642C117467871F101B91C581D77CEA2C36869F3229E68CD1B8F61F1ED6361B89092D294B90C78C4A68EB793D190E7D1D9BDEE7A91E1B95FDE9F3BCEAEFE809
310
6A6D6F9F7D4B79F4275C90E7A04248AA51D5C4C738DAE06F72885AC4796EBE65D22A88A22223B995679120E2D50EB1542F098381188D4EA111AE3DB043FF20AF6F2B4AE3D7D83D65E5AECA730D4D3BAC91BD05FEA992B565D95F549CD6069B90AB2A63EACA38A45E4B6A87D781574F86817E4C2FCCC72690D62E2729520E37
310
9BAF234797BAF6D62B3BFC781FED37BA1E4F2B2F052FA9501A3E80569BB8F6A9A364D4FA67654E6F803383981F82F21591FF84F23D9882BC896C3FDBCF8C162508933B2E0AE4C69DD43F6BD2BE38DDDBF10BF86CB4FA784D37F3AF16075E67EC9030DECA1FC0A55373F5DFF3378C591FA9BDF485C10B0A8C8BA909E5262639
310
A8E72163488806A595734C81CB77D1DE0ED7604A303B76913CEC0272F412782FF88EFF4636D8AA56DF7B322474C4B767303F625997056C7B032C473C592B36CEBD15F3F9FF5233B7ABCDC74D257624A60F8658567497B14CE1EC3C80B76FD02011038F9EE9EB0F2E12387A9C844D3F09855125116D1D731DF8B43D2CF4E0A0
310
79A020C6BE946BCE0B7EA1E1219331CD73C228AF5A2DDD31A4B1DA918CE91350854D40A71723140BFA92E94E62B0626016CEFA5864A50E5977E8753CEDBEE1CBB7F52780D20E17AF0BA0F5F9B02A3AD07DCC732EB6D1EBB661421BE0C39E21BABF0FE16D22EA6929407C8DE596724C88B749B6DB5512BC7B228ADFD7CB7EA6
310
3A22397E690BA8D5D8D4E40CEC8CDA23C2C0B7D5898640101CEC9C6D331CE328CB93CAFBBAC70A642DF70DF95155945B52F08AA973C23469FD69ADEF84F7BB18F983A8F8C90E37F5D35980B2139A1C523540813E824EF83448CF7C72B598CE97D7CEEDDDDD3B6736BFBC771677EF66CE6A7E7139F7A793E9EDF2B2B3A8B624
310
0CDA13AA5F8388264EC4A0129909F3B7F5A16CEDF08128E97D680ACA4B9BE7B7B58BB638F0B00700EF36AE8B32A705658A68F83EE897FC2B41573190D1CCAF0B92D233A47CFEB019D9809933F67DD1A5467F8CF69AD9A5AE859342D45355448C64F968A371DC2D596ADC6E43D93D1B466F877A64E2893E54F23C4B40388995
310
525E5005DA3983ED45412510D3EFCA13737B3863F74BD30F2A12E5B4B5E489A025CE25500DB855B11ACE5BBFA185D35DD48D8DC3CE7DC69F2944DB42AA6F6CF09BCA622ADD08C7A36E7C6AE18000BAB08E040135C2D21C9D75B3A91B77BB746C403F38018DFE6EC939DD92F16B40BC05294B9CDA035AAD6D330AE27FE4786B
310
8E45145EA34A75BE1C263A676A35A8ACC6297337400BF16C54EF515F3F77CB77EB3583889C754FFA29081AA98E2222ADEF05DA3E63D2EDEA8B8756C05A7FB6CABC4A91CBF325398202CC952E70A008A830324BA200D5E5EF8F5F04C75DB4B0EE3340E071C98B823333B83577596BF3849B69F2085AA0FAFA212F26BEFF5877
310
FDE622B28D88A42E49E43326DA82D31E8CB006401E1DA726059ECEC168F97A6599036306A135688F9AD2E61A6EA178F4CD51974A9F2CCB9F36FE5EBD14601068D9C3BF01504B0304140006080000B670623B000000000000000000000000350000006662782F42384135303843342D343331462D343546312D424341352D35
310
32343432364645413344462F76657274696365732E62696E504B0304140006080800B670623BF270F1330600000004000000360000006662782F42384135303843342D343331462D343546312D424341352D3532343432364645413344462F747269616E676C65732E62696E636660600000504B0304140006080000B67062
310
3B000000000000000000000000370000006662782F42384135303843342D343331462D343546312D424341352D3532343432364645413344462F617474726962757465732E62696E504B0304140006080800B670623B08DA0BD19000000041010000360000006662782F42384135303843342D343331462D343546312D4243
310
41352D3532343432364645413344462F6469726563746F72792E786D6C858F410AC3201045AF22B36F53E9A60B35CBEEBAE80D244E44489C6234F4F835464A48035D0DF398FF9F8AF63D0E6CC63039F212F8F9020C7D47C6792B21C5FE7403D62A1188E2E60C98D7234A5830286103A55745067B9D86B8A3CF9C7F90C11DE6
310
07FB144396D7B6A82D282E9A152AD114D5EF2CB866EEE831B8EEA07A7BB5A8D7D61A2BAAEB7FD5F70921FF497D00504B0304140006080800B670623B3B4606F3FE000000A00100003B0000006662782F42384135303843342D343331462D343546312D424341352D3532343432364645413344462F7265736F75726365732F
310
636F72652E786D6C8D504B6E833010BD0A9A6D65B08134808CA354A427E8052C332156828DFCA97AFC9A40A576D7CDCCE87D344F8F9FBEE647F689CE6B6B7A6039850C8DB2A336530F315C4903D94970676DF82583CCC8197B5861107C72362E3BA4AC096842428D1D7107A5F71820538F74F4E0D50D6799CB1892C2DFF345
310
AABB9C306779A2934E701F5C0A906D4FD609C2A1B7D129F4BCD858C163D4E3AED163FAA9AF1A1D88F67CA98E6D35906AA82A52BFB39ABCD5CD915C86331BD86BD3B665CD8BD52C78D0F34F46E550061C419494B6843142CB0F5677F4D0D58717DA7494F26295FF31C565FCA7296A13AA728FBBD93C0896823C09C18BB5AFB4
310
9E65A6BD762BBE01504B010214000A0000080000B670623B3DEE336E79000000790000001B00000000000000000000000000000000006175746F6465736B2D64657369676E2D7061636B6167652E786D6C504B01021400140006080800B670623BD486FD9CA0000000F40000001300000000000000000000000000B2000000
310
5B436F6E74656E745F54797065735D2E786D6C504B01021400140006080800B670623B28ED286BEB0000007C010000080000000000000000000000000083010000636F72652E786D6C504B01021400140006080800B670623B55019EA25F0000007C000000070000000000000000000000000094020000636E782E786D6C50
310
4B01021400140006080800B670623B7BC41AC871010000D40300000C00000000000000000000000000180300006662782F636F72652E786D6C504B01021400140006080800B670623B70102A487D0000009D0000000B00000000000000000000000000B30400006662782F636E782E786D6C504B01021400140006080800B6
310
70623B3610CA3329010000120200003100000000000000000000000000590500006662782F42384135303843342D343331462D343546312D424341352D3532343432364645413344462F636F72652E786D6C504B01021400140006080800B670623B1B8617914E010000330300003000000000000000000000000000D10600
310
006662782F42384135303843342D343331462D343546312D424341352D3532343432364645413344462F636E782E786D6C504B01021400140006080800B670623BBFEF2E3B690500003C10000034000000000000000000000000006D0800006662782F42384135303843342D343331462D343546312D424341352D35323434
310
32364645413344462F6F626A656374732E786D6C504B01021400140006080000B670623B0000000000000000000000003500000000000000000000000000280E00006662782F42384135303843342D343331462D343546312D424341352D3532343432364645413344462F76657274696365732E62696E504B010214001400
310
06080800B670623BF270F133060000000400000036000000000000000000000000007B0E00006662782F42384135303843342D343331462D343546312D424341352D3532343432364645413344462F747269616E676C65732E62696E504B01021400140006080000B670623B00000000000000000000000037000000000000
310
00000000000000D50E00006662782F42384135303843342D343331462D343546312D424341352D3532343432364645413344462F617474726962757465732E62696E504B01021400140006080800B670623B08DA0BD1900000004101000036000000000000000000000000002A0F00006662782F42384135303843342D3433
310
31462D343546312D424341352D3532343432364645413344462F6469726563746F72792E786D6C504B01021400140006080800B670623B3B4606F3FE000000A00100003B000000000000000000000000000E1000006662782F42384135303843342D343331462D343546312D424341352D3532343432364645413344462F72
310
65736F75726365732F636F72652E786D6C504B0506000000000E000E0080040000651100000000
  0
XRECORD
  5
187
102
{ACAD_REACTORS
330
186
102
}
330
186
100
AcDbXrecord
280
     1
 70
     1
 90
429727718
  1
887D55A9-D0DD-414E-B741-A7DCD4DA2B4C
310
504B03040A0000080000B670623B3DEE336E79000000790000001B0000006175746F6465736B2D64657369676E2D7061636B6167652E786D6C3C3F786D6C2076657273696F6E3D22312E302220656E636F64696E673D227574662D3822203F3E3C666F726D6174733E3C666F726D61743E687474703A2F2F736368656D612E
310
6175746F6465736B2E636F6D2F64657369676E2D7061636B6167652F323030393C2F666F726D61743E3C2F666F726D6174733E504B0304140006080800B670623BD486FD9CA0000000F4000000130000005B436F6E74656E745F54797065735D2E786D6C7D8EC10E82300C865F65E91D8A1E8C310C0EEA1BF002731658846E
310
D98AC1B77784ABF1D8FE5FBFBF75BBCE937A534CCEB38643598122B6FEE978D0B0485F9C41B54DDD7D022595594E1A469170414C76A4D9A4D207E29CF43ECE46F218070CC6BECC4078ACAA135ACF422C856C0E68EA1BF5669944DDD7BCDE7B1F8E415D77AECB980613C2E4AC91FC167A2B244592486606FC29C8FD7F045B9A
310
EF7053A7E60B504B0304140006080800B670623BBC1638F5EC0000007C01000008000000636F72652E786D6C8D90416EC3201045AF82665B61836BE2D8C24471DB9CA01740401C94182C03558F5F9C3852BBEB6A467FFE9B197D7EF89E6EE8CB2CC17AD7032D0820E394D7D68D3DA478C67B4007C117EFE32F1B202727D3C3
310
2A83E0E3E2D3BC49CABB685CCCAAF3DA6CA20CC14440EA969B1E82BA98491632C5EC08D76296EA2A4753D06797E194AC468F2356E77DF66CCD02825543D50CACC62D39ED70FDC68EB8FD68F6F8787A6784342D1DDA1D2F5758F068A7E77DB518198D065111D2624A31A93E69DD11D6D5EC85EC3B4278B9DAFF4069D6FF8492
310
75F1B5DADE7D600104CD8FDC0782976B16B9DC83CA75CD4DFC00504B0304140006080800B670623B55019EA25F0000007C00000007000000636E782E786D6C4DCB3B0E80201045D1AD90E915ED2CF8AC45050C11660C8261F98AB1B07AC9C97D42D718D865D3E909258CFD00CCE24AC6E326A164D74DC0B4128928FF326038
310
472BA13128B1252AC747C6BAB984FC68F0B87FE8960A5C09FE86CFB69FBA01504B0304140006080800B670623B3586FFB671010000D40300000C0000006662782F636F72652E786D6CC553ED6E8320147D15C2DF4541A76D6D90A6DDD627D80B50A4CE54C120983EFEAE1F4DD7A55BBA5FF3879273EEE59E7310B6393735EA
310
95ED2AA3731C851423A5A5292A5DE6D8BB63B0C268C39935C67D29C3488B46E578803167A535BE9D2169B453DA01AA4DA16650749D7218C91A1639EEE4876A4428BC838AEE14B6429E44A9C228041AEA38EB9C0501681A32BC313F1ECE8C4C3867DE57C5CC56054CAB8E95B298A7F12E5EEED224C8E87E11242FE936C8DE96
310
AB60BB7F4D295D66D12E5B30323473E6AAE6A24E5A259C2A308F29CD82280A68FC1E256B9AAE93F489AED694323294DF34F9B678B0C957DA3DC7B3DCA9ADC33C022123F1CD2D44E450277AD04338234388F01913BE0D1A0281909D38D4171F27807A259DB1093085F157AA17B557309586747CD0CF0B46A64E983A6E0EAEEF
310
CE881F9EF1FB8E70D44297604238581EBC1B74B249C31C5AAB6CD0BB33D2C636A27ECCC62F0EFF445DC5DF95244D6DEC7F2922F30191F9F720C37DE49F504B0304140006080800B670623B4220A0FF7D0000009D0000000B0000006662782F636E782E786D6C4DCCD10A83201886E15B91FFDCE542CB0335D0EC3E6259C84A
310
C3E9D8E5AF46073BFAE0E1E315DD675BD1DBA5978F41C2FD4600B9F088930F8B849267CC01754AA418F3DF0D50183727E164506249B1EC174D6E1ECB9A0F5D7D785E68DB8151CD286E5A5363CA6B8A39E90D36D40E96B086F55A43A544F52B1D7B86D517504B0304140006080800B670623B2FA3FEDE290100001202000031
310
0000006662782F45374635344235342D363743322D343832342D383044432D4334454645303536354442422F636F72652E786D6C8D515B6EC32010BC0AE22B55850D2E386E848994D7097A0117488A1283C5A3CAF10BB523B57FF961D1ECCCECC0F2ED7DBC816FED8371B687A4C210682B9D32F6D2C314CFA883602BB8772E
310
FEA141608751F7B0C050F08B77695A20E96CD43666D43AA5177008414708E42D5F7A18E4971E876A483133C2B59A06791D2EBA22556E679EE021FA1C00CC43CA09C5717D6274C7286AD7FB06D1AEA1A8C3873DDAD3E3E98859CB0EBB1DAF67A1E02919B5C88DCA71CCD968FFAC49110B1ECDF8882FBD1EA256503418BF2342
310
106E3E08DD60B6A1EC15771B8C795DE8FF4469524F8A92B1F1AD59E2CEB20005E1F5DC105CB9F4797B84D1F7C9F908CABC55D0F2050A5C61CC1AD2F27A26E6E767C7962E8E213A9FBF7775FDCC5CC266DB960A5E970DE5F2BBBE5CCB36C50F504B0304140006080800B670623B1B8617914E01000033030000300000006662
310
782F45374635344235342D363743322D343832342D383044432D4334454645303536354442422F636E782E786D6CD593C16EC32010447F0571AD6CE3D489D20813A9877E410FBD62D82434182CC055F3F75D1292E692438FBD206B7698593D61BEFD1E2DF982108D773D6D6B460938E5B571FB9ECE6957AD29D90A1EBC4F77
310
364A9C1CA1A759A682EF839FA72269D8C9D92654AD71C72206887E0E0A22CAF926B15E498B01E0AA19451807D01A34B919F16B070157417138917400F2F6FA41FCF0092A45DEE414C19BDC21783E4BD39D891265658C3D8DEA00A3ACE59CBC8678ACB54CB26EEB6BD7839D7E9348BE70AD9C8321B9BCA7F9A4A26C542347DE
310
E050F09802D22BA6749A800A394DD62899107273365E3C82CFC6A55557BC06C10774B7ABE7AEC3B0F34CF06446280E154026D0542C187BA9DAB6628BF7B6DBB0E5A65B3EB1F58631DE64BBE083F7B65CC218087E22CABB042E51D1F2268F1FE12B3EA24D40D63E9CFE00120194D60B9D5BC67FE6D39CDF37E20AF817881F50
310
4B0304140006080800B670623B29652116630500003C100000340000006662782F45374635344235342D363743322D343832342D383044432D4334454645303536354442422F6F626A656374732E786D6CAD575D739B3814FD2B0CFB0C989834C90EA1639B24E3E9A6EDD4D3CE3E64C623834CD8006224913AFDF57B040203
310
B65BEF871F0C12D2FD3CF7E8CA7FBFCB33E3957291B2E2D674ED8969D02262715A24B76625B7D6B569BC0F7CCE98EC2D338D82E4F4D654D366E0279C55A59E8AE99654991CCDDECFFF3444440B6A1A514684B83545F44C7362934AB2988A173B2692D8C97667BB76B3702836E1A47C1E092D09A78584A5982F20C5688C7287
310
C389E904BEA3BE07BEFAD7ABA6A75739B53F43FD69212429A20365233153D70BEF2E2E6FAC4BCF9B5ADEBB0BD79ADFCF43CBBD9A4E16EF168B9BD9DD0D140BC921495BC2E9D60C1E101B9E46BED37CEA2CD6861F3329624541A3DA7F7858DBAC25C6B4A4458C3CA654405BCFEBC970E8AAD8F43E4FD558ABEC4F9FE7557F47
310
4F506B7BFBEC5BCA367FC105710E2AB8A00A554D7CB4A30DFE26FBA86D18CBF4B75418399194A72433B274C3097F33032C554B027F2046A1932B842B0FCCC0DDCBEBDB8AD2F835768F59B9ADB24C41D30C6A64AF817F2A456D59FA83F2E3DA60137255A585BCD60EC9B7929AC18DEFD49381AF1ED30BFDB109A4B1CD488294
310
C3CDE6EBC8D185AABD6568061FEE37BB95AAC7E3CA4BCE4ACAA5820FA0D526AE7DAA2869B5EE5999531BE0CC20E6FBA07C41E43FA27CF7A6206F3CDD793B4F6B919C1462CB788EDCD893FA674CDA17AB7B3B7C019F8D561FAEE966FED562DFE98C1D12C6A9FC015C2A35D7FF3D7FC398F591DA4B5FE0BFA2C0189FEA50AE22
310
92817A1ED3020951A03432862970F976B33383259812CC8E5D240BBA801CBCF8CE2BBEE3BF910DB6AAD5F79E05123AE2DB33981FB1ACCB02B69D00CB014FD68AB573A7627EF9BFD4CC2C5C7D58557C4B22FAA88925A4DBB44825CECE3D78FB060D1231F0E885BE7D673C86A3874958F593906B5502D1563157814FDAC3420D
310
F69A070A22EC4B98E23CFF171A1E5311D12C23056555ABA53B8614563B92D17D02AAB009E8F46284624E5F53D5490C560CCCC2591FF1B45421EB0EBD8EA7ED13BE7C5D7E0428CD60FEF60779EB13E6664FF711CB185F6FDED60D139A001FF60CD1FD6D086F1D51474901E26B2CB794A343BC8ED3EDB612E0DD2351FCB65CF4
310
33D511C9E14B5B40ADC6A6263DB0336A8F700DDF56271A024E70B0B3629DE21847591E55DED73D56206AB927E46FAABC5C939C55853C274C93D69FD6FA4E78BF8B11DF898C9ECD60553FAD39283BA6F18984AA23E8884F83F45C5F5F859797B31B2B9C84A1E5B9DE9D35BFF25C6B76152E422F9C5DCC3D847F5801ED09D5AF
310
41441327A25FF15487F9EB725FB666F048A4701E9A827292E6F97569A32DF61DEC01C0BB8DCBBCCC684E0B49147C1FD54BF685A0AB18C868E6973949E819523E3DAC463660E68C7D9F55A9D1EFA3BD7A76A16AE1A810F95CE59B82A4D968A376DC2E8B44BBDD86B27B368CDE0ED548C7137DA860591A83706223A12CA712B4
310
7306DBF39C0A20A6DF95C7FAF670C6EED7A61F946493D1D6926782963813403548A78AE470DEF80D2D9CEAA26E4D1C76F60BFE74219A06527D6B82DF641A51616F703CAAC6A7160E08A00BEB4810A0274592A1B36E3675E36E978A0DE80727A0D6DF2D39A75BD27E0D8837276589537B40ABB56D5A41F48F1C6FCD3188C4EB
310
A6929D2FFB89CE995A4D00AE813BDD032DC48B56BD437DFDDC2DD7AED70C2272D63DE9A72068A45A92F0A4BE17A8A06B9366E16707AD80B1FC649459952097E74BB23805982B55E0401150A165964402AA8BDF9F3E7386BB686EDCA780C0D382E5392BF460A6EFB2C6EA1937D3F809B440D5F5435C4C5CF7A9EEFAF54564BD
310
2182DA24162F98680B4E7930C21A0079709CEAEB99A372305ABE0C0D7D6078105A83F6A0296DAEE1068A47DD1C55A9F4C9B2FC69E3EFD44B81028E963DF81B504B0304140006080000B670623B000000000000000000000000350000006662782F45374635344235342D363743322D343832342D383044432D433445464530
310
3536354442422F76657274696365732E62696E504B0304140006080800B670623BF270F1330600000004000000360000006662782F45374635344235342D363743322D343832342D383044432D4334454645303536354442422F747269616E676C65732E62696E636660600000504B0304140006080000B670623B00000000
310
0000000000000000370000006662782F45374635344235342D363743322D343832342D383044432D4334454645303536354442422F617474726962757465732E62696E504B0304140006080800B670623B08DA0BD19000000041010000360000006662782F45374635344235342D363743322D343832342D383044432D4334
310
454645303536354442422F6469726563746F72792E786D6C858F410AC3201045AF22B36F53E9A60B35CBEEBAE80D244E44489C6234F4F835464A48035D0DF398FF9F8AF63D0E6CC63039F212F8F9020C7D47C6792B21C5FE7403D62A1188E2E60C98D7234A5830286103A55745067B9D86B8A3CF9C7F90C11DE607FB144396
310
D7B6A82D282E9A152AD114D5EF2CB866EEE831B8EEA07A7BB5A8D7D61A2BAAEB7FD5F70921FF497D00504B0304140006080800B670623B6378F24DFF000000A00100003B0000006662782F45374635344235342D363743322D343832342D383044432D4334454645303536354442422F7265736F75726365732F636F72652E
310
786D6C8D504B6E833010BD0A9A6D65B0094E42641C85B639412F6099496225D8C89FAAC7AF09546A77DDCC8CDE47F3F4C4F16B7C149FE88371B603565228D06A37187BED20C50BD9437194C23B177FC9A0B06AC40E6618A4B87A97A615D2CE46B431A3D60DB8822A048C50E8473E3A08FA86A32A558A5911EEE5A4F45D5DB1
310
6465A6B34E8A107D0E502C4FE609D26370C96B0CA25A58295232C3AA3143FE692E063D485EF7F5AEE71BD2D2F39634AFFC44DAF7DD9E9CCE6F9CD25DCBFA762BAAD92C4534E34F46ED51451C40D694B6843142EB0FD61C283F34FC85EE0F948A6A96FF31A569F8A729191B37F51A77B105902C0779125254735F793DCBCC7B
310
EE567E03504B010214000A0000080000B670623B3DEE336E79000000790000001B00000000000000000000000000000000006175746F6465736B2D64657369676E2D7061636B6167652E786D6C504B01021400140006080800B670623BD486FD9CA0000000F40000001300000000000000000000000000B20000005B436F6E
310
74656E745F54797065735D2E786D6C504B01021400140006080800B670623BBC1638F5EC0000007C010000080000000000000000000000000083010000636F72652E786D6C504B01021400140006080800B670623B55019EA25F0000007C000000070000000000000000000000000095020000636E782E786D6C504B010214
310
00140006080800B670623B3586FFB671010000D40300000C00000000000000000000000000190300006662782F636F72652E786D6C504B01021400140006080800B670623B4220A0FF7D0000009D0000000B00000000000000000000000000B40400006662782F636E782E786D6C504B01021400140006080800B670623B2F
310
A3FEDE290100001202000031000000000000000000000000005A0500006662782F45374635344235342D363743322D343832342D383044432D4334454645303536354442422F636F72652E786D6C504B01021400140006080800B670623B1B8617914E010000330300003000000000000000000000000000D2060000666278
310
2F45374635344235342D363743322D343832342D383044432D4334454645303536354442422F636E782E786D6C504B01021400140006080800B670623B29652116630500003C10000034000000000000000000000000006E0800006662782F45374635344235342D363743322D343832342D383044432D4334454645303536
310
354442422F6F626A656374732E786D6C504B01021400140006080000B670623B0000000000000000000000003500000000000000000000000000230E00006662782F45374635344235342D363743322D343832342D383044432D4334454645303536354442422F76657274696365732E62696E504B01021400140006080800
310
B670623BF270F13306000000040000003600000000000000000000000000760E00006662782F45374635344235342D363743322D343832342D383044432D4334454645303536354442422F747269616E676C65732E62696E504B01021400140006080000B670623B0000000000000000000000003700000000000000000000
310
000000D00E00006662782F45374635344235342D363743322D343832342D383044432D4334454645303536354442422F617474726962757465732E62696E504B01021400140006080800B670623B08DA0BD190000000410100003600000000000000000000000000250F00006662782F45374635344235342D363743322D34
310
3832342D383044432D4334454645303536354442422F6469726563746F72792E786D6C504B01021400140006080800B670623B6378F24DFF000000A00100003B00000000000000000000000000091000006662782F45374635344235342D363743322D343832342D383044432D4334454645303536354442422F7265736F75
310
726365732F636F72652E786D6C504B0506000000000E000E0080040000611100000000
  0
XRECORD
  5
112
102
{ACAD_REACTORS
330
110
102
}
330
110
100
AcDbXrecord
280
     1
270
     1
271
     1
  0
XRECORD
  5
111
102
{ACAD_REACTORS
330
110
102
}
330
110
100
AcDbXrecord
280
     1
270
     1
271
     1
  0
XRECORD
  5
18A
102
{ACAD_REACTORS
330
110
102
}
330
110
100
AcDbXrecord
280
     1
 70
     0
 90
1778669749
  1
9BF507EE-FAF7-4A99-A33D-4EE51894BC40
310
504B03040A0000080000B670623B3DEE336E79000000790000001B0000006175746F6465736B2D64657369676E2D7061636B6167652E786D6C3C3F786D6C2076657273696F6E3D22312E302220656E636F64696E673D227574662D3822203F3E3C666F726D6174733E3C666F726D61743E687474703A2F2F736368656D612E
310
6175746F6465736B2E636F6D2F64657369676E2D7061636B6167652F323030393C2F666F726D61743E3C2F666F726D6174733E504B0304140006080800B670623BD486FD9CA0000000F4000000130000005B436F6E74656E745F54797065735D2E786D6C7D8EC10E82300C865F65E91D8A1E8C310C0EEA1BF002731658846E
310
D98AC1B77784ABF1D8FE5FBFBF75BBCE937A534CCEB38643598122B6FEE978D0B0485F9C41B54DDD7D022595594E1A469170414C76A4D9A4D207E29CF43ECE46F218070CC6BECC4078ACAA135ACF422C856C0E68EA1BF5669944DDD7BCDE7B1F8E415D77AECB980613C2E4AC91FC167A2B244592486606FC29C8FD7F045B9A
310
EF7053A7E60B504B0304140006080800B670623BCA089DFFEC0000007C01000008000000636F72652E786D6C8D90416E83301045AF62CDB632D8402020E32882F604BD80653BC44AB011B6AB1EBF262152BBEB6A467FFE9B197D76FA9EEFE84BAFDE38DB03CD08206DA553C64E3DC470C1474027CE56E7C22F1B202B66DDC3
310
260367D3EAE2B24BD2D9A06D48AA754AEFA2F05E0740F29E9A1EBCBCEA59642286E4F0B76C11F226269DD15797E0188D42CF2346A57DE662F40ABCAEC77628C6120F654571D50C04B7F5B9C1E3997CD4F550BE3745C3F20DE62C98F9755FAE5A04AD801784B498524C8A4F5A75E4D055873772EC0861F966FF03C545FD138A
310
C686B2D8DF7D621E384D8F3C069CE55B16A93C824A75CB8DFF00504B0304140006080800B670623B55019EA25F0000007C00000007000000636E782E786D6C4DCB3B0E80201045D1AD90E915ED2CF8AC45050C11660C8261F98AB1B07AC9C97D42D718D865D3E909258CFD00CCE24AC6E326A164D74DC0B4128928FF326038
310
472BA13128B1252AC747C6BAB984FC68F0B87FE8960A5C09FE86CFB69FBA01504B0304140006080800B670623B68FC0B7272010000D40300000C0000006662782F636F72652E786D6CC5535B6E833010BC8AE5DF0A6C1E8124328E22D29EA01770C0A128602363A31CBFCB234A53A555FA553EC09AD9F5CE8C31DB5DDA060D
310
D2F4B556190E7C8A9154852E6B5565D8D993B7C668C799D1DA7E29C3488956667884316795D1AE5BA0422B2B950554E9522EA0E87B69312A1A5864B82F3E642B7CE12C54F467BF13C55954D20F7CA0A18EB3DE1A1080E621E31BF3D3F1C2C88C73E65C5D2E6C5DC2B4FA544B8379921C36797888BC3C8A032F4E73EA6D927D
310
EA1DF6F42D49F2E8350D5346C666CE6CDD5ED515460A2B4BCC434A375E1078347C0FE22D5D6DE3D50B5D6F2965642CBF6B725DF96493AB958DC245EEDCD6631E809089F8E61622B2A81703E8219C913144F84C09DF070D8140C8561C9BAB8F3340832CAC363130A576376A108D933095FA747AD0CF0B46E64E983A6D0EAE1F
310
CE089F9EF1FB8E70D44255604258581E9D1D75B259C3125A278D37D80B52DAB4A279CEC62F0EFF44DDC43F9454E8469BFF5244960322CBEF41C6FBC83F01504B0304140006080800B670623B0F71DDB67E0000009D0000000B0000006662782F636E782E786D6C4DCCD10A83201886E15B91FFDCA54DB73F502386BB8F5816
310
32D3703976F9ABD1C18E3E78F87855FB990379BBFCF2296AE02706C4C5471A7C9C349475A408A4352AA7B4FEDD80C47E761A7606A3A69CCA72D0E0C6BE8475D3E0E3F3409428EA6B27A84079A782899AA2EC1A7AE3ECCC2FD858CB2D544655BFD2B67BD87C01504B0304140006080800B670623BE134B4FB28010000120200
310
00310000006662782F38353834323741342D343835462D343034322D383541392D4331303331363839454531452F636F72652E786D6C8D515B6EC32010BC0AE22B55850D0EA424C24451959EA0172086A42831583CAA1CBF503B52FB971F16CDCECC0EACD8DFC71BF836215AEF7A481A0C817183D7D65D7A98D3197108F652
310
04EFD31F1A044E8DA6871586525C82CFD3020DDE25E352419DD76601558C264130DCCAA58771F832A36A544E8511AFCDA486ABBA988634A55D7852C4144A00300FA927949C71DABD1D28A29C7D208A6987383B6CD13BC16BB2E1DBE3911C453B0BA5C8D9EA456E758963CFD684674DAA588A64C747FC2118958C86B2C3788B
310
0841B8FB247487D98EB257CC77188BB6D2FF89F2A49F1465EBD2BA5BE2CEB2082511EDDC9042FB7CBA3DC298FBE4430275DE2A9AE1054ADC60CC08E3A29D89E5F9C5714317C7987C28DFBBBA9E0A97B0D97643A568EB864AF95D5FA9759BF207504B0304140006080800B670623B1B8617914E010000330300003000000066
310
62782F38353834323741342D343835462D343034322D383541392D4331303331363839454531452F636E782E786D6CD593C16EC32010447F0571AD6CE3D489D20813A9877E410FBD62D82434182CC055F3F75D1292E692438FBD206B7698593D61BEFD1E2DF982108D773D6D6B460938E5B571FB9ECE6957AD29D90A1EBC4F
310
77364A9C1CA1A759A682EF839FA72269D8C9D92654AD71C72206887E0E0A22CAF926B15E498B01E0AA19451807D01A34B919F16B070157417138917400F2F6FA41FCF0092A45DEE414C19BDC21783E4BD39D891265658C3D8DEA00A3ACE59CBC8678ACB54CB26EEB6BD7839D7E9348BE70AD9C8321B9BCA7F9A4A26C542347
310
DEE050F09802D22BA6749A800A394DD62899107273365E3C82CFC6A55557BC06C10774B7ABE7AEC3B0F34CF06446280E154026D0542C187BA9DAB6628BF7B6DBB0E5A65B3EB1F58631DE64BBE083F7B65CC218087E22CABB042E51D1F2268F1FE12B3EA24D40D63E9CFE00120194D60B9D5BC67FE6D39CDF37E20AF817881F
310
504B0304140006080800B670623B5933D422630500003B100000340000006662782F38353834323741342D343835462D343034322D383541392D4331303331363839454531452F6F626A656374732E786D6CAD575B6FA33814FE2B887D0642934E9B156594264D158D3A534DD4D13E548A0C38942D60649B4EBABF7E3F8321
310
40924EF6928780CDF1B97EE762EFF32E4B8D37CA45C2F21BD3B547A641F39045491EDF98A5DC5AD7A6F1D9F73863B243661A39C9E88DA9B64DDF8B392B0BBD15D12D295339D85DDEFE618890E6D434C2940871638AF08566C426A5641115AF764424B1E3EDCE76ED9AB0CF36E6A47819302D08A7B984A6D8CFC1C5A89572FB
310
CB91E9F89EA3BEFB9EFAD754E3D3544E654F5F7E920B49F2F040D880CDD89D2CEE2E2EA7D6E56432B6269F2E5CEB7679BBB0DCABF168FE693E9FCEEEA6102C240727AD09A75BD3BF876F78127A4EFDA9D5582B7E4CA590E5390D2BFB6161A5B3E618D182E611E2985001691DAB47FDA5AB7CD3F93C566B2DB2BB7D9E55DD13
310
1D468DEECDB3AB290BFE8409E21C54704115AA6AFF68436BFC8DF65E0B184BF5B74418199194272435D224E084BF9B3E481589EFF5D828747285706581E9BB7B7E5D5D911ABFC6EE312DB7659A2A689A7E85EC0DF04FA5A8344BFEA2FCB834E8845895492EAFB541F2BDA0A63FF59C6AD3F7D4637CA13FD68E34B629891172
310
98597F1D183A57B9B75A98FE9765B05BAB7C3C2EBCE0ACA05C2AF8005A4DE09AA7F29216EB9E15397500C6F47CBE77CA7778FE2BD277AF0AE2C693DD6437D1522427B9D8329E2136F6A8FA19A3E6C56ADF0E5F50CF06D48734EDCEBF22F69C56D97EC138153F804B85E6FABFC7AFEFB32E523BE1F3BD372418E363EDCA7548
310
52949E8724474014288D94610BB57C1BEC4C7F854A89CA8E5324F55B871CBC78CE1BBEE3BFE68D6A5589EF3C730474506FCFA8FCF0659516D0ED04580EEA6425581B77CAE797FF4BCECC16EB2FEB926F49481F746159D06D922712BD730FDEAE42BD40F42C7AA5EF3F198F60E86110D6DD20645A9480B795CF95E3E3A659A8
310
C55E724F408873315335CFFB8584874484344D494E59D94869DB90C26A5B64F49C802CAC1D3ABE18A098D3B7444D123D8A9E5AE8F5214F0AE5B2B6E9B575DA3E61CBD3EA2B4009FA940524DD1305FB6A1FB294F14DF0BEA90BA109ECE1481FDC3FFAE8D60E75141700BE82725371B4873751B2DD960265F788137FACE6DD40
310
B575E4F0A5C99F46629D92131467A41EE11ABD8D4CCC039CA0AFB37C93A08B232B8F0AEFCA1E0A1015DF13FC83322B362463652ECF71D3A8B1A7D1BE65DE1D62C44F22C317D35F574FEB16153BA2D13E543D10A80E74C4A65E78A6B7CBCBD1D5DD9DB59C2DAFACC96C3AB566E3F1C29ADCDD5DBAD7D3C9ED7C822ED74F80A6
310
41755310DE4443F44A9E68373FADF6596BFA0F440AE7BECE2727AE9F4F2B1B53B1E7E00CF0DD1E5C65454A339A4BA2D0FBA05ED2EF0443458F47BDBFCA484CCFE0F2ED7E3DD0013B679C7B5499467F0ECEEADDB9CA85A34CE44B99053949D2C1416DB85DE4B136BB7165FBAC0B7AB3542BED4F8CA182A549847A1319316519
310
95A83A67147B9E5101C47487F2485F1ECE38FD568F839204296D3479219888530154036E6528FBFBC66F98E0D4107563A2D7D9AFF8D389681A08F58D89F22693900A3B407754734FC51C10C010D6D640809EE4718AC1BA3ED4AEDB53CA37283F68805A7E4B72CEB0A4EDEAD5DD8C14059A76AFAA56BA6901E13F32BC51C720
310
12AF41295B5BF61BAD3195181FB506E6B40F4C10AF5AF40EF9F5B159AE5DD1F43C72D635E94310D45C2D49785C5D0B94D3B54AB3C5A38349C0587D338AB48C11CBF339599C02CCA54A70A008A8D03C0B2201D5F9EFCF8F9CE12A9A19CB0410789EB32C63B95ECCF455D658BFE0621A3DA32C5075FB101723D77DAE867E7D0F
310
D90444509B44E2151B4DC2290B065803200FBAA9BE9D392A0603F2D5C2D00D6302A615680F66D2FA166E2079D4C551A54AB758161FCEFD4E450A14704CECFEDF504B0304140006080000B670623B000000000000000000000000350000006662782F38353834323741342D343835462D343034322D383541392D4331303331
310
363839454531452F76657274696365732E62696E504B0304140006080800B670623BF270F1330600000004000000360000006662782F38353834323741342D343835462D343034322D383541392D4331303331363839454531452F747269616E676C65732E62696E636660600000504B0304140006080000B670623B000000
310
000000000000000000370000006662782F38353834323741342D343835462D343034322D383541392D4331303331363839454531452F617474726962757465732E62696E504B0304140006080800B670623B08DA0BD19000000041010000360000006662782F38353834323741342D343835462D343034322D383541392D43
310
31303331363839454531452F6469726563746F72792E786D6C858F410AC3201045AF22B36F53E9A60B35CBEEBAE80D244E44489C6234F4F835464A48035D0DF398FF9F8AF63D0E6CC63039F212F8F9020C7D47C6792B21C5FE7403D62A1188E2E60C98D7234A5830286103A55745067B9D86B8A3CF9C7F90C11DE607FB1443
310
96D7B6A82D282E9A152AD114D5EF2CB866EEE831B8EEA07A7BB5A8D7D61A2BAAEB7FD5F70921FF497D00504B0304140006080800B670623BD9A3B367FE000000A00100003B0000006662782F38353834323741342D343835462D343034322D383541392D4331303331363839454531452F7265736F75726365732F636F7265
310
2E786D6C8D504B6E833010BD0A9A6D65B01D0201194711694FD00B586642AD043BF2A7EAF16B122AB5BB6E6646EFA3797AE2F8B5DC8A4FF4C1383B002B291468B59B8C9D0748F1420E501CA5F0CEC55F3228AC5A708015062966EFD27D83B4B3116DCCA875136EA00A012314FA968F0182FEC045952AC5AC08D7F2AEF455CD
310
58B232D3592745883E07289E4FD609D26370C96B0CA27AB252A464A64D63A6FCD35C0C7A904D73EE467EE664DCD58CD4ED4849D79C5A723ED1B7A61977AF2D6F45B59AA58866F9C9A83DAA8813484E6947182394BFB3BAA7FBBEDEBFD0434FA9A856F91F53BA4FFF342563E38E6F719FB60092E5200F428A6AED2BAF479979
310
AFDDCA6F504B010214000A0000080000B670623B3DEE336E79000000790000001B00000000000000000000000000000000006175746F6465736B2D64657369676E2D7061636B6167652E786D6C504B01021400140006080800B670623BD486FD9CA0000000F40000001300000000000000000000000000B20000005B436F6E
310
74656E745F54797065735D2E786D6C504B01021400140006080800B670623BCA089DFFEC0000007C010000080000000000000000000000000083010000636F72652E786D6C504B01021400140006080800B670623B55019EA25F0000007C000000070000000000000000000000000095020000636E782E786D6C504B010214
310
00140006080800B670623B68FC0B7272010000D40300000C00000000000000000000000000190300006662782F636F72652E786D6C504B01021400140006080800B670623B0F71DDB67E0000009D0000000B00000000000000000000000000B50400006662782F636E782E786D6C504B01021400140006080800B670623BE1
310
34B4FB280100001202000031000000000000000000000000005C0500006662782F38353834323741342D343835462D343034322D383541392D4331303331363839454531452F636F72652E786D6C504B01021400140006080800B670623B1B8617914E010000330300003000000000000000000000000000D3060000666278
310
2F38353834323741342D343835462D343034322D383541392D4331303331363839454531452F636E782E786D6C504B01021400140006080800B670623B5933D422630500003B10000034000000000000000000000000006F0800006662782F38353834323741342D343835462D343034322D383541392D4331303331363839
310
454531452F6F626A656374732E786D6C504B01021400140006080000B670623B0000000000000000000000003500000000000000000000000000240E00006662782F38353834323741342D343835462D343034322D383541392D4331303331363839454531452F76657274696365732E62696E504B01021400140006080800
310
B670623BF270F13306000000040000003600000000000000000000000000770E00006662782F38353834323741342D343835462D343034322D383541392D4331303331363839454531452F747269616E676C65732E62696E504B01021400140006080000B670623B0000000000000000000000003700000000000000000000
310
000000D10E00006662782F38353834323741342D343835462D343034322D383541392D4331303331363839454531452F617474726962757465732E62696E504B01021400140006080800B670623B08DA0BD190000000410100003600000000000000000000000000260F00006662782F38353834323741342D343835462D34
310
3034322D383541392D4331303331363839454531452F6469726563746F72792E786D6C504B01021400140006080800B670623BD9A3B367FE000000A00100003B000000000000000000000000000A1000006662782F38353834323741342D343835462D343034322D383541392D4331303331363839454531452F7265736F75
310
726365732F636F72652E786D6C504B0506000000000E000E0080040000611100000000
  0
XRECORD
  5
113
102
{ACAD_REACTORS
330
110
102
}
330
110
100
AcDbXrecord
280
     1
270
     1
271
     1
  0
XRECORD
  5
114
102
{ACAD_REACTORS
330
110
102
}
330
110
100
AcDbXrecord
280
     1
270
     1
271
     1
  0
CELLSTYLEMAP
  5
F86BB
102
{ACAD_REACTORS
330
104
102
}
330
104
100
AcDbCellStyleMap
 90
        3
300
CELLSTYLE
  1
TABLEFORMAT_BEGIN
 90
        5
170
     1
 91
        0
 92
    32768
 62
   257
 93
        1
300
CONTENTFORMAT
  1
CONTENTFORMAT_BEGIN
 90
        0
 91
        0
 92
      512
 93
        0
300

 40
0.0
140
1.0
 94
        5
 62
     0
340
11
144
0.25
309
CONTENTFORMAT_END
171
     1
301
MARGIN
  1
CELLMARGIN_BEGIN
 40
0.06
 40
0.06
 40
0.06
 40
0.06
 40
0.18
 40
0.18
309
CELLMARGIN_END
 94
        6
 95
        1
302
GRIDFORMAT
  1
GRIDFORMAT_BEGIN
 90
        0
 91
        1
 62
     0
 92
       -2
340
0
 93
        0
 40
0.045
309
GRIDFORMAT_END
 95
        2
302
GRIDFORMAT
  1
GRIDFORMAT_BEGIN
 90
        0
 91
        1
 62
     0
 92
       -2
340
0
 93
        0
 40
0.045
309
GRIDFORMAT_END
 95
        4
302
GRIDFORMAT
  1
GRIDFORMAT_BEGIN
 90
        0
 91
        1
 62
     0
 92
       -2
340
0
 93
        0
 40
0.045
309
GRIDFORMAT_END
 95
        8
302
GRIDFORMAT
  1
GRIDFORMAT_BEGIN
 90
        0
 91
        1
 62
     0
 92
       -2
340
0
 93
        0
 40
0.045
309
GRIDFORMAT_END
 95
       16
302
GRIDFORMAT
  1
GRIDFORMAT_BEGIN
 90
        0
 91
        1
 62
     0
 92
       -2
340
0
 93
        0
 40
0.045
309
GRIDFORMAT_END
 95
       32
302
GRIDFORMAT
  1
GRIDFORMAT_BEGIN
 90
        0
 91
        1
 62
     0
 92
       -2
340
0
 93
        0
 40
0.045
309
GRIDFORMAT_END
309
TABLEFORMAT_END
  1
CELLSTYLE_BEGIN
 90
        1
 91
        1
300
_TITLE
309
CELLSTYLE_END
300
CELLSTYLE
  1
TABLEFORMAT_BEGIN
 90
        5
170
     1
 91
        0
 92
        0
 62
   257
 93
        1
300
CONTENTFORMAT
  1
CONTENTFORMAT_BEGIN
 90
        0
 91
        0
 92
      512
 93
        0
300

 40
0.0
140
1.0
 94
        5
 62
     0
340
11
144
0.18
309
CONTENTFORMAT_END
171
     1
301
MARGIN
  1
CELLMARGIN_BEGIN
 40
0.06
 40
0.06
 40
0.06
 40
0.06
 40
0.18
 40
0.18
309
CELLMARGIN_END
 94
        6
 95
        1
302
GRIDFORMAT
  1
GRIDFORMAT_BEGIN
 90
        0
 91
        1
 62
     0
 92
       -2
340
0
 93
        0
 40
0.045
309
GRIDFORMAT_END
 95
        2
302
GRIDFORMAT
  1
GRIDFORMAT_BEGIN
 90
        0
 91
        1
 62
     0
 92
       -2
340
0
 93
        0
 40
0.045
309
GRIDFORMAT_END
 95
        4
302
GRIDFORMAT
  1
GRIDFORMAT_BEGIN
 90
        0
 91
        1
 62
     0
 92
       -2
340
0
 93
        0
 40
0.045
309
GRIDFORMAT_END
 95
        8
302
GRIDFORMAT
  1
GRIDFORMAT_BEGIN
 90
        0
 91
        1
 62
     0
 92
       -2
340
0
 93
        0
 40
0.045
309
GRIDFORMAT_END
 95
       16
302
GRIDFORMAT
  1
GRIDFORMAT_BEGIN
 90
        0
 91
        1
 62
     0
 92
       -2
340
0
 93
        0
 40
0.045
309
GRIDFORMAT_END
 95
       32
302
GRIDFORMAT
  1
GRIDFORMAT_BEGIN
 90
        0
 91
        1
 62
     0
 92
       -2
340
0
 93
        0
 40
0.045
309
GRIDFORMAT_END
309
TABLEFORMAT_END
  1
CELLSTYLE_BEGIN
 90
        2
 91
        1
300
_HEADER
309
CELLSTYLE_END
300
CELLSTYLE
  1
TABLEFORMAT_BEGIN
 90
        5
170
     1
 91
        0
 92
        0
 62
   257
 93
        1
300
CONTENTFORMAT
  1
CONTENTFORMAT_BEGIN
 90
        0
 91
        0
 92
      512
 93
        0
300

 40
0.0
140
1.0
 94
        2
 62
     0
340
11
144
0.18
309
CONTENTFORMAT_END
171
     1
301
MARGIN
  1
CELLMARGIN_BEGIN
 40
0.06
 40
0.06
 40
0.06
 40
0.06
 40
0.18
 40
0.18
309
CELLMARGIN_END
 94
        6
 95
        1
302
GRIDFORMAT
  1
GRIDFORMAT_BEGIN
 90
        0
 91
        1
 62
     0
 92
       -2
340
0
 93
        0
 40
0.045
309
GRIDFORMAT_END
 95
        2
302
GRIDFORMAT
  1
GRIDFORMAT_BEGIN
 90
        0
 91
        1
 62
     0
 92
       -2
340
0
 93
        0
 40
0.045
309
GRIDFORMAT_END
 95
        4
302
GRIDFORMAT
  1
GRIDFORMAT_BEGIN
 90
        0
 91
        1
 62
     0
 92
       -2
340
0
 93
        0
 40
0.045
309
GRIDFORMAT_END
 95
        8
302
GRIDFORMAT
  1
GRIDFORMAT_BEGIN
 90
        0
 91
        1
 62
     0
 92
       -2
340
0
 93
        0
 40
0.045
309
GRIDFORMAT_END
 95
       16
302
GRIDFORMAT
  1
GRIDFORMAT_BEGIN
 90
        0
 91
        1
 62
     0
 92
       -2
340
0
 93
        0
 40
0.045
309
GRIDFORMAT_END
 95
       32
302
GRIDFORMAT
  1
GRIDFORMAT_BEGIN
 90
        0
 91
        1
 62
     0
 92
       -2
340
0
 93
        0
 40
0.045
309
GRIDFORMAT_END
309
TABLEFORMAT_END
  1
CELLSTYLE_BEGIN
 90
        3
 91
        2
300
_DATA
309
CELLSTYLE_END
  0
ENDSEC
  0
SECTION
  2
ACDSDATA
 70
     2
 71
     8
  0
ACDSSCHEMA
 90
        0
  1
AcDb_Thumbnail_Schema
  2
AcDbDs::ID
280
    10
 91
        8
  2
Thumbnail_Data
280
    15
 91
        0
101
ACDSRECORD
 95
        0
 90
        1
  2
AcDbDs::TreatedAsObjectData
280
     1
291
     1
101
ACDSRECORD
 95
        0
 90
        2
  2
AcDbDs::Legacy
280
     1
291
     1
101
ACDSRECORD
  1
AcDbDs::ID
 90
        3
  2
AcDs:Indexable
280
     1
291
     1
101
ACDSRECORD
  1
AcDbDs::ID
 90
        4
  2
AcDbDs::HandleAttribute
280
     7
282
     1
  0
ACDSSCHEMA
 90
        1
  1
AcDbDs::TreatedAsObjectDataSchema
  2
AcDbDs::TreatedAsObjectData
280
     1
 91
        0
  0
ACDSSCHEMA
 90
        2
  1
AcDbDs::LegacySchema
  2
AcDbDs::Legacy
280
     1
 91
        0
  0
ACDSSCHEMA
 90
        3
  1
AcDbDs::IndexedPropertySchema
  2
AcDs:Indexable
280
     1
 91
        0
  0
ACDSSCHEMA
 90
        4
  1
AcDbDs::HandleAttributeSchema
  2
AcDbDs::HandleAttribute
280
     7
 91
        1
284
     1
  0
ACDSSCHEMA
 90
        5
  1
AcDb3DSolid_ASM_Data
  2
AcDbDs::ID
280
    10
 91
        8
  2
ASM_Data
280
    15
 91
        0
101
ACDSRECORD
 95
        5
 90
        1
  2
AcDbDs::TreatedAsObjectData
280
     1
291
     1
101
ACDSRECORD
 95
        5
 90
        2
  2
AcDbDs::Legacy
280
     1
291
     1
101
ACDSRECORD
  1
AcDbDs::ID
 90
        3
  2
AcDs:Indexable
280
     1
291
     1
101
ACDSRECORD
  1
AcDbDs::ID
 90
        4
  2
AcDbDs::HandleAttribute
280
     7
282
     1
  0
ACDSRECORD
 90
        0
  2
AcDbDs::ID
280
    10
320
22
  2
Thumbnail_Data
280
    15
 94
     1666
310
89504E470D0A1A0A0000000D49484452000001000000006C0803000000B2ED9CC100000300504C5445212830FFFFFF2128300000000000000000000000000000000000000000000000000000330000660000990000CC0000FF0033000033330033660033990033CC0033FF0066000066330066660066990066CC0066FF0099
310
000099330099660099990099CC0099FF00CC0000CC3300CC6600CC9900CCCC00CCFF00FF0000FF3300FF6600FF9900FFCC00FFFF3300003300333300663300993300CC3300FF3333003333333333663333993333CC3333FF3366003366333366663366993366CC3366FF3399003399333399663399993399CC3399FF33CC00
310
33CC3333CC6633CC9933CCCC33CCFF33FF0033FF3333FF6633FF9933FFCC33FFFF6600006600336600666600996600CC6600FF6633006633336633666633996633CC6633FF6666006666336666666666996666CC6666FF6699006699336699666699996699CC6699FF66CC0066CC3366CC6666CC9966CCCC66CCFF66FF0066
310
FF3366FF6666FF9966FFCC66FFFF9900009900339900669900999900CC9900FF9933009933339933669933999933CC9933FF9966009966339966669966999966CC9966FF9999009999339999669999999999CC9999FF99CC0099CC3399CC6699CC9999CCCC99CCFF99FF0099FF3399FF6699FF9999FFCC99FFFFCC0000CC00
310
33CC0066CC0099CC00CCCC00FFCC3300CC3333CC3366CC3399CC33CCCC33FFCC6600CC6633CC6666CC6699CC66CCCC66FFCC9900CC9933CC9966CC9999CC99CCCC99FFCCCC00CCCC33CCCC66CCCC99CCCCCCCCCCFFCCFF00CCFF33CCFF66CCFF99CCFFCCCCFFFFFF0000FF0033FF0066FF0099FF00CCFF00FFFF3300FF3333
310
FF3366FF3399FF33CCFF33FFFF6600FF6633FF6666FF6699FF66CCFF66FFFF9900FF9933FF9966FF9999FF99CCFF99FFFFCC00FFCC33FFCC66FFCC99FFCCCCFFCCFFFFFF00FFFF33FFFF66FFFF99FFFFCCFFFFFF0000000D0D0D1A1A1A2828283535354343435050505D5D5D6B6B6B787878868686939393A1A1A1AEAEAEBB
310
BBBBC9C9C9D6D6D6E4E4E4F1F1F1FFFFFF0000000000000000000000000000000000000000000000000000000000002E4550F1000001634944415478DAED9BCB72C2301004F7FFFF77EE297044EC5816962E2133DD557040EC615BD25A0FA802000000000000000000804F43F2C842F3110D8FFC67F390D30858E848598D80
310
4712D302DACB640AD4FC14D056396C04AC960D93A7C08280168200042020514021000108400002C205F89C07AC0B28135605140210902D20BD06B4F7D875809C044CF37D969A2DC0A6126E53E094CB28B96788998053215085093876F938B526C0EC31B84B5A3742FC04B48BE2F723DB56C0D6F5BA17622AE0E7D66BB0E537
310
16703481808B9BD30C01BBB28880500117FB80B422D8DB0AA508B80890CAE7507CD4931A9E08D99C896994E8E808A122050C56072102DE8420C04A40A70501084040928073539A80F369F96B2F902AA0967E60FE7F05FC6E8C9B0217AB2104244D01E9CE67CE35205A40F7BF417102E247C07125142540DD6F070B50190AD0
310
FDDDE0EEBAC428FD4136FD7B212B0100000000000000000000F0F77C015593AD5B220BCA400000000049454E44AE4260829E009C02AB882400670008AA1A09C01F803DB482842B007804B0C60D91CF2F9E2F7FB1C23DC1579225015C3F890CE05202B8F9242E001C5FF3827301006B5440D9FC87A325E680CBB4BF3A80E341
310
024800126BCED8DCCAFE0BC89323148B0004169DB1773E315BC236EF7D16429C74C0FC8810FAB822E4686C54F4D26BA9A9E2DD7790D975BD451A1FD53D220800A0797E05CB04E203000DE41FA502A8BD05F61574D1160836078CE58FF12DE253CECF072C2F70EA6F011040B1F60060AF8009C658FE140940F746886607B0F5
310
F2D84660BD1618B88A08D2027100640B8C5D0B2DBC0AC45A06BBF6C2581840B855A0358D18E98F251203406F1A612A80B202BAD38891FF580B500000D49D4988F37FAC813E72214627000A3582A5C338FE00598ED82311F33F3A0000000049454E44AE4260820F467818FD4AC64A010000000049454E44AE42608200187F52
310
539FF6AC0FF2D01229B97F7B56AE64E8787DBF9E93B283504D4929EEDB336DE133B927D0B706F146D8FDD54728002424931276690CDE5FFA471401522320E6FA719CDCC9E90D234F422DA512220CD4066298BF969A4028B717C4D481E25C1BC6C59A99842240E2F24B1F92F8AC20F021F00EFE737AFD0FDF7E00E9E9886BC5
310
1247A50000000049454E44AE426082
  0
ENDSEC
  0
EOF
