  0
SECTION
  2
HEADER
  9
$ACADVER
  1
AC1032
  9
$ACADMAINTVER
 90
      197
  9
$DWGCODEPAGE
  3
ANSI_1252
  9
$LASTSAVEDBY
  1
gregb
  9
$REQUIREDVERSIONS
160
                 0
  9
$INSBASE
 10
0.0
 20
0.0
 30
0.0
  9
$EXTMIN
 10
2.858346075994028
 20
3.359853583018808
 30
0.0
  9
$EXTMAX
 10
325.427346245503
 20
162.7590712374585
 30
0.0
  9
$LIMMIN
 10
0.0
 20
0.0
  9
$LIMMAX
 10
12.0
 20
9.0
  9
$ORTHOMODE
 70
     0
  9
$REGENMODE
 70
     1
  9
$FILLMODE
 70
     1
  9
$QTEXTMODE
 70
     0
  9
$MIRRTEXT
 70
     0
  9
$LTSCALE
 40
1.0
  9
$ATTMODE
 70
     1
  9
$TEXTSIZE
 40
0.2
  9
$TRACEWID
 40
0.05
  9
$TEXTSTYLE
  7
Standard
  9
$CLAYER
  8
freecads.com
  9
$CELTYPE
  6
ByLayer
  9
$CECOLOR
 62
   256
  9
$CELTSCALE
 40
1.0
  9
$DISPSILH
 70
     1
  9
$DIMSCALE
 40
1.0
  9
$DIMASZ
 40
0.18
  9
$DIMEXO
 40
0.0625
  9
$DIMDLI
 40
0.38
  9
$DIMRND
 40
0.0
  9
$DIMDLE
 40
0.0
  9
$DIMEXE
 40
0.18
  9
$DIMTP
 40
0.0
  9
$DIMTM
 40
0.0
  9
$DIMTXT
 40
0.18
  9
$DIMCEN
 40
0.09
  9
$DIMTSZ
 40
0.0
  9
$DIMTOL
 70
     0
  9
$DIMLIM
 70
     0
  9
$DIMTIH
 70
     1
  9
$DIMTOH
 70
     1
  9
$DIMSE1
 70
     0
  9
$DIMSE2
 70
     0
  9
$DIMTAD
 70
     0
  9
$DIMZIN
 70
     0
  9
$DIMBLK
  1

  9
$DIMASO
 70
     1
  9
$DIMSHO
 70
     1
  9
$DIMPOST
  1

  9
$DIMAPOST
  1

  9
$DIMALT
 70
     0
  9
$DIMALTD
 70
     2
  9
$DIMALTF
 40
25.4
  9
$DIMLFAC
 40
1.0
  9
$DIMTOFL
 70
     0
  9
$DIMTVP
 40
0.0
  9
$DIMTIX
 70
     0
  9
$DIMSOXD
 70
     0
  9
$DIMSAH
 70
     0
  9
$DIMBLK1
  1

  9
$DIMBLK2
  1

  9
$DIMSTYLE
  2
Standard
  9
$DIMCLRD
 70
     0
  9
$DIMCLRE
 70
     0
  9
$DIMCLRT
 70
     0
  9
$DIMTFAC
 40
1.0
  9
$DIMGAP
 40
0.09
  9
$DIMJUST
 70
     0
  9
$DIMSD1
 70
     0
  9
$DIMSD2
 70
     0
  9
$DIMTOLJ
 70
     1
  9
$DIMTZIN
 70
     0
  9
$DIMALTZ
 70
     0
  9
$DIMALTTZ
 70
     0
  9
$DIMUPT
 70
     0
  9
$DIMDEC
 70
     4
  9
$DIMTDEC
 70
     4
  9
$DIMALTU
 70
     2
  9
$DIMALTTD
 70
     2
  9
$DIMTXSTY
  7
Standard
  9
$DIMAUNIT
 70
     0
  9
$DIMADEC
 70
     0
  9
$DIMALTRND
 40
0.0
  9
$DIMAZIN
 70
     0
  9
$DIMDSEP
 70
    46
  9
$DIMATFIT
 70
     3
  9
$DIMFRAC
 70
     0
  9
$DIMLDRBLK
  1

  9
$DIMLUNIT
 70
     2
  9
$DIMLWD
 70
    -2
  9
$DIMLWE
 70
    -2
  9
$DIMTMOVE
 70
     0
  9
$DIMFXL
 40
1.0
  9
$DIMFXLON
 70
     0
  9
$DIMJOGANG
 40
0.7853981633974483
  9
$DIMTFILL
 70
     0
  9
$DIMTFILLCLR
 70
     0
  9
$DIMARCSYM
 70
     0
  9
$DIMLTYPE
  6

  9
$DIMLTEX1
  6

  9
$DIMLTEX2
  6

  9
$DIMTXTDIRECTION
 70
     0
  9
$LUNITS
 70
     2
  9
$LUPREC
 70
     4
  9
$SKETCHINC
 40
0.1
  9
$FILLETRAD
 40
0.0
  9
$AUNITS
 70
     0
  9
$AUPREC
 70
     0
  9
$MENU
  1
.
  9
$ELEVATION
 40
0.0
  9
$PELEVATION
 40
0.0
  9
$THICKNESS
 40
0.0
  9
$LIMCHECK
 70
     0
  9
$CHAMFERA
 40
0.0
  9
$CHAMFERB
 40
0.0
  9
$CHAMFERC
 40
0.0
  9
$CHAMFERD
 40
0.0
  9
$SKPOLY
 70
     0
  9
$TDCREATE
 40
2458157.371250000
  9
$TDUCREATE
 40
2458157.287916667
  9
$TDUPDATE
 40
2461017.963518519
  9
$TDUUPDATE
 40
2461017.880185185
  9
$TDINDWG
 40
0.1450462963
  9
$TDUSRTIMER
 40
0.1450462963
  9
$USRTIMER
 70
     1
  9
$ANGBASE
 50
0.0
  9
$ANGDIR
 70
     0
  9
$PDMODE
 70
     0
  9
$PDSIZE
 40
0.0
  9
$PLINEWID
 40
0.0
  9
$SPLFRAME
 70
     0
  9
$SPLINETYPE
 70
     6
  9
$SPLINESEGS
 70
     8
  9
$HANDSEED
  5
E373
  9
$SURFTAB1
 70
     6
  9
$SURFTAB2
 70
     6
  9
$SURFTYPE
 70
     6
  9
$SURFU
 70
     6
  9
$SURFV
 70
     6
  9
$UCSBASE
  2

  9
$UCSNAME
  2

  9
$UCSORG
 10
0.0
 20
0.0
 30
0.0
  9
$UCSXDIR
 10
1.0
 20
0.0
 30
0.0
  9
$UCSYDIR
 10
0.0
 20
1.0
 30
0.0
  9
$UCSORTHOREF
  2

  9
$UCSORTHOVIEW
 70
     0
  9
$UCSORGTOP
 10
0.0
 20
0.0
 30
0.0
  9
$UCSORGBOTTOM
 10
0.0
 20
0.0
 30
0.0
  9
$UCSORGLEFT
 10
0.0
 20
0.0
 30
0.0
  9
$UCSORGRIGHT
 10
0.0
 20
0.0
 30
0.0
  9
$UCSORGFRONT
 10
0.0
 20
0.0
 30
0.0
  9
$UCSORGBACK
 10
0.0
 20
0.0
 30
0.0
  9
$PUCSBASE
  2

  9
$PUCSNAME
  2

  9
$PUCSORG
 10
0.0
 20
0.0
 30
0.0
  9
$PUCSXDIR
 10
1.0
 20
0.0
 30
0.0
  9
$PUCSYDIR
 10
0.0
 20
1.0
 30
0.0
  9
$PUCSORTHOREF
  2

  9
$PUCSORTHOVIEW
 70
     0
  9
$PUCSORGTOP
 10
0.0
 20
0.0
 30
0.0
  9
$PUCSORGBOTTOM
 10
0.0
 20
0.0
 30
0.0
  9
$PUCSORGLEFT
 10
0.0
 20
0.0
 30
0.0
  9
$PUCSORGRIGHT
 10
0.0
 20
0.0
 30
0.0
  9
$PUCSORGFRONT
 10
0.0
 20
0.0
 30
0.0
  9
$PUCSORGBACK
 10
0.0
 20
0.0
 30
0.0
  9
$USERI1
 70
     0
  9
$USERI2
 70
     0
  9
$USERI3
 70
     0
  9
$USERI4
 70
     0
  9
$USERI5
 70
     0
  9
$USERR1
 40
0.0
  9
$USERR2
 40
0.0
  9
$USERR3
 40
0.0
  9
$USERR4
 40
0.0
  9
$USERR5
 40
0.0
  9
$WORLDVIEW
 70
     1
  9
$SHADEDGE
 70
     3
  9
$SHADEDIF
 70
    70
  9
$TILEMODE
 70
     1
  9
$MAXACTVP
 70
    64
  9
$PINSBASE
 10
0.0
 20
0.0
 30
0.0
  9
$PLIMCHECK
 70
     0
  9
$PEXTMIN
 10
0.0
 20
0.0
 30
0.0
  9
$PEXTMAX
 10
0.0
 20
0.0
 30
0.0
  9
$PLIMMIN
 10
0.0
 20
0.0
  9
$PLIMMAX
 10
12.0
 20
9.0
  9
$UNITMODE
 70
     0
  9
$VISRETAIN
 70
     1
  9
$PLINEGEN
 70
     0
  9
$PSLTSCALE
 70
     1
  9
$TREEDEPTH
 70
  3020
  9
$CMLSTYLE
  2
Standard
  9
$CMLJUST
 70
     0
  9
$CMLSCALE
 40
1.0
  9
$PROXYGRAPHICS
 70
     1
  9
$MEASUREMENT
 70
     0
  9
$CELWEIGHT
370
    -1
  9
$ENDCAPS
280
     0
  9
$JOINSTYLE
280
     0
  9
$LWDISPLAY
290
     0
  9
$INSUNITS
 70
     1
  9
$HYPERLINKBASE
  1

  9
$STYLESHEET
  1
monochrome.ctb
  9
$XEDIT
290
     1
  9
$CEPSNTYPE
380
     0
  9
$PSTYLEMODE
290
     1
  9
$FINGERPRINTGUID
  2
{358EB121-6EE0-9143-8A3E-6E8E8869FDA6}
  9
$VERSIONGUID
  2
{CC3706FE-9E52-F54F-9981-867CBC74D88E}
  9
$EXTNAMES
290
     1
  9
$PSVPSCALE
 40
0.0
  9
$OLESTARTUP
290
     0
  9
$SORTENTS
280
   127
  9
$INDEXCTL
280
     0
  9
$HIDETEXT
280
     1
  9
$XCLIPFRAME
280
     2
  9
$HALOGAP
280
     0
  9
$OBSCOLOR
 70
   257
  9
$OBSLTYPE
280
     0
  9
$INTERSECTIONDISPLAY
280
     0
  9
$INTERSECTIONCOLOR
 70
   257
  9
$DIMASSOC
280
     2
  9
$PROJECTNAME
  1

  9
$CAMERADISPLAY
290
     0
  9
$LENSLENGTH
 40
50.0
  9
$CAMERAHEIGHT
 40
0.0
  9
$STEPSPERSEC
 40
2.0
  9
$STEPSIZE
 40
6.0
  9
$3DDWFPREC
 40
2.0
  9
$PSOLWIDTH
 40
0.25
  9
$PSOLHEIGHT
 40
4.0
  9
$LOFTANG1
 40
1.570796326794896
  9
$LOFTANG2
 40
1.570796326794896
  9
$LOFTMAG1
 40
0.0
  9
$LOFTMAG2
 40
0.0
  9
$LOFTPARAM
 70
     7
  9
$LOFTNORMALS
280
     1
  9
$LATITUDE
 40
37.795
  9
$LONGITUDE
 40
-122.394
  9
$NORTHDIRECTION
 40
0.0
  9
$TIMEZONE
 70
 -8000
  9
$LIGHTGLYPHDISPLAY
280
     1
  9
$TILEMODELIGHTSYNCH
280
     1
  9
$CMATERIAL
347
96
  9
$SOLIDHIST
280
     0
  9
$SHOWHIST
280
     1
  9
$DWFFRAME
280
     2
  9
$DGNFRAME
280
     0
  9
$REALWORLDSCALE
290
     1
  9
$INTERFERECOLOR
 62
     1
  9
$INTERFEREOBJVS
345
A3
  9
$INTERFEREVPVS
346
A0
  9
$CSHADOW
280
     0
  9
$SHADOWPLANELOCATION
 40
0.0
  0
ENDSEC
  0
SECTION
  2
CLASSES
  0
CLASS
  1
ACDBDICTIONARYWDFLT
  2
AcDbDictionaryWithDefault
  3
ObjectDBX Classes
 90
        0
 91
        1
280
     0
281
     0
  0
CLASS
  1
DICTIONARYVAR
  2
AcDbDictionaryVar
  3
ObjectDBX Classes
 90
        0
 91
        9
280
     0
281
     0
  0
CLASS
  1
TABLESTYLE
  2
AcDbTableStyle
  3
ObjectDBX Classes
 90
     4095
 91
        1
280
     0
281
     0
  0
CLASS
  1
MATERIAL
  2
AcDbMaterial
  3
ObjectDBX Classes
 90
     1153
 91
        3
280
     0
281
     0
  0
CLASS
  1
VISUALSTYLE
  2
AcDbVisualStyle
  3
ObjectDBX Classes
 90
     4095
 91
       25
280
     0
281
     0
  0
CLASS
  1
SCALE
  2
AcDbScale
  3
ObjectDBX Classes
 90
     1153
 91
       35
280
     0
281
     0
  0
CLASS
  1
MLEADERSTYLE
  2
AcDbMLeaderStyle
  3
ACDB_MLEADERSTYLE_CLASS
 90
     4095
 91
        1
280
     0
281
     0
  0
CLASS
  1
CELLSTYLEMAP
  2
AcDbCellStyleMap
  3
ObjectDBX Classes
 90
     1152
 91
        1
280
     0
281
     0
  0
CLASS
  1
EXACXREFPANELOBJECT
  2
ExAcXREFPanelObject
  3
EXAC_ESW
 90
     1025
 91
        0
280
     0
281
     0
  0
CLASS
  1
NPOCOLLECTION
  2
AcDbImpNonPersistentObjectsCollection
  3
ObjectDBX Classes
 90
     1153
 91
        0
280
     0
281
     0
  0
CLASS
  1
LAYER_INDEX
  2
AcDbLayerIndex
  3
ObjectDBX Classes
 90
        0
 91
        0
280
     0
281
     0
  0
CLASS
  1
SPATIAL_INDEX
  2
AcDbSpatialIndex
  3
ObjectDBX Classes
 90
        0
 91
        0
280
     0
281
     0
  0
CLASS
  1
IDBUFFER
  2
AcDbIdBuffer
  3
ObjectDBX Classes
 90
        0
 91
        0
280
     0
281
     0
  0
CLASS
  1
ACDBSECTIONVIEWSTYLE
  2
AcDbSectionViewStyle
  3
ObjectDBX Classes
 90
     1025
 91
        2
280
     0
281
     0
  0
CLASS
  1
ACDBDETAILVIEWSTYLE
  2
AcDbDetailViewStyle
  3
ObjectDBX Classes
 90
     1025
 91
        2
280
     0
281
     0
  0
CLASS
  1
SORTENTSTABLE
  2
AcDbSortentsTable
  3
ObjectDBX Classes
 90
        0
 91
        1
280
     0
281
     0
  0
CLASS
  1
SPATIAL_FILTER
  2
AcDbSpatialFilter
  3
ObjectDBX Classes
 90
        0
 91
        0
280
     0
281
     0
  0
CLASS
  1
SOLID_BACKGROUND
  2
AcDbSolidBackground
  3
SCENEOE
 90
     4095
 91
        0
280
     0
281
     0
  0
CLASS
  1
RASTERVARIABLES
  2
AcDbRasterVariables
  3
ISM
 90
        0
 91
        1
280
     0
281
     0
  0
CLASS
  1
IMAGEDEF
  2
AcDbRasterImageDef
  3
ISM
 90
        0
 91
        0
280
     0
281
     0
  0
CLASS
  1
IMAGEDEF_REACTOR
  2
AcDbRasterImageDefReactor
  3
ISM
 90
        1
 91
        0
280
     0
281
     0
  0
CLASS
  1
IMAGE
  2
AcDbRasterImage
  3
ISM
 90
     2175
 91
        0
280
     0
281
     1
  0
ENDSEC
  0
SECTION
  2
TABLES
  0
TABLE
  2
VPORT
  5
8
330
0
100
AcDbSymbolTable
 70
     1
  0
VPORT
  5
94
330
8
100
AcDbSymbolTableRecord
100
AcDbViewportTableRecord
  2
*Active
 70
     0
 10
0.0
 20
0.0
 11
1.0
 21
1.0
 12
164.1428461607485
 22
113.2508754871098
 13
0.0
 23
0.0
 14
0.5
 24
0.5
 15
0.5
 25
0.5
 16
0.0
 26
0.0
 36
1.0
 17
0.0
 27
0.0
 37
0.0
 40
221.1882085276772
 41
2.114740368509212
 42
50.0
 43
0.0
 44
0.0
 50
0.0
 51
0.0
 71
     0
 72
  1000
 73
     1
 74
     3
 75
     0
 76
     0
 77
     0
 78
     0
281
     0
 65
     1
110
0.0
120
0.0
130
0.0
111
1.0
121
0.0
131
0.0
112
0.0
122
1.0
132
0.0
 79
     0
146
0.0
348
9F
 60
     3
 61
     5
292
     1
282
     1
141
0.0
142
0.0
 63
   250
421
  3355443
1001
ACAD_NAV_VCDISPLAY
1070
     3
  0
ENDTAB
  0
TABLE
  2
LTYPE
  5
5
330
0
100
AcDbSymbolTable
 70
     1
  0
LTYPE
  5
14
330
5
100
AcDbSymbolTableRecord
100
AcDbLinetypeTableRecord
  2
ByBlock
 70
     0
  3

 72
    65
 73
     0
 40
0.0
  0
LTYPE
  5
15
330
5
100
AcDbSymbolTableRecord
100
AcDbLinetypeTableRecord
  2
ByLayer
 70
     0
  3

 72
    65
 73
     0
 40
0.0
  0
LTYPE
  5
16
330
5
100
AcDbSymbolTableRecord
100
AcDbLinetypeTableRecord
  2
Continuous
 70
     0
  3
Solid line
 72
    65
 73
     0
 40
0.0
  0
ENDTAB
  0
TABLE
  2
LAYER
  5
2
102
{ACAD_XDICTIONARY
360
18E
102
}
330
0
100
AcDbSymbolTable
 70
     2
  0
LAYER
  5
10
102
{ACAD_XDICTIONARY
360
E6
102
}
330
2
100
AcDbSymbolTableRecord
100
AcDbLayerTableRecord
  2
0
 70
     0
 62
     7
  6
Continuous
370
    -3
390
F
347
98
348
0
  0
LAYER
  5
204
330
2
100
AcDbSymbolTableRecord
100
AcDbLayerTableRecord
  2
freecads.com
 70
     0
 62
     7
  6
Continuous
370
    -3
390
F
347
98
348
0
1001
AcAecLayerStandard
1000

1000

1001
AcCmTransparency
1071
        0
  0
ENDTAB
  0
TABLE
  2
STYLE
  5
3
330
0
100
AcDbSymbolTable
 70
     1
  0
STYLE
  5
11
330
3
100
AcDbSymbolTableRecord
100
AcDbTextStyleTableRecord
  2
Standard
 70
     0
 40
0.0
 41
1.0
 50
0.0
 71
     0
 42
0.2
  3
arial.ttf
  4

1001
ACAD
1000
Arial
1071
       34
  0
ENDTAB
  0
TABLE
  2
VIEW
  5
6
330
0
100
AcDbSymbolTable
 70
     0
  0
ENDTAB
  0
TABLE
  2
UCS
  5
7
330
0
100
AcDbSymbolTable
 70
     0
  0
ENDTAB
  0
TABLE
  2
APPID
  5
9
330
0
100
AcDbSymbolTable
 70
    25
  0
APPID
  5
12
330
9
100
AcDbSymbolTableRecord
100
AcDbRegAppTableRecord
  2
ACAD
 70
     0
  0
APPID
  5
DD
330
9
100
AcDbSymbolTableRecord
100
AcDbRegAppTableRecord
  2
AcadAnnoPO
 70
     0
  0
APPID
  5
DE
330
9
100
AcDbSymbolTableRecord
100
AcDbRegAppTableRecord
  2
AcadAnnotative
 70
     0
  0
APPID
  5
DF
330
9
100
AcDbSymbolTableRecord
100
AcDbRegAppTableRecord
  2
ACAD_DSTYLE_DIMJAG
 70
     0
  0
APPID
  5
E0
330
9
100
AcDbSymbolTableRecord
100
AcDbRegAppTableRecord
  2
ACAD_DSTYLE_DIMTALN
 70
     0
  0
APPID
  5
107
330
9
100
AcDbSymbolTableRecord
100
AcDbRegAppTableRecord
  2
ACAD_MLEADERVER
 70
     0
  0
APPID
  5
1A6
330
9
100
AcDbSymbolTableRecord
100
AcDbRegAppTableRecord
  2
ACAD_NAV_VCDISPLAY
 70
     0
  0
APPID
  5
205
330
9
100
AcDbSymbolTableRecord
100
AcDbRegAppTableRecord
  2
AcAecLayerStandard
 70
     0
  0
APPID
  5
206
330
9
100
AcDbSymbolTableRecord
100
AcDbRegAppTableRecord
  2
AcCmTransparency
 70
     0
  0
APPID
  5
222
330
9
100
AcDbSymbolTableRecord
100
AcDbRegAppTableRecord
  2
ACAD_PSEXT
 70
     0
  0
APPID
  5
2DA
330
9
100
AcDbSymbolTableRecord
100
AcDbRegAppTableRecord
  2
GradientColor1ACI
 70
     0
  0
APPID
  5
2DB
330
9
100
AcDbSymbolTableRecord
100
AcDbRegAppTableRecord
  2
GradientColor2ACI
 70
     0
  0
APPID
  5
2F3
330
9
100
AcDbSymbolTableRecord
100
AcDbRegAppTableRecord
  2
ACAD_EXEMPT_FROM_CAD_STANDARDS
 70
     0
  0
APPID
  5
A1A
330
9
100
AcDbSymbolTableRecord
100
AcDbRegAppTableRecord
  2
AcDbBlockRepETag
 70
     0
  0
APPID
  5
228C
330
9
100
AcDbSymbolTableRecord
100
AcDbRegAppTableRecord
  2
RAK
 70
     0
  0
APPID
  5
2683
330
9
100
AcDbSymbolTableRecord
100
AcDbRegAppTableRecord
  2
ACAD_DSTYLE_DIMJOGGED_JOGANGLE_SYMBOL
 70
     0
  0
APPID
  5
47CF
330
9
100
AcDbSymbolTableRecord
100
AcDbRegAppTableRecord
  2
ACAD_DSTYLE_DIMBREAK
 70
     0
  0
APPID
  5
47D0
330
9
100
AcDbSymbolTableRecord
100
AcDbRegAppTableRecord
  2
AcDbDynamicBlockGUID
 70
     0
  0
APPID
  5
8BD5
330
9
100
AcDbSymbolTableRecord
100
AcDbRegAppTableRecord
  2
AcLayerTools
 70
     0
  0
APPID
  5
92D9
330
9
100
AcDbSymbolTableRecord
100
AcDbRegAppTableRecord
  2
AutoGrph01
 70
     0
  0
APPID
  5
92DA
330
9
100
AcDbSymbolTableRecord
100
AcDbRegAppTableRecord
  2
AutoGrphVars
 70
     0
  0
APPID
  5
92DB
330
9
100
AcDbSymbolTableRecord
100
AcDbRegAppTableRecord
  2
AutoGrphZ
 70
     0
  0
APPID
  5
92DC
330
9
100
AcDbSymbolTableRecord
100
AcDbRegAppTableRecord
  2
AutoGrph05
 70
     0
  0
APPID
  5
AD30
330
9
100
AcDbSymbolTableRecord
100
AcDbRegAppTableRecord
  2
AEC_XDATA_BOUND_SPACE
 70
     0
  0
APPID
  5
C1FD
330
9
100
AcDbSymbolTableRecord
100
AcDbRegAppTableRecord
  2
AcDbBlockArrayActionTag
 70
     0
  0
ENDTAB
  0
TABLE
  2
DIMSTYLE
  5
A
330
0
100
AcDbSymbolTable
 70
     1
100
AcDbDimStyleTable
 71
     1
340
27
  0
DIMSTYLE
105
27
330
A
100
AcDbSymbolTableRecord
100
AcDbDimStyleTableRecord
  2
Standard
 70
     0
340
11
  0
ENDTAB
  0
TABLE
  2
BLOCK_RECORD
  5
1
330
0
100
AcDbSymbolTable
 70
     2
  0
BLOCK_RECORD
  5
1F
102
{ACAD_XDICTIONARY
360
15D
102
}
330
1
100
AcDbSymbolTableRecord
100
AcDbBlockTableRecord
  2
*Model_Space
340
22
 70
     0
280
     1
281
     0
  0
BLOCK_RECORD
  5
58
330
1
100
AcDbSymbolTableRecord
100
AcDbBlockTableRecord
  2
*Paper_Space
340
59
 70
     0
280
     1
281
     0
  0
BLOCK_RECORD
  5
5D
330
1
100
AcDbSymbolTableRecord
100
AcDbBlockTableRecord
  2
*Paper_Space0
340
5E
 70
     0
280
     1
281
     0
  0
BLOCK_RECORD
  5
DF71
330
1
100
AcDbSymbolTableRecord
100
AcDbBlockTableRecord
  2
_Small
340
0
 70
     0
280
     1
281
     0
  0
ENDTAB
  0
ENDSEC
  0
SECTION
  2
BLOCKS
  0
BLOCK
  5
20
330
1F
100
AcDbEntity
  8
0
100
AcDbBlockBegin
  2
*Model_Space
 70
     0
 10
0.0
 20
0.0
 30
0.0
  3
*Model_Space
  1

  0
ENDBLK
  5
21
330
1F
100
AcDbEntity
  8
0
100
AcDbBlockEnd
  0
BLOCK
  5
5A
330
58
100
AcDbEntity
 67
     1
  8
0
100
AcDbBlockBegin
  2
*Paper_Space
 70
     0
 10
0.0
 20
0.0
 30
0.0
  3
*Paper_Space
  1

  0
ENDBLK
  5
5B
330
58
100
AcDbEntity
 67
     1
  8
0
100
AcDbBlockEnd
  0
BLOCK
  5
5F
330
5D
100
AcDbEntity
 67
     1
  8
0
100
AcDbBlockBegin
  2
*Paper_Space0
 70
     0
 10
0.0
 20
0.0
 30
0.0
  3
*Paper_Space0
  1

  0
ENDBLK
  5
60
330
5D
100
AcDbEntity
 67
     1
  8
0
100
AcDbBlockEnd
  0
BLOCK
  5
DF72
330
DF71
100
AcDbEntity
  8
0
100
AcDbBlockBegin
  2
_Small
 70
     0
 10
0.0
 20
0.0
 30
0.0
  3
_Small
  1

  0
CIRCLE
  5
DF73
330
DF71
100
AcDbEntity
  8
0
  6
ByBlock
 62
     0
370
    -2
100
AcDbCircle
 10
0.0
 20
0.0
 30
0.0
 40
0.25
  0
ENDBLK
  5
DF74
330
DF71
100
AcDbEntity
  8
0
100
AcDbBlockEnd
  0
ENDSEC
  0
SECTION
  2
ENTITIES
  0
ARC
  5
E14B
330
1F
100
AcDbEntity
  8
freecads.com
100
AcDbCircle
 10
168.3402799294018
 20
158.1965255125959
 30
0.0
 40
4.631209989285683
100
AcDbArc
 50
108.942802374629
 51
128.8687306493751
  0
ARC
  5
E14C
330
1F
100
AcDbEntity
  8
freecads.com
100
AcDbCircle
 10
167.5396519726601
 20
159.1898702042725
 30
0.0
 40
3.35538131678491
100
AcDbArc
 50
128.8688034021432
 51
154.2372424018415
  0
ARC
  5
E14D
330
1F
100
AcDbEntity
  8
freecads.com
100
AcDbCircle
 10
169.5211348985649
 20
158.2335715553725
 30
0.0
 40
5.555558966780218
100
AcDbArc
 50
154.2372346319544
 51
172.8412268644445
  0
ARC
  5
E14E
330
1F
100
AcDbEntity
  8
freecads.com
100
AcDbCircle
 10
185.9327127644683
 20
156.1722851888824
 30
0.0
 40
22.09607859384252
100
AcDbArc
 50
172.8411801242504
 51
179.5080693138578
  0
ARC
  5
E14F
330
1F
100
AcDbEntity
  8
freecads.com
100
AcDbCircle
 10
149.3101824062142
 20
156.486744992342
 30
0.0
 40
14.52780179600352
100
AcDbArc
 50
348.2040076766645
 51
359.5079983917508
  0
ARC
  5
E150
330
1F
100
AcDbEntity
  8
freecads.com
100
AcDbCircle
 10
149.0744157652989
 20
156.5359975238333
 30
0.0
 40
14.76865801992051
100
AcDbArc
 50
337.0385094925408
 51
348.203948719534
  0
ARC
  5
E151
330
1F
100
AcDbEntity
  8
freecads.com
100
AcDbCircle
 10
151.9784467248647
 20
155.3056115633534
 30
0.0
 40
11.61473262038096
100
AcDbArc
 50
324.8215745849305
 51
337.0385132532963
  0
ARC
  5
E152
330
1F
100
AcDbEntity
  8
freecads.com
100
AcDbCircle
 10
159.3051550752389
 20
150.14132008689
 30
0.0
 40
2.650885137000802
100
AcDbArc
 50
288.247501785083
 51
324.8215374923214
  0
ARC
  5
E153
330
1F
100
AcDbEntity
  8
freecads.com
100
AcDbCircle
 10
159.9453666720402
 20
148.1995365636411
 30
0.0
 40
0.6062839192001931
100
AcDbArc
 50
222.7570777000348
 51
288.2473861686241
  0
ARC
  5
E154
330
1F
100
AcDbEntity
  8
freecads.com
100
AcDbCircle
 10
171.966102386843
 20
159.3142126128531
 30
0.0
 40
16.978031254288
100
AcDbArc
 50
216.8692238309237
 51
222.7572466194881
  0
ARC
  5
E155
330
1F
100
AcDbEntity
  8
freecads.com
100
AcDbCircle
 10
175.1238840840561
 20
161.6825004607034
 30
0.0
 40
20.92522932095277
100
AcDbArc
 50
210.6608181906778
 51
216.8692448601023
  0
ARC
  5
E156
330
1F
100
AcDbEntity
  8
freecads.com
100
AcDbCircle
 10
190.8976295607536
 20
171.0336875462652
 30
0.0
 40
39.2625068253369
100
AcDbArc
 50
206.7845632760235
 51
210.6608260574478
  0
ARC
  5
E157
330
1F
100
AcDbEntity
  8
freecads.com
100
AcDbCircle
 10
93.60930622912206
 20
121.9227522442723
 30
0.0
 40
69.71869257583154
100
AcDbArc
 50
26.78453559337065
 51
30.76619162683794
  0
ARC
  5
E158
330
1F
100
AcDbEntity
  8
freecads.com
100
AcDbCircle
 10
147.7261649920511
 20
154.1396134452714
 30
0.0
 40
6.738056281720107
100
AcDbArc
 50
30.76616443641596
 51
52.89194790431093
  0
ARC
  5
E159
330
1F
100
AcDbEntity
  8
freecads.com
100
AcDbCircle
 10
150.2522206023096
 20
157.4786822456097
 30
0.0
 40
2.551131706388495
100
AcDbArc
 50
52.89194732413203
 51
94.83454755866022
  0
ARC
  5
E15A
330
1F
100
AcDbEntity
  8
freecads.com
100
AcDbCircle
 10
150.5091353815187
 20
154.4411402757194
 30
0.0
 40
5.599519218275448
100
AcDbArc
 50
94.83455471991058
 51
118.1549346096919
  0
ARC
  5
E15B
330
1F
100
AcDbEntity
  8
freecads.com
100
AcDbCircle
 10
149.260469231831
 20
156.7743032971865
 30
0.0
 40
2.953235628390073
100
AcDbArc
 50
118.1549884667385
 51
157.4504543188315
  0
ARC
  5
E15C
330
1F
100
AcDbEntity
  8
freecads.com
100
AcDbCircle
 10
149.0361373624292
 20
156.8674567130891
 30
0.0
 40
2.710331642207796
100
AcDbArc
 50
157.4505472694023
 51
199.3490490160998
  0
ARC
  5
E15D
330
1F
100
AcDbEntity
  8
freecads.com
100
AcDbCircle
 10
153.3753362333046
 20
158.3911984593813
 30
0.0
 40
7.309291932359087
100
AcDbArc
 50
199.3490820453837
 51
221.9191255936714
  0
ARC
  5
E15E
330
1F
100
AcDbEntity
  8
freecads.com
100
AcDbCircle
 10
172.6189038402918
 20
175.6690560474434
 30
0.0
 40
33.1712187182368
100
AcDbArc
 50
221.9191171925243
 51
229.2648989536161
  0
ARC
  5
E15F
330
1F
100
AcDbEntity
  8
freecads.com
100
AcDbCircle
 10
140.071898760998
 20
137.8765487913459
 30
0.0
 40
16.70443811286763
100
AcDbArc
 50
31.89653500612336
 51
49.26485378380623
  0
ARC
  5
E160
330
1F
100
AcDbEntity
  8
freecads.com
100
AcDbCircle
 10
150.6534702846803
 20
144.4621087734684
 30
0.0
 40
4.240921105659944
100
AcDbArc
 50
343.8352687123843
 51
31.89653939214715
  0
ARC
  5
E161
330
1F
100
AcDbEntity
  8
freecads.com
100
AcDbCircle
 10
149.0895784440473
 20
144.9154143579779
 30
0.0
 40
5.869185102111862
100
AcDbArc
 50
305.0366644302793
 51
343.8352993422402
  0
ARC
  5
E162
330
1F
100
AcDbEntity
  8
freecads.com
100
AcDbCircle
 10
133.6433225326582
 20
166.9450112931752
 30
0.0
 40
32.7743883685276
100
AcDbArc
 50
294.1693154233436
 51
305.0365898865778
  0
ARC
  5
E163
330
1F
100
AcDbEntity
  8
freecads.com
100
AcDbCircle
 10
168.2759196466759
 20
89.77334363157737
 30
0.0
 40
51.81215354291401
100
AcDbArc
 50
114.1692539676719
 51
119.5371159144027
  0
ARC
  5
E164
330
1F
100
AcDbEntity
  8
freecads.com
100
AcDbCircle
 10
150.3879316663697
 20
121.3424903296053
 30
0.0
 40
15.52729255069886
100
AcDbArc
 50
119.5370588131481
 51
132.7067611005253
  0
ARC
  5
E165
330
1F
100
AcDbEntity
  8
freecads.com
100
AcDbCircle
 10
144.8608138134332
 20
127.3307547832135
 30
0.0
 40
7.378161129093483
100
AcDbArc
 50
132.7067726827145
 51
152.7650731192989
  0
ARC
  5
E166
330
1F
100
AcDbEntity
  8
freecads.com
100
AcDbCircle
 10
141.0904314909385
 20
129.2713728012403
 30
0.0
 40
3.137668097655714
100
AcDbArc
 50
152.7650464166072
 51
190.7448457294416
  0
ARC
  5
E167
330
1F
100
AcDbEntity
  8
freecads.com
100
AcDbCircle
 10
140.5127439335666
 20
129.1617499385228
 30
0.0
 40
2.549671425920518
100
AcDbArc
 50
190.7448613268224
 51
239.483847250135
  0
ARC
  5
E168
330
1F
100
AcDbEntity
  8
freecads.com
100
AcDbCircle
 10
140.8731398534474
 20
129.7731917047002
 30
0.0
 40
3.259422264234091
100
AcDbArc
 50
239.4838931509708
 51
280.066211142581
  0
ARC
  5
E169
330
1F
100
AcDbEntity
  8
freecads.com
100
AcDbCircle
 10
139.8878846434491
 20
135.3232666763486
 30
0.0
 40
8.896270676221902
100
AcDbArc
 50
280.0662923590587
 51
302.0238171180792
  0
ARC
  5
E16A
330
1F
100
AcDbEntity
  8
freecads.com
100
AcDbCircle
 10
129.7317999881089
 20
151.5613473333668
 30
0.0
 40
28.04885063167942
100
AcDbArc
 50
302.0238478024929
 51
311.3553787229662
  0
ARC
  5
E16B
330
1F
100
AcDbEntity
  8
freecads.com
100
AcDbCircle
 10
259.5899455918153
 20
4.034613657351506
 30
0.0
 40
168.4893775295324
100
AcDbArc
 50
129.9658294989096
 51
131.3553497176657
  0
ARC
  5
E16C
330
1F
100
AcDbEntity
  8
freecads.com
100
AcDbCircle
 10
154.0633533638284
 20
129.9487308109763
 30
0.0
 40
4.202352582862031
100
AcDbArc
 50
110.1076307220425
 51
129.9657756455278
  0
ARC
  5
E16D
330
1F
100
AcDbEntity
  8
freecads.com
100
AcDbCircle
 10
152.9619775125939
 20
132.957136649229
 30
0.0
 40
0.9986774349569749
100
AcDbArc
 50
55.18118183615427
 51
110.1075601354648
  0
ARC
  5
E16E
330
1F
100
AcDbEntity
  8
freecads.com
100
AcDbCircle
 10
151.0152753502444
 20
130.1581523659568
 30
0.0
 40
4.408070684046943
100
AcDbArc
 50
36.89877178936699
 51
55.18124867897084
  0
ARC
  5
E16F
330
1F
100
AcDbEntity
  8
freecads.com
100
AcDbCircle
 10
118.8076668950853
 20
105.9770484041017
 30
0.0
 40
44.68282495039622
100
AcDbArc
 50
31.01489937647825
 51
36.89879958937428
  0
ARC
  5
E170
330
1F
100
AcDbEntity
  8
freecads.com
100
AcDbCircle
 10
-310.5957264708886
 20
-152.1868020454805
 30
0.0
 40
545.7176020998109
100
AcDbArc
 50
30.07344384471404
 51
31.01492279769447
  0
ARC
  5
E171
330
1F
100
AcDbEntity
  8
freecads.com
100
AcDbCircle
 10
-1392.484352614508
 20
-778.6654683291581
 30
0.0
 40
1795.900996121446
100
AcDbArc
 50
29.76472148507555
 51
30.07343095839944
  0
ARC
  5
E172
330
1F
100
AcDbEntity
  8
freecads.com
100
AcDbCircle
 10
164.1752979977209
 20
111.569521530151
 30
0.0
 40
2.661579586668239
100
AcDbArc
 50
0.0000229070220708
 51
29.76468832472797
  0
ARC
  5
E173
330
1F
100
AcDbEntity
  8
freecads.com
100
AcDbCircle
 10
165.6794721024962
 20
111.5695221737786
 30
0.0
 40
1.157405481892132
100
AcDbArc
 50
290.4388397496898
 51
0.0000208153183257
  0
ARC
  5
E174
330
1F
100
AcDbEntity
  8
freecads.com
100
AcDbCircle
 10
162.4449564189381
 20
120.24885665735
 30
0.0
 40
10.41985325691179
100
AcDbArc
 50
276.5469899085647
 51
290.4388455947032
  0
ARC
  5
E175
330
1F
100
AcDbEntity
  8
freecads.com
100
AcDbCircle
 10
161.4440683225803
 20
128.9702579692801
 30
0.0
 40
19.19849881442619
100
AcDbArc
 50
266.0839267268181
 51
276.5468823768118
  0
ARC
  5
E176
330
1F
100
AcDbEntity
  8
freecads.com
100
AcDbCircle
 10
162.6821193068936
 20
147.0552824833374
 30
0.0
 40
37.32585057669389
100
AcDbArc
 50
259.7220006449652
 51
266.0838645425569
  0
ARC
  5
E177
330
1F
100
AcDbEntity
  8
freecads.com
100
AcDbCircle
 10
150.3819068400663
 20
79.22351740796315
 30
0.0
 40
31.61211849674125
100
AcDbArc
 50
79.72200750686081
 51
88.4025192299719
  0
ARC
  5
E178
330
1F
100
AcDbEntity
  8
freecads.com
100
AcDbCircle
 10
150.8266970081204
 20
95.17252491116764
 30
0.0
 40
15.6569099856992
100
AcDbArc
 50
88.40250407167879
 51
103.0860809843975
  0
ARC
  5
E179
330
1F
100
AcDbEntity
  8
freecads.com
100
AcDbCircle
 10
150.1996125048863
 20
97.87013538612322
 30
0.0
 40
12.88737261490221
100
AcDbArc
 50
103.085987151764
 51
119.5163371873435
  0
ARC
  5
E17A
330
1F
100
AcDbEntity
  8
freecads.com
100
AcDbCircle
 10
151.5224266446421
 20
95.53359912102118
 30
0.0
 40
15.57237521570935
100
AcDbArc
 50
119.5162920042374
 51
133.7730028014454
  0
LINE
  5
E17B
330
1F
100
AcDbEntity
  8
freecads.com
100
AcDbLine
 10
140.7494105843907
 20
106.7781975942615
 30
0.0
 11
138.0113905843937
 21
104.1550075942594
 31
0.0
  0
LINE
  5
E17C
330
1F
100
AcDbEntity
  8
freecads.com
100
AcDbLine
 10
138.0113905843937
 20
104.1550075942594
 30
0.0
 11
126.1741345843948
 21
107.2034725942593
 31
0.0
  0
ARC
  5
E17D
330
1F
100
AcDbEntity
  8
freecads.com
100
AcDbCircle
 10
38.61744424818976
 20
-232.7800045821442
 30
0.0
 40
351.0768274546018
100
AcDbArc
 50
75.55830508727924
 51
80.25635919985605
  0
ARC
  5
E17E
330
1F
100
AcDbEntity
  8
freecads.com
100
AcDbCircle
 10
63.6393754260826
 20
-87.06340781647137
 30
0.0
 40
203.2275000539642
100
AcDbArc
 50
80.25632879750011
 51
87.33102626661029
  0
ARC
  5
E17F
330
1F
100
AcDbEntity
  8
freecads.com
100
AcDbCircle
 10
66.45945510657117
 20
-26.5661720846421
 30
0.0
 40
142.6645709587609
100
AcDbArc
 50
87.33099993989993
 51
95.60687026855076
  0
ARC
  5
E180
330
1F
100
AcDbEntity
  8
freecads.com
100
AcDbCircle
 10
56.62794362145
 20
73.5791764785807
 30
0.0
 40
42.03778795879086
100
AcDbArc
 50
95.60680203165693
 51
116.164219691071
  0
ARC
  5
E181
330
1F
100
AcDbEntity
  8
freecads.com
100
AcDbCircle
 10
56.11399494183211
 20
74.62524586624372
 30
0.0
 40
40.87228188487059
100
AcDbArc
 50
116.1641820699621
 51
125.5977574406447
  0
ARC
  5
E182
330
1F
100
AcDbEntity
  8
freecads.com
100
AcDbCircle
 10
58.20324190858451
 20
71.70676723707024
 30
0.0
 40
44.46149773196159
100
AcDbArc
 50
125.5977514262289
 51
134.4542470989848
  0
ARC
  5
E183
330
1F
100
AcDbEntity
  8
freecads.com
100
AcDbCircle
 10
57.28597511715275
 20
72.64168210206285
 30
0.0
 40
43.15174807212855
100
AcDbArc
 50
134.4542519499541
 51
143.4407264699704
  0
ARC
  5
E184
330
1F
100
AcDbEntity
  8
freecads.com
100
AcDbCircle
 10
50.81384267159961
 20
77.44122154534657
 30
0.0
 40
35.09420022809366
100
AcDbArc
 50
143.4407838940132
 51
153.9336998222953
  0
ARC
  5
E185
330
1F
100
AcDbEntity
  8
freecads.com
100
AcDbCircle
 10
44.62884513324757
 20
80.46672643705628
 30
0.0
 40
28.20886258939039
100
AcDbArc
 50
153.9337280736978
 51
169.4406146986941
  0
ARC
  5
E186
330
1F
100
AcDbEntity
  8
freecads.com
100
AcDbCircle
 10
77.60942005197654
 20
74.3187592144221
 30
0.0
 40
61.75757080506317
100
AcDbArc
 50
169.4406013845757
 51
178.0721378505087
  0
ARC
  5
E187
330
1F
100
AcDbEntity
  8
freecads.com
100
AcDbCircle
 10
116.4142155277405
 20
73.01258296647015
 30
0.0
 40
100.5843431188492
100
AcDbArc
 50
178.0721393930035
 51
184.7463562311341
  0
ARC
  5
E188
330
1F
100
AcDbEntity
  8
freecads.com
100
AcDbCircle
 10
285.2680864543036
 20
87.03242942190795
 30
0.0
 40
270.0192445456758
100
AcDbArc
 50
184.7463528969722
 51
187.9400420898842
  0
ARC
  5
E189
330
1F
100
AcDbEntity
  8
freecads.com
100
AcDbCircle
 10
-267.7083862973922
 20
9.906571095694594
 30
0.0
 40
288.3098496626331
100
AcDbArc
 50
6.497830626547828
 51
7.940060950298402
  0
ARC
  5
E18A
330
1F
100
AcDbEntity
  8
freecads.com
100
AcDbCircle
 10
-137.4499224125065
 20
24.74260267440499
 30
0.0
 40
157.2092194328357
100
AcDbArc
 50
4.226947466856861
 51
6.497848660205764
  0
ARC
  5
E18B
330
1F
100
AcDbEntity
  8
freecads.com
100
AcDbCircle
 10
-92.20104435184834
 20
28.08674909112036
 30
0.0
 40
111.8369340486449
100
AcDbArc
 50
1.609851608475407
 51
4.227009047080986
  0
ARC
  5
E18C
330
1F
100
AcDbEntity
  8
freecads.com
100
AcDbCircle
 10
-11.28838238278326
 20
30.36071816332136
 30
0.0
 40
30.89232457863355
100
AcDbArc
 50
354.7928401541843
 51
1.609943395141174
  0
ARC
  5
E18D
330
1F
100
AcDbEntity
  8
freecads.com
100
AcDbCircle
 10
-12.13488166056408
 20
30.4378544434638
 30
0.0
 40
31.74233106857263
100
AcDbArc
 50
343.9752013068542
 51
354.7928542604782
  0
ARC
  5
E18E
330
1F
100
AcDbEntity
  8
freecads.com
100
AcDbCircle
 10
-7.485720024316783
 20
29.10253891545821
 30
0.0
 40
26.905206770073
100
AcDbArc
 50
331.729720651222
 51
343.9752256910519
  0
ARC
  5
E18F
330
1F
100
AcDbEntity
  8
freecads.com
100
AcDbCircle
 10
-4.80443077873128
 20
27.66060431375976
 30
0.0
 40
23.86078770988101
100
AcDbArc
 50
318.6975419096693
 51
331.7297263096017
  0
ARC
  5
E190
330
1F
100
AcDbEntity
  8
freecads.com
100
AcDbCircle
 10
-0.7680084172643049
 20
24.11421915861305
 30
0.0
 40
18.48774823963926
100
AcDbArc
 50
302.9182710651808
 51
318.6975294096005
  0
ARC
  5
E191
330
1F
100
AcDbEntity
  8
freecads.com
100
AcDbCircle
 10
-1444.939520344258
 20
2254.903493684795
 30
0.0
 40
2675.939938440349
100
AcDbArc
 50
302.8735785698633
 51
302.9182692773839
  0
ARC
  5
E192
330
1F
100
AcDbEntity
  8
freecads.com
100
AcDbCircle
 10
-1517.706832719199
 20
2367.506248222535
 30
0.0
 40
2810.008809035615
100
AcDbArc
 50
302.8304058203957
 51
302.8734922461423
  0
ARC
  5
E193
330
1F
100
AcDbEntity
  8
freecads.com
100
AcDbCircle
 10
-1350.907414595142
 20
2108.990475363751
 30
0.0
 40
2502.352424906348
100
AcDbArc
 50
302.7877174021875
 51
302.8303454617165
  0
ARC
  5
E194
330
1F
100
AcDbEntity
  8
freecads.com
100
AcDbCircle
 10
-227.4768243825492
 20
364.9467739886184
 30
0.0
 40
427.7959124604903
100
AcDbArc
 50
302.6302458965643
 51
302.7876946738309
  0
ARC
  5
E195
330
1F
100
AcDbEntity
  8
freecads.com
100
AcDbCircle
 10
3.59401950092802
 20
4.051241724149654
 30
0.0
 40
0.7356734249339918
100
AcDbArc
 50
122.6301952667865
 51
197.2908916762974
  0
ARC
  5
E196
330
1F
100
AcDbEntity
  8
freecads.com
100
AcDbCircle
 10
3.533853495533598
 20
4.03251358581641
 30
0.0
 40
0.6726600027976021
100
AcDbArc
 50
197.2909724837553
 51
276.7835710258118
  0
ARC
  5
E197
330
1F
100
AcDbEntity
  8
freecads.com
100
AcDbCircle
 10
1.790346378282315
 20
18.68963257553863
 30
0.0
 40
15.43311237210604
100
AcDbArc
 50
276.7836222057368
 51
288.7429894180733
  0
ARC
  5
E198
330
1F
100
AcDbEntity
  8
freecads.com
100
AcDbCircle
 10
-1.55839967888091
 20
28.55863006627791
 30
0.0
 40
25.85478266181352
100
AcDbArc
 50
288.7430302667774
 51
296.8689777898762
  0
ARC
  5
E199
330
1F
100
AcDbEntity
  8
freecads.com
100
AcDbCircle
 10
-6.627787886431129
 20
38.56435436114574
 30
0.0
 40
37.07143169188237
100
AcDbArc
 50
296.8689840587535
 51
314.5863581205197
  0
ARC
  5
E19A
330
1F
100
AcDbEntity
  8
freecads.com
100
AcDbCircle
 10
4.847362708704217
 20
26.92230697757062
 30
0.0
 40
20.72467823859842
100
AcDbArc
 50
314.5863606533341
 51
341.9660395949584
  0
ARC
  5
E19B
330
1F
100
AcDbEntity
  8
freecads.com
100
AcDbCircle
 10
-14.40223425479412
 20
33.1894420271254
 30
0.0
 40
40.96878762837382
100
AcDbArc
 50
341.9661124230803
 51
359.6563761115397
  0
ARC
  5
E19C
330
1F
100
AcDbEntity
  8
freecads.com
100
AcDbCircle
 10
-260.7920160320827
 20
34.66704304800245
 30
0.0
 40
287.3629999569819
100
AcDbArc
 50
359.656397435004
 51
3.858228232146247
  0
ARC
  5
E19D
330
1F
100
AcDbEntity
  8
freecads.com
100
AcDbCircle
 10
275.2075726964213
 20
70.81523487100444
 30
0.0
 40
249.8541357425402
100
AcDbArc
 50
180.1549457930662
 51
183.8582226384896
  0
ARC
  5
E19E
330
1F
100
AcDbEntity
  8
freecads.com
100
AcDbCircle
 10
81.98823574094063
 20
70.29268922348442
 30
0.0
 40
56.63409219770569
100
AcDbArc
 50
169.0080076617607
 51
180.1549270093518
  0
ARC
  5
E19F
330
1F
100
AcDbEntity
  8
freecads.com
100
AcDbCircle
 10
54.12785410685688
 20
75.70412911957632
 30
0.0
 40
28.25303255321369
100
AcDbArc
 50
152.2356261174449
 51
169.0079500918542
  0
ARC
  5
E1A0
330
1F
100
AcDbEntity
  8
freecads.com
100
AcDbCircle
 10
46.36935624831317
 20
79.7885578867334
 30
0.0
 40
19.48508824596544
100
AcDbArc
 50
130.0787369344921
 51
152.2356263473705
  0
ARC
  5
E1A1
330
1F
100
AcDbEntity
  8
freecads.com
100
AcDbCircle
 10
44.7616838138602
 20
81.69915933088654
 30
0.0
 40
16.98808833910521
100
AcDbArc
 50
116.7347315421491
 51
130.078716103116
  0
ARC
  5
E1A2
330
1F
100
AcDbEntity
  8
freecads.com
100
AcDbCircle
 10
45.68351531639569
 20
79.86905000847932
 30
0.0
 40
19.03725242501457
100
AcDbArc
 50
104.4830346651258
 51
116.7347099912698
  0
ARC
  5
E1A3
330
1F
100
AcDbEntity
  8
freecads.com
100
AcDbCircle
 10
47.92972692743574
 20
71.1729563084717
 30
0.0
 40
28.0187618883997
100
AcDbArc
 50
94.65892563057389
 51
104.4830263393341
  0
ARC
  5
E1A4
330
1F
100
AcDbEntity
  8
freecads.com
100
AcDbCircle
 10
51.83358344823141
 20
23.26882340169126
 30
0.0
 40
76.08170026388187
100
AcDbArc
 50
89.99751924436004
 51
94.65891934491372
  0
ARC
  5
E1A5
330
1F
100
AcDbEntity
  8
freecads.com
100
AcDbCircle
 10
51.83281616574464
 20
2.483162413854948
 30
0.0
 40
96.86736126554709
100
AcDbArc
 50
82.23424012201249
 51
89.99759772400075
  0
ARC
  5
E1A6
330
1F
100
AcDbEntity
  8
freecads.com
100
AcDbCircle
 10
39.88675315962979
 20
-85.11423008515899
 30
0.0
 40
185.2755712574446
100
AcDbArc
 50
77.45599418302397
 51
82.2342281061001
  0
ARC
  5
E1A7
330
1F
100
AcDbEntity
  8
freecads.com
100
AcDbCircle
 10
22.52154717988383
 20
-163.1591850242895
 30
0.0
 40
265.2290913184996
100
AcDbArc
 50
73.47911641992864
 51
77.4559610585555
  0
ARC
  5
E1A8
330
1F
100
AcDbEntity
  8
freecads.com
100
AcDbCircle
 10
-60.47673061862947
 20
-442.9818694568768
 30
0.0
 40
557.1014073071462
100
AcDbArc
 50
71.19629200970281
 51
73.47910954869728
  0
ARC
  5
E1A9
330
1F
100
AcDbEntity
  8
freecads.com
100
AcDbCircle
 10
292.0923784281077
 20
592.46141170219
 30
0.0
 40
536.7211400705814
100
AcDbArc
 50
251.1962227467332
 51
251.8445800582877
  0
ARC
  5
E1AA
330
1F
100
AcDbEntity
  8
freecads.com
100
AcDbCircle
 10
225.3457657224463
 20
388.9151098910168
 30
0.0
 40
322.5104790655403
100
AcDbArc
 50
251.8444858348913
 51
252.7939860603354
  0
ARC
  5
E1AB
330
1F
100
AcDbEntity
  8
freecads.com
100
AcDbCircle
 10
294.3087807630837
 20
611.6152870158747
 30
0.0
 40
555.6440595187247
100
AcDbArc
 50
252.7939684768829
 51
253.2615013889988
  0
ARC
  5
E1AC
330
1F
100
AcDbEntity
  8
freecads.com
100
AcDbCircle
 10
135.3163964991654
 20
82.95692660898007
 30
0.0
 40
3.594931014721713
100
AcDbArc
 50
253.2615637839245
 51
269.9999216687692
  0
ARC
  5
E1AD
330
1F
100
AcDbEntity
  8
freecads.com
100
AcDbCircle
 10
135.3163920279294
 20
78.1609515866929
 30
0.0
 40
1.201044007568352
100
AcDbArc
 50
56.01436886025374
 51
90.00002115882878
  0
ARC
  5
E1AE
330
1F
100
AcDbEntity
  8
freecads.com
100
AcDbCircle
 10
132.828394907021
 20
74.47035847377796
 30
0.0
 40
5.651954835560884
100
AcDbArc
 50
45.23873296112604
 51
56.01430973757334
  0
ARC
  5
E1AF
330
1F
100
AcDbEntity
  8
freecads.com
100
AcDbCircle
 10
131.5003919475676
 20
73.13123554897342
 30
0.0
 40
7.537914026009376
100
AcDbArc
 50
35.56885926302362
 51
45.23876978342857
  0
ARC
  5
E1B0
330
1F
100
AcDbEntity
  8
freecads.com
100
AcDbCircle
 10
130.0224902771697
 20
72.07439245546797
 30
0.0
 40
9.354809915023519
100
AcDbArc
 50
27.34440818036552
 51
35.5687791011094
  0
ARC
  5
E1B1
330
1F
100
AcDbEntity
  8
freecads.com
100
AcDbCircle
 10
149.3371887644499
 20
82.0624011746348
 30
0.0
 40
12.38956627351849
100
AcDbArc
 50
207.3443407649602
 51
223.3826986161147
  0
ARC
  5
E1B2
330
1F
100
AcDbEntity
  8
freecads.com
100
AcDbCircle
 10
147.5150195043789
 20
80.34030101862104
 30
0.0
 40
9.882390619582629
100
AcDbArc
 50
223.3826887880713
 51
242.3836920431763
  0
ARC
  5
E1B3
330
1F
100
AcDbEntity
  8
freecads.com
100
AcDbCircle
 10
150.1892899406121
 20
85.45222024721974
 30
0.0
 40
15.65157085297891
100
AcDbArc
 50
242.383787022423
 51
256.7706227210353
  0
ARC
  5
E1B4
330
1F
100
AcDbEntity
  8
freecads.com
100
AcDbCircle
 10
160.0080026259566
 20
127.2185204429605
 30
0.0
 40
58.55647675937134
100
AcDbArc
 50
256.770699148458
 51
262.162383008433
  0
ARC
  5
E1B5
330
1F
100
AcDbEntity
  8
freecads.com
100
AcDbCircle
 10
143.9990183209411
 20
10.91795979814
 30
0.0
 40
58.84074631161012
100
AcDbArc
 50
79.15819996367215
 51
82.16238937994704
  0
ARC
  5
E1B6
330
1F
100
AcDbEntity
  8
freecads.com
100
AcDbCircle
 10
142.731315017114
 20
4.298626694451591
 30
0.0
 40
65.58037852739698
100
AcDbArc
 50
76.38866329801839
 51
79.15820645663727
  0
ARC
  5
E1B7
330
1F
100
AcDbEntity
  8
freecads.com
100
AcDbCircle
 10
144.5060328357177
 20
11.62807266206967
 30
0.0
 40
58.03913184479238
100
AcDbArc
 50
73.5975830205264
 51
76.38866622205887
  0
ARC
  5
E1B8
330
1F
100
AcDbEntity
  8
freecads.com
100
AcDbCircle
 10
157.4464862044224
 20
55.58910132214972
 30
0.0
 40
12.21307621876303
100
AcDbArc
 50
64.7289763397751
 51
73.59760056317779
  0
ARC
  5
E1B9
330
1F
100
AcDbEntity
  8
freecads.com
100
AcDbCircle
 10
153.7096109741142
 20
47.67334678646315
 30
0.0
 40
20.96655589007423
100
AcDbArc
 50
58.44219814636286
 51
64.72894720959367
  0
ARC
  5
E1BA
330
1F
100
AcDbEntity
  8
freecads.com
100
AcDbCircle
 10
163.6730195062665
 20
63.89539422619585
 30
0.0
 40
1.929110349364568
100
AcDbArc
 50
22.2770994945646
 51
58.44220381554625
  0
ARC
  5
E1BB
330
1F
100
AcDbEntity
  8
freecads.com
100
AcDbCircle
 10
162.8179273181486
 20
63.54508992927898
 30
0.0
 40
2.853175147204897
100
AcDbArc
 50
355.0626739253688
 51
22.27718546085224
  0
ARC
  5
E1BC
330
1F
100
AcDbEntity
  8
freecads.com
100
AcDbCircle
 10
103.4469333236957
 20
68.67390244425573
 30
0.0
 40
62.44528574670557
100
AcDbArc
 50
352.1689705153086
 51
355.0627119597806
  0
ARC
  5
E1BD
330
1F
100
AcDbEntity
  8
freecads.com
100
AcDbCircle
 10
104.5304517141304
 20
68.52492627368869
 30
0.0
 40
61.35157371890194
100
AcDbArc
 50
349.9177352971389
 51
352.1689286606579
  0
ARC
  5
E1BE
330
1F
100
AcDbEntity
  8
freecads.com
100
AcDbCircle
 10
-29.95774838486609
 20
92.43788443043181
 30
0.0
 40
197.9491781403242
100
AcDbArc
 50
348.9771990162343
 51
349.9177612521468
  0
ARC
  5
E1BF
330
1F
100
AcDbEntity
  8
freecads.com
100
AcDbCircle
 10
-46.0569825065358
 20
95.57389701136512
 30
0.0
 40
214.351004691413
100
AcDbArc
 50
348.0471818711257
 51
348.9772018590909
  0
ARC
  5
E1C0
330
1F
100
AcDbEntity
  8
freecads.com
100
AcDbCircle
 10
14.91668900102018
 20
82.66603811389163
 30
0.0
 40
152.026038278044
100
AcDbArc
 50
346.8439722721722
 51
348.047172587663
  0
LINE
  5
E1C1
330
1F
100
AcDbEntity
  8
freecads.com
100
AcDbLine
 10
162.9526315843941
 20
48.06436159425888
 30
0.0
 11
161.2691645843916
 21
40.86199559426116
 31
0.0
  0
LINE
  5
E1C2
330
1F
100
AcDbEntity
  8
freecads.com
100
AcDbLine
 10
161.2691645843916
 20
40.86199559426116
 30
0.0
 11
157.8030215843938
 21
41.02050359426161
 31
0.0
  0
ARC
  5
E1C3
330
1F
100
AcDbEntity
  8
freecads.com
100
AcDbCircle
 10
159.6121489181424
 20
80.58108112200519
 30
0.0
 40
39.60192212555254
100
AcDbArc
 50
264.9716553437364
 51
267.3816561784141
  0
ARC
  5
E1C4
330
1F
100
AcDbEntity
  8
freecads.com
100
AcDbCircle
 10
166.2638486443284
 20
156.1800785918475
 30
0.0
 40
115.4929856817575
100
AcDbArc
 50
263.8869609077735
 51
264.9716765060584
  0
ARC
  5
E1C5
330
1F
100
AcDbEntity
  8
freecads.com
100
AcDbCircle
 10
167.0983739417025
 20
163.9716068971373
 30
0.0
 40
123.329078190209
100
AcDbArc
 50
262.8134483906122
 51
263.8869342646877
  0
ARC
  5
E1C6
330
1F
100
AcDbEntity
  8
freecads.com
100
AcDbCircle
 10
161.9123112135312
 20
122.8428982647982
 30
0.0
 40
81.87469458162402
100
AcDbArc
 50
261.354332777966
 51
262.8135219729833
  0
ARC
  5
E1C7
330
1F
100
AcDbEntity
  8
freecads.com
100
AcDbCircle
 10
146.491140992217
 20
21.42181238387806
 30
0.0
 40
20.71209380880044
100
AcDbArc
 50
81.35439519275617
 51
91.13274305845314
  0
ARC
  5
E1C8
330
1F
100
AcDbEntity
  8
freecads.com
100
AcDbCircle
 10
146.1269679848593
 20
39.83987828276607
 30
0.0
 40
2.290427938553395
100
AcDbArc
 50
91.13277733866055
 51
140.4486622148506
  0
ARC
  5
E1C9
330
1F
100
AcDbEntity
  8
freecads.com
100
AcDbCircle
 10
145.7044880525609
 20
40.18878099477464
 30
0.0
 40
1.742502400143057
100
AcDbArc
 50
140.4486845021535
 51
199.8064570606479
  0
ARC
  5
E1CA
330
1F
100
AcDbEntity
  8
freecads.com
100
AcDbCircle
 10
156.4203612535021
 20
44.04810439984961
 30
0.0
 40
13.13216067436898
100
AcDbArc
 50
199.8064875640642
 51
213.2338389282329
  0
ARC
  5
E1CB
330
1F
100
AcDbEntity
  8
freecads.com
100
AcDbCircle
 10
152.304603241977
 20
41.35135869421886
 30
0.0
 40
8.211601619723101
100
AcDbArc
 50
213.2338615384594
 51
227.4869195739324
  0
ARC
  5
E1CC
330
1F
100
AcDbEntity
  8
freecads.com
100
AcDbCircle
 10
148.7818276408471
 20
37.50868682949098
 30
0.0
 40
2.998533905230052
100
AcDbArc
 50
227.486938784107
 51
257.7091481357587
  0
ARC
  5
E1CD
330
1F
100
AcDbEntity
  8
freecads.com
100
AcDbCircle
 10
150.2075424767063
 20
44.05263288142472
 30
0.0
 40
9.69598810244344
100
AcDbArc
 50
257.7091577962181
 51
271.0369253893639
  0
ARC
  5
E1CE
330
1F
100
AcDbEntity
  8
freecads.com
100
AcDbCircle
 10
145.2005284957886
 20
320.6750956231825
 30
0.0
 40
286.3637619437753
100
AcDbArc
 50
271.036969362153
 51
272.1881464824897
  0
ARC
  5
E1CF
330
1F
100
AcDbEntity
  8
freecads.com
100
AcDbCircle
 10
166.0575582317361
 20
-225.1860288074405
 30
0.0
 40
259.8956845229584
100
AcDbArc
 50
90.94856340645254
 51
92.18820280258549
  0
ARC
  5
E1D0
330
1F
100
AcDbEntity
  8
freecads.com
100
AcDbCircle
 10
161.9359109070829
 20
23.7502882625757
 30
0.0
 40
10.92524866148719
100
AcDbArc
 50
78.59432325816837
 51
90.94860554687446
  0
ARC
  5
E1D1
330
1F
100
AcDbEntity
  8
freecads.com
100
AcDbCircle
 10
163.4010705848378
 20
31.01295350357199
 30
0.0
 40
3.516267673247194
100
AcDbArc
 50
51.71092010460809
 51
78.59433363713944
  0
ARC
  5
E1D2
330
1F
100
AcDbEntity
  8
freecads.com
100
AcDbCircle
 10
160.6831085874765
 20
27.5700551401222
 30
0.0
 40
7.902708891377312
100
AcDbArc
 50
37.03401913340224
 51
51.71097696799216
  0
ARC
  5
E1D3
330
1F
100
AcDbEntity
  8
freecads.com
100
AcDbCircle
 10
158.1157565191279
 20
25.63303594779958
 30
0.0
 40
11.11881523200669
100
AcDbArc
 50
27.33363897532044
 51
37.03397644754685
  0
ARC
  5
E1D4
330
1F
100
AcDbEntity
  8
freecads.com
100
AcDbCircle
 10
164.6612435329262
 20
29.01628171991782
 30
0.0
 40
3.750657239512467
100
AcDbArc
 50
5.521460024062064
 51
27.33364100372979
  0
ARC
  5
E1D5
330
1F
100
AcDbEntity
  8
freecads.com
100
AcDbCircle
 10
162.1000446626095
 20
28.76869605646956
 30
0.0
 40
6.323795073764491
100
AcDbArc
 50
350.0999166279504
 51
5.521478428036584
  0
ARC
  5
E1D6
330
1F
100
AcDbEntity
  8
freecads.com
100
AcDbCircle
 10
113.1042283222014
 20
37.31990593856411
 30
0.0
 40
56.06023251464478
100
AcDbArc
 50
347.0022395113559
 51
350.0999190690992
  0
ARC
  5
E1D7
330
1F
100
AcDbEntity
  8
freecads.com
100
AcDbCircle
 10
205.3660500754523
 20
16.0233901714981
 30
0.0
 40
38.62759847247616
100
AcDbArc
 50
167.0022477920022
 51
174.0870196988057
  0
ARC
  5
E1D8
330
1F
100
AcDbEntity
  8
freecads.com
100
AcDbCircle
 10
174.9223531147545
 20
19.1764113275802
 30
0.0
 40
8.021059513530243
100
AcDbArc
 50
174.0870218846749
 51
196.8161587740845
  0
ARC
  5
E1D9
330
1F
100
AcDbEntity
  8
freecads.com
100
AcDbCircle
 10
170.4287983413269
 20
17.81833969084785
 30
0.0
 40
3.326765842247482
100
AcDbArc
 50
196.8160839679892
 51
236.2479351940623
  0
ARC
  5
E1DA
330
1F
100
AcDbEntity
  8
freecads.com
100
AcDbCircle
 10
170.855932803057
 20
18.45754155863854
 30
0.0
 40
4.09554596437886
100
AcDbArc
 50
236.2479339401393
 51
269.9999549717778
  0
ARC
  5
E1DB
330
1F
100
AcDbEntity
  8
freecads.com
100
AcDbCircle
 10
170.8559343286361
 20
21.07472517457594
 30
0.0
 40
6.712729580316448
100
AcDbArc
 50
269.9999595061996
 51
286.9541832278871
  0
ARC
  5
E1DC
330
1F
100
AcDbEntity
  8
freecads.com
100
AcDbCircle
 10
172.4382983227515
 20
15.88420381759882
 30
0.0
 40
1.286369127204091
100
AcDbArc
 50
286.9541901971424
 51
344.4625095094592
  0
ARC
  5
E1DD
330
1F
100
AcDbEntity
  8
freecads.com
100
AcDbCircle
 10
166.5687136238594
 20
17.51613029666063
 30
0.0
 40
7.378594383257442
100
AcDbArc
 50
344.4624362938957
 51
0.4615669116553348
  0
ARC
  5
E1DE
330
1F
100
AcDbEntity
  8
freecads.com
100
AcDbCircle
 10
-508.7460828115253
 20
12.07582833159343
 30
0.0
 40
682.7153038623415
100
AcDbArc
 50
0.4615619812452792
 51
1.094105781063511
  0
ARC
  5
E1DF
330
1F
100
AcDbEntity
  8
freecads.com
100
AcDbCircle
 10
243.7460792834209
 20
26.44698099482579
 30
0.0
 40
69.91407640605932
100
AcDbArc
 50
176.4187353552552
 51
181.0941098261762
  0
ARC
  5
E1E0
330
1F
100
AcDbEntity
  8
freecads.com
100
AcDbCircle
 10
175.5324805886085
 20
30.71622441314488
 30
0.0
 40
1.567010000384217
100
AcDbArc
 50
104.8395597041017
 51
176.4187644612374
  0
ARC
  5
E1E1
330
1F
100
AcDbEntity
  8
freecads.com
100
AcDbCircle
 10
175.7230900235555
 20
29.99681250418311
 30
0.0
 40
2.311244809735613
100
AcDbArc
 50
50.84668532321197
 51
104.8395865944194
  0
ARC
  5
E1E2
330
1F
100
AcDbEntity
  8
freecads.com
100
AcDbCircle
 10
95.53204075401669
 20
-68.49081697194392
 30
0.0
 40
129.3168255641916
100
AcDbArc
 50
47.83583761153841
 51
50.84667219410452
  0
ARC
  5
E1E3
330
1F
100
AcDbEntity
  8
freecads.com
100
AcDbCircle
 10
414.7298483493178
 20
283.9789042546234
 30
0.0
 40
346.2061967546942
100
AcDbArc
 50
227.8359259359698
 51
228.7432571601932
  0
ARC
  5
E1E4
330
1F
100
AcDbEntity
  8
freecads.com
100
AcDbCircle
 10
190.464499666934
 20
28.31399412691993
 30
0.0
 40
6.118718463833682
100
AcDbArc
 50
228.7433030877414
 51
245.1620247122638
  0
ARC
  5
E1E5
330
1F
100
AcDbEntity
  8
freecads.com
100
AcDbCircle
 10
188.6287924552126
 20
24.34806613926943
 30
0.0
 40
1.748546182286845
100
AcDbArc
 50
245.1620374204206
 51
286.2134207124203
  0
ARC
  5
E1E6
330
1F
100
AcDbEntity
  8
freecads.com
100
AcDbCircle
 10
186.5289498643288
 20
31.56945459396033
 30
0.0
 40
9.269037530594571
100
AcDbArc
 50
286.2134260402949
 51
298.1549655303027
  0
ARC
  5
E1E7
330
1F
100
AcDbEntity
  8
freecads.com
100
AcDbCircle
 10
189.1160982671391
 20
26.73531969647396
 30
0.0
 40
3.786137106070555
100
AcDbArc
 50
298.1549922679434
 51
329.6590940936589
  0
ARC
  5
E1E8
330
1F
100
AcDbEntity
  8
freecads.com
100
AcDbCircle
 10
190.9395364074044
 20
25.66803800987131
 30
0.0
 40
1.673315095128521
100
AcDbArc
 50
329.6591938559546
 51
27.47837156112776
  0
ARC
  5
E1E9
330
1F
100
AcDbEntity
  8
freecads.com
100
AcDbCircle
 10
186.7720204405232
 20
23.50056999796092
 30
0.0
 40
6.370772590078562
100
AcDbArc
 50
27.47833666703869
 51
51.51817811603712
  0
ARC
  5
E1EA
330
1F
100
AcDbEntity
  8
freecads.com
100
AcDbCircle
 10
149.3917823082338
 20
-23.52337978285337
 30
0.0
 40
66.44184762469946
100
AcDbArc
 50
51.5181428596135
 51
55.82009220991309
  0
ARC
  5
E1EB
330
1F
100
AcDbEntity
  8
freecads.com
100
AcDbCircle
 10
233.5453674529381
 20
100.3983069988333
 30
0.0
 40
83.35271284905553
100
AcDbArc
 50
232.1438488891339
 51
235.820089135868
  0
ARC
  5
E1EC
330
1F
100
AcDbEntity
  8
freecads.com
100
AcDbCircle
 10
183.3448159825894
 20
35.81094761240259
 30
0.0
 40
1.550375715945381
100
AcDbArc
 50
168.0827766040091
 51
232.1438919725654
  0
ARC
  5
E1ED
330
1F
100
AcDbEntity
  8
freecads.com
100
AcDbCircle
 10
183.0770355195819
 20
35.8674613394049
 30
0.0
 40
1.276696747610764
100
AcDbArc
 50
94.55224233979024
 51
168.0827527358547
  0
ARC
  5
E1EE
330
1F
100
AcDbEntity
  8
freecads.com
100
AcDbCircle
 10
188.1814512442907
 20
-28.2429609206212
 30
0.0
 40
65.59000254236626
100
AcDbArc
 50
90.1895757814715
 51
94.55223695796647
  0
ARC
  5
E1EF
330
1F
100
AcDbEntity
  8
freecads.com
100
AcDbCircle
 10
187.9026032597722
 20
56.03446872089793
 30
0.0
 40
18.68788840881794
100
AcDbArc
 50
270.1895647990804
 51
280.4967669998532
  0
ARC
  5
E1F0
330
1F
100
AcDbEntity
  8
freecads.com
100
AcDbCircle
 10
190.39142380247
 20
42.60176334264709
 30
0.0
 40
5.026563382575901
100
AcDbArc
 50
280.4967698502387
 51
307.870122795198
  0
ARC
  5
E1F1
330
1F
100
AcDbEntity
  8
freecads.com
100
AcDbCircle
 10
191.8240495408209
 20
40.7594922879451
 30
0.0
 40
2.692815507339446
100
AcDbArc
 50
307.8701382847953
 51
348.3614003502705
  0
ARC
  5
E1F2
330
1F
100
AcDbEntity
  8
freecads.com
100
AcDbCircle
 10
190.3869073509014
 20
41.05550454631687
 30
0.0
 40
4.16012628940157
100
AcDbArc
 50
348.3613975410448
 51
17.60875795745435
  0
ARC
  5
E1F3
330
1F
100
AcDbEntity
  8
freecads.com
100
AcDbCircle
 10
191.8610120377889
 20
41.52336670285316
 30
0.0
 40
2.613556011197527
100
AcDbArc
 50
17.60874552746934
 51
56.07172188015257
  0
ARC
  5
E1F4
330
1F
100
AcDbEntity
  8
freecads.com
100
AcDbCircle
 10
191.3091107730543
 20
40.70293133794788
 30
0.0
 40
3.602347796153763
100
AcDbArc
 50
56.07167411101856
 51
86.32451294597403
  0
ARC
  5
E1F5
330
1F
100
AcDbEntity
  8
freecads.com
100
AcDbCircle
 10
190.9641584931197
 20
35.33314492043959
 30
0.0
 40
8.983202583736808
100
AcDbArc
 50
86.32444498664058
 51
103.7185127869688
  0
ARC
  5
E1F6
330
1F
100
AcDbEntity
  8
freecads.com
100
AcDbCircle
 10
198.3758896799373
 20
4.971650479112064
 30
0.0
 40
40.23626809572259
100
AcDbArc
 50
103.7185166426547
 51
109.4338460825706
  0
ARC
  5
E1F7
330
1F
100
AcDbEntity
  8
freecads.com
100
AcDbCircle
 10
175.9248608010858
 20
68.60468660153296
 30
0.0
 40
27.24122432862856
100
AcDbArc
 50
282.0954687947956
 51
289.4339242207274
  0
ARC
  5
E1F8
330
1F
100
AcDbEntity
  8
freecads.com
100
AcDbCircle
 10
181.3998389478475
 20
43.05632991631304
 30
0.0
 40
1.112812302202573
100
AcDbArc
 50
207.9142900416
 51
282.0955516045339
  0
ARC
  5
E1F9
330
1F
100
AcDbEntity
  8
freecads.com
100
AcDbCircle
 10
181.7032829821947
 20
43.21709576444285
 30
0.0
 40
1.456212855349023
100
AcDbArc
 50
146.3738287860244
 51
207.9144149051836
  0
ARC
  5
E1FA
330
1F
100
AcDbEntity
  8
freecads.com
100
AcDbCircle
 10
211.6180103414481
 20
23.32207731680122
 30
0.0
 40
37.38256351904034
100
AcDbArc
 50
140.5018138669705
 51
146.3738043952234
  0
ARC
  5
E1FB
330
1F
100
AcDbEntity
  8
freecads.com
100
AcDbCircle
 10
160.7799749131046
 20
65.22704445635994
 30
0.0
 40
28.50015133987878
100
AcDbArc
 50
320.5017707948846
 51
327.4496196115409
  0
ARC
  5
E1FC
330
1F
100
AcDbEntity
  8
freecads.com
100
AcDbCircle
 10
179.5030761058115
 20
53.27595372190793
 30
0.0
 40
6.28792299566654
100
AcDbArc
 50
327.4496329569799
 51
348.7777383411373
  0
ARC
  5
E1FD
330
1F
100
AcDbEntity
  8
freecads.com
100
AcDbCircle
 10
182.6646424436586
 20
52.64866768813393
 30
0.0
 40
3.064727457576372
100
AcDbArc
 50
348.7777821683731
 51
22.11483294560073
  0
ARC
  5
E1FE
330
1F
100
AcDbEntity
  8
freecads.com
100
AcDbCircle
 10
181.9529407256596
 20
52.35945796407563
 30
0.0
 40
3.832947217726136
100
AcDbArc
 50
22.1148741375476
 51
50.30980037156272
  0
ARC
  5
E1FF
330
1F
100
AcDbEntity
  8
freecads.com
100
AcDbCircle
 10
182.8207773994109
 20
53.40513486794028
 30
0.0
 40
2.474057715383499
100
AcDbArc
 50
50.30981966929637
 51
90.19267585499752
  0
ARC
  5
E200
330
1F
100
AcDbEntity
  8
freecads.com
100
AcDbCircle
 10
182.8261375513139
 20
51.8120201267537
 30
0.0
 40
4.067181473856614
100
AcDbArc
 50
90.19271474652502
 51
117.6930314447875
  0
ARC
  5
E201
330
1F
100
AcDbEntity
  8
freecads.com
100
AcDbCircle
 10
184.1846319877696
 20
49.22370057992687
 30
0.0
 40
6.990348456831659
100
AcDbArc
 50
117.6930157851176
 51
137.7947550253857
  0
ARC
  5
E202
330
1F
100
AcDbEntity
  8
freecads.com
100
AcDbCircle
 10
188.9557156826304
 20
44.89673916844352
 30
0.0
 40
13.43129828428625
100
AcDbArc
 50
137.7947203337795
 51
150.1256936791851
  0
LINE
  5
E203
330
1F
100
AcDbEntity
  8
freecads.com
100
AcDbLine
 10
177.3091655843928
 20
51.58685459425927
 30
0.0
 11
175.7439245843889
 21
48.86199559426117
 31
0.0
  0
LINE
  5
E204
330
1F
100
AcDbEntity
  8
freecads.com
100
AcDbLine
 10
175.7439245843889
 20
48.86199559426117
 30
0.0
 11
176.3761325843916
 21
52.82744059425916
 31
0.0
  0
ARC
  5
E205
330
1F
100
AcDbEntity
  8
freecads.com
100
AcDbCircle
 10
201.7122481875813
 20
48.78813166613493
 30
0.0
 40
25.65608642164693
100
AcDbArc
 50
162.8923642737653
 51
170.9416310228307
  0
ARC
  5
E206
330
1F
100
AcDbEntity
  8
freecads.com
100
AcDbCircle
 10
196.7196186206529
 20
50.32479408213279
 30
0.0
 40
20.43232519305798
100
AcDbArc
 50
153.3448530523671
 51
162.89236600825
  0
ARC
  5
E207
330
1F
100
AcDbEntity
  8
freecads.com
100
AcDbCircle
 10
192.1706561182473
 20
52.60821946834933
 30
0.0
 40
15.34242427627308
100
AcDbArc
 50
142.6765137904423
 51
153.3448387695528
  0
ARC
  5
E208
330
1F
100
AcDbEntity
  8
freecads.com
100
AcDbCircle
 10
182.7860915299134
 20
59.76342070862468
 30
0.0
 40
3.541282073018933
100
AcDbArc
 50
110.9936216606887
 51
142.6764835147969
  0
ARC
  5
E209
330
1F
100
AcDbEntity
  8
freecads.com
100
AcDbCircle
 10
182.3646021128261
 20
60.86180338062135
 30
0.0
 40
2.364805204206722
100
AcDbArc
 50
88.26992900910424
 51
110.9936194133222
  0
ARC
  5
E20A
330
1F
100
AcDbEntity
  8
freecads.com
100
AcDbCircle
 10
181.7583828071329
 20
40.79098774428515
 30
0.0
 40
22.4447738833259
100
AcDbArc
 50
83.92196077960317
 51
88.26995953333584
  0
ARC
  5
E20B
330
1F
100
AcDbEntity
  8
freecads.com
100
AcDbCircle
 10
181.393185397119
 20
37.3611771921804
 30
0.0
 40
25.89397227881507
100
AcDbArc
 50
79.43997053339981
 51
83.92199165860985
  0
ARC
  5
E20C
330
1F
100
AcDbEntity
  8
freecads.com
100
AcDbCircle
 10
180.3674767383964
 20
31.85883262803494
 30
0.0
 40
31.49110314674976
100
AcDbArc
 50
75.56976262336146
 51
79.44006834544524
  0
ARC
  5
E20D
330
1F
100
AcDbEntity
  8
freecads.com
100
AcDbCircle
 10
197.2699396708086
 20
97.54573695968232
 30
0.0
 40
36.33560732823231
100
AcDbArc
 50
255.5697986319369
 51
264.8560261188347
  0
ARC
  5
E20E
330
1F
100
AcDbEntity
  8
freecads.com
100
AcDbCircle
 10
199.6552377934168
 20
124.0431321321174
 30
0.0
 40
62.94014825750475
100
AcDbArc
 50
264.8560544483032
 51
271.0102042204547
  0
ARC
  5
E20F
330
1F
100
AcDbEntity
  8
freecads.com
100
AcDbCircle
 10
199.6507655429851
 20
124.2975955299751
 30
0.0
 40
63.19465095229646
100
AcDbArc
 50
271.0101908423086
 51
277.1556379253679
  0
ARC
  5
E210
330
1F
100
AcDbEntity
  8
freecads.com
100
AcDbCircle
 10
202.8571903017474
 20
98.75705555357658
 30
0.0
 40
37.45362645793139
100
AcDbArc
 50
277.1556485834082
 51
286.2485275406586
  0
ARC
  5
E211
330
1F
100
AcDbEntity
  8
freecads.com
100
AcDbCircle
 10
204.4019221504969
 20
93.45674059960387
 30
0.0
 40
31.93279906565097
100
AcDbArc
 50
286.2485642149232
 51
292.0605477741011
  0
ARC
  5
E212
330
1F
100
AcDbEntity
  8
freecads.com
100
AcDbCircle
 10
157.3003253393363
 20
209.6835015760897
 30
0.0
 40
157.341014064694
100
AcDbArc
 50
292.0605488604491
 51
293.8421825297794
  0
ARC
  5
E213
330
1F
100
AcDbEntity
  8
freecads.com
100
AcDbCircle
 10
149.4164106065546
 20
227.5227675948789
 30
0.0
 40
176.8447450816577
100
AcDbArc
 50
293.8422320996496
 51
295.6201990601258
  0
ARC
  5
E214
330
1F
100
AcDbEntity
  8
freecads.com
100
AcDbCircle
 10
157.3247697316802
 20
211.0315162259884
 30
0.0
 40
158.5553078087701
100
AcDbArc
 50
295.6202232594344
 51
297.5498995117464
  0
ARC
  5
E215
330
1F
100
AcDbEntity
  8
freecads.com
100
AcDbCircle
 10
309.4833797069696
 20
-80.64201370650531
 30
0.0
 40
170.4214248835193
100
AcDbArc
 50
115.8571764194737
 51
117.5498921489899
  0
ARC
  5
E216
330
1F
100
AcDbEntity
  8
freecads.com
100
AcDbCircle
 10
285.4563336377724
 20
-31.06595758635209
 30
0.0
 40
115.3298258575386
100
AcDbArc
 50
113.5890339133713
 51
115.8571851792395
  0
ARC
  5
E217
330
1F
100
AcDbEntity
  8
freecads.com
100
AcDbCircle
 10
290.7801118541648
 20
-43.2575258253111
 30
0.0
 40
128.6330942752957
100
AcDbArc
 50
111.8977714047082
 51
113.5891121107435
  0
ARC
  5
E218
330
1F
100
AcDbEntity
  8
freecads.com
100
AcDbCircle
 10
244.1874163954745
 20
72.65848261705636
 30
0.0
 40
3.703512977202689
100
AcDbArc
 50
90.0000280186166
 51
111.897827705856
  0
ARC
  5
E219
330
1F
100
AcDbEntity
  8
freecads.com
100
AcDbCircle
 10
244.1874190549389
 20
70.1808796666281
 30
0.0
 40
6.18111592763469
100
AcDbArc
 50
54.21569787922575
 51
90.00004143970484
  0
ARC
  5
E21A
330
1F
100
AcDbEntity
  8
freecads.com
100
AcDbCircle
 10
238.6670901198996
 20
62.52232403652473
 30
0.0
 40
15.62185243971215
100
AcDbArc
 50
36.30311756768439
 51
54.21571716054315
  0
ARC
  5
E21B
330
1F
100
AcDbEntity
  8
freecads.com
100
AcDbCircle
 10
228.6869868020986
 20
55.19041624130281
 30
0.0
 40
28.00568602027075
100
AcDbArc
 50
23.25030250203426
 51
36.30304665431417
  0
ARC
  5
E21C
330
1F
100
AcDbEntity
  8
freecads.com
100
AcDbCircle
 10
191.9091008283395
 20
39.38922345936393
 30
0.0
 40
68.03430815530517
100
AcDbArc
 50
16.52474295467591
 51
23.25025295062694
  0
ARC
  5
E21D
330
1F
100
AcDbEntity
  8
freecads.com
100
AcDbCircle
 10
314.515792996459
 20
75.76454646723309
 30
0.0
 40
59.85456973615207
100
AcDbArc
 50
196.524711672793
 51
202.0936818452698
  0
ARC
  5
E21E
330
1F
100
AcDbEntity
  8
freecads.com
100
AcDbCircle
 10
277.5089827032971
 20
60.74239339237632
 30
0.0
 40
19.91500174802126
100
AcDbArc
 50
202.0936840676317
 51
214.7441046065374
  0
ARC
  5
E21F
330
1F
100
AcDbEntity
  8
freecads.com
100
AcDbCircle
 10
278.8474901820773
 20
61.67078947674767
 30
0.0
 40
21.54396508677318
100
AcDbArc
 50
214.74420162672
 51
226.781049177288
  0
ARC
  5
E220
330
1F
100
AcDbEntity
  8
freecads.com
100
AcDbCircle
 10
317.3130267191555
 20
102.6052389404811
 30
0.0
 40
77.71536932401741
100
AcDbArc
 50
226.781025932697
 51
231.4142480991467
  0
ARC
  5
E221
330
1F
100
AcDbEntity
  8
freecads.com
100
AcDbCircle
 10
229.7706385218881
 20
-7.113039577534586
 30
0.0
 40
62.64762570047407
100
AcDbArc
 50
45.47485097393562
 51
51.41417660777565
  0
ARC
  5
E222
330
1F
100
AcDbEntity
  8
freecads.com
100
AcDbCircle
 10
268.2389183943633
 20
31.99822867908173
 30
0.0
 40
7.788717025702343
100
AcDbArc
 50
17.8933534298873
 51
45.47476443671823
  0
ARC
  5
E223
330
1F
100
AcDbEntity
  8
freecads.com
100
AcDbCircle
 10
270.243193945953
 20
32.64534054168493
 30
0.0
 40
5.682565499959613
100
AcDbArc
 50
343.7841374254185
 51
17.89330306064005
  0
ARC
  5
E224
330
1F
100
AcDbEntity
  8
freecads.com
100
AcDbCircle
 10
250.0166282114988
 20
38.52778221112916
 30
0.0
 40
26.7471585747031
100
AcDbArc
 50
332.9710411699482
 51
343.7841206614013
  0
ARC
  5
E225
330
1F
100
AcDbEntity
  8
freecads.com
100
AcDbCircle
 10
285.2719921833669
 20
20.54184407630768
 30
0.0
 40
12.83105082616551
100
AcDbArc
 50
152.9711125198983
 51
173.5614946450277
  0
ARC
  5
E226
330
1F
100
AcDbEntity
  8
freecads.com
100
AcDbCircle
 10
277.8282091806068
 20
21.38186463863698
 30
0.0
 40
5.340020193648249
100
AcDbArc
 50
173.561501430459
 51
213.1744145898044
  0
ARC
  5
E227
330
1F
100
AcDbEntity
  8
freecads.com
100
AcDbCircle
 10
275.0358330618293
 20
19.55636470466728
 30
0.0
 40
2.003882546961439
100
AcDbArc
 50
213.1744008311906
 51
287.618622060751
  0
ARC
  5
E228
330
1F
100
AcDbEntity
  8
freecads.com
100
AcDbCircle
 10
274.0962195112989
 20
22.51505876783798
 30
0.0
 40
5.108193128040515
100
AcDbArc
 50
287.6186435471277
 51
324.9915379469744
  0
ARC
  5
E229
330
1F
100
AcDbEntity
  8
freecads.com
100
AcDbCircle
 10
273.6539359393974
 20
22.82484682015441
 30
0.0
 40
5.64817775313041
100
AcDbArc
 50
324.9915345932207
 51
337.6357860130888
  0
ARC
  5
E22A
330
1F
100
AcDbEntity
  8
freecads.com
100
AcDbCircle
 10
266.7078224573379
 20
25.68276057863644
 30
0.0
 40
13.15924715479002
100
AcDbArc
 50
337.6357597031699
 51
344.3560030219282
  0
ARC
  5
E22B
330
1F
100
AcDbEntity
  8
freecads.com
100
AcDbCircle
 10
265.9444276694231
 20
25.89652559949339
 30
0.0
 40
13.95200631510208
100
AcDbArc
 50
344.3560452246148
 51
350.9556110057365
  0
ARC
  5
E22C
330
1F
100
AcDbEntity
  8
freecads.com
100
AcDbCircle
 10
270.6749828624634
 20
25.14352052605849
 30
0.0
 40
9.161894721932668
100
AcDbArc
 50
350.9556197486946
 51
359.9999879191863
  0
ARC
  5
E22D
330
1F
100
AcDbEntity
  8
freecads.com
100
AcDbCircle
 10
293.0017511979496
 20
25.14352260921245
 30
0.0
 40
13.16487361355455
100
AcDbArc
 50
169.395954343532
 51
180.0000174738033
  0
ARC
  5
E22E
330
1F
100
AcDbEntity
  8
freecads.com
100
AcDbCircle
 10
280.4726678886983
 20
27.48919307513446
 30
0.0
 40
0.4181054543367729
100
AcDbArc
 50
48.04930089768411
 51
169.3960327452967
  0
ARC
  5
E22F
330
1F
100
AcDbEntity
  8
freecads.com
100
AcDbCircle
 10
278.8706926869018
 20
25.70694274988804
 30
0.0
 40
2.814507083661502
100
AcDbArc
 50
13.49146284522836
 51
48.04923258684713
  0
ARC
  5
E230
330
1F
100
AcDbEntity
  8
freecads.com
100
AcDbCircle
 10
242.6243448208225
 20
17.01071288847546
 30
0.0
 40
40.08946043616271
100
AcDbArc
 50
8.528540009350392
 51
13.49141210074626
  0
ARC
  5
E231
330
1F
100
AcDbEntity
  8
freecads.com
100
AcDbCircle
 10
306.0828792234061
 20
26.52693626999993
 30
0.0
 40
24.07863207072998
100
AcDbArc
 50
188.5284544831291
 51
196.9238002097711
  0
ARC
  5
E232
330
1F
100
AcDbEntity
  8
freecads.com
100
AcDbCircle
 10
287.7115961097189
 20
20.93696727611844
 30
0.0
 40
4.875720921756395
100
AcDbArc
 50
196.9236917280546
 51
224.3523957207683
  0
ARC
  5
E233
330
1F
100
AcDbEntity
  8
freecads.com
100
AcDbCircle
 10
285.8387432296623
 20
19.10597634322934
 30
0.0
 40
2.256540571601422
100
AcDbArc
 50
224.3523285539835
 51
269.1698980057728
  0
ARC
  5
E234
330
1F
100
AcDbEntity
  8
freecads.com
100
AcDbCircle
 10
285.8646445821106
 20
20.89349673501223
 30
0.0
 40
4.044248610152936
100
AcDbArc
 50
269.169870782628
 51
298.1549701379531
  0
ARC
  5
E235
330
1F
100
AcDbEntity
  8
freecads.com
100
AcDbCircle
 10
285.8069206451729
 20
21.00135497221875
 30
0.0
 40
4.166581975302969
100
AcDbArc
 50
298.1549695403897
 51
325.6123644438306
  0
ARC
  5
E236
330
1F
100
AcDbEntity
  8
freecads.com
100
AcDbCircle
 10
286.9778922028091
 20
20.19994758066772
 30
0.0
 40
2.747628770994789
100
AcDbArc
 50
325.6123222132856
 51
3.106818674394924
  0
ARC
  5
E237
330
1F
100
AcDbEntity
  8
freecads.com
100
AcDbCircle
 10
284.43904202864
 20
20.0621447707252
 30
0.0
 40
5.290216000828023
100
AcDbArc
 50
3.106824806791298
 51
27.96237165846659
  0
ARC
  5
E238
330
1F
100
AcDbEntity
  8
freecads.com
100
AcDbCircle
 10
269.1575281413062
 20
11.94968883140412
 30
0.0
 40
22.59156300203567
100
AcDbArc
 50
27.96237088844788
 51
36.41905470517622
  0
ARC
  5
E239
330
1F
100
AcDbEntity
  8
freecads.com
100
AcDbCircle
 10
307.9992738799957
 20
40.60624003305004
 30
0.0
 40
25.67725859950732
100
AcDbArc
 50
212.651170237259
 51
216.4190595524094
  0
ARC
  5
E23A
330
1F
100
AcDbEntity
  8
freecads.com
100
AcDbCircle
 10
303.6791752215395
 20
37.8380127040817
 30
0.0
 40
20.54633909489382
100
AcDbArc
 50
208.1978574061094
 51
212.6512415269749
  0
ARC
  5
E23B
330
1F
100
AcDbEntity
  8
freecads.com
100
AcDbCircle
 10
301.3740005562468
 20
36.60211328283352
 30
0.0
 40
17.93075548567989
100
AcDbArc
 50
203.9266456024266
 51
208.1978951574097
  0
ARC
  5
E23C
330
1F
100
AcDbEntity
  8
freecads.com
100
AcDbCircle
 10
286.5502640925225
 20
30.02488789456205
 30
0.0
 40
1.713386508127802
100
AcDbArc
 50
179.999909721983
 51
203.9266366098793
  0
ARC
  5
E23D
330
1F
100
AcDbEntity
  8
freecads.com
100
AcDbCircle
 10
285.6067894644621
 20
30.02489008783035
 30
0.0
 40
0.7699118800666685
100
AcDbArc
 50
112.2840005083644
 51
179.9999623122301
  0
ARC
  5
E23E
330
1F
100
AcDbEntity
  8
freecads.com
100
AcDbCircle
 10
285.7159617517937
 20
29.7584879436234
 30
0.0
 40
1.057815841064918
100
AcDbArc
 50
58.65223699679857
 51
112.2839854552628
  0
ARC
  5
E23F
330
1F
100
AcDbEntity
  8
freecads.com
100
AcDbCircle
 10
283.049455121076
 20
25.3811056702851
 30
0.0
 40
6.18341172628547
100
AcDbArc
 50
40.5784758154767
 51
58.65211118286083
  0
ARC
  5
E240
330
1F
100
AcDbEntity
  8
freecads.com
100
AcDbCircle
 10
272.0913189985404
 20
15.99597584007082
 30
0.0
 40
20.6112116004861
100
AcDbArc
 50
33.20592783548269
 51
40.57849638304847
  0
ARC
  5
E241
330
1F
100
AcDbEntity
  8
freecads.com
100
AcDbCircle
 10
307.429617536709
 20
39.12594227928806
 30
0.0
 40
21.6237347242358
100
AcDbArc
 50
213.2059495351878
 51
221.6884956913581
  0
ARC
  5
E242
330
1F
100
AcDbEntity
  8
freecads.com
100
AcDbCircle
 10
296.5301941398685
 20
29.4188342493779
 30
0.0
 40
7.028345839798819
100
AcDbArc
 50
221.6884893103618
 51
241.2920744738094
  0
ARC
  5
E243
330
1F
100
AcDbEntity
  8
freecads.com
100
AcDbCircle
 10
294.779262700311
 20
26.22173866160105
 30
0.0
 40
3.383187255676789
100
AcDbArc
 50
241.2920431125948
 51
271.6342867921822
  0
ARC
  5
E244
330
1F
100
AcDbEntity
  8
freecads.com
100
AcDbCircle
 10
294.8044613291168
 20
25.33851965215021
 30
0.0
 40
2.499608855336016
100
AcDbArc
 50
271.6343066546697
 51
309.6901265315742
  0
ARC
  5
E245
330
1F
100
AcDbEntity
  8
freecads.com
100
AcDbCircle
 10
293.8885350097153
 20
26.44214134893795
 30
0.0
 40
3.933799174711497
100
AcDbArc
 50
309.6901618684162
 51
340.3764259592382
  0
ARC
  5
E246
330
1F
100
AcDbEntity
  8
freecads.com
100
AcDbCircle
 10
295.0544819729949
 20
26.02642599554187
 30
0.0
 40
2.695957675878605
100
AcDbArc
 50
340.37641968142
 51
21.08397393482166
  0
ARC
  5
E247
330
1F
100
AcDbEntity
  8
freecads.com
100
AcDbCircle
 10
292.3151085468235
 20
24.97026326115323
 30
0.0
 40
5.631881123366068
100
AcDbArc
 50
21.08403769033866
 51
46.70984592508753
  0
ARC
  5
E248
330
1F
100
AcDbEntity
  8
freecads.com
100
AcDbCircle
 10
279.7953926414812
 20
11.6800897483134
 30
0.0
 40
23.89035856130929
100
AcDbArc
 50
46.70984384552148
 51
55.47136897052531
  0
ARC
  5
E249
330
1F
100
AcDbEntity
  8
freecads.com
100
AcDbCircle
 10
335.7143244056024
 20
92.95550141389126
 30
0.0
 40
74.76368074297183
100
AcDbArc
 50
233.8510268402135
 51
235.4713244882239
  0
ARC
  5
E24A
330
1F
100
AcDbEntity
  8
freecads.com
100
AcDbCircle
 10
316.4173739258586
 20
66.54025904724571
 30
0.0
 40
42.05072723666329
100
AcDbArc
 50
231.3580916968271
 51
233.8510473268586
  0
ARC
  5
E24B
330
1F
100
AcDbEntity
  8
freecads.com
100
AcDbCircle
 10
333.3567081274342
 20
87.72797113211513
 30
0.0
 40
69.17747025133218
100
AcDbArc
 50
230.091627354269
 51
231.35808037366
  0
ARC
  5
E24C
330
1F
100
AcDbEntity
  8
freecads.com
100
AcDbCircle
 10
289.222475564111
 20
34.95969271903035
 30
0.0
 40
0.3855979797162632
100
AcDbArc
 50
180.0000185397697
 51
230.0916133143506
  0
ARC
  5
E24D
330
1F
100
AcDbEntity
  8
freecads.com
100
AcDbCircle
 10
289.0189643005834
 20
34.95969314296039
 30
0.0
 40
0.1820867161885953
100
AcDbArc
 50
90.76582092913106
 51
180.0001726557096
  0
ARC
  5
E24E
330
1F
100
AcDbEntity
  8
freecads.com
100
AcDbCircle
 10
289.7082759674341
 20
-16.61943505604191
 30
0.0
 40
51.76582074488077
100
AcDbArc
 50
89.09494953918352
 51
90.76566487388531
  0
ARC
  5
E24F
330
1F
100
AcDbEntity
  8
freecads.com
100
AcDbCircle
 10
289.9872789743714
 20
1.040173783910937
 30
0.0
 40
34.10400806732866
100
AcDbArc
 50
85.97348412887781
 51
89.09499434287596
  0
ARC
  5
E250
330
1F
100
AcDbEntity
  8
freecads.com
100
AcDbCircle
 10
287.5847139703147
 20
-33.09132756150044
 30
0.0
 40
68.3199649104509
100
AcDbArc
 50
84.11738361820644
 51
85.97349710885017
  0
ARC
  5
E251
330
1F
100
AcDbEntity
  8
freecads.com
100
AcDbCircle
 10
299.2594430943319
 20
80.2187939612139
 30
0.0
 40
45.59001243838235
100
AcDbArc
 50
264.1173690938453
 51
269.5310423085942
  0
ARC
  5
E252
330
1F
100
AcDbEntity
  8
freecads.com
100
AcDbCircle
 10
298.9351706651615
 20
40.60128153595527
 30
0.0
 40
5.971172937788094
100
AcDbArc
 50
269.5310573047471
 51
293.7522201933965
  0
ARC
  5
E253
330
1F
100
AcDbEntity
  8
freecads.com
100
AcDbCircle
 10
300.5809983254331
 20
36.86125059769423
 30
0.0
 40
1.885028042357396
100
AcDbArc
 50
293.7521736006251
 51
344.7672389536482
  0
ARC
  5
E254
330
1F
100
AcDbEntity
  8
freecads.com
100
AcDbCircle
 10
299.1165560930495
 20
37.2600281687863
 30
0.0
 40
3.402794362707709
100
AcDbArc
 50
344.7672694817681
 51
17.60875955018556
  0
ARC
  5
E255
330
1F
100
AcDbEntity
  8
freecads.com
100
AcDbCircle
 10
298.978921830767
 20
37.21634129693651
 30
0.0
 40
3.547195653960208
100
AcDbArc
 50
17.60881422954099
 51
39.71620620611684
  0
ARC
  5
E256
330
1F
100
AcDbEntity
  8
freecads.com
100
AcDbCircle
 10
300.4383134369601
 20
38.42865068168416
 30
0.0
 40
1.649956105413321
100
AcDbArc
 50
39.71616201209428
 51
78.87677227521786
  0
ARC
  5
E257
330
1F
100
AcDbEntity
  8
freecads.com
100
AcDbCircle
 10
299.5017598903979
 20
33.66516935792773
 30
0.0
 40
6.50463290900444
100
AcDbArc
 50
78.87685819777134
 51
94.19871685165764
  0
ARC
  5
E258
330
1F
100
AcDbEntity
  8
freecads.com
100
AcDbCircle
 10
311.6152990755764
 20
-131.3405952590784
 30
0.0
 40
171.9544445995412
100
AcDbArc
 50
94.19871303946617
 51
95.62765126405635
  0
ARC
  5
E259
330
1F
100
AcDbEntity
  8
freecads.com
100
AcDbCircle
 10
287.2799694037058
 20
115.6240335555065
 30
0.0
 40
76.20626170947081
100
AcDbArc
 50
271.6729544322725
 51
275.6275749642301
  0
ARC
  5
E25A
330
1F
100
AcDbEntity
  8
freecads.com
100
AcDbCircle
 10
289.4526365450257
 20
41.2352303732276
 30
0.0
 40
1.785736843018533
100
AcDbArc
 50
212.7980330608921
 51
271.672842023495
  0
ARC
  5
E25B
330
1F
100
AcDbEntity
  8
freecads.com
100
AcDbCircle
 10
289.2191002883519
 20
41.08473713828592
 30
0.0
 40
1.507910643852317
100
AcDbArc
 50
146.2978242550881
 51
212.7980096032835
  0
ARC
  5
E25C
330
1F
100
AcDbEntity
  8
freecads.com
100
AcDbCircle
 10
336.6858153028334
 20
9.4257834320941
 30
0.0
 40
58.56383394754525
100
AcDbArc
 50
141.525787245842
 51
146.2978359105546
  0
ARC
  5
E25D
330
1F
100
AcDbEntity
  8
freecads.com
100
AcDbCircle
 10
202.929212393934
 20
115.7220993095232
 30
0.0
 40
112.2862043634277
100
AcDbArc
 50
321.5258813052018
 51
323.2866605562794
  0
ARC
  5
E25E
330
1F
100
AcDbEntity
  8
freecads.com
100
AcDbCircle
 10
289.3954289117356
 20
51.24084005978678
 30
0.0
 40
4.424072948670969
100
AcDbArc
 50
323.2867338731141
 51
341.6418540789301
  0
ARC
  5
E25F
330
1F
100
AcDbEntity
  8
freecads.com
100
AcDbCircle
 10
292.0628797141727
 20
50.35565910531826
 30
0.0
 40
1.613585605598964
100
AcDbArc
 50
341.6419156383786
 51
18.88671444994746
  0
ARC
  5
E260
330
1F
100
AcDbEntity
  8
freecads.com
100
AcDbCircle
 10
287.5912881460063
 20
48.82585425087913
 30
0.0
 40
6.339623485807354
100
AcDbArc
 50
18.8866732034808
 51
32.35947510889306
  0
ARC
  5
E261
330
1F
100
AcDbEntity
  8
freecads.com
100
AcDbCircle
 10
291.3294129763272
 20
51.19443062241938
 30
0.0
 40
1.914272508216363
100
AcDbArc
 50
32.3595425833703
 51
82.75834579113432
  0
ARC
  5
E262
330
1F
100
AcDbEntity
  8
freecads.com
100
AcDbCircle
 10
291.2147721259208
 20
50.29219899634503
 30
0.0
 40
2.823758314406897
100
AcDbArc
 50
82.75842559394822
 51
120.4753205708923
  0
ARC
  5
E263
330
1F
100
AcDbEntity
  8
freecads.com
100
AcDbCircle
 10
292.9071956092412
 20
47.4162154290187
 30
0.0
 40
6.160759771766386
100
AcDbArc
 50
120.4753838519659
 51
144.0311764093405
  0
ARC
  5
E264
330
1F
100
AcDbEntity
  8
freecads.com
100
AcDbCircle
 10
297.7645940254843
 20
43.89114125224827
 30
0.0
 40
12.16246513989602
100
AcDbArc
 50
144.0311600362051
 51
158.192668360331
  0
ARC
  5
E265
330
1F
100
AcDbEntity
  8
freecads.com
100
AcDbCircle
 10
260.2412320995391
 20
58.9050246389614
 30
0.0
 40
28.25311829738586
100
AcDbArc
 50
334.8133047977896
 51
338.1925941347512
  0
ARC
  5
E266
330
1F
100
AcDbEntity
  8
freecads.com
100
AcDbCircle
 10
266.2774527486509
 20
56.06630866922736
 30
0.0
 40
21.5827159046077
100
AcDbArc
 50
330.6779103476924
 51
334.8133000272118
  0
ARC
  5
E267
330
1F
100
AcDbEntity
  8
freecads.com
100
AcDbCircle
 10
268.2056988048899
 20
54.98324608820788
 30
0.0
 40
19.37111978239325
100
AcDbArc
 50
326.8454185138155
 51
330.6779197000291
  0
ARC
  5
E268
330
1F
100
AcDbEntity
  8
freecads.com
100
AcDbCircle
 10
283.1826892040154
 20
45.19952358592657
 30
0.0
 40
1.481696442969929
100
AcDbArc
 50
301.7174953942952
 51
326.8454839652956
  0
ARC
  5
E269
330
1F
100
AcDbEntity
  8
freecads.com
100
AcDbCircle
 10
283.2188416545942
 20
45.14103112747565
 30
0.0
 40
1.412933317857072
100
AcDbArc
 50
238.9221646604243
 51
301.7174231774837
  0
ARC
  5
E26A
330
1F
100
AcDbEntity
  8
freecads.com
100
AcDbCircle
 10
369.3398207635292
 20
188.0298585015969
 30
0.0
 40
168.2483013638198
100
AcDbArc
 50
236.8246515687177
 51
238.9220769069371
  0
ARC
  5
E26B
330
1F
100
AcDbEntity
  8
freecads.com
100
AcDbCircle
 10
325.7341230950806
 20
121.3307829457788
 30
0.0
 40
88.56001145148489
100
AcDbArc
 50
232.8123052232226
 51
236.824662454521
  0
ARC
  5
E26C
330
1F
100
AcDbEntity
  8
freecads.com
100
AcDbCircle
 10
288.107770832201
 20
71.73783868686391
 30
0.0
 40
26.30888692450019
100
AcDbArc
 50
222.904782835806
 51
232.8123804607636
  0
ARC
  5
E26D
330
1F
100
AcDbEntity
  8
freecads.com
100
AcDbCircle
 10
275.4231674026633
 20
59.94861360754097
 30
0.0
 40
8.991699158137977
100
AcDbArc
 50
206.7985066263759
 51
222.9048257105731
  0
ARC
  5
E26E
330
1F
100
AcDbEntity
  8
freecads.com
100
AcDbCircle
 10
274.5083757563953
 20
59.48654921980217
 30
0.0
 40
7.96683465270406
100
AcDbArc
 50
189.1622386057555
 51
206.7985078898585
  0
ARC
  5
E26F
330
1F
100
AcDbEntity
  8
freecads.com
100
AcDbCircle
 10
296.5285078314519
 20
63.03815601976188
 30
0.0
 40
30.27154553324162
100
AcDbArc
 50
181.9330218310435
 51
189.1622672968549
  0
ARC
  5
E270
330
1F
100
AcDbEntity
  8
freecads.com
100
AcDbCircle
 10
1033.794639992648
 20
87.92168942000884
 30
0.0
 40
767.9574813259754
100
AcDbArc
 50
181.2393243322127
 51
181.9330595117015
  0
LINE
  5
E271
330
1F
100
AcDbEntity
  8
freecads.com
100
AcDbLine
 10
266.0168035843927
 20
71.31184159426069
 30
0.0
 11
265.6967295843898
 21
86.10659559425934
 31
0.0
  0
LINE
  5
E272
330
1F
100
AcDbEntity
  8
freecads.com
100
AcDbLine
 10
265.6967295843898
 20
86.10659559425934
 30
0.0
 11
268.4016625843906
 21
88.23429559426026
 31
0.0
  0
ARC
  5
E273
330
1F
100
AcDbEntity
  8
freecads.com
100
AcDbCircle
 10
273.7929798183287
 20
81.38035256206952
 30
0.0
 40
8.720254388805006
100
AcDbArc
 50
113.7307896001191
 51
128.1886193610225
  0
ARC
  5
E274
330
1F
100
AcDbEntity
  8
freecads.com
100
AcDbCircle
 10
273.8741514197864
 20
81.19570258109328
 30
0.0
 40
8.921958241899938
100
AcDbArc
 50
99.51881124024788
 51
113.7307752035142
  0
ARC
  5
E275
330
1F
100
AcDbEntity
  8
freecads.com
100
AcDbCircle
 10
276.1409853614132
 20
67.67691392893343
 30
0.0
 40
22.62948109399323
100
AcDbArc
 50
91.60918070895672
 51
99.51881516209237
  0
ARC
  5
E276
330
1F
100
AcDbEntity
  8
freecads.com
100
AcDbCircle
 10
281.7006873126484
 20
-130.2175528983772
 30
0.0
 40
220.6020304200151
100
AcDbArc
 50
90.1243953957327
 51
91.60925204094418
  0
ARC
  5
E277
330
1F
100
AcDbEntity
  8
freecads.com
100
AcDbCircle
 10
281.0572127825399
 20
166.1755115716094
 30
0.0
 40
75.79173254638558
100
AcDbArc
 50
270.1243740784386
 51
276.9687258903606
  0
ARC
  5
E278
330
1F
100
AcDbEntity
  8
freecads.com
100
AcDbCircle
 10
288.0170578951766
 20
109.2352716628137
 30
0.0
 40
18.42771625687874
100
AcDbArc
 50
276.9686973301713
 51
296.5417957561592
  0
ARC
  5
E279
330
1F
100
AcDbEntity
  8
freecads.com
100
AcDbCircle
 10
284.7489866264041
 20
115.7781099884431
 30
0.0
 40
25.74133527707686
100
AcDbArc
 50
296.5417379535216
 51
312.1752350268491
  0
ARC
  5
E27A
330
1F
100
AcDbEntity
  8
freecads.com
100
AcDbCircle
 10
158.1720155419498
 20
255.4947035651765
 30
0.0
 40
214.2684052951387
100
AcDbArc
 50
312.1751752629312
 51
315.4598319785526
  0
ARC
  5
E27B
330
1F
100
AcDbEntity
  8
freecads.com
100
AcDbCircle
 10
172.5998559335313
 20
241.2968170771327
 30
0.0
 40
194.0263066127448
100
AcDbArc
 50
315.459787952499
 51
320.8040569282811
  0
ARC
  5
E27C
330
1F
100
AcDbEntity
  8
freecads.com
100
AcDbCircle
 10
314.4981382898659
 20
125.58413410343
 30
0.0
 40
10.92920795563701
100
AcDbArc
 50
320.8040464870361
 51
4.215149581537722
  0
ARC
  5
E27D
330
1F
100
AcDbEntity
  8
freecads.com
100
AcDbCircle
 10
320.0355470213509
 20
125.9922462212579
 30
0.0
 40
5.376780472075395
100
AcDbArc
 50
4.215169046078241
 51
75.21090250605972
  0
ARC
  5
E27E
330
1F
100
AcDbEntity
  8
freecads.com
100
AcDbCircle
 10
306.1269303614864
 20
73.30965909962273
 30
0.0
 40
59.86443598430803
100
AcDbArc
 50
75.21090187832509
 51
87.40544424587223
  0
ARC
  5
E27F
330
1F
100
AcDbEntity
  8
freecads.com
100
AcDbCircle
 10
305.1230213942509
 20
51.15510869361045
 30
0.0
 40
82.04172023885258
100
AcDbArc
 50
87.40545388905678
 51
93.49502012557406
  0
ARC
  5
E280
330
1F
100
AcDbEntity
  8
freecads.com
100
AcDbCircle
 10
309.1518129820434
 20
-14.81040292882441
 30
0.0
 40
148.1301449837659
100
AcDbArc
 50
93.49499035195199
 51
97.40768272770012
  0
ARC
  5
E281
330
1F
100
AcDbEntity
  8
freecads.com
100
AcDbCircle
 10
308.8250570709097
 20
-12.29802100483554
 30
0.0
 40
145.5966035207302
100
AcDbArc
 50
97.4076390600814
 51
101.1113741520551
  0
ARC
  5
E282
330
1F
100
AcDbEntity
  8
freecads.com
100
AcDbCircle
 10
285.289035255777
 20
107.5400274636357
 30
0.0
 40
23.46920207613079
100
AcDbArc
 50
101.111314342283
 51
115.3858322506459
  0
ARC
  5
E283
330
1F
100
AcDbEntity
  8
freecads.com
100
AcDbCircle
 10
278.8230552331843
 20
121.1660522128166
 30
0.0
 40
8.386846553274992
100
AcDbArc
 50
115.3858548883841
 51
128.6444133592858
  0
ARC
  5
E284
330
1F
100
AcDbEntity
  8
freecads.com
100
AcDbCircle
 10
295.8805262799033
 20
99.83246828679135
 30
0.0
 40
35.70129550686746
100
AcDbArc
 50
128.644416642971
 51
133.1656129634139
  0
ARC
  5
E285
330
1F
100
AcDbEntity
  8
freecads.com
100
AcDbCircle
 10
299.3362914403443
 20
96.14798882010823
 30
0.0
 40
40.7528004097693
100
AcDbArc
 50
133.1655797498999
 51
137.5912431180388
  0
ARC
  5
E286
330
1F
100
AcDbEntity
  8
freecads.com
100
AcDbCircle
 10
296.0168407132697
 20
99.17998567463824
 30
0.0
 40
36.25705152273059
100
AcDbArc
 50
137.5912330125194
 51
142.422384970898
  0
ARC
  5
E287
330
1F
100
AcDbEntity
  8
freecads.com
100
AcDbCircle
 10
225.1268605738188
 20
153.7285356681876
 30
0.0
 40
53.19088635495754
100
AcDbArc
 50
319.2786274528871
 51
322.4223642762321
  0
ARC
  5
E288
330
1F
100
AcDbEntity
  8
freecads.com
100
AcDbCircle
 10
234.8349105721973
 20
145.3719468437937
 30
0.0
 40
40.38156117564382
100
AcDbArc
 50
315.4136409052073
 51
319.278676916708
  0
ARC
  5
E289
330
1F
100
AcDbEntity
  8
freecads.com
100
AcDbCircle
 10
237.3884881792365
 20
142.8549322564957
 30
0.0
 40
36.79601783790965
100
AcDbArc
 50
311.8847776841381
 51
315.4136896008659
  0
ARC
  5
E28A
330
1F
100
AcDbEntity
  8
freecads.com
100
AcDbCircle
 10
260.1995688879288
 20
117.4179733679064
 30
0.0
 40
2.629012107259981
100
AcDbArc
 50
287.6087935047044
 51
311.8848001440301
  0
ARC
  5
E28B
330
1F
100
AcDbEntity
  8
freecads.com
100
AcDbCircle
 10
259.2699367798815
 20
120.346980707034
 30
0.0
 40
5.702007364168295
100
AcDbArc
 50
251.3006623626674
 51
287.608807481077
  0
ARC
  5
E28C
330
1F
100
AcDbEntity
  8
freecads.com
100
AcDbCircle
 10
279.3441409536573
 20
179.6560724888894
 30
0.0
 40
68.3162393022707
100
AcDbArc
 50
245.4097031958077
 51
251.3007033979539
  0
ARC
  5
E28D
330
1F
100
AcDbEntity
  8
freecads.com
100
AcDbCircle
 10
277.0037803453998
 20
174.5420293174118
 30
0.0
 40
62.69211934122989
100
AcDbArc
 50
238.7187838184281
 51
245.4097168042451
  0
ARC
  5
E28E
330
1F
100
AcDbEntity
  8
freecads.com
100
AcDbCircle
 10
254.0803908993439
 20
136.8117859524589
 30
0.0
 40
18.54403843080836
100
AcDbArc
 50
222.1447446969809
 51
238.7187328021257
  0
ARC
  5
E28F
330
1F
100
AcDbEntity
  8
freecads.com
100
AcDbCircle
 10
248.3863195614067
 20
131.6587104147346
 30
0.0
 40
10.86441370697024
100
AcDbArc
 50
213.4820667092019
 51
222.144727729167
  0
ARC
  5
E290
330
1F
100
AcDbEntity
  8
freecads.com
100
AcDbCircle
 10
240.7956615859694
 20
126.6379789541441
 30
0.0
 40
1.7635438090191
100
AcDbArc
 50
180.2715557931682
 51
213.4820527921321
  0
ARC
  5
E291
330
1F
100
AcDbEntity
  8
freecads.com
100
AcDbCircle
 10
242.2058559373946
 20
126.6446631445486
 30
0.0
 40
3.173754001576861
100
AcDbArc
 50
158.3512820709591
 51
180.2715641700819
  0
ARC
  5
E292
330
1F
100
AcDbEntity
  8
freecads.com
100
AcDbCircle
 10
293.7283905767291
 20
106.1948547915834
 30
0.0
 40
58.60629171485375
100
AcDbArc
 50
155.7275698182629
 51
158.3513726986583
  0
ARC
  5
E293
330
1F
100
AcDbEntity
  8
freecads.com
100
AcDbCircle
 10
255.939171840375
 20
123.2354836089888
 30
0.0
 40
17.15260571234814
100
AcDbArc
 50
149.3044184119536
 51
155.7276556109317
  0
ARC
  5
E294
330
1F
100
AcDbEntity
  8
freecads.com
100
AcDbCircle
 10
267.9709195817596
 20
116.0928090067953
 30
0.0
 40
31.14477331372841
100
AcDbArc
 50
145.1946882007594
 51
149.3044176756592
  0
ARC
  5
E295
330
1F
100
AcDbEntity
  8
freecads.com
100
AcDbCircle
 10
267.4794286826982
 20
116.4344854584832
 30
0.0
 40
30.54618656031063
100
AcDbArc
 50
141.0652765958959
 51
145.194709451512
  0
ARC
  5
E296
330
1F
100
AcDbEntity
  8
freecads.com
100
AcDbCircle
 10
254.8254899878703
 20
126.6576187663212
 30
0.0
 40
14.27859241976394
100
AcDbArc
 50
133.7729148707096
 51
141.0653514088642
  0
ARC
  5
E297
330
1F
100
AcDbEntity
  8
freecads.com
100
AcDbCircle
 10
255.91475681667
 20
125.5207074030384
 30
0.0
 40
15.85309858728466
100
AcDbArc
 50
125.3339566250793
 51
133.7730173083869
  0
ARC
  5
E298
330
1F
100
AcDbEntity
  8
freecads.com
100
AcDbCircle
 10
249.8591029151176
 20
134.0626748744124
 30
0.0
 40
5.382370224014597
100
AcDbArc
 50
106.4478995358962
 51
125.3339542538434
  0
ARC
  5
E299
330
1F
100
AcDbEntity
  8
freecads.com
100
AcDbCircle
 10
250.6046112716031
 20
131.5374587283784
 30
0.0
 40
8.015334199037257
100
AcDbArc
 50
91.8999202671952
 51
106.4479153278921
  0
ARC
  5
E29A
330
1F
100
AcDbEntity
  8
freecads.com
100
AcDbCircle
 10
252.1855460899642
 20
83.8814060770836
 30
0.0
 40
55.69760248822134
100
AcDbArc
 50
88.42127729464177
 51
91.90000983885569
  0
ARC
  5
E29B
330
1F
100
AcDbEntity
  8
freecads.com
100
AcDbCircle
 10
255.0273435808522
 20
186.9923656710069
 30
0.0
 40
47.45251046062699
100
AcDbArc
 50
268.4213156176993
 51
271.8308504903591
  0
ARC
  5
E29C
330
1F
100
AcDbEntity
  8
freecads.com
100
AcDbCircle
 10
256.1315283737968
 20
152.4484660567158
 30
0.0
 40
12.89096789352231
100
AcDbArc
 50
271.8309374771042
 51
280.8213021202302
  0
ARC
  5
E29D
330
1F
100
AcDbEntity
  8
freecads.com
100
AcDbCircle
 10
257.3285858734781
 20
146.1858921872752
 30
0.0
 40
6.515014778286355
100
AcDbArc
 50
280.8213507810354
 51
293.8909994609944
  0
ARC
  5
E29E
330
1F
100
AcDbEntity
  8
freecads.com
100
AcDbCircle
 10
258.9392029468182
 20
142.5497811941112
 30
0.0
 40
2.538157914942175
100
AcDbArc
 50
293.8910452226755
 51
320.3098277830067
  0
ARC
  5
E29F
330
1F
100
AcDbEntity
  8
freecads.com
100
AcDbCircle
 10
256.2468054387464
 20
144.7842818419611
 30
0.0
 40
6.037014511989799
100
AcDbArc
 50
320.3097606542047
 51
330.1729794226535
  0
ARC
  5
E2A0
330
1F
100
AcDbEntity
  8
freecads.com
100
AcDbCircle
 10
260.4395456353123
 20
142.3804490363162
 30
0.0
 40
1.204056565412161
100
AcDbArc
 50
330.1730340484649
 51
2.75000844656227
  0
ARC
  5
E2A1
330
1F
100
AcDbEntity
  8
freecads.com
100
AcDbCircle
 10
260.4366471866998
 20
142.3803085724883
 30
0.0
 40
1.206958415323854
100
AcDbArc
 50
2.750067287137499
 51
35.2751611930134
  0
ARC
  5
E2A2
330
1F
100
AcDbEntity
  8
freecads.com
100
AcDbCircle
 10
256.4623284578157
 20
139.5689269906559
 30
0.0
 40
6.075128066990988
100
AcDbArc
 50
35.27510699733336
 51
45.09486121962527
  0
ARC
  5
E2A3
330
1F
100
AcDbEntity
  8
freecads.com
100
AcDbCircle
 10
258.4420323235136
 20
141.5552042779944
 30
0.0
 40
3.270752047623123
100
AcDbArc
 50
45.09477232967095
 51
64.99590776994648
  0
ARC
  5
E2A4
330
1F
100
AcDbEntity
  8
freecads.com
100
AcDbCircle
 10
258.6064146327736
 20
141.9076701902685
 30
0.0
 40
2.881838480258892
100
AcDbArc
 50
64.99580157035584
 51
86.87838564846217
  0
ARC
  5
E2A5
330
1F
100
AcDbEntity
  8
freecads.com
100
AcDbCircle
 10
258.4328553869673
 20
138.72513878103
 30
0.0
 40
6.069098899896695
100
AcDbArc
 50
86.8784292326549
 51
100.6618193140927
  0
ARC
  5
E2A6
330
1F
100
AcDbEntity
  8
freecads.com
100
AcDbCircle
 10
264.1816329919275
 20
108.1891116414643
 30
0.0
 40
37.14155289728167
100
AcDbArc
 50
100.6618311184252
 51
104.2734580632534
  0
ARC
  5
E2A7
330
1F
100
AcDbEntity
  8
freecads.com
100
AcDbCircle
 10
247.5119859621955
 20
173.7135522491752
 30
0.0
 40
30.47005445714581
100
AcDbArc
 50
276.3908327833324
 51
284.2734557176141
  0
ARC
  5
E2A8
330
1F
100
AcDbEntity
  8
freecads.com
100
AcDbCircle
 10
250.7506800832016
 20
144.7981685275534
 30
0.0
 40
1.373859596338919
100
AcDbArc
 50
202.0012176031755
 51
276.3908867496929
  0
ARC
  5
E2A9
330
1F
100
AcDbEntity
  8
freecads.com
100
AcDbCircle
 10
251.3126122433351
 20
145.0252203329854
 30
0.0
 40
1.979929126124731
100
AcDbArc
 50
144.3256876986086
 51
202.001286945384
  0
ARC
  5
E2AA
330
1F
100
AcDbEntity
  8
freecads.com
100
AcDbCircle
 10
289.1093539362301
 20
117.8911310139354
 30
0.0
 40
48.50790442887515
100
AcDbArc
 50
138.6446546707663
 51
144.3256278896671
  0
ARC
  5
E2AB
330
1F
100
AcDbEntity
  8
freecads.com
100
AcDbCircle
 10
178.6488003787054
 20
215.1224538568766
 30
0.0
 40
98.65005163884381
100
AcDbArc
 50
318.6445922362814
 51
320.0577174335493
  0
ARC
  5
E2AC
330
1F
100
AcDbEntity
  8
freecads.com
100
AcDbCircle
 10
210.1996217838933
 20
188.7023589633334
 30
0.0
 40
57.49818964548309
100
AcDbArc
 50
320.0576621358335
 51
322.1747955558277
  0
ARC
  5
E2AD
330
1F
100
AcDbEntity
  8
freecads.com
100
AcDbCircle
 10
182.2367049907735
 20
210.4124952989422
 30
0.0
 40
92.89952768910815
100
AcDbArc
 50
322.1747147402543
 51
323.2747852582672
  0
ARC
  5
E2AE
330
1F
100
AcDbEntity
  8
freecads.com
100
AcDbCircle
 10
256.1924025735244
 20
155.236970802145
 30
0.0
 40
0.6293607419963846
100
AcDbArc
 50
323.2748566807457
 51
1.439899516716024
  0
ARC
  5
E2AF
330
1F
100
AcDbEntity
  8
freecads.com
100
AcDbCircle
 10
254.2321569100423
 20
155.1877023722098
 30
0.0
 40
2.590225459255206
100
AcDbArc
 50
1.43979220625928
 51
29.03791816970925
  0
ARC
  5
E2B0
330
1F
100
AcDbEntity
  8
freecads.com
100
AcDbCircle
 10
253.3147627939289
 20
154.6783844369946
 30
0.0
 40
3.63951889933789
100
AcDbArc
 50
29.03797470475874
 51
50.42810521728782
  0
ARC
  5
E2B1
330
1F
100
AcDbEntity
  8
freecads.com
100
AcDbCircle
 10
253.3557423183921
 20
154.7279677962377
 30
0.0
 40
3.575192925287851
100
AcDbArc
 50
50.42812440566783
 51
72.02611837153437
  0
ARC
  5
E2B2
330
1F
100
AcDbEntity
  8
freecads.com
100
AcDbCircle
 10
253.7102610536349
 20
155.8207596622504
 30
0.0
 40
2.426333666689631
100
AcDbArc
 50
72.02611375959219
 51
100.9006932970284
  0
ARC
  5
E2B3
330
1F
100
AcDbEntity
  8
freecads.com
100
AcDbCircle
 10
253.7407549733726
 20
155.6624296897915
 30
0.0
 40
2.587573423929311
100
AcDbArc
 50
100.9007451739216
 51
130.098500612577
  0
ARC
  5
E2B4
330
1F
100
AcDbEntity
  8
freecads.com
100
AcDbCircle
 10
256.0837056814381
 20
152.8799429025438
 30
0.0
 40
6.225107030870346
100
AcDbArc
 50
130.0985267541673
 51
145.2545048517272
  0
ARC
  5
E2B5
330
1F
100
AcDbEntity
  8
freecads.com
100
AcDbCircle
 10
265.2013184627613
 20
146.5558894551412
 30
0.0
 40
17.3212556796473
100
AcDbArc
 50
145.2544988595179
 51
153.5351757571846
  0
ARC
  5
E2B6
330
1F
100
AcDbEntity
  8
freecads.com
100
AcDbCircle
 10
368.0130500196792
 20
95.37448068327089
 30
0.0
 40
132.1680612495126
100
AcDbArc
 50
153.5351151457204
 51
155.3866452739729
  0
ARC
  5
E2B7
330
1F
100
AcDbEntity
  8
freecads.com
100
AcDbCircle
 10
244.6270741976878
 20
151.8997867010274
 30
0.0
 40
3.549326177252539
100
AcDbArc
 50
324.5867643981286
 51
335.3865808004934
  0
ARC
  5
E2B8
330
1F
100
AcDbEntity
  8
freecads.com
100
AcDbCircle
 10
243.7753922499579
 20
152.505336791264
 30
0.0
 40
4.594339599110293
100
AcDbArc
 50
315.6868392558354
 51
324.5868144071558
  0
ARC
  5
E2B9
330
1F
100
AcDbEntity
  8
freecads.com
100
AcDbCircle
 10
244.0992718460148
 20
152.1891452001672
 30
0.0
 40
4.141708275733129
100
AcDbArc
 50
306.4363907642924
 51
315.686695315251
  0
ARC
  5
E2BA
330
1F
100
AcDbEntity
  8
freecads.com
100
AcDbCircle
 10
245.5502718636599
 20
150.2236674749018
 30
0.0
 40
1.698656139631609
100
AcDbArc
 50
288.4350371570306
 51
306.4364705672718
  0
ARC
  5
E2BB
330
1F
100
AcDbEntity
  8
freecads.com
100
AcDbCircle
 10
245.9649768414566
 20
148.9795607367394
 30
0.0
 40
0.3872516274579695
100
AcDbArc
 50
203.224549956506
 51
288.4349528612568
  0
ARC
  5
E2BC
330
1F
100
AcDbEntity
  8
freecads.com
100
AcDbCircle
 10
249.7258454913354
 20
150.5933752981744
 30
0.0
 40
4.479748474170843
100
AcDbArc
 50
188.8840133820415
 51
203.2245074133527
  0
ARC
  5
E2BD
330
1F
100
AcDbEntity
  8
freecads.com
100
AcDbCircle
 10
258.5032562785019
 20
151.9653619044892
 30
0.0
 40
13.36373898376349
100
AcDbArc
 50
180.8878086547738
 51
188.883970049247
  0
ARC
  5
E2BE
330
1F
100
AcDbEntity
  8
freecads.com
100
AcDbCircle
 10
309.0866705317131
 20
152.7491665398609
 30
0.0
 40
63.95322551226789
100
AcDbArc
 50
178.3840312616887
 51
180.8877572183236
  0
ARC
  5
E2BF
330
1F
100
AcDbEntity
  8
freecads.com
100
AcDbCircle
 10
93.28745639177583
 20
158.8372730792851
 30
0.0
 40
151.9318500827204
100
AcDbArc
 50
358.3839948738807
 51
359.9222488624813
  0
ARC
  5
E2C0
330
1F
100
AcDbEntity
  8
freecads.com
100
AcDbCircle
 10
241.2609193707431
 20
158.6364730794938
 30
0.0
 40
3.958250861009421
100
AcDbArc
 50
359.9222186439526
 51
21.25645852095606
  0
ARC
  5
E2C1
330
1F
100
AcDbEntity
  8
freecads.com
100
AcDbCircle
 10
243.7827707391516
 20
159.6174951615956
 30
0.0
 40
1.252305804303452
100
AcDbArc
 50
21.2564394482802
 51
70.00199453316906
  0
ARC
  5
E2C2
330
1F
100
AcDbEntity
  8
freecads.com
100
AcDbCircle
 10
241.7633176932614
 20
154.0685062790597
 30
0.0
 40
7.157343333656891
100
AcDbArc
 50
70.00195680011817
 51
83.4384440364608
  0
ARC
  5
E2C3
330
1F
100
AcDbEntity
  8
freecads.com
100
AcDbCircle
 10
242.0016869013307
 20
156.1408490819575
 30
0.0
 40
5.071336485136077
100
AcDbArc
 50
83.43844359837072
 51
108.2344197867619
  0
ARC
  5
E2C4
330
1F
100
AcDbEntity
  8
freecads.com
100
AcDbCircle
 10
240.9643734815
 20
159.2894721119608
 30
0.0
 40
1.756242803804321
100
AcDbArc
 50
108.2343435977098
 51
162.7909719545347
  0
ARC
  5
E2C5
330
1F
100
AcDbEntity
  8
freecads.com
100
AcDbCircle
 10
243.2625402283412
 20
158.5776714333677
 30
0.0
 40
4.162116990529095
100
AcDbArc
 50
162.7909404641161
 51
193.7578564456299
  0
ARC
  5
E2C6
330
1F
100
AcDbEntity
  8
freecads.com
100
AcDbCircle
 10
268.7564681240147
 20
164.8196558900652
 30
0.0
 40
30.40907356662036
100
AcDbArc
 50
193.75777372382
 51
200.9020758365653
  0
ARC
  5
E2C7
330
1F
100
AcDbEntity
  8
freecads.com
100
AcDbCircle
 10
208.3438125560316
 20
141.7478179480657
 30
0.0
 40
34.25930092043439
100
AcDbArc
 50
13.0091207805363
 51
20.90204474348974
  0
ARC
  5
E2C8
330
1F
100
AcDbEntity
  8
freecads.com
100
AcDbCircle
 10
240.0396034985789
 20
149.0706833484272
 30
0.0
 40
1.728584341399702
100
AcDbArc
 50
304.025871459379
 51
13.00909573999313
  0
ARC
  5
E2C9
330
1F
100
AcDbEntity
  8
freecads.com
100
AcDbCircle
 10
240.0955605949312
 20
148.9878044056403
 30
0.0
 40
1.628583762454804
100
AcDbArc
 50
232.172811152751
 51
304.0258692007757
  0
ARC
  5
E2CA
330
1F
100
AcDbEntity
  8
freecads.com
100
AcDbCircle
 10
258.9253419566922
 20
173.2392568012818
 30
0.0
 40
32.33189969787164
100
AcDbArc
 50
223.9544088796688
 51
232.1728287042485
  0
ARC
  5
E2CB
330
1F
100
AcDbEntity
  8
freecads.com
100
AcDbCircle
 10
219.3810071740482
 20
135.1124682358512
 30
0.0
 40
22.59902437696698
100
AcDbArc
 50
43.95446637455492
 51
54.87684924570197
  0
ARC
  5
E2CC
330
1F
100
AcDbEntity
  8
freecads.com
100
AcDbCircle
 10
228.7952597800141
 20
148.4960882390422
 30
0.0
 40
6.235973423105798
100
AcDbArc
 50
54.87689254772609
 51
83.34468839273277
  0
ARC
  5
E2CD
330
1F
100
AcDbEntity
  8
freecads.com
100
AcDbCircle
 10
229.2673526932304
 20
152.5420410059977
 30
0.0
 40
2.162571219645951
100
AcDbArc
 50
83.34473137815363
 51
138.9497025473288
  0
ARC
  5
E2CE
330
1F
100
AcDbEntity
  8
freecads.com
100
AcDbCircle
 10
230.0890796175409
 20
151.8264572082533
 30
0.0
 40
3.252202033145935
100
AcDbArc
 50
138.9497018327162
 51
179.9999755819903
  0
ARC
  5
E2CF
330
1F
100
AcDbEntity
  8
freecads.com
100
AcDbCircle
 10
231.1048959027867
 20
151.8264581914098
 30
0.0
 40
4.268018318391133
100
AcDbArc
 50
179.9999945920026
 51
198.6226561530909
  0
ARC
  5
E2D0
330
1F
100
AcDbEntity
  8
freecads.com
100
AcDbCircle
 10
229.6244934905153
 20
151.327600522958
 30
0.0
 40
2.705824260150385
100
AcDbArc
 50
198.6227476583223
 51
224.821686911879
  0
ARC
  5
E2D1
330
1F
100
AcDbEntity
  8
freecads.com
100
AcDbCircle
 10
231.3847334209241
 20
153.076924452196
 30
0.0
 40
5.187472668366499
100
AcDbArc
 50
224.8217363095574
 51
242.1850419519966
  0
ARC
  5
E2D2
330
1F
100
AcDbEntity
  8
freecads.com
100
AcDbCircle
 10
243.4985099301812
 20
176.0381952652368
 30
0.0
 40
31.14828041130855
100
AcDbArc
 50
242.1850258188088
 51
246.7976298961809
  0
ARC
  5
E2D3
330
1F
100
AcDbEntity
  8
freecads.com
100
AcDbCircle
 10
217.8696091277198
 20
116.2483579912712
 30
0.0
 40
33.9029701346251
100
AcDbArc
 50
58.53729865466331
 51
66.79760480579144
  0
ARC
  5
E2D4
330
1F
100
AcDbEntity
  8
freecads.com
100
AcDbCircle
 10
234.4889586936006
 20
143.4083458306794
 30
0.0
 40
2.061680596830064
100
AcDbArc
 50
355.0974387891173
 51
58.53725587162691
  0
ARC
  5
E2D5
330
1F
100
AcDbEntity
  8
freecads.com
100
AcDbCircle
 10
234.9377792031119
 20
143.3698478133281
 30
0.0
 40
1.611212010691533
100
AcDbArc
 50
280.0481860224547
 51
355.0974499868957
  0
ARC
  5
E2D6
330
1F
100
AcDbEntity
  8
freecads.com
100
AcDbCircle
 10
230.5974968785632
 20
167.8644229360924
 30
0.0
 40
26.48735039874531
100
AcDbArc
 50
270.2418950905463
 51
280.048152283209
  0
ARC
  5
E2D7
330
1F
100
AcDbEntity
  8
freecads.com
100
AcDbCircle
 10
230.7495325650489
 20
131.8517922125337
 30
0.0
 40
9.525601250369005
100
AcDbArc
 50
90.24186074627792
 51
114.5659100313541
  0
ARC
  5
E2D8
330
1F
100
AcDbEntity
  8
freecads.com
100
AcDbCircle
 10
228.0499233709307
 20
137.7575266378243
 30
0.0
 40
3.032097658083864
100
AcDbArc
 50
114.565874639525
 51
171.4914520004234
  0
ARC
  5
E2D9
330
1F
100
AcDbEntity
  8
freecads.com
100
AcDbCircle
 10
227.46856410486
 20
137.8444982002309
 30
0.0
 40
2.444268899930879
100
AcDbArc
 50
171.491409466892
 51
237.0116749188119
  0
ARC
  5
E2DA
330
1F
100
AcDbEntity
  8
freecads.com
100
AcDbCircle
 10
230.476827888564
 20
142.4788859041562
 30
0.0
 40
7.969411466655146
100
AcDbArc
 50
237.0116771906115
 51
264.3174749185667
  0
ARC
  5
E2DB
330
1F
100
AcDbEntity
  8
freecads.com
100
AcDbCircle
 10
227.4219345951097
 20
111.7780946543806
 30
0.0
 40
22.88299453995607
100
AcDbArc
 50
78.69008912864932
 51
84.31746613337084
  0
ARC
  5
E2DC
330
1F
100
AcDbEntity
  8
freecads.com
100
AcDbCircle
 10
231.7267313206431
 20
133.3021233794041
 30
0.0
 40
0.9327078128130269
100
AcDbArc
 50
21.4999113490168
 51
78.69005422739114
  0
ARC
  5
E2DD
330
1F
100
AcDbEntity
  8
freecads.com
100
AcDbCircle
 10
231.4717498370483
 20
133.2016849818663
 30
0.0
 40
1.206757860574231
100
AcDbArc
 50
334.1107986067988
 51
21.49986610441067
  0
ARC
  5
E2DE
330
1F
100
AcDbEntity
  8
freecads.com
100
AcDbCircle
 10
197.677231494683
 20
149.603592912057
 30
0.0
 40
38.77126309813633
100
AcDbArc
 50
330.2454778410326
 51
334.1107429704927
  0
ARC
  5
E2DF
330
1F
100
AcDbEntity
  8
freecads.com
100
AcDbCircle
 10
242.0074864403687
 20
124.2621265132237
 30
0.0
 40
12.29106570493253
100
AcDbArc
 50
150.2454927836582
 51
163.7173811205882
  0
ARC
  5
E2E0
330
1F
100
AcDbEntity
  8
freecads.com
100
AcDbCircle
 10
235.1279749228234
 20
126.2715772888676
 30
0.0
 40
5.124087880235454
100
AcDbArc
 50
163.7174458654339
 51
189.615944852279
  0
ARC
  5
E2E1
330
1F
100
AcDbEntity
  8
freecads.com
100
AcDbCircle
 10
237.5218063049288
 20
126.6771516522584
 30
0.0
 40
7.552033359481445
100
AcDbArc
 50
189.6159659606314
 51
209.8184503547577
  0
ARC
  5
E2E2
330
1F
100
AcDbEntity
  8
freecads.com
100
AcDbCircle
 10
264.9119182167524
 20
142.3753412353452
 30
0.0
 40
39.12181933798973
100
AcDbArc
 50
209.8184622268798
 51
215.7905389193855
  0
ARC
  5
E2E3
330
1F
100
AcDbEntity
  8
freecads.com
100
AcDbCircle
 10
28.25059226293893
 20
-28.25063402879293
 30
0.0
 40
252.6345972787798
100
AcDbArc
 50
35.27232796759168
 51
35.79051011467401
  0
ARC
  5
E2E4
330
1F
100
AcDbEntity
  8
freecads.com
100
AcDbCircle
 10
75.56775163729986
 20
5.217477707499561
 30
0.0
 40
194.6774745547212
100
AcDbArc
 50
34.64230687401498
 51
35.27232967847068
  0
ARC
  5
E2E5
330
1F
100
AcDbEntity
  8
freecads.com
100
AcDbCircle
 10
75.88685664449809
 20
5.437787099241027
 30
0.0
 40
194.2897063080923
100
AcDbArc
 50
34.11133283864238
 51
34.64234917294371
  0
ARC
  5
E2E6
330
1F
100
AcDbEntity
  8
freecads.com
100
AcDbCircle
 10
227.878953915646
 20
108.3880110908229
 30
0.0
 40
10.71316572407031
100
AcDbArc
 50
29.73062761806291
 51
34.1113876741105
  0
ARC
  5
E2E7
330
1F
100
AcDbEntity
  8
freecads.com
100
AcDbCircle
 10
236.8451957997132
 20
113.5086189249103
 30
0.0
 40
0.3877544434425436
100
AcDbArc
 50
278.9746616631271
 51
29.73068731022872
  0
ARC
  5
E2E8
330
1F
100
AcDbEntity
  8
freecads.com
100
AcDbCircle
 10
231.9704365970575
 20
144.3753633613831
 30
0.0
 40
31.63706146599972
100
AcDbArc
 50
274.0536015348322
 51
278.9745526137752
  0
ARC
  5
E2E9
330
1F
100
AcDbEntity
  8
freecads.com
100
AcDbCircle
 10
229.1413129003741
 20
184.2981549949598
 30
0.0
 40
71.65997031463366
100
AcDbArc
 50
270.4700904619534
 51
274.0535348286473
  0
ARC
  5
E2EA
330
1F
100
AcDbEntity
  8
freecads.com
100
AcDbCircle
 10
225.2596746149684
 20
657.444607933974
 30
0.0
 40
544.8223452394837
100
AcDbArc
 50
269.6667607913892
 51
270.4700443307768
  0
ARC
  5
E2EB
330
1F
100
AcDbEntity
  8
freecads.com
100
AcDbCircle
 10
220.719607198651
 20
-123.0660065611429
 30
0.0
 40
235.7014734567839
100
AcDbArc
 50
89.66664611739336
 51
91.27961027078404
  0
ARC
  5
E2EC
330
1F
100
AcDbEntity
  8
freecads.com
100
AcDbCircle
 10
221.6552739358413
 20
-164.9715858188303
 30
0.0
 40
277.6174971832851
100
AcDbArc
 50
91.27953114692289
 51
92.70617762925835
  0
ARC
  5
E2ED
330
1F
100
AcDbEntity
  8
freecads.com
100
AcDbCircle
 10
220.2898360540603
 20
-136.0854067839119
 30
0.0
 40
248.6990643101257
100
AcDbArc
 50
92.70615949302365
 51
94.14128542022629
  0
ARC
  5
E2EE
330
1F
100
AcDbEntity
  8
freecads.com
100
AcDbCircle
 10
206.3898552093633
 20
55.89035655671781
 30
0.0
 40
56.22074558907232
100
AcDbArc
 50
94.14134870259477
 51
98.46964476960817
  0
ARC
  5
E2EF
330
1F
100
AcDbEntity
  8
freecads.com
100
AcDbCircle
 10
188.390934285806
 20
176.761803853611
 30
0.0
 40
65.98346025532015
100
AcDbArc
 50
272.2140625511748
 51
278.4696660420325
  0
ARC
  5
E2F0
330
1F
100
AcDbEntity
  8
freecads.com
100
AcDbCircle
 10
190.2594396247041
 20
128.4325935822106
 30
0.0
 40
17.61814336750645
100
AcDbArc
 50
255.5091995597714
 51
272.2140465539047
  0
ARC
  5
E2F1
330
1F
100
AcDbEntity
  8
freecads.com
100
AcDbCircle
 10
189.2111504017922
 20
124.3765091495532
 30
0.0
 40
13.42878408241034
100
AcDbArc
 50
235.7268414494297
 51
255.5092377689747
  0
ARC
  5
E2F2
330
1F
100
AcDbEntity
  8
freecads.com
100
AcDbCircle
 10
197.1873723265926
 20
136.0809969908567
 30
0.0
 40
27.59265190941482
100
AcDbArc
 50
224.1832736801145
 51
235.7268520163419
  0
ARC
  5
E2F3
330
1F
100
AcDbEntity
  8
freecads.com
100
AcDbCircle
 10
199.5355754105004
 20
138.3631947801421
 30
0.0
 40
30.86717240449333
100
AcDbArc
 50
214.2006500730567
 51
224.1832782983087
  0
ARC
  5
E2F4
330
1F
100
AcDbEntity
  8
freecads.com
100
AcDbCircle
 10
264.1113899367593
 20
182.2499226496491
 30
0.0
 40
108.9445744157148
100
AcDbArc
 50
210.296196567165
 51
214.2006407503027
  0
ARC
  5
E2F5
330
1F
100
AcDbEntity
  8
freecads.com
100
AcDbCircle
 10
288.5474100952452
 20
196.5268016798016
 30
0.0
 40
137.2456054217281
100
AcDbArc
 50
207.2855182115208
 51
210.2961236503271
  0
ARC
  5
E2F6
330
1F
100
AcDbEntity
  8
freecads.com
100
AcDbCircle
 10
172.4499771093652
 20
136.6415977396408
 30
0.0
 40
6.613099524976911
100
AcDbArc
 50
180.0000012596079
 51
207.2854637071834
  0
ARC
  5
E2F7
330
1F
100
AcDbEntity
  8
freecads.com
100
AcDbCircle
 10
167.2742364882033
 20
136.6415982212619
 30
0.0
 40
1.437358903815175
100
AcDbArc
 50
129.3491732208402
 51
180.0000249935148
  0
ARC
  5
E2F8
330
1F
100
AcDbEntity
  8
freecads.com
100
AcDbCircle
 10
169.5656914937754
 20
133.8468912024999
 30
0.0
 40
5.051380675093553
100
AcDbArc
 50
109.4421734596395
 51
129.3492228291317
  0
ARC
  5
E2F9
330
1F
100
AcDbEntity
  8
freecads.com
100
AcDbCircle
 10
171.5027701532199
 20
128.3591228863132
 30
0.0
 40
10.87099190136702
100
AcDbArc
 50
96.36264676360276
 51
109.4421182792594
  0
ARC
  5
E2FA
330
1F
100
AcDbEntity
  8
freecads.com
100
AcDbCircle
 10
173.634872730192
 20
109.2384166869068
 30
0.0
 40
30.11020360462314
100
AcDbArc
 50
90.24695921455451
 51
96.36263380631522
  0
ARC
  5
E2FB
330
1F
100
AcDbEntity
  8
freecads.com
100
AcDbCircle
 10
173.3931958476788
 20
165.3108027728466
 30
0.0
 40
25.9627033031368
100
AcDbArc
 50
270.2469356113293
 51
276.9561875807772
  0
ARC
  5
E2FC
330
1F
100
AcDbEntity
  8
freecads.com
100
AcDbCircle
 10
175.9173543687175
 20
144.6223876187813
 30
0.0
 40
5.120872821476988
100
AcDbArc
 50
276.9562167118144
 51
299.3001785839871
  0
ARC
  5
E2FD
330
1F
100
AcDbEntity
  8
freecads.com
100
AcDbCircle
 10
177.188226409071
 20
142.3577436442081
 30
0.0
 40
2.52400392326622
100
AcDbArc
 50
299.3001027456376
 51
334.1821713839419
  0
ARC
  5
E2FE
330
1F
100
AcDbEntity
  8
freecads.com
100
AcDbCircle
 10
176.0640890487958
 20
142.9015985910826
 30
0.0
 40
3.772788535593456
100
AcDbArc
 50
334.1822519249968
 51
359.9999696749855
  0
ARC
  5
E2FF
330
1F
100
AcDbEntity
  8
freecads.com
100
AcDbCircle
 10
176.5448411074504
 20
142.9016000207028
 30
0.0
 40
3.29203647693972
100
AcDbArc
 50
359.9999403648696
 51
32.09301622736147
  0
ARC
  5
E300
330
1F
100
AcDbEntity
  8
freecads.com
100
AcDbCircle
 10
177.0452608083324
 20
143.2154307598447
 30
0.0
 40
2.701350765369662
100
AcDbArc
 50
32.09296152457194
 51
69.30584436437086
  0
ARC
  5
E301
330
1F
100
AcDbEntity
  8
freecads.com
100
AcDbCircle
 10
176.4406619610782
 20
141.6149307478825
 30
0.0
 40
4.412239439236778
100
AcDbArc
 50
69.30576115914269
 51
96.84086567964561
  0
ARC
  5
E302
330
1F
100
AcDbEntity
  8
freecads.com
100
AcDbCircle
 10
177.2182283359907
 20
135.1333598835061
 30
0.0
 40
10.94028434849434
100
AcDbArc
 50
96.84084898725574
 51
110.8167326917683
  0
ARC
  5
E303
330
1F
100
AcDbEntity
  8
freecads.com
100
AcDbCircle
 10
161.2778412727967
 20
177.0597575214613
 30
0.0
 40
33.91413303285945
100
AcDbArc
 50
286.1006282210516
 51
290.8167801635407
  0
ARC
  5
E304
330
1F
100
AcDbEntity
  8
freecads.com
100
AcDbCircle
 10
170.5975569089678
 20
144.7721741880503
 30
0.0
 40
0.308402315449986
100
AcDbArc
 50
159.8064053824367
 51
286.1006176594638
  0
ARC
  5
E305
330
1F
100
AcDbEntity
  8
freecads.com
100
AcDbCircle
 10
172.2683401248251
 20
144.1576581926291
 30
0.0
 40
2.08861198371935
100
AcDbArc
 50
124.4092992321872
 51
159.8064175270858
  0
ARC
  5
E306
330
1F
100
AcDbEntity
  8
freecads.com
100
AcDbCircle
 10
228.2415108369642
 20
62.43942574863271
 30
0.0
 40
101.1384244688602
100
AcDbArc
 50
122.2328339971085
 51
124.4093206362335
  0
ARC
  5
E307
330
1F
100
AcDbEntity
  8
freecads.com
100
AcDbCircle
 10
158.2514151962787
 20
173.4407227693208
 30
0.0
 40
30.08619756552893
100
AcDbArc
 50
302.2328017677588
 51
309.5359989940998
  0
ARC
  5
E308
330
1F
100
AcDbEntity
  8
freecads.com
100
AcDbCircle
 10
172.7396923550878
 20
155.8875223387711
 30
0.0
 40
7.326034552371873
100
AcDbArc
 50
309.535982531301
 51
330.398231959125
  0
ARC
  5
E309
330
1F
100
AcDbEntity
  8
freecads.com
100
AcDbCircle
 10
176.2928511588507
 20
153.8689044212677
 30
0.0
 40
3.239501084796327
100
AcDbArc
 50
330.3981974572683
 51
4.841936664594574
  0
ARC
  5
E30A
330
1F
100
AcDbEntity
  8
freecads.com
100
AcDbCircle
 10
176.3428018218656
 20
153.8731358405765
 30
0.0
 40
3.189371516227409
100
AcDbArc
 50
4.841934438829031
 51
39.6901911662865
  0
ARC
  5
E30B
330
1F
100
AcDbEntity
  8
freecads.com
100
AcDbCircle
 10
175.6072465707294
 20
153.2626733512969
 30
0.0
 40
4.145251204409435
100
AcDbArc
 50
39.69024905847384
 51
65.56023775747417
  0
ARC
  5
E30C
330
1F
100
AcDbEntity
  8
freecads.com
100
AcDbCircle
 10
176.5118568926446
 20
155.2531970710859
 30
0.0
 40
1.958814716983389
100
AcDbArc
 50
65.56030578439866
 51
110.828462496325
  0
ARC
  5
E30D
330
1F
100
AcDbEntity
  8
freecads.com
100
AcDbCircle
 10
177.6169766090352
 20
152.3483127102643
 30
0.0
 40
5.066811296337053
100
AcDbArc
 50
110.8285267630105
 51
135.1849809606522
  0
ARC
  5
E30E
330
1F
100
AcDbEntity
  8
freecads.com
100
AcDbCircle
 10
204.0858356064965
 20
126.0498231441978
 30
0.0
 40
42.37915576950083
100
AcDbArc
 50
135.1849886463402
 51
140.2850752660778
  0
ARC
  5
E30F
330
1F
100
AcDbEntity
  8
freecads.com
100
AcDbCircle
 10
127.4682212344888
 20
189.6926815513705
 30
0.0
 40
57.22341577508117
100
AcDbArc
 50
316.0296583309038
 51
320.2850997224019
  0
ARC
  5
E310
330
1F
100
AcDbEntity
  8
freecads.com
100
AcDbCircle
 10
167.8190368044925
 20
150.7666968307329
 30
0.0
 40
1.157199533606622
100
AcDbArc
 50
246.0892460517999
 51
316.0296657722006
  0
ARC
  5
E311
330
1F
100
AcDbEntity
  8
freecads.com
100
AcDbCircle
 10
167.6407417766714
 20
150.3645536891689
 30
0.0
 40
0.7173038377242583
100
AcDbArc
 50
150.0279440976677
 51
246.0892028454312
  0
ARC
  5
E312
330
1F
100
AcDbEntity
  8
freecads.com
100
AcDbCircle
 10
209.3916982528209
 20
126.2867112220027
 30
0.0
 40
48.91361971920266
100
AcDbArc
 50
145.2780566936904
 51
150.0278841882488
  0
ARC
  5
E313
330
1F
100
AcDbEntity
  8
freecads.com
100
AcDbCircle
 10
148.2609982666145
 20
168.6502464826315
 30
0.0
 40
25.46131961241905
100
AcDbArc
 50
325.2780837333725
 51
329.513134825235
  0
ARC
  5
E314
330
1F
100
AcDbEntity
  8
freecads.com
100
AcDbCircle
 10
151.1268426114657
 20
166.9630096832969
 30
0.0
 40
22.13568706719498
100
AcDbArc
 50
329.5131577775163
 51
334.2169390578678
  0
ARC
  5
E315
330
1F
100
AcDbEntity
  8
freecads.com
100
AcDbCircle
 10
154.0063174602365
 20
165.5720742043503
 30
0.0
 40
18.93786328980359
100
AcDbArc
 50
334.2169200866969
 51
338.8861091849275
  0
ARC
  5
E316
330
1F
100
AcDbEntity
  8
freecads.com
100
AcDbCircle
 10
169.3929902629934
 20
159.630564016921
 30
0.0
 40
2.443887321395423
100
AcDbArc
 50
338.8861332840063
 51
359.9999666463403
  0
ARC
  5
E317
330
1F
100
AcDbEntity
  8
freecads.com
100
AcDbCircle
 10
169.5657594029872
 20
159.6305627981727
 30
0.0
 40
2.271118181401116
100
AcDbArc
 50
359.9999948556802
 51
36.63211111474823
  0
ARC
  5
E318
330
1F
100
AcDbEntity
  8
freecads.com
100
AcDbCircle
 10
167.9639277479765
 20
158.4395493198334
 30
0.0
 40
4.267208799728054
100
AcDbArc
 50
36.63205548774812
 51
59.49031190598965
  0
ARC
  5
E319
330
1F
100
AcDbEntity
  8
freecads.com
100
AcDbCircle
 10
167.7085675864473
 20
158.0061960770743
 30
0.0
 40
4.770203675545858
100
AcDbArc
 50
59.49034415354041
 51
80.9981547266658
  0
ARC
  5
E31A
330
1F
100
AcDbEntity
  8
freecads.com
100
AcDbCircle
 10
167.9286979636272
 20
159.395729601705
 30
0.0
 40
3.363341635753537
100
AcDbArc
 50
80.99822225188738
 51
108.9427780473631
  0
ENDSEC
  0
SECTION
  2
OBJECTS
  0
DICTIONARY
  5
C
330
0
100
AcDbDictionary
281
     1
  3
ACAD_CIP_PREVIOUS_PRODUCT_INFO
350
1A5
  3
ACAD_COLOR
350
73
  3
ACAD_DETAILVIEWSTYLE
350
1AB
  3
ACAD_GROUP
350
D
  3
ACAD_IMAGE_DICT
350
A5B8
  3
ACAD_IMAGE_VARS
350
A5B9
  3
ACAD_LAYOUT
350
1A
  3
ACAD_MATERIAL
350
72
  3
ACAD_MLEADERSTYLE
350
D7
  3
ACAD_MLINESTYLE
350
17
  3
ACAD_PLOTSETTINGS
350
19
  3
ACAD_PLOTSTYLENAME
350
E
  3
ACAD_SCALELIST
350
B6
  3
ACAD_SECTIONVIEWSTYLE
350
1A8
  3
ACAD_TABLESTYLE
350
86
  3
ACAD_VISUALSTYLE
350
99
  3
ACDB_RECOMPOSE_DATA
350
E372
  3
AcDbVariableDictionary
350
66
  3
AEC_PROPERTY_SET_DEFS
350
268B
  0
DICTIONARY
  5
18E
330
2
100
AcDbDictionary
280
     1
281
     1
  3
ACAD_LAYERSTATES
360
18F
  0
DICTIONARY
  5
E6
330
10
100
AcDbDictionary
280
     1
281
     1
  0
DICTIONARY
  5
15D
330
1F
100
AcDbDictionary
280
     1
281
     1
  3
ACAD_SORTENTS
360
28E
  0
XRECORD
  5
1A5
102
{ACAD_REACTORS
330
C
102
}
330
C
100
AcDbXrecord
280
     1
300
ACD
300
2022
300

  0
DICTIONARY
  5
73
102
{ACAD_REACTORS
330
C
102
}
330
C
100
AcDbDictionary
281
     1
  0
DICTIONARY
  5
1AB
102
{ACAD_REACTORS
330
C
102
}
330
C
100
AcDbDictionary
281
     1
  3
Imperial24
350
1AC
  3
Metric50
350
224
  0
DICTIONARY
  5
D
102
{ACAD_REACTORS
330
C
102
}
330
C
100
AcDbDictionary
281
     1
  0
DICTIONARY
  5
A5B8
102
{ACAD_REACTORS
330
C
102
}
330
C
100
AcDbDictionary
281
     1
  0
RASTERVARIABLES
  5
A5B9
102
{ACAD_REACTORS
330
C
102
}
330
C
100
AcDbRasterVariables
 90
        0
 70
     1
 71
     1
 72
     5
  0
DICTIONARY
  5
1A
102
{ACAD_REACTORS
330
C
102
}
330
C
100
AcDbDictionary
281
     1
  3
Layout1
350
59
  3
Layout2
350
5E
  3
Model
350
22
  0
DICTIONARY
  5
72
102
{ACAD_REACTORS
330
C
102
}
330
C
100
AcDbDictionary
281
     1
  3
ByBlock
350
97
  3
ByLayer
350
96
  3
Global
350
98
  0
DICTIONARY
  5
D7
102
{ACAD_REACTORS
330
C
102
}
330
C
100
AcDbDictionary
281
     1
  3
Standard
350
D8
  0
DICTIONARY
  5
17
102
{ACAD_REACTORS
330
C
102
}
330
C
100
AcDbDictionary
281
     1
  3
Standard
350
18
  0
DICTIONARY
  5
19
102
{ACAD_REACTORS
330
C
102
}
330
C
100
AcDbDictionary
281
     1
  0
ACDBDICTIONARYWDFLT
  5
E
102
{ACAD_REACTORS
330
C
102
}
330
C
100
AcDbDictionary
281
     1
  3
Normal
350
F
100
AcDbDictionaryWithDefault
340
F
  0
DICTIONARY
  5
B6
102
{ACAD_REACTORS
330
C
102
}
330
C
100
AcDbDictionary
281
     1
  3
*A1
350
47D1
  3
*A2
350
8BD6
  3
A0
350
B7
  3
A1
350
124
  3
A2
350
125
  3
A3
350
126
  3
A4
350
127
  3
A5
350
128
  3
A6
350
129
  3
A7
350
12A
  3
A8
350
12B
  3
A9
350
12C
  3
B0
350
12D
  3
B1
350
12E
  3
B2
350
12F
  3
B3
350
130
  3
B4
350
131
  3
B5
350
132
  3
B6
350
133
  3
B7
350
134
  3
B8
350
135
  3
B9
350
136
  3
C0
350
137
  3
C1
350
138
  3
C2
350
139
  3
C3
350
13A
  3
C4
350
13B
  3
C5
350
13C
  3
C6
350
13D
  3
C7
350
13E
  3
C8
350
13F
  3
C9
350
140
  3
D0
350
141
  3
D1
350
142
  3
D2
350
143
  0
DICTIONARY
  5
1A8
102
{ACAD_REACTORS
330
C
102
}
330
C
100
AcDbDictionary
281
     1
  3
Imperial24
350
1AA
  3
Metric50
350
223
  0
DICTIONARY
  5
86
102
{ACAD_REACTORS
330
C
102
}
330
C
100
AcDbDictionary
281
     1
  3
Standard
350
87
  0
DICTIONARY
  5
99
102
{ACAD_REACTORS
330
C
102
}
330
C
100
AcDbDictionary
281
     1
  3
2dWireframe
350
9F
  3
3dWireframe
350
2684
  3
Basic
350
9E
  3
Brighten
350
A5
  3
ColorChange
350
A9
  3
Conceptual
350
A2
  3
Dim
350
A4
  3
EdgeColorOff
350
175
  3
Facepattern
350
A8
  3
Flat
350
9A
  3
FlatWithEdges
350
9B
  3
Gouraud
350
9C
  3
GouraudWithEdges
350
9D
  3
Hidden
350
A1
  3
JitterOff
350
173
  3
Linepattern
350
A7
  3
OverhangOff
350
174
  3
Realistic
350
A3
  3
Shaded
350
182
  3
Shaded with edges
350
181
  3
Shades of Gray
350
17E
  3
Sketchy
350
17F
  3
Thicken
350
A6
  3
Wireframe
350
A0
  3
X-Ray
350
180
  0
XRECORD
  5
E372
102
{ACAD_REACTORS
330
C
102
}
330
C
100
AcDbXrecord
280
     1
 90
        1
330
87
  0
DICTIONARY
  5
66
102
{ACAD_REACTORS
330
C
102
}
330
C
100
AcDbDictionary
281
     1
  3
CANNOSCALE
350
F0
  3
CMLEADERSTYLE
350
EF
  3
CTABLESTYLE
350
89
  3
CVIEWDETAILSTYLE
350
1B7
  3
CVIEWSECTIONSTYLE
350
1B8
  3
DIMASSOC
350
67
  3
HIDETEXT
350
6B
  3
LAYEREVAL
350
14D
  3
LAYERNOTIFY
350
14E
  0
DICTIONARY
  5
268B
102
{ACAD_REACTORS
330
C
102
}
330
C
100
AcDbDictionary
281
     1
  0
DICTIONARY
  5
18F
102
{ACAD_REACTORS
330
18E
102
}
330
18E
100
AcDbDictionary
281
     1
  0
SORTENTSTABLE
  5
28E
102
{ACAD_REACTORS
330
15D
102
}
330
15D
100
AcDbSortentsTable
330
1F
  0
ACDBDETAILVIEWSTYLE
  5
1AC
102
{ACAD_REACTORS
330
1AB
102
}
330
1AB
100
AcDbModelDocViewStyle
 70
     0
  3
Imperial24
290
     0
300
Imperial24
 90
        0
100
AcDbDetailViewStyle
 70
     0
 71
     0
 90
        3
 71
     1
340
11
 62
   256
 40
0.24
340
0
 62
   256
 40
0.24
300

 40
0.36
280
     3
 71
     2
340
16
 90
       25
 62
   256
 71
     3
340
11
 62
   256
 40
0.24
 90
        1
 40
0.75
 90
        1
300
%<\AcVar ViewType \f "%tc1">% %<\AcVar ViewDetailId>%\PSCALE %<\AcVar ViewScale \f "%sn">%
 71
     4
340
16
 90
       25
 62
   256
340
16
 90
       25
 62
   256
280
     0
  0
ACDBDETAILVIEWSTYLE
  5
224
102
{ACAD_REACTORS
330
1AB
102
}
330
1AB
100
AcDbModelDocViewStyle
 70
     0
  3
Metric50
290
     0
300
Metric50
 90
        0
100
AcDbDetailViewStyle
 70
     0
 71
     0
 90
        3
 71
     1
340
11
 62
   256
 40
5.0
340
0
 62
   256
 40
5.0
300

 40
0.0
280
     1
 71
     2
340
16
 90
       25
 62
   256
 71
     3
340
11
 62
   256
 40
5.0
 90
        0
 40
15.0
 90
        1
300
%<\AcVar ViewDetailId>% (%<\AcVar ViewScale \f "%sn">%)
 71
     4
340
16
 90
       25
 62
   256
340
16
 90
       25
 62
   256
280
     0
  0
LAYOUT
  5
59
102
{ACAD_REACTORS
330
1A
102
}
330
1A
100
AcDbPlotSettings
  1

  2
None
  4

  6

 40
0.0
 41
0.0
 42
0.0
 43
0.0
 44
0.0
 45
0.0
 46
0.0
 47
0.0
 48
0.0
 49
0.0
140
0.0
141
0.0
142
1.0
143
1.0
 70
   688
 72
     0
 73
     0
 74
     5
  7

 75
    16
147
1.0
 76
     0
 77
     2
 78
   300
148
0.0
149
0.0
100
AcDbLayout
  1
Layout1
 70
     1
 71
     1
 10
0.0
 20
0.0
 11
12.0
 21
9.0
 12
0.0
 22
0.0
 32
0.0
 14
0.0
 24
0.0
 34
0.0
 15
0.0
 25
0.0
 35
0.0
146
0.0
 13
0.0
 23
0.0
 33
0.0
 16
1.0
 26
0.0
 36
0.0
 17
0.0
 27
1.0
 37
0.0
 76
     0
330
58
  0
LAYOUT
  5
5E
102
{ACAD_REACTORS
330
1A
102
}
330
1A
100
AcDbPlotSettings
  1

  2
None
  4

  6

 40
0.0
 41
0.0
 42
0.0
 43
0.0
 44
0.0
 45
0.0
 46
0.0
 47
0.0
 48
0.0
 49
0.0
140
0.0
141
0.0
142
1.0
143
1.0
 70
   688
 72
     0
 73
     0
 74
     5
  7

 75
    16
147
1.0
 76
     0
 77
     2
 78
   300
148
0.0
149
0.0
100
AcDbLayout
  1
Layout2
 70
     1
 71
     2
 10
0.0
 20
0.0
 11
12.0
 21
9.0
 12
0.0
 22
0.0
 32
0.0
 14
0.0
 24
0.0
 34
0.0
 15
0.0
 25
0.0
 35
0.0
146
0.0
 13
0.0
 23
0.0
 33
0.0
 16
1.0
 26
0.0
 36
0.0
 17
0.0
 27
1.0
 37
0.0
 76
     0
330
5D
  0
LAYOUT
  5
22
102
{ACAD_XDICTIONARY
360
194
102
}
102
{ACAD_REACTORS
330
1A
102
}
330
1A
100
AcDbPlotSettings
  1

  2
none_device
  4
ANSI_A_(8.50_x_11.00_Inches)
  6

 40
6.349999904632568
 41
19.04999923706055
 42
6.350006103515625
 43
19.04998779296875
 44
215.8999938964844
 45
279.3999938964844
 46
0.0
 47
0.0
 48
0.0
 49
0.0
140
0.0
141
0.0
142
1.0
143
2.584895464708373
 70
 11952
 72
     0
 73
     1
 74
     0
  7

 75
     0
147
0.3868628397755418
 76
     0
 77
     2
 78
   300
148
0.0
149
0.0
100
AcDbLayout
  1
Model
 70
     1
 71
     0
 10
0.0
 20
0.0
 11
12.0
 21
9.0
 12
0.0
 22
0.0
 32
0.0
 14
0.0
 24
0.0
 34
0.0
 15
0.0
 25
0.0
 35
0.0
146
0.0
 13
0.0
 23
0.0
 33
0.0
 16
1.0
 26
0.0
 36
0.0
 17
0.0
 27
1.0
 37
0.0
 76
     0
330
1F
331
94
  0
MATERIAL
  5
97
102
{ACAD_XDICTIONARY
360
188
102
}
102
{ACAD_REACTORS
330
72
102
}
330
72
100
AcDbMaterial
  1
ByBlock
 94
       63
  0
MATERIAL
  5
96
102
{ACAD_XDICTIONARY
360
186
102
}
102
{ACAD_REACTORS
330
72
102
}
330
72
100
AcDbMaterial
  1
ByLayer
 94
       63
  0
MATERIAL
  5
98
102
{ACAD_XDICTIONARY
360
110
102
}
102
{ACAD_REACTORS
330
72
102
}
330
72
100
AcDbMaterial
  1
Global
 43
0.0208000000566244
 43
0.0
 43
0.0
 43
0.0
 43
0.0
 43
0.0208000000566244
 43
0.0
 43
0.0
 43
0.0
 43
0.0
 43
1.0
 43
0.0
 43
0.0
 43
0.0
 43
0.0
 43
1.0
 49
0.0208000000566244
 49
0.0
 49
0.0
 49
0.0
 49
0.0
 49
0.0208000000566244
 49
0.0
 49
0.0
 49
0.0
 49
0.0
 49
1.0
 49
0.0
 49
0.0
 49
0.0
 49
0.0
 49
1.0
142
0.0208000000566244
142
0.0
142
0.0
142
0.0
142
0.0
142
0.0208000000566244
142
0.0
142
0.0
142
0.0
142
0.0
142
1.0
142
0.0
142
0.0
142
0.0
142
0.0
142
1.0
144
0.0208000000566244
144
0.0
144
0.0
144
0.0
144
0.0
144
0.0208000000566244
144
0.0
144
0.0
144
0.0
144
0.0
144
1.0
144
0.0
144
0.0
144
0.0
144
0.0
144
1.0
 94
       63
1001
ACAD
1070
    -1
1070
     3
1070
     0
1000

1071
        0
1070
     0
  0
MLEADERSTYLE
  5
D8
102
{ACAD_REACTORS
330
D7
102
}
330
D7
100
AcDbMLeaderStyle
179
     2
170
     2
171
     1
172
     0
 90
        2
 40
0.0
 41
0.0
173
     1
 91
-1056964608
340
14
 92
       -2
290
     1
 42
0.09
291
     1
 43
0.36
  3
Standard
 44
0.18
300

342
11
174
     1
178
     1
175
     1
176
     0
 93
-1056964608
 45
0.18
292
     0
297
     0
 46
0.18
 94
-1056964608
 47
1.0
 49
1.0
140
1.0
293
     1
141
0.0
294
     1
177
     0
142
1.0
295
     0
296
     0
143
0.125
271
     0
272
     9
273
     9
298
     0
  0
MLINESTYLE
  5
18
102
{ACAD_REACTORS
330
17
102
}
330
17
100
AcDbMlineStyle
  2
STANDARD
 70
     0
  3

 62
   256
 51
90.0
 52
90.0
 71
     2
 49
0.5
 62
   256
  6
BYLAYER
 49
-0.5
 62
   256
  6
BYLAYER
  0
ACDBPLACEHOLDER
  5
F
102
{ACAD_REACTORS
330
E
102
}
330
E
  0
SCALE
  5
47D1
102
{ACAD_REACTORS
330
B6
102
}
330
B6
100
AcDbScale
 70
     0
300
1:100_1_XREF_XREF_XREF_XREF
140
1.0
141
0.1
290
     0
  0
SCALE
  5
8BD6
102
{ACAD_REACTORS
330
B6
102
}
330
B6
100
AcDbScale
 70
     0
300
1:100_1_XREF_XREF_XREF_XREF_XREF_XREF_XREF_XREF_XREF
140
1.0
141
0.1
290
     0
1001
ACAD
1000
AcRTDxfName
1000
SCALE
1000
AcRTDxfName
1000
SCALE
1000
AcRTDxfName
1000
SCALE
1000
AcRTDxfName
1000
SCALE
  0
SCALE
  5
B7
102
{ACAD_REACTORS
330
B6
102
}
330
B6
100
AcDbScale
 70
     0
300
1:1
140
1.0
141
1.0
290
     1
  0
SCALE
  5
124
102
{ACAD_REACTORS
330
B6
102
}
330
B6
100
AcDbScale
 70
     0
300
1:2
140
1.0
141
2.0
290
     0
  0
SCALE
  5
125
102
{ACAD_REACTORS
330
B6
102
}
330
B6
100
AcDbScale
 70
     0
300
1:4
140
1.0
141
4.0
290
     0
  0
SCALE
  5
126
102
{ACAD_REACTORS
330
B6
102
}
330
B6
100
AcDbScale
 70
     0
300
1:5
140
1.0
141
5.0
290
     0
  0
SCALE
  5
127
102
{ACAD_REACTORS
330
B6
102
}
330
B6
100
AcDbScale
 70
     0
300
1:8
140
1.0
141
8.0
290
     0
  0
SCALE
  5
128
102
{ACAD_REACTORS
330
B6
102
}
330
B6
100
AcDbScale
 70
     0
300
1:10
140
1.0
141
10.0
290
     0
  0
SCALE
  5
129
102
{ACAD_REACTORS
330
B6
102
}
330
B6
100
AcDbScale
 70
     0
300
1:16
140
1.0
141
16.0
290
     0
  0
SCALE
  5
12A
102
{ACAD_REACTORS
330
B6
102
}
330
B6
100
AcDbScale
 70
     0
300
1:20
140
1.0
141
20.0
290
     0
  0
SCALE
  5
12B
102
{ACAD_REACTORS
330
B6
102
}
330
B6
100
AcDbScale
 70
     0
300
1:30
140
1.0
141
30.0
290
     0
  0
SCALE
  5
12C
102
{ACAD_REACTORS
330
B6
102
}
330
B6
100
AcDbScale
 70
     0
300
1:40
140
1.0
141
40.0
290
     0
  0
SCALE
  5
12D
102
{ACAD_REACTORS
330
B6
102
}
330
B6
100
AcDbScale
 70
     0
300
1:50
140
1.0
141
50.0
290
     0
  0
SCALE
  5
12E
102
{ACAD_REACTORS
330
B6
102
}
330
B6
100
AcDbScale
 70
     0
300
1:100
140
1.0
141
100.0
290
     0
  0
SCALE
  5
12F
102
{ACAD_REACTORS
330
B6
102
}
330
B6
100
AcDbScale
 70
     0
300
2:1
140
2.0
141
1.0
290
     0
  0
SCALE
  5
130
102
{ACAD_REACTORS
330
B6
102
}
330
B6
100
AcDbScale
 70
     0
300
4:1
140
4.0
141
1.0
290
     0
  0
SCALE
  5
131
102
{ACAD_REACTORS
330
B6
102
}
330
B6
100
AcDbScale
 70
     0
300
8:1
140
8.0
141
1.0
290
     0
  0
SCALE
  5
132
102
{ACAD_REACTORS
330
B6
102
}
330
B6
100
AcDbScale
 70
     0
300
10:1
140
10.0
141
1.0
290
     0
  0
SCALE
  5
133
102
{ACAD_REACTORS
330
B6
102
}
330
B6
100
AcDbScale
 70
     0
300
100:1
140
100.0
141
1.0
290
     0
  0
SCALE
  5
134
102
{ACAD_REACTORS
330
B6
102
}
330
B6
100
AcDbScale
 70
     0
300
1/128" = 1'-0"
140
0.0078125
141
12.0
290
     0
  0
SCALE
  5
135
102
{ACAD_REACTORS
330
B6
102
}
330
B6
100
AcDbScale
 70
     0
300
1/64" = 1'-0"
140
0.015625
141
12.0
290
     0
  0
SCALE
  5
136
102
{ACAD_REACTORS
330
B6
102
}
330
B6
100
AcDbScale
 70
     0
300
1/32" = 1'-0"
140
0.03125
141
12.0
290
     0
  0
SCALE
  5
137
102
{ACAD_REACTORS
330
B6
102
}
330
B6
100
AcDbScale
 70
     0
300
1/16" = 1'-0"
140
0.0625
141
12.0
290
     0
  0
SCALE
  5
138
102
{ACAD_REACTORS
330
B6
102
}
330
B6
100
AcDbScale
 70
     0
300
3/32" = 1'-0"
140
0.09375
141
12.0
290
     0
  0
SCALE
  5
139
102
{ACAD_REACTORS
330
B6
102
}
330
B6
100
AcDbScale
 70
     0
300
1/8" = 1'-0"
140
0.125
141
12.0
290
     0
  0
SCALE
  5
13A
102
{ACAD_REACTORS
330
B6
102
}
330
B6
100
AcDbScale
 70
     0
300
3/16" = 1'-0"
140
0.1875
141
12.0
290
     0
  0
SCALE
  5
13B
102
{ACAD_REACTORS
330
B6
102
}
330
B6
100
AcDbScale
 70
     0
300
1/4" = 1'-0"
140
0.25
141
12.0
290
     0
  0
SCALE
  5
13C
102
{ACAD_REACTORS
330
B6
102
}
330
B6
100
AcDbScale
 70
     0
300
3/8" = 1'-0"
140
0.375
141
12.0
290
     0
  0
SCALE
  5
13D
102
{ACAD_REACTORS
330
B6
102
}
330
B6
100
AcDbScale
 70
     0
300
1/2" = 1'-0"
140
0.5
141
12.0
290
     0
  0
SCALE
  5
13E
102
{ACAD_REACTORS
330
B6
102
}
330
B6
100
AcDbScale
 70
     0
300
3/4" = 1'-0"
140
0.75
141
12.0
290
     0
  0
SCALE
  5
13F
102
{ACAD_REACTORS
330
B6
102
}
330
B6
100
AcDbScale
 70
     0
300
1" = 1'-0"
140
1.0
141
12.0
290
     0
  0
SCALE
  5
140
102
{ACAD_REACTORS
330
B6
102
}
330
B6
100
AcDbScale
 70
     0
300
1-1/2" = 1'-0"
140
1.5
141
12.0
290
     0
  0
SCALE
  5
141
102
{ACAD_REACTORS
330
B6
102
}
330
B6
100
AcDbScale
 70
     0
300
3" = 1'-0"
140
3.0
141
12.0
290
     0
  0
SCALE
  5
142
102
{ACAD_REACTORS
330
B6
102
}
330
B6
100
AcDbScale
 70
     0
300
6" = 1'-0"
140
6.0
141
12.0
290
     0
  0
SCALE
  5
143
102
{ACAD_REACTORS
330
B6
102
}
330
B6
100
AcDbScale
 70
     0
300
1'-0" = 1'-0"
140
12.0
141
12.0
290
     0
  0
ACDBSECTIONVIEWSTYLE
  5
1AA
102
{ACAD_REACTORS
330
1A8
102
}
330
1A8
100
AcDbModelDocViewStyle
 70
     0
  3
Imperial24
290
     0
300
Imperial24
 90
        0
100
AcDbSectionViewStyle
 70
     0
 71
     0
 90
       78
 71
     1
340
11
 62
   256
 40
0.24
340
0
340
0
 62
   256
 40
0.24
300
I, O, Q, S, X, Z
 40
0.48
 90
        3
 40
0.18
 90
        1
 71
     2
340
16
 90
       25
 62
   256
340
16
 90
       50
 62
   256
 40
0.24
 40
0.0
 40
0.24
 71
     3
340
11
 62
   256
 40
0.24
 90
        1
 40
0.75
 90
        1
300
%<\AcVar ViewType \f "%tc1">% %<\AcVar ViewSectionStartId>%-%<\AcVar ViewSectionEndId>%\PSCALE %<\AcVar ViewScale \f "%sn">%
 71
     4
 62
   256
 62
   257
300
ANSI31
 40
1.0
 90
        0
290
     0
290
     0
 90
        6
 40
0.0
 40
1.570796326794896
 40
0.2617993877991494
 40
1.308996938995747
 40
-0.2617993877991494
 40
1.832595714594046
  0
ACDBSECTIONVIEWSTYLE
  5
223
102
{ACAD_REACTORS
330
1A8
102
}
330
1A8
100
AcDbModelDocViewStyle
 70
     0
  3
Metric50
290
     0
300
Metric50
 90
        0
100
AcDbSectionViewStyle
 70
     0
 71
     0
 90
      102
 71
     1
340
11
 62
   256
 40
5.0
340
0
340
0
 62
   256
 40
5.0
300
I, O, Q, S, X, Z
 40
10.0
 90
        0
 40
2.5
 90
        0
 71
     2
340
16
 90
       25
 62
   256
340
16
 90
       50
 62
   256
 40
5.0
 40
2.5
 40
5.0
 71
     3
340
11
 62
   256
 40
5.0
 90
        0
 40
15.0
 90
        1
300
%<\AcVar ViewSectionStartId>%-%<\AcVar ViewSectionEndId>% (%<\AcVar ViewScale \f "%sn">%)
 71
     4
 62
   256
 62
   257
300
ANSI31
 40
1.0
 90
        0
290
     0
290
     0
 90
        6
 40
0.0
 40
1.570796326794896
 40
0.2617993877991494
 40
1.308996938995747
 40
-0.2617993877991494
 40
1.832595714594046
  0
TABLESTYLE
  5
87
102
{ACAD_XDICTIONARY
360
104
102
}
102
{ACAD_REACTORS
330
86
102
}
330
86
100
AcDbTableStyle
280
     0
  3
Standard
 70
     0
 71
     0
 40
0.06
 41
0.06
280
     0
281
     0
  7
Standard
140
0.18
170
     2
 62
     0
 63
     7
283
     0
 90
      512
 91
        0
  1

274
    -2
284
     1
 64
     0
275
    -2
285
     1
 65
     0
276
    -2
286
     1
 66
     0
277
    -2
287
     1
 67
     0
278
    -2
288
     1
 68
     0
279
    -2
289
     1
 69
     0
  7
Standard
140
0.25
170
     5
 62
     0
 63
     7
283
     0
 90
      512
 91
        0
  1

274
    -2
284
     1
 64
     0
275
    -2
285
     1
 65
     0
276
    -2
286
     1
 66
     0
277
    -2
287
     1
 67
     0
278
    -2
288
     1
 68
     0
279
    -2
289
     1
 69
     0
  7
Standard
140
0.18
170
     5
 62
     0
 63
     7
283
     0
 90
      512
 91
        0
  1

274
    -2
284
     1
 64
     0
275
    -2
285
     1
 65
     0
276
    -2
286
     1
 66
     0
277
    -2
287
     1
 67
     0
278
    -2
288
     1
 68
     0
279
    -2
289
     1
 69
     0
  0
VISUALSTYLE
  5
9F
102
{ACAD_REACTORS
330
99
102
}
330
99
100
AcDbVisualStyle
  2
2dWireframe
 70
     4
177
     3
291
     0
 70
    58
 90
        0
176
     1
 90
        2
176
     1
 90
        1
176
     1
 90
        0
176
     1
 40
0.6
176
     1
 40
30.0
176
     1
 62
     7
420
 16777215
176
     1
 90
        1
176
     1
 90
        4
176
     1
 62
     7
176
     1
 62
   257
176
     1
 90
        1
176
     1
 90
        1
176
     1
 40
1.0
176
     1
 90
        0
176
     1
 62
   257
176
     1
 40
1.0
176
     1
 90
        1
176
     1
 90
        6
176
     1
 90
        2
176
     1
 62
     7
176
     1
 90
        5
176
     1
 90
        0
176
     1
 90
        0
176
     1
290
     0
176
     1
 90
        1
176
     1
 40
0.0
176
     1
 90
        0
176
     1
290
     1
176
     1
290
     1
176
     1
290
     0
176
     1
290
     0
176
     1
290
     0
176
     1
290
     0
176
     1
290
     0
176
     1
290
     0
176
     1
290
     0
176
     1
 90
       50
176
     1
 40
0.0
176
     1
 40
1.0
176
     1
 90
        0
176
     1
 62
    18
420
        0
176
     1
 90
       50
176
     1
 90
        3
176
     1
 62
     5
420
      255
176
     1
290
     0
176
     1
 90
       50
176
     1
 90
       50
176
     1
 90
       50
176
     1
290
     0
176
     1
 90
       50
176
     1
 62
   256
176
     0
 40
1.0
176
     0
 90
        2
176
     1
  1
strokes_ogs.tif
176
     1
290
     0
176
     1
 40
1.0
176
     1
 40
1.0
176
     1
  0
VISUALSTYLE
  5
2684
102
{ACAD_REACTORS
330
99
102
}
330
99
100
AcDbVisualStyle
  2
3dWireframe
 70
     5
177
     3
291
     0
 70
    58
 90
        0
176
     1
 90
        2
176
     1
 90
        0
176
     1
 90
        0
176
     1
 40
0.6
176
     1
 40
30.0
176
     1
 62
     7
176
     1
 90
        1
176
     1
 90
        4
176
     1
 62
     7
176
     1
 62
   257
176
     1
 90
        1
176
     1
 90
        1
176
     1
 40
1.0
176
     1
 90
        0
176
     1
 62
   257
176
     1
 40
1.0
176
     1
 90
        1
176
     1
 90
        6
176
     1
 90
        2
176
     1
 62
     7
176
     1
 90
        5
176
     1
 90
        0
176
     1
 90
        0
176
     1
290
     0
176
     1
 90
        1
176
     1
 40
0.0
176
     1
 90
        0
176
     1
290
     0
176
     1
290
     1
176
     1
290
     1
176
     1
290
     0
176
     1
290
     0
176
     1
290
     0
176
     1
290
     0
176
     1
290
     0
176
     1
290
     0
176
     1
 90
       50
176
     1
 40
0.0
176
     1
 40
1.0
176
     1
 90
        0
176
     1
 62
    18
420
        0
176
     1
 90
       50
176
     1
 90
        3
176
     1
 62
     5
420
      255
176
     1
290
     0
176
     1
 90
       50
176
     1
 90
       50
176
     1
 90
       50
176
     1
290
     0
176
     1
 90
       50
176
     1
 62
   256
176
     0
 40
1.0
176
     0
 90
        2
176
     1
  1
strokes_ogs.tif
176
     1
290
     0
176
     1
 40
1.0
176
     1
 40
1.0
176
     1
1001
ACAD
1000
AcRTDxfName
1000
VISUALSTYLE
  0
VISUALSTYLE
  5
9E
102
{ACAD_REACTORS
330
99
102
}
330
99
100
AcDbVisualStyle
  2
Basic
 70
     7
177
     3
291
     1
 70
    58
 90
        1
176
     1
 90
        0
176
     1
 90
        1
176
     1
 90
        0
176
     1
 40
0.6
176
     1
 40
30.0
176
     1
 62
     7
420
 16777215
176
     1
 90
        0
176
     1
 90
        4
176
     1
 62
     7
176
     1
 62
   257
176
     1
 90
        1
176
     1
 90
        1
176
     1
 40
1.0
176
     1
 90
        8
176
     1
 62
     7
176
     1
 40
1.0
176
     1
 90
        1
176
     1
 90
        6
176
     1
 90
        2
176
     1
 62
     7
176
     1
 90
        5
176
     1
 90
        0
176
     1
 90
        0
176
     1
290
     0
176
     1
 90
        1
176
     1
 40
0.0
176
     1
 90
        0
176
     1
290
     0
176
     1
290
     1
176
     1
290
     1
176
     1
290
     0
176
     1
290
     0
176
     1
290
     0
176
     1
290
     0
176
     1
290
     0
176
     1
290
     0
176
     1
 90
       50
176
     1
 40
0.0
176
     1
 40
1.0
176
     1
 90
        0
176
     1
 62
    18
420
        0
176
     1
 90
       50
176
     1
 90
        3
176
     1
 62
     5
420
      255
176
     1
290
     0
176
     1
 90
       50
176
     1
 90
       50
176
     1
 90
       50
176
     1
290
     0
176
     1
 90
       50
176
     1
 62
   256
176
     0
 40
1.0
176
     0
 90
        2
176
     1
  1
strokes_ogs.tif
176
     1
290
     0
176
     1
 40
1.0
176
     1
 40
1.0
176
     1
  0
VISUALSTYLE
  5
A5
102
{ACAD_REACTORS
330
99
102
}
330
99
100
AcDbVisualStyle
  2
Brighten
 70
    12
177
     3
291
     1
 70
    58
 90
        2
176
     1
 90
        2
176
     1
 90
        1
176
     1
 90
        0
176
     1
 40
0.6
176
     1
 40
30.0
176
     1
 62
     7
420
 16777215
176
     1
 90
        1
176
     1
 90
        4
176
     1
 62
     7
176
     1
 62
   257
176
     1
 90
        1
176
     1
 90
        1
176
     1
 40
1.0
176
     1
 90
        8
176
     1
 62
     7
176
     1
 40
1.0
176
     1
 90
        1
176
     1
 90
        6
176
     1
 90
        2
176
     1
 62
     7
176
     1
 90
        5
176
     1
 90
        0
176
     1
 90
        0
176
     1
290
     0
176
     1
 90
        1
176
     1
 40
50.0
176
     1
 90
        0
176
     1
290
     0
176
     1
290
     1
176
     1
290
     1
176
     1
290
     0
176
     1
290
     0
176
     1
290
     0
176
     1
290
     0
176
     1
290
     0
176
     1
290
     0
176
     1
 90
       50
176
     1
 40
0.0
176
     1
 40
1.0
176
     1
 90
        0
176
     1
 62
    18
420
        0
176
     1
 90
       50
176
     1
 90
        3
176
     1
 62
     5
420
      255
176
     1
290
     0
176
     1
 90
       50
176
     1
 90
       50
176
     1
 90
       50
176
     1
290
     0
176
     1
 90
       50
176
     1
 62
   256
176
     0
 40
1.0
176
     0
 90
        2
176
     1
  1
strokes_ogs.tif
176
     1
290
     0
176
     1
 40
1.0
176
     1
 40
1.0
176
     1
  0
VISUALSTYLE
  5
A9
102
{ACAD_REACTORS
330
99
102
}
330
99
100
AcDbVisualStyle
  2
ColorChange
 70
    16
177
     3
291
     1
 70
    58
 90
        2
176
     1
 90
        2
176
     1
 90
        3
176
     1
 90
        0
176
     1
 40
0.6
176
     1
 40
30.0
176
     1
 62
     8
420
  8421504
176
     1
 90
        1
176
     1
 90
        4
176
     1
 62
     7
176
     1
 62
   257
176
     1
 90
        1
176
     1
 90
        1
176
     1
 40
1.0
176
     1
 90
        8
176
     1
 62
     8
420
  8421504
176
     1
 40
1.0
176
     1
 90
        1
176
     1
 90
        6
176
     1
 90
        2
176
     1
 62
     7
176
     1
 90
        5
176
     1
 90
        0
176
     1
 90
        0
176
     1
290
     0
176
     1
 90
        1
176
     1
 40
0.0
176
     1
 90
        0
176
     1
290
     0
176
     1
290
     1
176
     1
290
     1
176
     1
290
     0
176
     1
290
     0
176
     1
290
     0
176
     1
290
     0
176
     1
290
     0
176
     1
290
     0
176
     1
 90
       50
176
     1
 40
0.0
176
     1
 40
1.0
176
     1
 90
        0
176
     1
 62
    18
420
        0
176
     1
 90
       50
176
     1
 90
        3
176
     1
 62
     5
420
      255
176
     1
290
     0
176
     1
 90
       50
176
     1
 90
       50
176
     1
 90
       50
176
     1
290
     0
176
     1
 90
       50
176
     1
 62
   256
176
     0
 40
1.0
176
     0
 90
        2
176
     1
  1
strokes_ogs.tif
176
     1
290
     0
176
     1
 40
1.0
176
     1
 40
1.0
176
     1
  0
VISUALSTYLE
  5
A2
102
{ACAD_REACTORS
330
99
102
}
330
99
100
AcDbVisualStyle
  2
Conceptual
 70
     9
177
     3
291
     0
 70
    58
 90
        3
176
     1
 90
        2
176
     1
 90
        1
176
     1
 90
        0
176
     1
 40
0.6
176
     1
 40
30.0
176
     1
 62
     7
420
 16777215
176
     1
 90
        2
176
     1
 90
        2
176
     1
 62
     7
176
     1
 62
   257
176
     1
 90
        1
176
     1
 90
        1
176
     1
 40
40.0
176
     1
 90
        8
176
     1
 62
     7
176
     1
 40
1.0
176
     1
 90
        1
176
     1
 90
        6
176
     1
 90
        2
176
     1
 62
     7
176
     1
 90
        3
176
     1
 90
        0
176
     1
 90
        0
176
     1
290
     0
176
     1
 90
        1
176
     1
 40
0.0
176
     1
 90
        0
176
     1
290
     0
176
     1
290
     1
176
     1
290
     1
176
     1
290
     0
176
     1
290
     0
176
     1
290
     0
176
     1
290
     0
176
     1
290
     0
176
     1
290
     0
176
     1
 90
       50
176
     1
 40
0.0
176
     1
 40
1.0
176
     1
 90
        0
176
     1
 62
    18
420
        0
176
     1
 90
       50
176
     1
 90
        3
176
     1
 62
     5
420
      255
176
     1
290
     0
176
     1
 90
       50
176
     1
 90
       50
176
     1
 90
       50
176
     1
290
     0
176
     1
 90
       50
176
     1
 62
   256
176
     0
 40
1.0
176
     0
 90
        2
176
     1
  1
strokes_ogs.tif
176
     1
290
     0
176
     1
 40
1.0
176
     1
 40
1.0
176
     1
  0
VISUALSTYLE
  5
A4
102
{ACAD_REACTORS
330
99
102
}
330
99
100
AcDbVisualStyle
  2
Dim
 70
    11
177
     3
291
     1
 70
    58
 90
        2
176
     1
 90
        2
176
     1
 90
        1
176
     1
 90
        0
176
     1
 40
0.6
176
     1
 40
30.0
176
     1
 62
     7
420
 16777215
176
     1
 90
        1
176
     1
 90
        4
176
     1
 62
     7
176
     1
 62
   257
176
     1
 90
        1
176
     1
 90
        1
176
     1
 40
1.0
176
     1
 90
        8
176
     1
 62
     7
176
     1
 40
1.0
176
     1
 90
        1
176
     1
 90
        6
176
     1
 90
        2
176
     1
 62
     7
176
     1
 90
        5
176
     1
 90
        0
176
     1
 90
        0
176
     1
290
     0
176
     1
 90
        1
176
     1
 40
-50.0
176
     1
 90
        0
176
     1
290
     0
176
     1
290
     1
176
     1
290
     1
176
     1
290
     0
176
     1
290
     0
176
     1
290
     0
176
     1
290
     0
176
     1
290
     0
176
     1
290
     0
176
     1
 90
       50
176
     1
 40
0.0
176
     1
 40
1.0
176
     1
 90
        0
176
     1
 62
    18
420
        0
176
     1
 90
       50
176
     1
 90
        3
176
     1
 62
     5
420
      255
176
     1
290
     0
176
     1
 90
       50
176
     1
 90
       50
176
     1
 90
       50
176
     1
290
     0
176
     1
 90
       50
176
     1
 62
   256
176
     0
 40
1.0
176
     0
 90
        2
176
     1
  1
strokes_ogs.tif
176
     1
290
     0
176
     1
 40
1.0
176
     1
 40
1.0
176
     1
  0
VISUALSTYLE
  5
175
102
{ACAD_REACTORS
330
99
102
}
330
99
100
AcDbVisualStyle
  2
EdgeColorOff
 70
    22
177
     3
291
     1
 70
    58
 90
        2
176
     0
 90
        2
176
     0
 90
        0
176
     0
 90
        0
176
     0
 40
0.6
176
     0
 40
30.0
176
     0
 62
     7
420
 16777215
176
     0
 90
        1
176
     0
 90
        4
176
     0
 62
     7
176
     0
 62
   257
176
     0
 90
        1
176
     0
 90
        1
176
     0
 40
1.0
176
     0
 90
        8
176
     2
 62
     7
176
     0
 40
1.0
176
     0
 90
        1
176
     0
 90
        6
176
     0
 90
        2
176
     0
 62
     7
176
     0
 90
        5
176
     0
 90
        0
176
     0
 90
        0
176
     0
290
     0
176
     0
 90
        1
176
     0
 40
0.0
176
     0
 90
        0
176
     0
290
     0
176
     1
290
     1
176
     1
290
     1
176
     1
290
     0
176
     1
290
     0
176
     1
290
     0
176
     1
290
     0
176
     1
290
     0
176
     1
290
     0
176
     1
 90
       50
176
     1
 40
0.0
176
     1
 40
1.0
176
     1
 90
        0
176
     1
 62
    18
420
        0
176
     1
 90
       50
176
     1
 90
        3
176
     1
 62
     5
420
      255
176
     1
290
     0
176
     1
 90
       50
176
     1
 90
       50
176
     1
 90
       50
176
     1
290
     0
176
     1
 90
       50
176
     1
 62
   256
176
     0
 40
1.0
176
     0
 90
        2
176
     1
  1
strokes_ogs.tif
176
     1
290
     0
176
     1
 40
1.0
176
     1
 40
1.0
176
     1
  0
VISUALSTYLE
  5
A8
102
{ACAD_REACTORS
330
99
102
}
330
99
100
AcDbVisualStyle
  2
Facepattern
 70
    15
177
     3
291
     1
 70
    58
 90
        2
176
     1
 90
        2
176
     1
 90
        1
176
     1
 90
        0
176
     1
 40
0.6
176
     1
 40
30.0
176
     1
 62
     7
420
 16777215
176
     1
 90
        1
176
     1
 90
        4
176
     1
 62
     7
176
     1
 62
   257
176
     1
 90
        1
176
     1
 90
        1
176
     1
 40
1.0
176
     1
 90
        8
176
     1
 62
     7
176
     1
 40
1.0
176
     1
 90
        1
176
     1
 90
        6
176
     1
 90
        2
176
     1
 62
     7
176
     1
 90
        5
176
     1
 90
        0
176
     1
 90
        0
176
     1
290
     0
176
     1
 90
        1
176
     1
 40
0.0
176
     1
 90
        0
176
     1
290
     0
176
     1
290
     1
176
     1
290
     1
176
     1
290
     0
176
     1
290
     0
176
     1
290
     0
176
     1
290
     0
176
     1
290
     0
176
     1
290
     0
176
     1
 90
       50
176
     1
 40
0.0
176
     1
 40
1.0
176
     1
 90
        0
176
     1
 62
    18
420
        0
176
     1
 90
       50
176
     1
 90
        3
176
     1
 62
     5
420
      255
176
     1
290
     0
176
     1
 90
       50
176
     1
 90
       50
176
     1
 90
       50
176
     1
290
     0
176
     1
 90
       50
176
     1
 62
   256
176
     0
 40
1.0
176
     0
 90
        2
176
     1
  1
strokes_ogs.tif
176
     1
290
     0
176
     1
 40
1.0
176
     1
 40
1.0
176
     1
  0
VISUALSTYLE
  5
9A
102
{ACAD_REACTORS
330
99
102
}
330
99
100
AcDbVisualStyle
  2
Flat
 70
     0
177
     3
291
     1
 70
    58
 90
        2
176
     1
 90
        1
176
     1
 90
        1
176
     1
 90
        2
176
     1
 40
0.6
176
     1
 40
30.0
176
     1
 62
     7
420
 16777215
176
     1
 90
        0
176
     1
 90
        0
176
     1
 62
     7
176
     1
 62
   257
176
     1
 90
        1
176
     1
 90
        1
176
     1
 40
1.0
176
     1
 90
        8
176
     1
 62
     7
176
     1
 40
1.0
176
     1
 90
        1
176
     1
 90
        6
176
     1
 90
        2
176
     1
 62
     7
176
     1
 90
        5
176
     1
 90
        0
176
     1
 90
        0
176
     1
290
     0
176
     1
 90
       13
176
     1
 40
0.0
176
     1
 90
        0
176
     1
290
     0
176
     1
290
     1
176
     1
290
     1
176
     1
290
     0
176
     1
290
     0
176
     1
290
     0
176
     1
290
     0
176
     1
290
     0
176
     1
290
     0
176
     1
 90
       50
176
     1
 40
0.0
176
     1
 40
1.0
176
     1
 90
        0
176
     1
 62
    18
420
        0
176
     1
 90
       50
176
     1
 90
        3
176
     1
 62
     5
420
      255
176
     1
290
     0
176
     1
 90
       50
176
     1
 90
       50
176
     1
 90
       50
176
     1
290
     0
176
     1
 90
       50
176
     1
 62
   256
176
     0
 40
1.0
176
     0
 90
        2
176
     1
  1
strokes_ogs.tif
176
     1
290
     0
176
     1
 40
1.0
176
     1
 40
1.0
176
     1
  0
VISUALSTYLE
  5
9B
102
{ACAD_REACTORS
330
99
102
}
330
99
100
AcDbVisualStyle
  2
FlatWithEdges
 70
     1
177
     3
291
     1
 70
    58
 90
        2
176
     1
 90
        1
176
     1
 90
        1
176
     1
 90
        2
176
     1
 40
0.6
176
     1
 40
30.0
176
     1
 62
     7
420
 16777215
176
     1
 90
        1
176
     1
 90
        0
176
     1
 62
     7
176
     1
 62
   257
176
     1
 90
        1
176
     1
 90
        1
176
     1
 40
1.0
176
     1
 90
        0
176
     1
 62
   257
176
     1
 40
1.0
176
     1
 90
        1
176
     1
 90
        6
176
     1
 90
        2
176
     1
 62
     7
176
     1
 90
        5
176
     1
 90
        0
176
     1
 90
        0
176
     1
290
     0
176
     1
 90
       13
176
     1
 40
0.0
176
     1
 90
        0
176
     1
290
     0
176
     1
290
     1
176
     1
290
     1
176
     1
290
     0
176
     1
290
     0
176
     1
290
     0
176
     1
290
     0
176
     1
290
     0
176
     1
290
     0
176
     1
 90
       50
176
     1
 40
0.0
176
     1
 40
1.0
176
     1
 90
        0
176
     1
 62
    18
420
        0
176
     1
 90
       50
176
     1
 90
        3
176
     1
 62
     5
420
      255
176
     1
290
     0
176
     1
 90
       50
176
     1
 90
       50
176
     1
 90
       50
176
     1
290
     0
176
     1
 90
       50
176
     1
 62
   256
176
     0
 40
1.0
176
     0
 90
        2
176
     1
  1
strokes_ogs.tif
176
     1
290
     0
176
     1
 40
1.0
176
     1
 40
1.0
176
     1
  0
VISUALSTYLE
  5
9C
102
{ACAD_REACTORS
330
99
102
}
330
99
100
AcDbVisualStyle
  2
Gouraud
 70
     2
177
     3
291
     1
 70
    58
 90
        2
176
     1
 90
        2
176
     1
 90
        1
176
     1
 90
        2
176
     1
 40
0.6
176
     1
 40
30.0
176
     1
 62
     7
420
 16777215
176
     1
 90
        0
176
     1
 90
        0
176
     1
 62
     7
176
     1
 62
   257
176
     1
 90
        1
176
     1
 90
        1
176
     1
 40
1.0
176
     1
 90
        0
176
     1
 62
     7
176
     1
 40
1.0
176
     1
 90
        1
176
     1
 90
        6
176
     1
 90
        2
176
     1
 62
     7
176
     1
 90
        5
176
     1
 90
        0
176
     1
 90
        0
176
     1
290
     0
176
     1
 90
       13
176
     1
 40
0.0
176
     1
 90
        0
176
     1
290
     0
176
     1
290
     1
176
     1
290
     1
176
     1
290
     0
176
     1
290
     0
176
     1
290
     0
176
     1
290
     0
176
     1
290
     0
176
     1
290
     0
176
     1
 90
       50
176
     1
 40
0.0
176
     1
 40
1.0
176
     1
 90
        0
176
     1
 62
    18
420
        0
176
     1
 90
       50
176
     1
 90
        3
176
     1
 62
     5
420
      255
176
     1
290
     0
176
     1
 90
       50
176
     1
 90
       50
176
     1
 90
       50
176
     1
290
     0
176
     1
 90
       50
176
     1
 62
   256
176
     0
 40
1.0
176
     0
 90
        2
176
     1
  1
strokes_ogs.tif
176
     1
290
     0
176
     1
 40
1.0
176
     1
 40
1.0
176
     1
  0
VISUALSTYLE
  5
9D
102
{ACAD_REACTORS
330
99
102
}
330
99
100
AcDbVisualStyle
  2
GouraudWithEdges
 70
     3
177
     3
291
     1
 70
    58
 90
        2
176
     1
 90
        2
176
     1
 90
        1
176
     1
 90
        2
176
     1
 40
0.6
176
     1
 40
30.0
176
     1
 62
     7
420
 16777215
176
     1
 90
        1
176
     1
 90
        0
176
     1
 62
     7
176
     1
 62
   257
176
     1
 90
        1
176
     1
 90
        1
176
     1
 40
1.0
176
     1
 90
        0
176
     1
 62
   257
176
     1
 40
1.0
176
     1
 90
        1
176
     1
 90
        6
176
     1
 90
        2
176
     1
 62
     7
176
     1
 90
        5
176
     1
 90
        0
176
     1
 90
        0
176
     1
290
     0
176
     1
 90
       13
176
     1
 40
0.0
176
     1
 90
        0
176
     1
290
     0
176
     1
290
     1
176
     1
290
     1
176
     1
290
     0
176
     1
290
     0
176
     1
290
     0
176
     1
290
     0
176
     1
290
     0
176
     1
290
     0
176
     1
 90
       50
176
     1
 40
0.0
176
     1
 40
1.0
176
     1
 90
        0
176
     1
 62
    18
420
        0
176
     1
 90
       50
176
     1
 90
        3
176
     1
 62
     5
420
      255
176
     1
290
     0
176
     1
 90
       50
176
     1
 90
       50
176
     1
 90
       50
176
     1
290
     0
176
     1
 90
       50
176
     1
 62
   256
176
     0
 40
1.0
176
     0
 90
        2
176
     1
  1
strokes_ogs.tif
176
     1
290
     0
176
     1
 40
1.0
176
     1
 40
1.0
176
     1
  0
VISUALSTYLE
  5
A1
102
{ACAD_REACTORS
330
99
102
}
330
99
100
AcDbVisualStyle
  2
Hidden
 70
     6
177
     3
291
     0
 70
    58
 90
        1
176
     1
 90
        2
176
     1
 90
        2
176
     1
 90
        0
176
     1
 40
0.6
176
     1
 40
30.0
176
     1
 62
     7
420
 16777215
176
     1
 90
        2
176
     1
 90
        2
176
     1
 62
     7
176
     1
 62
   257
176
     1
 90
        2
176
     1
 90
        1
176
     1
 40
40.0
176
     1
 90
        0
176
     1
 62
   257
176
     1
 40
1.0
176
     1
 90
        1
176
     1
 90
        6
176
     1
 90
        2
176
     1
 62
     7
176
     1
 90
        3
176
     1
 90
        0
176
     1
 90
        0
176
     1
290
     0
176
     1
 90
        1
176
     1
 40
0.0
176
     1
 90
        0
176
     1
290
     0
176
     1
290
     1
176
     1
290
     1
176
     1
290
     0
176
     1
290
     0
176
     1
290
     0
176
     1
290
     0
176
     1
290
     0
176
     1
290
     0
176
     1
 90
       50
176
     1
 40
0.0
176
     1
 40
1.0
176
     1
 90
        0
176
     1
 62
    18
420
        0
176
     1
 90
       50
176
     1
 90
        3
176
     1
 62
     5
420
      255
176
     1
290
     0
176
     1
 90
       50
176
     1
 90
       50
176
     1
 90
       50
176
     1
290
     0
176
     1
 90
       50
176
     1
 62
   256
176
     0
 40
1.0
176
     0
 90
        2
176
     1
  1
strokes_ogs.tif
176
     1
290
     0
176
     1
 40
1.0
176
     1
 40
1.0
176
     1
  0
VISUALSTYLE
  5
173
102
{ACAD_REACTORS
330
99
102
}
330
99
100
AcDbVisualStyle
  2
JitterOff
 70
    20
177
     3
291
     1
 70
    58
 90
        2
176
     0
 90
        2
176
     0
 90
        0
176
     0
 90
        0
176
     0
 40
0.6
176
     0
 40
30.0
176
     0
 62
     7
420
 16777215
176
     0
 90
        1
176
     0
 90
        4
176
     0
 62
     7
176
     0
 62
   257
176
     0
 90
        1
176
     0
 90
        1
176
     0
 40
1.0
176
     0
 90
       10
176
     2
 62
     7
176
     0
 40
1.0
176
     0
 90
        1
176
     0
 90
        6
176
     0
 90
        2
176
     0
 62
     7
176
     0
 90
        5
176
     0
 90
        0
176
     0
 90
        0
176
     0
290
     0
176
     0
 90
        1
176
     0
 40
0.0
176
     0
 90
        0
176
     0
290
     0
176
     1
290
     1
176
     1
290
     1
176
     1
290
     0
176
     1
290
     0
176
     1
290
     0
176
     1
290
     0
176
     1
290
     0
176
     1
290
     0
176
     1
 90
       50
176
     1
 40
0.0
176
     1
 40
1.0
176
     1
 90
        0
176
     1
 62
    18
420
        0
176
     1
 90
       50
176
     1
 90
        3
176
     1
 62
     5
420
      255
176
     1
290
     0
176
     1
 90
       50
176
     1
 90
       50
176
     1
 90
       50
176
     1
290
     0
176
     1
 90
       50
176
     1
 62
   256
176
     0
 40
1.0
176
     0
 90
        2
176
     1
  1
strokes_ogs.tif
176
     1
290
     0
176
     1
 40
1.0
176
     1
 40
1.0
176
     1
  0
VISUALSTYLE
  5
A7
102
{ACAD_REACTORS
330
99
102
}
330
99
100
AcDbVisualStyle
  2
Linepattern
 70
    14
177
     3
291
     1
 70
    58
 90
        2
176
     1
 90
        2
176
     1
 90
        1
176
     1
 90
        0
176
     1
 40
0.6
176
     1
 40
30.0
176
     1
 62
     7
420
 16777215
176
     1
 90
        1
176
     1
 90
        4
176
     1
 62
     7
176
     1
 62
   257
176
     1
 90
        7
176
     1
 90
        7
176
     1
 40
1.0
176
     1
 90
        8
176
     1
 62
     7
176
     1
 40
1.0
176
     1
 90
        1
176
     1
 90
        6
176
     1
 90
        2
176
     1
 62
     7
176
     1
 90
        5
176
     1
 90
        0
176
     1
 90
        0
176
     1
290
     0
176
     1
 90
        1
176
     1
 40
0.0
176
     1
 90
        0
176
     1
290
     0
176
     1
290
     1
176
     1
290
     1
176
     1
290
     0
176
     1
290
     0
176
     1
290
     0
176
     1
290
     0
176
     1
290
     0
176
     1
290
     0
176
     1
 90
       50
176
     1
 40
0.0
176
     1
 40
1.0
176
     1
 90
        0
176
     1
 62
    18
420
        0
176
     1
 90
       50
176
     1
 90
        3
176
     1
 62
     5
420
      255
176
     1
290
     0
176
     1
 90
       50
176
     1
 90
       50
176
     1
 90
       50
176
     1
290
     0
176
     1
 90
       50
176
     1
 62
   256
176
     0
 40
1.0
176
     0
 90
        2
176
     1
  1
strokes_ogs.tif
176
     1
290
     0
176
     1
 40
1.0
176
     1
 40
1.0
176
     1
  0
VISUALSTYLE
  5
174
102
{ACAD_REACTORS
330
99
102
}
330
99
100
AcDbVisualStyle
  2
OverhangOff
 70
    21
177
     3
291
     1
 70
    58
 90
        2
176
     0
 90
        2
176
     0
 90
        0
176
     0
 90
        0
176
     0
 40
0.6
176
     0
 40
30.0
176
     0
 62
     7
420
 16777215
176
     0
 90
        1
176
     0
 90
        4
176
     0
 62
     7
176
     0
 62
   257
176
     0
 90
        1
176
     0
 90
        1
176
     0
 40
1.0
176
     0
 90
        9
176
     2
 62
     7
176
     0
 40
1.0
176
     0
 90
        1
176
     0
 90
        6
176
     0
 90
        2
176
     0
 62
     7
176
     0
 90
        5
176
     0
 90
        0
176
     0
 90
        0
176
     0
290
     0
176
     0
 90
        1
176
     0
 40
0.0
176
     0
 90
        0
176
     0
290
     0
176
     1
290
     1
176
     1
290
     1
176
     1
290
     0
176
     1
290
     0
176
     1
290
     0
176
     1
290
     0
176
     1
290
     0
176
     1
290
     0
176
     1
 90
       50
176
     1
 40
0.0
176
     1
 40
1.0
176
     1
 90
        0
176
     1
 62
    18
420
        0
176
     1
 90
       50
176
     1
 90
        3
176
     1
 62
     5
420
      255
176
     1
290
     0
176
     1
 90
       50
176
     1
 90
       50
176
     1
 90
       50
176
     1
290
     0
176
     1
 90
       50
176
     1
 62
   256
176
     0
 40
1.0
176
     0
 90
        2
176
     1
  1
strokes_ogs.tif
176
     1
290
     0
176
     1
 40
1.0
176
     1
 40
1.0
176
     1
  0
VISUALSTYLE
  5
A3
102
{ACAD_REACTORS
330
99
102
}
330
99
100
AcDbVisualStyle
  2
Realistic
 70
     8
177
     3
291
     0
 70
    58
 90
        2
176
     1
 90
        2
176
     1
 90
        0
176
     1
 90
        2
176
     1
 40
0.6
176
     1
 40
30.0
176
     1
 62
     7
420
 16777215
176
     1
 90
        0
176
     1
 90
        0
176
     1
 62
     7
176
     1
 62
   257
176
     1
 90
        1
176
     1
 90
        1
176
     1
 40
1.0
176
     1
 90
        8
176
     1
 62
   257
176
     1
 40
1.0
176
     1
 90
        1
176
     1
 90
        6
176
     1
 90
        2
176
     1
 62
     7
176
     1
 90
        3
176
     1
 90
        0
176
     1
 90
        0
176
     1
290
     0
176
     1
 90
       13
176
     1
 40
0.0
176
     1
 90
        0
176
     1
290
     0
176
     1
290
     1
176
     1
290
     1
176
     1
290
     0
176
     1
290
     0
176
     1
290
     0
176
     1
290
     0
176
     1
290
     0
176
     1
290
     0
176
     1
 90
       50
176
     1
 40
0.0
176
     1
 40
1.0
176
     1
 90
        0
176
     1
 62
    18
420
        0
176
     1
 90
       50
176
     1
 90
        3
176
     1
 62
     5
420
      255
176
     1
290
     0
176
     1
 90
       50
176
     1
 90
       50
176
     1
 90
       50
176
     1
290
     0
176
     1
 90
       50
176
     1
 62
   256
176
     0
 40
1.0
176
     0
 90
        2
176
     1
  1
strokes_ogs.tif
176
     1
290
     0
176
     1
 40
1.0
176
     1
 40
1.0
176
     1
  0
VISUALSTYLE
  5
182
102
{ACAD_REACTORS
330
99
102
}
330
99
100
AcDbVisualStyle
  2
Shaded
 70
    27
177
     3
291
     0
 70
    58
 90
        2
176
     1
 90
        2
176
     1
 90
        1
176
     1
 90
        2
176
     1
 40
0.6
176
     1
 40
30.0
176
     1
 62
     7
420
 16777215
176
     1
 90
        0
176
     1
 90
        4
176
     1
 62
     7
176
     1
 62
   257
176
     1
 90
        1
176
     1
 90
        1
176
     1
 40
1.0
176
     1
 90
        8
176
     1
 62
   257
176
     1
 40
1.0
176
     1
 90
        1
176
     1
 90
        6
176
     1
 90
        2
176
     1
 62
     8
420
  7895160
176
     1
 90
        3
176
     1
 90
        0
176
     1
 90
        0
176
     1
290
     0
176
     1
 90
        5
176
     1
 40
0.0
176
     1
 90
        0
176
     1
290
     0
176
     1
290
     1
176
     1
290
     1
176
     1
290
     0
176
     1
290
     0
176
     1
290
     0
176
     1
290
     0
176
     1
290
     0
176
     1
290
     0
176
     1
 90
       50
176
     1
 40
0.0
176
     1
 40
1.0
176
     1
 90
        0
176
     1
 62
    18
420
        0
176
     1
 90
       50
176
     1
 90
        3
176
     1
 62
     5
420
      255
176
     1
290
     0
176
     1
 90
       50
176
     1
 90
       50
176
     1
 90
       50
176
     1
290
     0
176
     1
 90
       50
176
     1
 62
   256
176
     0
 40
1.0
176
     0
 90
        2
176
     1
  1
strokes_ogs.tif
176
     1
290
     0
176
     1
 40
1.0
176
     1
 40
1.0
176
     1
  0
VISUALSTYLE
  5
181
102
{ACAD_REACTORS
330
99
102
}
330
99
100
AcDbVisualStyle
  2
Shaded with edges
 70
    26
177
     3
291
     0
 70
    58
 90
        2
176
     1
 90
        2
176
     1
 90
        1
176
     1
 90
        2
176
     1
 40
0.6
176
     1
 40
30.0
176
     1
 62
     7
420
 16777215
176
     1
 90
        1
176
     1
 90
        2
176
     1
 62
     7
176
     1
 62
   257
176
     1
 90
        2
176
     1
 90
        1
176
     1
 40
1.0
176
     1
 90
        8
176
     1
 62
   257
176
     1
 40
1.0
176
     1
 90
        1
176
     1
 90
        6
176
     1
 90
        2
176
     1
 62
     7
176
     1
 90
        3
176
     1
 90
        0
176
     1
 90
        0
176
     1
290
     0
176
     1
 90
        5
176
     1
 40
0.0
176
     1
 90
        0
176
     1
290
     0
176
     1
290
     1
176
     1
290
     1
176
     1
290
     0
176
     1
290
     0
176
     1
290
     0
176
     1
290
     0
176
     1
290
     0
176
     1
290
     0
176
     1
 90
       50
176
     1
 40
0.0
176
     1
 40
1.0
176
     1
 90
        0
176
     1
 62
    18
420
        0
176
     1
 90
       50
176
     1
 90
        3
176
     1
 62
     5
420
      255
176
     1
290
     0
176
     1
 90
       50
176
     1
 90
       50
176
     1
 90
       50
176
     1
290
     0
176
     1
 90
       50
176
     1
 62
   256
176
     0
 40
1.0
176
     0
 90
        2
176
     1
  1
strokes_ogs.tif
176
     1
290
     0
176
     1
 40
1.0
176
     1
 40
1.0
176
     1
  0
VISUALSTYLE
  5
17E
102
{ACAD_REACTORS
330
99
102
}
330
99
100
AcDbVisualStyle
  2
Shades of Gray
 70
    23
177
     3
291
     0
 70
    58
 90
        2
176
     1
 90
        2
176
     1
 90
        3
176
     1
 90
        0
176
     1
 40
0.6
176
     1
 40
30.0
176
     1
 62
     7
420
 16777215
176
     1
 90
        2
176
     1
 90
        2
176
     1
 62
     7
176
     1
 62
     7
176
     1
 90
        1
176
     1
 90
        1
176
     1
 40
40.0
176
     1
 90
        8
176
     1
 62
     7
176
     1
 40
1.0
176
     1
 90
        1
176
     1
 90
        6
176
     1
 90
        2
176
     1
 62
     7
176
     1
 90
        3
176
     1
 90
        0
176
     1
 90
        0
176
     1
290
     0
176
     1
 90
        1
176
     1
 40
0.0
176
     1
 90
        0
176
     1
290
     0
176
     1
290
     1
176
     1
290
     1
176
     1
290
     0
176
     1
290
     0
176
     1
290
     0
176
     1
290
     0
176
     1
290
     0
176
     1
290
     0
176
     1
 90
       50
176
     1
 40
0.0
176
     1
 40
1.0
176
     1
 90
        0
176
     1
 62
    18
420
        0
176
     1
 90
       50
176
     1
 90
        3
176
     1
 62
     5
420
      255
176
     1
290
     0
176
     1
 90
       50
176
     1
 90
       50
176
     1
 90
       50
176
     1
290
     0
176
     1
 90
       50
176
     1
 62
   256
176
     0
 40
1.0
176
     0
 90
        2
176
     1
  1
strokes_ogs.tif
176
     1
290
     0
176
     1
 40
1.0
176
     1
 40
1.0
176
     1
  0
VISUALSTYLE
  5
17F
102
{ACAD_REACTORS
330
99
102
}
330
99
100
AcDbVisualStyle
  2
Sketchy
 70
    24
177
     3
291
     0
 70
    58
 90
        1
176
     1
 90
        2
176
     1
 90
        2
176
     1
 90
        0
176
     1
 40
0.6
176
     1
 40
30.0
176
     1
 62
     7
420
 16777215
176
     1
 90
        2
176
     1
 90
        2
176
     1
 62
     7
176
     1
 62
     7
176
     1
 90
        1
176
     1
 90
        1
176
     1
 40
40.0
176
     1
 90
       11
176
     1
 62
     7
176
     1
 40
1.0
176
     1
 90
        1
176
     1
 90
        6
176
     1
 90
        2
176
     1
 62
     7
176
     1
 90
        6
176
     1
 90
        0
176
     1
 90
        0
176
     1
290
     0
176
     1
 90
        1
176
     1
 40
0.0
176
     1
 90
        0
176
     1
290
     0
176
     1
290
     1
176
     1
290
     1
176
     1
290
     0
176
     1
290
     0
176
     1
290
     0
176
     1
290
     0
176
     1
290
     0
176
     1
290
     0
176
     1
 90
       50
176
     1
 40
0.0
176
     1
 40
1.0
176
     1
 90
        0
176
     1
 62
    18
420
        0
176
     1
 90
       50
176
     1
 90
        3
176
     1
 62
     5
420
      255
176
     1
290
     0
176
     1
 90
       50
176
     1
 90
       50
176
     1
 90
       50
176
     1
290
     0
176
     1
 90
       50
176
     1
 62
   256
176
     0
 40
1.0
176
     0
 90
        2
176
     1
  1
strokes_ogs.tif
176
     1
290
     0
176
     1
 40
1.0
176
     1
 40
1.0
176
     1
  0
VISUALSTYLE
  5
A6
102
{ACAD_REACTORS
330
99
102
}
330
99
100
AcDbVisualStyle
  2
Thicken
 70
    13
177
     3
291
     1
 70
    58
 90
        2
176
     1
 90
        2
176
     1
 90
        1
176
     1
 90
        0
176
     1
 40
0.6
176
     1
 40
30.0
176
     1
 62
     7
420
 16777215
176
     1
 90
        1
176
     1
 90
        4
176
     1
 62
     7
176
     1
 62
   257
176
     1
 90
        1
176
     1
 90
        1
176
     1
 40
1.0
176
     1
 90
       12
176
     1
 62
     7
176
     1
 40
1.0
176
     1
 90
        1
176
     1
 90
        6
176
     1
 90
        2
176
     1
 62
     7
176
     1
 90
        5
176
     1
 90
        0
176
     1
 90
        0
176
     1
290
     0
176
     1
 90
        1
176
     1
 40
0.0
176
     1
 90
        0
176
     1
290
     0
176
     1
290
     1
176
     1
290
     1
176
     1
290
     0
176
     1
290
     0
176
     1
290
     0
176
     1
290
     0
176
     1
290
     0
176
     1
290
     0
176
     1
 90
       50
176
     1
 40
0.0
176
     1
 40
1.0
176
     1
 90
        0
176
     1
 62
    18
420
        0
176
     1
 90
       50
176
     1
 90
        3
176
     1
 62
     5
420
      255
176
     1
290
     0
176
     1
 90
       50
176
     1
 90
       50
176
     1
 90
       50
176
     1
290
     0
176
     1
 90
       50
176
     1
 62
   256
176
     0
 40
1.0
176
     0
 90
        2
176
     1
  1
strokes_ogs.tif
176
     1
290
     0
176
     1
 40
1.0
176
     1
 40
1.0
176
     1
  0
VISUALSTYLE
  5
A0
102
{ACAD_REACTORS
330
99
102
}
330
99
100
AcDbVisualStyle
  2
Wireframe
 70
     5
177
     3
291
     0
 70
    58
 90
        0
176
     1
 90
        2
176
     1
 90
        0
176
     1
 90
        0
176
     1
 40
0.6
176
     1
 40
30.0
176
     1
 62
     7
420
 16777215
176
     1
 90
        1
176
     1
 90
        4
176
     1
 62
     7
176
     1
 62
   257
176
     1
 90
        1
176
     1
 90
        1
176
     1
 40
1.0
176
     1
 90
        0
176
     1
 62
   257
176
     1
 40
1.0
176
     1
 90
        1
176
     1
 90
        6
176
     1
 90
        2
176
     1
 62
     7
176
     1
 90
        3
176
     1
 90
        0
176
     1
 90
        0
176
     1
290
     0
176
     1
 90
        1
176
     1
 40
0.0
176
     1
 90
        0
176
     1
290
     0
176
     1
290
     1
176
     1
290
     1
176
     1
290
     0
176
     1
290
     0
176
     1
290
     0
176
     1
290
     0
176
     1
290
     0
176
     1
290
     0
176
     1
 90
       50
176
     1
 40
0.0
176
     1
 40
1.0
176
     1
 90
        0
176
     1
 62
    18
420
        0
176
     1
 90
       50
176
     1
 90
        3
176
     1
 62
     5
420
      255
176
     1
290
     0
176
     1
 90
       50
176
     1
 90
       50
176
     1
 90
       50
176
     1
290
     0
176
     1
 90
       50
176
     1
 62
   256
176
     0
 40
1.0
176
     0
 90
        2
176
     1
  1
strokes_ogs.tif
176
     1
290
     0
176
     1
 40
1.0
176
     1
 40
1.0
176
     1
  0
VISUALSTYLE
  5
180
102
{ACAD_REACTORS
330
99
102
}
330
99
100
AcDbVisualStyle
  2
X-Ray
 70
    25
177
     3
291
     0
 70
    58
 90
        2
176
     1
 90
        2
176
     1
 90
        1
176
     1
 90
        1
176
     1
 40
0.5
176
     1
 40
30.0
176
     1
 62
     7
420
 16777215
176
     1
 90
        1
176
     1
 90
        0
176
     1
 62
     7
176
     1
 62
   257
176
     1
 90
        1
176
     1
 90
        1
176
     1
 40
1.0
176
     1
 90
        8
176
     1
 62
     7
176
     1
 40
1.0
176
     1
 90
        1
176
     1
 90
        6
176
     1
 90
        2
176
     1
 62
     7
176
     1
 90
        3
176
     1
 90
        0
176
     1
 90
        0
176
     1
290
     0
176
     1
 90
       13
176
     1
 40
0.0
176
     1
 90
        0
176
     1
290
     0
176
     1
290
     1
176
     1
290
     1
176
     1
290
     0
176
     1
290
     0
176
     1
290
     0
176
     1
290
     0
176
     1
290
     0
176
     1
290
     0
176
     1
 90
       50
176
     1
 40
0.0
176
     1
 40
1.0
176
     1
 90
        0
176
     1
 62
    18
420
        0
176
     1
 90
       50
176
     1
 90
        3
176
     1
 62
     5
420
      255
176
     1
290
     0
176
     1
 90
       50
176
     1
 90
       50
176
     1
 90
       50
176
     1
290
     0
176
     1
 90
       50
176
     1
 62
   256
176
     0
 40
1.0
176
     0
 90
        2
176
     1
  1
strokes_ogs.tif
176
     1
290
     0
176
     1
 40
1.0
176
     1
 40
1.0
176
     1
  0
DICTIONARYVAR
  5
F0
102
{ACAD_REACTORS
330
66
102
}
330
66
100
DictionaryVariables
280
     0
  1
1:1
  0
DICTIONARYVAR
  5
EF
102
{ACAD_REACTORS
330
66
102
}
330
66
100
DictionaryVariables
280
     0
  1
STANDARD
  0
DICTIONARYVAR
  5
89
102
{ACAD_REACTORS
330
66
102
}
330
66
100
DictionaryVariables
280
     0
  1
STANDARD
  0
DICTIONARYVAR
  5
1B7
102
{ACAD_REACTORS
330
66
102
}
330
66
100
DictionaryVariables
280
     0
  1
Imperial24
  0
DICTIONARYVAR
  5
1B8
102
{ACAD_REACTORS
330
66
102
}
330
66
100
DictionaryVariables
280
     0
  1
Imperial24
  0
DICTIONARYVAR
  5
67
102
{ACAD_REACTORS
330
66
102
}
330
66
100
DictionaryVariables
280
     0
  1
2
  0
DICTIONARYVAR
  5
6B
102
{ACAD_REACTORS
330
66
102
}
330
66
100
DictionaryVariables
280
     0
  1
1
  0
DICTIONARYVAR
  5
14D
102
{ACAD_REACTORS
330
66
102
}
330
66
100
DictionaryVariables
280
     0
  1
0
  0
DICTIONARYVAR
  5
14E
102
{ACAD_REACTORS
330
66
102
}
330
66
100
DictionaryVariables
280
     0
  1
0
  0
DICTIONARY
  5
194
330
22
100
AcDbDictionary
280
     1
281
     1
  0
DICTIONARY
  5
188
330
97
100
AcDbDictionary
280
     1
281
     1
  3
FBXASSET
360
189
  0
DICTIONARY
  5
186
330
96
100
AcDbDictionary
280
     1
281
     1
  3
FBXASSET
360
187
  0
DICTIONARY
  5
110
330
98
100
AcDbDictionary
280
     1
281
     1
  3
BUMPTILE
360
112
  3
DIFFUSETILE
360
111
  3
FBXASSET
360
18A
  3
OPACITYTILE
360
113
  3
REFLECTIONTILE
360
114
  0
DICTIONARY
  5
104
330
87
100
AcDbDictionary
280
     1
281
     1
  3
ACAD_ROUNDTRIP_2008_TABLESTYLE_CELLSTYLEMAP
360
E371
  0
XRECORD
  5
189
102
{ACAD_REACTORS
330
188
102
}
330
188
100
AcDbXrecord
280
     1
 70
     1
 90
429727718
  1
508B35C9-AEE7-456F-BE74-D52651303AC6
310
504B03040A0000080000B670623B3DEE336E79000000790000001B0000006175746F6465736B2D64657369676E2D7061636B6167652E786D6C3C3F786D6C2076657273696F6E3D22312E302220656E636F64696E673D227574662D3822203F3E3C666F726D6174733E3C666F726D61743E687474703A2F2F736368656D612E
310
6175746F6465736B2E636F6D2F64657369676E2D7061636B6167652F323030393C2F666F726D61743E3C2F666F726D6174733E504B0304140006080800B670623BD486FD9CA0000000F4000000130000005B436F6E74656E745F54797065735D2E786D6C7D8EC10E82300C865F65E91D8A1E8C310C0EEA1BF002731658846E
310
D98AC1B77784ABF1D8FE5FBFBF75BBCE937A534CCEB38643598122B6FEE978D0B0485F9C41B54DDD7D022595594E1A469170414C76A4D9A4D207E29CF43ECE46F218070CC6BECC4078ACAA135ACF422C856C0E68EA1BF5669944DDD7BCDE7B1F8E415D77AECB980613C2E4AC91FC167A2B244592486606FC29C8FD7F045B9A
310
EF7053A7E60B504B0304140006080800B670623B28ED286BEB0000007C01000008000000636F72652E786D6C8D90416EC3201045AF82665B6183218D6D61A254764FD00B204C5C94182C03558F5F9C3852BBEB6A467FFE9B197D71FA9E6FE8CBACC17AD7012D0820E3B41FAD9B3A48F1826B40272956EFE32F1B20A766D3C1
310
268314D3EAD3B24BDABB685CCCAAF3A3D94515828980F42D371D04FD696655A814B3235C8B45E9AB9A4C419F5D8653B2237A1CB163DE672FD6AC209BF3C08E0D1B30EB19C3FC9D72FCC6EB231EFA33EDE96BDD341517E5064B11EDFCBCAF57A3A2194156843498524CAA0FCA5B7268F9E185D42D21A2DCEC7FA0B48CFF8492
310
759155FBBB0F2C80A4F991FB408A72CB22977B50B96EB9C91F504B0304140006080800B670623B55019EA25F0000007C00000007000000636E782E786D6C4DCB3B0E80201045D1AD90E915ED2CF8AC45050C11660C8261F98AB1B07AC9C97D42D718D865D3E909258CFD00CCE24AC6E326A164D74DC0B4128928FF32603847
310
2BA13128B1252AC747C6BAB984FC68F0B87FE8960A5C09FE86CFB69FBA01504B0304140006080800B670623B7BC41AC871010000D40300000C0000006662782F636F72652E786D6CC553ED6E8320147D15C2DF4501B56B6D90A64BBB27D80B50A5CE54C120983EFEAE1F4DD7A56BBA5FF3879273EEE59E7310BE393735EA95
310
ED2AA333CC428A91D2B9292A5D66D8BB63B0C26823B835C67D2BC348CB46657880B1E0A535BE9DA1DC68A7B403549B42CDA0EC3AE530CA6B5864B8CB3F552343E91D5474A7B095F949962A6421D0502778E72C0840D390E18DC5F170E664C205F7BE2A66B62A605A75AC94C522DDEEE3651AEF837817C741F2CE92E02D592D
310
83FD6ECB76EC7595A651C2C9D02CB8AB9A8BBADC2AE954814544691A3016D0E883256BBA58278B17BA5A53CAC9507ED3E4DBE2C9265F691747B3DCA9ADC382819091F8E1162272A8933DE82182932144F88C09DF060D8140C84E1EEA8B8F1340BDCA9DB1093085F157AA97B557309586747CD0EF0B4EA64E983A6E0EAEEFCE
310
889E9EF17847386AA94B30211D2C0FDE0D3AF9A4610EAD5536E8DD1969631B593F67E381C33F5157F17725E5A636F6BF1491F980C8FC7B90E13E8A2F504B0304140006080800B670623B70102A487D0000009D0000000B0000006662782F636E782E786D6C4DCCD10A83201886E15B91FFDC95A5C30335ACCDFB886521330D
310
A76397BF1A1DECE883878F57749FD5A3B74D2F17830472A901D9F088930B8B849267CC01754AA418F3DF0D5018572BE160506249B16C274D761E8BCFBB7A179E27F65CB39A0F14D396184C9921B81F34C3ACA1B4B99ABB6E6F062A25AA5F69DF23ACBE504B0304140006080800B670623B3610CA3329010000120200003100
310
00006662782F42384135303843342D343331462D343546312D424341352D3532343432364645413344462F636F72652E786D6C8D515B6EC32010BC0AE22B55850D0E446E848992B43E412FE000495162B07854397EA176A4F62F3F2C9A9D991D58BEBB8F37F0AD7D30CE76905418026DA553C65E3A98E219B510EC04F7CEC5
310
3F3408EC30EA0E16180A7EF12E4D0B249D8DDAC68C5AA7F4020E21E80881BCE54B0783FCD2E3500D296646B856D320AFC34557A4CAEDCC133C449F0380794839A138B47B86DB2345744D7A44594FD0E1B867883594369BFE63BF7EEF793D0B054FC9A8456E548E63CE46FB674D8A58F068C6477CE9F510B582A2C1F80D1182
310
70F349E816B32D65AFB8DD62CCEB42FF274A937A52948C8DEB66893BCB021484D7734370E5D2E9F608A3EF93F3119479ABA0E50B14B8C298119A43CCC4FCFCECB8A18B6388CEE7EF5D5D4F994BD86CBBA182D76543B9FCAE2FD7B24DF103504B0304140006080800B670623B1B8617914E0100003303000030000000666278
310
2F42384135303843342D343331462D343546312D424341352D3532343432364645413344462F636E782E786D6CD593C16EC32010447F0571AD6CE3D489D20813A9877E410FBD62D82434182CC055F3F75D1292E692438FBD206B7698593D61BEFD1E2DF982108D773D6D6B460938E5B571FB9ECE6957AD29D90A1EBC4F7736
310
4A9C1CA1A759A682EF839FA72269D8C9D92654AD71C72206887E0E0A22CAF926B15E498B01E0AA19451807D01A34B919F16B070157417138917400F2F6FA41FCF0092A45DEE414C19BDC21783E4BD39D891265658C3D8DEA00A3ACE59CBC8678ACB54CB26EEB6BD7839D7E9348BE70AD9C8321B9BCA7F9A4A26C542347DEE0
310
50F09802D22BA6749A800A394DD62899107273365E3C82CFC6A55557BC06C10774B7ABE7AEC3B0F34CF06446280E154026D0542C187BA9DAB6628BF7B6DBB0E5A65B3EB1F58631DE64BBE083F7B65CC218087E22CABB042E51D1F2268F1FE12B3EA24D40D63E9CFE00120194D60B9D5BC67FE6D39CDF37E20AF817881F504B
310
0304140006080800B670623BBFEF2E3B690500003C100000340000006662782F42384135303843342D343331462D343546312D424341352D3532343432364645413344462F6F626A656374732E786D6CAD575D739B3814FD2B0CFB0C98D84E931D4227B6938EA793B6534F3BFB90198F0099B001899144EAECAFDF231018B0
310
D37A3FFC609090EEE7B94757C1FB7D915B2F54C88CB31BDB7727B64559CC938CA53776A576CE956DBD0F03C1B9EA2DB32D460A7A63EB693B0C52C1ABD24C257447AA5C8D66EF177F5832A68CDA569C13296F6C193FD182B8A4523CA1F2D94D88226EBADBBBBEDB2C1C8A4D05299F46424B222853B014F30C52ACC6287F389C
310
D85E1878FA7B18E87FB36AFAF62AAFF667A83F635211161F291B8999FAB3D5DDC5FCDA99CF6653677679E13B8BFBC5CAF1DF4D27CBCBE5F2FAF6EE1A8AA51290642C117467871F101B91C581D77CEA2C36869F3229E68CD1B8F61F1ED6361B89092D294B90C78C4A68EB793D190E7D1D9BDEE7A91E1B95FDE9F3BCEAEFE809
310
6A6D6F9F7D4B79F4275C90E7A04248AA51D5C4C738DAE06F72885AC4796EBE65D22A88A22223B995679120E2D50EB1542F098381188D4EA111AE3DB043FF20AF6F2B4AE3D7D83D65E5AECA730D4D3BAC91BD05FEA992B565D95F549CD6069B90AB2A63EACA38A45E4B6A87D781574F86817E4C2FCCC72690D62E2729520E37
310
9BAF234797BAF6D62B3BFC781FED37BA1E4F2B2F052FA9501A3E80569BB8F6A9A364D4FA67654E6F803383981F82F21591FF84F23D9882BC896C3FDBCF8C162508933B2E0AE4C69DD43F6BD2BE38DDDBF10BF86CB4FA784D37F3AF16075E67EC9030DECA1FC0A55373F5DFF3378C591FA9BDF485C10B0A8C8BA909E5262639
310
A8E72163488806A595734C81CB77D1DE0ED7604A303B76913CEC0272F412782FF88EFF4636D8AA56DF7B322474C4B767303F625997056C7B032C473C592B36CEBD15F3F9FF5233B7ABCDC74D257624A60F8658567497B14CE1EC3C80B76FD02011038F9EE9EB0F2E12387A9C844D3F09855125116D1D731DF8B43D2CF4E0A0
310
79A020C6BE946BCE0B7EA1E1219331CD73C228AF5A2DDD31A4B1DA918CE91350854D40A71723140BFA92E94E62B0626016CEFA5864A50E5977E8753CEDBEE1CBB7F52780D20E17AF0BA0F5F9B02A3AD07DCC732EB6D1EBB661421BE0C39E21BABF0FE16D22EA6929407C8DE596724C88B749B6DB5512BC7B228ADFD7CB7EA6
310
3A22397E690BA8D5D8D4E40CEC8CDA23C2C0B7D5898640101CEC9C6D331CE328CB93CAFBBAC70A642DF70DF95155945B52F08AA973C23469FD69ADEF84F7BB18F983A8F8C90E37F5D35980B2139A1C523540813E824EF83448CF7C72B598CE97D7CEEDDDDD3B6736BFBC771677EF66CE6A7E7139F7A793E9EDF2B2B3A8B624
310
0CDA13AA5F8388264EC4A0129909F3B7F5A16CEDF08128E97D680ACA4B9BE7B7B58BB638F0B00700EF36AE8B32A705658A68F83EE897FC2B41573190D1CCAF0B92D233A47CFEB019D9809933F67DD1A5467F8CF69AD9A5AE859342D45355448C64F968A371DC2D596ADC6E43D93D1B466F877A64E2893E54F23C4B40388995
310
525E5005DA3983ED45412510D3EFCA13737B3863F74BD30F2A12E5B4B5E489A025CE25500DB855B11ACE5BBFA185D35DD48D8DC3CE7DC69F2944DB42AA6F6CF09BCA622ADD08C7A36E7C6AE18000BAB08E040135C2D21C9D75B3A91B77BB746C403F38018DFE6EC939DD92F16B40BC05294B9CDA035AAD6D330AE27FE4786B
310
8E45145EA34A75BE1C263A676A35A8ACC6297337400BF16C54EF515F3F77CB77EB3583889C754FFA29081AA98E2222ADEF05DA3E63D2EDEA8B8756C05A7FB6CABC4A91CBF325398202CC952E70A008A830324BA200D5E5EF8F5F04C75DB4B0EE3340E071C98B823333B83577596BF3849B69F2085AA0FAFA212F26BEFF5877
310
FDE622B28D88A42E49E43326DA82D31E8CB006401E1DA726059ECEC168F97A6599036306A135688F9AD2E61A6EA178F4CD51974A9F2CCB9F36FE5EBD14601068D9C3BF01504B0304140006080000B670623B000000000000000000000000350000006662782F42384135303843342D343331462D343546312D424341352D35
310
32343432364645413344462F76657274696365732E62696E504B0304140006080800B670623BF270F1330600000004000000360000006662782F42384135303843342D343331462D343546312D424341352D3532343432364645413344462F747269616E676C65732E62696E636660600000504B0304140006080000B67062
310
3B000000000000000000000000370000006662782F42384135303843342D343331462D343546312D424341352D3532343432364645413344462F617474726962757465732E62696E504B0304140006080800B670623B08DA0BD19000000041010000360000006662782F42384135303843342D343331462D343546312D4243
310
41352D3532343432364645413344462F6469726563746F72792E786D6C858F410AC3201045AF22B36F53E9A60B35CBEEBAE80D244E44489C6234F4F835464A48035D0DF398FF9F8AF63D0E6CC63039F212F8F9020C7D47C6792B21C5FE7403D62A1188E2E60C98D7234A5830286103A55745067B9D86B8A3CF9C7F90C11DE6
310
07FB144396D7B6A82D282E9A152AD114D5EF2CB866EEE831B8EEA07A7BB5A8D7D61A2BAAEB7FD5F70921FF497D00504B0304140006080800B670623B3B4606F3FE000000A00100003B0000006662782F42384135303843342D343331462D343546312D424341352D3532343432364645413344462F7265736F75726365732F
310
636F72652E786D6C8D504B6E833010BD0A9A6D65B08134808CA354A427E8052C332156828DFCA97AFC9A40A576D7CDCCE87D344F8F9FBEE647F689CE6B6B7A6039850C8DB2A336530F315C4903D94970676DF82583CCC8197B5861107C72362E3BA4AC096842428D1D7107A5F71820538F74F4E0D50D6799CB1892C2DFF345
310
AABB9C306779A2934E701F5C0A906D4FD609C2A1B7D129F4BCD858C163D4E3AED163FAA9AF1A1D88F67CA98E6D35906AA82A52BFB39ABCD5CD915C86331BD86BD3B665CD8BD52C78D0F34F46E550061C419494B6843142CB0F5677F4D0D58717DA7494F26295FF31C565FCA7296A13AA728FBBD93C0896823C09C18BB5AFB4
310
9E65A6BD762BBE01504B010214000A0000080000B670623B3DEE336E79000000790000001B00000000000000000000000000000000006175746F6465736B2D64657369676E2D7061636B6167652E786D6C504B01021400140006080800B670623BD486FD9CA0000000F40000001300000000000000000000000000B2000000
310
5B436F6E74656E745F54797065735D2E786D6C504B01021400140006080800B670623B28ED286BEB0000007C010000080000000000000000000000000083010000636F72652E786D6C504B01021400140006080800B670623B55019EA25F0000007C000000070000000000000000000000000094020000636E782E786D6C50
310
4B01021400140006080800B670623B7BC41AC871010000D40300000C00000000000000000000000000180300006662782F636F72652E786D6C504B01021400140006080800B670623B70102A487D0000009D0000000B00000000000000000000000000B30400006662782F636E782E786D6C504B01021400140006080800B6
310
70623B3610CA3329010000120200003100000000000000000000000000590500006662782F42384135303843342D343331462D343546312D424341352D3532343432364645413344462F636F72652E786D6C504B01021400140006080800B670623B1B8617914E010000330300003000000000000000000000000000D10600
310
006662782F42384135303843342D343331462D343546312D424341352D3532343432364645413344462F636E782E786D6C504B01021400140006080800B670623BBFEF2E3B690500003C10000034000000000000000000000000006D0800006662782F42384135303843342D343331462D343546312D424341352D35323434
310
32364645413344462F6F626A656374732E786D6C504B01021400140006080000B670623B0000000000000000000000003500000000000000000000000000280E00006662782F42384135303843342D343331462D343546312D424341352D3532343432364645413344462F76657274696365732E62696E504B010214001400
310
06080800B670623BF270F133060000000400000036000000000000000000000000007B0E00006662782F42384135303843342D343331462D343546312D424341352D3532343432364645413344462F747269616E676C65732E62696E504B01021400140006080000B670623B00000000000000000000000037000000000000
310
00000000000000D50E00006662782F42384135303843342D343331462D343546312D424341352D3532343432364645413344462F617474726962757465732E62696E504B01021400140006080800B670623B08DA0BD1900000004101000036000000000000000000000000002A0F00006662782F42384135303843342D3433
310
31462D343546312D424341352D3532343432364645413344462F6469726563746F72792E786D6C504B01021400140006080800B670623B3B4606F3FE000000A00100003B000000000000000000000000000E1000006662782F42384135303843342D343331462D343546312D424341352D3532343432364645413344462F72
310
65736F75726365732F636F72652E786D6C504B0506000000000E000E0080040000651100000000
  0
XRECORD
  5
187
102
{ACAD_REACTORS
330
186
102
}
330
186
100
AcDbXrecord
280
     1
 70
     1
 90
429727718
  1
887D55A9-D0DD-414E-B741-A7DCD4DA2B4C
310
504B03040A0000080000B670623B3DEE336E79000000790000001B0000006175746F6465736B2D64657369676E2D7061636B6167652E786D6C3C3F786D6C2076657273696F6E3D22312E302220656E636F64696E673D227574662D3822203F3E3C666F726D6174733E3C666F726D61743E687474703A2F2F736368656D612E
310
6175746F6465736B2E636F6D2F64657369676E2D7061636B6167652F323030393C2F666F726D61743E3C2F666F726D6174733E504B0304140006080800B670623BD486FD9CA0000000F4000000130000005B436F6E74656E745F54797065735D2E786D6C7D8EC10E82300C865F65E91D8A1E8C310C0EEA1BF002731658846E
310
D98AC1B77784ABF1D8FE5FBFBF75BBCE937A534CCEB38643598122B6FEE978D0B0485F9C41B54DDD7D022595594E1A469170414C76A4D9A4D207E29CF43ECE46F218070CC6BECC4078ACAA135ACF422C856C0E68EA1BF5669944DDD7BCDE7B1F8E415D77AECB980613C2E4AC91FC167A2B244592486606FC29C8FD7F045B9A
310
EF7053A7E60B504B0304140006080800B670623BBC1638F5EC0000007C01000008000000636F72652E786D6C8D90416EC3201045AF82665B61836BE2D8C24471DB9CA01740401C94182C03558F5F9C3852BBEB6A467FFE9B197D7EF89E6EE8CB2CC17AD7032D0820E394D7D68D3DA478C67B4007C117EFE32F1B202727D3C3
310
2A83E0E3E2D3BC49CABB685CCCAAF3DA6CA20CC14440EA969B1E82BA98491632C5EC08D76296EA2A4753D06797E194AC468F2356E77DF66CCD02825543D50CACC62D39ED70FDC68EB8FD68F6F8787A6784342D1DDA1D2F5758F068A7E77DB518198D065111D2624A31A93E69DD11D6D5EC85EC3B4278B9DAFF4069D6FF8492
310
75F1B5DADE7D600104CD8FDC0782976B16B9DC83CA75CD4DFC00504B0304140006080800B670623B55019EA25F0000007C00000007000000636E782E786D6C4DCB3B0E80201045D1AD90E915ED2CF8AC45050C11660C8261F98AB1B07AC9C97D42D718D865D3E909258CFD00CCE24AC6E326A164D74DC0B4128928FF326038
310
472BA13128B1252AC747C6BAB984FC68F0B87FE8960A5C09FE86CFB69FBA01504B0304140006080800B670623B3586FFB671010000D40300000C0000006662782F636F72652E786D6CC553ED6E8320147D15C2DF4541A76D6D90A6DDD627D80B50A4CE54C120983EFEAE1F4DD7A55BBA5FF3879273EEE59E7310B6393735EA
310
95ED2AA3731C851423A5A5292A5DE6D8BB63B0C268C39935C67D29C3488B46E578803167A535BE9D2169B453DA01AA4DA16650749D7218C91A1639EEE4876A4428BC838AEE14B6429E44A9C228041AEA38EB9C0501681A32BC313F1ECE8C4C3867DE57C5CC56054CAB8E95B298A7F12E5EEED224C8E87E11242FE936C8DE96
310
AB60BB7F4D295D66D12E5B30323473E6AAE6A24E5A259C2A308F29CD82280A68FC1E256B9AAE93F489AED694323294DF34F9B678B0C957DA3DC7B3DCA9ADC33C022123F1CD2D44E450277AD04338234388F01913BE0D1A0281909D38D4171F27807A259DB1093085F157AA17B557309586747CD0CF0B46A64E983A6E0EAEEF
310
CE881F9EF1FB8E70D44297604238581EBC1B74B249C31C5AAB6CD0BB33D2C636A27ECCC62F0EFF445DC5DF95244D6DEC7F2922F30191F9F720C37DE49F504B0304140006080800B670623B4220A0FF7D0000009D0000000B0000006662782F636E782E786D6C4DCCD10A83201886E15B91FFDCE542CB0335D0EC3E6259C84A
310
C3E9D8E5AF46073BFAE0E1E315DD675BD1DBA5978F41C2FD4600B9F088930F8B849267CC01754AA418F3DF0D50183727E164506249B1EC174D6E1ECB9A0F5D7D785E68DB8151CD286E5A5363CA6B8A39E90D36D40E96B086F55A43A544F52B1D7B86D517504B0304140006080800B670623B2FA3FEDE290100001202000031
310
0000006662782F45374635344235342D363743322D343832342D383044432D4334454645303536354442422F636F72652E786D6C8D515B6EC32010BC0AE22B55850D2E386E848994D7097A0117488A1283C5A3CAF10BB523B57FF961D1ECCCECC0F2ED7DBC816FED8371B687A4C210682B9D32F6D2C314CFA883602BB8772E
310
FEA141608751F7B0C050F08B77695A20E96CD43666D43AA5177008414708E42D5F7A18E4971E876A483133C2B59A06791D2EBA22556E679EE021FA1C00CC43CA09C5717D6274C7286AD7FB06D1AEA1A8C3873DDAD3E3E98859CB0EBB1DAF67A1E02919B5C88DCA71CCD968FFAC49110B1ECDF8882FBD1EA256503418BF2342
310
106E3E08DD60B6A1EC15771B8C795DE8FF4469524F8A92B1F1AD59E2CEB20005E1F5DC105CB9F4797B84D1F7C9F908CABC55D0F2050A5C61CC1AD2F27A26E6E767C7962E8E213A9FBF7775FDCC5CC266DB960A5E970DE5F2BBBE5CCB36C50F504B0304140006080800B670623B1B8617914E01000033030000300000006662
310
782F45374635344235342D363743322D343832342D383044432D4334454645303536354442422F636E782E786D6CD593C16EC32010447F0571AD6CE3D489D20813A9877E410FBD62D82434182CC055F3F75D1292E692438FBD206B7698593D61BEFD1E2DF982108D773D6D6B460938E5B571FB9ECE6957AD29D90A1EBC4F77
310
364A9C1CA1A759A682EF839FA72269D8C9D92654AD71C72206887E0E0A22CAF926B15E498B01E0AA19451807D01A34B919F16B070157417138917400F2F6FA41FCF0092A45DEE414C19BDC21783E4BD39D891265658C3D8DEA00A3ACE59CBC8678ACB54CB26EEB6BD7839D7E9348BE70AD9C8321B9BCA7F9A4A26C542347DE
310
E050F09802D22BA6749A800A394DD62899107273365E3C82CFC6A55557BC06C10774B7ABE7AEC3B0F34CF06446280E154026D0542C187BA9DAB6628BF7B6DBB0E5A65B3EB1F58631DE64BBE083F7B65CC218087E22CABB042E51D1F2268F1FE12B3EA24D40D63E9CFE00120194D60B9D5BC67FE6D39CDF37E20AF817881F50
310
4B0304140006080800B670623B29652116630500003C100000340000006662782F45374635344235342D363743322D343832342D383044432D4334454645303536354442422F6F626A656374732E786D6CAD575D739B3814FD2B0CFB0C989834C90EA1639B24E3E9A6EDD4D3CE3E64C623834CD8006224913AFDF57B040203
310
B65BEF871F0C12D2FD3CF7E8CA7FBFCB33E3957291B2E2D674ED8969D02262715A24B76625B7D6B569BC0F7CCE98EC2D338D82E4F4D654D366E0279C55A59E8AE99654991CCDDECFFF3444440B6A1A514684B83545F44C7362934AB2988A173B2692D8C97667BB76B3702836E1A47C1E092D09A78584A5982F20C5688C7287
310
C389E904BEA3BE07BEFAD7ABA6A75739B53F43FD69212429A20365233153D70BEF2E2E6FAC4BCF9B5ADEBB0BD79ADFCF43CBBD9A4E16EF168B9BD9DD0D140BC921495BC2E9D60C1E101B9E46BED37CEA2CD6861F3329624541A3DA7F7858DBAC25C6B4A4458C3CA654405BCFEBC970E8AAD8F43E4FD558ABEC4F9FE7557F47
310
4F506B7BFBEC5BCA367FC105710E2AB8A00A554D7CB4A30DFE26FBA86D18CBF4B75418399194A72433B274C3097F33032C554B027F2046A1932B842B0FCCC0DDCBEBDB8AD2F835768F59B9ADB24C41D30C6A64AF817F2A456D59FA83F2E3DA60137255A585BCD60EC9B7929AC18DEFD49381AF1ED30BFDB109A4B1CD488294
310
C3CDE6EBC8D185AABD6568061FEE37BB95AAC7E3CA4BCE4ACAA5820FA0D526AE7DAA2869B5EE5999531BE0CC20E6FBA07C41E43FA27CF7A6206F3CDD793B4F6B919C1462CB788EDCD893FA674CDA17AB7B3B7C019F8D561FAEE966FED562DFE98C1D12C6A9FC015C2A35D7FF3D7FC398F591DA4B5FE0BFA2C0189FEA50AE22
310
92817A1ED3020951A03432862970F976B33383259812CC8E5D240BBA801CBCF8CE2BBEE3BF910DB6AAD5F79E05123AE2DB33981FB1ACCB02B69D00CB014FD68AB573A7627EF9BFD4CC2C5C7D58557C4B22FAA88925A4DBB44825CECE3D78FB060D1231F0E885BE7D673C86A3874958F593906B5502D1563157814FDAC3420D
310
F69A070A22EC4B98E23CFF171A1E5311D12C23056555ABA53B8614563B92D17D02AAB009E8F46284624E5F53D5490C560CCCC2591FF1B45421EB0EBD8EA7ED13BE7C5D7E0428CD60FEF60779EB13E6664FF711CB185F6FDED60D139A001FF60CD1FD6D086F1D51474901E26B2CB794A343BC8ED3EDB612E0DD2351FCB65CF4
310
33D511C9E14B5B40ADC6A6263DB0336A8F700DDF56271A024E70B0B3629DE21847591E55DED73D56206AB927E46FAABC5C939C55853C274C93D69FD6FA4E78BF8B11DF898C9ECD60553FAD39283BA6F18984AA23E8884F83F45C5F5F859797B31B2B9C84A1E5B9DE9D35BFF25C6B76152E422F9C5DCC3D847F5801ED09D5AF
310
41441327A25FF15487F9EB725FB666F048A4701E9A827292E6F97569A32DF61DEC01C0BB8DCBBCCC684E0B49147C1FD54BF685A0AB18C868E6973949E819523E3DAC463660E68C7D9F55A9D1EFA3BD7A76A16AE1A810F95CE59B82A4D968A376DC2E8B44BBDD86B27B368CDE0ED548C7137DA860591A83706223A12CA712B4
310
7306DBF39C0A20A6DF95C7FAF670C6EED7A61F946493D1D6926782963813403548A78AE470DEF80D2D9CEAA26E4D1C76F60BFE74219A06527D6B82DF641A51616F703CAAC6A7160E08A00BEB4810A0274592A1B36E3675E36E978A0DE80727A0D6DF2D39A75BD27E0D8837276589537B40ABB56D5A41F48F1C6FCD3188C4EB
310
A6929D2FFB89CE995A4D00AE813BDD032DC48B56BD437DFDDC2DD7AED70C2272D63DE9A72068A45A92F0A4BE17A8A06B9366E16707AD80B1FC649459952097E74BB23805982B55E0401150A165964402AA8BDF9F3E7386BB686EDCA780C0D382E5392BF460A6EFB2C6EA1937D3F809B440D5F5435C4C5CF7A9EEFAF54564BD
310
2182DA24162F98680B4E7930C21A0079709CEAEB99A372305ABE0C0D7D6078105A83F6A0296DAEE1068A47DD1C55A9F4C9B2FC69E3EFD44B81028E963DF81B504B0304140006080000B670623B000000000000000000000000350000006662782F45374635344235342D363743322D343832342D383044432D433445464530
310
3536354442422F76657274696365732E62696E504B0304140006080800B670623BF270F1330600000004000000360000006662782F45374635344235342D363743322D343832342D383044432D4334454645303536354442422F747269616E676C65732E62696E636660600000504B0304140006080000B670623B00000000
310
0000000000000000370000006662782F45374635344235342D363743322D343832342D383044432D4334454645303536354442422F617474726962757465732E62696E504B0304140006080800B670623B08DA0BD19000000041010000360000006662782F45374635344235342D363743322D343832342D383044432D4334
310
454645303536354442422F6469726563746F72792E786D6C858F410AC3201045AF22B36F53E9A60B35CBEEBAE80D244E44489C6234F4F835464A48035D0DF398FF9F8AF63D0E6CC63039F212F8F9020C7D47C6792B21C5FE7403D62A1188E2E60C98D7234A5830286103A55745067B9D86B8A3CF9C7F90C11DE607FB144396
310
D7B6A82D282E9A152AD114D5EF2CB866EEE831B8EEA07A7BB5A8D7D61A2BAAEB7FD5F70921FF497D00504B0304140006080800B670623B6378F24DFF000000A00100003B0000006662782F45374635344235342D363743322D343832342D383044432D4334454645303536354442422F7265736F75726365732F636F72652E
310
786D6C8D504B6E833010BD0A9A6D65B0094E42641C85B639412F6099496225D8C89FAAC7AF09546A77DDCC8CDE47F3F4C4F16B7C149FE88371B603565228D06A37187BED20C50BD9437194C23B177FC9A0B06AC40E6618A4B87A97A615D2CE46B431A3D60DB8822A048C50E8473E3A08FA86A32A558A5911EEE5A4F45D5DB1
310
6465A6B34E8A107D0E502C4FE609D26370C96B0CA25A58295232C3AA3143FE692E063D485EF7F5AEE71BD2D2F39634AFFC44DAF7DD9E9CCE6F9CD25DCBFA762BAAD92C4534E34F46ED51451C40D694B6843142EB0FD61C283F34FC85EE0F948A6A96FF31A569F8A729191B37F51A77B105902C0779125254735F793DCBCC7B
310
EE567E03504B010214000A0000080000B670623B3DEE336E79000000790000001B00000000000000000000000000000000006175746F6465736B2D64657369676E2D7061636B6167652E786D6C504B01021400140006080800B670623BD486FD9CA0000000F40000001300000000000000000000000000B20000005B436F6E
310
74656E745F54797065735D2E786D6C504B01021400140006080800B670623BBC1638F5EC0000007C010000080000000000000000000000000083010000636F72652E786D6C504B01021400140006080800B670623B55019EA25F0000007C000000070000000000000000000000000095020000636E782E786D6C504B010214
310
00140006080800B670623B3586FFB671010000D40300000C00000000000000000000000000190300006662782F636F72652E786D6C504B01021400140006080800B670623B4220A0FF7D0000009D0000000B00000000000000000000000000B40400006662782F636E782E786D6C504B01021400140006080800B670623B2F
310
A3FEDE290100001202000031000000000000000000000000005A0500006662782F45374635344235342D363743322D343832342D383044432D4334454645303536354442422F636F72652E786D6C504B01021400140006080800B670623B1B8617914E010000330300003000000000000000000000000000D2060000666278
310
2F45374635344235342D363743322D343832342D383044432D4334454645303536354442422F636E782E786D6C504B01021400140006080800B670623B29652116630500003C10000034000000000000000000000000006E0800006662782F45374635344235342D363743322D343832342D383044432D4334454645303536
310
354442422F6F626A656374732E786D6C504B01021400140006080000B670623B0000000000000000000000003500000000000000000000000000230E00006662782F45374635344235342D363743322D343832342D383044432D4334454645303536354442422F76657274696365732E62696E504B01021400140006080800
310
B670623BF270F13306000000040000003600000000000000000000000000760E00006662782F45374635344235342D363743322D343832342D383044432D4334454645303536354442422F747269616E676C65732E62696E504B01021400140006080000B670623B0000000000000000000000003700000000000000000000
310
000000D00E00006662782F45374635344235342D363743322D343832342D383044432D4334454645303536354442422F617474726962757465732E62696E504B01021400140006080800B670623B08DA0BD190000000410100003600000000000000000000000000250F00006662782F45374635344235342D363743322D34
310
3832342D383044432D4334454645303536354442422F6469726563746F72792E786D6C504B01021400140006080800B670623B6378F24DFF000000A00100003B00000000000000000000000000091000006662782F45374635344235342D363743322D343832342D383044432D4334454645303536354442422F7265736F75
310
726365732F636F72652E786D6C504B0506000000000E000E0080040000611100000000
  0
XRECORD
  5
112
102
{ACAD_REACTORS
330
110
102
}
330
110
100
AcDbXrecord
280
     1
270
     1
271
     1
  0
XRECORD
  5
111
102
{ACAD_REACTORS
330
110
102
}
330
110
100
AcDbXrecord
280
     1
270
     1
271
     1
  0
XRECORD
  5
18A
102
{ACAD_REACTORS
330
110
102
}
330
110
100
AcDbXrecord
280
     1
 70
     0
 90
1778669749
  1
9BF507EE-FAF7-4A99-A33D-4EE51894BC40
310
504B03040A0000080000B670623B3DEE336E79000000790000001B0000006175746F6465736B2D64657369676E2D7061636B6167652E786D6C3C3F786D6C2076657273696F6E3D22312E302220656E636F64696E673D227574662D3822203F3E3C666F726D6174733E3C666F726D61743E687474703A2F2F736368656D612E
310
6175746F6465736B2E636F6D2F64657369676E2D7061636B6167652F323030393C2F666F726D61743E3C2F666F726D6174733E504B0304140006080800B670623BD486FD9CA0000000F4000000130000005B436F6E74656E745F54797065735D2E786D6C7D8EC10E82300C865F65E91D8A1E8C310C0EEA1BF002731658846E
310
D98AC1B77784ABF1D8FE5FBFBF75BBCE937A534CCEB38643598122B6FEE978D0B0485F9C41B54DDD7D022595594E1A469170414C76A4D9A4D207E29CF43ECE46F218070CC6BECC4078ACAA135ACF422C856C0E68EA1BF5669944DDD7BCDE7B1F8E415D77AECB980613C2E4AC91FC167A2B244592486606FC29C8FD7F045B9A
310
EF7053A7E60B504B0304140006080800B670623BCA089DFFEC0000007C01000008000000636F72652E786D6C8D90416E83301045AF62CDB632D8402020E32882F604BD80653BC44AB011B6AB1EBF262152BBEB6A467FFE9B197D76FA9EEFE84BAFDE38DB03CD08206DA553C64E3DC470C1474027CE56E7C22F1B202B66DDC3
310
260367D3EAE2B24BD2D9A06D48AA754AEFA2F05E0740F29E9A1EBCBCEA59642286E4F0B76C11F226269DD15797E0188D42CF2346A57DE662F40ABCAEC77628C6120F654571D50C04B7F5B9C1E3997CD4F550BE3745C3F20DE62C98F9755FAE5A04AD801784B498524C8A4F5A75E4D055873772EC0861F966FF03C545FD138A
310
C686B2D8DF7D621E384D8F3C069CE55B16A93C824A75CB8DFF00504B0304140006080800B670623B55019EA25F0000007C00000007000000636E782E786D6C4DCB3B0E80201045D1AD90E915ED2CF8AC45050C11660C8261F98AB1B07AC9C97D42D718D865D3E909258CFD00CCE24AC6E326A164D74DC0B4128928FF326038
310
472BA13128B1252AC747C6BAB984FC68F0B87FE8960A5C09FE86CFB69FBA01504B0304140006080800B670623B68FC0B7272010000D40300000C0000006662782F636F72652E786D6CC5535B6E833010BC8AE5DF0A6C1E8124328E22D29EA01770C0A128602363A31CBFCB234A53A555FA553EC09AD9F5CE8C31DB5DDA060D
310
D2F4B556190E7C8A9154852E6B5565D8D993B7C668C799D1DA7E29C3488956667884316795D1AE5BA0422B2B950554E9522EA0E87B69312A1A5864B82F3E642B7CE12C54F467BF13C55954D20F7CA0A18EB3DE1A1080E621E31BF3D3F1C2C88C73E65C5D2E6C5DC2B4FA544B8379921C36797888BC3C8A032F4E73EA6D927D
310
EA1DF6F42D49F2E8350D5346C666CE6CDD5ED515460A2B4BCC434A375E1078347C0FE22D5D6DE3D50B5D6F2965642CBF6B725DF96493AB958DC245EEDCD6631E809089F8E61622B2A81703E8219C913144F84C09DF070D8140C8561C9BAB8F3340832CAC363130A576376A108D933095FA747AD0CF0B46E64E983A6D0EAE1F
310
CE089F9EF1FB8E70D44255604258581E9D1D75B259C3125A278D37D80B52DAB4A279CEC62F0EFF44DDC43F9454E8469BFF5244960322CBEF41C6FBC83F01504B0304140006080800B670623B0F71DDB67E0000009D0000000B0000006662782F636E782E786D6C4DCCD10A83201886E15B91FFDCA54DB73F502386BB8F5816
310
32D3703976F9ABD1C18E3E78F87855FB990379BBFCF2296AE02706C4C5471A7C9C349475A408A4352AA7B4FEDD80C47E761A7606A3A69CCA72D0E0C6BE8475D3E0E3F3409428EA6B27A84079A782899AA2EC1A7AE3ECCC2FD858CB2D544655BFD2B67BD87C01504B0304140006080800B670623BE134B4FB28010000120200
310
00310000006662782F38353834323741342D343835462D343034322D383541392D4331303331363839454531452F636F72652E786D6C8D515B6EC32010BC0AE22B55850D0EA424C24451959EA0172086A42831583CAA1CBF503B52FB971F16CDCECC0EACD8DFC71BF836215AEF7A481A0C817183D7D65D7A98D3197108F652
310
04EFD31F1A044E8DA6871586525C82CFD3020DDE25E352419DD76601558C264130DCCAA58771F832A36A544E8511AFCDA486ABBA988634A55D7852C4144A00300FA927949C71DABD1D28A29C7D208A6987383B6CD13BC16BB2E1DBE3911C453B0BA5C8D9EA456E758963CFD684674DAA588A64C747FC2118958C86B2C3788B
310
0841B8FB247487D98EB257CC77188BB6D2FF89F2A49F1465EBD2BA5BE2CEB2082511EDDC9042FB7CBA3DC298FBE4430275DE2A9AE1054ADC60CC08E3A29D89E5F9C5714317C7987C28DFBBBA9E0A97B0D97643A568EB864AF95D5FA9759BF207504B0304140006080800B670623B1B8617914E010000330300003000000066
310
62782F38353834323741342D343835462D343034322D383541392D4331303331363839454531452F636E782E786D6CD593C16EC32010447F0571AD6CE3D489D20813A9877E410FBD62D82434182CC055F3F75D1292E692438FBD206B7698593D61BEFD1E2DF982108D773D6D6B460938E5B571FB9ECE6957AD29D90A1EBC4F
310
77364A9C1CA1A759A682EF839FA72269D8C9D92654AD71C72206887E0E0A22CAF926B15E498B01E0AA19451807D01A34B919F16B070157417138917400F2F6FA41FCF0092A45DEE414C19BDC21783E4BD39D891265658C3D8DEA00A3ACE59CBC8678ACB54CB26EEB6BD7839D7E9348BE70AD9C8321B9BCA7F9A4A26C542347
310
DEE050F09802D22BA6749A800A394DD62899107273365E3C82CFC6A55557BC06C10774B7ABE7AEC3B0F34CF06446280E154026D0542C187BA9DAB6628BF7B6DBB0E5A65B3EB1F58631DE64BBE083F7B65CC218087E22CABB042E51D1F2268F1FE12B3EA24D40D63E9CFE00120194D60B9D5BC67FE6D39CDF37E20AF817881F
310
504B0304140006080800B670623B5933D422630500003B100000340000006662782F38353834323741342D343835462D343034322D383541392D4331303331363839454531452F6F626A656374732E786D6CAD575B6FA33814FE2B887D0642934E9B156594264D158D3A534DD4D13E548A0C38942D60649B4EBABF7E3F8321
310
40924EF6928780CDF1B97EE762EFF32E4B8D37CA45C2F21BD3B547A641F39045491EDF98A5DC5AD7A6F1D9F73863B243661A39C9E88DA9B64DDF8B392B0BBD15D12D295339D85DDEFE618890E6D434C2940871638AF08566C426A5641115AF764424B1E3EDCE76ED9AB0CF36E6A47819302D08A7B984A6D8CFC1C5A89572FB
310
CB91E9F89EA3BEFB9EFAD754E3D3544E654F5F7E920B49F2F040D880CDD89D2CEE2E2EA7D6E56432B6269F2E5CEB7679BBB0DCABF168FE693E9FCEEEA6102C240727AD09A75BD3BF876F78127A4EFDA9D5582B7E4CA590E5390D2BFB6161A5B3E618D182E611E2985001691DAB47FDA5AB7CD3F93C566B2DB2BB7D9E55DD13
310
1D468DEECDB3AB290BFE8409E21C54704115AA6AFF68436BFC8DF65E0B184BF5B74418199194272435D224E084BF9B3E481589EFF5D828747285706581E9BB7B7E5D5D911ABFC6EE312DB7659A2A689A7E85EC0DF04FA5A8344BFEA2FCB834E8845895492EAFB541F2BDA0A63FF59C6AD3F7D4637CA13FD68E34B629891172
310
98597F1D183A57B9B75A98FE9765B05BAB7C3C2EBCE0ACA05C2AF8005A4DE09AA7F29216EB9E15397500C6F47CBE77CA7778FE2BD277AF0AE2C693DD6437D1522427B9D8329E2136F6A8FA19A3E6C56ADF0E5F50CF06D48734EDCEBF22F69C56D97EC138153F804B85E6FABFC7AFEFB32E523BE1F3BD372418E363EDCA7548
310
52949E8724474014288D94610BB57C1BEC4C7F854A89CA8E5324F55B871CBC78CE1BBEE3BFE68D6A5589EF3C730474506FCFA8FCF0659516D0ED04580EEA6425581B77CAE797FF4BCECC16EB2FEB926F49481F746159D06D922712BD730FDEAE42BD40F42C7AA5EF3F198F60E86110D6DD20645A9480B795CF95E3E3A659A8
310
C55E724F408873315335CFFB8584874484344D494E59D94869DB90C26A5B64F49C802CAC1D3ABE18A098D3B7444D123D8A9E5AE8F5214F0AE5B2B6E9B575DA3E61CBD3EA2B4009FA940524DD1305FB6A1FB294F14DF0BEA90BA109ECE1481FDC3FFAE8D60E75141700BE82725371B4873751B2DD960265F788137FACE6DD40
310
B575E4F0A5C99F46629D92131467A41EE11ABD8D4CCC039CA0AFB37C93A08B232B8F0AEFCA1E0A1015DF13FC83322B362463652ECF71D3A8B1A7D1BE65DE1D62C44F22C317D35F574FEB16153BA2D13E543D10A80E74C4A65E78A6B7CBCBD1D5DD9DB59C2DAFACC96C3AB566E3F1C29ADCDD5DBAD7D3C9ED7C822ED74F80A6
310
41755310DE4443F44A9E68373FADF6596BFA0F440AE7BECE2727AE9F4F2B1B53B1E7E00CF0DD1E5C65454A339A4BA2D0FBA05ED2EF0443458F47BDBFCA484CCFE0F2ED7E3DD0013B679C7B5499467F0ECEEADDB9CA85A34CE44B99053949D2C1416DB85DE4B136BB7165FBAC0B7AB3542BED4F8CA182A549847A1319316519
310
95A83A67147B9E5101C47487F2485F1ECE38FD568F839204296D3479219888530154036E6528FBFBC66F98E0D4107563A2D7D9AFF8D389681A08F58D89F22693900A3B407754734FC51C10C010D6D640809EE4718AC1BA3ED4AEDB53CA37283F68805A7E4B72CEB0A4EDEAD5DD8C14059A76AFAA56BA6901E13F32BC51C720
310
12AF41295B5BF61BAD3195181FB506E6B40F4C10AF5AF40EF9F5B159AE5DD1F43C72D635E94310D45C2D49785C5D0B94D3B54AB3C5A38349C0587D338AB48C11CBF339599C02CCA54A70A008A8D03C0B2201D5F9EFCF8F9CE12A9A19CB0410789EB32C63B95ECCF455D658BFE0621A3DA32C5075FB101723D77DAE867E7D0F
310
D90444509B44E2151B4DC2290B065803200FBAA9BE9D392A0603F2D5C2D00D6302A615680F66D2FA166E2079D4C551A54AB758161FCEFD4E450A14704CECFEDF504B0304140006080000B670623B000000000000000000000000350000006662782F38353834323741342D343835462D343034322D383541392D4331303331
310
363839454531452F76657274696365732E62696E504B0304140006080800B670623BF270F1330600000004000000360000006662782F38353834323741342D343835462D343034322D383541392D4331303331363839454531452F747269616E676C65732E62696E636660600000504B0304140006080000B670623B000000
310
000000000000000000370000006662782F38353834323741342D343835462D343034322D383541392D4331303331363839454531452F617474726962757465732E62696E504B0304140006080800B670623B08DA0BD19000000041010000360000006662782F38353834323741342D343835462D343034322D383541392D43
310
31303331363839454531452F6469726563746F72792E786D6C858F410AC3201045AF22B36F53E9A60B35CBEEBAE80D244E44489C6234F4F835464A48035D0DF398FF9F8AF63D0E6CC63039F212F8F9020C7D47C6792B21C5FE7403D62A1188E2E60C98D7234A5830286103A55745067B9D86B8A3CF9C7F90C11DE607FB1443
310
96D7B6A82D282E9A152AD114D5EF2CB866EEE831B8EEA07A7BB5A8D7D61A2BAAEB7FD5F70921FF497D00504B0304140006080800B670623BD9A3B367FE000000A00100003B0000006662782F38353834323741342D343835462D343034322D383541392D4331303331363839454531452F7265736F75726365732F636F7265
310
2E786D6C8D504B6E833010BD0A9A6D65B01D0201194711694FD00B586642AD043BF2A7EAF16B122AB5BB6E6646EFA3797AE2F8B5DC8A4FF4C1383B002B291468B59B8C9D0748F1420E501CA5F0CEC55F3228AC5A708015062966EFD27D83B4B3116DCCA875136EA00A012314FA968F0182FEC045952AC5AC08D7F2AEF455CD
310
58B232D3592745883E07289E4FD609D26370C96B0CA27AB252A464A64D63A6FCD35C0C7A904D73EE467EE664DCD58CD4ED4849D79C5A723ED1B7A61977AF2D6F45B59AA58866F9C9A83DAA8813484E6947182394BFB3BAA7FBBEDEBFD0434FA9A856F91F53BA4FFF342563E38E6F719FB60092E5200F428A6AED2BAF479979
310
AFDDCA6F504B010214000A0000080000B670623B3DEE336E79000000790000001B00000000000000000000000000000000006175746F6465736B2D64657369676E2D7061636B6167652E786D6C504B01021400140006080800B670623BD486FD9CA0000000F40000001300000000000000000000000000B20000005B436F6E
310
74656E745F54797065735D2E786D6C504B01021400140006080800B670623BCA089DFFEC0000007C010000080000000000000000000000000083010000636F72652E786D6C504B01021400140006080800B670623B55019EA25F0000007C000000070000000000000000000000000095020000636E782E786D6C504B010214
310
00140006080800B670623B68FC0B7272010000D40300000C00000000000000000000000000190300006662782F636F72652E786D6C504B01021400140006080800B670623B0F71DDB67E0000009D0000000B00000000000000000000000000B50400006662782F636E782E786D6C504B01021400140006080800B670623BE1
310
34B4FB280100001202000031000000000000000000000000005C0500006662782F38353834323741342D343835462D343034322D383541392D4331303331363839454531452F636F72652E786D6C504B01021400140006080800B670623B1B8617914E010000330300003000000000000000000000000000D3060000666278
310
2F38353834323741342D343835462D343034322D383541392D4331303331363839454531452F636E782E786D6C504B01021400140006080800B670623B5933D422630500003B10000034000000000000000000000000006F0800006662782F38353834323741342D343835462D343034322D383541392D4331303331363839
310
454531452F6F626A656374732E786D6C504B01021400140006080000B670623B0000000000000000000000003500000000000000000000000000240E00006662782F38353834323741342D343835462D343034322D383541392D4331303331363839454531452F76657274696365732E62696E504B01021400140006080800
310
B670623BF270F13306000000040000003600000000000000000000000000770E00006662782F38353834323741342D343835462D343034322D383541392D4331303331363839454531452F747269616E676C65732E62696E504B01021400140006080000B670623B0000000000000000000000003700000000000000000000
310
000000D10E00006662782F38353834323741342D343835462D343034322D383541392D4331303331363839454531452F617474726962757465732E62696E504B01021400140006080800B670623B08DA0BD190000000410100003600000000000000000000000000260F00006662782F38353834323741342D343835462D34
310
3034322D383541392D4331303331363839454531452F6469726563746F72792E786D6C504B01021400140006080800B670623BD9A3B367FE000000A00100003B000000000000000000000000000A1000006662782F38353834323741342D343835462D343034322D383541392D4331303331363839454531452F7265736F75
310
726365732F636F72652E786D6C504B0506000000000E000E0080040000611100000000
  0
XRECORD
  5
113
102
{ACAD_REACTORS
330
110
102
}
330
110
100
AcDbXrecord
280
     1
270
     1
271
     1
  0
XRECORD
  5
114
102
{ACAD_REACTORS
330
110
102
}
330
110
100
AcDbXrecord
280
     1
270
     1
271
     1
  0
CELLSTYLEMAP
  5
E371
102
{ACAD_REACTORS
330
104
102
}
330
104
100
AcDbCellStyleMap
 90
        3
300
CELLSTYLE
  1
TABLEFORMAT_BEGIN
 90
        5
170
     1
 91
        0
 92
    32768
 62
   257
 93
        1
300
CONTENTFORMAT
  1
CONTENTFORMAT_BEGIN
 90
        0
 91
        0
 92
      512
 93
        0
300

 40
0.0
140
1.0
 94
        5
 62
     0
340
11
144
0.25
309
CONTENTFORMAT_END
171
     1
301
MARGIN
  1
CELLMARGIN_BEGIN
 40
0.06
 40
0.06
 40
0.06
 40
0.06
 40
0.18
 40
0.18
309
CELLMARGIN_END
 94
        6
 95
        1
302
GRIDFORMAT
  1
GRIDFORMAT_BEGIN
 90
        0
 91
        1
 62
     0
 92
       -2
340
0
 93
        0
 40
0.045
309
GRIDFORMAT_END
 95
        2
302
GRIDFORMAT
  1
GRIDFORMAT_BEGIN
 90
        0
 91
        1
 62
     0
 92
       -2
340
0
 93
        0
 40
0.045
309
GRIDFORMAT_END
 95
        4
302
GRIDFORMAT
  1
GRIDFORMAT_BEGIN
 90
        0
 91
        1
 62
     0
 92
       -2
340
0
 93
        0
 40
0.045
309
GRIDFORMAT_END
 95
        8
302
GRIDFORMAT
  1
GRIDFORMAT_BEGIN
 90
        0
 91
        1
 62
     0
 92
       -2
340
0
 93
        0
 40
0.045
309
GRIDFORMAT_END
 95
       16
302
GRIDFORMAT
  1
GRIDFORMAT_BEGIN
 90
        0
 91
        1
 62
     0
 92
       -2
340
0
 93
        0
 40
0.045
309
GRIDFORMAT_END
 95
       32
302
GRIDFORMAT
  1
GRIDFORMAT_BEGIN
 90
        0
 91
        1
 62
     0
 92
       -2
340
0
 93
        0
 40
0.045
309
GRIDFORMAT_END
309
TABLEFORMAT_END
  1
CELLSTYLE_BEGIN
 90
        1
 91
        1
300
_TITLE
309
CELLSTYLE_END
300
CELLSTYLE
  1
TABLEFORMAT_BEGIN
 90
        5
170
     1
 91
        0
 92
        0
 62
   257
 93
        1
300
CONTENTFORMAT
  1
CONTENTFORMAT_BEGIN
 90
        0
 91
        0
 92
      512
 93
        0
300

 40
0.0
140
1.0
 94
        5
 62
     0
340
11
144
0.18
309
CONTENTFORMAT_END
171
     1
301
MARGIN
  1
CELLMARGIN_BEGIN
 40
0.06
 40
0.06
 40
0.06
 40
0.06
 40
0.18
 40
0.18
309
CELLMARGIN_END
 94
        6
 95
        1
302
GRIDFORMAT
  1
GRIDFORMAT_BEGIN
 90
        0
 91
        1
 62
     0
 92
       -2
340
0
 93
        0
 40
0.045
309
GRIDFORMAT_END
 95
        2
302
GRIDFORMAT
  1
GRIDFORMAT_BEGIN
 90
        0
 91
        1
 62
     0
 92
       -2
340
0
 93
        0
 40
0.045
309
GRIDFORMAT_END
 95
        4
302
GRIDFORMAT
  1
GRIDFORMAT_BEGIN
 90
        0
 91
        1
 62
     0
 92
       -2
340
0
 93
        0
 40
0.045
309
GRIDFORMAT_END
 95
        8
302
GRIDFORMAT
  1
GRIDFORMAT_BEGIN
 90
        0
 91
        1
 62
     0
 92
       -2
340
0
 93
        0
 40
0.045
309
GRIDFORMAT_END
 95
       16
302
GRIDFORMAT
  1
GRIDFORMAT_BEGIN
 90
        0
 91
        1
 62
     0
 92
       -2
340
0
 93
        0
 40
0.045
309
GRIDFORMAT_END
 95
       32
302
GRIDFORMAT
  1
GRIDFORMAT_BEGIN
 90
        0
 91
        1
 62
     0
 92
       -2
340
0
 93
        0
 40
0.045
309
GRIDFORMAT_END
309
TABLEFORMAT_END
  1
CELLSTYLE_BEGIN
 90
        2
 91
        1
300
_HEADER
309
CELLSTYLE_END
300
CELLSTYLE
  1
TABLEFORMAT_BEGIN
 90
        5
170
     1
 91
        0
 92
        0
 62
   257
 93
        1
300
CONTENTFORMAT
  1
CONTENTFORMAT_BEGIN
 90
        0
 91
        0
 92
      512
 93
        0
300

 40
0.0
140
1.0
 94
        2
 62
     0
340
11
144
0.18
309
CONTENTFORMAT_END
171
     1
301
MARGIN
  1
CELLMARGIN_BEGIN
 40
0.06
 40
0.06
 40
0.06
 40
0.06
 40
0.18
 40
0.18
309
CELLMARGIN_END
 94
        6
 95
        1
302
GRIDFORMAT
  1
GRIDFORMAT_BEGIN
 90
        0
 91
        1
 62
     0
 92
       -2
340
0
 93
        0
 40
0.045
309
GRIDFORMAT_END
 95
        2
302
GRIDFORMAT
  1
GRIDFORMAT_BEGIN
 90
        0
 91
        1
 62
     0
 92
       -2
340
0
 93
        0
 40
0.045
309
GRIDFORMAT_END
 95
        4
302
GRIDFORMAT
  1
GRIDFORMAT_BEGIN
 90
        0
 91
        1
 62
     0
 92
       -2
340
0
 93
        0
 40
0.045
309
GRIDFORMAT_END
 95
        8
302
GRIDFORMAT
  1
GRIDFORMAT_BEGIN
 90
        0
 91
        1
 62
     0
 92
       -2
340
0
 93
        0
 40
0.045
309
GRIDFORMAT_END
 95
       16
302
GRIDFORMAT
  1
GRIDFORMAT_BEGIN
 90
        0
 91
        1
 62
     0
 92
       -2
340
0
 93
        0
 40
0.045
309
GRIDFORMAT_END
 95
       32
302
GRIDFORMAT
  1
GRIDFORMAT_BEGIN
 90
        0
 91
        1
 62
     0
 92
       -2
340
0
 93
        0
 40
0.045
309
GRIDFORMAT_END
309
TABLEFORMAT_END
  1
CELLSTYLE_BEGIN
 90
        3
 91
        2
300
_DATA
309
CELLSTYLE_END
  0
ENDSEC
  0
SECTION
  2
ACDSDATA
 70
     2
 71
     8
  0
ACDSSCHEMA
 90
        0
  1
AcDb_Thumbnail_Schema
  2
AcDbDs::ID
280
    10
 91
        8
  2
Thumbnail_Data
280
    15
 91
        0
101
ACDSRECORD
 95
        0
 90
        1
  2
AcDbDs::TreatedAsObjectData
280
     1
291
     1
101
ACDSRECORD
 95
        0
 90
        2
  2
AcDbDs::Legacy
280
     1
291
     1
101
ACDSRECORD
  1
AcDbDs::ID
 90
        3
  2
AcDs:Indexable
280
     1
291
     1
101
ACDSRECORD
  1
AcDbDs::ID
 90
        4
  2
AcDbDs::HandleAttribute
280
     7
282
     1
  0
ACDSSCHEMA
 90
        1
  1
AcDbDs::TreatedAsObjectDataSchema
  2
AcDbDs::TreatedAsObjectData
280
     1
 91
        0
  0
ACDSSCHEMA
 90
        2
  1
AcDbDs::LegacySchema
  2
AcDbDs::Legacy
280
     1
 91
        0
  0
ACDSSCHEMA
 90
        3
  1
AcDbDs::IndexedPropertySchema
  2
AcDs:Indexable
280
     1
 91
        0
  0
ACDSSCHEMA
 90
        4
  1
AcDbDs::HandleAttributeSchema
  2
AcDbDs::HandleAttribute
280
     7
 91
        1
284
     1
  0
ACDSRECORD
 90
        0
  2
AcDbDs::ID
280
    10
320
22
  2
Thumbnail_Data
280
    15
 94
     1624
310
89504E470D0A1A0A0000000D49484452000001000000005808030000002D06D97A00000300504C5445212830FFFFFF2128300000000000000000000000000000000000000000000000000000330000660000990000CC0000FF0033000033330033660033990033CC0033FF0066000066330066660066990066CC0066FF0099
310
000099330099660099990099CC0099FF00CC0000CC3300CC6600CC9900CCCC00CCFF00FF0000FF3300FF6600FF9900FFCC00FFFF3300003300333300663300993300CC3300FF3333003333333333663333993333CC3333FF3366003366333366663366993366CC3366FF3399003399333399663399993399CC3399FF33CC00
310
33CC3333CC6633CC9933CCCC33CCFF33FF0033FF3333FF6633FF9933FFCC33FFFF6600006600336600666600996600CC6600FF6633006633336633666633996633CC6633FF6666006666336666666666996666CC6666FF6699006699336699666699996699CC6699FF66CC0066CC3366CC6666CC9966CCCC66CCFF66FF0066
310
FF3366FF6666FF9966FFCC66FFFF9900009900339900669900999900CC9900FF9933009933339933669933999933CC9933FF9966009966339966669966999966CC9966FF9999009999339999669999999999CC9999FF99CC0099CC3399CC6699CC9999CCCC99CCFF99FF0099FF3399FF6699FF9999FFCC99FFFFCC0000CC00
310
33CC0066CC0099CC00CCCC00FFCC3300CC3333CC3366CC3399CC33CCCC33FFCC6600CC6633CC6666CC6699CC66CCCC66FFCC9900CC9933CC9966CC9999CC99CCCC99FFCCCC00CCCC33CCCC66CCCC99CCCCCCCCCCFFCCFF00CCFF33CCFF66CCFF99CCFFCCCCFFFFFF0000FF0033FF0066FF0099FF00CCFF00FFFF3300FF3333
310
FF3366FF3399FF33CCFF33FFFF6600FF6633FF6666FF6699FF66CCFF66FFFF9900FF9933FF9966FF9999FF99CCFF99FFFFCC00FFCC33FFCC66FFCC99FFCCCCFFCCFFFFFF00FFFF33FFFF66FFFF99FFFFCCFFFFFF0000000D0D0D1A1A1A2828283535354343435050505D5D5D6B6B6B787878868686939393A1A1A1AEAEAEBB
310
BBBBC9C9C9D6D6D6E4E4E4F1F1F1FFFFFF0000000000000000000000000000000000000000000000000000000000002E4550F1000003134944415478DAED9CDDB6EA200C8479FFF7FDEECF59AB7F5451120A81C4DDBDDC5EA82D192693095453FA3BE61EFC3F646F4C048B7B7FDE1E22A08814FF1E36DB03110336B00802C0
310
16FBF62C9A5C88448433F2830E5455824D07A224C2C97DA8A40037A28411829DCFFBFC52D3CB6DEE63E9E0115A4D0337DD6397BF6008C82A3CD7BF6014C84A3C12D7B0BF9560009C35AE0EC0A10541EA6029C29A078CC200C42E175A3A0747F35F0B297F398C0266F5AC3AA597F7219C0912CE6ADE3986E815B9CDAB04816A
310
FC5785748004FB5F1253207342C5A9E76B85597129E41E3A8DF17F996C56CF80A44280A20252C909476E00110350C4E84610650894AA00B10040F83682C57F0D551A0F20718FFE9A02AA6B42376BB854FCF0C483904408681A22FBF89F746B7C47A001590CD95B1CD93962C9C0DF5AFDD7431D1496CC17BCFEC1AB8E33EE98
310
4DBF1AADAC88AD322ED30B1D1B4043DB35B3F9C7FE93B34FEEC06890FEE2B7BD10B0D03A0CC6577A0B793606C60014A39D4705C3CB1ECDF9025ADC6EC03B24806044A1B672DF044046CA811890E6E8AFBA3B1934BC59F40265FC83C6CAEC14983D5F2C2F018331980C40E3F53B0A16BE32A03F0FDC02F0000196B85582E797
310
A7397FB2EB7A06404D82CB51992CAAB53642C330C837421477550C05C04EC6F8B0291C0100D1B641DF3ADCCB0A77ACE5B5BD85312AF478D4232CDD1B233EF183B0002444F77A75D2E1C500505585E92A487F0268763F090880EA1EF8B939308A018A46716E0E0C6200284EFBFAED19CBE531FA0240D369B96FCDD87E9BB433
310
00483D51D9207108887700B4497D154F5DF2AC2B82CA447E4D7F8F1A40217E7929B82501EE1850F2BB4A36D3C89D2500F8ACDAA82D7186A72B069461D1054133762BA440392D9E74D29E0028DD02DB1040EEA3DDFA0068EFF018D2A01BAF07E48BDE4D4A62ED840602A03D6F66070DAD407F00D2EDE754541FBCEEC74EEE01
310
6829E69CC614530630EA8CFA3A78FD0A095E09F0E08C1C2BC98E17849E01702980693348F753366F98FB6C853E99210FC7A0C507575FF40C79FBAB42747E38FC64BDFAB8DEF4C3AFC79F7EF9881AFD3F85D1E56822A79A960000000049454E44AE426082
  0
ENDSEC
  0
EOF
