  0
SECTION
  2
HEADER
  9
$ACADVER
  1
AC1032
  9
$ACADMAINTVER
 90
      197
  9
$DWGCODEPAGE
  3
ANSI_1252
  9
$LASTSAVEDBY
  1
gregb
  9
$REQUIREDVERSIONS
160
                 0
  9
$INSBASE
 10
0.0
 20
0.0
 30
0.0
  9
$EXTMIN
 10
2034.145284672705
 20
18162.39000855332
 30
0.0
  9
$EXTMAX
 10
3406.323621315556
 20
18791.11662521515
 30
0.0
  9
$LIMMIN
 10
0.0
 20
0.0
  9
$LIMMAX
 10
12.0
 20
9.0
  9
$ORTHOMODE
 70
     0
  9
$REGENMODE
 70
     1
  9
$FILLMODE
 70
     1
  9
$QTEXTMODE
 70
     0
  9
$MIRRTEXT
 70
     0
  9
$LTSCALE
 40
1.0
  9
$ATTMODE
 70
     1
  9
$TEXTSIZE
 40
0.2
  9
$TRACEWID
 40
0.05
  9
$TEXTSTYLE
  7
Standard
  9
$CLAYER
  8
freecads.com
  9
$CELTYPE
  6
ByLayer
  9
$CECOLOR
 62
   256
  9
$CELTSCALE
 40
1.0
  9
$DISPSILH
 70
     1
  9
$DIMSCALE
 40
1.0
  9
$DIMASZ
 40
0.18
  9
$DIMEXO
 40
0.0625
  9
$DIMDLI
 40
0.38
  9
$DIMRND
 40
0.0
  9
$DIMDLE
 40
0.0
  9
$DIMEXE
 40
0.18
  9
$DIMTP
 40
0.0
  9
$DIMTM
 40
0.0
  9
$DIMTXT
 40
0.18
  9
$DIMCEN
 40
0.09
  9
$DIMTSZ
 40
0.0
  9
$DIMTOL
 70
     0
  9
$DIMLIM
 70
     0
  9
$DIMTIH
 70
     1
  9
$DIMTOH
 70
     1
  9
$DIMSE1
 70
     0
  9
$DIMSE2
 70
     0
  9
$DIMTAD
 70
     0
  9
$DIMZIN
 70
     0
  9
$DIMBLK
  1

  9
$DIMASO
 70
     1
  9
$DIMSHO
 70
     1
  9
$DIMPOST
  1

  9
$DIMAPOST
  1

  9
$DIMALT
 70
     0
  9
$DIMALTD
 70
     2
  9
$DIMALTF
 40
25.4
  9
$DIMLFAC
 40
1.0
  9
$DIMTOFL
 70
     0
  9
$DIMTVP
 40
0.0
  9
$DIMTIX
 70
     0
  9
$DIMSOXD
 70
     0
  9
$DIMSAH
 70
     0
  9
$DIMBLK1
  1

  9
$DIMBLK2
  1

  9
$DIMSTYLE
  2
Standard
  9
$DIMCLRD
 70
     0
  9
$DIMCLRE
 70
     0
  9
$DIMCLRT
 70
     0
  9
$DIMTFAC
 40
1.0
  9
$DIMGAP
 40
0.09
  9
$DIMJUST
 70
     0
  9
$DIMSD1
 70
     0
  9
$DIMSD2
 70
     0
  9
$DIMTOLJ
 70
     1
  9
$DIMTZIN
 70
     0
  9
$DIMALTZ
 70
     0
  9
$DIMALTTZ
 70
     0
  9
$DIMUPT
 70
     0
  9
$DIMDEC
 70
     4
  9
$DIMTDEC
 70
     4
  9
$DIMALTU
 70
     2
  9
$DIMALTTD
 70
     2
  9
$DIMTXSTY
  7
Standard
  9
$DIMAUNIT
 70
     0
  9
$DIMADEC
 70
     0
  9
$DIMALTRND
 40
0.0
  9
$DIMAZIN
 70
     0
  9
$DIMDSEP
 70
    46
  9
$DIMATFIT
 70
     3
  9
$DIMFRAC
 70
     0
  9
$DIMLDRBLK
  1

  9
$DIMLUNIT
 70
     2
  9
$DIMLWD
 70
    -2
  9
$DIMLWE
 70
    -2
  9
$DIMTMOVE
 70
     0
  9
$DIMFXL
 40
1.0
  9
$DIMFXLON
 70
     0
  9
$DIMJOGANG
 40
0.7853981633974483
  9
$DIMTFILL
 70
     0
  9
$DIMTFILLCLR
 70
     0
  9
$DIMARCSYM
 70
     0
  9
$DIMLTYPE
  6

  9
$DIMLTEX1
  6

  9
$DIMLTEX2
  6

  9
$DIMTXTDIRECTION
 70
     0
  9
$LUNITS
 70
     2
  9
$LUPREC
 70
     4
  9
$SKETCHINC
 40
0.1
  9
$FILLETRAD
 40
0.0
  9
$AUNITS
 70
     0
  9
$AUPREC
 70
     0
  9
$MENU
  1
.
  9
$ELEVATION
 40
0.0
  9
$PELEVATION
 40
0.0
  9
$THICKNESS
 40
0.0
  9
$LIMCHECK
 70
     0
  9
$CHAMFERA
 40
0.0
  9
$CHAMFERB
 40
0.0
  9
$CHAMFERC
 40
0.0
  9
$CHAMFERD
 40
0.0
  9
$SKPOLY
 70
     0
  9
$TDCREATE
 40
2458157.371250000
  9
$TDUCREATE
 40
2458157.287916667
  9
$TDUPDATE
 40
2461017.964097222
  9
$TDUUPDATE
 40
2461017.880763889
  9
$TDINDWG
 40
0.1375578704
  9
$TDUSRTIMER
 40
0.1375578704
  9
$USRTIMER
 70
     1
  9
$ANGBASE
 50
0.0
  9
$ANGDIR
 70
     0
  9
$PDMODE
 70
     0
  9
$PDSIZE
 40
0.0
  9
$PLINEWID
 40
0.0
  9
$SPLFRAME
 70
     0
  9
$SPLINETYPE
 70
     6
  9
$SPLINESEGS
 70
     8
  9
$HANDSEED
  5
2FD62
  9
$SURFTAB1
 70
     6
  9
$SURFTAB2
 70
     6
  9
$SURFTYPE
 70
     6
  9
$SURFU
 70
     6
  9
$SURFV
 70
     6
  9
$UCSBASE
  2

  9
$UCSNAME
  2

  9
$UCSORG
 10
0.0
 20
0.0
 30
0.0
  9
$UCSXDIR
 10
1.0
 20
0.0
 30
0.0
  9
$UCSYDIR
 10
0.0
 20
1.0
 30
0.0
  9
$UCSORTHOREF
  2

  9
$UCSORTHOVIEW
 70
     0
  9
$UCSORGTOP
 10
0.0
 20
0.0
 30
0.0
  9
$UCSORGBOTTOM
 10
0.0
 20
0.0
 30
0.0
  9
$UCSORGLEFT
 10
0.0
 20
0.0
 30
0.0
  9
$UCSORGRIGHT
 10
0.0
 20
0.0
 30
0.0
  9
$UCSORGFRONT
 10
0.0
 20
0.0
 30
0.0
  9
$UCSORGBACK
 10
0.0
 20
0.0
 30
0.0
  9
$PUCSBASE
  2

  9
$PUCSNAME
  2

  9
$PUCSORG
 10
0.0
 20
0.0
 30
0.0
  9
$PUCSXDIR
 10
1.0
 20
0.0
 30
0.0
  9
$PUCSYDIR
 10
0.0
 20
1.0
 30
0.0
  9
$PUCSORTHOREF
  2

  9
$PUCSORTHOVIEW
 70
     0
  9
$PUCSORGTOP
 10
0.0
 20
0.0
 30
0.0
  9
$PUCSORGBOTTOM
 10
0.0
 20
0.0
 30
0.0
  9
$PUCSORGLEFT
 10
0.0
 20
0.0
 30
0.0
  9
$PUCSORGRIGHT
 10
0.0
 20
0.0
 30
0.0
  9
$PUCSORGFRONT
 10
0.0
 20
0.0
 30
0.0
  9
$PUCSORGBACK
 10
0.0
 20
0.0
 30
0.0
  9
$USERI1
 70
     0
  9
$USERI2
 70
     0
  9
$USERI3
 70
     0
  9
$USERI4
 70
     0
  9
$USERI5
 70
     0
  9
$USERR1
 40
0.0
  9
$USERR2
 40
0.0
  9
$USERR3
 40
0.0
  9
$USERR4
 40
0.0
  9
$USERR5
 40
0.0
  9
$WORLDVIEW
 70
     1
  9
$SHADEDGE
 70
     3
  9
$SHADEDIF
 70
    70
  9
$TILEMODE
 70
     1
  9
$MAXACTVP
 70
    64
  9
$PINSBASE
 10
0.0
 20
0.0
 30
0.0
  9
$PLIMCHECK
 70
     0
  9
$PEXTMIN
 10
0.0
 20
0.0
 30
0.0
  9
$PEXTMAX
 10
0.0
 20
0.0
 30
0.0
  9
$PLIMMIN
 10
0.0
 20
0.0
  9
$PLIMMAX
 10
12.0
 20
9.0
  9
$UNITMODE
 70
     0
  9
$VISRETAIN
 70
     1
  9
$PLINEGEN
 70
     0
  9
$PSLTSCALE
 70
     1
  9
$TREEDEPTH
 70
  3020
  9
$CMLSTYLE
  2
Standard
  9
$CMLJUST
 70
     0
  9
$CMLSCALE
 40
1.0
  9
$PROXYGRAPHICS
 70
     1
  9
$MEASUREMENT
 70
     0
  9
$CELWEIGHT
370
    -1
  9
$ENDCAPS
280
     0
  9
$JOINSTYLE
280
     0
  9
$LWDISPLAY
290
     0
  9
$INSUNITS
 70
     1
  9
$HYPERLINKBASE
  1

  9
$STYLESHEET
  1
monochrome.ctb
  9
$XEDIT
290
     1
  9
$CEPSNTYPE
380
     0
  9
$PSTYLEMODE
290
     1
  9
$FINGERPRINTGUID
  2
{358EB121-6EE0-9143-8A3E-6E8E8869FDA6}
  9
$VERSIONGUID
  2
{4024869A-B2F5-9B4A-8BF5-FD315A1C1497}
  9
$EXTNAMES
290
     1
  9
$PSVPSCALE
 40
0.0
  9
$OLESTARTUP
290
     0
  9
$SORTENTS
280
   127
  9
$INDEXCTL
280
     0
  9
$HIDETEXT
280
     1
  9
$XCLIPFRAME
280
     2
  9
$HALOGAP
280
     0
  9
$OBSCOLOR
 70
   257
  9
$OBSLTYPE
280
     0
  9
$INTERSECTIONDISPLAY
280
     0
  9
$INTERSECTIONCOLOR
 70
   257
  9
$DIMASSOC
280
     2
  9
$PROJECTNAME
  1

  9
$CAMERADISPLAY
290
     0
  9
$LENSLENGTH
 40
50.0
  9
$CAMERAHEIGHT
 40
0.0
  9
$STEPSPERSEC
 40
2.0
  9
$STEPSIZE
 40
6.0
  9
$3DDWFPREC
 40
2.0
  9
$PSOLWIDTH
 40
0.25
  9
$PSOLHEIGHT
 40
4.0
  9
$LOFTANG1
 40
1.570796326794896
  9
$LOFTANG2
 40
1.570796326794896
  9
$LOFTMAG1
 40
0.0
  9
$LOFTMAG2
 40
0.0
  9
$LOFTPARAM
 70
     7
  9
$LOFTNORMALS
280
     1
  9
$LATITUDE
 40
37.795
  9
$LONGITUDE
 40
-122.394
  9
$NORTHDIRECTION
 40
0.0
  9
$TIMEZONE
 70
 -8000
  9
$LIGHTGLYPHDISPLAY
280
     1
  9
$TILEMODELIGHTSYNCH
280
     1
  9
$CMATERIAL
347
96
  9
$SOLIDHIST
280
     0
  9
$SHOWHIST
280
     1
  9
$DWFFRAME
280
     2
  9
$DGNFRAME
280
     0
  9
$REALWORLDSCALE
290
     1
  9
$INTERFERECOLOR
 62
     1
  9
$INTERFEREOBJVS
345
A3
  9
$INTERFEREVPVS
346
A0
  9
$CSHADOW
280
     0
  9
$SHADOWPLANELOCATION
 40
0.0
  0
ENDSEC
  0
SECTION
  2
CLASSES
  0
CLASS
  1
ACDBDICTIONARYWDFLT
  2
AcDbDictionaryWithDefault
  3
ObjectDBX Classes
 90
        0
 91
        1
280
     0
281
     0
  0
CLASS
  1
DICTIONARYVAR
  2
AcDbDictionaryVar
  3
ObjectDBX Classes
 90
        0
 91
        9
280
     0
281
     0
  0
CLASS
  1
TABLESTYLE
  2
AcDbTableStyle
  3
ObjectDBX Classes
 90
     4095
 91
        1
280
     0
281
     0
  0
CLASS
  1
MATERIAL
  2
AcDbMaterial
  3
ObjectDBX Classes
 90
     1153
 91
        3
280
     0
281
     0
  0
CLASS
  1
VISUALSTYLE
  2
AcDbVisualStyle
  3
ObjectDBX Classes
 90
     4095
 91
       25
280
     0
281
     0
  0
CLASS
  1
SCALE
  2
AcDbScale
  3
ObjectDBX Classes
 90
     1153
 91
       35
280
     0
281
     0
  0
CLASS
  1
MLEADERSTYLE
  2
AcDbMLeaderStyle
  3
ACDB_MLEADERSTYLE_CLASS
 90
     4095
 91
        1
280
     0
281
     0
  0
CLASS
  1
CELLSTYLEMAP
  2
AcDbCellStyleMap
  3
ObjectDBX Classes
 90
     1152
 91
        1
280
     0
281
     0
  0
CLASS
  1
EXACXREFPANELOBJECT
  2
ExAcXREFPanelObject
  3
EXAC_ESW
 90
     1025
 91
        0
280
     0
281
     0
  0
CLASS
  1
NPOCOLLECTION
  2
AcDbImpNonPersistentObjectsCollection
  3
ObjectDBX Classes
 90
     1153
 91
        0
280
     0
281
     0
  0
CLASS
  1
LAYER_INDEX
  2
AcDbLayerIndex
  3
ObjectDBX Classes
 90
        0
 91
        0
280
     0
281
     0
  0
CLASS
  1
SPATIAL_INDEX
  2
AcDbSpatialIndex
  3
ObjectDBX Classes
 90
        0
 91
        0
280
     0
281
     0
  0
CLASS
  1
IDBUFFER
  2
AcDbIdBuffer
  3
ObjectDBX Classes
 90
        0
 91
        0
280
     0
281
     0
  0
CLASS
  1
ACDBSECTIONVIEWSTYLE
  2
AcDbSectionViewStyle
  3
ObjectDBX Classes
 90
     1025
 91
        2
280
     0
281
     0
  0
CLASS
  1
ACDBDETAILVIEWSTYLE
  2
AcDbDetailViewStyle
  3
ObjectDBX Classes
 90
     1025
 91
        2
280
     0
281
     0
  0
CLASS
  1
SORTENTSTABLE
  2
AcDbSortentsTable
  3
ObjectDBX Classes
 90
        0
 91
        1
280
     0
281
     0
  0
CLASS
  1
SPATIAL_FILTER
  2
AcDbSpatialFilter
  3
ObjectDBX Classes
 90
        0
 91
        0
280
     0
281
     0
  0
CLASS
  1
SOLID_BACKGROUND
  2
AcDbSolidBackground
  3
SCENEOE
 90
     4095
 91
        0
280
     0
281
     0
  0
CLASS
  1
RASTERVARIABLES
  2
AcDbRasterVariables
  3
ISM
 90
        0
 91
        1
280
     0
281
     0
  0
CLASS
  1
IMAGEDEF
  2
AcDbRasterImageDef
  3
ISM
 90
        0
 91
        0
280
     0
281
     0
  0
CLASS
  1
IMAGEDEF_REACTOR
  2
AcDbRasterImageDefReactor
  3
ISM
 90
        1
 91
        0
280
     0
281
     0
  0
CLASS
  1
IMAGE
  2
AcDbRasterImage
  3
ISM
 90
     2175
 91
        0
280
     0
281
     1
  0
ENDSEC
  0
SECTION
  2
TABLES
  0
TABLE
  2
VPORT
  5
8
330
0
100
AcDbSymbolTable
 70
     1
  0
VPORT
  5
94
330
8
100
AcDbSymbolTableRecord
100
AcDbViewportTableRecord
  2
*Active
 70
     0
 10
0.0
 20
0.0
 11
1.0
 21
1.0
 12
2720.307604950633
 22
18595.64248744457
 13
0.0
 23
0.0
 14
0.5
 24
0.5
 15
0.5
 25
0.5
 16
0.0
 26
0.0
 36
1.0
 17
0.0
 27
0.0
 37
0.0
 40
872.6610217219956
 41
2.114740368509212
 42
50.0
 43
0.0
 44
0.0
 50
0.0
 51
0.0
 71
     0
 72
  1000
 73
     1
 74
     3
 75
     0
 76
     0
 77
     0
 78
     0
281
     0
 65
     1
110
0.0
120
0.0
130
0.0
111
1.0
121
0.0
131
0.0
112
0.0
122
1.0
132
0.0
 79
     0
146
0.0
348
9F
 60
     3
 61
     5
292
     1
282
     1
141
0.0
142
0.0
 63
   250
421
  3355443
1001
ACAD_NAV_VCDISPLAY
1070
     3
  0
ENDTAB
  0
TABLE
  2
LTYPE
  5
5
330
0
100
AcDbSymbolTable
 70
     1
  0
LTYPE
  5
14
330
5
100
AcDbSymbolTableRecord
100
AcDbLinetypeTableRecord
  2
ByBlock
 70
     0
  3

 72
    65
 73
     0
 40
0.0
  0
LTYPE
  5
15
330
5
100
AcDbSymbolTableRecord
100
AcDbLinetypeTableRecord
  2
ByLayer
 70
     0
  3

 72
    65
 73
     0
 40
0.0
  0
LTYPE
  5
16
330
5
100
AcDbSymbolTableRecord
100
AcDbLinetypeTableRecord
  2
Continuous
 70
     0
  3
Solid line
 72
    65
 73
     0
 40
0.0
  0
ENDTAB
  0
TABLE
  2
LAYER
  5
2
102
{ACAD_XDICTIONARY
360
18E
102
}
330
0
100
AcDbSymbolTable
 70
     2
  0
LAYER
  5
10
102
{ACAD_XDICTIONARY
360
E6
102
}
330
2
100
AcDbSymbolTableRecord
100
AcDbLayerTableRecord
  2
0
 70
     0
 62
     7
  6
Continuous
370
    -3
390
F
347
98
348
0
  0
LAYER
  5
204
330
2
100
AcDbSymbolTableRecord
100
AcDbLayerTableRecord
  2
freecads.com
 70
     0
 62
     7
  6
Continuous
370
    -3
390
F
347
98
348
0
1001
AcAecLayerStandard
1000

1000

1001
AcCmTransparency
1071
        0
  0
ENDTAB
  0
TABLE
  2
STYLE
  5
3
330
0
100
AcDbSymbolTable
 70
     1
  0
STYLE
  5
11
330
3
100
AcDbSymbolTableRecord
100
AcDbTextStyleTableRecord
  2
Standard
 70
     0
 40
0.0
 41
1.0
 50
0.0
 71
     0
 42
0.2
  3
arial.ttf
  4

1001
ACAD
1000
Arial
1071
       34
  0
ENDTAB
  0
TABLE
  2
VIEW
  5
6
330
0
100
AcDbSymbolTable
 70
     0
  0
ENDTAB
  0
TABLE
  2
UCS
  5
7
330
0
100
AcDbSymbolTable
 70
     0
  0
ENDTAB
  0
TABLE
  2
APPID
  5
9
330
0
100
AcDbSymbolTable
 70
    25
  0
APPID
  5
12
330
9
100
AcDbSymbolTableRecord
100
AcDbRegAppTableRecord
  2
ACAD
 70
     0
  0
APPID
  5
DD
330
9
100
AcDbSymbolTableRecord
100
AcDbRegAppTableRecord
  2
AcadAnnoPO
 70
     0
  0
APPID
  5
DE
330
9
100
AcDbSymbolTableRecord
100
AcDbRegAppTableRecord
  2
AcadAnnotative
 70
     0
  0
APPID
  5
DF
330
9
100
AcDbSymbolTableRecord
100
AcDbRegAppTableRecord
  2
ACAD_DSTYLE_DIMJAG
 70
     0
  0
APPID
  5
E0
330
9
100
AcDbSymbolTableRecord
100
AcDbRegAppTableRecord
  2
ACAD_DSTYLE_DIMTALN
 70
     0
  0
APPID
  5
107
330
9
100
AcDbSymbolTableRecord
100
AcDbRegAppTableRecord
  2
ACAD_MLEADERVER
 70
     0
  0
APPID
  5
1A6
330
9
100
AcDbSymbolTableRecord
100
AcDbRegAppTableRecord
  2
ACAD_NAV_VCDISPLAY
 70
     0
  0
APPID
  5
205
330
9
100
AcDbSymbolTableRecord
100
AcDbRegAppTableRecord
  2
AcAecLayerStandard
 70
     0
  0
APPID
  5
206
330
9
100
AcDbSymbolTableRecord
100
AcDbRegAppTableRecord
  2
AcCmTransparency
 70
     0
  0
APPID
  5
222
330
9
100
AcDbSymbolTableRecord
100
AcDbRegAppTableRecord
  2
ACAD_PSEXT
 70
     0
  0
APPID
  5
2DA
330
9
100
AcDbSymbolTableRecord
100
AcDbRegAppTableRecord
  2
GradientColor1ACI
 70
     0
  0
APPID
  5
2DB
330
9
100
AcDbSymbolTableRecord
100
AcDbRegAppTableRecord
  2
GradientColor2ACI
 70
     0
  0
APPID
  5
2F3
330
9
100
AcDbSymbolTableRecord
100
AcDbRegAppTableRecord
  2
ACAD_EXEMPT_FROM_CAD_STANDARDS
 70
     0
  0
APPID
  5
A1A
330
9
100
AcDbSymbolTableRecord
100
AcDbRegAppTableRecord
  2
AcDbBlockRepETag
 70
     0
  0
APPID
  5
228C
330
9
100
AcDbSymbolTableRecord
100
AcDbRegAppTableRecord
  2
RAK
 70
     0
  0
APPID
  5
2683
330
9
100
AcDbSymbolTableRecord
100
AcDbRegAppTableRecord
  2
ACAD_DSTYLE_DIMJOGGED_JOGANGLE_SYMBOL
 70
     0
  0
APPID
  5
47CF
330
9
100
AcDbSymbolTableRecord
100
AcDbRegAppTableRecord
  2
ACAD_DSTYLE_DIMBREAK
 70
     0
  0
APPID
  5
47D0
330
9
100
AcDbSymbolTableRecord
100
AcDbRegAppTableRecord
  2
AcDbDynamicBlockGUID
 70
     0
  0
APPID
  5
8BD5
330
9
100
AcDbSymbolTableRecord
100
AcDbRegAppTableRecord
  2
AcLayerTools
 70
     0
  0
APPID
  5
92D9
330
9
100
AcDbSymbolTableRecord
100
AcDbRegAppTableRecord
  2
AutoGrph01
 70
     0
  0
APPID
  5
92DA
330
9
100
AcDbSymbolTableRecord
100
AcDbRegAppTableRecord
  2
AutoGrphVars
 70
     0
  0
APPID
  5
92DB
330
9
100
AcDbSymbolTableRecord
100
AcDbRegAppTableRecord
  2
AutoGrphZ
 70
     0
  0
APPID
  5
92DC
330
9
100
AcDbSymbolTableRecord
100
AcDbRegAppTableRecord
  2
AutoGrph05
 70
     0
  0
APPID
  5
AD30
330
9
100
AcDbSymbolTableRecord
100
AcDbRegAppTableRecord
  2
AEC_XDATA_BOUND_SPACE
 70
     0
  0
APPID
  5
C1FD
330
9
100
AcDbSymbolTableRecord
100
AcDbRegAppTableRecord
  2
AcDbBlockArrayActionTag
 70
     0
  0
ENDTAB
  0
TABLE
  2
DIMSTYLE
  5
A
330
0
100
AcDbSymbolTable
 70
     1
100
AcDbDimStyleTable
 71
     1
340
27
  0
DIMSTYLE
105
27
330
A
100
AcDbSymbolTableRecord
100
AcDbDimStyleTableRecord
  2
Standard
 70
     0
340
11
  0
ENDTAB
  0
TABLE
  2
BLOCK_RECORD
  5
1
330
0
100
AcDbSymbolTable
 70
     1
  0
BLOCK_RECORD
  5
1F
102
{ACAD_XDICTIONARY
360
15D
102
}
330
1
100
AcDbSymbolTableRecord
100
AcDbBlockTableRecord
  2
*Model_Space
340
22
 70
     0
280
     1
281
     0
  0
BLOCK_RECORD
  5
58
330
1
100
AcDbSymbolTableRecord
100
AcDbBlockTableRecord
  2
*Paper_Space
340
59
 70
     0
280
     1
281
     0
  0
BLOCK_RECORD
  5
5D
330
1
100
AcDbSymbolTableRecord
100
AcDbBlockTableRecord
  2
*Paper_Space0
340
5E
 70
     0
280
     1
281
     0
  0
ENDTAB
  0
ENDSEC
  0
SECTION
  2
BLOCKS
  0
BLOCK
  5
20
330
1F
100
AcDbEntity
  8
0
100
AcDbBlockBegin
  2
*Model_Space
 70
     0
 10
0.0
 20
0.0
 30
0.0
  3
*Model_Space
  1

  0
ENDBLK
  5
21
330
1F
100
AcDbEntity
  8
0
100
AcDbBlockEnd
  0
BLOCK
  5
5A
330
58
100
AcDbEntity
 67
     1
  8
0
100
AcDbBlockBegin
  2
*Paper_Space
 70
     0
 10
0.0
 20
0.0
 30
0.0
  3
*Paper_Space
  1

  0
ENDBLK
  5
5B
330
58
100
AcDbEntity
 67
     1
  8
0
100
AcDbBlockEnd
  0
BLOCK
  5
5F
330
5D
100
AcDbEntity
 67
     1
  8
0
100
AcDbBlockBegin
  2
*Paper_Space0
 70
     0
 10
0.0
 20
0.0
 30
0.0
  3
*Paper_Space0
  1

  0
ENDBLK
  5
60
330
5D
100
AcDbEntity
 67
     1
  8
0
100
AcDbBlockEnd
  0
ENDSEC
  0
SECTION
  2
ENTITIES
  0
ARC
  5
2FB3E
330
1F
100
AcDbEntity
  8
freecads.com
100
AcDbCircle
 10
2194.795708542428
 20
18582.67308605528
 30
0.0
 40
210.4106266464765
100
AcDbArc
 50
101.7494413433813
 51
112.9459753483161
  0
ARC
  5
2FB3F
330
1F
100
AcDbEntity
  8
freecads.com
100
AcDbCircle
 10
2168.474622852016
 20
18644.84442667748
 30
0.0
 40
142.8971083951148
100
AcDbArc
 50
112.9459480526635
 51
127.9088731952523
  0
ARC
  5
2FB40
330
1F
100
AcDbEntity
  8
freecads.com
100
AcDbCircle
 10
2155.50988342386
 20
18661.49297694115
 30
0.0
 40
121.7959545328362
100
AcDbArc
 50
127.9088526585659
 51
144.2495933424598
  0
ARC
  5
2FB41
330
1F
100
AcDbEntity
  8
freecads.com
100
AcDbCircle
 10
2147.837392542264
 20
18667.01655496066
 30
0.0
 40
112.3420119447037
100
AcDbArc
 50
144.2496315301799
 51
161.6111142101011
  0
ARC
  5
2FB42
330
1F
100
AcDbEntity
  8
freecads.com
100
AcDbCircle
 10
2139.826793219145
 20
18669.67961253084
 30
0.0
 40
103.9003546940491
100
AcDbArc
 50
161.611120272417
 51
171.297273794491
  0
ARC
  5
2FB43
330
1F
100
AcDbEntity
  8
freecads.com
100
AcDbCircle
 10
2196.597731740178
 20
18660.9897800038
 30
0.0
 40
161.3325116263799
100
AcDbArc
 50
171.2973111165488
 51
178.2630197502897
  0
ARC
  5
2FB44
330
1F
100
AcDbEntity
  8
freecads.com
100
AcDbCircle
 10
3326.37386729374
 20
18626.73088176051
 30
0.0
 40
1291.627954674225
100
AcDbArc
 50
178.2631048465883
 51
179.8636937198561
  0
ARC
  5
2FB45
330
1F
100
AcDbEntity
  8
freecads.com
100
AcDbCircle
 10
182496.4442438884
 20
18200.49621325192
 30
0.0
 40
180462.2053236901
100
AcDbArc
 50
179.8636970684675
 51
179.9115963393699
  0
LINE
  5
2FB46
330
1F
100
AcDbEntity
  8
freecads.com
100
AcDbLine
 10
2034.453728672707
 20
18478.93754621515
 30
0.0
 11
2034.145284672705
 21
18279.14107821515
 31
0.0
  0
LINE
  5
2FB47
330
1F
100
AcDbEntity
  8
freecads.com
100
AcDbLine
 10
2034.145284672705
 20
18279.14107821515
 30
0.0
 11
2043.916708672711
 21
18267.68930621515
 31
0.0
  0
LINE
  5
2FB48
330
1F
100
AcDbEntity
  8
freecads.com
100
AcDbLine
 10
2043.916708672711
 20
18267.68930621515
 30
0.0
 11
2053.688133672709
 21
18256.23753521515
 31
0.0
  0
LINE
  5
2FB49
330
1F
100
AcDbEntity
  8
freecads.com
100
AcDbLine
 10
2053.688133672709
 20
18256.23753521515
 30
0.0
 11
2248.188133672709
 21
18256.25354021515
 31
0.0
  0
LINE
  5
2FB4A
330
1F
100
AcDbEntity
  8
freecads.com
100
AcDbLine
 10
2248.188133672709
 20
18256.25354021515
 30
0.0
 11
2442.688133672709
 21
18256.26954621515
 31
0.0
  0
LINE
  5
2FB4B
330
1F
100
AcDbEntity
  8
freecads.com
100
AcDbLine
 10
2442.688133672709
 20
18256.26954621515
 30
0.0
 11
2454.688133672709
 21
18281.82576721515
 31
0.0
  0
ARC
  5
2FB4C
330
1F
100
AcDbEntity
  8
freecads.com
100
AcDbCircle
 10
3941.586084039009
 20
17583.64919171094
 30
0.0
 40
1642.655181523585
100
AcDbArc
 50
154.4679553307943
 51
154.8474822273691
  0
ARC
  5
2FB4D
330
1F
100
AcDbEntity
  8
freecads.com
100
AcDbCircle
 10
3251.444973167352
 20
17913.30442695981
 30
0.0
 40
877.8236137644126
100
AcDbArc
 50
153.8613611760075
 51
154.4680074726187
  0
ARC
  5
2FB4E
330
1F
100
AcDbEntity
  8
freecads.com
100
AcDbCircle
 10
5918.58121219559
 20
16604.46269184232
 30
0.0
 40
3848.796923155914
100
AcDbArc
 50
153.7397435760446
 51
153.8614398003281
  0
ARC
  5
2FB4F
330
1F
100
AcDbEntity
  8
freecads.com
100
AcDbCircle
 10
2468.206484834169
 20
18306.76712820126
 30
0.0
 40
1.339820956886929
100
AcDbArc
 50
122.8295708177947
 51
153.7397787662524
  0
ARC
  5
2FB50
330
1F
100
AcDbEntity
  8
freecads.com
100
AcDbCircle
 10
2468.459177992394
 20
18306.37546658149
 30
0.0
 40
1.805924654160964
100
AcDbArc
 50
90.13510196650569
 51
122.8295249651014
  0
ARC
  5
2FB51
330
1F
100
AcDbEntity
  8
freecads.com
100
AcDbCircle
 10
6328.203151478287
 20
-1618770.851687021
 30
0.0
 40
1637083.583139363
100
AcDbArc
 50
90.13233605627588
 51
90.13508625377511
  0
ARC
  5
2FB52
330
1F
100
AcDbEntity
  8
freecads.com
100
AcDbCircle
 10
2682.350732297789
 20
-40299.149895184
 30
0.0
 40
58607.67087544395
100
AcDbArc
 50
90.06399061155887
 51
90.13228717843832
  0
ARC
  5
2FB53
330
1F
100
AcDbEntity
  8
freecads.com
100
AcDbCircle
 10
2618.424432863787
 20
16937.85725092566
 30
0.0
 40
1370.6280306612
100
AcDbArc
 50
89.04361972141655
 51
90.06393622180816
  0
LINE
  5
2FB54
330
1F
100
AcDbEntity
  8
freecads.com
100
AcDbLine
 10
2641.301872672709
 20
18308.29434221515
 30
0.0
 11
2644.91561067271
 21
18308.23401421515
 31
0.0
  0
LINE
  5
2FB55
330
1F
100
AcDbEntity
  8
freecads.com
100
AcDbLine
 10
2644.91561067271
 20
18308.23401421515
 30
0.0
 11
2657.245571672713
 21
18282.23401421515
 31
0.0
  0
LINE
  5
2FB56
330
1F
100
AcDbEntity
  8
freecads.com
100
AcDbLine
 10
2657.245571672713
 20
18282.23401421515
 30
0.0
 11
2669.575531672709
 21
18256.23401421515
 31
0.0
  0
LINE
  5
2FB57
330
1F
100
AcDbEntity
  8
freecads.com
100
AcDbLine
 10
2669.575531672709
 20
18256.23401421515
 30
0.0
 11
2822.715983672708
 21
18256.23401421515
 31
0.0
  0
ARC
  5
2FB58
330
1F
100
AcDbEntity
  8
freecads.com
100
AcDbCircle
 10
2822.674158806942
 20
-30721.78330019782
 30
0.0
 40
48978.01731443084
100
AcDbArc
 50
89.91973698423773
 51
89.99995107226672
  0
ARC
  5
2FB59
330
1F
100
AcDbEntity
  8
freecads.com
100
AcDbCircle
 10
2766.61985992796
 20
-70730.30962707914
 30
0.0
 40
88986.58290897749
100
AcDbArc
 50
89.86839471128705
 51
89.91973172860554
  0
ARC
  5
2FB5A
330
1F
100
AcDbEntity
  8
freecads.com
100
AcDbCircle
 10
2771.648139410827
 20
-68598.37548090171
 30
0.0
 40
86854.64283722124
100
AcDbArc
 50
89.81691514787684
 51
89.86848134869628
  0
ARC
  5
2FB5B
330
1F
100
AcDbEntity
  8
freecads.com
100
AcDbCircle
 10
2928.486577655807
 20
-19534.50237089648
 30
0.0
 40
37790.51905168127
100
AcDbArc
 50
89.72097469843664
 51
89.8170024195805
  0
LINE
  5
2FB5C
330
1F
100
AcDbEntity
  8
freecads.com
100
AcDbLine
 10
3112.522284672712
 20
18255.56856121515
 30
0.0
 11
3249.188133672709
 21
18254.90310921515
 31
0.0
  0
LINE
  5
2FB5D
330
1F
100
AcDbEntity
  8
freecads.com
100
AcDbLine
 10
3249.188133672709
 20
18254.90310921515
 30
0.0
 11
3249.18059267271
 21
18247.31856121515
 31
0.0
  0
LINE
  5
2FB5E
330
1F
100
AcDbEntity
  8
freecads.com
100
AcDbLine
 10
3249.18059267271
 20
18247.31856121515
 30
0.0
 11
3249.173051672711
 21
18239.73401421515
 31
0.0
  0
LINE
  5
2FB5F
330
1F
100
AcDbEntity
  8
freecads.com
100
AcDbLine
 10
3249.173051672711
 20
18239.73401421515
 30
0.0
 11
3236.850391672706
 21
18232.98401421515
 31
0.0
  0
LINE
  5
2FB60
330
1F
100
AcDbEntity
  8
freecads.com
100
AcDbLine
 10
3236.850391672706
 20
18232.98401421515
 30
0.0
 11
3224.527731672708
 21
18226.23401421515
 31
0.0
  0
LINE
  5
2FB61
330
1F
100
AcDbEntity
  8
freecads.com
100
AcDbLine
 10
3224.527731672708
 20
18226.23401421515
 30
0.0
 11
3214.065337672706
 21
18226.23401421515
 31
0.0
  0
LINE
  5
2FB62
330
1F
100
AcDbEntity
  8
freecads.com
100
AcDbLine
 10
3214.065337672706
 20
18226.23401421515
 30
0.0
 11
3203.602943672712
 21
18226.23401421515
 31
0.0
  0
LINE
  5
2FB63
330
1F
100
AcDbEntity
  8
freecads.com
100
AcDbLine
 10
3203.602943672712
 20
18226.23401421515
 30
0.0
 11
3202.46212067271
 21
18230.48401421515
 31
0.0
  0
ARC
  5
2FB64
330
1F
100
AcDbEntity
  8
freecads.com
100
AcDbCircle
 10
3183.484497904996
 20
18225.38986933005
 30
0.0
 40
19.64943963638956
100
AcDbArc
 50
15.0256479686794
 51
37.13167760146402
  0
ARC
  5
2FB65
330
1F
100
AcDbEntity
  8
freecads.com
100
AcDbCircle
 10
3177.015232641541
 20
18220.49155244927
 30
0.0
 40
27.76392676208697
100
AcDbArc
 50
37.1317189076508
 51
54.19261073716491
  0
ARC
  5
2FB66
330
1F
100
AcDbEntity
  8
freecads.com
100
AcDbCircle
 10
3176.233140237935
 20
18219.40739275658
 30
0.0
 40
29.10074042374228
100
AcDbArc
 50
54.19267588000879
 51
70.84645728392749
  0
ARC
  5
2FB67
330
1F
100
AcDbEntity
  8
freecads.com
100
AcDbCircle
 10
3177.857811334965
 20
18224.08495121042
 30
0.0
 40
24.14906300473281
100
AcDbArc
 50
70.84651187892204
 51
90.00000631659096
  0
ARC
  5
2FB68
330
1F
100
AcDbEntity
  8
freecads.com
100
AcDbCircle
 10
3177.857777139136
 20
18202.7311332892
 30
0.0
 40
45.50288092596384
100
AcDbArc
 50
89.99996029410599
 51
97.2372191813362
  0
ARC
  5
2FB69
330
1F
100
AcDbEntity
  8
freecads.com
100
AcDbCircle
 10
3174.90798303466
 20
18225.95959432641
 30
0.0
 40
22.08787105164345
100
AcDbArc
 50
97.23715267374934
 51
109.664102375596
  0
ARC
  5
2FB6A
330
1F
100
AcDbEntity
  8
freecads.com
100
AcDbCircle
 10
3174.248795310756
 20
18227.80422717082
 30
0.0
 40
20.12899413214406
100
AcDbArc
 50
109.6640564380112
 51
122.7869306053051
  0
ARC
  5
2FB6B
330
1F
100
AcDbEntity
  8
freecads.com
100
AcDbCircle
 10
3180.933540184655
 20
18217.42629374163
 30
0.0
 40
32.47351989417616
100
AcDbArc
 50
122.7868907036973
 51
131.958254723511
  0
ARC
  5
2FB6C
330
1F
100
AcDbEntity
  8
freecads.com
100
AcDbCircle
 10
3180.981543919457
 20
18217.37287461214
 30
0.0
 40
32.54533884443269
100
AcDbArc
 50
131.9582224701769
 51
143.0226008341686
  0
ARC
  5
2FB6D
330
1F
100
AcDbEntity
  8
freecads.com
100
AcDbCircle
 10
3173.261554553334
 20
18223.18548904649
 30
0.0
 40
22.88176174410526
100
AcDbArc
 50
143.0225171982006
 51
157.430354644501
  0
ARC
  5
2FB6E
330
1F
100
AcDbEntity
  8
freecads.com
100
AcDbCircle
 10
3172.938907619049
 20
18223.31959078701
 30
0.0
 40
22.53235607585176
100
AcDbArc
 50
157.4303482882126
 51
171.9639628559539
  0
ARC
  5
2FB6F
330
1F
100
AcDbEntity
  8
freecads.com
100
AcDbCircle
 10
3181.020708518314
 20
18222.17861884493
 30
0.0
 40
30.69429964016797
100
AcDbArc
 50
171.9640278199659
 51
183.4916039474162
  0
ARC
  5
2FB70
330
1F
100
AcDbEntity
  8
freecads.com
100
AcDbCircle
 10
3182.419878452289
 20
18222.26403523296
 30
0.0
 40
32.09607439437348
100
AcDbArc
 50
183.491684639994
 51
197.3116111970249
  0
ARC
  5
2FB71
330
1F
100
AcDbEntity
  8
freecads.com
100
AcDbCircle
 10
3175.875585171584
 20
18220.22428115871
 30
0.0
 40
25.2412679618948
100
AcDbArc
 50
197.3116573011403
 51
213.8591987379517
  0
ARC
  5
2FB72
330
1F
100
AcDbEntity
  8
freecads.com
100
AcDbCircle
 10
3175.325589712978
 20
18219.85525787935
 30
0.0
 40
24.5789438832691
100
AcDbArc
 50
213.8591795527899
 51
230.6542991469203
  0
ARC
  5
2FB73
330
1F
100
AcDbEntity
  8
freecads.com
100
AcDbCircle
 10
3178.139910143029
 20
18223.28805114637
 30
0.0
 40
29.01791550927114
100
AcDbArc
 50
230.654243745192
 51
245.4834341445343
  0
ARC
  5
2FB74
330
1F
100
AcDbEntity
  8
freecads.com
100
AcDbCircle
 10
3174.138984110599
 20
18214.51551314638
 30
0.0
 40
19.37608829250361
100
AcDbArc
 50
245.48339800488
 51
260.2171878117609
  0
ARC
  5
2FB75
330
1F
100
AcDbEntity
  8
freecads.com
100
AcDbCircle
 10
3177.528856065263
 20
18234.17580571408
 30
0.0
 40
39.32648517368067
100
AcDbArc
 50
260.2171545274424
 51
268.893546867078
  0
ARC
  5
2FB76
330
1F
100
AcDbEntity
  8
freecads.com
100
AcDbCircle
 10
3177.521418764998
 20
18233.7884450073
 30
0.0
 40
38.93905307815755
100
AcDbArc
 50
268.8934820640782
 51
277.5936752097442
  0
ARC
  5
2FB77
330
1F
100
AcDbEntity
  8
freecads.com
100
AcDbCircle
 10
3180.321081652488
 20
18212.78827331816
 30
0.0
 40
17.75308311553529
100
AcDbArc
 50
277.5936715150597
 51
293.2454179569442
  0
ARC
  5
2FB78
330
1F
100
AcDbEntity
  8
freecads.com
100
AcDbCircle
 10
3179.079304333936
 20
18215.67918179493
 30
0.0
 40
20.8994083895201
100
AcDbArc
 50
293.2454654996032
 51
305.6301404371301
  0
ARC
  5
2FB79
330
1F
100
AcDbEntity
  8
freecads.com
100
AcDbCircle
 10
3169.596532657983
 20
18228.90986612503
 30
0.0
 40
37.17742935341917
100
AcDbArc
 50
305.6301412951589
 51
313.6764323361381
  0
ARC
  5
2FB7A
330
1F
100
AcDbEntity
  8
freecads.com
100
AcDbCircle
 10
3169.619759487432
 20
18228.88549085675
 30
0.0
 40
37.14375981038017
100
AcDbArc
 50
313.6764853378504
 51
321.7252942860486
  0
ARC
  5
2FB7B
330
1F
100
AcDbEntity
  8
freecads.com
100
AcDbCircle
 10
3182.483911624244
 20
18218.73518048034
 30
0.0
 40
20.75732606367201
100
AcDbArc
 50
321.7253662628617
 51
334.1687686172575
  0
ARC
  5
2FB7C
330
1F
100
AcDbEntity
  8
freecads.com
100
AcDbCircle
 10
3216.956040409539
 20
18202.0475069464
 30
0.0
 40
17.54157876355951
100
AcDbArc
 50
147.4679667663815
 51
154.1687462165249
  0
ARC
  5
2FB7D
330
1F
100
AcDbEntity
  8
freecads.com
100
AcDbCircle
 10
3212.669328611163
 20
18204.78182557316
 30
0.0
 40
12.45705357483126
100
AcDbArc
 50
138.807409999635
 51
147.4680113164724
  0
ARC
  5
2FB7E
330
1F
100
AcDbEntity
  8
freecads.com
100
AcDbCircle
 10
3210.247932446218
 20
18206.90105699651
 30
0.0
 40
9.239243572171186
100
AcDbArc
 50
128.9561446511195
 51
138.8074679297907
  0
ARC
  5
2FB7F
330
1F
100
AcDbEntity
  8
freecads.com
100
AcDbCircle
 10
3206.201598891988
 20
18211.90568631978
 30
0.0
 40
2.803474007047277
100
AcDbArc
 50
105.0080562837494
 51
128.9560922215101
  0
ARC
  5
2FB80
330
1F
100
AcDbEntity
  8
freecads.com
100
AcDbCircle
 10
3207.355204273343
 20
18207.60276336639
 30
0.0
 40
7.258353502465281
100
AcDbArc
 50
93.51333955602601
 51
105.0079965005736
  0
ARC
  5
2FB81
330
1F
100
AcDbEntity
  8
freecads.com
100
AcDbCircle
 10
3219.043212840239
 20
18017.23079943038
 30
0.0
 40
197.9887763434775
100
AcDbArc
 50
92.46433871029436
 51
93.51330251692241
  0
ARC
  5
2FB82
330
1F
100
AcDbEntity
  8
freecads.com
100
AcDbCircle
 10
3218.440383391819
 20
18031.236422246
 30
0.0
 40
183.9701860508438
100
AcDbArc
 50
91.11467491423168
 51
92.46431869480245
  0
ARC
  5
2FB83
330
1F
100
AcDbEntity
  8
freecads.com
100
AcDbCircle
 10
3219.871789806712
 20
17957.65290110566
 30
0.0
 40
257.5676283138728
100
AcDbArc
 50
90.06586844120883
 51
91.11460306942481
  0
LINE
  5
2FB84
330
1F
100
AcDbEntity
  8
freecads.com
100
AcDbLine
 10
3219.575684672709
 20
18215.22035921515
 30
0.0
 11
3231.463234672709
 21
18215.23401421515
 31
0.0
  0
LINE
  5
2FB85
330
1F
100
AcDbEntity
  8
freecads.com
100
AcDbLine
 10
3231.463234672709
 20
18215.23401421515
 30
0.0
 11
3251.823218672711
 21
18222.98401421515
 31
0.0
  0
LINE
  5
2FB86
330
1F
100
AcDbEntity
  8
freecads.com
100
AcDbLine
 10
3251.823218672711
 20
18222.98401421515
 30
0.0
 11
3272.183202672707
 21
18230.73401421515
 31
0.0
  0
LINE
  5
2FB87
330
1F
100
AcDbEntity
  8
freecads.com
100
AcDbLine
 10
3272.183202672707
 20
18230.73401421515
 30
0.0
 11
3272.185668672712
 21
18242.96181621515
 31
0.0
  0
LINE
  5
2FB88
330
1F
100
AcDbEntity
  8
freecads.com
100
AcDbLine
 10
3272.185668672712
 20
18242.96181621515
 30
0.0
 11
3272.18813367271
 21
18255.18961821515
 31
0.0
  0
LINE
  5
2FB89
330
1F
100
AcDbEntity
  8
freecads.com
100
AcDbLine
 10
3272.18813367271
 20
18255.18961821515
 30
0.0
 11
3334.11542767271
 21
18255.46181621515
 31
0.0
  0
ARC
  5
2FB8A
330
1F
100
AcDbEntity
  8
freecads.com
100
AcDbCircle
 10
3239.569193302538
 20
39768.07103449827
 30
0.0
 40
21512.81697893126
100
AcDbArc
 50
270.2518088469657
 51
270.359754087436
  0
ARC
  5
2FB8B
330
1F
100
AcDbEntity
  8
freecads.com
100
AcDbCircle
 10
3371.797711456107
 20
18709.10530565978
 30
0.0
 40
453.4361250361346
100
AcDbArc
 50
270.359781743495
 51
272.090998088658
  0
ARC
  5
2FB8C
330
1F
100
AcDbEntity
  8
freecads.com
100
AcDbCircle
 10
3384.971455824802
 20
18348.28822187819
 30
0.0
 40
92.37862893706694
100
AcDbArc
 50
272.0910306446161
 51
276.5785500584887
  0
ARC
  5
2FB8D
330
1F
100
AcDbEntity
  8
freecads.com
100
AcDbCircle
 10
3394.766076180677
 20
18263.3573051234
 30
0.0
 40
6.884797529625502
100
AcDbArc
 50
276.5785662454485
 51
306.542634126006
  0
ARC
  5
2FB8E
330
1F
100
AcDbEntity
  8
freecads.com
100
AcDbCircle
 10
3387.218408750785
 20
18273.54150434387
 30
0.0
 40
19.56096403982239
100
AcDbArc
 50
306.542687069246
 51
331.6702227615272
  0
ARC
  5
2FB8F
330
1F
100
AcDbEntity
  8
freecads.com
100
AcDbCircle
 10
3390.567908409837
 20
18271.73573906909
 30
0.0
 40
15.75571290571853
100
AcDbArc
 50
331.6702209630141
 51
1.21966113118159
  0
ARC
  5
2FB90
330
1F
100
AcDbEntity
  8
freecads.com
100
AcDbCircle
 10
3390.599444987441
 20
18271.73642788877
 30
0.0
 40
15.72416881123961
100
AcDbArc
 50
1.219597758315292
 51
30.8044241169927
  0
ARC
  5
2FB91
330
1F
100
AcDbEntity
  8
freecads.com
100
AcDbCircle
 10
3387.392588173309
 20
18269.8244580766
 30
0.0
 40
19.45774071871015
100
AcDbArc
 50
30.80433269572139
 51
56.02402504491569
  0
ARC
  5
2FB92
330
1F
100
AcDbEntity
  8
freecads.com
100
AcDbCircle
 10
3390.62002329799
 20
18274.61370746791
 30
0.0
 40
13.68251369155182
100
AcDbArc
 50
56.02390927923619
 51
65.03235148588396
  0
ARC
  5
2FB93
330
1F
100
AcDbEntity
  8
freecads.com
100
AcDbCircle
 10
3391.527643191024
 20
18276.56299459993
 30
0.0
 40
11.53228249626853
100
AcDbArc
 50
65.03231543436935
 51
75.27295928262633
  0
ARC
  5
2FB94
330
1F
100
AcDbEntity
  8
freecads.com
100
AcDbCircle
 10
3390.947701486985
 20
18274.35657630559
 30
0.0
 40
13.81364482380264
100
AcDbArc
 50
75.27301714538897
 51
84.51531333654356
  0
ARC
  5
2FB95
330
1F
100
AcDbEntity
  8
freecads.com
100
AcDbCircle
 10
3389.615888414992
 20
18260.48629177671
 30
0.0
 40
27.74772243844037
100
AcDbArc
 50
84.51531757894468
 51
89.99999740282722
  0
ARC
  5
2FB96
330
1F
100
AcDbEntity
  8
freecads.com
100
AcDbCircle
 10
3389.615861136539
 20
18318.52972543139
 30
0.0
 40
30.29571121624829
100
AcDbArc
 50
263.5626185989964
 51
270.0000539682495
  0
ARC
  5
2FB97
330
1F
100
AcDbEntity
  8
freecads.com
100
AcDbCircle
 10
3386.768789546994
 20
18293.29616365056
 30
0.0
 40
4.902041595989669
100
AcDbArc
 50
238.8219436871918
 51
263.562649788678
  0
ARC
  5
2FB98
330
1F
100
AcDbEntity
  8
freecads.com
100
AcDbCircle
 10
3389.050574296132
 20
18297.06710846096
 30
0.0
 40
9.309599469058136
100
AcDbArc
 50
223.211752327906
 51
238.8219811687318
  0
ARC
  5
2FB99
330
1F
100
AcDbEntity
  8
freecads.com
100
AcDbCircle
 10
3541.268438650091
 20
18440.06796490961
 30
0.0
 40
218.1624739370162
100
AcDbArc
 50
221.6290389530866
 51
223.2117524053976
  0
ARC
  5
2FB9A
330
1F
100
AcDbEntity
  8
freecads.com
100
AcDbCircle
 10
3326.438605647556
 20
18249.13835378547
 30
0.0
 40
69.25007546177653
100
AcDbArc
 50
41.62901683794159
 51
44.6769725985549
  0
ARC
  5
2FB9B
330
1F
100
AcDbEntity
  8
freecads.com
100
AcDbCircle
 10
3338.476604128402
 20
18261.04129190099
 30
0.0
 40
52.32100746610059
100
AcDbArc
 50
44.67703650134757
 51
48.43782305645779
  0
ARC
  5
2FB9C
330
1F
100
AcDbEntity
  8
freecads.com
100
AcDbCircle
 10
3341.328214883033
 20
18264.2573143846
 30
0.0
 40
48.0228119718906
100
AcDbArc
 50
48.43790042530097
 51
51.84606050348636
  0
ARC
  5
2FB9D
330
1F
100
AcDbEntity
  8
freecads.com
100
AcDbCircle
 10
3368.953015061001
 20
18299.42029633967
 30
0.0
 40
3.306317421839598
100
AcDbArc
 50
51.84613526876679
 51
75.91068354672215
  0
ARC
  5
2FB9E
330
1F
100
AcDbEntity
  8
freecads.com
100
AcDbCircle
 10
3368.107028308106
 20
18296.04963484015
 30
0.0
 40
6.781522815838956
100
AcDbArc
 50
75.91065707279966
 51
101.4418551033316
  0
ARC
  5
2FB9F
330
1F
100
AcDbEntity
  8
freecads.com
100
AcDbCircle
 10
3377.784515157648
 20
18248.23465979868
 30
0.0
 40
55.56600385170299
100
AcDbArc
 50
101.4417964190439
 51
106.8671514382647
  0
ARC
  5
2FBA0
330
1F
100
AcDbEntity
  8
freecads.com
100
AcDbCircle
 10
3398.438721425286
 20
18180.11291674505
 30
0.0
 40
126.7500478026174
100
AcDbArc
 50
106.8671043833177
 51
110.4920206356567
  0
ARC
  5
2FBA1
330
1F
100
AcDbEntity
  8
freecads.com
100
AcDbCircle
 10
3643.419074866717
 20
17524.60344786658
 30
0.0
 40
826.5414719867044
100
AcDbArc
 50
110.4919850589181
 51
111.3993162829934
  0
LINE
  5
2FBA2
330
1F
100
AcDbEntity
  8
freecads.com
100
AcDbLine
 10
3341.842463672707
 20
18294.16329121515
 30
0.0
 11
3326.71218667271
 21
18288.23401421515
 31
0.0
  0
LINE
  5
2FBA3
330
1F
100
AcDbEntity
  8
freecads.com
100
AcDbLine
 10
3326.71218667271
 20
18288.23401421515
 30
0.0
 11
3295.950160672707
 21
18288.23401421515
 31
0.0
  0
LINE
  5
2FBA4
330
1F
100
AcDbEntity
  8
freecads.com
100
AcDbLine
 10
3295.950160672707
 20
18288.23401421515
 30
0.0
 11
3265.188133672709
 21
18288.23401421515
 31
0.0
  0
LINE
  5
2FBA5
330
1F
100
AcDbEntity
  8
freecads.com
100
AcDbLine
 10
3265.188133672709
 20
18288.23401421515
 30
0.0
 11
3265.188133672709
 21
18309.25876521515
 31
0.0
  0
LINE
  5
2FBA6
330
1F
100
AcDbEntity
  8
freecads.com
100
AcDbLine
 10
3265.188133672709
 20
18309.25876521515
 30
0.0
 11
3265.188133672709
 21
18330.28351621515
 31
0.0
  0
LINE
  5
2FBA7
330
1F
100
AcDbEntity
  8
freecads.com
100
AcDbLine
 10
3265.188133672709
 20
18330.28351621515
 30
0.0
 11
3267.91778167271
 21
18331.32132621515
 31
0.0
  0
ARC
  5
2FBA8
330
1F
100
AcDbEntity
  8
freecads.com
100
AcDbCircle
 10
3264.379546463861
 20
18340.62761056282
 30
0.0
 40
9.956205941662407
100
AcDbArc
 50
290.8167277448725
 51
307.5906474238247
  0
ARC
  5
2FBA9
330
1F
100
AcDbEntity
  8
freecads.com
100
AcDbCircle
 10
3267.638291135533
 20
18336.39462529344
 30
0.0
 40
4.614148180288324
100
AcDbArc
 50
307.5905708804842
 51
337.3966977272438
  0
ARC
  5
2FBAA
330
1F
100
AcDbEntity
  8
freecads.com
100
AcDbCircle
 10
3268.244258597246
 20
18336.14234079496
 30
0.0
 40
3.957761074368138
100
AcDbArc
 50
337.3967459957279
 51
10.15157081905749
  0
ARC
  5
2FBAB
330
1F
100
AcDbEntity
  8
freecads.com
100
AcDbCircle
 10
3265.538330675307
 20
18335.65783026286
 30
0.0
 40
6.706723855934828
100
AcDbArc
 50
10.15155502439706
 51
32.22352554730892
  0
ARC
  5
2FBAC
330
1F
100
AcDbEntity
  8
freecads.com
100
AcDbCircle
 10
3269.680395228686
 20
18338.2686012261
 30
0.0
 40
1.810518816636409
100
AcDbArc
 50
32.22358125200282
 51
75.0550110808113
  0
ARC
  5
2FBAD
330
1F
100
AcDbEntity
  8
freecads.com
100
AcDbCircle
 10
3264.839960315476
 20
18320.13422954911
 30
0.0
 40
20.57978215508707
100
AcDbArc
 50
75.05500785503968
 51
82.27028702943337
  0
ARC
  5
2FBAE
330
1F
100
AcDbEntity
  8
freecads.com
100
AcDbCircle
 10
3260.743665989001
 20
18289.95578641519
 30
0.0
 40
51.0349632774254
100
AcDbArc
 50
82.27020770642887
 51
86.89403719768616
  0
ARC
  5
2FBAF
330
1F
100
AcDbEntity
  8
freecads.com
100
AcDbCircle
 10
3242.278435275316
 20
17949.65989099724
 30
0.0
 40
391.8314732120438
100
AcDbArc
 50
86.89404523529528
 51
87.92329969893305
  0
LINE
  5
2FBB0
330
1F
100
AcDbEntity
  8
freecads.com
100
AcDbLine
 10
3256.47735867271
 20
18341.23401421515
 30
0.0
 11
3242.68813367271
 21
18341.73401421515
 31
0.0
  0
LINE
  5
2FBB1
330
1F
100
AcDbEntity
  8
freecads.com
100
AcDbLine
 10
3242.68813367271
 20
18341.73401421515
 30
0.0
 11
3242.377768672712
 21
18345.48401421515
 31
0.0
  0
LINE
  5
2FBB2
330
1F
100
AcDbEntity
  8
freecads.com
100
AcDbLine
 10
3242.377768672712
 20
18345.48401421515
 30
0.0
 11
3242.067402672706
 21
18349.23401421515
 31
0.0
  0
LINE
  5
2FBB3
330
1F
100
AcDbEntity
  8
freecads.com
100
AcDbLine
 10
3242.067402672706
 20
18349.23401421515
 30
0.0
 11
3246.556339672709
 21
18349.23401421515
 31
0.0
  0
ARC
  5
2FBB4
330
1F
100
AcDbEntity
  8
freecads.com
100
AcDbCircle
 10
3246.556331578082
 20
18365.19316791536
 30
0.0
 40
15.95915370020908
100
AcDbArc
 50
270.0000290608207
 51
281.5166321801051
  0
ARC
  5
2FBB5
330
1F
100
AcDbEntity
  8
freecads.com
100
AcDbCircle
 10
3248.319182129373
 20
18356.54127569756
 30
0.0
 40
7.1294945327052
100
AcDbArc
 50
281.516730253803
 51
302.5503440799062
  0
ARC
  5
2FBB6
330
1F
100
AcDbEntity
  8
freecads.com
100
AcDbCircle
 10
3249.704092916887
 20
18354.37161274882
 30
0.0
 40
4.555506343048359
100
AcDbArc
 50
302.5503293267504
 51
329.9413045866178
  0
ARC
  5
2FBB7
330
1F
100
AcDbEntity
  8
freecads.com
100
AcDbCircle
 10
3250.164022008932
 20
18354.10544450231
 30
0.0
 40
4.024111663776628
100
AcDbArc
 50
329.9412980586937
 51
359.9999816732567
  0
ARC
  5
2FBB8
330
1F
100
AcDbEntity
  8
freecads.com
100
AcDbCircle
 10
3250.864110839081
 20
18354.10544199166
 30
0.0
 40
3.324022833629212
100
AcDbArc
 50
0.0000210892095784
 51
40.64784692317451
  0
ARC
  5
2FBB9
330
1F
100
AcDbEntity
  8
freecads.com
100
AcDbCircle
 10
3250.386295946839
 20
18353.69521834033
 30
0.0
 40
3.953777162974562
100
AcDbArc
 50
40.64778223853751
 51
76.34959757491722
  0
ARC
  5
2FBBA
330
1F
100
AcDbEntity
  8
freecads.com
100
AcDbCircle
 10
3246.465629053237
 20
18337.55123325021
 30
0.0
 40
20.56702138199263
100
AcDbArc
 50
76.34962522474243
 51
88.57022041012923
  0
ARC
  5
2FBBB
330
1F
100
AcDbEntity
  8
freecads.com
100
AcDbCircle
 10
3237.188528278115
 20
17965.87056468209
 30
0.0
 40
392.3634495332618
100
AcDbArc
 50
88.57020270173505
 51
90.00005762305102
  0
ARC
  5
2FBBC
330
1F
100
AcDbEntity
  8
freecads.com
100
AcDbCircle
 10
3237.18824478543
 20
17950.44870310585
 30
0.0
 40
407.7853111093124
100
AcDbArc
 50
90.00001561180139
 51
91.41795347109891
  0
ARC
  5
2FBBD
330
1F
100
AcDbEntity
  8
freecads.com
100
AcDbCircle
 10
3227.530647313856
 20
18340.60750748154
 30
0.0
 40
17.50699782405324
100
AcDbArc
 50
91.41797783279001
 51
105.3443128604492
  0
ARC
  5
2FBBE
330
1F
100
AcDbEntity
  8
freecads.com
100
AcDbCircle
 10
3223.807419944023
 20
18354.17611343405
 30
0.0
 40
3.436834728273959
100
AcDbArc
 50
105.3443927851358
 51
146.5360065548837
  0
ARC
  5
2FBBF
330
1F
100
AcDbEntity
  8
freecads.com
100
AcDbCircle
 10
3224.725617464108
 20
18353.56920184719
 30
0.0
 40
4.537483791399842
100
AcDbArc
 50
146.536013115445
 51
180.0000458626108
  0
ARC
  5
2FBC0
330
1F
100
AcDbEntity
  8
freecads.com
100
AcDbCircle
 10
3223.650222800046
 20
18353.56919506486
 30
0.0
 40
3.462089127338527
100
AcDbArc
 50
179.9999478641538
 51
211.757675045285
  0
ARC
  5
2FBC1
330
1F
100
AcDbEntity
  8
freecads.com
100
AcDbCircle
 10
3224.190012027044
 20
18353.90332087536
 30
0.0
 40
4.096921756308943
100
AcDbArc
 50
211.7576048460893
 51
239.752059487287
  0
ARC
  5
2FBC2
330
1F
100
AcDbEntity
  8
freecads.com
100
AcDbCircle
 10
3225.681509839844
 20
18356.46103711226
 30
0.0
 40
7.057745640646406
100
AcDbArc
 50
239.7520244807287
 51
260.0309153316822
  0
ARC
  5
2FBC3
330
1F
100
AcDbEntity
  8
freecads.com
100
AcDbCircle
 10
3227.622383013994
 20
18367.50308129075
 30
0.0
 40
18.26906707560135
100
AcDbArc
 50
260.0308982671052
 51
270.0000302918723
  0
ARC
  5
2FBC4
330
1F
100
AcDbEntity
  8
freecads.com
100
AcDbCircle
 10
3227.622396699619
 20
18323.54833612287
 30
0.0
 40
25.68567809228111
100
AcDbArc
 50
85.0236214441907
 51
90.00000898254921
  0
ARC
  5
2FBC5
330
1F
100
AcDbEntity
  8
freecads.com
100
AcDbCircle
 10
3229.736795687677
 20
18347.83131720566
 30
0.0
 40
1.31081699836049
100
AcDbArc
 50
41.71491556395682
 51
85.02365995330086
  0
ARC
  5
2FBC6
330
1F
100
AcDbEntity
  8
freecads.com
100
AcDbCircle
 10
3229.550272731358
 20
18347.66504405275
 30
0.0
 40
1.560692116397711
100
AcDbArc
 50
3.636361833810811
 51
41.71491935826721
  0
ARC
  5
2FBC7
330
1F
100
AcDbEntity
  8
freecads.com
100
AcDbCircle
 10
3191.297682627264
 20
18345.23404222472
 30
0.0
 40
39.89045104545478
100
AcDbArc
 50
359.9999597690435
 51
3.63633230186261
  0
ARC
  5
2FBC8
330
1F
100
AcDbEntity
  8
freecads.com
100
AcDbCircle
 10
3191.315146894951
 20
18345.23399233735
 30
0.0
 40
39.87298677776435
100
AcDbArc
 50
356.3075233945914
 51
0.0000314374631042
  0
ARC
  5
2FBC9
330
1F
100
AcDbEntity
  8
freecads.com
100
AcDbCircle
 10
3229.645182271845
 20
18342.76035365176
 30
0.0
 40
1.463215881015024
100
AcDbArc
 50
315.8904689181517
 51
356.3075441665272
  0
ARC
  5
2FBCA
330
1F
100
AcDbEntity
  8
freecads.com
100
AcDbCircle
 10
3229.693757133872
 20
18342.71326505963
 30
0.0
 40
1.39556344034115
100
AcDbArc
 50
274.0223460883389
 51
315.8904867509028
  0
ARC
  5
2FBCB
330
1F
100
AcDbEntity
  8
freecads.com
100
AcDbCircle
 10
3227.310611749948
 20
18376.60354040586
 30
0.0
 40
35.36952619072586
100
AcDbArc
 50
269.9999464173661
 51
274.0223846076104
  0
ARC
  5
2FBCC
330
1F
100
AcDbEntity
  8
freecads.com
100
AcDbCircle
 10
3227.310585521074
 20
18328.34566979278
 30
0.0
 40
12.88834442236475
100
AcDbArc
 50
90.00003044486787
 51
103.1064574024254
  0
ARC
  5
2FBCD
330
1F
100
AcDbEntity
  8
freecads.com
100
AcDbCircle
 10
3225.327974962551
 20
18336.86108040095
 30
0.0
 40
4.145177807671649
100
AcDbArc
 50
103.1064476124049
 51
133.6267976633248
  0
ARC
  5
2FBCE
330
1F
100
AcDbEntity
  8
freecads.com
100
AcDbCircle
 10
3224.823821243393
 20
18337.38999046453
 30
0.0
 40
3.414481682136658
100
AcDbArc
 50
133.6267059004558
 51
168.1159249673082
  0
ARC
  5
2FBCF
330
1F
100
AcDbEntity
  8
freecads.com
100
AcDbCircle
 10
3229.186602001806
 20
18336.47186406319
 30
0.0
 40
7.872823530263771
100
AcDbArc
 50
168.1158489431999
 51
186.5950690776357
  0
ARC
  5
2FBD0
330
1F
100
AcDbEntity
  8
freecads.com
100
AcDbCircle
 10
3226.067452441858
 20
18336.11123810902
 30
0.0
 40
4.732895974387449
100
AcDbArc
 50
186.5950683048328
 51
223.1136996856057
  0
ARC
  5
2FBD1
330
1F
100
AcDbEntity
  8
freecads.com
100
AcDbCircle
 10
3226.857141602006
 20
18336.85056955072
 30
0.0
 40
5.814663024333439
100
AcDbArc
 50
223.1136935828522
 51
254.4171784845198
  0
ARC
  5
2FBD2
330
1F
100
AcDbEntity
  8
freecads.com
100
AcDbCircle
 10
3231.263032814808
 20
18352.64891964655
 30
0.0
 40
22.21587466034228
100
AcDbArc
 50
254.4171334922222
 51
267.7659145957181
  0
ARC
  5
2FBD3
330
1F
100
AcDbEntity
  8
freecads.com
100
AcDbCircle
 10
3240.722341778259
 20
18595.12317282872
 30
0.0
 40
264.8745690900195
100
AcDbArc
 50
267.7659312390321
 51
269.9385221158246
  0
LINE
  5
2FBD4
330
1F
100
AcDbEntity
  8
freecads.com
100
AcDbLine
 10
3240.438133672709
 20
18330.24875621515
 30
0.0
 11
3254.188133672709
 21
18330.23401421515
 31
0.0
  0
LINE
  5
2FBD5
330
1F
100
AcDbEntity
  8
freecads.com
100
AcDbLine
 10
3254.188133672709
 20
18330.23401421515
 30
0.0
 11
3254.188133672709
 21
18309.21287421515
 31
0.0
  0
LINE
  5
2FBD6
330
1F
100
AcDbEntity
  8
freecads.com
100
AcDbLine
 10
3254.188133672709
 20
18309.21287421515
 30
0.0
 11
3254.188133672709
 21
18288.19173421515
 31
0.0
  0
LINE
  5
2FBD7
330
1F
100
AcDbEntity
  8
freecads.com
100
AcDbLine
 10
3254.188133672709
 20
18288.19173421515
 30
0.0
 11
3234.657779672707
 21
18288.46287421515
 31
0.0
  0
LINE
  5
2FBD8
330
1F
100
AcDbEntity
  8
freecads.com
100
AcDbLine
 10
3234.657779672707
 20
18288.46287421515
 30
0.0
 11
3215.127424672712
 21
18288.73401421515
 31
0.0
  0
LINE
  5
2FBD9
330
1F
100
AcDbEntity
  8
freecads.com
100
AcDbLine
 10
3215.127424672712
 20
18288.73401421515
 30
0.0
 11
3201.749263672712
 21
18316.14421021515
 31
0.0
  0
ARC
  5
2FBDA
330
1F
100
AcDbEntity
  8
freecads.com
100
AcDbCircle
 10
4238.595795267705
 20
18822.20158350946
 30
0.0
 40
1153.752484351
100
AcDbArc
 50
205.3438166620306
 51
206.015779638707
  0
ARC
  5
2FBDB
330
1F
100
AcDbEntity
  8
freecads.com
100
AcDbCircle
 10
3474.559777061324
 20
18460.3283875771
 30
0.0
 40
308.3512499948303
100
AcDbArc
 50
203.550738466328
 51
205.3438305946685
  0
ARC
  5
2FBDC
330
1F
100
AcDbEntity
  8
freecads.com
100
AcDbCircle
 10
3555.161085150554
 20
18495.45923432972
 30
0.0
 40
396.2759180868112
100
AcDbArc
 50
202.5030829909126
 51
203.550671727332
  0
ARC
  5
2FBDD
330
1F
100
AcDbEntity
  8
freecads.com
100
AcDbCircle
 10
3190.998529133816
 20
18344.59520742775
 30
0.0
 40
2.10042187005814
100
AcDbArc
 50
159.6174484498994
 51
202.5030873031826
  0
ARC
  5
2FBDE
330
1F
100
AcDbEntity
  8
freecads.com
100
AcDbCircle
 10
3191.767247310629
 20
18344.30959542033
 30
0.0
 40
2.920483973878676
100
AcDbArc
 50
140.597422930591
 51
159.6175454105529
  0
ARC
  5
2FBDF
330
1F
100
AcDbEntity
  8
freecads.com
100
AcDbCircle
 10
3201.086161035063
 20
18336.65424737444
 30
0.0
 40
14.98060448352621
100
AcDbArc
 50
134.9345321703196
 51
140.5974110098649
  0
ARC
  5
2FBE0
330
1F
100
AcDbEntity
  8
freecads.com
100
AcDbCircle
 10
3202.976634371262
 20
18334.75943885931
 30
0.0
 40
17.65720470467397
100
AcDbArc
 50
129.4237175495801
 51
134.9345092172715
  0
ARC
  5
2FBE1
330
1F
100
AcDbEntity
  8
freecads.com
100
AcDbCircle
 10
3203.11226017007
 20
18334.59442525698
 30
0.0
 40
17.87080209613433
100
AcDbArc
 50
123.9623209901512
 51
129.4236374649313
  0
ARC
  5
2FBE2
330
1F
100
AcDbEntity
  8
freecads.com
100
AcDbCircle
 10
3187.728773213509
 20
18357.43375358587
 30
0.0
 40
9.666201906802427
100
AcDbArc
 50
303.9623643917285
 51
320.8409131107937
  0
ARC
  5
2FBE3
330
1F
100
AcDbEntity
  8
freecads.com
100
AcDbCircle
 10
3175.589106287283
 20
18367.32016074595
 30
0.0
 40
25.32227292139895
100
AcDbArc
 50
320.8409786694762
 51
329.0651207021239
  0
ARC
  5
2FBE4
330
1F
100
AcDbEntity
  8
freecads.com
100
AcDbCircle
 10
3142.206547459602
 20
18387.32675032644
 30
0.0
 40
64.24089135171285
100
AcDbArc
 50
329.0651748370448
 51
333.8679206410457
  0
ARC
  5
2FBE5
330
1F
100
AcDbEntity
  8
freecads.com
100
AcDbCircle
 10
2775.484260107435
 20
18567.23623860823
 30
0.0
 40
472.7169126976246
100
AcDbArc
 50
333.8679835286635
 51
334.9701166474489
  0
ARC
  5
2FBE6
330
1F
100
AcDbEntity
  8
freecads.com
100
AcDbCircle
 10
2974.494667974985
 20
18474.30949852848
 30
0.0
 40
253.0796629849424
100
AcDbArc
 50
334.9701711816689
 51
336.5001749480269
  0
ARC
  5
2FBE7
330
1F
100
AcDbEntity
  8
freecads.com
100
AcDbCircle
 10
3046.454164929339
 20
18443.02089306728
 30
0.0
 40
174.6121790592451
100
AcDbArc
 50
336.5001710217833
 51
338.5208262131113
  0
ARC
  5
2FBE8
330
1F
100
AcDbEntity
  8
freecads.com
100
AcDbCircle
 10
3030.315926296782
 20
18449.37119225024
 30
0.0
 40
191.9548733675726
100
AcDbArc
 50
338.5208114404875
 51
340.052419416967
  0
ARC
  5
2FBE9
330
1F
100
AcDbEntity
  8
freecads.com
100
AcDbCircle
 10
3205.058643219782
 20
18385.95103287586
 30
0.0
 40
6.059381941067321
100
AcDbArc
 50
340.0524274711648
 51
358.6634776496158
  0
ARC
  5
2FBEA
330
1F
100
AcDbEntity
  8
freecads.com
100
AcDbCircle
 10
3204.746914648895
 20
18385.9583017628
 30
0.0
 40
6.371195248366257
100
AcDbArc
 50
358.6635139350704
 51
23.51113332621129
  0
ARC
  5
2FBEB
330
1F
100
AcDbEntity
  8
freecads.com
100
AcDbCircle
 10
3203.414396982873
 20
18385.37859323462
 30
0.0
 40
7.824352262551336
100
AcDbArc
 50
23.51116993793968
 51
44.8122377464601
  0
ARC
  5
2FBEC
330
1F
100
AcDbEntity
  8
freecads.com
100
AcDbCircle
 10
3200.556061587857
 20
18382.53892038044
 30
0.0
 40
11.85347414568685
100
AcDbArc
 50
44.81227293444622
 51
61.58368507728224
  0
ARC
  5
2FBED
330
1F
100
AcDbEntity
  8
freecads.com
100
AcDbCircle
 10
3193.189597913843
 20
18368.92415434871
 30
0.0
 40
27.333352735625
100
AcDbArc
 50
61.58372899105616
 51
70.56608455122601
  0
ARC
  5
2FBEE
330
1F
100
AcDbEntity
  8
freecads.com
100
AcDbCircle
 10
3193.020790537812
 20
18368.44559775698
 30
0.0
 40
27.84080947314763
100
AcDbArc
 50
70.56615727844877
 51
85.96536052784662
  0
ARC
  5
2FBEF
330
1F
100
AcDbEntity
  8
freecads.com
100
AcDbCircle
 10
3194.595449544497
 20
18390.77024168249
 30
0.0
 40
5.460700505864004
100
AcDbArc
 50
85.96540641597666
 51
137.3760117154271
  0
ARC
  5
2FBF0
330
1F
100
AcDbEntity
  8
freecads.com
100
AcDbCircle
 10
3201.439780052613
 20
18384.4712572259
 30
0.0
 40
14.7624242863573
100
AcDbArc
 50
137.3759850676057
 51
163.0626741803458
  0
ARC
  5
2FBF1
330
1F
100
AcDbEntity
  8
freecads.com
100
AcDbCircle
 10
3495.388895660319
 20
18294.95329466589
 30
0.0
 40
322.0400645198217
100
AcDbArc
 50
163.0626437070426
 51
165.8001058606183
  0
ARC
  5
2FBF2
330
1F
100
AcDbEntity
  8
freecads.com
100
AcDbCircle
 10
4400.03541932955
 20
18066.0445873726
 30
0.0
 40
1255.198426782888
100
AcDbArc
 50
165.8001180899749
 51
166.3210504200222
  0
ARC
  5
2FBF3
330
1F
100
AcDbEntity
  8
freecads.com
100
AcDbCircle
 10
3226.351633362545
 20
18351.70102975773
 30
0.0
 40
47.25255360894968
100
AcDbArc
 50
166.3210159227974
 51
171.925717420018
  0
ARC
  5
2FBF4
330
1F
100
AcDbEntity
  8
freecads.com
100
AcDbCircle
 10
3189.912617680639
 20
18356.87037863945
 30
0.0
 40
10.44869468455104
100
AcDbArc
 50
171.9256901871886
 51
186.8452553489431
  0
ARC
  5
2FBF5
330
1F
100
AcDbEntity
  8
freecads.com
100
AcDbCircle
 10
3185.355141339679
 20
18356.32328338079
 30
0.0
 40
5.858498194153901
100
AcDbArc
 50
186.8452763886542
 51
209.8523766177281
  0
ARC
  5
2FBF6
330
1F
100
AcDbEntity
  8
freecads.com
100
AcDbCircle
 10
3176.364932585391
 20
18351.16361958937
 30
0.0
 40
4.50711726688703
100
AcDbArc
 50
355.3062894598109
 51
29.85241050618571
  0
ARC
  5
2FBF7
330
1F
100
AcDbEntity
  8
freecads.com
100
AcDbCircle
 10
3159.951135633571
 20
18352.51127225438
 30
0.0
 40
20.97614571670939
100
AcDbArc
 50
344.2640715551615
 51
355.3062708262847
  0
ARC
  5
2FBF8
330
1F
100
AcDbEntity
  8
freecads.com
100
AcDbCircle
 10
3067.156540771954
 20
18378.65734227329
 30
0.0
 40
117.3838933979196
100
AcDbArc
 50
340.5606179672243
 51
344.2641239359556
  0
ARC
  5
2FBF9
330
1F
100
AcDbEntity
  8
freecads.com
100
AcDbCircle
 10
-1152.047380036638
 20
19867.73234051957
 30
0.0
 40
4591.646522677591
100
AcDbArc
 50
340.2970779514821
 51
340.5606384210782
  0
LINE
  5
2FBFA
330
1F
100
AcDbEntity
  8
freecads.com
100
AcDbLine
 10
3170.773629672709
 20
18319.68960621515
 30
0.0
 11
3159.688133672709
 21
18288.73401421515
 31
0.0
  0
LINE
  5
2FBFB
330
1F
100
AcDbEntity
  8
freecads.com
100
AcDbLine
 10
3159.688133672709
 20
18288.73401421515
 30
0.0
 11
3130.43813367271
 21
18288.46890921515
 31
0.0
  0
ARC
  5
2FBFC
330
1F
100
AcDbEntity
  8
freecads.com
100
AcDbCircle
 10
3110.66835934695
 20
20469.63712693918
 30
0.0
 40
2181.257810985737
100
AcDbArc
 50
270.1244238192083
 51
270.5193059407282
  0
ARC
  5
2FBFD
330
1F
100
AcDbEntity
  8
freecads.com
100
AcDbCircle
 10
3114.91275814279
 20
18515.0220342531
 30
0.0
 40
226.6381100012447
100
AcDbArc
 50
268.0401266608366
 51
270.1244896487302
  0
ARC
  5
2FBFE
330
1F
100
AcDbEntity
  8
freecads.com
100
AcDbCircle
 10
3113.164506210633
 20
18463.935551874
 30
0.0
 40
175.5217225440275
100
AcDbArc
 50
266.2990864925544
 51
268.0401571460505
  0
ARC
  5
2FBFF
330
1F
100
AcDbEntity
  8
freecads.com
100
AcDbCircle
 10
3101.879519667542
 20
18289.46980836936
 30
0.0
 40
0.6913859948311292
100
AcDbArc
 50
179.9999299084353
 51
266.2990648667413
  0
ARC
  5
2FC00
330
1F
100
AcDbEntity
  8
freecads.com
100
AcDbCircle
 10
3104.861806206754
 20
18289.46981317079
 30
0.0
 40
3.673672534047311
100
AcDbArc
 50
164.9303386534423
 51
180.0000616932751
  0
ARC
  5
2FC01
330
1F
100
AcDbEntity
  8
freecads.com
100
AcDbCircle
 10
6237.30828864919
 20
17446.05175696498
 30
0.0
 40
3247.679680990254
100
AcDbArc
 50
164.7999625921322
 51
164.9303677722385
  0
ARC
  5
2FC02
330
1F
100
AcDbEntity
  8
freecads.com
100
AcDbCircle
 10
4137.721348739694
 20
18016.49904144302
 30
0.0
 40
1071.978547423045
100
AcDbArc
 50
164.3457566139397
 51
164.7999969592281
  0
ARC
  5
2FC03
330
1F
100
AcDbEntity
  8
freecads.com
100
AcDbCircle
 10
4965.929683427261
 20
17784.41321953306
 30
0.0
 40
1932.090676379183
100
AcDbArc
 50
164.0535349808845
 51
164.3457432979854
  0
ARC
  5
2FC04
330
1F
100
AcDbEntity
  8
freecads.com
100
AcDbCircle
 10
2521.92164242304
 20
18482.75093706352
 30
0.0
 40
609.7297091357654
100
AcDbArc
 50
344.0535007857661
 51
345.7945714392841
  0
ARC
  5
2FC05
330
1F
100
AcDbEntity
  8
freecads.com
100
AcDbCircle
 10
3034.707339319561
 20
18352.94448476739
 30
0.0
 40
80.76951592709551
100
AcDbArc
 50
345.7945897009834
 51
353.5217777113993
  0
ARC
  5
2FC06
330
1F
100
AcDbEntity
  8
freecads.com
100
AcDbCircle
 10
3070.086890749422
 20
18348.92711689705
 30
0.0
 40
45.1626078335264
100
AcDbArc
 50
353.5217760042074
 51
4.749633007767037
  0
ARC
  5
2FC07
330
1F
100
AcDbEntity
  8
freecads.com
100
AcDbCircle
 10
3029.183394544482
 20
18345.52862689006
 30
0.0
 40
86.20704394992383
100
AcDbArc
 50
4.749590204618572
 51
11.67064913771445
  0
ARC
  5
2FC08
330
1F
100
AcDbEntity
  8
freecads.com
100
AcDbCircle
 10
3051.64754321114
 20
18350.16875648515
 30
0.0
 40
63.26867482794976
100
AcDbArc
 50
11.67062431322146
 51
17.85889761643996
  0
ARC
  5
2FC09
330
1F
100
AcDbEntity
  8
freecads.com
100
AcDbCircle
 10
3071.59800409338
 20
18356.59679129316
 30
0.0
 40
42.30822347530636
100
AcDbArc
 50
17.85888108268238
 51
26.22515945786117
  0
ARC
  5
2FC0A
330
1F
100
AcDbEntity
  8
freecads.com
100
AcDbCircle
 10
3074.87219904046
 20
18358.20968696795
 30
0.0
 40
38.65832142056324
100
AcDbArc
 50
26.22515177584635
 51
35.01482511360787
  0
ARC
  5
2FC0B
330
1F
100
AcDbEntity
  8
freecads.com
100
AcDbCircle
 10
3071.069068505523
 20
18355.54518751134
 30
0.0
 40
43.30195784242535
100
AcDbArc
 50
35.01488146798719
 51
43.08772488671696
  0
ARC
  5
2FC0C
330
1F
100
AcDbEntity
  8
freecads.com
100
AcDbCircle
 10
3189.062622569203
 20
18465.91428875107
 30
0.0
 40
118.2648002145654
100
AcDbArc
 50
221.1044564051427
 51
223.087757598923
  0
ARC
  5
2FC0D
330
1F
100
AcDbEntity
  8
freecads.com
100
AcDbCircle
 10
3103.35564280906
 20
18391.13557885371
 30
0.0
 40
4.521484659237288
100
AcDbArc
 50
199.9944281341717
 51
221.1043983516637
  0
ARC
  5
2FC0E
330
1F
100
AcDbEntity
  8
freecads.com
100
AcDbCircle
 10
3101.242962474215
 20
18390.36685750688
 30
0.0
 40
2.273296342772496
100
AcDbArc
 50
165.3279909264052
 51
199.9943984792523
  0
ARC
  5
2FC0F
330
1F
100
AcDbEntity
  8
freecads.com
100
AcDbCircle
 10
3114.741992160249
 20
18386.83251271031
 30
0.0
 40
16.22734219354667
100
AcDbArc
 50
157.1947585070976
 51
165.3280306656018
  0
ARC
  5
2FC10
330
1F
100
AcDbEntity
  8
freecads.com
100
AcDbCircle
 10
3054.03464075338
 20
18412.35802093516
 30
0.0
 40
49.62806065978481
100
AcDbArc
 50
337.1948092621926
 51
347.897665716588
  0
ARC
  5
2FC11
330
1F
100
AcDbEntity
  8
freecads.com
100
AcDbCircle
 10
3023.553784182739
 20
18418.89376799022
 30
0.0
 40
80.80174518445808
100
AcDbArc
 50
347.8977220789238
 51
355.3266109040496
  0
ARC
  5
2FC12
330
1F
100
AcDbEntity
  8
freecads.com
100
AcDbCircle
 10
3027.333454897991
 20
18418.58467085232
 30
0.0
 40
77.00945672738384
100
AcDbArc
 50
355.3266990710302
 51
2.864791724271065
  0
ARC
  5
2FC13
330
1F
100
AcDbEntity
  8
freecads.com
100
AcDbCircle
 10
3071.093905793001
 20
18420.77449406917
 30
0.0
 40
33.19424945577559
100
AcDbArc
 50
2.864837597104377
 51
17.00328655117522
  0
ARC
  5
2FC14
330
1F
100
AcDbEntity
  8
freecads.com
100
AcDbCircle
 10
3081.380209916439
 20
18423.91999170526
 30
0.0
 40
22.43775337674291
100
AcDbArc
 50
17.00325316992728
 51
25.80642840177232
  0
ARC
  5
2FC15
330
1F
100
AcDbEntity
  8
freecads.com
100
AcDbCircle
 10
1427.808367084326
 20
17624.32527883499
 30
0.0
 40
1859.188020630634
100
AcDbArc
 50
25.80637172820409
 51
26.18154415739315
  0
ARC
  5
2FC16
330
1F
100
AcDbEntity
  8
freecads.com
100
AcDbCircle
 10
1938.520485275891
 20
17875.42259394519
 30
0.0
 40
1290.086334353698
100
AcDbArc
 50
26.18153995490506
 51
26.82302182721799
  0
ARC
  5
2FC17
330
1F
100
AcDbEntity
  8
freecads.com
100
AcDbCircle
 10
1272.090838314179
 20
17538.445856684
 30
0.0
 40
2036.867290056877
100
AcDbArc
 50
26.82309032202998
 51
27.27870576039996
  0
ARC
  5
2FC18
330
1F
100
AcDbEntity
  8
freecads.com
100
AcDbCircle
 10
11588.89908212036
 20
22858.49469657794
 30
0.0
 40
9570.86513270015
100
AcDbArc
 50
207.141205723455
 51
207.2787155777527
  0
ARC
  5
2FC19
330
1F
100
AcDbEntity
  8
freecads.com
100
AcDbCircle
 10
71032.19861391409
 20
53331.16940029
 30
0.0
 40
76369.74059347918
100
AcDbArc
 50
207.1114364719456
 51
207.141230276976
  0
ARC
  5
2FC1A
330
1F
100
AcDbEntity
  8
freecads.com
100
AcDbCircle
 10
78832.09110831229
 20
57324.51950771105
 30
0.0
 40
85132.45524159399
100
AcDbArc
 50
207.0804839790155
 51
207.1114236995553
  0
ARC
  5
2FC1B
330
1F
100
AcDbEntity
  8
freecads.com
100
AcDbCircle
 10
83554.32813904183
 20
59738.8165225689
 30
0.0
 40
90436.07218007743
100
AcDbArc
 50
207.0508266040212
 51
207.0803912261018
  0
ARC
  5
2FC1C
330
1F
100
AcDbEntity
  8
freecads.com
100
AcDbCircle
 10
-8423.213084570031
 20
12771.10293665182
 30
0.0
 40
12839.45352195021
100
AcDbArc
 50
27.05080200758717
 51
27.24858698942141
  0
ARC
  5
2FC1D
330
1F
100
AcDbEntity
  8
freecads.com
100
AcDbCircle
 10
-3724.893740232474
 20
15190.75173555333
 30
0.0
 40
7554.673018334479
100
AcDbArc
 50
27.24857396310376
 51
27.54284492501127
  0
ARC
  5
2FC1E
330
1F
100
AcDbEntity
  8
freecads.com
100
AcDbCircle
 10
-10452.59899866256
 20
11682.15281784596
 30
0.0
 40
15142.31325819145
100
AcDbArc
 50
27.54277966500775
 51
27.66837200094534
  0
ARC
  5
2FC1F
330
1F
100
AcDbEntity
  8
freecads.com
100
AcDbCircle
 10
2903.033399316541
 20
18684.6146680303
 30
0.0
 40
62.2804759579876
100
AcDbArc
 50
27.66839925040641
 51
33.77010360158646
  0
ARC
  5
2FC20
330
1F
100
AcDbEntity
  8
freecads.com
100
AcDbCircle
 10
2905.690009077327
 20
18686.39104455318
 30
0.0
 40
59.08468357278088
100
AcDbArc
 50
33.77015356699733
 51
37.99970613965915
  0
ARC
  5
2FC21
330
1F
100
AcDbEntity
  8
freecads.com
100
AcDbCircle
 10
2809.382930504493
 20
18611.14844241533
 30
0.0
 40
181.2996685775182
100
AcDbArc
 50
37.99972142142085
 51
39.83337642172357
  0
ARC
  5
2FC22
330
1F
100
AcDbEntity
  8
freecads.com
100
AcDbCircle
 10
2798.51808025175
 20
18602.08534371545
 30
0.0
 40
195.4483338520436
100
AcDbArc
 50
39.83340320811608
 51
41.64505802064279
  0
ARC
  5
2FC23
330
1F
100
AcDbEntity
  8
freecads.com
100
AcDbCircle
 10
2843.37278030871
 20
18641.97234272761
 30
0.0
 40
135.4240320452231
100
AcDbArc
 50
41.64505513812677
 51
44.03007774657033
  0
ARC
  5
2FC24
330
1F
100
AcDbEntity
  8
freecads.com
100
AcDbCircle
 10
2824.871214248582
 20
18624.08688963778
 30
0.0
 40
161.157228094356
100
AcDbArc
 50
44.03005703225889
 51
54.29334463823445
  0
ARC
  5
2FC25
330
1F
100
AcDbEntity
  8
freecads.com
100
AcDbCircle
 10
2822.36895492451
 20
18620.60552616816
 30
0.0
 40
165.4445574882534
100
AcDbArc
 50
54.29333545639852
 51
64.35648194388308
  0
ARC
  5
2FC26
330
1F
100
AcDbEntity
  8
freecads.com
100
AcDbCircle
 10
2810.297039605161
 20
18595.45866006485
 30
0.0
 40
193.3389299367066
100
AcDbArc
 50
64.35646513599046
 51
73.60036300097651
  0
ARC
  5
2FC27
330
1F
100
AcDbEntity
  8
freecads.com
100
AcDbCircle
 10
2777.144702812235
 20
18482.81462630588
 30
0.0
 40
310.7602047394672
100
AcDbArc
 50
73.60033289146731
 51
80.07853047414926
  0
ARC
  5
2FC28
330
1F
100
AcDbEntity
  8
freecads.com
100
AcDbCircle
 10
2817.723524034089
 20
18714.8078737565
 30
0.0
 40
75.24479633818948
100
AcDbArc
 50
80.07848023812405
 51
89.31688664640772
  0
ARC
  5
2FC29
330
1F
100
AcDbEntity
  8
freecads.com
100
AcDbCircle
 10
2730.191234495411
 20
11374.59933653198
 30
0.0
 40
7415.975228090449
100
AcDbArc
 50
89.31677895530114
 51
89.66674130434286
  0
ARC
  5
2FC2A
330
1F
100
AcDbEntity
  8
freecads.com
100
AcDbCircle
 10
2676.828773834699
 20
2201.274532843232
 30
0.0
 40
16589.45523876061
100
AcDbArc
 50
89.6667220728491
 51
89.9385331235913
  0
ARC
  5
2FC2B
330
1F
100
AcDbEntity
  8
freecads.com
100
AcDbCircle
 10
2156.929312351
 20
-482292.8350095763
 30
0.0
 40
501083.8437271635
100
AcDbArc
 50
89.93851776899704
 51
89.96166526402031
  0
LINE
  5
2FC2C
330
1F
100
AcDbEntity
  8
freecads.com
100
AcDbLine
 10
2492.188133672709
 20
18790.89656221515
 30
0.0
 11
2163.688133672709
 21
18791.11662521515
 31
0.0
  0
LINE
  5
2FC2D
330
1F
100
AcDbEntity
  8
freecads.com
100
AcDbLine
 10
2163.688133672709
 20
18791.11662521515
 30
0.0
 11
2151.949328672708
 21
18788.67507521515
 31
0.0
  0
ARC
  5
2FC2E
330
1F
100
AcDbEntity
  8
freecads.com
100
AcDbCircle
 10
2299.534628256253
 20
18699.35275608809
 30
0.0
 40
14.24911919526278
100
AcDbArc
 50
53.9898735120863
 51
73.53976514954846
  0
ARC
  5
2FC2F
330
1F
100
AcDbEntity
  8
freecads.com
100
AcDbCircle
 10
2284.177726430193
 20
18678.22360162301
 30
0.0
 40
40.36952505168591
100
AcDbArc
 50
45.00000536868725
 51
53.98991235030982
  0
ARC
  5
2FC30
330
1F
100
AcDbEntity
  8
freecads.com
100
AcDbCircle
 10
2284.17772108056
 20
18678.22360697264
 30
0.0
 40
40.36952505168668
100
AcDbArc
 50
36.01008764946416
 51
44.99999463103639
  0
ARC
  5
2FC31
330
1F
100
AcDbEntity
  8
freecads.com
100
AcDbCircle
 10
2305.306875545648
 20
18693.5805087987
 30
0.0
 40
14.24911919526163
100
AcDbArc
 50
16.46023485043166
 51
36.01012648778633
  0
ARC
  5
2FC32
330
1F
100
AcDbEntity
  8
freecads.com
100
AcDbCircle
 10
2304.063700506158
 20
18693.21318551359
 30
0.0
 40
15.54542570776694
100
AcDbArc
 50
1.456062508461355
 51
16.46029274034488
  0
ARC
  5
2FC33
330
1F
100
AcDbEntity
  8
freecads.com
100
AcDbCircle
 10
736.6249413103505
 20
18653.37002859607
 30
0.0
 40
1583.490495211936
100
AcDbArc
 50
0.9003352408320429
 51
1.456103212798689
  0
ARC
  5
2FC34
330
1F
100
AcDbEntity
  8
freecads.com
100
AcDbCircle
 10
540.6931425370203
 20
18650.29189371369
 30
0.0
 40
1779.44647160484
100
AcDbArc
 50
0.1850263231932897
 51
0.9003045122344605
  0
ARC
  5
2FC35
330
1F
100
AcDbEntity
  8
freecads.com
100
AcDbCircle
 10
-8771.614520750402
 20
18620.23095591442
 30
0.0
 40
11091.80265442353
100
AcDbArc
 50
0.0000157979390681
 51
0.1849665341303932
  0
ARC
  5
2FC36
330
1F
100
AcDbEntity
  8
freecads.com
100
AcDbCircle
 10
-8771.614520750402
 20
18620.23707251588
 30
0.0
 40
11091.80265442353
100
AcDbArc
 50
359.8150334658697
 51
359.999984202061
  0
ARC
  5
2FC37
330
1F
100
AcDbEntity
  8
freecads.com
100
AcDbCircle
 10
540.6931425370203
 20
18590.17613471662
 30
0.0
 40
1779.44647160484
100
AcDbArc
 50
359.0996954877655
 51
359.8149736768068
  0
ARC
  5
2FC38
330
1F
100
AcDbEntity
  8
freecads.com
100
AcDbCircle
 10
736.6249413103505
 20
18587.09799983424
 30
0.0
 40
1583.490495211936
100
AcDbArc
 50
358.5438967872013
 51
359.099664759168
  0
ARC
  5
2FC39
330
1F
100
AcDbEntity
  8
freecads.com
100
AcDbCircle
 10
2304.063700506158
 20
18547.25484291671
 30
0.0
 40
15.5454257077666
100
AcDbArc
 50
343.5397072596551
 51
358.5439374915387
  0
ARC
  5
2FC3A
330
1F
100
AcDbEntity
  8
freecads.com
100
AcDbCircle
 10
2304.998608833332
 20
18546.9786169291
 30
0.0
 40
14.57056449895759
100
AcDbArc
 50
323.9911737327683
 51
343.5397002523334
  0
ARC
  5
2FC3B
330
1F
100
AcDbEntity
  8
freecads.com
100
AcDbCircle
 10
2283.703652635711
 20
18562.4553360534
 30
0.0
 40
40.8955335266816
100
AcDbArc
 50
314.9394659035134
 51
323.9911565086656
  0
ARC
  5
2FC3C
330
1F
100
AcDbEntity
  8
freecads.com
100
AcDbCircle
 10
2283.878682093484
 20
18562.27994292206
 30
0.0
 40
40.64774720424347
100
AcDbArc
 50
305.8912011538982
 51
314.9394593702026
  0
ARC
  5
2FC3D
330
1F
100
AcDbEntity
  8
freecads.com
100
AcDbCircle
 10
2299.917370159368
 20
18540.11622019855
 30
0.0
 40
13.28956525004482
100
AcDbArc
 50
285.0707209327654
 51
305.891148434574
  0
ARC
  5
2FC3E
330
1F
100
AcDbEntity
  8
freecads.com
100
AcDbCircle
 10
2299.414143476235
 20
18541.98503038455
 30
0.0
 40
15.22494340583727
100
AcDbArc
 50
271.5586627915529
 51
285.0707477268052
  0
ARC
  5
2FC3F
330
1F
100
AcDbEntity
  8
freecads.com
100
AcDbCircle
 10
2273.015288422226
 20
19512.10755716844
 30
0.0
 40
985.7065849229137
100
AcDbArc
 50
270.877609619089
 51
271.5587398406131
  0
ARC
  5
2FC40
330
1F
100
AcDbEntity
  8
freecads.com
100
AcDbCircle
 10
2272.099748728543
 20
19571.85649666682
 30
0.0
 40
1045.462538467619
100
AcDbArc
 50
270.0003164365277
 51
270.8776251272367
  0
ARC
  5
2FC41
330
1F
100
AcDbEntity
  8
freecads.com
100
AcDbCircle
 10
2272.084826599341
 20
22609.92440450342
 30
0.0
 40
4083.530446340711
100
AcDbArc
 50
269.6817260565708
 51
270.0002903855926
  0
LINE
  5
2FC42
330
1F
100
AcDbEntity
  8
freecads.com
100
AcDbLine
 10
2249.401224672707
 20
18526.45696121515
 30
0.0
 11
2199.528967672712
 21
18526.73401421515
 31
0.0
  0
LINE
  5
2FC43
330
1F
100
AcDbEntity
  8
freecads.com
100
AcDbLine
 10
2199.528967672712
 20
18526.73401421515
 30
0.0
 11
2194.63498667271
 21
18529.76045021515
 31
0.0
  0
ARC
  5
2FC44
330
1F
100
AcDbEntity
  8
freecads.com
100
AcDbCircle
 10
2206.101059899018
 20
18548.30202331933
 30
0.0
 40
21.80047633444829
100
AcDbArc
 50
231.0608540871736
 51
238.2674329218833
  0
ARC
  5
2FC45
330
1F
100
AcDbEntity
  8
freecads.com
100
AcDbCircle
 10
2209.651904701917
 20
18552.6965129791
 30
0.0
 40
27.4502584704132
100
AcDbArc
 50
224.9978890509307
 51
231.0608887287833
  0
ARC
  5
2FC46
330
1F
100
AcDbEntity
  8
freecads.com
100
AcDbCircle
 10
2209.652299450696
 20
18552.69691323543
 30
0.0
 40
27.45082062377025
100
AcDbArc
 50
218.9348975443279
 51
224.9978972225505
  0
ARC
  5
2FC47
330
1F
100
AcDbEntity
  8
freecads.com
100
AcDbCircle
 10
2205.260896278756
 20
18549.14910279527
 30
0.0
 40
21.80534626483819
100
AcDbArc
 50
211.7295116427629
 51
218.9349456939844
  0
LINE
  5
2FC48
330
1F
100
AcDbEntity
  8
freecads.com
100
AcDbLine
 10
2186.714569672709
 20
18537.68145721515
 30
0.0
 11
2183.688133672709
 21
18542.57603021515
 31
0.0
  0
LINE
  5
2FC49
330
1F
100
AcDbEntity
  8
freecads.com
100
AcDbLine
 10
2183.688133672709
 20
18542.57603021515
 30
0.0
 11
2183.388484672709
 21
18618.15502221515
 31
0.0
  0
ARC
  5
2FC4A
330
1F
100
AcDbEntity
  8
freecads.com
100
AcDbCircle
 10
11422.90638335922
 20
18654.79466303301
 30
0.0
 40
9239.590546308193
100
AcDbArc
 50
180.0188798882246
 51
180.2272072851213
  0
ARC
  5
2FC4B
330
1F
100
AcDbEntity
  8
freecads.com
100
AcDbCircle
 10
4653.321420649496
 20
18652.56596120865
 30
0.0
 40
2470.00521672982
100
AcDbArc
 50
179.4631579905646
 51
180.0189259624055
  0
ARC
  5
2FC4C
330
1F
100
AcDbEntity
  8
freecads.com
100
AcDbCircle
 10
6179.62936851778
 20
18638.26795017714
 30
0.0
 40
3996.380132940851
100
AcDbArc
 50
179.2005629234518
 51
179.463206661759
  0
ARC
  5
2FC4D
330
1F
100
AcDbEntity
  8
freecads.com
100
AcDbCircle
 10
2196.085396559887
 20
18693.85319694445
 30
0.0
 40
12.44836944637269
100
AcDbArc
 50
163.8169237340473
 51
179.2006127143907
  0
ARC
  5
2FC4E
330
1F
100
AcDbEntity
  8
freecads.com
100
AcDbCircle
 10
2203.843063377331
 20
18691.60187055429
 30
0.0
 40
20.52610829864415
100
AcDbArc
 50
150.8416212016047
 51
163.816922527303
  0
ARC
  5
2FC4F
330
1F
100
AcDbEntity
  8
freecads.com
100
AcDbCircle
 10
2207.546505828315
 20
18689.53562173819
 30
0.0
 40
24.76696554191358
100
AcDbArc
 50
139.5707937346937
 51
150.8416334396351
  0
ARC
  5
2FC50
330
1F
100
AcDbEntity
  8
freecads.com
100
AcDbCircle
 10
2208.010409987183
 20
18689.14040734069
 30
0.0
 40
25.37639272261046
100
AcDbArc
 50
128.4355470181794
 51
139.570805626534
  0
ARC
  5
2FC51
330
1F
100
AcDbEntity
  8
freecads.com
100
AcDbCircle
 10
2206.596856563592
 20
18690.92160449288
 30
0.0
 40
23.10245416225084
100
AcDbArc
 50
116.4880770097117
 51
128.4355590900861
  0
LINE
  5
2FC52
330
1F
100
AcDbEntity
  8
freecads.com
100
AcDbLine
 10
2196.292894672704
 20
18711.59892921515
 30
0.0
 11
2201.58082267271
 21
18714.23401421515
 31
0.0
  0
LINE
  5
2FC53
330
1F
100
AcDbEntity
  8
freecads.com
100
AcDbLine
 10
2201.58082267271
 20
18714.23401421515
 30
0.0
 11
2250.518458672712
 21
18714.23401421515
 31
0.0
  0
ARC
  5
2FC54
330
1F
100
AcDbEntity
  8
freecads.com
100
AcDbCircle
 10
2250.514896614557
 20
14258.20086734444
 30
0.0
 40
4456.033146872133
100
AcDbArc
 50
89.69903693775693
 51
89.9999541988792
  0
ARC
  5
2FC55
330
1F
100
AcDbEntity
  8
freecads.com
100
AcDbCircle
 10
2269.365079013871
 20
17846.97134259566
 30
0.0
 40
867.2131662370732
100
AcDbArc
 50
88.68690007711606
 51
89.69896614777253
  0
ARC
  5
2FC56
330
1F
100
AcDbEntity
  8
freecads.com
100
AcDbCircle
 10
2274.556240274527
 20
18073.43739570073
 30
0.0
 40
640.6876238269346
100
AcDbArc
 50
87.73305637050665
 51
88.68691100061703
  0
ARC
  5
2FC57
330
1F
100
AcDbEntity
  8
freecads.com
100
AcDbCircle
 10
2299.302888060513
 20
18698.568484968
 30
0.0
 40
15.06691177762508
100
AcDbArc
 50
73.53969055732084
 51
87.73316188954655
  0
ARC
  5
2FC58
330
1F
100
AcDbEntity
  8
freecads.com
100
AcDbCircle
 10
2607.771542352588
 20
18592.03434714906
 30
0.0
 40
23.27706773492671
100
AcDbArc
 50
50.38368035214692
 51
61.84130264822074
  0
ARC
  5
2FC59
330
1F
100
AcDbEntity
  8
freecads.com
100
AcDbCircle
 10
2600.030632937538
 20
18582.68255192395
 30
0.0
 40
35.41699164339397
100
AcDbArc
 50
42.01792968730993
 51
50.38375030682514
  0
ARC
  5
2FC5A
330
1F
100
AcDbEntity
  8
freecads.com
100
AcDbCircle
 10
2601.107157970844
 20
18583.65242072959
 30
0.0
 40
33.96800867381553
100
AcDbArc
 50
33.52056828687414
 51
42.01799091198685
  0
ARC
  5
2FC5B
330
1F
100
AcDbEntity
  8
freecads.com
100
AcDbCircle
 10
2614.987767243416
 20
18592.84697475252
 30
0.0
 40
17.31834989478719
100
AcDbArc
 50
19.45355048355257
 51
33.52053640298894
  0
ARC
  5
2FC5C
330
1F
100
AcDbEntity
  8
freecads.com
100
AcDbCircle
 10
2619.188825330093
 20
18594.33081936002
 30
0.0
 40
12.86293926647782
100
AcDbArc
 50
4.347529550273589
 51
19.45353500200515
  0
ARC
  5
2FC5D
330
1F
100
AcDbEntity
  8
freecads.com
100
AcDbCircle
 10
2458.342644672943
 20
18582.10255240721
 30
0.0
 40
174.1732747836477
100
AcDbArc
 50
2.099999362175662
 51
4.347526149154597
  0
ARC
  5
2FC5E
330
1F
100
AcDbEntity
  8
freecads.com
100
AcDbCircle
 10
2280.084753330542
 20
18575.56594962218
 30
0.0
 40
352.5509723856504
100
AcDbArc
 50
0.419001323458738
 51
2.100029347142248
  0
ARC
  5
2FC5F
330
1F
100
AcDbEntity
  8
freecads.com
100
AcDbCircle
 10
320.0143696905652
 20
18561.23244636537
 30
0.0
 40
2312.673763982676
100
AcDbArc
 50
0.0000388429489695
 51
0.4189851161253654
  0
LINE
  5
2FC60
330
1F
100
AcDbEntity
  8
freecads.com
100
AcDbLine
 10
2632.68813367271
 20
18561.23401421515
 30
0.0
 11
2632.68813367271
 21
18527.73401421515
 31
0.0
  0
LINE
  5
2FC61
330
1F
100
AcDbEntity
  8
freecads.com
100
AcDbLine
 10
2632.68813367271
 20
18527.73401421515
 30
0.0
 11
2629.776848672707
 21
18522.47968521515
 31
0.0
  0
ARC
  5
2FC62
330
1F
100
AcDbEntity
  8
freecads.com
100
AcDbCircle
 10
2606.013084733233
 20
18535.64656327957
 30
0.0
 40
27.16768585165617
100
AcDbArc
 50
325.5604497479508
 51
331.0103135588702
  0
ARC
  5
2FC63
330
1F
100
AcDbEntity
  8
freecads.com
100
AcDbCircle
 10
2597.041881170008
 20
18541.79834060814
 30
0.0
 40
38.04550078263508
100
AcDbArc
 50
321.3263576085341
 51
325.5604922808416
  0
ARC
  5
2FC64
330
1F
100
AcDbEntity
  8
freecads.com
100
AcDbCircle
 10
2599.432347451635
 20
18539.88495838888
 30
0.0
 40
34.98357972584706
100
AcDbArc
 50
317.0125747776028
 51
321.3264374399969
  0
ARC
  5
2FC65
330
1F
100
AcDbEntity
  8
freecads.com
100
AcDbCircle
 10
2616.363947824575
 20
18524.10290554021
 30
0.0
 40
11.83725640429235
100
AcDbArc
 50
307.3340629449035
 51
317.0126669150544
  0
ARC
  5
2FC66
330
1F
100
AcDbEntity
  8
freecads.com
100
AcDbCircle
 10
2610.959058870932
 20
18531.18907201142
 30
0.0
 40
20.74941550625933
100
AcDbArc
 50
287.9211803044903
 51
307.3340982164383
  0
ARC
  5
2FC67
330
1F
100
AcDbEntity
  8
freecads.com
100
AcDbCircle
 10
2606.923750158356
 20
18543.66678638177
 30
0.0
 40
33.8634184158794
100
AcDbArc
 50
274.4701118012869
 51
287.9212163440946
  0
ARC
  5
2FC68
330
1F
100
AcDbEntity
  8
freecads.com
100
AcDbCircle
 10
2594.738976766334
 20
18699.52504010503
 30
0.0
 40
190.1972405922318
100
AcDbArc
 50
270.2525526219173
 51
274.470191719262
  0
ARC
  5
2FC69
330
1F
100
AcDbEntity
  8
freecads.com
100
AcDbCircle
 10
2554.700227120273
 20
27782.12654799899
 30
0.0
 40
9272.886999285432
100
AcDbArc
 50
269.9945142904542
 51
270.2525743725125
  0
ARC
  5
2FC6A
330
1F
100
AcDbEntity
  8
freecads.com
100
AcDbCircle
 10
2554.277170502275
 20
23385.63305476447
 30
0.0
 40
4876.393485697391
100
AcDbArc
 50
269.7009557869797
 51
269.9945392008012
  0
ARC
  5
2FC6B
330
1F
100
AcDbEntity
  8
freecads.com
100
AcDbCircle
 10
2537.335428315506
 20
20139.97543125796
 30
0.0
 40
1630.69164608743
100
AcDbArc
 50
269.0366087610851
 51
269.7010087591873
  0
ARC
  5
2FC6C
330
1F
100
AcDbEntity
  8
freecads.com
100
AcDbCircle
 10
2550.338784407272
 20
20913.241908224
 30
0.0
 40
2404.067448442986
100
AcDbArc
 50
268.6845800001513
 51
269.0366049927758
  0
ARC
  5
2FC6D
330
1F
100
AcDbEntity
  8
freecads.com
100
AcDbCircle
 10
2495.449106937697
 20
18522.83062494066
 30
0.0
 40
13.02604772635096
100
AcDbArc
 50
254.4787397889014
 51
268.6845395623981
  0
ARC
  5
2FC6E
330
1F
100
AcDbEntity
  8
freecads.com
100
AcDbCircle
 10
2496.760852763517
 20
18527.55373621706
 30
0.0
 40
17.92793075641919
100
AcDbArc
 50
239.947791697649
 51
254.4786671110334
  0
ARC
  5
2FC6F
330
1F
100
AcDbEntity
  8
freecads.com
100
AcDbCircle
 10
2502.294639162683
 20
18537.11833645922
 30
0.0
 40
28.97801535805679
100
AcDbArc
 50
229.8068138066935
 51
239.9477312559544
  0
ARC
  5
2FC70
330
1F
100
AcDbEntity
  8
freecads.com
100
AcDbCircle
 10
2502.960684733123
 20
18537.90669683245
 30
0.0
 40
30.01006612227403
100
AcDbArc
 50
219.8203113056211
 51
229.8068282538874
  0
ARC
  5
2FC71
330
1F
100
AcDbEntity
  8
freecads.com
100
AcDbCircle
 10
2496.834289974584
 20
18532.79871663143
 30
0.0
 40
22.03358980304646
100
AcDbArc
 50
207.2311656728223
 51
219.8203511816576
  0
LINE
  5
2FC72
330
1F
100
AcDbEntity
  8
freecads.com
100
AcDbLine
 10
2477.242735672706
 20
18522.71655021515
 30
0.0
 11
2474.688133672709
 21
18527.68062521515
 31
0.0
  0
LINE
  5
2FC73
330
1F
100
AcDbEntity
  8
freecads.com
100
AcDbLine
 10
2474.688133672709
 20
18527.68062521515
 30
0.0
 11
2474.688133672709
 21
18562.20732021515
 31
0.0
  0
ARC
  5
2FC74
330
1F
100
AcDbEntity
  8
freecads.com
100
AcDbCircle
 10
4810.944636247448
 20
18562.20924605615
 30
0.0
 40
2336.256502575533
100
AcDbArc
 50
179.3695660632358
 51
180.0000472303996
  0
ARC
  5
2FC75
330
1F
100
AcDbEntity
  8
freecads.com
100
AcDbCircle
 10
2533.262545956677
 20
18587.27197552177
 30
0.0
 40
58.43652618593188
100
AcDbArc
 50
170.3771861417798
 51
179.369610259536
  0
ARC
  5
2FC76
330
1F
100
AcDbEntity
  8
freecads.com
100
AcDbCircle
 10
2490.676200481001
 20
18594.49236840475
 30
0.0
 40
15.24241901425897
100
AcDbArc
 50
147.3147598479903
 51
170.3772177524185
  0
ARC
  5
2FC77
330
1F
100
AcDbEntity
  8
freecads.com
100
AcDbCircle
 10
2504.975133367727
 20
18585.31788445241
 30
0.0
 40
32.23155193767296
100
AcDbArc
 50
134.1412745341425
 51
147.3148600795792
  0
ARC
  5
2FC78
330
1F
100
AcDbEntity
  8
freecads.com
100
AcDbCircle
 10
2495.646154527465
 20
18594.93080017061
 30
0.0
 40
18.83610514382364
100
AcDbArc
 50
111.7367501580162
 51
134.1413225608692
  0
ARC
  5
2FC79
330
1F
100
AcDbEntity
  8
freecads.com
100
AcDbCircle
 10
2499.046670654061
 20
18586.40153842954
 30
0.0
 40
28.01825172153169
100
AcDbArc
 50
95.0977338123765
 51
111.7366967660046
  0
ARC
  5
2FC7A
330
1F
100
AcDbEntity
  8
freecads.com
100
AcDbCircle
 10
2511.272377956178
 20
18449.35228506883
 30
0.0
 40
165.6117318205557
100
AcDbArc
 50
90.10067824037781
 51
95.09768249557183
  0
ARC
  5
2FC7B
330
1F
100
AcDbEntity
  8
freecads.com
100
AcDbCircle
 10
2526.365666201877
 20
9857.67806323613
 30
0.0
 40
8757.299211091106
100
AcDbArc
 50
89.8114248829597
 51
90.10065382441483
  0
ARC
  5
2FC7C
330
1F
100
AcDbEntity
  8
freecads.com
100
AcDbCircle
 10
2490.307471015985
 20
-1095.565250112155
 30
0.0
 40
19710.60187626107
100
AcDbArc
 50
89.69749725069483
 51
89.81140125106099
  0
ARC
  5
2FC7D
330
1F
100
AcDbEntity
  8
freecads.com
100
AcDbCircle
 10
2592.193390089953
 20
18202.06415264286
 30
0.0
 40
412.7035112426749
100
AcDbArc
 50
87.8617626881301
 51
89.69748020458267
  0
ARC
  5
2FC7E
330
1F
100
AcDbEntity
  8
freecads.com
100
AcDbCircle
 10
2604.777296932843
 20
18539.10428514709
 30
0.0
 40
75.42854088481935
100
AcDbArc
 50
82.50762051385382
 51
87.86173899608909
  0
ARC
  5
2FC7F
330
1F
100
AcDbEntity
  8
freecads.com
100
AcDbCircle
 10
2613.030702027412
 20
18601.85964261462
 30
0.0
 40
12.1327780998413
100
AcDbArc
 50
61.84129434290266
 51
82.50760515735322
  0
ARC
  5
2FC80
330
1F
100
AcDbEntity
  8
freecads.com
100
AcDbCircle
 10
2926.639772831528
 20
18586.33146057501
 30
0.0
 40
29.78169408962707
100
AcDbArc
 50
53.59564231587359
 51
61.82596432210878
  0
ARC
  5
2FC81
330
1F
100
AcDbEntity
  8
freecads.com
100
AcDbCircle
 10
2927.634199983411
 20
18587.68006021505
 30
0.0
 40
28.10610274639594
100
AcDbArc
 50
45.00002927743348
 51
53.59563479559079
  0
ARC
  5
2FC82
330
1F
100
AcDbEntity
  8
freecads.com
100
AcDbCircle
 10
2927.634179672626
 20
18587.68008052589
 30
0.0
 40
28.10610274636196
100
AcDbArc
 50
36.40436520435731
 51
44.99997072236387
  0
ARC
  5
2FC83
330
1F
100
AcDbEntity
  8
freecads.com
100
AcDbCircle
 10
2926.285580032578
 20
18586.68565337394
 30
0.0
 40
29.78169408963559
100
AcDbArc
 50
28.17403567803312
 51
36.40435768405629
  0
ARC
  5
2FC84
330
1F
100
AcDbEntity
  8
freecads.com
100
AcDbCircle
 10
2941.947357134268
 20
18595.07428170755
 30
0.0
 40
12.01486130204169
100
AcDbArc
 50
8.161480268924361
 51
28.17406605871828
  0
ARC
  5
2FC85
330
1F
100
AcDbEntity
  8
freecads.com
100
AcDbCircle
 10
2888.918192582743
 20
18587.46903672222
 30
0.0
 40
65.58660800045839
100
AcDbArc
 50
2.465860242696022
 51
8.161492146956799
  0
ARC
  5
2FC86
330
1F
100
AcDbEntity
  8
freecads.com
100
AcDbCircle
 10
2609.936995455559
 20
18575.45499759432
 30
0.0
 40
344.8263714416345
100
AcDbArc
 50
0.4605592768847795
 51
2.465860383941551
  0
ARC
  5
2FC87
330
1F
100
AcDbEntity
  8
freecads.com
100
AcDbCircle
 10
-11524.97029325013
 20
18461.84081509868
 30
0.0
 40
14480.19025932113
100
AcDbArc
 50
0.3246198830986858
 51
0.4605254562673022
  0
ARC
  5
2FC88
330
1F
100
AcDbEntity
  8
freecads.com
100
AcDbCircle
 10
-1616.40715907624
 20
18517.98094479999
 30
0.0
 40
4571.468086504334
100
AcDbArc
 50
0.020714175573112
 51
0.324610812024985
  0
ARC
  5
2FC89
330
1F
100
AcDbEntity
  8
freecads.com
100
AcDbCircle
 10
1775.605144369722
 20
18519.20623883773
 30
0.0
 40
1179.455561752958
100
AcDbArc
 50
359.1886035851314
 51
0.0207638297259489
  0
ARC
  5
2FC8A
330
1F
100
AcDbEntity
  8
freecads.com
100
AcDbCircle
 10
2006.950055332076
 20
18515.93032551859
 30
0.0
 40
948.0874579963334
100
AcDbArc
 50
358.4389177226445
 51
359.1885730281849
  0
ARC
  5
2FC8B
330
1F
100
AcDbEntity
  8
freecads.com
100
AcDbCircle
 10
2929.174065190506
 20
18490.79720926726
 30
0.0
 40
25.52103876582734
100
AcDbArc
 50
348.272058597778
 51
358.4388229381819
  0
ARC
  5
2FC8C
330
1F
100
AcDbEntity
  8
freecads.com
100
AcDbCircle
 10
2930.379057411861
 20
18490.5470535657
 30
0.0
 40
24.29035435114071
100
AcDbArc
 50
335.4507400361074
 51
348.2720606934195
  0
ARC
  5
2FC8D
330
1F
100
AcDbEntity
  8
freecads.com
100
AcDbCircle
 10
2931.393279331875
 20
18490.08380041809
 30
0.0
 40
23.1753433279887
100
AcDbArc
 50
322.1695506588894
 51
335.4507222781642
  0
ARC
  5
2FC8E
330
1F
100
AcDbEntity
  8
freecads.com
100
AcDbCircle
 10
2931.046628627439
 20
18490.3530001444
 30
0.0
 40
23.61424559888724
100
AcDbArc
 50
309.021064065274
 51
322.1695225127669
  0
ARC
  5
2FC8F
330
1F
100
AcDbEntity
  8
freecads.com
100
AcDbCircle
 10
2929.357704740374
 20
18492.43706802845
 30
0.0
 40
26.2967449635806
100
AcDbArc
 50
296.8919006044369
 51
309.0210810065585
  0
LINE
  5
2FC90
330
1F
100
AcDbEntity
  8
freecads.com
100
AcDbLine
 10
2941.251949672704
 20
18468.98401421515
 30
0.0
 11
2935.829503672707
 21
18466.23401421515
 31
0.0
  0
LINE
  5
2FC91
330
1F
100
AcDbEntity
  8
freecads.com
100
AcDbLine
 10
2935.829503672707
 20
18466.23401421515
 30
0.0
 11
2837.758818672708
 21
18466.25597621515
 31
0.0
  0
ARC
  5
2FC92
330
1F
100
AcDbEntity
  8
freecads.com
100
AcDbCircle
 10
2847.946889645333
 20
63912.11601218249
 30
0.0
 40
45445.86117795023
100
AcDbArc
 50
269.9101498847722
 51
269.9871554097752
  0
ARC
  5
2FC93
330
1F
100
AcDbEntity
  8
freecads.com
100
AcDbCircle
 10
2778.896038198953
 20
19878.95467613927
 30
0.0
 40
1412.645700698798
100
AcDbArc
 50
268.9642701585032
 51
269.9101035170522
  0
ARC
  5
2FC94
330
1F
100
AcDbEntity
  8
freecads.com
100
AcDbCircle
 10
2761.329633536421
 20
18907.28399102034
 30
0.0
 40
440.8162409210156
100
AcDbArc
 50
267.2754115195202
 51
268.9642313479819
  0
ARC
  5
2FC95
330
1F
100
AcDbEntity
  8
freecads.com
100
AcDbCircle
 10
2740.982063310032
 20
18479.71455219762
 30
0.0
 40
12.76291640490687
100
AcDbArc
 50
245.4939097799236
 51
267.2754300545951
  0
ARC
  5
2FC96
330
1F
100
AcDbEntity
  8
freecads.com
100
AcDbCircle
 10
2748.812133524021
 20
18496.89120212368
 30
0.0
 40
31.64007991635987
100
AcDbArc
 50
237.0047020639907
 51
245.4938854229379
  0
ARC
  5
2FC97
330
1F
100
AcDbEntity
  8
freecads.com
100
AcDbCircle
 10
2745.035778465259
 20
18491.07505404102
 30
0.0
 40
24.70549730101947
100
AcDbArc
 50
226.7852965492573
 51
237.00466880655
  0
ARC
  5
2FC98
330
1F
100
AcDbEntity
  8
freecads.com
100
AcDbCircle
 10
2744.119114521498
 20
18490.09941298522
 30
0.0
 40
23.36678588493884
100
AcDbArc
 50
216.2551107639488
 51
226.7853050103965
  0
ARC
  5
2FC99
330
1F
100
AcDbEntity
  8
freecads.com
100
AcDbCircle
 10
2745.370238293283
 20
18491.01692450106
 30
0.0
 40
24.91828131636562
100
AcDbArc
 50
206.2205163374051
 51
216.255069975691
  0
LINE
  5
2FC9A
330
1F
100
AcDbEntity
  8
freecads.com
100
AcDbLine
 10
2723.016042672709
 20
18480.00735221515
 30
0.0
 11
2720.688133672709
 21
18484.73401421515
 31
0.0
  0
LINE
  5
2FC9B
330
1F
100
AcDbEntity
  8
freecads.com
100
AcDbLine
 10
2720.688133672709
 20
18484.73401421515
 30
0.0
 11
2720.688133672709
 21
18539.73401421515
 31
0.0
  0
ARC
  5
2FC9C
330
1F
100
AcDbEntity
  8
freecads.com
100
AcDbCircle
 10
10134.60231995372
 20
18539.72962888836
 30
0.0
 40
7413.914186282311
100
AcDbArc
 50
179.778116920534
 51
179.9999661096052
  0
ARC
  5
2FC9D
330
1F
100
AcDbEntity
  8
freecads.com
100
AcDbCircle
 10
3549.675636771637
 20
18565.22925212344
 30
0.0
 40
828.9381306193075
100
AcDbArc
 50
178.6665026780995
 51
179.7780320855214
  0
ARC
  5
2FC9E
330
1F
100
AcDbEntity
  8
freecads.com
100
AcDbCircle
 10
3171.165287379248
 20
18574.03979305097
 30
0.0
 40
450.325254150243
100
AcDbArc
 50
177.3534672806312
 51
178.6664429995003
  0
ARC
  5
2FC9F
330
1F
100
AcDbEntity
  8
freecads.com
100
AcDbCircle
 10
2734.488270864277
 20
18594.22456898954
 30
0.0
 40
13.18198023183198
100
AcDbArc
 50
160.5464823574545
 51
177.3534555420632
  0
ARC
  5
2FCA0
330
1F
100
AcDbEntity
  8
freecads.com
100
AcDbCircle
 10
2740.958504630915
 20
18591.93922156883
 30
0.0
 40
20.04395792255303
100
AcDbArc
 50
144.5773946664388
 51
160.5464200264918
  0
ARC
  5
2FCA1
330
1F
100
AcDbEntity
  8
freecads.com
100
AcDbCircle
 10
2748.357733940218
 20
18586.67646286233
 30
0.0
 40
29.12389314118473
100
AcDbArc
 50
132.5083131307043
 51
144.5773862065069
  0
ARC
  5
2FCA2
330
1F
100
AcDbEntity
  8
freecads.com
100
AcDbCircle
 10
2749.266950280129
 20
18585.68458004077
 30
0.0
 40
30.46944354257695
100
AcDbArc
 50
120.6969099086224
 51
132.5083940878983
  0
ARC
  5
2FCA3
330
1F
100
AcDbEntity
  8
freecads.com
100
AcDbCircle
 10
2746.635895697247
 20
18590.11629751248
 30
0.0
 40
25.31555491679667
100
AcDbArc
 50
107.1247277633473
 51
120.6968776544551
  0
ARC
  5
2FCA4
330
1F
100
AcDbEntity
  8
freecads.com
100
AcDbCircle
 10
2741.265032058894
 20
18607.54776797804
 30
0.0
 40
7.075425015583872
100
AcDbArc
 50
90.38745614298806
 51
107.1246742137936
  0
ARC
  5
2FCA5
330
1F
100
AcDbEntity
  8
freecads.com
100
AcDbCircle
 10
2987.227901779879
 20
-17763.86978987166
 30
0.0
 40
36379.32463922749
100
AcDbArc
 50
90.34276791979213
 51
90.38745862724185
  0
ARC
  5
2FCA6
330
1F
100
AcDbEntity
  8
freecads.com
100
AcDbCircle
 10
2809.65799251834
 20
11918.08060960148
 30
0.0
 40
6696.843095572345
100
AcDbArc
 50
90.06868525877155
 51
90.34278813724798
  0
ARC
  5
2FCA7
330
1F
100
AcDbEntity
  8
freecads.com
100
AcDbCircle
 10
2816.720441616104
 20
6011.495224645351
 30
0.0
 40
12603.43270276423
100
AcDbArc
 50
89.89786079387735
 51
90.0686021850355
  0
LINE
  5
2FCA8
330
1F
100
AcDbEntity
  8
freecads.com
100
AcDbLine
 10
2839.188133672709
 20
18614.90790121515
 30
0.0
 11
2936.68813367271
 21
18614.73401421515
 31
0.0
  0
LINE
  5
2FCA9
330
1F
100
AcDbEntity
  8
freecads.com
100
AcDbLine
 10
2936.68813367271
 20
18614.73401421515
 30
0.0
 11
2940.701239672708
 21
18612.58454521515
 31
0.0
  0
ARC
  5
2FCAA
330
1F
100
AcDbEntity
  8
freecads.com
100
AcDbCircle
 10
-728.3138051934365
 20
16404.74816129229
 30
0.0
 40
4358.775642209372
100
AcDbArc
 50
25.79431827208604
 51
25.89905494974742
  0
ARC
  5
2FCAB
330
1F
100
AcDbEntity
  8
freecads.com
100
AcDbCircle
 10
1024.394037679951
 20
17251.82583091786
 30
0.0
 40
2412.105315510942
100
AcDbArc
 50
25.63113975888847
 51
25.79431811142259
  0
ARC
  5
2FCAC
330
1F
100
AcDbEntity
  8
freecads.com
100
AcDbCircle
 10
-3722.985032935656
 20
14974.08785465341
 30
0.0
 40
7677.625074151639
100
AcDbArc
 50
25.58646090888
 51
25.63115161642224
  0
ARC
  5
2FCAD
330
1F
100
AcDbEntity
  8
freecads.com
100
AcDbCircle
 10
3194.821122719397
 20
18286.53551668875
 30
0.0
 40
7.660829062741876
100
AcDbArc
 50
19.9667480059619
 51
25.58633747483255
  0
ARC
  5
2FCAE
330
1F
100
AcDbEntity
  8
freecads.com
100
AcDbCircle
 10
3201.749055395973
 20
18289.05252567901
 30
0.0
 40
0.2898328323664594
100
AcDbArc
 50
274.1648057370293
 51
19.96673713473209
  0
ARC
  5
2FCAF
330
1F
100
AcDbEntity
  8
freecads.com
100
AcDbCircle
 10
3183.060983915988
 20
18545.69724353047
 30
0.0
 40
257.6140548105838
100
AcDbArc
 50
273.2315217867148
 51
274.1647502853762
  0
ARC
  5
2FCB0
330
1F
100
AcDbEntity
  8
freecads.com
100
AcDbCircle
 10
3189.734526934895
 20
18427.49788789759
 30
0.0
 40
139.2264547485542
100
AcDbArc
 50
271.0818720917694
 51
273.2315466945733
  0
ARC
  5
2FCB1
330
1F
100
AcDbEntity
  8
freecads.com
100
AcDbCircle
 10
3185.771639155828
 20
18637.32587684918
 30
0.0
 40
349.0918626340661
100
AcDbArc
 50
269.9999716908169
 51
271.0819371527508
  0
ARC
  5
2FCB2
330
1F
100
AcDbEntity
  8
freecads.com
100
AcDbCircle
 10
3185.771258561741
 20
18663.2903825395
 30
0.0
 40
375.0563683244077
100
AcDbArc
 50
269.0285303739003
 51
270.0000317922294
  0
ARC
  5
2FCB3
330
1F
100
AcDbEntity
  8
freecads.com
100
AcDbCircle
 10
3182.62981862083
 20
18478.04344870013
 30
0.0
 40
189.7827999405213
100
AcDbArc
 50
267.4112764075204
 51
269.0285948238968
  0
ARC
  5
2FCB4
330
1F
100
AcDbEntity
  8
freecads.com
100
AcDbCircle
 10
3200.07672381033
 20
18863.94134060869
 30
0.0
 40
576.074888236508
100
AcDbArc
 50
266.9547949996039
 51
267.4113271671402
  0
ARC
  5
2FCB5
330
1F
100
AcDbEntity
  8
freecads.com
100
AcDbCircle
 10
3169.489703486783
 20
18288.98606095023
 30
0.0
 40
0.3065846460696532
100
AcDbArc
 50
180.3825049772101
 51
266.9548208231236
  0
ARC
  5
2FCB6
330
1F
100
AcDbEntity
  8
freecads.com
100
AcDbCircle
 10
3175.393669999059
 20
18289.02548784263
 30
0.0
 40
6.210682803954281
100
AcDbArc
 50
160.1387401678957
 51
180.3826119528885
  0
ARC
  5
2FCB7
330
1F
100
AcDbEntity
  8
freecads.com
100
AcDbCircle
 10
10298.55949043624
 20
15715.91796179234
 30
0.0
 40
7579.873841808399
100
AcDbArc
 50
159.9975379808503
 51
160.138714763868
  0
ARC
  5
2FCB8
330
1F
100
AcDbEntity
  8
freecads.com
100
AcDbCircle
 10
23238.36616524787
 20
11005.57040471136
 30
0.0
 40
21350.34844836942
100
AcDbArc
 50
159.9457088234299
 51
159.9975042071853
  0
ARC
  5
2FCB9
330
1F
100
AcDbEntity
  8
freecads.com
100
AcDbCircle
 10
3183.046630947836
 20
18326.63828951284
 30
0.0
 40
0.5504025623361476
100
AcDbArc
 50
85.50776487463874
 51
159.9456049910873
  0
ARC
  5
2FCBA
330
1F
100
AcDbEntity
  8
freecads.com
100
AcDbCircle
 10
3183.05623577824
 20
18326.76053197672
 30
0.0
 40
0.4277833438543723
100
AcDbArc
 50
27.47491803614596
 51
85.50787288360975
  0
ARC
  5
2FCBB
330
1F
100
AcDbEntity
  8
freecads.com
100
AcDbCircle
 10
1271.932406872329
 20
17332.9581818903
 30
0.0
 40
2154.502387541507
100
AcDbArc
 50
27.31763585833244
 51
27.47485545266144
  0
ARC
  5
2FCBC
330
1F
100
AcDbEntity
  8
freecads.com
100
AcDbCircle
 10
2797.095763106139
 20
18120.74804699616
 30
0.0
 40
437.8963946702127
100
AcDbArc
 50
26.43829357531716
 51
27.31766488388909
  0
ARC
  5
2FCBD
330
1F
100
AcDbEntity
  8
freecads.com
100
AcDbCircle
 10
2435.547281972628
 20
17940.97168459166
 30
0.0
 40
841.6746069217413
100
AcDbArc
 50
25.89907867437772
 51
26.43834555574238
  0
ARC
  5
2FCBE
330
1F
100
AcDbEntity
  8
freecads.com
100
AcDbCircle
 10
2521.908768274785
 20
18269.83089793201
 30
0.0
 40
51.36709155262552
100
AcDbArc
 50
146.7662255209016
 51
152.8070099344006
  0
ARC
  5
2FCBF
330
1F
100
AcDbEntity
  8
freecads.com
100
AcDbCircle
 10
2580.554104540097
 20
18239.70045836319
 30
0.0
 40
117.2997758167876
100
AcDbArc
 50
152.8070532715109
 51
156.065817572219
  0
ARC
  5
2FCC0
330
1F
100
AcDbEntity
  8
freecads.com
100
AcDbCircle
 10
2589.604943170831
 20
18235.68332032439
 30
0.0
 40
127.2020522184136
100
AcDbArc
 50
156.0658601113709
 51
159.2386976637917
  0
ARC
  5
2FCC1
330
1F
100
AcDbEntity
  8
freecads.com
100
AcDbCircle
 10
2562.188588233781
 20
18246.07659210954
 30
0.0
 40
97.8818097836655
100
AcDbArc
 50
159.2386752698922
 51
163.1002745115467
  0
ARC
  5
2FCC2
330
1F
100
AcDbEntity
  8
freecads.com
100
AcDbCircle
 10
2554.205602574461
 20
18248.50196816315
 30
0.0
 40
89.53851852431517
100
AcDbArc
 50
163.1002753341414
 51
166.6491214283535
  0
ARC
  5
2FCC3
330
1F
100
AcDbEntity
  8
freecads.com
100
AcDbCircle
 10
2504.786606815353
 20
18260.23050964313
 30
0.0
 40
38.74682799246889
100
AcDbArc
 50
166.6491788712791
 51
173.2860703570764
  0
ARC
  5
2FCC4
330
1F
100
AcDbEntity
  8
freecads.com
100
AcDbCircle
 10
2524.216488538579
 20
18257.94327150222
 30
0.0
 40
58.31087057295038
100
AcDbArc
 50
173.2861069152556
 51
178.3919202725255
  0
ARC
  5
2FCC5
330
1F
100
AcDbEntity
  8
freecads.com
100
AcDbCircle
 10
2824.89154978966
 20
18249.5027862373
 30
0.0
 40
359.1043782319371
100
AcDbArc
 50
178.3920101384104
 51
179.7237782474012
  0
ARC
  5
2FCC6
330
1F
100
AcDbEntity
  8
freecads.com
100
AcDbCircle
 10
2626.724574726999
 20
18250.4581972971
 30
0.0
 40
160.9351000484257
100
AcDbArc
 50
179.723794204983
 51
183.5865390368154
  0
ARC
  5
2FCC7
330
1F
100
AcDbEntity
  8
freecads.com
100
AcDbCircle
 10
2536.616256125926
 20
18244.8102581147
 30
0.0
 40
70.64995011714926
100
AcDbArc
 50
183.5864923651352
 51
190.7337709629519
  0
ARC
  5
2FCC8
330
1F
100
AcDbEntity
  8
freecads.com
100
AcDbCircle
 10
2528.231766540958
 20
18243.22083277101
 30
0.0
 40
62.11613862861725
100
AcDbArc
 50
190.7337341344951
 51
198.44169258498
  0
ARC
  5
2FCC9
330
1F
100
AcDbEntity
  8
freecads.com
100
AcDbCircle
 10
2563.458780598936
 20
18254.96779960328
 30
0.0
 40
99.25013584409811
100
AcDbArc
 50
198.4417044624112
 51
203.8675175908508
  0
ARC
  5
2FCCA
330
1F
100
AcDbEntity
  8
freecads.com
100
AcDbCircle
 10
2550.386683376346
 20
18249.18389080859
 30
0.0
 40
84.95561497973243
100
AcDbArc
 50
203.8675073384325
 51
218.6341630002318
  0
ARC
  5
2FCCB
330
1F
100
AcDbEntity
  8
freecads.com
100
AcDbCircle
 10
2555.716431630492
 20
18253.44370069797
 30
0.0
 40
91.7785320056628
100
AcDbArc
 50
218.6341250658639
 51
232.5695935882918
  0
ARC
  5
2FCCC
330
1F
100
AcDbEntity
  8
freecads.com
100
AcDbCircle
 10
2555.854242820598
 20
18253.62366973391
 30
0.0
 40
92.00520528488816
100
AcDbArc
 50
232.5695623974229
 51
246.4872205640429
  0
ARC
  5
2FCCD
330
1F
100
AcDbEntity
  8
freecads.com
100
AcDbCircle
 10
2553.415282107192
 20
18248.01769167926
 30
0.0
 40
85.89165318273801
100
AcDbArc
 50
246.4871747874547
 51
261.1413080282552
  0
ARC
  5
2FCCE
330
1F
100
AcDbEntity
  8
freecads.com
100
AcDbCircle
 10
2549.827164929615
 20
18224.99566528347
 30
0.0
 40
62.59169000149274
100
AcDbArc
 50
261.141278308981
 51
268.8817438092706
  0
ARC
  5
2FCCF
330
1F
100
AcDbEntity
  8
freecads.com
100
AcDbCircle
 10
2551.258183915307
 20
18298.29916775176
 30
0.0
 40
135.9091591984495
100
AcDbArc
 50
268.8816787566705
 51
273.2166187602462
  0
ARC
  5
2FCD0
330
1F
100
AcDbEntity
  8
freecads.com
100
AcDbCircle
 10
2551.298977305298
 20
18297.57762083063
 30
0.0
 40
135.1864600902225
100
AcDbArc
 50
273.2165160547279
 51
277.5542052711512
  0
ARC
  5
2FCD1
330
1F
100
AcDbEntity
  8
freecads.com
100
AcDbCircle
 10
2561.343143728722
 20
18221.83908034967
 30
0.0
 40
58.78481224603256
100
AcDbArc
 50
277.5541143076387
 51
285.6370292607006
  0
ARC
  5
2FCD2
330
1F
100
AcDbEntity
  8
freecads.com
100
AcDbCircle
 10
2554.027948261901
 20
18247.97436987783
 30
0.0
 40
85.92455143839499
100
AcDbArc
 50
285.6369526657774
 51
297.9368470234923
  0
ARC
  5
2FCD3
330
1F
100
AcDbEntity
  8
freecads.com
100
AcDbCircle
 10
2552.181765126545
 20
18251.45578916723
 30
0.0
 40
89.86519509621773
100
AcDbArc
 50
297.9368464402948
 51
309.8299303651614
  0
ARC
  5
2FCD4
330
1F
100
AcDbEntity
  8
freecads.com
100
AcDbCircle
 10
2551.884451430386
 20
18251.81218516701
 30
0.0
 40
90.32932173890531
100
AcDbArc
 50
309.8299596862803
 51
321.6915012091079
  0
ARC
  5
2FCD5
330
1F
100
AcDbEntity
  8
freecads.com
100
AcDbCircle
 10
2553.737021353307
 20
18250.34862308242
 30
0.0
 40
87.96838351575509
100
AcDbArc
 50
321.691523839476
 51
333.7909936040022
  0
ARC
  5
2FCD6
330
1F
100
AcDbEntity
  8
freecads.com
100
AcDbCircle
 10
2525.744900779566
 20
18264.12794684352
 30
0.0
 40
119.1682004627785
100
AcDbArc
 50
333.7909819834907
 51
338.8725139285732
  0
ARC
  5
2FCD7
330
1F
100
AcDbEntity
  8
freecads.com
100
AcDbCircle
 10
2577.105791647715
 20
18244.28119785134
 30
0.0
 40
64.10610318781397
100
AcDbArc
 50
338.8724454031119
 51
346.9549025602475
  0
ARC
  5
2FCD8
330
1F
100
AcDbEntity
  8
freecads.com
100
AcDbCircle
 10
2575.290622596404
 20
18244.70180812216
 30
0.0
 40
65.96936690593207
100
AcDbArc
 50
346.954868433849
 51
354.9022728624553
  0
ARC
  5
2FCD9
330
1F
100
AcDbEntity
  8
freecads.com
100
AcDbCircle
 10
2508.928365596752
 20
18250.62195259391
 30
0.0
 40
132.5951671986615
100
AcDbArc
 50
354.902219364198
 51
359.6163095315823
  0
ARC
  5
2FCDA
330
1F
100
AcDbEntity
  8
freecads.com
100
AcDbCircle
 10
2523.425703271671
 20
18250.5248876928
 30
0.0
 40
118.0975045851511
100
AcDbArc
 50
359.6162996731521
 51
5.857017330612347
  0
ARC
  5
2FCDB
330
1F
100
AcDbEntity
  8
freecads.com
100
AcDbCircle
 10
2563.319134607606
 20
18254.61713978958
 30
0.0
 40
77.99473172632092
100
AcDbArc
 50
5.857081725860216
 51
14.37327148658232
  0
ARC
  5
2FCDC
330
1F
100
AcDbEntity
  8
freecads.com
100
AcDbCircle
 10
2568.855457690145
 20
18256.03575699731
 30
0.0
 40
72.27954598632746
100
AcDbArc
 50
14.37336081241429
 51
23.25480005371513
  0
ARC
  5
2FCDD
330
1F
100
AcDbEntity
  8
freecads.com
100
AcDbCircle
 10
2556.071513235169
 20
18250.54210961845
 30
0.0
 40
86.19390538049838
100
AcDbArc
 50
23.25477724669218
 51
31.03782193208961
  0
LINE
  5
2FCDE
330
1F
100
AcDbEntity
  8
freecads.com
100
AcDbLine
 10
2629.92478967271
 20
18294.98401421515
 30
0.0
 11
2626.765558672705
 21
18300.23401421515
 31
0.0
  0
LINE
  5
2FCDF
330
1F
100
AcDbEntity
  8
freecads.com
100
AcDbLine
 10
2626.765558672705
 20
18300.23401421515
 30
0.0
 11
2553.591856672705
 21
18300.23401421515
 31
0.0
  0
LINE
  5
2FCE0
330
1F
100
AcDbEntity
  8
freecads.com
100
AcDbLine
 10
2553.591856672705
 20
18300.23401421515
 30
0.0
 11
2480.418153672712
 21
18300.23401421515
 31
0.0
  0
LINE
  5
2FCE1
330
1F
100
AcDbEntity
  8
freecads.com
100
AcDbLine
 10
2480.418153672712
 20
18300.23401421515
 30
0.0
 11
2478.94320667271
 21
18297.98296021515
 31
0.0
  0
ARC
  5
2FCE2
330
1F
100
AcDbEntity
  8
freecads.com
100
AcDbCircle
 10
2552.157115149392
 20
18246.75133300467
 30
0.0
 40
41.30549406380217
100
AcDbArc
 50
57.8222981792929
 51
75.40069786402394
  0
ARC
  5
2FCE3
330
1F
100
AcDbEntity
  8
freecads.com
100
AcDbCircle
 10
2555.983566623829
 20
18252.83293131618
 30
0.0
 40
34.12026136694206
100
AcDbArc
 50
37.53585962564649
 51
57.82225443877948
  0
ARC
  5
2FCE4
330
1F
100
AcDbEntity
  8
freecads.com
100
AcDbCircle
 10
2555.603400876753
 20
18252.54082025263
 30
0.0
 40
34.59969318526536
100
AcDbArc
 50
17.40981431445847
 51
37.535887749336
  0
ARC
  5
2FCE5
330
1F
100
AcDbEntity
  8
freecads.com
100
AcDbCircle
 10
2547.231101711339
 20
18249.91553837247
 30
0.0
 40
43.37394519129444
100
AcDbArc
 50
0.4207015421792301
 51
17.40979834152971
  0
ARC
  5
2FCE6
330
1F
100
AcDbEntity
  8
freecads.com
100
AcDbCircle
 10
2488.183495018719
 20
18249.48213671956
 30
0.0
 40
102.4231424179022
100
AcDbArc
 50
357.6437301126738
 51
0.420606057446652
  0
ARC
  5
2FCE7
330
1F
100
AcDbEntity
  8
freecads.com
100
AcDbCircle
 10
2570.180153523921
 20
18246.10815864003
 30
0.0
 40
20.35709746568457
100
AcDbArc
 50
348.4464831606538
 51
357.6437033053608
  0
ARC
  5
2FCE8
330
1F
100
AcDbEntity
  8
freecads.com
100
AcDbCircle
 10
2572.55365553149
 20
18245.62293166552
 30
0.0
 40
17.93450443421141
100
AcDbArc
 50
338.4572943825596
 51
348.4465563082609
  0
ARC
  5
2FCE9
330
1F
100
AcDbEntity
  8
freecads.com
100
AcDbCircle
 10
2526.49466847616
 20
18263.80562928621
 30
0.0
 40
67.452589830628
100
AcDbArc
 50
334.7281966794715
 51
338.4573644084826
  0
ARC
  5
2FCEA
330
1F
100
AcDbEntity
  8
freecads.com
100
AcDbCircle
 10
2551.51058878893
 20
18251.99571276486
 30
0.0
 40
39.78906877245348
100
AcDbArc
 50
325.1951017061385
 51
334.7282011306898
  0
ARC
  5
2FCEB
330
1F
100
AcDbEntity
  8
freecads.com
100
AcDbCircle
 10
2551.800920073322
 20
18251.7939340333
 30
0.0
 40
39.43550560989713
100
AcDbArc
 50
315.597890731935
 51
325.1950497157632
  0
ARC
  5
2FCEC
330
1F
100
AcDbEntity
  8
freecads.com
100
AcDbCircle
 10
2552.045485969517
 20
18251.55443885418
 30
0.0
 40
39.09320396190763
100
AcDbArc
 50
305.9577011933396
 51
315.5978707542799
  0
ARC
  5
2FCED
330
1F
100
AcDbEntity
  8
freecads.com
100
AcDbCircle
 10
2552.569344502903
 20
18250.83232758071
 30
0.0
 40
38.20108712329805
100
AcDbArc
 50
296.1491223058585
 51
305.9576671357007
  0
ARC
  5
2FCEE
330
1F
100
AcDbEntity
  8
freecads.com
100
AcDbCircle
 10
2550.673774964438
 20
18254.69323943214
 30
0.0
 40
42.50222932035168
100
AcDbArc
 50
290.951937765855
 51
296.1491489920613
  0
ARC
  5
2FCEF
330
1F
100
AcDbEntity
  8
freecads.com
100
AcDbCircle
 10
2560.185689961036
 20
18229.85157024914
 30
0.0
 40
15.90175837151616
100
AcDbArc
 50
280.1258482153737
 51
290.9519620511958
  0
ARC
  5
2FCF0
330
1F
100
AcDbEntity
  8
freecads.com
100
AcDbCircle
 10
2558.703331952915
 20
18238.15185060493
 30
0.0
 40
24.33336790046797
100
AcDbArc
 50
271.9238833898195
 51
280.1258231971208
  0
ARC
  5
2FCF1
330
1F
100
AcDbEntity
  8
freecads.com
100
AcDbCircle
 10
2553.68444096289
 20
18387.57336685063
 30
0.0
 40
173.839149674703
100
AcDbArc
 50
270.0012170830977
 51
271.9237891606321
  0
ARC
  5
2FCF2
330
1F
100
AcDbEntity
  8
freecads.com
100
AcDbCircle
 10
2553.684473904046
 20
18388.95126550566
 30
0.0
 40
175.2170483287221
100
AcDbArc
 50
268.0722079882289
 51
270.0011967401063
  0
ARC
  5
2FCF3
330
1F
100
AcDbEntity
  8
freecads.com
100
AcDbCircle
 10
2548.580052562262
 20
18237.30106469549
 30
0.0
 40
23.48096651891146
100
AcDbArc
 50
259.5819391675747
 51
268.072266870232
  0
ARC
  5
2FCF4
330
1F
100
AcDbEntity
  8
freecads.com
100
AcDbCircle
 10
2547.21129512701
 20
18229.85649269066
 30
0.0
 40
15.91161058517157
100
AcDbArc
 50
248.6103833459303
 51
259.5819282529057
  0
ARC
  5
2FCF5
330
1F
100
AcDbEntity
  8
freecads.com
100
AcDbCircle
 10
2559.194553129346
 20
18260.45057013894
 30
0.0
 40
48.76881751549477
100
AcDbArc
 50
243.8498265264045
 51
248.6104209909951
  0
ARC
  5
2FCF6
330
1F
100
AcDbEntity
  8
freecads.com
100
AcDbCircle
 10
2554.163009715492
 20
18250.20274418203
 30
0.0
 40
37.35240976323578
100
AcDbArc
 50
233.9956021257
 51
243.8498992816803
  0
ARC
  5
2FCF7
330
1F
100
AcDbEntity
  8
freecads.com
100
AcDbCircle
 10
2556.793373772089
 20
18253.82260492994
 30
0.0
 40
41.82702783670053
100
AcDbArc
 50
224.9430441611976
 51
233.9956500694154
  0
ARC
  5
2FCF8
330
1F
100
AcDbEntity
  8
freecads.com
100
AcDbCircle
 10
2556.643301410011
 20
18253.67282131846
 30
0.0
 40
41.61499754621745
100
AcDbArc
 50
215.8677755142085
 51
224.9430350812643
  0
ARC
  5
2FCF9
330
1F
100
AcDbEntity
  8
freecads.com
100
AcDbCircle
 10
2552.426915433906
 20
18250.62427349726
 30
0.0
 40
36.41196434262983
100
AcDbArc
 50
205.8364167358015
 51
215.8677679554068
  0
ARC
  5
2FCFA
330
1F
100
AcDbEntity
  8
freecads.com
100
AcDbCircle
 10
2562.366693778459
 20
18255.43712584874
 30
0.0
 40
47.45563860873032
100
AcDbArc
 50
201.0469352627536
 51
205.8363942664693
  0
ARC
  5
2FCFB
330
1F
100
AcDbEntity
  8
freecads.com
100
AcDbCircle
 10
2533.89461241712
 20
18244.48094553672
 30
0.0
 40
16.94830663629914
100
AcDbArc
 50
190.7211958839535
 51
201.0469243273282
  0
ARC
  5
2FCFC
330
1F
100
AcDbEntity
  8
freecads.com
100
AcDbCircle
 10
2540.497576496957
 20
18245.73114563409
 30
0.0
 40
23.66858452657985
100
AcDbArc
 50
182.4057930374937
 51
190.7212601207426
  0
ARC
  5
2FCFD
330
1F
100
AcDbEntity
  8
freecads.com
100
AcDbCircle
 10
2660.613376422567
 20
18250.77785797606
 30
0.0
 40
143.8903575014658
100
AcDbArc
 50
180.2165539577384
 51
182.405873687221
  0
ARC
  5
2FCFE
330
1F
100
AcDbEntity
  8
freecads.com
100
AcDbCircle
 10
2659.312027639055
 20
18250.77297725247
 30
0.0
 40
142.5889995659361
100
AcDbArc
 50
178.0430616402139
 51
180.2165691671492
  0
ARC
  5
2FCFF
330
1F
100
AcDbEntity
  8
freecads.com
100
AcDbCircle
 10
2541.916883717044
 20
18254.78417001403
 30
0.0
 40
25.12534780999905
100
AcDbArc
 50
170.1879074890821
 51
178.0430608572705
  0
ARC
  5
2FD00
330
1F
100
AcDbEntity
  8
freecads.com
100
AcDbCircle
 10
2534.152120985265
 20
18256.12707400456
 30
0.0
 40
17.24531409125812
100
AcDbArc
 50
160.1966157697928
 51
170.18793642667
  0
ARC
  5
2FD01
330
1F
100
AcDbEntity
  8
freecads.com
100
AcDbCircle
 10
2555.703480281998
 20
18248.366651085
 30
0.0
 40
40.15132315934405
100
AcDbArc
 50
154.8837035208766
 51
160.1965913797117
  0
ARC
  5
2FD02
330
1F
100
AcDbEntity
  8
freecads.com
100
AcDbCircle
 10
2556.973813522593
 20
18247.77108465137
 30
0.0
 40
41.55433631549693
100
AcDbArc
 50
143.0177465164496
 51
154.8836308607347
  0
ARC
  5
2FD03
330
1F
100
AcDbEntity
  8
freecads.com
100
AcDbCircle
 10
2554.627926678331
 20
18249.53770644756
 30
0.0
 40
38.61764810311136
100
AcDbArc
 50
130.4813531091525
 51
143.0177562336776
  0
ARC
  5
2FD04
330
1F
100
AcDbEntity
  8
freecads.com
100
AcDbCircle
 10
2554.044940996464
 20
18250.22072866723
 30
0.0
 40
37.71965497523318
100
AcDbArc
 50
117.7881901202946
 51
130.4813370163184
  0
ARC
  5
2FD05
330
1F
100
AcDbEntity
  8
freecads.com
100
AcDbCircle
 10
2553.946613457803
 20
18250.40717389344
 30
0.0
 40
37.50887043410122
100
AcDbArc
 50
105.0414777372573
 51
117.7880884561518
  0
ARC
  5
2FD06
330
1F
100
AcDbEntity
  8
freecads.com
100
AcDbCircle
 10
2558.286026637681
 20
18234.25870172208
 30
0.0
 40
54.23022385448904
100
AcDbArc
 50
99.65153561590705
 51
105.0413870248897
  0
ARC
  5
2FD07
330
1F
100
AcDbEntity
  8
freecads.com
100
AcDbCircle
 10
2553.538714058436
 20
18262.17363419593
 30
0.0
 40
25.91449621517837
100
AcDbArc
 50
90.28791923011267
 51
99.65148244122064
  0
ARC
  5
2FD08
330
1F
100
AcDbEntity
  8
freecads.com
100
AcDbCircle
 10
2553.537841922458
 20
18262.35119446792
 30
0.0
 40
25.73693380249208
100
AcDbArc
 50
80.8859625806105
 51
90.28796405754631
  0
ARC
  5
2FD09
330
1F
100
AcDbEntity
  8
freecads.com
100
AcDbCircle
 10
2549.23644529187
 20
18235.53815079287
 30
0.0
 40
52.8928046979238
100
AcDbArc
 50
75.40069732812226
 51
80.88606430795186
  0
ENDSEC
  0
SECTION
  2
OBJECTS
  0
DICTIONARY
  5
C
330
0
100
AcDbDictionary
281
     1
  3
ACAD_CIP_PREVIOUS_PRODUCT_INFO
350
1A5
  3
ACAD_COLOR
350
73
  3
ACAD_DETAILVIEWSTYLE
350
1AB
  3
ACAD_GROUP
350
D
  3
ACAD_IMAGE_DICT
350
A5B8
  3
ACAD_IMAGE_VARS
350
A5B9
  3
ACAD_LAYOUT
350
1A
  3
ACAD_MATERIAL
350
72
  3
ACAD_MLEADERSTYLE
350
D7
  3
ACAD_MLINESTYLE
350
17
  3
ACAD_PLOTSETTINGS
350
19
  3
ACAD_PLOTSTYLENAME
350
E
  3
ACAD_SCALELIST
350
B6
  3
ACAD_SECTIONVIEWSTYLE
350
1A8
  3
ACAD_TABLESTYLE
350
86
  3
ACAD_VISUALSTYLE
350
99
  3
ACDB_RECOMPOSE_DATA
350
2FD61
  3
AcDbVariableDictionary
350
66
  3
AEC_PROPERTY_SET_DEFS
350
268B
  0
DICTIONARY
  5
18E
330
2
100
AcDbDictionary
280
     1
281
     1
  3
ACAD_LAYERSTATES
360
18F
  0
DICTIONARY
  5
E6
330
10
100
AcDbDictionary
280
     1
281
     1
  0
DICTIONARY
  5
15D
330
1F
100
AcDbDictionary
280
     1
281
     1
  3
ACAD_SORTENTS
360
28E
  0
XRECORD
  5
1A5
102
{ACAD_REACTORS
330
C
102
}
330
C
100
AcDbXrecord
280
     1
300
ACD
300
2022
300

  0
DICTIONARY
  5
73
102
{ACAD_REACTORS
330
C
102
}
330
C
100
AcDbDictionary
281
     1
  0
DICTIONARY
  5
1AB
102
{ACAD_REACTORS
330
C
102
}
330
C
100
AcDbDictionary
281
     1
  3
Imperial24
350
1AC
  3
Metric50
350
224
  0
DICTIONARY
  5
D
102
{ACAD_REACTORS
330
C
102
}
330
C
100
AcDbDictionary
281
     1
  0
DICTIONARY
  5
A5B8
102
{ACAD_REACTORS
330
C
102
}
330
C
100
AcDbDictionary
281
     1
  0
RASTERVARIABLES
  5
A5B9
102
{ACAD_REACTORS
330
C
102
}
330
C
100
AcDbRasterVariables
 90
        0
 70
     1
 71
     1
 72
     5
  0
DICTIONARY
  5
1A
102
{ACAD_REACTORS
330
C
102
}
330
C
100
AcDbDictionary
281
     1
  3
Layout1
350
59
  3
Layout2
350
5E
  3
Model
350
22
  0
DICTIONARY
  5
72
102
{ACAD_REACTORS
330
C
102
}
330
C
100
AcDbDictionary
281
     1
  3
ByBlock
350
97
  3
ByLayer
350
96
  3
Global
350
98
  0
DICTIONARY
  5
D7
102
{ACAD_REACTORS
330
C
102
}
330
C
100
AcDbDictionary
281
     1
  3
Standard
350
D8
  0
DICTIONARY
  5
17
102
{ACAD_REACTORS
330
C
102
}
330
C
100
AcDbDictionary
281
     1
  3
Standard
350
18
  0
DICTIONARY
  5
19
102
{ACAD_REACTORS
330
C
102
}
330
C
100
AcDbDictionary
281
     1
  0
ACDBDICTIONARYWDFLT
  5
E
102
{ACAD_REACTORS
330
C
102
}
330
C
100
AcDbDictionary
281
     1
  3
Normal
350
F
100
AcDbDictionaryWithDefault
340
F
  0
DICTIONARY
  5
B6
102
{ACAD_REACTORS
330
C
102
}
330
C
100
AcDbDictionary
281
     1
  3
*A1
350
47D1
  3
*A2
350
8BD6
  3
A0
350
B7
  3
A1
350
124
  3
A2
350
125
  3
A3
350
126
  3
A4
350
127
  3
A5
350
128
  3
A6
350
129
  3
A7
350
12A
  3
A8
350
12B
  3
A9
350
12C
  3
B0
350
12D
  3
B1
350
12E
  3
B2
350
12F
  3
B3
350
130
  3
B4
350
131
  3
B5
350
132
  3
B6
350
133
  3
B7
350
134
  3
B8
350
135
  3
B9
350
136
  3
C0
350
137
  3
C1
350
138
  3
C2
350
139
  3
C3
350
13A
  3
C4
350
13B
  3
C5
350
13C
  3
C6
350
13D
  3
C7
350
13E
  3
C8
350
13F
  3
C9
350
140
  3
D0
350
141
  3
D1
350
142
  3
D2
350
143
  0
DICTIONARY
  5
1A8
102
{ACAD_REACTORS
330
C
102
}
330
C
100
AcDbDictionary
281
     1
  3
Imperial24
350
1AA
  3
Metric50
350
223
  0
DICTIONARY
  5
86
102
{ACAD_REACTORS
330
C
102
}
330
C
100
AcDbDictionary
281
     1
  3
Standard
350
87
  0
DICTIONARY
  5
99
102
{ACAD_REACTORS
330
C
102
}
330
C
100
AcDbDictionary
281
     1
  3
2dWireframe
350
9F
  3
3dWireframe
350
2684
  3
Basic
350
9E
  3
Brighten
350
A5
  3
ColorChange
350
A9
  3
Conceptual
350
A2
  3
Dim
350
A4
  3
EdgeColorOff
350
175
  3
Facepattern
350
A8
  3
Flat
350
9A
  3
FlatWithEdges
350
9B
  3
Gouraud
350
9C
  3
GouraudWithEdges
350
9D
  3
Hidden
350
A1
  3
JitterOff
350
173
  3
Linepattern
350
A7
  3
OverhangOff
350
174
  3
Realistic
350
A3
  3
Shaded
350
182
  3
Shaded with edges
350
181
  3
Shades of Gray
350
17E
  3
Sketchy
350
17F
  3
Thicken
350
A6
  3
Wireframe
350
A0
  3
X-Ray
350
180
  0
XRECORD
  5
2FD61
102
{ACAD_REACTORS
330
C
102
}
330
C
100
AcDbXrecord
280
     1
 90
        1
330
87
  0
DICTIONARY
  5
66
102
{ACAD_REACTORS
330
C
102
}
330
C
100
AcDbDictionary
281
     1
  3
CANNOSCALE
350
F0
  3
CMLEADERSTYLE
350
EF
  3
CTABLESTYLE
350
89
  3
CVIEWDETAILSTYLE
350
1B7
  3
CVIEWSECTIONSTYLE
350
1B8
  3
DIMASSOC
350
67
  3
HIDETEXT
350
6B
  3
LAYEREVAL
350
14D
  3
LAYERNOTIFY
350
14E
  0
DICTIONARY
  5
268B
102
{ACAD_REACTORS
330
C
102
}
330
C
100
AcDbDictionary
281
     1
  0
DICTIONARY
  5
18F
102
{ACAD_REACTORS
330
18E
102
}
330
18E
100
AcDbDictionary
281
     1
  0
SORTENTSTABLE
  5
28E
102
{ACAD_REACTORS
330
15D
102
}
330
15D
100
AcDbSortentsTable
330
1F
  0
ACDBDETAILVIEWSTYLE
  5
1AC
102
{ACAD_REACTORS
330
1AB
102
}
330
1AB
100
AcDbModelDocViewStyle
 70
     0
  3
Imperial24
290
     0
300
Imperial24
 90
        0
100
AcDbDetailViewStyle
 70
     0
 71
     0
 90
        3
 71
     1
340
11
 62
   256
 40
0.24
340
0
 62
   256
 40
0.24
300

 40
0.36
280
     3
 71
     2
340
16
 90
       25
 62
   256
 71
     3
340
11
 62
   256
 40
0.24
 90
        1
 40
0.75
 90
        1
300
%<\AcVar ViewType \f "%tc1">% %<\AcVar ViewDetailId>%\PSCALE %<\AcVar ViewScale \f "%sn">%
 71
     4
340
16
 90
       25
 62
   256
340
16
 90
       25
 62
   256
280
     0
  0
ACDBDETAILVIEWSTYLE
  5
224
102
{ACAD_REACTORS
330
1AB
102
}
330
1AB
100
AcDbModelDocViewStyle
 70
     0
  3
Metric50
290
     0
300
Metric50
 90
        0
100
AcDbDetailViewStyle
 70
     0
 71
     0
 90
        3
 71
     1
340
11
 62
   256
 40
5.0
340
0
 62
   256
 40
5.0
300

 40
0.0
280
     1
 71
     2
340
16
 90
       25
 62
   256
 71
     3
340
11
 62
   256
 40
5.0
 90
        0
 40
15.0
 90
        1
300
%<\AcVar ViewDetailId>% (%<\AcVar ViewScale \f "%sn">%)
 71
     4
340
16
 90
       25
 62
   256
340
16
 90
       25
 62
   256
280
     0
  0
LAYOUT
  5
59
102
{ACAD_REACTORS
330
1A
102
}
330
1A
100
AcDbPlotSettings
  1

  2
None
  4

  6

 40
0.0
 41
0.0
 42
0.0
 43
0.0
 44
0.0
 45
0.0
 46
0.0
 47
0.0
 48
0.0
 49
0.0
140
0.0
141
0.0
142
1.0
143
1.0
 70
   688
 72
     0
 73
     0
 74
     5
  7

 75
    16
147
1.0
 76
     0
 77
     2
 78
   300
148
0.0
149
0.0
100
AcDbLayout
  1
Layout1
 70
     1
 71
     1
 10
0.0
 20
0.0
 11
12.0
 21
9.0
 12
0.0
 22
0.0
 32
0.0
 14
0.0
 24
0.0
 34
0.0
 15
0.0
 25
0.0
 35
0.0
146
0.0
 13
0.0
 23
0.0
 33
0.0
 16
1.0
 26
0.0
 36
0.0
 17
0.0
 27
1.0
 37
0.0
 76
     0
330
58
  0
LAYOUT
  5
5E
102
{ACAD_REACTORS
330
1A
102
}
330
1A
100
AcDbPlotSettings
  1

  2
None
  4

  6

 40
0.0
 41
0.0
 42
0.0
 43
0.0
 44
0.0
 45
0.0
 46
0.0
 47
0.0
 48
0.0
 49
0.0
140
0.0
141
0.0
142
1.0
143
1.0
 70
   688
 72
     0
 73
     0
 74
     5
  7

 75
    16
147
1.0
 76
     0
 77
     2
 78
   300
148
0.0
149
0.0
100
AcDbLayout
  1
Layout2
 70
     1
 71
     2
 10
0.0
 20
0.0
 11
12.0
 21
9.0
 12
0.0
 22
0.0
 32
0.0
 14
0.0
 24
0.0
 34
0.0
 15
0.0
 25
0.0
 35
0.0
146
0.0
 13
0.0
 23
0.0
 33
0.0
 16
1.0
 26
0.0
 36
0.0
 17
0.0
 27
1.0
 37
0.0
 76
     0
330
5D
  0
LAYOUT
  5
22
102
{ACAD_XDICTIONARY
360
194
102
}
102
{ACAD_REACTORS
330
1A
102
}
330
1A
100
AcDbPlotSettings
  1

  2
none_device
  4
ANSI_A_(8.50_x_11.00_Inches)
  6

 40
6.349999904632568
 41
19.04999923706055
 42
6.350006103515625
 43
19.04998779296875
 44
215.8999938964844
 45
279.3999938964844
 46
0.0
 47
0.0
 48
0.0
 49
0.0
140
0.0
141
0.0
142
1.0
143
2.584895464708373
 70
 11952
 72
     0
 73
     1
 74
     0
  7

 75
     0
147
0.3868628397755418
 76
     0
 77
     2
 78
   300
148
0.0
149
0.0
100
AcDbLayout
  1
Model
 70
     1
 71
     0
 10
0.0
 20
0.0
 11
12.0
 21
9.0
 12
0.0
 22
0.0
 32
0.0
 14
0.0
 24
0.0
 34
0.0
 15
0.0
 25
0.0
 35
0.0
146
0.0
 13
0.0
 23
0.0
 33
0.0
 16
1.0
 26
0.0
 36
0.0
 17
0.0
 27
1.0
 37
0.0
 76
     0
330
1F
331
94
  0
MATERIAL
  5
97
102
{ACAD_XDICTIONARY
360
188
102
}
102
{ACAD_REACTORS
330
72
102
}
330
72
100
AcDbMaterial
  1
ByBlock
 94
       63
  0
MATERIAL
  5
96
102
{ACAD_XDICTIONARY
360
186
102
}
102
{ACAD_REACTORS
330
72
102
}
330
72
100
AcDbMaterial
  1
ByLayer
 94
       63
  0
MATERIAL
  5
98
102
{ACAD_XDICTIONARY
360
110
102
}
102
{ACAD_REACTORS
330
72
102
}
330
72
100
AcDbMaterial
  1
Global
 43
0.0208000000566244
 43
0.0
 43
0.0
 43
0.0
 43
0.0
 43
0.0208000000566244
 43
0.0
 43
0.0
 43
0.0
 43
0.0
 43
1.0
 43
0.0
 43
0.0
 43
0.0
 43
0.0
 43
1.0
 49
0.0208000000566244
 49
0.0
 49
0.0
 49
0.0
 49
0.0
 49
0.0208000000566244
 49
0.0
 49
0.0
 49
0.0
 49
0.0
 49
1.0
 49
0.0
 49
0.0
 49
0.0
 49
0.0
 49
1.0
142
0.0208000000566244
142
0.0
142
0.0
142
0.0
142
0.0
142
0.0208000000566244
142
0.0
142
0.0
142
0.0
142
0.0
142
1.0
142
0.0
142
0.0
142
0.0
142
0.0
142
1.0
144
0.0208000000566244
144
0.0
144
0.0
144
0.0
144
0.0
144
0.0208000000566244
144
0.0
144
0.0
144
0.0
144
0.0
144
1.0
144
0.0
144
0.0
144
0.0
144
0.0
144
1.0
 94
       63
1001
ACAD
1070
    -1
1070
     3
1070
     0
1000

1071
        0
1070
     0
  0
MLEADERSTYLE
  5
D8
102
{ACAD_REACTORS
330
D7
102
}
330
D7
100
AcDbMLeaderStyle
179
     2
170
     2
171
     1
172
     0
 90
        2
 40
0.0
 41
0.0
173
     1
 91
-1056964608
340
14
 92
       -2
290
     1
 42
0.09
291
     1
 43
0.36
  3
Standard
 44
0.18
300

342
11
174
     1
178
     1
175
     1
176
     0
 93
-1056964608
 45
0.18
292
     0
297
     0
 46
0.18
 94
-1056964608
 47
1.0
 49
1.0
140
1.0
293
     1
141
0.0
294
     1
177
     0
142
1.0
295
     0
296
     0
143
0.125
271
     0
272
     9
273
     9
298
     0
  0
MLINESTYLE
  5
18
102
{ACAD_REACTORS
330
17
102
}
330
17
100
AcDbMlineStyle
  2
STANDARD
 70
     0
  3

 62
   256
 51
90.0
 52
90.0
 71
     2
 49
0.5
 62
   256
  6
BYLAYER
 49
-0.5
 62
   256
  6
BYLAYER
  0
ACDBPLACEHOLDER
  5
F
102
{ACAD_REACTORS
330
E
102
}
330
E
  0
SCALE
  5
47D1
102
{ACAD_REACTORS
330
B6
102
}
330
B6
100
AcDbScale
 70
     0
300
1:100_1_XREF_XREF_XREF_XREF
140
1.0
141
0.1
290
     0
  0
SCALE
  5
8BD6
102
{ACAD_REACTORS
330
B6
102
}
330
B6
100
AcDbScale
 70
     0
300
1:100_1_XREF_XREF_XREF_XREF_XREF_XREF_XREF_XREF_XREF
140
1.0
141
0.1
290
     0
1001
ACAD
1000
AcRTDxfName
1000
SCALE
1000
AcRTDxfName
1000
SCALE
1000
AcRTDxfName
1000
SCALE
1000
AcRTDxfName
1000
SCALE
  0
SCALE
  5
B7
102
{ACAD_REACTORS
330
B6
102
}
330
B6
100
AcDbScale
 70
     0
300
1:1
140
1.0
141
1.0
290
     1
  0
SCALE
  5
124
102
{ACAD_REACTORS
330
B6
102
}
330
B6
100
AcDbScale
 70
     0
300
1:2
140
1.0
141
2.0
290
     0
  0
SCALE
  5
125
102
{ACAD_REACTORS
330
B6
102
}
330
B6
100
AcDbScale
 70
     0
300
1:4
140
1.0
141
4.0
290
     0
  0
SCALE
  5
126
102
{ACAD_REACTORS
330
B6
102
}
330
B6
100
AcDbScale
 70
     0
300
1:5
140
1.0
141
5.0
290
     0
  0
SCALE
  5
127
102
{ACAD_REACTORS
330
B6
102
}
330
B6
100
AcDbScale
 70
     0
300
1:8
140
1.0
141
8.0
290
     0
  0
SCALE
  5
128
102
{ACAD_REACTORS
330
B6
102
}
330
B6
100
AcDbScale
 70
     0
300
1:10
140
1.0
141
10.0
290
     0
  0
SCALE
  5
129
102
{ACAD_REACTORS
330
B6
102
}
330
B6
100
AcDbScale
 70
     0
300
1:16
140
1.0
141
16.0
290
     0
  0
SCALE
  5
12A
102
{ACAD_REACTORS
330
B6
102
}
330
B6
100
AcDbScale
 70
     0
300
1:20
140
1.0
141
20.0
290
     0
  0
SCALE
  5
12B
102
{ACAD_REACTORS
330
B6
102
}
330
B6
100
AcDbScale
 70
     0
300
1:30
140
1.0
141
30.0
290
     0
  0
SCALE
  5
12C
102
{ACAD_REACTORS
330
B6
102
}
330
B6
100
AcDbScale
 70
     0
300
1:40
140
1.0
141
40.0
290
     0
  0
SCALE
  5
12D
102
{ACAD_REACTORS
330
B6
102
}
330
B6
100
AcDbScale
 70
     0
300
1:50
140
1.0
141
50.0
290
     0
  0
SCALE
  5
12E
102
{ACAD_REACTORS
330
B6
102
}
330
B6
100
AcDbScale
 70
     0
300
1:100
140
1.0
141
100.0
290
     0
  0
SCALE
  5
12F
102
{ACAD_REACTORS
330
B6
102
}
330
B6
100
AcDbScale
 70
     0
300
2:1
140
2.0
141
1.0
290
     0
  0
SCALE
  5
130
102
{ACAD_REACTORS
330
B6
102
}
330
B6
100
AcDbScale
 70
     0
300
4:1
140
4.0
141
1.0
290
     0
  0
SCALE
  5
131
102
{ACAD_REACTORS
330
B6
102
}
330
B6
100
AcDbScale
 70
     0
300
8:1
140
8.0
141
1.0
290
     0
  0
SCALE
  5
132
102
{ACAD_REACTORS
330
B6
102
}
330
B6
100
AcDbScale
 70
     0
300
10:1
140
10.0
141
1.0
290
     0
  0
SCALE
  5
133
102
{ACAD_REACTORS
330
B6
102
}
330
B6
100
AcDbScale
 70
     0
300
100:1
140
100.0
141
1.0
290
     0
  0
SCALE
  5
134
102
{ACAD_REACTORS
330
B6
102
}
330
B6
100
AcDbScale
 70
     0
300
1/128" = 1'-0"
140
0.0078125
141
12.0
290
     0
  0
SCALE
  5
135
102
{ACAD_REACTORS
330
B6
102
}
330
B6
100
AcDbScale
 70
     0
300
1/64" = 1'-0"
140
0.015625
141
12.0
290
     0
  0
SCALE
  5
136
102
{ACAD_REACTORS
330
B6
102
}
330
B6
100
AcDbScale
 70
     0
300
1/32" = 1'-0"
140
0.03125
141
12.0
290
     0
  0
SCALE
  5
137
102
{ACAD_REACTORS
330
B6
102
}
330
B6
100
AcDbScale
 70
     0
300
1/16" = 1'-0"
140
0.0625
141
12.0
290
     0
  0
SCALE
  5
138
102
{ACAD_REACTORS
330
B6
102
}
330
B6
100
AcDbScale
 70
     0
300
3/32" = 1'-0"
140
0.09375
141
12.0
290
     0
  0
SCALE
  5
139
102
{ACAD_REACTORS
330
B6
102
}
330
B6
100
AcDbScale
 70
     0
300
1/8" = 1'-0"
140
0.125
141
12.0
290
     0
  0
SCALE
  5
13A
102
{ACAD_REACTORS
330
B6
102
}
330
B6
100
AcDbScale
 70
     0
300
3/16" = 1'-0"
140
0.1875
141
12.0
290
     0
  0
SCALE
  5
13B
102
{ACAD_REACTORS
330
B6
102
}
330
B6
100
AcDbScale
 70
     0
300
1/4" = 1'-0"
140
0.25
141
12.0
290
     0
  0
SCALE
  5
13C
102
{ACAD_REACTORS
330
B6
102
}
330
B6
100
AcDbScale
 70
     0
300
3/8" = 1'-0"
140
0.375
141
12.0
290
     0
  0
SCALE
  5
13D
102
{ACAD_REACTORS
330
B6
102
}
330
B6
100
AcDbScale
 70
     0
300
1/2" = 1'-0"
140
0.5
141
12.0
290
     0
  0
SCALE
  5
13E
102
{ACAD_REACTORS
330
B6
102
}
330
B6
100
AcDbScale
 70
     0
300
3/4" = 1'-0"
140
0.75
141
12.0
290
     0
  0
SCALE
  5
13F
102
{ACAD_REACTORS
330
B6
102
}
330
B6
100
AcDbScale
 70
     0
300
1" = 1'-0"
140
1.0
141
12.0
290
     0
  0
SCALE
  5
140
102
{ACAD_REACTORS
330
B6
102
}
330
B6
100
AcDbScale
 70
     0
300
1-1/2" = 1'-0"
140
1.5
141
12.0
290
     0
  0
SCALE
  5
141
102
{ACAD_REACTORS
330
B6
102
}
330
B6
100
AcDbScale
 70
     0
300
3" = 1'-0"
140
3.0
141
12.0
290
     0
  0
SCALE
  5
142
102
{ACAD_REACTORS
330
B6
102
}
330
B6
100
AcDbScale
 70
     0
300
6" = 1'-0"
140
6.0
141
12.0
290
     0
  0
SCALE
  5
143
102
{ACAD_REACTORS
330
B6
102
}
330
B6
100
AcDbScale
 70
     0
300
1'-0" = 1'-0"
140
12.0
141
12.0
290
     0
  0
ACDBSECTIONVIEWSTYLE
  5
1AA
102
{ACAD_REACTORS
330
1A8
102
}
330
1A8
100
AcDbModelDocViewStyle
 70
     0
  3
Imperial24
290
     0
300
Imperial24
 90
        0
100
AcDbSectionViewStyle
 70
     0
 71
     0
 90
       78
 71
     1
340
11
 62
   256
 40
0.24
340
0
340
0
 62
   256
 40
0.24
300
I, O, Q, S, X, Z
 40
0.48
 90
        3
 40
0.18
 90
        1
 71
     2
340
16
 90
       25
 62
   256
340
16
 90
       50
 62
   256
 40
0.24
 40
0.0
 40
0.24
 71
     3
340
11
 62
   256
 40
0.24
 90
        1
 40
0.75
 90
        1
300
%<\AcVar ViewType \f "%tc1">% %<\AcVar ViewSectionStartId>%-%<\AcVar ViewSectionEndId>%\PSCALE %<\AcVar ViewScale \f "%sn">%
 71
     4
 62
   256
 62
   257
300
ANSI31
 40
1.0
 90
        0
290
     0
290
     0
 90
        6
 40
0.0
 40
1.570796326794896
 40
0.2617993877991494
 40
1.308996938995747
 40
-0.2617993877991494
 40
1.832595714594046
  0
ACDBSECTIONVIEWSTYLE
  5
223
102
{ACAD_REACTORS
330
1A8
102
}
330
1A8
100
AcDbModelDocViewStyle
 70
     0
  3
Metric50
290
     0
300
Metric50
 90
        0
100
AcDbSectionViewStyle
 70
     0
 71
     0
 90
      102
 71
     1
340
11
 62
   256
 40
5.0
340
0
340
0
 62
   256
 40
5.0
300
I, O, Q, S, X, Z
 40
10.0
 90
        0
 40
2.5
 90
        0
 71
     2
340
16
 90
       25
 62
   256
340
16
 90
       50
 62
   256
 40
5.0
 40
2.5
 40
5.0
 71
     3
340
11
 62
   256
 40
5.0
 90
        0
 40
15.0
 90
        1
300
%<\AcVar ViewSectionStartId>%-%<\AcVar ViewSectionEndId>% (%<\AcVar ViewScale \f "%sn">%)
 71
     4
 62
   256
 62
   257
300
ANSI31
 40
1.0
 90
        0
290
     0
290
     0
 90
        6
 40
0.0
 40
1.570796326794896
 40
0.2617993877991494
 40
1.308996938995747
 40
-0.2617993877991494
 40
1.832595714594046
  0
TABLESTYLE
  5
87
102
{ACAD_XDICTIONARY
360
104
102
}
102
{ACAD_REACTORS
330
86
102
}
330
86
100
AcDbTableStyle
280
     0
  3
Standard
 70
     0
 71
     0
 40
0.06
 41
0.06
280
     0
281
     0
  7
Standard
140
0.18
170
     2
 62
     0
 63
     7
283
     0
 90
      512
 91
        0
  1

274
    -2
284
     1
 64
     0
275
    -2
285
     1
 65
     0
276
    -2
286
     1
 66
     0
277
    -2
287
     1
 67
     0
278
    -2
288
     1
 68
     0
279
    -2
289
     1
 69
     0
  7
Standard
140
0.25
170
     5
 62
     0
 63
     7
283
     0
 90
      512
 91
        0
  1

274
    -2
284
     1
 64
     0
275
    -2
285
     1
 65
     0
276
    -2
286
     1
 66
     0
277
    -2
287
     1
 67
     0
278
    -2
288
     1
 68
     0
279
    -2
289
     1
 69
     0
  7
Standard
140
0.18
170
     5
 62
     0
 63
     7
283
     0
 90
      512
 91
        0
  1

274
    -2
284
     1
 64
     0
275
    -2
285
     1
 65
     0
276
    -2
286
     1
 66
     0
277
    -2
287
     1
 67
     0
278
    -2
288
     1
 68
     0
279
    -2
289
     1
 69
     0
  0
VISUALSTYLE
  5
9F
102
{ACAD_REACTORS
330
99
102
}
330
99
100
AcDbVisualStyle
  2
2dWireframe
 70
     4
177
     3
291
     0
 70
    58
 90
        0
176
     1
 90
        2
176
     1
 90
        1
176
     1
 90
        0
176
     1
 40
0.6
176
     1
 40
30.0
176
     1
 62
     7
420
 16777215
176
     1
 90
        1
176
     1
 90
        4
176
     1
 62
     7
176
     1
 62
   257
176
     1
 90
        1
176
     1
 90
        1
176
     1
 40
1.0
176
     1
 90
        0
176
     1
 62
   257
176
     1
 40
1.0
176
     1
 90
        1
176
     1
 90
        6
176
     1
 90
        2
176
     1
 62
     7
176
     1
 90
        5
176
     1
 90
        0
176
     1
 90
        0
176
     1
290
     0
176
     1
 90
        1
176
     1
 40
0.0
176
     1
 90
        0
176
     1
290
     1
176
     1
290
     1
176
     1
290
     0
176
     1
290
     0
176
     1
290
     0
176
     1
290
     0
176
     1
290
     0
176
     1
290
     0
176
     1
290
     0
176
     1
 90
       50
176
     1
 40
0.0
176
     1
 40
1.0
176
     1
 90
        0
176
     1
 62
    18
420
        0
176
     1
 90
       50
176
     1
 90
        3
176
     1
 62
     5
420
      255
176
     1
290
     0
176
     1
 90
       50
176
     1
 90
       50
176
     1
 90
       50
176
     1
290
     0
176
     1
 90
       50
176
     1
 62
   256
176
     0
 40
1.0
176
     0
 90
        2
176
     1
  1
strokes_ogs.tif
176
     1
290
     0
176
     1
 40
1.0
176
     1
 40
1.0
176
     1
  0
VISUALSTYLE
  5
2684
102
{ACAD_REACTORS
330
99
102
}
330
99
100
AcDbVisualStyle
  2
3dWireframe
 70
     5
177
     3
291
     0
 70
    58
 90
        0
176
     1
 90
        2
176
     1
 90
        0
176
     1
 90
        0
176
     1
 40
0.6
176
     1
 40
30.0
176
     1
 62
     7
176
     1
 90
        1
176
     1
 90
        4
176
     1
 62
     7
176
     1
 62
   257
176
     1
 90
        1
176
     1
 90
        1
176
     1
 40
1.0
176
     1
 90
        0
176
     1
 62
   257
176
     1
 40
1.0
176
     1
 90
        1
176
     1
 90
        6
176
     1
 90
        2
176
     1
 62
     7
176
     1
 90
        5
176
     1
 90
        0
176
     1
 90
        0
176
     1
290
     0
176
     1
 90
        1
176
     1
 40
0.0
176
     1
 90
        0
176
     1
290
     0
176
     1
290
     1
176
     1
290
     1
176
     1
290
     0
176
     1
290
     0
176
     1
290
     0
176
     1
290
     0
176
     1
290
     0
176
     1
290
     0
176
     1
 90
       50
176
     1
 40
0.0
176
     1
 40
1.0
176
     1
 90
        0
176
     1
 62
    18
420
        0
176
     1
 90
       50
176
     1
 90
        3
176
     1
 62
     5
420
      255
176
     1
290
     0
176
     1
 90
       50
176
     1
 90
       50
176
     1
 90
       50
176
     1
290
     0
176
     1
 90
       50
176
     1
 62
   256
176
     0
 40
1.0
176
     0
 90
        2
176
     1
  1
strokes_ogs.tif
176
     1
290
     0
176
     1
 40
1.0
176
     1
 40
1.0
176
     1
1001
ACAD
1000
AcRTDxfName
1000
VISUALSTYLE
  0
VISUALSTYLE
  5
9E
102
{ACAD_REACTORS
330
99
102
}
330
99
100
AcDbVisualStyle
  2
Basic
 70
     7
177
     3
291
     1
 70
    58
 90
        1
176
     1
 90
        0
176
     1
 90
        1
176
     1
 90
        0
176
     1
 40
0.6
176
     1
 40
30.0
176
     1
 62
     7
420
 16777215
176
     1
 90
        0
176
     1
 90
        4
176
     1
 62
     7
176
     1
 62
   257
176
     1
 90
        1
176
     1
 90
        1
176
     1
 40
1.0
176
     1
 90
        8
176
     1
 62
     7
176
     1
 40
1.0
176
     1
 90
        1
176
     1
 90
        6
176
     1
 90
        2
176
     1
 62
     7
176
     1
 90
        5
176
     1
 90
        0
176
     1
 90
        0
176
     1
290
     0
176
     1
 90
        1
176
     1
 40
0.0
176
     1
 90
        0
176
     1
290
     0
176
     1
290
     1
176
     1
290
     1
176
     1
290
     0
176
     1
290
     0
176
     1
290
     0
176
     1
290
     0
176
     1
290
     0
176
     1
290
     0
176
     1
 90
       50
176
     1
 40
0.0
176
     1
 40
1.0
176
     1
 90
        0
176
     1
 62
    18
420
        0
176
     1
 90
       50
176
     1
 90
        3
176
     1
 62
     5
420
      255
176
     1
290
     0
176
     1
 90
       50
176
     1
 90
       50
176
     1
 90
       50
176
     1
290
     0
176
     1
 90
       50
176
     1
 62
   256
176
     0
 40
1.0
176
     0
 90
        2
176
     1
  1
strokes_ogs.tif
176
     1
290
     0
176
     1
 40
1.0
176
     1
 40
1.0
176
     1
  0
VISUALSTYLE
  5
A5
102
{ACAD_REACTORS
330
99
102
}
330
99
100
AcDbVisualStyle
  2
Brighten
 70
    12
177
     3
291
     1
 70
    58
 90
        2
176
     1
 90
        2
176
     1
 90
        1
176
     1
 90
        0
176
     1
 40
0.6
176
     1
 40
30.0
176
     1
 62
     7
420
 16777215
176
     1
 90
        1
176
     1
 90
        4
176
     1
 62
     7
176
     1
 62
   257
176
     1
 90
        1
176
     1
 90
        1
176
     1
 40
1.0
176
     1
 90
        8
176
     1
 62
     7
176
     1
 40
1.0
176
     1
 90
        1
176
     1
 90
        6
176
     1
 90
        2
176
     1
 62
     7
176
     1
 90
        5
176
     1
 90
        0
176
     1
 90
        0
176
     1
290
     0
176
     1
 90
        1
176
     1
 40
50.0
176
     1
 90
        0
176
     1
290
     0
176
     1
290
     1
176
     1
290
     1
176
     1
290
     0
176
     1
290
     0
176
     1
290
     0
176
     1
290
     0
176
     1
290
     0
176
     1
290
     0
176
     1
 90
       50
176
     1
 40
0.0
176
     1
 40
1.0
176
     1
 90
        0
176
     1
 62
    18
420
        0
176
     1
 90
       50
176
     1
 90
        3
176
     1
 62
     5
420
      255
176
     1
290
     0
176
     1
 90
       50
176
     1
 90
       50
176
     1
 90
       50
176
     1
290
     0
176
     1
 90
       50
176
     1
 62
   256
176
     0
 40
1.0
176
     0
 90
        2
176
     1
  1
strokes_ogs.tif
176
     1
290
     0
176
     1
 40
1.0
176
     1
 40
1.0
176
     1
  0
VISUALSTYLE
  5
A9
102
{ACAD_REACTORS
330
99
102
}
330
99
100
AcDbVisualStyle
  2
ColorChange
 70
    16
177
     3
291
     1
 70
    58
 90
        2
176
     1
 90
        2
176
     1
 90
        3
176
     1
 90
        0
176
     1
 40
0.6
176
     1
 40
30.0
176
     1
 62
     8
420
  8421504
176
     1
 90
        1
176
     1
 90
        4
176
     1
 62
     7
176
     1
 62
   257
176
     1
 90
        1
176
     1
 90
        1
176
     1
 40
1.0
176
     1
 90
        8
176
     1
 62
     8
420
  8421504
176
     1
 40
1.0
176
     1
 90
        1
176
     1
 90
        6
176
     1
 90
        2
176
     1
 62
     7
176
     1
 90
        5
176
     1
 90
        0
176
     1
 90
        0
176
     1
290
     0
176
     1
 90
        1
176
     1
 40
0.0
176
     1
 90
        0
176
     1
290
     0
176
     1
290
     1
176
     1
290
     1
176
     1
290
     0
176
     1
290
     0
176
     1
290
     0
176
     1
290
     0
176
     1
290
     0
176
     1
290
     0
176
     1
 90
       50
176
     1
 40
0.0
176
     1
 40
1.0
176
     1
 90
        0
176
     1
 62
    18
420
        0
176
     1
 90
       50
176
     1
 90
        3
176
     1
 62
     5
420
      255
176
     1
290
     0
176
     1
 90
       50
176
     1
 90
       50
176
     1
 90
       50
176
     1
290
     0
176
     1
 90
       50
176
     1
 62
   256
176
     0
 40
1.0
176
     0
 90
        2
176
     1
  1
strokes_ogs.tif
176
     1
290
     0
176
     1
 40
1.0
176
     1
 40
1.0
176
     1
  0
VISUALSTYLE
  5
A2
102
{ACAD_REACTORS
330
99
102
}
330
99
100
AcDbVisualStyle
  2
Conceptual
 70
     9
177
     3
291
     0
 70
    58
 90
        3
176
     1
 90
        2
176
     1
 90
        1
176
     1
 90
        0
176
     1
 40
0.6
176
     1
 40
30.0
176
     1
 62
     7
420
 16777215
176
     1
 90
        2
176
     1
 90
        2
176
     1
 62
     7
176
     1
 62
   257
176
     1
 90
        1
176
     1
 90
        1
176
     1
 40
40.0
176
     1
 90
        8
176
     1
 62
     7
176
     1
 40
1.0
176
     1
 90
        1
176
     1
 90
        6
176
     1
 90
        2
176
     1
 62
     7
176
     1
 90
        3
176
     1
 90
        0
176
     1
 90
        0
176
     1
290
     0
176
     1
 90
        1
176
     1
 40
0.0
176
     1
 90
        0
176
     1
290
     0
176
     1
290
     1
176
     1
290
     1
176
     1
290
     0
176
     1
290
     0
176
     1
290
     0
176
     1
290
     0
176
     1
290
     0
176
     1
290
     0
176
     1
 90
       50
176
     1
 40
0.0
176
     1
 40
1.0
176
     1
 90
        0
176
     1
 62
    18
420
        0
176
     1
 90
       50
176
     1
 90
        3
176
     1
 62
     5
420
      255
176
     1
290
     0
176
     1
 90
       50
176
     1
 90
       50
176
     1
 90
       50
176
     1
290
     0
176
     1
 90
       50
176
     1
 62
   256
176
     0
 40
1.0
176
     0
 90
        2
176
     1
  1
strokes_ogs.tif
176
     1
290
     0
176
     1
 40
1.0
176
     1
 40
1.0
176
     1
  0
VISUALSTYLE
  5
A4
102
{ACAD_REACTORS
330
99
102
}
330
99
100
AcDbVisualStyle
  2
Dim
 70
    11
177
     3
291
     1
 70
    58
 90
        2
176
     1
 90
        2
176
     1
 90
        1
176
     1
 90
        0
176
     1
 40
0.6
176
     1
 40
30.0
176
     1
 62
     7
420
 16777215
176
     1
 90
        1
176
     1
 90
        4
176
     1
 62
     7
176
     1
 62
   257
176
     1
 90
        1
176
     1
 90
        1
176
     1
 40
1.0
176
     1
 90
        8
176
     1
 62
     7
176
     1
 40
1.0
176
     1
 90
        1
176
     1
 90
        6
176
     1
 90
        2
176
     1
 62
     7
176
     1
 90
        5
176
     1
 90
        0
176
     1
 90
        0
176
     1
290
     0
176
     1
 90
        1
176
     1
 40
-50.0
176
     1
 90
        0
176
     1
290
     0
176
     1
290
     1
176
     1
290
     1
176
     1
290
     0
176
     1
290
     0
176
     1
290
     0
176
     1
290
     0
176
     1
290
     0
176
     1
290
     0
176
     1
 90
       50
176
     1
 40
0.0
176
     1
 40
1.0
176
     1
 90
        0
176
     1
 62
    18
420
        0
176
     1
 90
       50
176
     1
 90
        3
176
     1
 62
     5
420
      255
176
     1
290
     0
176
     1
 90
       50
176
     1
 90
       50
176
     1
 90
       50
176
     1
290
     0
176
     1
 90
       50
176
     1
 62
   256
176
     0
 40
1.0
176
     0
 90
        2
176
     1
  1
strokes_ogs.tif
176
     1
290
     0
176
     1
 40
1.0
176
     1
 40
1.0
176
     1
  0
VISUALSTYLE
  5
175
102
{ACAD_REACTORS
330
99
102
}
330
99
100
AcDbVisualStyle
  2
EdgeColorOff
 70
    22
177
     3
291
     1
 70
    58
 90
        2
176
     0
 90
        2
176
     0
 90
        0
176
     0
 90
        0
176
     0
 40
0.6
176
     0
 40
30.0
176
     0
 62
     7
420
 16777215
176
     0
 90
        1
176
     0
 90
        4
176
     0
 62
     7
176
     0
 62
   257
176
     0
 90
        1
176
     0
 90
        1
176
     0
 40
1.0
176
     0
 90
        8
176
     2
 62
     7
176
     0
 40
1.0
176
     0
 90
        1
176
     0
 90
        6
176
     0
 90
        2
176
     0
 62
     7
176
     0
 90
        5
176
     0
 90
        0
176
     0
 90
        0
176
     0
290
     0
176
     0
 90
        1
176
     0
 40
0.0
176
     0
 90
        0
176
     0
290
     0
176
     1
290
     1
176
     1
290
     1
176
     1
290
     0
176
     1
290
     0
176
     1
290
     0
176
     1
290
     0
176
     1
290
     0
176
     1
290
     0
176
     1
 90
       50
176
     1
 40
0.0
176
     1
 40
1.0
176
     1
 90
        0
176
     1
 62
    18
420
        0
176
     1
 90
       50
176
     1
 90
        3
176
     1
 62
     5
420
      255
176
     1
290
     0
176
     1
 90
       50
176
     1
 90
       50
176
     1
 90
       50
176
     1
290
     0
176
     1
 90
       50
176
     1
 62
   256
176
     0
 40
1.0
176
     0
 90
        2
176
     1
  1
strokes_ogs.tif
176
     1
290
     0
176
     1
 40
1.0
176
     1
 40
1.0
176
     1
  0
VISUALSTYLE
  5
A8
102
{ACAD_REACTORS
330
99
102
}
330
99
100
AcDbVisualStyle
  2
Facepattern
 70
    15
177
     3
291
     1
 70
    58
 90
        2
176
     1
 90
        2
176
     1
 90
        1
176
     1
 90
        0
176
     1
 40
0.6
176
     1
 40
30.0
176
     1
 62
     7
420
 16777215
176
     1
 90
        1
176
     1
 90
        4
176
     1
 62
     7
176
     1
 62
   257
176
     1
 90
        1
176
     1
 90
        1
176
     1
 40
1.0
176
     1
 90
        8
176
     1
 62
     7
176
     1
 40
1.0
176
     1
 90
        1
176
     1
 90
        6
176
     1
 90
        2
176
     1
 62
     7
176
     1
 90
        5
176
     1
 90
        0
176
     1
 90
        0
176
     1
290
     0
176
     1
 90
        1
176
     1
 40
0.0
176
     1
 90
        0
176
     1
290
     0
176
     1
290
     1
176
     1
290
     1
176
     1
290
     0
176
     1
290
     0
176
     1
290
     0
176
     1
290
     0
176
     1
290
     0
176
     1
290
     0
176
     1
 90
       50
176
     1
 40
0.0
176
     1
 40
1.0
176
     1
 90
        0
176
     1
 62
    18
420
        0
176
     1
 90
       50
176
     1
 90
        3
176
     1
 62
     5
420
      255
176
     1
290
     0
176
     1
 90
       50
176
     1
 90
       50
176
     1
 90
       50
176
     1
290
     0
176
     1
 90
       50
176
     1
 62
   256
176
     0
 40
1.0
176
     0
 90
        2
176
     1
  1
strokes_ogs.tif
176
     1
290
     0
176
     1
 40
1.0
176
     1
 40
1.0
176
     1
  0
VISUALSTYLE
  5
9A
102
{ACAD_REACTORS
330
99
102
}
330
99
100
AcDbVisualStyle
  2
Flat
 70
     0
177
     3
291
     1
 70
    58
 90
        2
176
     1
 90
        1
176
     1
 90
        1
176
     1
 90
        2
176
     1
 40
0.6
176
     1
 40
30.0
176
     1
 62
     7
420
 16777215
176
     1
 90
        0
176
     1
 90
        0
176
     1
 62
     7
176
     1
 62
   257
176
     1
 90
        1
176
     1
 90
        1
176
     1
 40
1.0
176
     1
 90
        8
176
     1
 62
     7
176
     1
 40
1.0
176
     1
 90
        1
176
     1
 90
        6
176
     1
 90
        2
176
     1
 62
     7
176
     1
 90
        5
176
     1
 90
        0
176
     1
 90
        0
176
     1
290
     0
176
     1
 90
       13
176
     1
 40
0.0
176
     1
 90
        0
176
     1
290
     0
176
     1
290
     1
176
     1
290
     1
176
     1
290
     0
176
     1
290
     0
176
     1
290
     0
176
     1
290
     0
176
     1
290
     0
176
     1
290
     0
176
     1
 90
       50
176
     1
 40
0.0
176
     1
 40
1.0
176
     1
 90
        0
176
     1
 62
    18
420
        0
176
     1
 90
       50
176
     1
 90
        3
176
     1
 62
     5
420
      255
176
     1
290
     0
176
     1
 90
       50
176
     1
 90
       50
176
     1
 90
       50
176
     1
290
     0
176
     1
 90
       50
176
     1
 62
   256
176
     0
 40
1.0
176
     0
 90
        2
176
     1
  1
strokes_ogs.tif
176
     1
290
     0
176
     1
 40
1.0
176
     1
 40
1.0
176
     1
  0
VISUALSTYLE
  5
9B
102
{ACAD_REACTORS
330
99
102
}
330
99
100
AcDbVisualStyle
  2
FlatWithEdges
 70
     1
177
     3
291
     1
 70
    58
 90
        2
176
     1
 90
        1
176
     1
 90
        1
176
     1
 90
        2
176
     1
 40
0.6
176
     1
 40
30.0
176
     1
 62
     7
420
 16777215
176
     1
 90
        1
176
     1
 90
        0
176
     1
 62
     7
176
     1
 62
   257
176
     1
 90
        1
176
     1
 90
        1
176
     1
 40
1.0
176
     1
 90
        0
176
     1
 62
   257
176
     1
 40
1.0
176
     1
 90
        1
176
     1
 90
        6
176
     1
 90
        2
176
     1
 62
     7
176
     1
 90
        5
176
     1
 90
        0
176
     1
 90
        0
176
     1
290
     0
176
     1
 90
       13
176
     1
 40
0.0
176
     1
 90
        0
176
     1
290
     0
176
     1
290
     1
176
     1
290
     1
176
     1
290
     0
176
     1
290
     0
176
     1
290
     0
176
     1
290
     0
176
     1
290
     0
176
     1
290
     0
176
     1
 90
       50
176
     1
 40
0.0
176
     1
 40
1.0
176
     1
 90
        0
176
     1
 62
    18
420
        0
176
     1
 90
       50
176
     1
 90
        3
176
     1
 62
     5
420
      255
176
     1
290
     0
176
     1
 90
       50
176
     1
 90
       50
176
     1
 90
       50
176
     1
290
     0
176
     1
 90
       50
176
     1
 62
   256
176
     0
 40
1.0
176
     0
 90
        2
176
     1
  1
strokes_ogs.tif
176
     1
290
     0
176
     1
 40
1.0
176
     1
 40
1.0
176
     1
  0
VISUALSTYLE
  5
9C
102
{ACAD_REACTORS
330
99
102
}
330
99
100
AcDbVisualStyle
  2
Gouraud
 70
     2
177
     3
291
     1
 70
    58
 90
        2
176
     1
 90
        2
176
     1
 90
        1
176
     1
 90
        2
176
     1
 40
0.6
176
     1
 40
30.0
176
     1
 62
     7
420
 16777215
176
     1
 90
        0
176
     1
 90
        0
176
     1
 62
     7
176
     1
 62
   257
176
     1
 90
        1
176
     1
 90
        1
176
     1
 40
1.0
176
     1
 90
        0
176
     1
 62
     7
176
     1
 40
1.0
176
     1
 90
        1
176
     1
 90
        6
176
     1
 90
        2
176
     1
 62
     7
176
     1
 90
        5
176
     1
 90
        0
176
     1
 90
        0
176
     1
290
     0
176
     1
 90
       13
176
     1
 40
0.0
176
     1
 90
        0
176
     1
290
     0
176
     1
290
     1
176
     1
290
     1
176
     1
290
     0
176
     1
290
     0
176
     1
290
     0
176
     1
290
     0
176
     1
290
     0
176
     1
290
     0
176
     1
 90
       50
176
     1
 40
0.0
176
     1
 40
1.0
176
     1
 90
        0
176
     1
 62
    18
420
        0
176
     1
 90
       50
176
     1
 90
        3
176
     1
 62
     5
420
      255
176
     1
290
     0
176
     1
 90
       50
176
     1
 90
       50
176
     1
 90
       50
176
     1
290
     0
176
     1
 90
       50
176
     1
 62
   256
176
     0
 40
1.0
176
     0
 90
        2
176
     1
  1
strokes_ogs.tif
176
     1
290
     0
176
     1
 40
1.0
176
     1
 40
1.0
176
     1
  0
VISUALSTYLE
  5
9D
102
{ACAD_REACTORS
330
99
102
}
330
99
100
AcDbVisualStyle
  2
GouraudWithEdges
 70
     3
177
     3
291
     1
 70
    58
 90
        2
176
     1
 90
        2
176
     1
 90
        1
176
     1
 90
        2
176
     1
 40
0.6
176
     1
 40
30.0
176
     1
 62
     7
420
 16777215
176
     1
 90
        1
176
     1
 90
        0
176
     1
 62
     7
176
     1
 62
   257
176
     1
 90
        1
176
     1
 90
        1
176
     1
 40
1.0
176
     1
 90
        0
176
     1
 62
   257
176
     1
 40
1.0
176
     1
 90
        1
176
     1
 90
        6
176
     1
 90
        2
176
     1
 62
     7
176
     1
 90
        5
176
     1
 90
        0
176
     1
 90
        0
176
     1
290
     0
176
     1
 90
       13
176
     1
 40
0.0
176
     1
 90
        0
176
     1
290
     0
176
     1
290
     1
176
     1
290
     1
176
     1
290
     0
176
     1
290
     0
176
     1
290
     0
176
     1
290
     0
176
     1
290
     0
176
     1
290
     0
176
     1
 90
       50
176
     1
 40
0.0
176
     1
 40
1.0
176
     1
 90
        0
176
     1
 62
    18
420
        0
176
     1
 90
       50
176
     1
 90
        3
176
     1
 62
     5
420
      255
176
     1
290
     0
176
     1
 90
       50
176
     1
 90
       50
176
     1
 90
       50
176
     1
290
     0
176
     1
 90
       50
176
     1
 62
   256
176
     0
 40
1.0
176
     0
 90
        2
176
     1
  1
strokes_ogs.tif
176
     1
290
     0
176
     1
 40
1.0
176
     1
 40
1.0
176
     1
  0
VISUALSTYLE
  5
A1
102
{ACAD_REACTORS
330
99
102
}
330
99
100
AcDbVisualStyle
  2
Hidden
 70
     6
177
     3
291
     0
 70
    58
 90
        1
176
     1
 90
        2
176
     1
 90
        2
176
     1
 90
        0
176
     1
 40
0.6
176
     1
 40
30.0
176
     1
 62
     7
420
 16777215
176
     1
 90
        2
176
     1
 90
        2
176
     1
 62
     7
176
     1
 62
   257
176
     1
 90
        2
176
     1
 90
        1
176
     1
 40
40.0
176
     1
 90
        0
176
     1
 62
   257
176
     1
 40
1.0
176
     1
 90
        1
176
     1
 90
        6
176
     1
 90
        2
176
     1
 62
     7
176
     1
 90
        3
176
     1
 90
        0
176
     1
 90
        0
176
     1
290
     0
176
     1
 90
        1
176
     1
 40
0.0
176
     1
 90
        0
176
     1
290
     0
176
     1
290
     1
176
     1
290
     1
176
     1
290
     0
176
     1
290
     0
176
     1
290
     0
176
     1
290
     0
176
     1
290
     0
176
     1
290
     0
176
     1
 90
       50
176
     1
 40
0.0
176
     1
 40
1.0
176
     1
 90
        0
176
     1
 62
    18
420
        0
176
     1
 90
       50
176
     1
 90
        3
176
     1
 62
     5
420
      255
176
     1
290
     0
176
     1
 90
       50
176
     1
 90
       50
176
     1
 90
       50
176
     1
290
     0
176
     1
 90
       50
176
     1
 62
   256
176
     0
 40
1.0
176
     0
 90
        2
176
     1
  1
strokes_ogs.tif
176
     1
290
     0
176
     1
 40
1.0
176
     1
 40
1.0
176
     1
  0
VISUALSTYLE
  5
173
102
{ACAD_REACTORS
330
99
102
}
330
99
100
AcDbVisualStyle
  2
JitterOff
 70
    20
177
     3
291
     1
 70
    58
 90
        2
176
     0
 90
        2
176
     0
 90
        0
176
     0
 90
        0
176
     0
 40
0.6
176
     0
 40
30.0
176
     0
 62
     7
420
 16777215
176
     0
 90
        1
176
     0
 90
        4
176
     0
 62
     7
176
     0
 62
   257
176
     0
 90
        1
176
     0
 90
        1
176
     0
 40
1.0
176
     0
 90
       10
176
     2
 62
     7
176
     0
 40
1.0
176
     0
 90
        1
176
     0
 90
        6
176
     0
 90
        2
176
     0
 62
     7
176
     0
 90
        5
176
     0
 90
        0
176
     0
 90
        0
176
     0
290
     0
176
     0
 90
        1
176
     0
 40
0.0
176
     0
 90
        0
176
     0
290
     0
176
     1
290
     1
176
     1
290
     1
176
     1
290
     0
176
     1
290
     0
176
     1
290
     0
176
     1
290
     0
176
     1
290
     0
176
     1
290
     0
176
     1
 90
       50
176
     1
 40
0.0
176
     1
 40
1.0
176
     1
 90
        0
176
     1
 62
    18
420
        0
176
     1
 90
       50
176
     1
 90
        3
176
     1
 62
     5
420
      255
176
     1
290
     0
176
     1
 90
       50
176
     1
 90
       50
176
     1
 90
       50
176
     1
290
     0
176
     1
 90
       50
176
     1
 62
   256
176
     0
 40
1.0
176
     0
 90
        2
176
     1
  1
strokes_ogs.tif
176
     1
290
     0
176
     1
 40
1.0
176
     1
 40
1.0
176
     1
  0
VISUALSTYLE
  5
A7
102
{ACAD_REACTORS
330
99
102
}
330
99
100
AcDbVisualStyle
  2
Linepattern
 70
    14
177
     3
291
     1
 70
    58
 90
        2
176
     1
 90
        2
176
     1
 90
        1
176
     1
 90
        0
176
     1
 40
0.6
176
     1
 40
30.0
176
     1
 62
     7
420
 16777215
176
     1
 90
        1
176
     1
 90
        4
176
     1
 62
     7
176
     1
 62
   257
176
     1
 90
        7
176
     1
 90
        7
176
     1
 40
1.0
176
     1
 90
        8
176
     1
 62
     7
176
     1
 40
1.0
176
     1
 90
        1
176
     1
 90
        6
176
     1
 90
        2
176
     1
 62
     7
176
     1
 90
        5
176
     1
 90
        0
176
     1
 90
        0
176
     1
290
     0
176
     1
 90
        1
176
     1
 40
0.0
176
     1
 90
        0
176
     1
290
     0
176
     1
290
     1
176
     1
290
     1
176
     1
290
     0
176
     1
290
     0
176
     1
290
     0
176
     1
290
     0
176
     1
290
     0
176
     1
290
     0
176
     1
 90
       50
176
     1
 40
0.0
176
     1
 40
1.0
176
     1
 90
        0
176
     1
 62
    18
420
        0
176
     1
 90
       50
176
     1
 90
        3
176
     1
 62
     5
420
      255
176
     1
290
     0
176
     1
 90
       50
176
     1
 90
       50
176
     1
 90
       50
176
     1
290
     0
176
     1
 90
       50
176
     1
 62
   256
176
     0
 40
1.0
176
     0
 90
        2
176
     1
  1
strokes_ogs.tif
176
     1
290
     0
176
     1
 40
1.0
176
     1
 40
1.0
176
     1
  0
VISUALSTYLE
  5
174
102
{ACAD_REACTORS
330
99
102
}
330
99
100
AcDbVisualStyle
  2
OverhangOff
 70
    21
177
     3
291
     1
 70
    58
 90
        2
176
     0
 90
        2
176
     0
 90
        0
176
     0
 90
        0
176
     0
 40
0.6
176
     0
 40
30.0
176
     0
 62
     7
420
 16777215
176
     0
 90
        1
176
     0
 90
        4
176
     0
 62
     7
176
     0
 62
   257
176
     0
 90
        1
176
     0
 90
        1
176
     0
 40
1.0
176
     0
 90
        9
176
     2
 62
     7
176
     0
 40
1.0
176
     0
 90
        1
176
     0
 90
        6
176
     0
 90
        2
176
     0
 62
     7
176
     0
 90
        5
176
     0
 90
        0
176
     0
 90
        0
176
     0
290
     0
176
     0
 90
        1
176
     0
 40
0.0
176
     0
 90
        0
176
     0
290
     0
176
     1
290
     1
176
     1
290
     1
176
     1
290
     0
176
     1
290
     0
176
     1
290
     0
176
     1
290
     0
176
     1
290
     0
176
     1
290
     0
176
     1
 90
       50
176
     1
 40
0.0
176
     1
 40
1.0
176
     1
 90
        0
176
     1
 62
    18
420
        0
176
     1
 90
       50
176
     1
 90
        3
176
     1
 62
     5
420
      255
176
     1
290
     0
176
     1
 90
       50
176
     1
 90
       50
176
     1
 90
       50
176
     1
290
     0
176
     1
 90
       50
176
     1
 62
   256
176
     0
 40
1.0
176
     0
 90
        2
176
     1
  1
strokes_ogs.tif
176
     1
290
     0
176
     1
 40
1.0
176
     1
 40
1.0
176
     1
  0
VISUALSTYLE
  5
A3
102
{ACAD_REACTORS
330
99
102
}
330
99
100
AcDbVisualStyle
  2
Realistic
 70
     8
177
     3
291
     0
 70
    58
 90
        2
176
     1
 90
        2
176
     1
 90
        0
176
     1
 90
        2
176
     1
 40
0.6
176
     1
 40
30.0
176
     1
 62
     7
420
 16777215
176
     1
 90
        0
176
     1
 90
        0
176
     1
 62
     7
176
     1
 62
   257
176
     1
 90
        1
176
     1
 90
        1
176
     1
 40
1.0
176
     1
 90
        8
176
     1
 62
   257
176
     1
 40
1.0
176
     1
 90
        1
176
     1
 90
        6
176
     1
 90
        2
176
     1
 62
     7
176
     1
 90
        3
176
     1
 90
        0
176
     1
 90
        0
176
     1
290
     0
176
     1
 90
       13
176
     1
 40
0.0
176
     1
 90
        0
176
     1
290
     0
176
     1
290
     1
176
     1
290
     1
176
     1
290
     0
176
     1
290
     0
176
     1
290
     0
176
     1
290
     0
176
     1
290
     0
176
     1
290
     0
176
     1
 90
       50
176
     1
 40
0.0
176
     1
 40
1.0
176
     1
 90
        0
176
     1
 62
    18
420
        0
176
     1
 90
       50
176
     1
 90
        3
176
     1
 62
     5
420
      255
176
     1
290
     0
176
     1
 90
       50
176
     1
 90
       50
176
     1
 90
       50
176
     1
290
     0
176
     1
 90
       50
176
     1
 62
   256
176
     0
 40
1.0
176
     0
 90
        2
176
     1
  1
strokes_ogs.tif
176
     1
290
     0
176
     1
 40
1.0
176
     1
 40
1.0
176
     1
  0
VISUALSTYLE
  5
182
102
{ACAD_REACTORS
330
99
102
}
330
99
100
AcDbVisualStyle
  2
Shaded
 70
    27
177
     3
291
     0
 70
    58
 90
        2
176
     1
 90
        2
176
     1
 90
        1
176
     1
 90
        2
176
     1
 40
0.6
176
     1
 40
30.0
176
     1
 62
     7
420
 16777215
176
     1
 90
        0
176
     1
 90
        4
176
     1
 62
     7
176
     1
 62
   257
176
     1
 90
        1
176
     1
 90
        1
176
     1
 40
1.0
176
     1
 90
        8
176
     1
 62
   257
176
     1
 40
1.0
176
     1
 90
        1
176
     1
 90
        6
176
     1
 90
        2
176
     1
 62
     8
420
  7895160
176
     1
 90
        3
176
     1
 90
        0
176
     1
 90
        0
176
     1
290
     0
176
     1
 90
        5
176
     1
 40
0.0
176
     1
 90
        0
176
     1
290
     0
176
     1
290
     1
176
     1
290
     1
176
     1
290
     0
176
     1
290
     0
176
     1
290
     0
176
     1
290
     0
176
     1
290
     0
176
     1
290
     0
176
     1
 90
       50
176
     1
 40
0.0
176
     1
 40
1.0
176
     1
 90
        0
176
     1
 62
    18
420
        0
176
     1
 90
       50
176
     1
 90
        3
176
     1
 62
     5
420
      255
176
     1
290
     0
176
     1
 90
       50
176
     1
 90
       50
176
     1
 90
       50
176
     1
290
     0
176
     1
 90
       50
176
     1
 62
   256
176
     0
 40
1.0
176
     0
 90
        2
176
     1
  1
strokes_ogs.tif
176
     1
290
     0
176
     1
 40
1.0
176
     1
 40
1.0
176
     1
  0
VISUALSTYLE
  5
181
102
{ACAD_REACTORS
330
99
102
}
330
99
100
AcDbVisualStyle
  2
Shaded with edges
 70
    26
177
     3
291
     0
 70
    58
 90
        2
176
     1
 90
        2
176
     1
 90
        1
176
     1
 90
        2
176
     1
 40
0.6
176
     1
 40
30.0
176
     1
 62
     7
420
 16777215
176
     1
 90
        1
176
     1
 90
        2
176
     1
 62
     7
176
     1
 62
   257
176
     1
 90
        2
176
     1
 90
        1
176
     1
 40
1.0
176
     1
 90
        8
176
     1
 62
   257
176
     1
 40
1.0
176
     1
 90
        1
176
     1
 90
        6
176
     1
 90
        2
176
     1
 62
     7
176
     1
 90
        3
176
     1
 90
        0
176
     1
 90
        0
176
     1
290
     0
176
     1
 90
        5
176
     1
 40
0.0
176
     1
 90
        0
176
     1
290
     0
176
     1
290
     1
176
     1
290
     1
176
     1
290
     0
176
     1
290
     0
176
     1
290
     0
176
     1
290
     0
176
     1
290
     0
176
     1
290
     0
176
     1
 90
       50
176
     1
 40
0.0
176
     1
 40
1.0
176
     1
 90
        0
176
     1
 62
    18
420
        0
176
     1
 90
       50
176
     1
 90
        3
176
     1
 62
     5
420
      255
176
     1
290
     0
176
     1
 90
       50
176
     1
 90
       50
176
     1
 90
       50
176
     1
290
     0
176
     1
 90
       50
176
     1
 62
   256
176
     0
 40
1.0
176
     0
 90
        2
176
     1
  1
strokes_ogs.tif
176
     1
290
     0
176
     1
 40
1.0
176
     1
 40
1.0
176
     1
  0
VISUALSTYLE
  5
17E
102
{ACAD_REACTORS
330
99
102
}
330
99
100
AcDbVisualStyle
  2
Shades of Gray
 70
    23
177
     3
291
     0
 70
    58
 90
        2
176
     1
 90
        2
176
     1
 90
        3
176
     1
 90
        0
176
     1
 40
0.6
176
     1
 40
30.0
176
     1
 62
     7
420
 16777215
176
     1
 90
        2
176
     1
 90
        2
176
     1
 62
     7
176
     1
 62
     7
176
     1
 90
        1
176
     1
 90
        1
176
     1
 40
40.0
176
     1
 90
        8
176
     1
 62
     7
176
     1
 40
1.0
176
     1
 90
        1
176
     1
 90
        6
176
     1
 90
        2
176
     1
 62
     7
176
     1
 90
        3
176
     1
 90
        0
176
     1
 90
        0
176
     1
290
     0
176
     1
 90
        1
176
     1
 40
0.0
176
     1
 90
        0
176
     1
290
     0
176
     1
290
     1
176
     1
290
     1
176
     1
290
     0
176
     1
290
     0
176
     1
290
     0
176
     1
290
     0
176
     1
290
     0
176
     1
290
     0
176
     1
 90
       50
176
     1
 40
0.0
176
     1
 40
1.0
176
     1
 90
        0
176
     1
 62
    18
420
        0
176
     1
 90
       50
176
     1
 90
        3
176
     1
 62
     5
420
      255
176
     1
290
     0
176
     1
 90
       50
176
     1
 90
       50
176
     1
 90
       50
176
     1
290
     0
176
     1
 90
       50
176
     1
 62
   256
176
     0
 40
1.0
176
     0
 90
        2
176
     1
  1
strokes_ogs.tif
176
     1
290
     0
176
     1
 40
1.0
176
     1
 40
1.0
176
     1
  0
VISUALSTYLE
  5
17F
102
{ACAD_REACTORS
330
99
102
}
330
99
100
AcDbVisualStyle
  2
Sketchy
 70
    24
177
     3
291
     0
 70
    58
 90
        1
176
     1
 90
        2
176
     1
 90
        2
176
     1
 90
        0
176
     1
 40
0.6
176
     1
 40
30.0
176
     1
 62
     7
420
 16777215
176
     1
 90
        2
176
     1
 90
        2
176
     1
 62
     7
176
     1
 62
     7
176
     1
 90
        1
176
     1
 90
        1
176
     1
 40
40.0
176
     1
 90
       11
176
     1
 62
     7
176
     1
 40
1.0
176
     1
 90
        1
176
     1
 90
        6
176
     1
 90
        2
176
     1
 62
     7
176
     1
 90
        6
176
     1
 90
        0
176
     1
 90
        0
176
     1
290
     0
176
     1
 90
        1
176
     1
 40
0.0
176
     1
 90
        0
176
     1
290
     0
176
     1
290
     1
176
     1
290
     1
176
     1
290
     0
176
     1
290
     0
176
     1
290
     0
176
     1
290
     0
176
     1
290
     0
176
     1
290
     0
176
     1
 90
       50
176
     1
 40
0.0
176
     1
 40
1.0
176
     1
 90
        0
176
     1
 62
    18
420
        0
176
     1
 90
       50
176
     1
 90
        3
176
     1
 62
     5
420
      255
176
     1
290
     0
176
     1
 90
       50
176
     1
 90
       50
176
     1
 90
       50
176
     1
290
     0
176
     1
 90
       50
176
     1
 62
   256
176
     0
 40
1.0
176
     0
 90
        2
176
     1
  1
strokes_ogs.tif
176
     1
290
     0
176
     1
 40
1.0
176
     1
 40
1.0
176
     1
  0
VISUALSTYLE
  5
A6
102
{ACAD_REACTORS
330
99
102
}
330
99
100
AcDbVisualStyle
  2
Thicken
 70
    13
177
     3
291
     1
 70
    58
 90
        2
176
     1
 90
        2
176
     1
 90
        1
176
     1
 90
        0
176
     1
 40
0.6
176
     1
 40
30.0
176
     1
 62
     7
420
 16777215
176
     1
 90
        1
176
     1
 90
        4
176
     1
 62
     7
176
     1
 62
   257
176
     1
 90
        1
176
     1
 90
        1
176
     1
 40
1.0
176
     1
 90
       12
176
     1
 62
     7
176
     1
 40
1.0
176
     1
 90
        1
176
     1
 90
        6
176
     1
 90
        2
176
     1
 62
     7
176
     1
 90
        5
176
     1
 90
        0
176
     1
 90
        0
176
     1
290
     0
176
     1
 90
        1
176
     1
 40
0.0
176
     1
 90
        0
176
     1
290
     0
176
     1
290
     1
176
     1
290
     1
176
     1
290
     0
176
     1
290
     0
176
     1
290
     0
176
     1
290
     0
176
     1
290
     0
176
     1
290
     0
176
     1
 90
       50
176
     1
 40
0.0
176
     1
 40
1.0
176
     1
 90
        0
176
     1
 62
    18
420
        0
176
     1
 90
       50
176
     1
 90
        3
176
     1
 62
     5
420
      255
176
     1
290
     0
176
     1
 90
       50
176
     1
 90
       50
176
     1
 90
       50
176
     1
290
     0
176
     1
 90
       50
176
     1
 62
   256
176
     0
 40
1.0
176
     0
 90
        2
176
     1
  1
strokes_ogs.tif
176
     1
290
     0
176
     1
 40
1.0
176
     1
 40
1.0
176
     1
  0
VISUALSTYLE
  5
A0
102
{ACAD_REACTORS
330
99
102
}
330
99
100
AcDbVisualStyle
  2
Wireframe
 70
     5
177
     3
291
     0
 70
    58
 90
        0
176
     1
 90
        2
176
     1
 90
        0
176
     1
 90
        0
176
     1
 40
0.6
176
     1
 40
30.0
176
     1
 62
     7
420
 16777215
176
     1
 90
        1
176
     1
 90
        4
176
     1
 62
     7
176
     1
 62
   257
176
     1
 90
        1
176
     1
 90
        1
176
     1
 40
1.0
176
     1
 90
        0
176
     1
 62
   257
176
     1
 40
1.0
176
     1
 90
        1
176
     1
 90
        6
176
     1
 90
        2
176
     1
 62
     7
176
     1
 90
        3
176
     1
 90
        0
176
     1
 90
        0
176
     1
290
     0
176
     1
 90
        1
176
     1
 40
0.0
176
     1
 90
        0
176
     1
290
     0
176
     1
290
     1
176
     1
290
     1
176
     1
290
     0
176
     1
290
     0
176
     1
290
     0
176
     1
290
     0
176
     1
290
     0
176
     1
290
     0
176
     1
 90
       50
176
     1
 40
0.0
176
     1
 40
1.0
176
     1
 90
        0
176
     1
 62
    18
420
        0
176
     1
 90
       50
176
     1
 90
        3
176
     1
 62
     5
420
      255
176
     1
290
     0
176
     1
 90
       50
176
     1
 90
       50
176
     1
 90
       50
176
     1
290
     0
176
     1
 90
       50
176
     1
 62
   256
176
     0
 40
1.0
176
     0
 90
        2
176
     1
  1
strokes_ogs.tif
176
     1
290
     0
176
     1
 40
1.0
176
     1
 40
1.0
176
     1
  0
VISUALSTYLE
  5
180
102
{ACAD_REACTORS
330
99
102
}
330
99
100
AcDbVisualStyle
  2
X-Ray
 70
    25
177
     3
291
     0
 70
    58
 90
        2
176
     1
 90
        2
176
     1
 90
        1
176
     1
 90
        1
176
     1
 40
0.5
176
     1
 40
30.0
176
     1
 62
     7
420
 16777215
176
     1
 90
        1
176
     1
 90
        0
176
     1
 62
     7
176
     1
 62
   257
176
     1
 90
        1
176
     1
 90
        1
176
     1
 40
1.0
176
     1
 90
        8
176
     1
 62
     7
176
     1
 40
1.0
176
     1
 90
        1
176
     1
 90
        6
176
     1
 90
        2
176
     1
 62
     7
176
     1
 90
        3
176
     1
 90
        0
176
     1
 90
        0
176
     1
290
     0
176
     1
 90
       13
176
     1
 40
0.0
176
     1
 90
        0
176
     1
290
     0
176
     1
290
     1
176
     1
290
     1
176
     1
290
     0
176
     1
290
     0
176
     1
290
     0
176
     1
290
     0
176
     1
290
     0
176
     1
290
     0
176
     1
 90
       50
176
     1
 40
0.0
176
     1
 40
1.0
176
     1
 90
        0
176
     1
 62
    18
420
        0
176
     1
 90
       50
176
     1
 90
        3
176
     1
 62
     5
420
      255
176
     1
290
     0
176
     1
 90
       50
176
     1
 90
       50
176
     1
 90
       50
176
     1
290
     0
176
     1
 90
       50
176
     1
 62
   256
176
     0
 40
1.0
176
     0
 90
        2
176
     1
  1
strokes_ogs.tif
176
     1
290
     0
176
     1
 40
1.0
176
     1
 40
1.0
176
     1
  0
DICTIONARYVAR
  5
F0
102
{ACAD_REACTORS
330
66
102
}
330
66
100
DictionaryVariables
280
     0
  1
1:1
  0
DICTIONARYVAR
  5
EF
102
{ACAD_REACTORS
330
66
102
}
330
66
100
DictionaryVariables
280
     0
  1
STANDARD
  0
DICTIONARYVAR
  5
89
102
{ACAD_REACTORS
330
66
102
}
330
66
100
DictionaryVariables
280
     0
  1
STANDARD
  0
DICTIONARYVAR
  5
1B7
102
{ACAD_REACTORS
330
66
102
}
330
66
100
DictionaryVariables
280
     0
  1
Imperial24
  0
DICTIONARYVAR
  5
1B8
102
{ACAD_REACTORS
330
66
102
}
330
66
100
DictionaryVariables
280
     0
  1
Imperial24
  0
DICTIONARYVAR
  5
67
102
{ACAD_REACTORS
330
66
102
}
330
66
100
DictionaryVariables
280
     0
  1
2
  0
DICTIONARYVAR
  5
6B
102
{ACAD_REACTORS
330
66
102
}
330
66
100
DictionaryVariables
280
     0
  1
1
  0
DICTIONARYVAR
  5
14D
102
{ACAD_REACTORS
330
66
102
}
330
66
100
DictionaryVariables
280
     0
  1
0
  0
DICTIONARYVAR
  5
14E
102
{ACAD_REACTORS
330
66
102
}
330
66
100
DictionaryVariables
280
     0
  1
0
  0
DICTIONARY
  5
194
330
22
100
AcDbDictionary
280
     1
281
     1
  0
DICTIONARY
  5
188
330
97
100
AcDbDictionary
280
     1
281
     1
  3
FBXASSET
360
189
  0
DICTIONARY
  5
186
330
96
100
AcDbDictionary
280
     1
281
     1
  3
FBXASSET
360
187
  0
DICTIONARY
  5
110
330
98
100
AcDbDictionary
280
     1
281
     1
  3
BUMPTILE
360
112
  3
DIFFUSETILE
360
111
  3
FBXASSET
360
18A
  3
OPACITYTILE
360
113
  3
REFLECTIONTILE
360
114
  0
DICTIONARY
  5
104
330
87
100
AcDbDictionary
280
     1
281
     1
  3
ACAD_ROUNDTRIP_2008_TABLESTYLE_CELLSTYLEMAP
360
2FD60
  0
XRECORD
  5
189
102
{ACAD_REACTORS
330
188
102
}
330
188
100
AcDbXrecord
280
     1
 70
     1
 90
429727718
  1
508B35C9-AEE7-456F-BE74-D52651303AC6
310
504B03040A0000080000B670623B3DEE336E79000000790000001B0000006175746F6465736B2D64657369676E2D7061636B6167652E786D6C3C3F786D6C2076657273696F6E3D22312E302220656E636F64696E673D227574662D3822203F3E3C666F726D6174733E3C666F726D61743E687474703A2F2F736368656D612E
310
6175746F6465736B2E636F6D2F64657369676E2D7061636B6167652F323030393C2F666F726D61743E3C2F666F726D6174733E504B0304140006080800B670623BD486FD9CA0000000F4000000130000005B436F6E74656E745F54797065735D2E786D6C7D8EC10E82300C865F65E91D8A1E8C310C0EEA1BF002731658846E
310
D98AC1B77784ABF1D8FE5FBFBF75BBCE937A534CCEB38643598122B6FEE978D0B0485F9C41B54DDD7D022595594E1A469170414C76A4D9A4D207E29CF43ECE46F218070CC6BECC4078ACAA135ACF422C856C0E68EA1BF5669944DDD7BCDE7B1F8E415D77AECB980613C2E4AC91FC167A2B244592486606FC29C8FD7F045B9A
310
EF7053A7E60B504B0304140006080800B670623B28ED286BEB0000007C01000008000000636F72652E786D6C8D90416EC3201045AF82665B6183218D6D61A254764FD00B204C5C94182C03558F5F9C3852BBEB6A467FFE9B197D71FA9E6FE8CBACC17AD7012D0820E3B41FAD9B3A48F1826B40272956EFE32F1B20A766D3C1
310
268314D3EAD3B24BDABB685CCCAAF3A3D94515828980F42D371D04FD696655A814B3235C8B45E9AB9A4C419F5D8653B2237A1CB163DE672FD6AC209BF3C08E0D1B30EB19C3FC9D72FCC6EB231EFA33EDE96BDD341517E5064B11EDFCBCAF57A3A2194156843498524CAA0FCA5B7268F9E185D42D21A2DCEC7FA0B48CFF8492
310
759155FBBB0F2C80A4F991FB408A72CB22977B50B96EB9C91F504B0304140006080800B670623B55019EA25F0000007C00000007000000636E782E786D6C4DCB3B0E80201045D1AD90E915ED2CF8AC45050C11660C8261F98AB1B07AC9C97D42D718D865D3E909258CFD00CCE24AC6E326A164D74DC0B4128928FF32603847
310
2BA13128B1252AC747C6BAB984FC68F0B87FE8960A5C09FE86CFB69FBA01504B0304140006080800B670623B7BC41AC871010000D40300000C0000006662782F636F72652E786D6CC553ED6E8320147D15C2DF4501B56B6D90A64BBB27D80B50A5CE54C120983EFEAE1F4DD7A56BBA5FF3879273EEE59E7310BE393735EA95
310
ED2AA333CC428A91D2B9292A5D66D8BB63B0C26823B835C67D2BC348CB46657880B1E0A535BE9DA1DC68A7B403549B42CDA0EC3AE530CA6B5864B8CB3F552343E91D5474A7B095F949962A6421D0502778E72C0840D390E18DC5F170E664C205F7BE2A66B62A605A75AC94C522DDEEE3651AEF837817C741F2CE92E02D592D
310
83FD6ECB76EC7595A651C2C9D02CB8AB9A8BBADC2AE954814544691A3016D0E883256BBA58278B17BA5A53CAC9507ED3E4DBE2C9265F691747B3DCA9ADC382819091F8E1162272A8933DE82182932144F88C09DF060D8140C84E1EEA8B8F1340BDCA9DB1093085F157AA97B557309586747CD0EF0B4EA64E983A6E0EAEEFCE
310
889E9EF17847386AA94B30211D2C0FDE0D3AF9A4610EAD5536E8DD1969631B593F67E381C33F5157F17725E5A636F6BF1491F980C8FC7B90E13E8A2F504B0304140006080800B670623B70102A487D0000009D0000000B0000006662782F636E782E786D6C4DCCD10A83201886E15B91FFDC95A5C30335ACCDFB886521330D
310
A76397BF1A1DECE883878F57749FD5A3B74D2F17830472A901D9F088930B8B849267CC01754AA418F3DF0D5018572BE160506249B16C274D761E8BCFBB7A179E27F65CB39A0F14D396184C9921B81F34C3ACA1B4B99ABB6E6F062A25AA5F69DF23ACBE504B0304140006080800B670623B3610CA3329010000120200003100
310
00006662782F42384135303843342D343331462D343546312D424341352D3532343432364645413344462F636F72652E786D6C8D515B6EC32010BC0AE22B55850D0E446E848992B43E412FE000495162B07854397EA176A4F62F3F2C9A9D991D58BEBB8F37F0AD7D30CE76905418026DA553C65E3A98E219B510EC04F7CEC5
310
3F3408EC30EA0E16180A7EF12E4D0B249D8DDAC68C5AA7F4020E21E80881BCE54B0783FCD2E3500D296646B856D320AFC34557A4CAEDCC133C449F0380794839A138B47B86DB2345744D7A44594FD0E1B867883594369BFE63BF7EEF793D0B054FC9A8456E548E63CE46FB674D8A58F068C6477CE9F510B582A2C1F80D1182
310
70F349E816B32D65AFB8DD62CCEB42FF274A937A52948C8DEB66893BCB021484D7734370E5D2E9F608A3EF93F3119479ABA0E50B14B8C298119A43CCC4FCFCECB8A18B6388CEE7EF5D5D4F994BD86CBBA182D76543B9FCAE2FD7B24DF103504B0304140006080800B670623B1B8617914E0100003303000030000000666278
310
2F42384135303843342D343331462D343546312D424341352D3532343432364645413344462F636E782E786D6CD593C16EC32010447F0571AD6CE3D489D20813A9877E410FBD62D82434182CC055F3F75D1292E692438FBD206B7698593D61BEFD1E2DF982108D773D6D6B460938E5B571FB9ECE6957AD29D90A1EBC4F7736
310
4A9C1CA1A759A682EF839FA72269D8C9D92654AD71C72206887E0E0A22CAF926B15E498B01E0AA19451807D01A34B919F16B070157417138917400F2F6FA41FCF0092A45DEE414C19BDC21783E4BD39D891265658C3D8DEA00A3ACE59CBC8678ACB54CB26EEB6BD7839D7E9348BE70AD9C8321B9BCA7F9A4A26C542347DEE0
310
50F09802D22BA6749A800A394DD62899107273365E3C82CFC6A55557BC06C10774B7ABE7AEC3B0F34CF06446280E154026D0542C187BA9DAB6628BF7B6DBB0E5A65B3EB1F58631DE64BBE083F7B65CC218087E22CABB042E51D1F2268F1FE12B3EA24D40D63E9CFE00120194D60B9D5BC67FE6D39CDF37E20AF817881F504B
310
0304140006080800B670623BBFEF2E3B690500003C100000340000006662782F42384135303843342D343331462D343546312D424341352D3532343432364645413344462F6F626A656374732E786D6CAD575D739B3814FD2B0CFB0C98D84E931D4227B6938EA793B6534F3BFB90198F0099B001899144EAECAFDF231018B0
310
D37A3FFC609090EEE7B94757C1FB7D915B2F54C88CB31BDB7727B64559CC938CA53776A576CE956DBD0F03C1B9EA2DB32D460A7A63EB693B0C52C1ABD24C257447AA5C8D66EF177F5832A68CDA569C13296F6C193FD182B8A4523CA1F2D94D88226EBADBBBBEDB2C1C8A4D05299F46424B222853B014F30C52ACC6287F389C
310
D85E1878FA7B18E87FB36AFAF62AAFF667A83F635211161F291B8999FAB3D5DDC5FCDA99CF6653677679E13B8BFBC5CAF1DF4D27CBCBE5F2FAF6EE1A8AA51290642C117467871F101B91C581D77CEA2C36869F3229E68CD1B8F61F1ED6361B89092D294B90C78C4A68EB793D190E7D1D9BDEE7A91E1B95FDE9F3BCEAEFE809
310
6A6D6F9F7D4B79F4275C90E7A04248AA51D5C4C738DAE06F72885AC4796EBE65D22A88A22223B995679120E2D50EB1542F098381188D4EA111AE3DB043FF20AF6F2B4AE3D7D83D65E5AECA730D4D3BAC91BD05FEA992B565D95F549CD6069B90AB2A63EACA38A45E4B6A87D781574F86817E4C2FCCC72690D62E2729520E37
310
9BAF234797BAF6D62B3BFC781FED37BA1E4F2B2F052FA9501A3E80569BB8F6A9A364D4FA67654E6F803383981F82F21591FF84F23D9882BC896C3FDBCF8C162508933B2E0AE4C69DD43F6BD2BE38DDDBF10BF86CB4FA784D37F3AF16075E67EC9030DECA1FC0A55373F5DFF3378C591FA9BDF485C10B0A8C8BA909E5262639
310
A8E72163488806A595734C81CB77D1DE0ED7604A303B76913CEC0272F412782FF88EFF4636D8AA56DF7B322474C4B767303F625997056C7B032C473C592B36CEBD15F3F9FF5233B7ABCDC74D257624A60F8658567497B14CE1EC3C80B76FD02011038F9EE9EB0F2E12387A9C844D3F09855125116D1D731DF8B43D2CF4E0A0
310
79A020C6BE946BCE0B7EA1E1219331CD73C228AF5A2DDD31A4B1DA918CE91350854D40A71723140BFA92E94E62B0626016CEFA5864A50E5977E8753CEDBEE1CBB7F52780D20E17AF0BA0F5F9B02A3AD07DCC732EB6D1EBB661421BE0C39E21BABF0FE16D22EA6929407C8DE596724C88B749B6DB5512BC7B228ADFD7CB7EA6
310
3A22397E690BA8D5D8D4E40CEC8CDA23C2C0B7D5898640101CEC9C6D331CE328CB93CAFBBAC70A642DF70DF95155945B52F08AA973C23469FD69ADEF84F7BB18F983A8F8C90E37F5D35980B2139A1C523540813E824EF83448CF7C72B598CE97D7CEEDDDDD3B6736BFBC771677EF66CE6A7E7139F7A793E9EDF2B2B3A8B624
310
0CDA13AA5F8388264EC4A0129909F3B7F5A16CEDF08128E97D680ACA4B9BE7B7B58BB638F0B00700EF36AE8B32A705658A68F83EE897FC2B41573190D1CCAF0B92D233A47CFEB019D9809933F67DD1A5467F8CF69AD9A5AE859342D45355448C64F968A371DC2D596ADC6E43D93D1B466F877A64E2893E54F23C4B40388995
310
525E5005DA3983ED45412510D3EFCA13737B3863F74BD30F2A12E5B4B5E489A025CE25500DB855B11ACE5BBFA185D35DD48D8DC3CE7DC69F2944DB42AA6F6CF09BCA622ADD08C7A36E7C6AE18000BAB08E040135C2D21C9D75B3A91B77BB746C403F38018DFE6EC939DD92F16B40BC05294B9CDA035AAD6D330AE27FE4786B
310
8E45145EA34A75BE1C263A676A35A8ACC6297337400BF16C54EF515F3F77CB77EB3583889C754FFA29081AA98E2222ADEF05DA3E63D2EDEA8B8756C05A7FB6CABC4A91CBF325398202CC952E70A008A830324BA200D5E5EF8F5F04C75DB4B0EE3340E071C98B823333B83577596BF3849B69F2085AA0FAFA212F26BEFF5877
310
FDE622B28D88A42E49E43326DA82D31E8CB006401E1DA726059ECEC168F97A6599036306A135688F9AD2E61A6EA178F4CD51974A9F2CCB9F36FE5EBD14601068D9C3BF01504B0304140006080000B670623B000000000000000000000000350000006662782F42384135303843342D343331462D343546312D424341352D35
310
32343432364645413344462F76657274696365732E62696E504B0304140006080800B670623BF270F1330600000004000000360000006662782F42384135303843342D343331462D343546312D424341352D3532343432364645413344462F747269616E676C65732E62696E636660600000504B0304140006080000B67062
310
3B000000000000000000000000370000006662782F42384135303843342D343331462D343546312D424341352D3532343432364645413344462F617474726962757465732E62696E504B0304140006080800B670623B08DA0BD19000000041010000360000006662782F42384135303843342D343331462D343546312D4243
310
41352D3532343432364645413344462F6469726563746F72792E786D6C858F410AC3201045AF22B36F53E9A60B35CBEEBAE80D244E44489C6234F4F835464A48035D0DF398FF9F8AF63D0E6CC63039F212F8F9020C7D47C6792B21C5FE7403D62A1188E2E60C98D7234A5830286103A55745067B9D86B8A3CF9C7F90C11DE6
310
07FB144396D7B6A82D282E9A152AD114D5EF2CB866EEE831B8EEA07A7BB5A8D7D61A2BAAEB7FD5F70921FF497D00504B0304140006080800B670623B3B4606F3FE000000A00100003B0000006662782F42384135303843342D343331462D343546312D424341352D3532343432364645413344462F7265736F75726365732F
310
636F72652E786D6C8D504B6E833010BD0A9A6D65B08134808CA354A427E8052C332156828DFCA97AFC9A40A576D7CDCCE87D344F8F9FBEE647F689CE6B6B7A6039850C8DB2A336530F315C4903D94970676DF82583CCC8197B5861107C72362E3BA4AC096842428D1D7107A5F71820538F74F4E0D50D6799CB1892C2DFF345
310
AABB9C306779A2934E701F5C0A906D4FD609C2A1B7D129F4BCD858C163D4E3AED163FAA9AF1A1D88F67CA98E6D35906AA82A52BFB39ABCD5CD915C86331BD86BD3B665CD8BD52C78D0F34F46E550061C419494B6843142CB0F5677F4D0D58717DA7494F26295FF31C565FCA7296A13AA728FBBD93C0896823C09C18BB5AFB4
310
9E65A6BD762BBE01504B010214000A0000080000B670623B3DEE336E79000000790000001B00000000000000000000000000000000006175746F6465736B2D64657369676E2D7061636B6167652E786D6C504B01021400140006080800B670623BD486FD9CA0000000F40000001300000000000000000000000000B2000000
310
5B436F6E74656E745F54797065735D2E786D6C504B01021400140006080800B670623B28ED286BEB0000007C010000080000000000000000000000000083010000636F72652E786D6C504B01021400140006080800B670623B55019EA25F0000007C000000070000000000000000000000000094020000636E782E786D6C50
310
4B01021400140006080800B670623B7BC41AC871010000D40300000C00000000000000000000000000180300006662782F636F72652E786D6C504B01021400140006080800B670623B70102A487D0000009D0000000B00000000000000000000000000B30400006662782F636E782E786D6C504B01021400140006080800B6
310
70623B3610CA3329010000120200003100000000000000000000000000590500006662782F42384135303843342D343331462D343546312D424341352D3532343432364645413344462F636F72652E786D6C504B01021400140006080800B670623B1B8617914E010000330300003000000000000000000000000000D10600
310
006662782F42384135303843342D343331462D343546312D424341352D3532343432364645413344462F636E782E786D6C504B01021400140006080800B670623BBFEF2E3B690500003C10000034000000000000000000000000006D0800006662782F42384135303843342D343331462D343546312D424341352D35323434
310
32364645413344462F6F626A656374732E786D6C504B01021400140006080000B670623B0000000000000000000000003500000000000000000000000000280E00006662782F42384135303843342D343331462D343546312D424341352D3532343432364645413344462F76657274696365732E62696E504B010214001400
310
06080800B670623BF270F133060000000400000036000000000000000000000000007B0E00006662782F42384135303843342D343331462D343546312D424341352D3532343432364645413344462F747269616E676C65732E62696E504B01021400140006080000B670623B00000000000000000000000037000000000000
310
00000000000000D50E00006662782F42384135303843342D343331462D343546312D424341352D3532343432364645413344462F617474726962757465732E62696E504B01021400140006080800B670623B08DA0BD1900000004101000036000000000000000000000000002A0F00006662782F42384135303843342D3433
310
31462D343546312D424341352D3532343432364645413344462F6469726563746F72792E786D6C504B01021400140006080800B670623B3B4606F3FE000000A00100003B000000000000000000000000000E1000006662782F42384135303843342D343331462D343546312D424341352D3532343432364645413344462F72
310
65736F75726365732F636F72652E786D6C504B0506000000000E000E0080040000651100000000
  0
XRECORD
  5
187
102
{ACAD_REACTORS
330
186
102
}
330
186
100
AcDbXrecord
280
     1
 70
     1
 90
429727718
  1
887D55A9-D0DD-414E-B741-A7DCD4DA2B4C
310
504B03040A0000080000B670623B3DEE336E79000000790000001B0000006175746F6465736B2D64657369676E2D7061636B6167652E786D6C3C3F786D6C2076657273696F6E3D22312E302220656E636F64696E673D227574662D3822203F3E3C666F726D6174733E3C666F726D61743E687474703A2F2F736368656D612E
310
6175746F6465736B2E636F6D2F64657369676E2D7061636B6167652F323030393C2F666F726D61743E3C2F666F726D6174733E504B0304140006080800B670623BD486FD9CA0000000F4000000130000005B436F6E74656E745F54797065735D2E786D6C7D8EC10E82300C865F65E91D8A1E8C310C0EEA1BF002731658846E
310
D98AC1B77784ABF1D8FE5FBFBF75BBCE937A534CCEB38643598122B6FEE978D0B0485F9C41B54DDD7D022595594E1A469170414C76A4D9A4D207E29CF43ECE46F218070CC6BECC4078ACAA135ACF422C856C0E68EA1BF5669944DDD7BCDE7B1F8E415D77AECB980613C2E4AC91FC167A2B244592486606FC29C8FD7F045B9A
310
EF7053A7E60B504B0304140006080800B670623BBC1638F5EC0000007C01000008000000636F72652E786D6C8D90416EC3201045AF82665B61836BE2D8C24471DB9CA01740401C94182C03558F5F9C3852BBEB6A467FFE9B197D7EF89E6EE8CB2CC17AD7032D0820E394D7D68D3DA478C67B4007C117EFE32F1B202727D3C3
310
2A83E0E3E2D3BC49CABB685CCCAAF3DA6CA20CC14440EA969B1E82BA98491632C5EC08D76296EA2A4753D06797E194AC468F2356E77DF66CCD02825543D50CACC62D39ED70FDC68EB8FD68F6F8787A6784342D1DDA1D2F5758F068A7E77DB518198D065111D2624A31A93E69DD11D6D5EC85EC3B4278B9DAFF4069D6FF8492
310
75F1B5DADE7D600104CD8FDC0782976B16B9DC83CA75CD4DFC00504B0304140006080800B670623B55019EA25F0000007C00000007000000636E782E786D6C4DCB3B0E80201045D1AD90E915ED2CF8AC45050C11660C8261F98AB1B07AC9C97D42D718D865D3E909258CFD00CCE24AC6E326A164D74DC0B4128928FF326038
310
472BA13128B1252AC747C6BAB984FC68F0B87FE8960A5C09FE86CFB69FBA01504B0304140006080800B670623B3586FFB671010000D40300000C0000006662782F636F72652E786D6CC553ED6E8320147D15C2DF4541A76D6D90A6DDD627D80B50A4CE54C120983EFEAE1F4DD7A55BBA5FF3879273EEE59E7310B6393735EA
310
95ED2AA3731C851423A5A5292A5DE6D8BB63B0C268C39935C67D29C3488B46E578803167A535BE9D2169B453DA01AA4DA16650749D7218C91A1639EEE4876A4428BC838AEE14B6429E44A9C228041AEA38EB9C0501681A32BC313F1ECE8C4C3867DE57C5CC56054CAB8E95B298A7F12E5EEED224C8E87E11242FE936C8DE96
310
AB60BB7F4D295D66D12E5B30323473E6AAE6A24E5A259C2A308F29CD82280A68FC1E256B9AAE93F489AED694323294DF34F9B678B0C957DA3DC7B3DCA9ADC33C022123F1CD2D44E450277AD04338234388F01913BE0D1A0281909D38D4171F27807A259DB1093085F157AA17B557309586747CD0CF0B46A64E983A6E0EAEEF
310
CE881F9EF1FB8E70D44297604238581EBC1B74B249C31C5AAB6CD0BB33D2C636A27ECCC62F0EFF445DC5DF95244D6DEC7F2922F30191F9F720C37DE49F504B0304140006080800B670623B4220A0FF7D0000009D0000000B0000006662782F636E782E786D6C4DCCD10A83201886E15B91FFDCE542CB0335D0EC3E6259C84A
310
C3E9D8E5AF46073BFAE0E1E315DD675BD1DBA5978F41C2FD4600B9F088930F8B849267CC01754AA418F3DF0D50183727E164506249B1EC174D6E1ECB9A0F5D7D785E68DB8151CD286E5A5363CA6B8A39E90D36D40E96B086F55A43A544F52B1D7B86D517504B0304140006080800B670623B2FA3FEDE290100001202000031
310
0000006662782F45374635344235342D363743322D343832342D383044432D4334454645303536354442422F636F72652E786D6C8D515B6EC32010BC0AE22B55850D2E386E848994D7097A0117488A1283C5A3CAF10BB523B57FF961D1ECCCECC0F2ED7DBC816FED8371B687A4C210682B9D32F6D2C314CFA883602BB8772E
310
FEA141608751F7B0C050F08B77695A20E96CD43666D43AA5177008414708E42D5F7A18E4971E876A483133C2B59A06791D2EBA22556E679EE021FA1C00CC43CA09C5717D6274C7286AD7FB06D1AEA1A8C3873DDAD3E3E98859CB0EBB1DAF67A1E02919B5C88DCA71CCD968FFAC49110B1ECDF8882FBD1EA256503418BF2342
310
106E3E08DD60B6A1EC15771B8C795DE8FF4469524F8A92B1F1AD59E2CEB20005E1F5DC105CB9F4797B84D1F7C9F908CABC55D0F2050A5C61CC1AD2F27A26E6E767C7962E8E213A9FBF7775FDCC5CC266DB960A5E970DE5F2BBBE5CCB36C50F504B0304140006080800B670623B1B8617914E01000033030000300000006662
310
782F45374635344235342D363743322D343832342D383044432D4334454645303536354442422F636E782E786D6CD593C16EC32010447F0571AD6CE3D489D20813A9877E410FBD62D82434182CC055F3F75D1292E692438FBD206B7698593D61BEFD1E2DF982108D773D6D6B460938E5B571FB9ECE6957AD29D90A1EBC4F77
310
364A9C1CA1A759A682EF839FA72269D8C9D92654AD71C72206887E0E0A22CAF926B15E498B01E0AA19451807D01A34B919F16B070157417138917400F2F6FA41FCF0092A45DEE414C19BDC21783E4BD39D891265658C3D8DEA00A3ACE59CBC8678ACB54CB26EEB6BD7839D7E9348BE70AD9C8321B9BCA7F9A4A26C542347DE
310
E050F09802D22BA6749A800A394DD62899107273365E3C82CFC6A55557BC06C10774B7ABE7AEC3B0F34CF06446280E154026D0542C187BA9DAB6628BF7B6DBB0E5A65B3EB1F58631DE64BBE083F7B65CC218087E22CABB042E51D1F2268F1FE12B3EA24D40D63E9CFE00120194D60B9D5BC67FE6D39CDF37E20AF817881F50
310
4B0304140006080800B670623B29652116630500003C100000340000006662782F45374635344235342D363743322D343832342D383044432D4334454645303536354442422F6F626A656374732E786D6CAD575D739B3814FD2B0CFB0C989834C90EA1639B24E3E9A6EDD4D3CE3E64C623834CD8006224913AFDF57B040203
310
B65BEF871F0C12D2FD3CF7E8CA7FBFCB33E3957291B2E2D674ED8969D02262715A24B76625B7D6B569BC0F7CCE98EC2D338D82E4F4D654D366E0279C55A59E8AE99654991CCDDECFFF3444440B6A1A514684B83545F44C7362934AB2988A173B2692D8C97667BB76B3702836E1A47C1E092D09A78584A5982F20C5688C7287
310
C389E904BEA3BE07BEFAD7ABA6A75739B53F43FD69212429A20365233153D70BEF2E2E6FAC4BCF9B5ADEBB0BD79ADFCF43CBBD9A4E16EF168B9BD9DD0D140BC921495BC2E9D60C1E101B9E46BED37CEA2CD6861F3329624541A3DA7F7858DBAC25C6B4A4458C3CA654405BCFEBC970E8AAD8F43E4FD558ABEC4F9FE7557F47
310
4F506B7BFBEC5BCA367FC105710E2AB8A00A554D7CB4A30DFE26FBA86D18CBF4B75418399194A72433B274C3097F33032C554B027F2046A1932B842B0FCCC0DDCBEBDB8AD2F835768F59B9ADB24C41D30C6A64AF817F2A456D59FA83F2E3DA60137255A585BCD60EC9B7929AC18DEFD49381AF1ED30BFDB109A4B1CD488294
310
C3CDE6EBC8D185AABD6568061FEE37BB95AAC7E3CA4BCE4ACAA5820FA0D526AE7DAA2869B5EE5999531BE0CC20E6FBA07C41E43FA27CF7A6206F3CDD793B4F6B919C1462CB788EDCD893FA674CDA17AB7B3B7C019F8D561FAEE966FED562DFE98C1D12C6A9FC015C2A35D7FF3D7FC398F591DA4B5FE0BFA2C0189FEA50AE22
310
92817A1ED3020951A03432862970F976B33383259812CC8E5D240BBA801CBCF8CE2BBEE3BF910DB6AAD5F79E05123AE2DB33981FB1ACCB02B69D00CB014FD68AB573A7627EF9BFD4CC2C5C7D58557C4B22FAA88925A4DBB44825CECE3D78FB060D1231F0E885BE7D673C86A3874958F593906B5502D1563157814FDAC3420D
310
F69A070A22EC4B98E23CFF171A1E5311D12C23056555ABA53B8614563B92D17D02AAB009E8F46284624E5F53D5490C560CCCC2591FF1B45421EB0EBD8EA7ED13BE7C5D7E0428CD60FEF60779EB13E6664FF711CB185F6FDED60D139A001FF60CD1FD6D086F1D51474901E26B2CB794A343BC8ED3EDB612E0DD2351FCB65CF4
310
33D511C9E14B5B40ADC6A6263DB0336A8F700DDF56271A024E70B0B3629DE21847591E55DED73D56206AB927E46FAABC5C939C55853C274C93D69FD6FA4E78BF8B11DF898C9ECD60553FAD39283BA6F18984AA23E8884F83F45C5F5F859797B31B2B9C84A1E5B9DE9D35BFF25C6B76152E422F9C5DCC3D847F5801ED09D5AF
310
41441327A25FF15487F9EB725FB666F048A4701E9A827292E6F97569A32DF61DEC01C0BB8DCBBCCC684E0B49147C1FD54BF685A0AB18C868E6973949E819523E3DAC463660E68C7D9F55A9D1EFA3BD7A76A16AE1A810F95CE59B82A4D968A376DC2E8B44BBDD86B27B368CDE0ED548C7137DA860591A83706223A12CA712B4
310
7306DBF39C0A20A6DF95C7FAF670C6EED7A61F946493D1D6926782963813403548A78AE470DEF80D2D9CEAA26E4D1C76F60BFE74219A06527D6B82DF641A51616F703CAAC6A7160E08A00BEB4810A0274592A1B36E3675E36E978A0DE80727A0D6DF2D39A75BD27E0D8837276589537B40ABB56D5A41F48F1C6FCD3188C4EB
310
A6929D2FFB89CE995A4D00AE813BDD032DC48B56BD437DFDDC2DD7AED70C2272D63DE9A72068A45A92F0A4BE17A8A06B9366E16707AD80B1FC649459952097E74BB23805982B55E0401150A165964402AA8BDF9F3E7386BB686EDCA780C0D382E5392BF460A6EFB2C6EA1937D3F809B440D5F5435C4C5CF7A9EEFAF54564BD
310
2182DA24162F98680B4E7930C21A0079709CEAEB99A372305ABE0C0D7D6078105A83F6A0296DAEE1068A47DD1C55A9F4C9B2FC69E3EFD44B81028E963DF81B504B0304140006080000B670623B000000000000000000000000350000006662782F45374635344235342D363743322D343832342D383044432D433445464530
310
3536354442422F76657274696365732E62696E504B0304140006080800B670623BF270F1330600000004000000360000006662782F45374635344235342D363743322D343832342D383044432D4334454645303536354442422F747269616E676C65732E62696E636660600000504B0304140006080000B670623B00000000
310
0000000000000000370000006662782F45374635344235342D363743322D343832342D383044432D4334454645303536354442422F617474726962757465732E62696E504B0304140006080800B670623B08DA0BD19000000041010000360000006662782F45374635344235342D363743322D343832342D383044432D4334
310
454645303536354442422F6469726563746F72792E786D6C858F410AC3201045AF22B36F53E9A60B35CBEEBAE80D244E44489C6234F4F835464A48035D0DF398FF9F8AF63D0E6CC63039F212F8F9020C7D47C6792B21C5FE7403D62A1188E2E60C98D7234A5830286103A55745067B9D86B8A3CF9C7F90C11DE607FB144396
310
D7B6A82D282E9A152AD114D5EF2CB866EEE831B8EEA07A7BB5A8D7D61A2BAAEB7FD5F70921FF497D00504B0304140006080800B670623B6378F24DFF000000A00100003B0000006662782F45374635344235342D363743322D343832342D383044432D4334454645303536354442422F7265736F75726365732F636F72652E
310
786D6C8D504B6E833010BD0A9A6D65B0094E42641C85B639412F6099496225D8C89FAAC7AF09546A77DDCC8CDE47F3F4C4F16B7C149FE88371B603565228D06A37187BED20C50BD9437194C23B177FC9A0B06AC40E6618A4B87A97A615D2CE46B431A3D60DB8822A048C50E8473E3A08FA86A32A558A5911EEE5A4F45D5DB1
310
6465A6B34E8A107D0E502C4FE609D26370C96B0CA25A58295232C3AA3143FE692E063D485EF7F5AEE71BD2D2F39634AFFC44DAF7DD9E9CCE6F9CD25DCBFA762BAAD92C4534E34F46ED51451C40D694B6843142EB0FD61C283F34FC85EE0F948A6A96FF31A569F8A729191B37F51A77B105902C0779125254735F793DCBCC7B
310
EE567E03504B010214000A0000080000B670623B3DEE336E79000000790000001B00000000000000000000000000000000006175746F6465736B2D64657369676E2D7061636B6167652E786D6C504B01021400140006080800B670623BD486FD9CA0000000F40000001300000000000000000000000000B20000005B436F6E
310
74656E745F54797065735D2E786D6C504B01021400140006080800B670623BBC1638F5EC0000007C010000080000000000000000000000000083010000636F72652E786D6C504B01021400140006080800B670623B55019EA25F0000007C000000070000000000000000000000000095020000636E782E786D6C504B010214
310
00140006080800B670623B3586FFB671010000D40300000C00000000000000000000000000190300006662782F636F72652E786D6C504B01021400140006080800B670623B4220A0FF7D0000009D0000000B00000000000000000000000000B40400006662782F636E782E786D6C504B01021400140006080800B670623B2F
310
A3FEDE290100001202000031000000000000000000000000005A0500006662782F45374635344235342D363743322D343832342D383044432D4334454645303536354442422F636F72652E786D6C504B01021400140006080800B670623B1B8617914E010000330300003000000000000000000000000000D2060000666278
310
2F45374635344235342D363743322D343832342D383044432D4334454645303536354442422F636E782E786D6C504B01021400140006080800B670623B29652116630500003C10000034000000000000000000000000006E0800006662782F45374635344235342D363743322D343832342D383044432D4334454645303536
310
354442422F6F626A656374732E786D6C504B01021400140006080000B670623B0000000000000000000000003500000000000000000000000000230E00006662782F45374635344235342D363743322D343832342D383044432D4334454645303536354442422F76657274696365732E62696E504B01021400140006080800
310
B670623BF270F13306000000040000003600000000000000000000000000760E00006662782F45374635344235342D363743322D343832342D383044432D4334454645303536354442422F747269616E676C65732E62696E504B01021400140006080000B670623B0000000000000000000000003700000000000000000000
310
000000D00E00006662782F45374635344235342D363743322D343832342D383044432D4334454645303536354442422F617474726962757465732E62696E504B01021400140006080800B670623B08DA0BD190000000410100003600000000000000000000000000250F00006662782F45374635344235342D363743322D34
310
3832342D383044432D4334454645303536354442422F6469726563746F72792E786D6C504B01021400140006080800B670623B6378F24DFF000000A00100003B00000000000000000000000000091000006662782F45374635344235342D363743322D343832342D383044432D4334454645303536354442422F7265736F75
310
726365732F636F72652E786D6C504B0506000000000E000E0080040000611100000000
  0
XRECORD
  5
112
102
{ACAD_REACTORS
330
110
102
}
330
110
100
AcDbXrecord
280
     1
270
     1
271
     1
  0
XRECORD
  5
111
102
{ACAD_REACTORS
330
110
102
}
330
110
100
AcDbXrecord
280
     1
270
     1
271
     1
  0
XRECORD
  5
18A
102
{ACAD_REACTORS
330
110
102
}
330
110
100
AcDbXrecord
280
     1
 70
     0
 90
1778669749
  1
9BF507EE-FAF7-4A99-A33D-4EE51894BC40
310
504B03040A0000080000B670623B3DEE336E79000000790000001B0000006175746F6465736B2D64657369676E2D7061636B6167652E786D6C3C3F786D6C2076657273696F6E3D22312E302220656E636F64696E673D227574662D3822203F3E3C666F726D6174733E3C666F726D61743E687474703A2F2F736368656D612E
310
6175746F6465736B2E636F6D2F64657369676E2D7061636B6167652F323030393C2F666F726D61743E3C2F666F726D6174733E504B0304140006080800B670623BD486FD9CA0000000F4000000130000005B436F6E74656E745F54797065735D2E786D6C7D8EC10E82300C865F65E91D8A1E8C310C0EEA1BF002731658846E
310
D98AC1B77784ABF1D8FE5FBFBF75BBCE937A534CCEB38643598122B6FEE978D0B0485F9C41B54DDD7D022595594E1A469170414C76A4D9A4D207E29CF43ECE46F218070CC6BECC4078ACAA135ACF422C856C0E68EA1BF5669944DDD7BCDE7B1F8E415D77AECB980613C2E4AC91FC167A2B244592486606FC29C8FD7F045B9A
310
EF7053A7E60B504B0304140006080800B670623BCA089DFFEC0000007C01000008000000636F72652E786D6C8D90416E83301045AF62CDB632D8402020E32882F604BD80653BC44AB011B6AB1EBF262152BBEB6A467FFE9B197D76FA9EEFE84BAFDE38DB03CD08206DA553C64E3DC470C1474027CE56E7C22F1B202B66DDC3
310
260367D3EAE2B24BD2D9A06D48AA754AEFA2F05E0740F29E9A1EBCBCEA59642286E4F0B76C11F226269DD15797E0188D42CF2346A57DE662F40ABCAEC77628C6120F654571D50C04B7F5B9C1E3997CD4F550BE3745C3F20DE62C98F9755FAE5A04AD801784B498524C8A4F5A75E4D055873772EC0861F966FF03C545FD138A
310
C686B2D8DF7D621E384D8F3C069CE55B16A93C824A75CB8DFF00504B0304140006080800B670623B55019EA25F0000007C00000007000000636E782E786D6C4DCB3B0E80201045D1AD90E915ED2CF8AC45050C11660C8261F98AB1B07AC9C97D42D718D865D3E909258CFD00CCE24AC6E326A164D74DC0B4128928FF326038
310
472BA13128B1252AC747C6BAB984FC68F0B87FE8960A5C09FE86CFB69FBA01504B0304140006080800B670623B68FC0B7272010000D40300000C0000006662782F636F72652E786D6CC5535B6E833010BC8AE5DF0A6C1E8124328E22D29EA01770C0A128602363A31CBFCB234A53A555FA553EC09AD9F5CE8C31DB5DDA060D
310
D2F4B556190E7C8A9154852E6B5565D8D993B7C668C799D1DA7E29C3488956667884316795D1AE5BA0422B2B950554E9522EA0E87B69312A1A5864B82F3E642B7CE12C54F467BF13C55954D20F7CA0A18EB3DE1A1080E621E31BF3D3F1C2C88C73E65C5D2E6C5DC2B4FA544B8379921C36797888BC3C8A032F4E73EA6D927D
310
EA1DF6F42D49F2E8350D5346C666CE6CDD5ED515460A2B4BCC434A375E1078347C0FE22D5D6DE3D50B5D6F2965642CBF6B725DF96493AB958DC245EEDCD6631E809089F8E61622B2A81703E8219C913144F84C09DF070D8140C8561C9BAB8F3340832CAC363130A576376A108D933095FA747AD0CF0B46E64E983A6D0EAE1F
310
CE089F9EF1FB8E70D44255604258581E9D1D75B259C3125A278D37D80B52DAB4A279CEC62F0EFF44DDC43F9454E8469BFF5244960322CBEF41C6FBC83F01504B0304140006080800B670623B0F71DDB67E0000009D0000000B0000006662782F636E782E786D6C4DCCD10A83201886E15B91FFDCA54DB73F502386BB8F5816
310
32D3703976F9ABD1C18E3E78F87855FB990379BBFCF2296AE02706C4C5471A7C9C349475A408A4352AA7B4FEDD80C47E761A7606A3A69CCA72D0E0C6BE8475D3E0E3F3409428EA6B27A84079A782899AA2EC1A7AE3ECCC2FD858CB2D544655BFD2B67BD87C01504B0304140006080800B670623BE134B4FB28010000120200
310
00310000006662782F38353834323741342D343835462D343034322D383541392D4331303331363839454531452F636F72652E786D6C8D515B6EC32010BC0AE22B55850D0EA424C24451959EA0172086A42831583CAA1CBF503B52FB971F16CDCECC0EACD8DFC71BF836215AEF7A481A0C817183D7D65D7A98D3197108F652
310
04EFD31F1A044E8DA6871586525C82CFD3020DDE25E352419DD76601558C264130DCCAA58771F832A36A544E8511AFCDA486ABBA988634A55D7852C4144A00300FA927949C71DABD1D28A29C7D208A6987383B6CD13BC16BB2E1DBE3911C453B0BA5C8D9EA456E758963CFD684674DAA588A64C747FC2118958C86B2C3788B
310
0841B8FB247487D98EB257CC77188BB6D2FF89F2A49F1465EBD2BA5BE2CEB2082511EDDC9042FB7CBA3DC298FBE4430275DE2A9AE1054ADC60CC08E3A29D89E5F9C5714317C7987C28DFBBBA9E0A97B0D97643A568EB864AF95D5FA9759BF207504B0304140006080800B670623B1B8617914E010000330300003000000066
310
62782F38353834323741342D343835462D343034322D383541392D4331303331363839454531452F636E782E786D6CD593C16EC32010447F0571AD6CE3D489D20813A9877E410FBD62D82434182CC055F3F75D1292E692438FBD206B7698593D61BEFD1E2DF982108D773D6D6B460938E5B571FB9ECE6957AD29D90A1EBC4F
310
77364A9C1CA1A759A682EF839FA72269D8C9D92654AD71C72206887E0E0A22CAF926B15E498B01E0AA19451807D01A34B919F16B070157417138917400F2F6FA41FCF0092A45DEE414C19BDC21783E4BD39D891265658C3D8DEA00A3ACE59CBC8678ACB54CB26EEB6BD7839D7E9348BE70AD9C8321B9BCA7F9A4A26C542347
310
DEE050F09802D22BA6749A800A394DD62899107273365E3C82CFC6A55557BC06C10774B7ABE7AEC3B0F34CF06446280E154026D0542C187BA9DAB6628BF7B6DBB0E5A65B3EB1F58631DE64BBE083F7B65CC218087E22CABB042E51D1F2268F1FE12B3EA24D40D63E9CFE00120194D60B9D5BC67FE6D39CDF37E20AF817881F
310
504B0304140006080800B670623B5933D422630500003B100000340000006662782F38353834323741342D343835462D343034322D383541392D4331303331363839454531452F6F626A656374732E786D6CAD575B6FA33814FE2B887D0642934E9B156594264D158D3A534DD4D13E548A0C38942D60649B4EBABF7E3F8321
310
40924EF6928780CDF1B97EE762EFF32E4B8D37CA45C2F21BD3B547A641F39045491EDF98A5DC5AD7A6F1D9F73863B243661A39C9E88DA9B64DDF8B392B0BBD15D12D295339D85DDEFE618890E6D434C2940871638AF08566C426A5641115AF764424B1E3EDCE76ED9AB0CF36E6A47819302D08A7B984A6D8CFC1C5A89572FB
310
CB91E9F89EA3BEFB9EFAD754E3D3544E654F5F7E920B49F2F040D880CDD89D2CEE2E2EA7D6E56432B6269F2E5CEB7679BBB0DCABF168FE693E9FCEEEA6102C240727AD09A75BD3BF876F78127A4EFDA9D5582B7E4CA590E5390D2BFB6161A5B3E618D182E611E2985001691DAB47FDA5AB7CD3F93C566B2DB2BB7D9E55DD13
310
1D468DEECDB3AB290BFE8409E21C54704115AA6AFF68436BFC8DF65E0B184BF5B74418199194272435D224E084BF9B3E481589EFF5D828747285706581E9BB7B7E5D5D911ABFC6EE312DB7659A2A689A7E85EC0DF04FA5A8344BFEA2FCB834E8845895492EAFB541F2BDA0A63FF59C6AD3F7D4637CA13FD68E34B629891172
310
98597F1D183A57B9B75A98FE9765B05BAB7C3C2EBCE0ACA05C2AF8005A4DE09AA7F29216EB9E15397500C6F47CBE77CA7778FE2BD277AF0AE2C693DD6437D1522427B9D8329E2136F6A8FA19A3E6C56ADF0E5F50CF06D48734EDCEBF22F69C56D97EC138153F804B85E6FABFC7AFEFB32E523BE1F3BD372418E363EDCA7548
310
52949E8724474014288D94610BB57C1BEC4C7F854A89CA8E5324F55B871CBC78CE1BBEE3BFE68D6A5589EF3C730474506FCFA8FCF0659516D0ED04580EEA6425581B77CAE797FF4BCECC16EB2FEB926F49481F746159D06D922712BD730FDEAE42BD40F42C7AA5EF3F198F60E86110D6DD20645A9480B795CF95E3E3A659A8
310
C55E724F408873315335CFFB8584874484344D494E59D94869DB90C26A5B64F49C802CAC1D3ABE18A098D3B7444D123D8A9E5AE8F5214F0AE5B2B6E9B575DA3E61CBD3EA2B4009FA940524DD1305FB6A1FB294F14DF0BEA90BA109ECE1481FDC3FFAE8D60E75141700BE82725371B4873751B2DD960265F788137FACE6DD40
310
B575E4F0A5C99F46629D92131467A41EE11ABD8D4CCC039CA0AFB37C93A08B232B8F0AEFCA1E0A1015DF13FC83322B362463652ECF71D3A8B1A7D1BE65DE1D62C44F22C317D35F574FEB16153BA2D13E543D10A80E74C4A65E78A6B7CBCBD1D5DD9DB59C2DAFACC96C3AB566E3F1C29ADCDD5DBAD7D3C9ED7C822ED74F80A6
310
41755310DE4443F44A9E68373FADF6596BFA0F440AE7BECE2727AE9F4F2B1B53B1E7E00CF0DD1E5C65454A339A4BA2D0FBA05ED2EF0443458F47BDBFCA484CCFE0F2ED7E3DD0013B679C7B5499467F0ECEEADDB9CA85A34CE44B99053949D2C1416DB85DE4B136BB7165FBAC0B7AB3542BED4F8CA182A549847A1319316519
310
95A83A67147B9E5101C47487F2485F1ECE38FD568F839204296D3479219888530154036E6528FBFBC66F98E0D4107563A2D7D9AFF8D389681A08F58D89F22693900A3B407754734FC51C10C010D6D640809EE4718AC1BA3ED4AEDB53CA37283F68805A7E4B72CEB0A4EDEAD5DD8C14059A76AFAA56BA6901E13F32BC51C720
310
12AF41295B5BF61BAD3195181FB506E6B40F4C10AF5AF40EF9F5B159AE5DD1F43C72D635E94310D45C2D49785C5D0B94D3B54AB3C5A38349C0587D338AB48C11CBF339599C02CCA54A70A008A8D03C0B2201D5F9EFCF8F9CE12A9A19CB0410789EB32C63B95ECCF455D658BFE0621A3DA32C5075FB101723D77DAE867E7D0F
310
D90444509B44E2151B4DC2290B065803200FBAA9BE9D392A0603F2D5C2D00D6302A615680F66D2FA166E2079D4C551A54AB758161FCEFD4E450A14704CECFEDF504B0304140006080000B670623B000000000000000000000000350000006662782F38353834323741342D343835462D343034322D383541392D4331303331
310
363839454531452F76657274696365732E62696E504B0304140006080800B670623BF270F1330600000004000000360000006662782F38353834323741342D343835462D343034322D383541392D4331303331363839454531452F747269616E676C65732E62696E636660600000504B0304140006080000B670623B000000
310
000000000000000000370000006662782F38353834323741342D343835462D343034322D383541392D4331303331363839454531452F617474726962757465732E62696E504B0304140006080800B670623B08DA0BD19000000041010000360000006662782F38353834323741342D343835462D343034322D383541392D43
310
31303331363839454531452F6469726563746F72792E786D6C858F410AC3201045AF22B36F53E9A60B35CBEEBAE80D244E44489C6234F4F835464A48035D0DF398FF9F8AF63D0E6CC63039F212F8F9020C7D47C6792B21C5FE7403D62A1188E2E60C98D7234A5830286103A55745067B9D86B8A3CF9C7F90C11DE607FB1443
310
96D7B6A82D282E9A152AD114D5EF2CB866EEE831B8EEA07A7BB5A8D7D61A2BAAEB7FD5F70921FF497D00504B0304140006080800B670623BD9A3B367FE000000A00100003B0000006662782F38353834323741342D343835462D343034322D383541392D4331303331363839454531452F7265736F75726365732F636F7265
310
2E786D6C8D504B6E833010BD0A9A6D65B01D0201194711694FD00B586642AD043BF2A7EAF16B122AB5BB6E6646EFA3797AE2F8B5DC8A4FF4C1383B002B291468B59B8C9D0748F1420E501CA5F0CEC55F3228AC5A708015062966EFD27D83B4B3116DCCA875136EA00A012314FA968F0182FEC045952AC5AC08D7F2AEF455CD
310
58B232D3592745883E07289E4FD609D26370C96B0CA27AB252A464A64D63A6FCD35C0C7A904D73EE467EE664DCD58CD4ED4849D79C5A723ED1B7A61977AF2D6F45B59AA58866F9C9A83DAA8813484E6947182394BFB3BAA7FBBEDEBFD0434FA9A856F91F53BA4FFF342563E38E6F719FB60092E5200F428A6AED2BAF479979
310
AFDDCA6F504B010214000A0000080000B670623B3DEE336E79000000790000001B00000000000000000000000000000000006175746F6465736B2D64657369676E2D7061636B6167652E786D6C504B01021400140006080800B670623BD486FD9CA0000000F40000001300000000000000000000000000B20000005B436F6E
310
74656E745F54797065735D2E786D6C504B01021400140006080800B670623BCA089DFFEC0000007C010000080000000000000000000000000083010000636F72652E786D6C504B01021400140006080800B670623B55019EA25F0000007C000000070000000000000000000000000095020000636E782E786D6C504B010214
310
00140006080800B670623B68FC0B7272010000D40300000C00000000000000000000000000190300006662782F636F72652E786D6C504B01021400140006080800B670623B0F71DDB67E0000009D0000000B00000000000000000000000000B50400006662782F636E782E786D6C504B01021400140006080800B670623BE1
310
34B4FB280100001202000031000000000000000000000000005C0500006662782F38353834323741342D343835462D343034322D383541392D4331303331363839454531452F636F72652E786D6C504B01021400140006080800B670623B1B8617914E010000330300003000000000000000000000000000D3060000666278
310
2F38353834323741342D343835462D343034322D383541392D4331303331363839454531452F636E782E786D6C504B01021400140006080800B670623B5933D422630500003B10000034000000000000000000000000006F0800006662782F38353834323741342D343835462D343034322D383541392D4331303331363839
310
454531452F6F626A656374732E786D6C504B01021400140006080000B670623B0000000000000000000000003500000000000000000000000000240E00006662782F38353834323741342D343835462D343034322D383541392D4331303331363839454531452F76657274696365732E62696E504B01021400140006080800
310
B670623BF270F13306000000040000003600000000000000000000000000770E00006662782F38353834323741342D343835462D343034322D383541392D4331303331363839454531452F747269616E676C65732E62696E504B01021400140006080000B670623B0000000000000000000000003700000000000000000000
310
000000D10E00006662782F38353834323741342D343835462D343034322D383541392D4331303331363839454531452F617474726962757465732E62696E504B01021400140006080800B670623B08DA0BD190000000410100003600000000000000000000000000260F00006662782F38353834323741342D343835462D34
310
3034322D383541392D4331303331363839454531452F6469726563746F72792E786D6C504B01021400140006080800B670623BD9A3B367FE000000A00100003B000000000000000000000000000A1000006662782F38353834323741342D343835462D343034322D383541392D4331303331363839454531452F7265736F75
310
726365732F636F72652E786D6C504B0506000000000E000E0080040000611100000000
  0
XRECORD
  5
113
102
{ACAD_REACTORS
330
110
102
}
330
110
100
AcDbXrecord
280
     1
270
     1
271
     1
  0
XRECORD
  5
114
102
{ACAD_REACTORS
330
110
102
}
330
110
100
AcDbXrecord
280
     1
270
     1
271
     1
  0
CELLSTYLEMAP
  5
2FD60
102
{ACAD_REACTORS
330
104
102
}
330
104
100
AcDbCellStyleMap
 90
        3
300
CELLSTYLE
  1
TABLEFORMAT_BEGIN
 90
        5
170
     1
 91
        0
 92
    32768
 62
   257
 93
        1
300
CONTENTFORMAT
  1
CONTENTFORMAT_BEGIN
 90
        0
 91
        0
 92
      512
 93
        0
300

 40
0.0
140
1.0
 94
        5
 62
     0
340
11
144
0.25
309
CONTENTFORMAT_END
171
     1
301
MARGIN
  1
CELLMARGIN_BEGIN
 40
0.06
 40
0.06
 40
0.06
 40
0.06
 40
0.18
 40
0.18
309
CELLMARGIN_END
 94
        6
 95
        1
302
GRIDFORMAT
  1
GRIDFORMAT_BEGIN
 90
        0
 91
        1
 62
     0
 92
       -2
340
0
 93
        0
 40
0.045
309
GRIDFORMAT_END
 95
        2
302
GRIDFORMAT
  1
GRIDFORMAT_BEGIN
 90
        0
 91
        1
 62
     0
 92
       -2
340
0
 93
        0
 40
0.045
309
GRIDFORMAT_END
 95
        4
302
GRIDFORMAT
  1
GRIDFORMAT_BEGIN
 90
        0
 91
        1
 62
     0
 92
       -2
340
0
 93
        0
 40
0.045
309
GRIDFORMAT_END
 95
        8
302
GRIDFORMAT
  1
GRIDFORMAT_BEGIN
 90
        0
 91
        1
 62
     0
 92
       -2
340
0
 93
        0
 40
0.045
309
GRIDFORMAT_END
 95
       16
302
GRIDFORMAT
  1
GRIDFORMAT_BEGIN
 90
        0
 91
        1
 62
     0
 92
       -2
340
0
 93
        0
 40
0.045
309
GRIDFORMAT_END
 95
       32
302
GRIDFORMAT
  1
GRIDFORMAT_BEGIN
 90
        0
 91
        1
 62
     0
 92
       -2
340
0
 93
        0
 40
0.045
309
GRIDFORMAT_END
309
TABLEFORMAT_END
  1
CELLSTYLE_BEGIN
 90
        1
 91
        1
300
_TITLE
309
CELLSTYLE_END
300
CELLSTYLE
  1
TABLEFORMAT_BEGIN
 90
        5
170
     1
 91
        0
 92
        0
 62
   257
 93
        1
300
CONTENTFORMAT
  1
CONTENTFORMAT_BEGIN
 90
        0
 91
        0
 92
      512
 93
        0
300

 40
0.0
140
1.0
 94
        5
 62
     0
340
11
144
0.18
309
CONTENTFORMAT_END
171
     1
301
MARGIN
  1
CELLMARGIN_BEGIN
 40
0.06
 40
0.06
 40
0.06
 40
0.06
 40
0.18
 40
0.18
309
CELLMARGIN_END
 94
        6
 95
        1
302
GRIDFORMAT
  1
GRIDFORMAT_BEGIN
 90
        0
 91
        1
 62
     0
 92
       -2
340
0
 93
        0
 40
0.045
309
GRIDFORMAT_END
 95
        2
302
GRIDFORMAT
  1
GRIDFORMAT_BEGIN
 90
        0
 91
        1
 62
     0
 92
       -2
340
0
 93
        0
 40
0.045
309
GRIDFORMAT_END
 95
        4
302
GRIDFORMAT
  1
GRIDFORMAT_BEGIN
 90
        0
 91
        1
 62
     0
 92
       -2
340
0
 93
        0
 40
0.045
309
GRIDFORMAT_END
 95
        8
302
GRIDFORMAT
  1
GRIDFORMAT_BEGIN
 90
        0
 91
        1
 62
     0
 92
       -2
340
0
 93
        0
 40
0.045
309
GRIDFORMAT_END
 95
       16
302
GRIDFORMAT
  1
GRIDFORMAT_BEGIN
 90
        0
 91
        1
 62
     0
 92
       -2
340
0
 93
        0
 40
0.045
309
GRIDFORMAT_END
 95
       32
302
GRIDFORMAT
  1
GRIDFORMAT_BEGIN
 90
        0
 91
        1
 62
     0
 92
       -2
340
0
 93
        0
 40
0.045
309
GRIDFORMAT_END
309
TABLEFORMAT_END
  1
CELLSTYLE_BEGIN
 90
        2
 91
        1
300
_HEADER
309
CELLSTYLE_END
300
CELLSTYLE
  1
TABLEFORMAT_BEGIN
 90
        5
170
     1
 91
        0
 92
        0
 62
   257
 93
        1
300
CONTENTFORMAT
  1
CONTENTFORMAT_BEGIN
 90
        0
 91
        0
 92
      512
 93
        0
300

 40
0.0
140
1.0
 94
        2
 62
     0
340
11
144
0.18
309
CONTENTFORMAT_END
171
     1
301
MARGIN
  1
CELLMARGIN_BEGIN
 40
0.06
 40
0.06
 40
0.06
 40
0.06
 40
0.18
 40
0.18
309
CELLMARGIN_END
 94
        6
 95
        1
302
GRIDFORMAT
  1
GRIDFORMAT_BEGIN
 90
        0
 91
        1
 62
     0
 92
       -2
340
0
 93
        0
 40
0.045
309
GRIDFORMAT_END
 95
        2
302
GRIDFORMAT
  1
GRIDFORMAT_BEGIN
 90
        0
 91
        1
 62
     0
 92
       -2
340
0
 93
        0
 40
0.045
309
GRIDFORMAT_END
 95
        4
302
GRIDFORMAT
  1
GRIDFORMAT_BEGIN
 90
        0
 91
        1
 62
     0
 92
       -2
340
0
 93
        0
 40
0.045
309
GRIDFORMAT_END
 95
        8
302
GRIDFORMAT
  1
GRIDFORMAT_BEGIN
 90
        0
 91
        1
 62
     0
 92
       -2
340
0
 93
        0
 40
0.045
309
GRIDFORMAT_END
 95
       16
302
GRIDFORMAT
  1
GRIDFORMAT_BEGIN
 90
        0
 91
        1
 62
     0
 92
       -2
340
0
 93
        0
 40
0.045
309
GRIDFORMAT_END
 95
       32
302
GRIDFORMAT
  1
GRIDFORMAT_BEGIN
 90
        0
 91
        1
 62
     0
 92
       -2
340
0
 93
        0
 40
0.045
309
GRIDFORMAT_END
309
TABLEFORMAT_END
  1
CELLSTYLE_BEGIN
 90
        3
 91
        2
300
_DATA
309
CELLSTYLE_END
  0
ENDSEC
  0
SECTION
  2
ACDSDATA
 70
     2
 71
     8
  0
ACDSSCHEMA
 90
        0
  1
AcDb_Thumbnail_Schema
  2
AcDbDs::ID
280
    10
 91
        8
  2
Thumbnail_Data
280
    15
 91
        0
101
ACDSRECORD
 95
        0
 90
        1
  2
AcDbDs::TreatedAsObjectData
280
     1
291
     1
101
ACDSRECORD
 95
        0
 90
        2
  2
AcDbDs::Legacy
280
     1
291
     1
101
ACDSRECORD
  1
AcDbDs::ID
 90
        3
  2
AcDs:Indexable
280
     1
291
     1
101
ACDSRECORD
  1
AcDbDs::ID
 90
        4
  2
AcDbDs::HandleAttribute
280
     7
282
     1
  0
ACDSSCHEMA
 90
        1
  1
AcDbDs::TreatedAsObjectDataSchema
  2
AcDbDs::TreatedAsObjectData
280
     1
 91
        0
  0
ACDSSCHEMA
 90
        2
  1
AcDbDs::LegacySchema
  2
AcDbDs::Legacy
280
     1
 91
        0
  0
ACDSSCHEMA
 90
        3
  1
AcDbDs::IndexedPropertySchema
  2
AcDs:Indexable
280
     1
 91
        0
  0
ACDSSCHEMA
 90
        4
  1
AcDbDs::HandleAttributeSchema
  2
AcDbDs::HandleAttribute
280
     7
 91
        1
284
     1
  0
ACDSRECORD
 90
        0
  2
AcDbDs::ID
280
    10
320
22
  2
Thumbnail_Data
280
    15
 94
     1426
310
89504E470D0A1A0A0000000D49484452000001000000005808030000002D06D97A00000300504C5445212830FFFFFF2128300000000000000000000000000000000000000000000000000000330000660000990000CC0000FF0033000033330033660033990033CC0033FF0066000066330066660066990066CC0066FF0099
310
000099330099660099990099CC0099FF00CC0000CC3300CC6600CC9900CCCC00CCFF00FF0000FF3300FF6600FF9900FFCC00FFFF3300003300333300663300993300CC3300FF3333003333333333663333993333CC3333FF3366003366333366663366993366CC3366FF3399003399333399663399993399CC3399FF33CC00
310
33CC3333CC6633CC9933CCCC33CCFF33FF0033FF3333FF6633FF9933FFCC33FFFF6600006600336600666600996600CC6600FF6633006633336633666633996633CC6633FF6666006666336666666666996666CC6666FF6699006699336699666699996699CC6699FF66CC0066CC3366CC6666CC9966CCCC66CCFF66FF0066
310
FF3366FF6666FF9966FFCC66FFFF9900009900339900669900999900CC9900FF9933009933339933669933999933CC9933FF9966009966339966669966999966CC9966FF9999009999339999669999999999CC9999FF99CC0099CC3399CC6699CC9999CCCC99CCFF99FF0099FF3399FF6699FF9999FFCC99FFFFCC0000CC00
310
33CC0066CC0099CC00CCCC00FFCC3300CC3333CC3366CC3399CC33CCCC33FFCC6600CC6633CC6666CC6699CC66CCCC66FFCC9900CC9933CC9966CC9999CC99CCCC99FFCCCC00CCCC33CCCC66CCCC99CCCCCCCCCCFFCCFF00CCFF33CCFF66CCFF99CCFFCCCCFFFFFF0000FF0033FF0066FF0099FF00CCFF00FFFF3300FF3333
310
FF3366FF3399FF33CCFF33FFFF6600FF6633FF6666FF6699FF66CCFF66FFFF9900FF9933FF9966FF9999FF99CCFF99FFFFCC00FFCC33FFCC66FFCC99FFCCCCFFCCFFFFFF00FFFF33FFFF66FFFF99FFFFCCFFFFFF0000000D0D0D1A1A1A2828283535354343435050505D5D5D6B6B6B787878868686939393A1A1A1AEAEAEBB
310
BBBBC9C9C9D6D6D6E4E4E4F1F1F1FFFFFF0000000000000000000000000000000000000000000000000000000000002E4550F10000024D4944415478DAED9CCB82C3200845F9FFFFBDFB59B49D4826896614B829B8699336068F88E04BE476C24992240977C1DC4BE485B716919C02BC5E438AC0532C3A04FE8AC9D5124284
310
21228064EFE5A90AE4560096568094CA770D60E7BC198A4940001DB1AC9D37500270AC28305A004F00D1040601480128005F4AA0000C75CE402E00BE42C63A430400A4006407101B8F31008824300700D21BF91F9B2608B48353008EE24474FFA17E0DD7814900BD7BB82ED9E301746F62D805003500580190A70010730051
310
040A000D8020020520B61788F70771ED9FF8F5024C00B6F27E26465C9A400C019C3AA96F2FF66A5E64C4137C2880C1878F629F3BD9239EC0E42BBBC1A0B0AB4070A00F8926500042B3477200DDF1942F00009C77A448006073A506970E7F1D007A810A80D01140720052000A4001280005C04D3EC66E10D7DE72320DB026C0
310
0840CD1866D4000D209F1114EC0C82E996056E006D2C9D0900B40530DDB241B98BB59D987AE9BF1D02720DD80A6F4580D906A01D50934C1AD03A4130EE0FA97B81C6FA5102385EF339DF585513785FC16A2D01661E3D1BEB9E93AE5D9DF06BFB207FF6322218C0895D82CC03D03CD5C7C8B2052F00A2157F2181B1AC8800BC
310
EB64BBF031ADB1049A08055A1E881381582B80C658EB2F4E00D699C1FF1E89B453000D60793ACA93C461C1D9F5CA3A06E5F0A52D00A565C400800323B8CCC46D1D0C78E771F5391B58AC5FA6C1F0AAB85D59242C06200F387F0D067B5F3E4D80FA103ED37DE6AF0040A8CF2084ED4AC7271C6449B0DE9BA915242CBF728472
310
967F73D2A5125DFA01B198F88CE21691750000000049454E44AE426082
  0
ENDSEC
  0
EOF
