  0
SECTION
  2
HEADER
  9
$ACADVER
  1
AC1032
  9
$ACADMAINTVER
 90
      197
  9
$DWGCODEPAGE
  3
ANSI_1252
  9
$LASTSAVEDBY
  1
gregb
  9
$REQUIREDVERSIONS
160
                 0
  9
$INSBASE
 10
0.0
 20
0.0
 30
0.0
  9
$EXTMIN
 10
6599.674621660437
 20
203.3673703880704
 30
0.0
  9
$EXTMAX
 10
7489.360055010511
 20
597.1869128309118
 30
0.0
  9
$LIMMIN
 10
0.0
 20
0.0
  9
$LIMMAX
 10
12.0
 20
9.0
  9
$ORTHOMODE
 70
     0
  9
$REGENMODE
 70
     1
  9
$FILLMODE
 70
     1
  9
$QTEXTMODE
 70
     0
  9
$MIRRTEXT
 70
     0
  9
$LTSCALE
 40
1.0
  9
$ATTMODE
 70
     1
  9
$TEXTSIZE
 40
0.2
  9
$TRACEWID
 40
0.05
  9
$TEXTSTYLE
  7
Standard
  9
$CLAYER
  8
freecads.com
  9
$CELTYPE
  6
ByLayer
  9
$CECOLOR
 62
   256
  9
$CELTSCALE
 40
1.0
  9
$DISPSILH
 70
     1
  9
$DIMSCALE
 40
1.0
  9
$DIMASZ
 40
0.18
  9
$DIMEXO
 40
0.0625
  9
$DIMDLI
 40
0.38
  9
$DIMRND
 40
0.0
  9
$DIMDLE
 40
0.0
  9
$DIMEXE
 40
0.18
  9
$DIMTP
 40
0.0
  9
$DIMTM
 40
0.0
  9
$DIMTXT
 40
0.18
  9
$DIMCEN
 40
0.09
  9
$DIMTSZ
 40
0.0
  9
$DIMTOL
 70
     0
  9
$DIMLIM
 70
     0
  9
$DIMTIH
 70
     1
  9
$DIMTOH
 70
     1
  9
$DIMSE1
 70
     0
  9
$DIMSE2
 70
     0
  9
$DIMTAD
 70
     0
  9
$DIMZIN
 70
     0
  9
$DIMBLK
  1

  9
$DIMASO
 70
     1
  9
$DIMSHO
 70
     1
  9
$DIMPOST
  1

  9
$DIMAPOST
  1

  9
$DIMALT
 70
     0
  9
$DIMALTD
 70
     2
  9
$DIMALTF
 40
25.4
  9
$DIMLFAC
 40
1.0
  9
$DIMTOFL
 70
     0
  9
$DIMTVP
 40
0.0
  9
$DIMTIX
 70
     0
  9
$DIMSOXD
 70
     0
  9
$DIMSAH
 70
     0
  9
$DIMBLK1
  1

  9
$DIMBLK2
  1

  9
$DIMSTYLE
  2
Standard
  9
$DIMCLRD
 70
     0
  9
$DIMCLRE
 70
     0
  9
$DIMCLRT
 70
     0
  9
$DIMTFAC
 40
1.0
  9
$DIMGAP
 40
0.09
  9
$DIMJUST
 70
     0
  9
$DIMSD1
 70
     0
  9
$DIMSD2
 70
     0
  9
$DIMTOLJ
 70
     1
  9
$DIMTZIN
 70
     0
  9
$DIMALTZ
 70
     0
  9
$DIMALTTZ
 70
     0
  9
$DIMUPT
 70
     0
  9
$DIMDEC
 70
     4
  9
$DIMTDEC
 70
     4
  9
$DIMALTU
 70
     2
  9
$DIMALTTD
 70
     2
  9
$DIMTXSTY
  7
Standard
  9
$DIMAUNIT
 70
     0
  9
$DIMADEC
 70
     0
  9
$DIMALTRND
 40
0.0
  9
$DIMAZIN
 70
     0
  9
$DIMDSEP
 70
    46
  9
$DIMATFIT
 70
     3
  9
$DIMFRAC
 70
     0
  9
$DIMLDRBLK
  1

  9
$DIMLUNIT
 70
     2
  9
$DIMLWD
 70
    -2
  9
$DIMLWE
 70
    -2
  9
$DIMTMOVE
 70
     0
  9
$DIMFXL
 40
1.0
  9
$DIMFXLON
 70
     0
  9
$DIMJOGANG
 40
0.7853981633974483
  9
$DIMTFILL
 70
     0
  9
$DIMTFILLCLR
 70
     0
  9
$DIMARCSYM
 70
     0
  9
$DIMLTYPE
  6

  9
$DIMLTEX1
  6

  9
$DIMLTEX2
  6

  9
$DIMTXTDIRECTION
 70
     0
  9
$LUNITS
 70
     2
  9
$LUPREC
 70
     4
  9
$SKETCHINC
 40
0.1
  9
$FILLETRAD
 40
0.0
  9
$AUNITS
 70
     0
  9
$AUPREC
 70
     0
  9
$MENU
  1
.
  9
$ELEVATION
 40
0.0
  9
$PELEVATION
 40
0.0
  9
$THICKNESS
 40
0.0
  9
$LIMCHECK
 70
     0
  9
$CHAMFERA
 40
0.0
  9
$CHAMFERB
 40
0.0
  9
$CHAMFERC
 40
0.0
  9
$CHAMFERD
 40
0.0
  9
$SKPOLY
 70
     0
  9
$TDCREATE
 40
2458157.371250000
  9
$TDUCREATE
 40
2458157.287916667
  9
$TDUPDATE
 40
2461017.971493056
  9
$TDUUPDATE
 40
2461017.888159722
  9
$TDINDWG
 40
0.1477662037
  9
$TDUSRTIMER
 40
0.1477662037
  9
$USRTIMER
 70
     1
  9
$ANGBASE
 50
0.0
  9
$ANGDIR
 70
     0
  9
$PDMODE
 70
     0
  9
$PDSIZE
 40
0.0
  9
$PLINEWID
 40
0.0
  9
$SPLFRAME
 70
     0
  9
$SPLINETYPE
 70
     6
  9
$SPLINESEGS
 70
     8
  9
$HANDSEED
  5
2FC72
  9
$SURFTAB1
 70
     6
  9
$SURFTAB2
 70
     6
  9
$SURFTYPE
 70
     6
  9
$SURFU
 70
     6
  9
$SURFV
 70
     6
  9
$UCSBASE
  2

  9
$UCSNAME
  2

  9
$UCSORG
 10
0.0
 20
0.0
 30
0.0
  9
$UCSXDIR
 10
1.0
 20
0.0
 30
0.0
  9
$UCSYDIR
 10
0.0
 20
1.0
 30
0.0
  9
$UCSORTHOREF
  2

  9
$UCSORTHOVIEW
 70
     0
  9
$UCSORGTOP
 10
0.0
 20
0.0
 30
0.0
  9
$UCSORGBOTTOM
 10
0.0
 20
0.0
 30
0.0
  9
$UCSORGLEFT
 10
0.0
 20
0.0
 30
0.0
  9
$UCSORGRIGHT
 10
0.0
 20
0.0
 30
0.0
  9
$UCSORGFRONT
 10
0.0
 20
0.0
 30
0.0
  9
$UCSORGBACK
 10
0.0
 20
0.0
 30
0.0
  9
$PUCSBASE
  2

  9
$PUCSNAME
  2

  9
$PUCSORG
 10
0.0
 20
0.0
 30
0.0
  9
$PUCSXDIR
 10
1.0
 20
0.0
 30
0.0
  9
$PUCSYDIR
 10
0.0
 20
1.0
 30
0.0
  9
$PUCSORTHOREF
  2

  9
$PUCSORTHOVIEW
 70
     0
  9
$PUCSORGTOP
 10
0.0
 20
0.0
 30
0.0
  9
$PUCSORGBOTTOM
 10
0.0
 20
0.0
 30
0.0
  9
$PUCSORGLEFT
 10
0.0
 20
0.0
 30
0.0
  9
$PUCSORGRIGHT
 10
0.0
 20
0.0
 30
0.0
  9
$PUCSORGFRONT
 10
0.0
 20
0.0
 30
0.0
  9
$PUCSORGBACK
 10
0.0
 20
0.0
 30
0.0
  9
$USERI1
 70
     0
  9
$USERI2
 70
     0
  9
$USERI3
 70
     0
  9
$USERI4
 70
     0
  9
$USERI5
 70
     0
  9
$USERR1
 40
0.0
  9
$USERR2
 40
0.0
  9
$USERR3
 40
0.0
  9
$USERR4
 40
0.0
  9
$USERR5
 40
0.0
  9
$WORLDVIEW
 70
     1
  9
$SHADEDGE
 70
     3
  9
$SHADEDIF
 70
    70
  9
$TILEMODE
 70
     1
  9
$MAXACTVP
 70
    64
  9
$PINSBASE
 10
0.0
 20
0.0
 30
0.0
  9
$PLIMCHECK
 70
     0
  9
$PEXTMIN
 10
0.0
 20
0.0
 30
0.0
  9
$PEXTMAX
 10
0.0
 20
0.0
 30
0.0
  9
$PLIMMIN
 10
0.0
 20
0.0
  9
$PLIMMAX
 10
12.0
 20
9.0
  9
$UNITMODE
 70
     0
  9
$VISRETAIN
 70
     1
  9
$PLINEGEN
 70
     0
  9
$PSLTSCALE
 70
     1
  9
$TREEDEPTH
 70
  3020
  9
$CMLSTYLE
  2
Standard
  9
$CMLJUST
 70
     0
  9
$CMLSCALE
 40
1.0
  9
$PROXYGRAPHICS
 70
     1
  9
$MEASUREMENT
 70
     0
  9
$CELWEIGHT
370
    -1
  9
$ENDCAPS
280
     0
  9
$JOINSTYLE
280
     0
  9
$LWDISPLAY
290
     0
  9
$INSUNITS
 70
     1
  9
$HYPERLINKBASE
  1

  9
$STYLESHEET
  1
monochrome.ctb
  9
$XEDIT
290
     1
  9
$CEPSNTYPE
380
     0
  9
$PSTYLEMODE
290
     1
  9
$FINGERPRINTGUID
  2
{358EB121-6EE0-9143-8A3E-6E8E8869FDA6}
  9
$VERSIONGUID
  2
{88C300D5-D6C5-6B41-AE39-1D62E4741D01}
  9
$EXTNAMES
290
     1
  9
$PSVPSCALE
 40
0.0
  9
$OLESTARTUP
290
     0
  9
$SORTENTS
280
   127
  9
$INDEXCTL
280
     0
  9
$HIDETEXT
280
     1
  9
$XCLIPFRAME
280
     2
  9
$HALOGAP
280
     0
  9
$OBSCOLOR
 70
   257
  9
$OBSLTYPE
280
     0
  9
$INTERSECTIONDISPLAY
280
     0
  9
$INTERSECTIONCOLOR
 70
   257
  9
$DIMASSOC
280
     2
  9
$PROJECTNAME
  1

  9
$CAMERADISPLAY
290
     0
  9
$LENSLENGTH
 40
50.0
  9
$CAMERAHEIGHT
 40
0.0
  9
$STEPSPERSEC
 40
2.0
  9
$STEPSIZE
 40
6.0
  9
$3DDWFPREC
 40
2.0
  9
$PSOLWIDTH
 40
0.25
  9
$PSOLHEIGHT
 40
4.0
  9
$LOFTANG1
 40
1.570796326794896
  9
$LOFTANG2
 40
1.570796326794896
  9
$LOFTMAG1
 40
0.0
  9
$LOFTMAG2
 40
0.0
  9
$LOFTPARAM
 70
     7
  9
$LOFTNORMALS
280
     1
  9
$LATITUDE
 40
37.795
  9
$LONGITUDE
 40
-122.394
  9
$NORTHDIRECTION
 40
0.0
  9
$TIMEZONE
 70
 -8000
  9
$LIGHTGLYPHDISPLAY
280
     1
  9
$TILEMODELIGHTSYNCH
280
     1
  9
$CMATERIAL
347
96
  9
$SOLIDHIST
280
     0
  9
$SHOWHIST
280
     1
  9
$DWFFRAME
280
     2
  9
$DGNFRAME
280
     0
  9
$REALWORLDSCALE
290
     1
  9
$INTERFERECOLOR
 62
     1
  9
$INTERFEREOBJVS
345
A3
  9
$INTERFEREVPVS
346
A0
  9
$CSHADOW
280
     0
  9
$SHADOWPLANELOCATION
 40
0.0
  0
ENDSEC
  0
SECTION
  2
CLASSES
  0
CLASS
  1
ACDBDICTIONARYWDFLT
  2
AcDbDictionaryWithDefault
  3
ObjectDBX Classes
 90
        0
 91
        1
280
     0
281
     0
  0
CLASS
  1
DICTIONARYVAR
  2
AcDbDictionaryVar
  3
ObjectDBX Classes
 90
        0
 91
        9
280
     0
281
     0
  0
CLASS
  1
TABLESTYLE
  2
AcDbTableStyle
  3
ObjectDBX Classes
 90
     4095
 91
        1
280
     0
281
     0
  0
CLASS
  1
MATERIAL
  2
AcDbMaterial
  3
ObjectDBX Classes
 90
     1153
 91
        3
280
     0
281
     0
  0
CLASS
  1
VISUALSTYLE
  2
AcDbVisualStyle
  3
ObjectDBX Classes
 90
     4095
 91
       25
280
     0
281
     0
  0
CLASS
  1
SCALE
  2
AcDbScale
  3
ObjectDBX Classes
 90
     1153
 91
       35
280
     0
281
     0
  0
CLASS
  1
MLEADERSTYLE
  2
AcDbMLeaderStyle
  3
ACDB_MLEADERSTYLE_CLASS
 90
     4095
 91
        1
280
     0
281
     0
  0
CLASS
  1
CELLSTYLEMAP
  2
AcDbCellStyleMap
  3
ObjectDBX Classes
 90
     1152
 91
        1
280
     0
281
     0
  0
CLASS
  1
EXACXREFPANELOBJECT
  2
ExAcXREFPanelObject
  3
EXAC_ESW
 90
     1025
 91
        0
280
     0
281
     0
  0
CLASS
  1
NPOCOLLECTION
  2
AcDbImpNonPersistentObjectsCollection
  3
ObjectDBX Classes
 90
     1153
 91
        0
280
     0
281
     0
  0
CLASS
  1
LAYER_INDEX
  2
AcDbLayerIndex
  3
ObjectDBX Classes
 90
        0
 91
        0
280
     0
281
     0
  0
CLASS
  1
SPATIAL_INDEX
  2
AcDbSpatialIndex
  3
ObjectDBX Classes
 90
        0
 91
        0
280
     0
281
     0
  0
CLASS
  1
IDBUFFER
  2
AcDbIdBuffer
  3
ObjectDBX Classes
 90
        0
 91
        0
280
     0
281
     0
  0
CLASS
  1
ACDBSECTIONVIEWSTYLE
  2
AcDbSectionViewStyle
  3
ObjectDBX Classes
 90
     1025
 91
        2
280
     0
281
     0
  0
CLASS
  1
ACDBDETAILVIEWSTYLE
  2
AcDbDetailViewStyle
  3
ObjectDBX Classes
 90
     1025
 91
        2
280
     0
281
     0
  0
CLASS
  1
SORTENTSTABLE
  2
AcDbSortentsTable
  3
ObjectDBX Classes
 90
        0
 91
        1
280
     0
281
     0
  0
CLASS
  1
SPATIAL_FILTER
  2
AcDbSpatialFilter
  3
ObjectDBX Classes
 90
        0
 91
        0
280
     0
281
     0
  0
CLASS
  1
SOLID_BACKGROUND
  2
AcDbSolidBackground
  3
SCENEOE
 90
     4095
 91
        0
280
     0
281
     0
  0
CLASS
  1
RASTERVARIABLES
  2
AcDbRasterVariables
  3
ISM
 90
        0
 91
        1
280
     0
281
     0
  0
CLASS
  1
IMAGEDEF
  2
AcDbRasterImageDef
  3
ISM
 90
        0
 91
        0
280
     0
281
     0
  0
CLASS
  1
IMAGEDEF_REACTOR
  2
AcDbRasterImageDefReactor
  3
ISM
 90
        1
 91
        0
280
     0
281
     0
  0
CLASS
  1
IMAGE
  2
AcDbRasterImage
  3
ISM
 90
     2175
 91
        0
280
     0
281
     1
  0
ENDSEC
  0
SECTION
  2
TABLES
  0
TABLE
  2
VPORT
  5
8
330
0
100
AcDbSymbolTable
 70
     1
  0
VPORT
  5
94
330
8
100
AcDbSymbolTableRecord
100
AcDbViewportTableRecord
  2
*Active
 70
     0
 10
0.0
 20
0.0
 11
1.0
 21
1.0
 12
7044.366191353524
 22
475.4073362792892
 13
0.0
 23
0.0
 14
0.5
 24
0.5
 15
0.5
 25
0.5
 16
0.0
 26
0.0
 36
1.0
 17
0.0
 27
0.0
 37
0.0
 40
549.985278063527
 41
2.114740368509212
 42
50.0
 43
0.0
 44
0.0
 50
0.0
 51
0.0
 71
     0
 72
  1000
 73
     1
 74
     3
 75
     0
 76
     0
 77
     0
 78
     0
281
     0
 65
     1
110
0.0
120
0.0
130
0.0
111
1.0
121
0.0
131
0.0
112
0.0
122
1.0
132
0.0
 79
     0
146
0.0
348
9F
 60
     3
 61
     5
292
     1
282
     1
141
0.0
142
0.0
 63
   250
421
  3355443
1001
ACAD_NAV_VCDISPLAY
1070
     3
  0
ENDTAB
  0
TABLE
  2
LTYPE
  5
5
330
0
100
AcDbSymbolTable
 70
     1
  0
LTYPE
  5
14
330
5
100
AcDbSymbolTableRecord
100
AcDbLinetypeTableRecord
  2
ByBlock
 70
     0
  3

 72
    65
 73
     0
 40
0.0
  0
LTYPE
  5
15
330
5
100
AcDbSymbolTableRecord
100
AcDbLinetypeTableRecord
  2
ByLayer
 70
     0
  3

 72
    65
 73
     0
 40
0.0
  0
LTYPE
  5
16
330
5
100
AcDbSymbolTableRecord
100
AcDbLinetypeTableRecord
  2
Continuous
 70
     0
  3
Solid line
 72
    65
 73
     0
 40
0.0
  0
ENDTAB
  0
TABLE
  2
LAYER
  5
2
102
{ACAD_XDICTIONARY
360
18E
102
}
330
0
100
AcDbSymbolTable
 70
     2
  0
LAYER
  5
10
102
{ACAD_XDICTIONARY
360
E6
102
}
330
2
100
AcDbSymbolTableRecord
100
AcDbLayerTableRecord
  2
0
 70
     0
 62
     7
  6
Continuous
370
    -3
390
F
347
98
348
0
  0
LAYER
  5
204
330
2
100
AcDbSymbolTableRecord
100
AcDbLayerTableRecord
  2
freecads.com
 70
     0
 62
     7
  6
Continuous
370
    -3
390
F
347
98
348
0
1001
AcAecLayerStandard
1000

1000

1001
AcCmTransparency
1071
        0
  0
ENDTAB
  0
TABLE
  2
STYLE
  5
3
330
0
100
AcDbSymbolTable
 70
     1
  0
STYLE
  5
11
330
3
100
AcDbSymbolTableRecord
100
AcDbTextStyleTableRecord
  2
Standard
 70
     0
 40
0.0
 41
1.0
 50
0.0
 71
     0
 42
0.2
  3
arial.ttf
  4

1001
ACAD
1000
Arial
1071
       34
  0
ENDTAB
  0
TABLE
  2
VIEW
  5
6
330
0
100
AcDbSymbolTable
 70
     0
  0
ENDTAB
  0
TABLE
  2
UCS
  5
7
330
0
100
AcDbSymbolTable
 70
     0
  0
ENDTAB
  0
TABLE
  2
APPID
  5
9
330
0
100
AcDbSymbolTable
 70
    25
  0
APPID
  5
12
330
9
100
AcDbSymbolTableRecord
100
AcDbRegAppTableRecord
  2
ACAD
 70
     0
  0
APPID
  5
DD
330
9
100
AcDbSymbolTableRecord
100
AcDbRegAppTableRecord
  2
AcadAnnoPO
 70
     0
  0
APPID
  5
DE
330
9
100
AcDbSymbolTableRecord
100
AcDbRegAppTableRecord
  2
AcadAnnotative
 70
     0
  0
APPID
  5
DF
330
9
100
AcDbSymbolTableRecord
100
AcDbRegAppTableRecord
  2
ACAD_DSTYLE_DIMJAG
 70
     0
  0
APPID
  5
E0
330
9
100
AcDbSymbolTableRecord
100
AcDbRegAppTableRecord
  2
ACAD_DSTYLE_DIMTALN
 70
     0
  0
APPID
  5
107
330
9
100
AcDbSymbolTableRecord
100
AcDbRegAppTableRecord
  2
ACAD_MLEADERVER
 70
     0
  0
APPID
  5
1A6
330
9
100
AcDbSymbolTableRecord
100
AcDbRegAppTableRecord
  2
ACAD_NAV_VCDISPLAY
 70
     0
  0
APPID
  5
205
330
9
100
AcDbSymbolTableRecord
100
AcDbRegAppTableRecord
  2
AcAecLayerStandard
 70
     0
  0
APPID
  5
206
330
9
100
AcDbSymbolTableRecord
100
AcDbRegAppTableRecord
  2
AcCmTransparency
 70
     0
  0
APPID
  5
222
330
9
100
AcDbSymbolTableRecord
100
AcDbRegAppTableRecord
  2
ACAD_PSEXT
 70
     0
  0
APPID
  5
2DA
330
9
100
AcDbSymbolTableRecord
100
AcDbRegAppTableRecord
  2
GradientColor1ACI
 70
     0
  0
APPID
  5
2DB
330
9
100
AcDbSymbolTableRecord
100
AcDbRegAppTableRecord
  2
GradientColor2ACI
 70
     0
  0
APPID
  5
2F3
330
9
100
AcDbSymbolTableRecord
100
AcDbRegAppTableRecord
  2
ACAD_EXEMPT_FROM_CAD_STANDARDS
 70
     0
  0
APPID
  5
A1A
330
9
100
AcDbSymbolTableRecord
100
AcDbRegAppTableRecord
  2
AcDbBlockRepETag
 70
     0
  0
APPID
  5
228C
330
9
100
AcDbSymbolTableRecord
100
AcDbRegAppTableRecord
  2
RAK
 70
     0
  0
APPID
  5
2683
330
9
100
AcDbSymbolTableRecord
100
AcDbRegAppTableRecord
  2
ACAD_DSTYLE_DIMJOGGED_JOGANGLE_SYMBOL
 70
     0
  0
APPID
  5
47CF
330
9
100
AcDbSymbolTableRecord
100
AcDbRegAppTableRecord
  2
ACAD_DSTYLE_DIMBREAK
 70
     0
  0
APPID
  5
47D0
330
9
100
AcDbSymbolTableRecord
100
AcDbRegAppTableRecord
  2
AcDbDynamicBlockGUID
 70
     0
  0
APPID
  5
8BD5
330
9
100
AcDbSymbolTableRecord
100
AcDbRegAppTableRecord
  2
AcLayerTools
 70
     0
  0
APPID
  5
92D9
330
9
100
AcDbSymbolTableRecord
100
AcDbRegAppTableRecord
  2
AutoGrph01
 70
     0
  0
APPID
  5
92DA
330
9
100
AcDbSymbolTableRecord
100
AcDbRegAppTableRecord
  2
AutoGrphVars
 70
     0
  0
APPID
  5
92DB
330
9
100
AcDbSymbolTableRecord
100
AcDbRegAppTableRecord
  2
AutoGrphZ
 70
     0
  0
APPID
  5
92DC
330
9
100
AcDbSymbolTableRecord
100
AcDbRegAppTableRecord
  2
AutoGrph05
 70
     0
  0
APPID
  5
AD30
330
9
100
AcDbSymbolTableRecord
100
AcDbRegAppTableRecord
  2
AEC_XDATA_BOUND_SPACE
 70
     0
  0
APPID
  5
C1FD
330
9
100
AcDbSymbolTableRecord
100
AcDbRegAppTableRecord
  2
AcDbBlockArrayActionTag
 70
     0
  0
ENDTAB
  0
TABLE
  2
DIMSTYLE
  5
A
330
0
100
AcDbSymbolTable
 70
     1
100
AcDbDimStyleTable
 71
     1
340
27
  0
DIMSTYLE
105
27
330
A
100
AcDbSymbolTableRecord
100
AcDbDimStyleTableRecord
  2
Standard
 70
     0
340
11
  0
ENDTAB
  0
TABLE
  2
BLOCK_RECORD
  5
1
330
0
100
AcDbSymbolTable
 70
     1
  0
BLOCK_RECORD
  5
1F
102
{ACAD_XDICTIONARY
360
15D
102
}
330
1
100
AcDbSymbolTableRecord
100
AcDbBlockTableRecord
  2
*Model_Space
340
22
 70
     0
280
     1
281
     0
  0
BLOCK_RECORD
  5
58
330
1
100
AcDbSymbolTableRecord
100
AcDbBlockTableRecord
  2
*Paper_Space
340
59
 70
     0
280
     1
281
     0
  0
BLOCK_RECORD
  5
5D
330
1
100
AcDbSymbolTableRecord
100
AcDbBlockTableRecord
  2
*Paper_Space0
340
5E
 70
     0
280
     1
281
     0
  0
ENDTAB
  0
ENDSEC
  0
SECTION
  2
BLOCKS
  0
BLOCK
  5
20
330
1F
100
AcDbEntity
  8
0
100
AcDbBlockBegin
  2
*Model_Space
 70
     0
 10
0.0
 20
0.0
 30
0.0
  3
*Model_Space
  1

  0
ENDBLK
  5
21
330
1F
100
AcDbEntity
  8
0
100
AcDbBlockEnd
  0
BLOCK
  5
5A
330
58
100
AcDbEntity
 67
     1
  8
0
100
AcDbBlockBegin
  2
*Paper_Space
 70
     0
 10
0.0
 20
0.0
 30
0.0
  3
*Paper_Space
  1

  0
ENDBLK
  5
5B
330
58
100
AcDbEntity
 67
     1
  8
0
100
AcDbBlockEnd
  0
BLOCK
  5
5F
330
5D
100
AcDbEntity
 67
     1
  8
0
100
AcDbBlockBegin
  2
*Paper_Space0
 70
     0
 10
0.0
 20
0.0
 30
0.0
  3
*Paper_Space0
  1

  0
ENDBLK
  5
60
330
5D
100
AcDbEntity
 67
     1
  8
0
100
AcDbBlockEnd
  0
ENDSEC
  0
SECTION
  2
ENTITIES
  0
ARC
  5
2FAC6
330
1F
100
AcDbEntity
  8
freecads.com
100
AcDbCircle
 10
7271.356475364665
 20
297.3908828660642
 30
0.0
 40
301.3588542800087
100
AcDbArc
 50
99.14118360699911
 51
109.1178643625265
  0
ARC
  5
2FAC7
330
1F
100
AcDbEntity
  8
freecads.com
100
AcDbCircle
 10
7256.515856982048
 20
340.2047594435499
 30
0.0
 40
256.0458100038906
100
AcDbArc
 50
109.1178573780749
 51
120.3912120039626
  0
ARC
  5
2FAC8
330
1F
100
AcDbEntity
  8
freecads.com
100
AcDbCircle
 10
7234.291537790166
 20
378.0985236199194
 30
0.0
 40
212.1156640105458
100
AcDbArc
 50
120.391213907583
 51
132.7544083712632
  0
ARC
  5
2FAC9
330
1F
100
AcDbEntity
  8
freecads.com
100
AcDbCircle
 10
7170.342119286463
 20
447.2678240079257
 30
0.0
 40
117.9141765322786
100
AcDbArc
 50
132.7543710132783
 51
151.9426856850622
  0
LINE
  5
2FACA
330
1F
100
AcDbEntity
  8
freecads.com
100
AcDbLine
 10
7066.28550829475
 20
502.7292947439855
 30
0.0
 11
7060.16595855335
 21
491.2478427575624
 31
0.0
  0
LINE
  5
2FACB
330
1F
100
AcDbEntity
  8
freecads.com
100
AcDbLine
 10
7060.16595855335
 20
491.2478427575624
 30
0.0
 11
7081.339183901582
 21
492.4677657524807
 31
0.0
  0
ARC
  5
2FACC
330
1F
100
AcDbEntity
  8
freecads.com
100
AcDbCircle
 10
7099.032133194675
 20
185.381251388404
 30
0.0
 40
307.5957863153614
100
AcDbArc
 50
90.79192145246585
 51
93.29748065478121
  0
ARC
  5
2FACD
330
1F
100
AcDbEntity
  8
freecads.com
100
AcDbCircle
 10
7202.803312186531
 20
-7322.13702944135
 30
0.0
 40
7815.831211139375
100
AcDbArc
 50
90.55172575870457
 51
90.79190957854194
  0
ARC
  5
2FACE
330
1F
100
AcDbEntity
  8
freecads.com
100
AcDbCircle
 10
7197.995192560192
 20
-6822.090448498887
 30
0.0
 40
7315.761514925622
100
AcDbArc
 50
90.24582281172989
 51
90.55178209245138
  0
ARC
  5
2FACF
330
1F
100
AcDbEntity
  8
freecads.com
100
AcDbCircle
 10
7209.689360658332
 20
-9545.922573960707
 30
0.0
 40
10039.61874342016
100
AcDbArc
 50
90.00453713242006
 51
90.24586686652208
  0
LINE
  5
2FAD0
330
1F
100
AcDbEntity
  8
freecads.com
100
AcDbLine
 10
7208.894344365777
 20
493.6961379816202
 30
0.0
 11
7315.276279481754
 21
493.7045890740409
 31
0.0
  0
LINE
  5
2FAD1
330
1F
100
AcDbEntity
  8
freecads.com
100
AcDbLine
 10
7315.276279481754
 20
493.7045890740409
 30
0.0
 11
7315.276279481754
 21
525.9277589814518
 31
0.0
  0
ARC
  5
2FAD2
330
1F
100
AcDbEntity
  8
freecads.com
100
AcDbCircle
 10
6673.138082220714
 20
525.9277407212358
 30
0.0
 40
642.1381972610355
100
AcDbArc
 50
0.0000016293819807
 51
2.062135673793806
  0
ARC
  5
2FAD3
330
1F
100
AcDbEntity
  8
freecads.com
100
AcDbCircle
 10
7215.918247958747
 20
545.4713615414439
 30
0.0
 40
99.0062966757751
100
AcDbArc
 50
2.062164900289918
 51
10.26868249881945
  0
ARC
  5
2FAD4
330
1F
100
AcDbEntity
  8
freecads.com
100
AcDbCircle
 10
7267.804458008249
 20
554.8713710675074
 30
0.0
 40
46.27548052061345
100
AcDbArc
 50
10.2687050840591
 51
23.32921619931807
  0
ARC
  5
2FAD5
330
1F
100
AcDbEntity
  8
freecads.com
100
AcDbCircle
 10
7271.581602160295
 20
556.5003425581453
 30
0.0
 40
42.16204326417372
100
AcDbArc
 50
23.32922561683053
 51
37.33410724968269
  0
ARC
  5
2FAD6
330
1F
100
AcDbEntity
  8
freecads.com
100
AcDbCircle
 10
7272.867689096543
 20
557.4812705870208
 30
0.0
 40
40.54456392731235
100
AcDbArc
 50
37.33412758586387
 51
51.68580764456772
  0
ARC
  5
2FAD7
330
1F
100
AcDbEntity
  8
freecads.com
100
AcDbCircle
 10
7280.607756105702
 20
567.2768434644167
 30
0.0
 40
28.0600981678012
100
AcDbArc
 50
51.68588641604802
 51
70.5958421110161
  0
ARC
  5
2FAD8
330
1F
100
AcDbEntity
  8
freecads.com
100
AcDbCircle
 10
7274.479504522358
 20
549.8786759764406
 30
0.0
 40
46.50601097816919
100
AcDbArc
 50
70.59587643131692
 51
84.43726783975062
  0
ARC
  5
2FAD9
330
1F
100
AcDbEntity
  8
freecads.com
100
AcDbCircle
 10
7258.028756744344
 20
380.9690248383849
 30
0.0
 40
216.2148715306932
100
AcDbArc
 50
84.43728694285226
 51
88.86340850632159
  0
ARC
  5
2FADA
330
1F
100
AcDbEntity
  8
freecads.com
100
AcDbCircle
 10
7257.724470831483
 20
365.6231006864691
 30
0.0
 40
231.5638121444428
100
AcDbArc
 50
88.8634518401079
 51
91.32065907347914
  0
ARC
  5
2FADB
330
1F
100
AcDbEntity
  8
freecads.com
100
AcDbCircle
 10
7259.655491985424
 20
281.8518933776577
 30
0.0
 40
315.3572726090444
100
AcDbArc
 50
91.32061646686086
 51
93.27000105617292
  0
ARC
  5
2FADC
330
1F
100
AcDbEntity
  8
freecads.com
100
AcDbCircle
 10
7258.346212168691
 20
304.7659741654134
 30
0.0
 40
292.4058170565963
100
AcDbArc
 50
93.26998166586845
 51
95.2622203286323
  0
ARC
  5
2FADD
330
1F
100
AcDbEntity
  8
freecads.com
100
AcDbCircle
 10
7242.520080848291
 20
476.5981370974186
 30
0.0
 40
119.8463819321729
100
AcDbArc
 50
95.26221355284537
 51
99.14122574486354
  0
ARC
  5
2FADE
330
1F
100
AcDbEntity
  8
freecads.com
100
AcDbCircle
 10
15018.88686862208
 20
476.9997175489988
 30
0.0
 40
8298.234505946714
100
AcDbArc
 50
179.9999729952396
 51
180.240156815159
  0
ARC
  5
2FADF
330
1F
100
AcDbEntity
  8
freecads.com
100
AcDbCircle
 10
6955.340442565881
 20
443.2006647454036
 30
0.0
 40
234.6172443741202
100
AcDbArc
 50
180.2400881560237
 51
183.3888660579941
  0
ARC
  5
2FAE0
330
1F
100
AcDbEntity
  8
freecads.com
100
AcDbCircle
 10
6760.898870212419
 20
431.6865533512827
 30
0.0
 40
39.83505879121094
100
AcDbArc
 50
183.3887640930346
 51
192.428555732209
  0
ARC
  5
2FAE1
330
1F
100
AcDbEntity
  8
freecads.com
100
AcDbCircle
 10
6723.391688515054
 20
423.4204625990314
 30
0.0
 40
1.42780771536493
100
AcDbArc
 50
192.4284390966791
 51
291.0362473084117
  0
ARC
  5
2FAE2
330
1F
100
AcDbEntity
  8
freecads.com
100
AcDbCircle
 10
6754.862055945967
 20
341.5920887247775
 30
0.0
 40
86.24354905034449
100
AcDbArc
 50
106.6974049696304
 51
111.0362396911998
  0
ARC
  5
2FAE3
330
1F
100
AcDbEntity
  8
freecads.com
100
AcDbCircle
 10
12548.63981538775
 20
-18973.1833559636
 30
0.0
 40
20251.27296148954
100
AcDbArc
 50
106.6060176833121
 51
106.6974617427423
  0
ARC
  5
2FAE4
330
1F
100
AcDbEntity
  8
freecads.com
100
AcDbCircle
 10
9894.20227554244
 20
-10072.40926613543
 30
0.0
 40
10963.11824428979
100
AcDbArc
 50
106.4445257754269
 51
106.6060998470231
  0
ARC
  5
2FAE5
330
1F
100
AcDbEntity
  8
freecads.com
100
AcDbCircle
 10
6884.084083829657
 20
125.8282233769278
 30
0.0
 40
329.9221386696355
100
AcDbArc
 50
104.4156322583954
 51
106.4445373982843
  0
ARC
  5
2FAE6
330
1F
100
AcDbEntity
  8
freecads.com
100
AcDbCircle
 10
6792.18425225679
 20
483.3496032604452
 30
0.0
 40
39.2216221024296
100
AcDbArc
 50
284.4155776849984
 51
289.0320762963022
  0
ARC
  5
2FAE7
330
1F
100
AcDbEntity
  8
freecads.com
100
AcDbCircle
 10
6797.480520540194
 20
467.9960374131187
 30
0.0
 40
22.98024155895581
100
AcDbArc
 50
289.0320877126486
 51
295.9215480784848
  0
ARC
  5
2FAE8
330
1F
100
AcDbEntity
  8
freecads.com
100
AcDbCircle
 10
6799.709185436106
 20
463.4106465242003
 30
0.0
 40
17.88193234684408
100
AcDbArc
 50
295.921584906493
 51
302.8126481043878
  0
ARC
  5
2FAE9
330
1F
100
AcDbEntity
  8
freecads.com
100
AcDbCircle
 10
6808.870942624373
 20
449.2012724866071
 30
0.0
 40
0.9750075727475714
100
AcDbArc
 50
302.8126292385025
 51
359.9999744343151
  0
ARC
  5
2FAEA
330
1F
100
AcDbEntity
  8
freecads.com
100
AcDbCircle
 10
6800.806722358494
 20
449.2012685702357
 30
0.0
 40
9.039227838616323
100
AcDbArc
 50
0.0000220665886378
 51
26.71795726546062
  0
ARC
  5
2FAEB
330
1F
100
AcDbEntity
  8
freecads.com
100
AcDbCircle
 10
-339.5599900533853
 20
-3144.828206118648
 30
0.0
 40
8002.90466657676
100
AcDbArc
 50
26.71792358751216
 51
26.94894009224829
  0
ARC
  5
2FAEC
330
1F
100
AcDbEntity
  8
freecads.com
100
AcDbCircle
 10
3904.547793250051
 20
-987.1039535636665
 30
0.0
 40
3241.78874420035
100
AcDbArc
 50
26.94885693306904
 51
27.48629035993331
  0
ARC
  5
2FAED
330
1F
100
AcDbEntity
  8
freecads.com
100
AcDbCircle
 10
6727.64732462239
 20
481.6501978443193
 30
0.0
 40
59.47359303870949
100
AcDbArc
 50
27.48628161071489
 51
36.96561561146635
  0
ARC
  5
2FAEE
330
1F
100
AcDbEntity
  8
freecads.com
100
AcDbCircle
 10
6748.080079290521
 20
497.0281391051466
 30
0.0
 40
33.90058889863882
100
AcDbArc
 50
36.96565257551615
 51
52.28408882143377
  0
ARC
  5
2FAEF
330
1F
100
AcDbEntity
  8
freecads.com
100
AcDbCircle
 10
6749.067393804129
 20
498.3048878459085
 30
0.0
 40
32.286625672609
100
AcDbArc
 50
52.28403895078606
 51
68.17323709386811
  0
ARC
  5
2FAF0
330
1F
100
AcDbEntity
  8
freecads.com
100
AcDbCircle
 10
6743.977033252682
 20
485.5952681657145
 30
0.0
 40
45.9777250791084
100
AcDbArc
 50
68.17325136147935
 51
81.10651757947307
  0
ARC
  5
2FAF1
330
1F
100
AcDbEntity
  8
freecads.com
100
AcDbCircle
 10
6732.075636379203
 20
409.537596846414
 30
0.0
 40
122.9609220382776
100
AcDbArc
 50
81.10654188743483
 51
87.31267840637636
  0
LINE
  5
2FAF2
330
1F
100
AcDbEntity
  8
freecads.com
100
AcDbLine
 10
6737.840710271456
 20
532.3632955886568
 30
0.0
 11
6720.652362676294
 21
533.1700738861764
 31
0.0
  0
LINE
  5
2FAF3
330
1F
100
AcDbEntity
  8
freecads.com
100
AcDbLine
 10
6720.652362676294
 20
533.1700738861764
 30
0.0
 11
6720.652362676294
 21
477.0036286886898
 31
0.0
  0
ARC
  5
2FAF4
330
1F
100
AcDbEntity
  8
freecads.com
100
AcDbCircle
 10
7144.783552149632
 20
-658.6203853275365
 30
0.0
 40
1131.221598181965
100
AcDbArc
 50
94.30976144304514
 51
98.50128245795955
  0
ARC
  5
2FAF5
330
1F
100
AcDbEntity
  8
freecads.com
100
AcDbCircle
 10
7182.264423623521
 20
-909.3670474883911
 30
0.0
 40
1384.754050366588
100
AcDbArc
 50
98.50131494396883
 51
102.1030894547983
  0
ARC
  5
2FAF6
330
1F
100
AcDbEntity
  8
freecads.com
100
AcDbCircle
 10
7210.210493101534
 20
-1039.690891231454
 30
0.0
 40
1518.040535229693
100
AcDbArc
 50
102.1030786777274
 51
105.5435463622406
  0
ARC
  5
2FAF7
330
1F
100
AcDbEntity
  8
freecads.com
100
AcDbCircle
 10
7283.879833616971
 20
-1304.550755582903
 30
0.0
 40
1792.9549209503
100
AcDbArc
 50
105.5435577865718
 51
108.5802855536128
  0
ARC
  5
2FAF8
330
1F
100
AcDbEntity
  8
freecads.com
100
AcDbCircle
 10
5921.191285531982
 20
2749.196438553772
 30
0.0
 40
2483.701061597992
100
AcDbArc
 50
288.2187334833211
 51
288.5803841438797
  0
ARC
  5
2FAF9
330
1F
100
AcDbEntity
  8
freecads.com
100
AcDbCircle
 10
6302.60888583945
 20
1590.383985309403
 30
0.0
 40
1263.731517872331
100
AcDbArc
 50
287.6192106442365
 51
288.2187523135936
  0
ARC
  5
2FAFA
330
1F
100
AcDbEntity
  8
freecads.com
100
AcDbCircle
 10
3527.814854924742
 20
10327.53015238965
 30
0.0
 40
10430.91238545069
100
AcDbArc
 50
287.5544941560173
 51
287.6191237935854
  0
ARC
  5
2FAFB
330
1F
100
AcDbEntity
  8
freecads.com
100
AcDbCircle
 10
6673.802823367907
 20
382.7218616453829
 30
0.0
 40
0.3586016266980825
100
AcDbArc
 50
210.9260967091437
 51
287.5543910163356
  0
ARC
  5
2FAFC
330
1F
100
AcDbEntity
  8
freecads.com
100
AcDbCircle
 10
6356.29063420833
 20
192.4979258356543
 30
0.0
 40
369.7753417233355
100
AcDbArc
 50
30.92614167268648
 51
32.98896321106749
  0
ARC
  5
2FAFD
330
1F
100
AcDbEntity
  8
freecads.com
100
AcDbCircle
 10
6624.180610529555
 20
366.3943187932455
 30
0.0
 40
50.39313355099017
100
AcDbArc
 50
32.98899674578109
 51
41.95968188864923
  0
ARC
  5
2FAFE
330
1F
100
AcDbEntity
  8
freecads.com
100
AcDbCircle
 10
6648.236526210894
 20
388.0237309922813
 30
0.0
 40
18.04319458129097
100
AcDbArc
 50
41.95968051257812
 51
58.41716317722533
  0
ARC
  5
2FAFF
330
1F
100
AcDbEntity
  8
freecads.com
100
AcDbCircle
 10
6653.738188334973
 20
396.9725569652291
 30
0.0
 40
7.538444587995726
100
AcDbArc
 50
58.41717737668315
 51
89.99998335224766
  0
LINE
  5
2FB00
330
1F
100
AcDbEntity
  8
freecads.com
100
AcDbLine
 10
6653.738190525328
 20
404.511001553219
 30
0.0
 11
6648.182572815625
 21
404.511001553219
 31
0.0
  0
LINE
  5
2FB01
330
1F
100
AcDbEntity
  8
freecads.com
100
AcDbLine
 10
6648.182572815625
 20
404.511001553219
 30
0.0
 11
6648.182572815625
 21
346.9068096126939
 31
0.0
  0
LINE
  5
2FB02
330
1F
100
AcDbEntity
  8
freecads.com
100
AcDbLine
 10
6648.182572815625
 20
346.9068096126939
 30
0.0
 11
6648.182572815625
 21
289.3026176721614
 31
0.0
  0
LINE
  5
2FB03
330
1F
100
AcDbEntity
  8
freecads.com
100
AcDbLine
 10
6648.182572815625
 20
289.3026176721614
 30
0.0
 11
6654.221721970694
 21
289.3122096992229
 31
0.0
  0
ARC
  5
2FB04
330
1F
100
AcDbEntity
  8
freecads.com
100
AcDbCircle
 10
6654.199077876736
 20
303.5595565697513
 30
0.0
 40
14.2473648652699
100
AcDbArc
 50
270.0910632648913
 51
284.3571342316466
  0
ARC
  5
2FB05
330
1F
100
AcDbEntity
  8
freecads.com
100
AcDbCircle
 10
6656.044498326257
 20
296.3497104323833
 30
0.0
 40
6.805089812570547
100
AcDbArc
 50
284.3571739820725
 51
309.1472608729855
  0
ARC
  5
2FB06
330
1F
100
AcDbEntity
  8
freecads.com
100
AcDbCircle
 10
6651.438892667487
 20
302.0073383360868
 30
0.0
 40
14.10031818327169
100
AcDbArc
 50
309.1473305686769
 51
324.5323884607723
  0
ARC
  5
2FB07
330
1F
100
AcDbEntity
  8
freecads.com
100
AcDbCircle
 10
6554.12915148589
 20
371.3346071411215
 30
0.0
 40
133.5802576241501
100
AcDbArc
 50
324.5324350834383
 51
327.4800258139432
  0
ARC
  5
2FB08
330
1F
100
AcDbEntity
  8
freecads.com
100
AcDbCircle
 10
6746.54911820039
 20
248.6551929327033
 30
0.0
 40
94.62071139424201
100
AcDbArc
 50
144.6263600307283
 51
147.4800007349132
  0
ARC
  5
2FB09
330
1F
100
AcDbEntity
  8
freecads.com
100
AcDbCircle
 10
6716.129450102991
 20
270.2522744722228
 30
0.0
 40
57.31400773148708
100
AcDbArc
 50
140.472187621172
 51
144.6263641706935
  0
ARC
  5
2FB0A
330
1F
100
AcDbEntity
  8
freecads.com
100
AcDbCircle
 10
6718.888893071256
 20
267.9752316212835
 30
0.0
 40
60.89163957900066
100
AcDbArc
 50
137.2992898261389
 51
140.4721273782883
  0
ARC
  5
2FB0B
330
1F
100
AcDbEntity
  8
freecads.com
100
AcDbCircle
 10
6675.196977115397
 20
308.2939705764438
 30
0.0
 40
1.43927014910511
100
AcDbArc
 50
90.28607587550018
 51
137.2991907405821
  0
ARC
  5
2FB0C
330
1F
100
AcDbEntity
  8
freecads.com
100
AcDbCircle
 10
6675.213242606158
 20
305.0352487259516
 30
0.0
 40
4.69803259289436
100
AcDbArc
 50
72.69439665232662
 51
90.28601085323998
  0
ARC
  5
2FB0D
330
1F
100
AcDbEntity
  8
freecads.com
100
AcDbCircle
 10
5927.934935936137
 20
-2093.374789016925
 30
0.0
 40
2516.827722072598
100
AcDbArc
 50
72.48149761308822
 51
72.69440866887854
  0
ARC
  5
2FB0E
330
1F
100
AcDbEntity
  8
freecads.com
100
AcDbCircle
 10
6389.862372391071
 20
-629.9757667837475
 30
0.0
 40
982.2549297871331
100
AcDbArc
 50
71.84986455085049
 51
72.48149162490958
  0
ARC
  5
2FB0F
330
1F
100
AcDbEntity
  8
freecads.com
100
AcDbCircle
 10
6153.752399884485
 20
-1350.228905762589
 30
0.0
 40
1740.220960240941
100
AcDbArc
 50
71.4383400973691
 51
71.84995253462737
  0
ARC
  5
2FB10
330
1F
100
AcDbEntity
  8
freecads.com
100
AcDbCircle
 10
7365.272576620395
 20
2257.714039467392
 30
0.0
 40
2065.699879013745
100
AcDbArc
 50
251.4383308012337
 51
253.9739093608534
  0
ARC
  5
2FB11
330
1F
100
AcDbEntity
  8
freecads.com
100
AcDbCircle
 10
7199.191344023041
 20
1679.50761772375
 30
0.0
 40
1464.113940046965
100
AcDbArc
 50
253.973842653931
 51
257.255749736325
  0
ARC
  5
2FB12
330
1F
100
AcDbEntity
  8
freecads.com
100
AcDbCircle
 10
7174.970649663956
 20
1572.417914758465
 30
0.0
 40
1354.319374988287
100
AcDbArc
 50
257.255752425596
 51
260.677431305704
  0
ARC
  5
2FB13
330
1F
100
AcDbEntity
  8
freecads.com
100
AcDbCircle
 10
7192.107711228077
 20
1676.81584784291
 30
0.0
 40
1460.114494490478
100
AcDbArc
 50
260.6774693779363
 51
263.9114868680675
  0
ARC
  5
2FB14
330
1F
100
AcDbEntity
  8
freecads.com
100
AcDbCircle
 10
7088.451622659282
 20
705.0389542600096
 30
0.0
 40
482.8249183673346
100
AcDbArc
 50
263.9115038924114
 51
269.2257661106266
  0
ARC
  5
2FB15
330
1F
100
AcDbEntity
  8
freecads.com
100
AcDbCircle
 10
7378.128371386701
 20
22139.77085160458
 30
0.0
 40
21919.51412472078
100
AcDbArc
 50
269.2257319386349
 51
269.5672145318534
  0
ARC
  5
2FB16
330
1F
100
AcDbEntity
  8
freecads.com
100
AcDbCircle
 10
7435.803670663926
 20
29772.59967918811
 30
0.0
 40
29552.56085267011
100
AcDbArc
 50
269.5671769388938
 51
269.8261537518484
  0
ARC
  5
2FB17
330
1F
100
AcDbEntity
  8
freecads.com
100
AcDbCircle
 10
7346.891417530118
 20
469.2242782218963
 30
0.0
 40
249.0505633087134
100
AcDbArc
 50
269.8261511413234
 51
277.580122999834
  0
ARC
  5
2FB18
330
1F
100
AcDbEntity
  8
freecads.com
100
AcDbCircle
 10
7362.688862416661
 20
350.514078614171
 30
0.0
 40
129.293848441252
100
AcDbArc
 50
277.5801069265757
 51
304.1915515033376
  0
ARC
  5
2FB19
330
1F
100
AcDbEntity
  8
freecads.com
100
AcDbCircle
 10
7365.936094481556
 20
345.7342198891492
 30
0.0
 40
123.5153048961136
100
AcDbArc
 50
304.1915999815301
 51
331.7307705281802
  0
ARC
  5
2FB1A
330
1F
100
AcDbEntity
  8
freecads.com
100
AcDbCircle
 10
7366.612335402111
 20
345.3705122781757
 30
0.0
 40
122.747460506729
100
AcDbArc
 50
331.730794257504
 51
359.370932186714
  0
ARC
  5
2FB1B
330
1F
100
AcDbEntity
  8
freecads.com
100
AcDbCircle
 10
7362.303519588341
 20
345.4177659851485
 30
0.0
 40
127.0565354221681
100
AcDbArc
 50
359.3709574362571
 51
26.30545559309609
  0
ARC
  5
2FB1C
330
1F
100
AcDbEntity
  8
freecads.com
100
AcDbCircle
 10
7360.189151931816
 20
344.3724980039988
 30
0.0
 40
129.4151654776336
100
AcDbArc
 50
26.3054682467412
 51
37.15079046254545
  0
ARC
  5
2FB1D
330
1F
100
AcDbEntity
  8
freecads.com
100
AcDbCircle
 10
7367.519122551384
 20
349.9264176822471
 30
0.0
 40
120.2187263259153
100
AcDbArc
 50
37.15075806947137
 51
48.61249535602983
  0
ARC
  5
2FB1E
330
1F
100
AcDbEntity
  8
freecads.com
100
AcDbCircle
 10
7366.219107785596
 20
348.4511537022627
 30
0.0
 40
122.1850534099234
100
AcDbArc
 50
48.61250721136396
 51
59.9754826896602
  0
ARC
  5
2FB1F
330
1F
100
AcDbEntity
  8
freecads.com
100
AcDbCircle
 10
7357.90144244727
 20
334.0588412776706
 30
0.0
 40
138.8079957970558
100
AcDbArc
 50
59.97546610278519
 51
70.30188070083659
  0
LINE
  5
2FB20
330
1F
100
AcDbEntity
  8
freecads.com
100
AcDbLine
 10
7404.688670021947
 20
464.7440165389489
 30
0.0
 11
7388.675169212423
 21
470.4770923238247
 31
0.0
  0
LINE
  5
2FB21
330
1F
100
AcDbEntity
  8
freecads.com
100
AcDbLine
 10
7388.675169212423
 20
470.4770923238247
 30
0.0
 11
7234.444590791013
 21
470.7100027956403
 31
0.0
  0
ARC
  5
2FB22
330
1F
100
AcDbEntity
  8
freecads.com
100
AcDbCircle
 10
7210.231179846698
 20
-15569.82832413161
 30
0.0
 40
16040.55660215354
100
AcDbArc
 50
89.91351130648844
 51
90.12986010580348
  0
ARC
  5
2FB23
330
1F
100
AcDbEntity
  8
freecads.com
100
AcDbCircle
 10
7197.475961180302
 20
-9943.330120025393
 30
0.0
 40
10414.04394008643
100
AcDbArc
 50
90.12984461777618
 51
90.4289284170508
  0
ARC
  5
2FB24
330
1F
100
AcDbEntity
  8
freecads.com
100
AcDbCircle
 10
7224.503204115987
 20
-13556.62980718322
 30
0.0
 40
14027.44470677094
100
AcDbArc
 50
90.4288336830414
 51
90.61561788252642
  0
ARC
  5
2FB25
330
1F
100
AcDbEntity
  8
freecads.com
100
AcDbCircle
 10
7076.125198587004
 20
252.428107955151
 30
0.0
 40
217.5896555341534
100
AcDbArc
 50
90.61560253080683
 51
94.30971443887896
  0
ARC
  5
2FB26
330
1F
100
AcDbEntity
  8
freecads.com
100
AcDbCircle
 10
6953.718222172698
 20
414.3801215183048
 30
0.0
 40
7.60342667982189
100
AcDbArc
 50
27.08963968667203
 51
47.85528745377417
  0
ARC
  5
2FB27
330
1F
100
AcDbEntity
  8
freecads.com
100
AcDbCircle
 10
6949.989203103919
 20
412.4727624282677
 30
0.0
 40
11.79193499583828
100
AcDbArc
 50
12.14189379507661
 51
27.08952896138205
  0
ARC
  5
2FB28
330
1F
100
AcDbEntity
  8
freecads.com
100
AcDbCircle
 10
6936.392415446651
 20
409.5474971845979
 30
0.0
 40
25.69983963105189
100
AcDbArc
 50
2.712820722043805
 51
12.1418201882762
  0
ARC
  5
2FB29
330
1F
100
AcDbEntity
  8
freecads.com
100
AcDbCircle
 10
6824.015725809324
 20
404.2228932192447
 30
0.0
 40
138.2026030692397
100
AcDbArc
 50
0.0000454678239204
 51
2.712759344131798
  0
ARC
  5
2FB2A
330
1F
100
AcDbEntity
  8
freecads.com
100
AcDbCircle
 10
6884.78448092677
 20
404.2229498323649
 30
0.0
 40
77.43384795176812
100
AcDbArc
 50
352.0171543391316
 51
0.0000392604559552
  0
ARC
  5
2FB2B
330
1F
100
AcDbEntity
  8
freecads.com
100
AcDbCircle
 10
6951.067725586966
 20
394.9276721486167
 30
0.0
 40
10.50201165615784
100
AcDbArc
 50
317.1918002369898
 51
352.0172162649755
  0
ARC
  5
2FB2C
330
1F
100
AcDbEntity
  8
freecads.com
100
AcDbCircle
 10
6951.867378314914
 20
394.1869478846856
 30
0.0
 40
9.412003894665438
100
AcDbArc
 50
279.6802371931373
 51
317.1919124132569
  0
ARC
  5
2FB2D
330
1F
100
AcDbEntity
  8
freecads.com
100
AcDbCircle
 10
6943.551835047706
 20
442.9361231393341
 30
0.0
 40
58.86531872630812
100
AcDbArc
 50
270.0000311093772
 51
279.6802365012677
  0
ARC
  5
2FB2E
330
1F
100
AcDbEntity
  8
freecads.com
100
AcDbCircle
 10
6943.551898876292
 20
487.9341665813772
 30
0.0
 40
103.8633621683452
100
AcDbArc
 50
266.5909058127882
 51
269.9999824205171
  0
ARC
  5
2FB2F
330
1F
100
AcDbEntity
  8
freecads.com
100
AcDbCircle
 10
6938.419484284342
 20
401.7765259428997
 30
0.0
 40
17.5529878212814
100
AcDbArc
 50
253.8929084384109
 51
266.5908534268658
  0
ARC
  5
2FB30
330
1F
100
AcDbEntity
  8
freecads.com
100
AcDbCircle
 10
6936.448944727279
 20
394.9526118858994
 30
0.0
 40
10.45025389670944
100
AcDbArc
 50
236.2561991498486
 51
253.892924090595
  0
ARC
  5
2FB31
330
1F
100
AcDbEntity
  8
freecads.com
100
AcDbCircle
 10
6941.219972224877
 20
402.0946626576696
 30
0.0
 40
19.03929299367411
100
AcDbArc
 50
225.0000433202377
 51
236.2562507050074
  0
ARC
  5
2FB32
330
1F
100
AcDbEntity
  8
freecads.com
100
AcDbCircle
 10
6941.255690149571
 20
402.130382784584
 30
0.0
 40
19.08980732439848
100
AcDbArc
 50
213.8746209202173
 51
225.000047879448
  0
ARC
  5
2FB33
330
1F
100
AcDbEntity
  8
freecads.com
100
AcDbCircle
 10
6934.155334520344
 20
397.3637106092574
 30
0.0
 40
10.53783599092501
100
AcDbArc
 50
196.5168063377773
 51
213.8746430864451
  0
ARC
  5
2FB34
330
1F
100
AcDbEntity
  8
freecads.com
100
AcDbCircle
 10
6940.356811749923
 20
399.2026667791506
 30
0.0
 40
17.00622679727004
100
AcDbArc
 50
183.6779458051517
 51
196.5168583146509
  0
ARC
  5
2FB35
330
1F
100
AcDbEntity
  8
freecads.com
100
AcDbCircle
 10
7015.18819587167
 20
404.013005802677
 30
0.0
 40
91.99206153354294
100
AcDbArc
 50
179.9999559718769
 51
183.678029211315
  0
ARC
  5
2FB36
330
1F
100
AcDbEntity
  8
freecads.com
100
AcDbCircle
 10
6997.110181343116
 20
404.0130765853609
 30
0.0
 40
73.91404700495546
100
AcDbArc
 50
171.9356259226903
 51
180.0000000717036
  0
ARC
  5
2FB37
330
1F
100
AcDbEntity
  8
freecads.com
100
AcDbCircle
 10
6933.239127565946
 20
413.0627549819037
 30
0.0
 40
9.405069415111739
100
AcDbArc
 50
135.1118565739061
 51
171.9356049477002
  0
ARC
  5
2FB38
330
1F
100
AcDbEntity
  8
freecads.com
100
AcDbCircle
 10
6933.201524288801
 20
413.1001997830171
 30
0.0
 40
9.352002292424502
100
AcDbArc
 50
98.14492453439552
 51
135.1118047523663
  0
ARC
  5
2FB39
330
1F
100
AcDbEntity
  8
freecads.com
100
AcDbCircle
 10
6942.201731128531
 20
350.2151380005671
 30
0.0
 40
72.87786095282645
100
AcDbArc
 50
89.99999890151682
 51
98.14494466397214
  0
ARC
  5
2FB3A
330
1F
100
AcDbEntity
  8
freecads.com
100
AcDbCircle
 10
6942.201823643627
 20
292.7890609922761
 30
0.0
 40
130.3039379611501
100
AcDbArc
 50
87.16083567059964
 51
90.00004006524601
  0
ARC
  5
2FB3B
330
1F
100
AcDbEntity
  8
freecads.com
100
AcDbCircle
 10
6946.952182069363
 20
388.5750636319936
 30
0.0
 40
34.40021432713805
100
AcDbArc
 50
79.51584575539847
 51
87.16084953183727
  0
ARC
  5
2FB3C
330
1F
100
AcDbEntity
  8
freecads.com
100
AcDbCircle
 10
6949.968336883699
 20
404.8739534159904
 30
0.0
 40
17.82459976673993
100
AcDbArc
 50
68.5378869834029
 51
79.5158343135777
  0
ARC
  5
2FB3D
330
1F
100
AcDbEntity
  8
freecads.com
100
AcDbCircle
 10
6953.696017263705
 20
414.3555985149869
 30
0.0
 40
7.636508934851552
100
AcDbArc
 50
47.85522131529076
 51
68.53789939548578
  0
ARC
  5
2FB3E
330
1F
100
AcDbEntity
  8
freecads.com
100
AcDbCircle
 10
7005.547331570254
 20
413.5935722830181
 30
0.0
 40
9.359577140863205
100
AcDbArc
 50
18.33576946698212
 51
35.00847268920479
  0
ARC
  5
2FB3F
330
1F
100
AcDbEntity
  8
freecads.com
100
AcDbCircle
 10
6987.95129050134
 20
407.7620580509392
 30
0.0
 40
27.8967619200629
100
AcDbArc
 50
10.95082011823945
 51
18.33575173017019
  0
ARC
  5
2FB40
330
1F
100
AcDbEntity
  8
freecads.com
100
AcDbCircle
 10
6977.8663138196
 20
405.8107390683871
 30
0.0
 40
38.16878219081223
100
AcDbArc
 50
4.525034590099939
 51
10.95079082281702
  0
ARC
  5
2FB41
330
1F
100
AcDbEntity
  8
freecads.com
100
AcDbCircle
 10
6955.152496459938
 20
404.0130857974654
 30
0.0
 40
60.95362487906388
100
AcDbArc
 50
359.9999912536143
 51
4.525082169551009
  0
ARC
  5
2FB42
330
1F
100
AcDbEntity
  8
freecads.com
100
AcDbCircle
 10
6924.114059805491
 20
404.013005802677
 30
0.0
 40
91.99206153354314
100
AcDbArc
 50
356.321970788685
 51
0.0000440281230965
  0
ARC
  5
2FB43
330
1F
100
AcDbEntity
  8
freecads.com
100
AcDbCircle
 10
6998.945443927252
 20
399.2026667791506
 30
0.0
 40
17.00622679727018
100
AcDbArc
 50
343.483141685349
 51
356.3220541948482
  0
ARC
  5
2FB44
330
1F
100
AcDbEntity
  8
freecads.com
100
AcDbCircle
 10
7005.146921156819
 20
397.3637106092574
 30
0.0
 40
10.53783599092513
100
AcDbArc
 50
326.1253569135549
 51
343.4831936622227
  0
ARC
  5
2FB45
330
1F
100
AcDbEntity
  8
freecads.com
100
AcDbCircle
 10
6998.046565527591
 20
402.130382784584
 30
0.0
 40
19.08980732439852
100
AcDbArc
 50
314.9999521205519
 51
326.1253790797827
  0
ARC
  5
2FB46
330
1F
100
AcDbEntity
  8
freecads.com
100
AcDbCircle
 10
6998.082283452284
 20
402.0946626576696
 30
0.0
 40
19.03929299367357
100
AcDbArc
 50
303.7437492949926
 51
314.9999566797622
  0
ARC
  5
2FB47
330
1F
100
AcDbEntity
  8
freecads.com
100
AcDbCircle
 10
7002.853310949882
 20
394.9526118858994
 30
0.0
 40
10.45025389670899
100
AcDbArc
 50
286.107075909405
 51
303.7438008501514
  0
ARC
  5
2FB48
330
1F
100
AcDbEntity
  8
freecads.com
100
AcDbCircle
 10
7000.882771392818
 20
401.7765259428997
 30
0.0
 40
17.55298782128133
100
AcDbArc
 50
273.4091465731342
 51
286.1070915615891
  0
ARC
  5
2FB49
330
1F
100
AcDbEntity
  8
freecads.com
100
AcDbCircle
 10
6995.750356800883
 20
487.9341665813772
 30
0.0
 40
103.8633621683444
100
AcDbArc
 50
270.0000175794829
 51
273.4090941872118
  0
ARC
  5
2FB4A
330
1F
100
AcDbEntity
  8
freecads.com
100
AcDbCircle
 10
6995.75038632899
 20
442.7909326563021
 30
0.0
 40
58.72012824327102
100
AcDbArc
 50
260.3376413591154
 51
270.0000022824271
  0
ARC
  5
2FB4B
330
1F
100
AcDbEntity
  8
freecads.com
100
AcDbCircle
 10
6987.492701618801
 20
394.2896084458844
 30
0.0
 40
9.520861918085618
100
AcDbArc
 50
223.2698053274341
 51
260.3375972302458
  0
ARC
  5
2FB4C
330
1F
100
AcDbEntity
  8
freecads.com
100
AcDbCircle
 10
6988.116926375631
 20
394.8772231648545
 30
0.0
 40
10.37815277011405
100
AcDbArc
 50
188.3019655396473
 51
223.2697886495899
  0
ARC
  5
2FB4D
330
1F
100
AcDbEntity
  8
freecads.com
100
AcDbCircle
 10
7049.951908253934
 20
403.9001775154901
 30
0.0
 40
72.86798145529608
100
AcDbArc
 50
180.0000333413617
 51
188.301996384687
  0
ARC
  5
2FB4E
330
1F
100
AcDbEntity
  8
freecads.com
100
AcDbCircle
 10
7063.543090840743
 20
403.9000898058438
 30
0.0
 40
86.45916404210364
100
AcDbArc
 50
172.8101050101122
 51
179.9999699755573
  0
ARC
  5
2FB4F
330
1F
100
AcDbEntity
  8
freecads.com
100
AcDbCircle
 10
6986.478094943421
 20
413.6218551773199
 30
0.0
 40
8.783387157729702
100
AcDbArc
 50
134.2620325017561
 51
172.8101086621771
  0
ARC
  5
2FB50
330
1F
100
AcDbEntity
  8
freecads.com
100
AcDbCircle
 10
6986.715657993364
 20
413.3780988465587
 30
0.0
 40
9.123759529498165
100
AcDbArc
 50
96.72450697967192
 51
134.2620610856588
  0
ARC
  5
2FB51
330
1F
100
AcDbEntity
  8
freecads.com
100
AcDbCircle
 10
6996.777581228278
 20
328.0406547038074
 30
0.0
 40
95.0523442496166
100
AcDbArc
 50
89.99995530778441
 51
96.72454936001235
  0
ARC
  5
2FB52
330
1F
100
AcDbEntity
  8
freecads.com
100
AcDbCircle
 10
6996.777726671644
 20
206.6388883082254
 30
0.0
 40
216.4541106451783
100
AcDbArc
 50
87.95530134717223
 51
90.00001887306664
  0
ARC
  5
2FB53
330
1F
100
AcDbEntity
  8
freecads.com
100
AcDbCircle
 10
7003.81439997752
 20
403.7338857141003
 30
0.0
 40
19.23354180502035
100
AcDbArc
 50
75.89517493507966
 51
87.95533461550034
  0
ARC
  5
2FB54
330
1F
100
AcDbEntity
  8
freecads.com
100
AcDbCircle
 10
7006.729225623335
 20
415.3341264456612
 30
0.0
 40
7.272697621798298
100
AcDbArc
 50
53.28819754479382
 51
75.89523621961163
  0
ARC
  5
2FB55
330
1F
100
AcDbEntity
  8
freecads.com
100
AcDbCircle
 10
7005.304437357103
 20
413.4234422814625
 30
0.0
 40
9.656126995385362
100
AcDbArc
 50
35.00847321540895
 51
53.28821736935211
  0
ARC
  5
2FB56
330
1F
100
AcDbEntity
  8
freecads.com
100
AcDbCircle
 10
7079.875321170941
 20
413.5935722830181
 30
0.0
 40
9.359577140863205
100
AcDbArc
 50
18.33576946698212
 51
35.00847268920479
  0
ARC
  5
2FB57
330
1F
100
AcDbEntity
  8
freecads.com
100
AcDbCircle
 10
7062.279280102011
 20
407.7620580509392
 30
0.0
 40
27.8967619200629
100
AcDbArc
 50
10.95082011823945
 51
18.33575173017019
  0
ARC
  5
2FB58
330
1F
100
AcDbEntity
  8
freecads.com
100
AcDbCircle
 10
7052.194303420271
 20
405.8107390683871
 30
0.0
 40
38.16878219081223
100
AcDbArc
 50
4.525034590099939
 51
10.95079082281702
  0
ARC
  5
2FB59
330
1F
100
AcDbEntity
  8
freecads.com
100
AcDbCircle
 10
7029.480486060624
 20
404.0130857974654
 30
0.0
 40
60.95362487906388
100
AcDbArc
 50
359.9999912536143
 51
4.525082169551009
  0
ARC
  5
2FB5A
330
1F
100
AcDbEntity
  8
freecads.com
100
AcDbCircle
 10
6998.442049406178
 20
404.013005802677
 30
0.0
 40
91.99206153354314
100
AcDbArc
 50
356.321970788685
 51
0.0000440281230965
  0
ARC
  5
2FB5B
330
1F
100
AcDbEntity
  8
freecads.com
100
AcDbCircle
 10
7073.273433527923
 20
399.2026667791506
 30
0.0
 40
17.00622679727018
100
AcDbArc
 50
343.483141685349
 51
356.3220541948482
  0
ARC
  5
2FB5C
330
1F
100
AcDbEntity
  8
freecads.com
100
AcDbCircle
 10
7079.474910757504
 20
397.3637106092574
 30
0.0
 40
10.53783599092513
100
AcDbArc
 50
326.1253569135549
 51
343.4831936622227
  0
ARC
  5
2FB5D
330
1F
100
AcDbEntity
  8
freecads.com
100
AcDbCircle
 10
7072.374555128277
 20
402.130382784584
 30
0.0
 40
19.08980732439852
100
AcDbArc
 50
314.9999521205519
 51
326.1253790797827
  0
ARC
  5
2FB5E
330
1F
100
AcDbEntity
  8
freecads.com
100
AcDbCircle
 10
7072.41027305297
 20
402.0946626576696
 30
0.0
 40
19.03929299367357
100
AcDbArc
 50
303.7437492949926
 51
314.9999566797622
  0
ARC
  5
2FB5F
330
1F
100
AcDbEntity
  8
freecads.com
100
AcDbCircle
 10
7077.181300550567
 20
394.9526118858994
 30
0.0
 40
10.45025389670899
100
AcDbArc
 50
286.107075909405
 51
303.7438008501514
  0
ARC
  5
2FB60
330
1F
100
AcDbEntity
  8
freecads.com
100
AcDbCircle
 10
7075.210760993489
 20
401.7765259428997
 30
0.0
 40
17.55298782128133
100
AcDbArc
 50
273.4091465731342
 51
286.1070915615891
  0
ARC
  5
2FB61
330
1F
100
AcDbEntity
  8
freecads.com
100
AcDbCircle
 10
7070.078346401555
 20
487.9341665813772
 30
0.0
 40
103.8633621683444
100
AcDbArc
 50
270.0000175794829
 51
273.4090941872118
  0
ARC
  5
2FB62
330
1F
100
AcDbEntity
  8
freecads.com
100
AcDbCircle
 10
7070.078375929675
 20
442.7909326563021
 30
0.0
 40
58.72012824327102
100
AcDbArc
 50
260.3376413591154
 51
270.0000022824271
  0
ARC
  5
2FB63
330
1F
100
AcDbEntity
  8
freecads.com
100
AcDbCircle
 10
7061.820691219487
 20
394.2896084458844
 30
0.0
 40
9.520861918085618
100
AcDbArc
 50
223.2698053274341
 51
260.3375972302458
  0
ARC
  5
2FB64
330
1F
100
AcDbEntity
  8
freecads.com
100
AcDbCircle
 10
7062.444915976318
 20
394.8772231648545
 30
0.0
 40
10.37815277011405
100
AcDbArc
 50
188.3019655396473
 51
223.2697886495899
  0
ARC
  5
2FB65
330
1F
100
AcDbEntity
  8
freecads.com
100
AcDbCircle
 10
7124.27989785462
 20
403.9001775154901
 30
0.0
 40
72.86798145529608
100
AcDbArc
 50
180.0000333413617
 51
188.301996384687
  0
ARC
  5
2FB66
330
1F
100
AcDbEntity
  8
freecads.com
100
AcDbCircle
 10
7137.87108044143
 20
403.9000898058438
 30
0.0
 40
86.45916404210364
100
AcDbArc
 50
172.8101050101122
 51
179.9999699755573
  0
ARC
  5
2FB67
330
1F
100
AcDbEntity
  8
freecads.com
100
AcDbCircle
 10
7060.806084544108
 20
413.6218551773199
 30
0.0
 40
8.783387157729702
100
AcDbArc
 50
134.2620325017561
 51
172.8101086621771
  0
ARC
  5
2FB68
330
1F
100
AcDbEntity
  8
freecads.com
100
AcDbCircle
 10
7061.043647594051
 20
413.3780988465587
 30
0.0
 40
9.123759529498165
100
AcDbArc
 50
96.72450697967192
 51
134.2620610856588
  0
ARC
  5
2FB69
330
1F
100
AcDbEntity
  8
freecads.com
100
AcDbCircle
 10
7071.105570828949
 20
328.0406547038074
 30
0.0
 40
95.0523442496166
100
AcDbArc
 50
89.99995530778441
 51
96.72454936001235
  0
ARC
  5
2FB6A
330
1F
100
AcDbEntity
  8
freecads.com
100
AcDbCircle
 10
7071.105716272315
 20
206.6388883082254
 30
0.0
 40
216.4541106451783
100
AcDbArc
 50
87.95530134717223
 51
90.00001887306664
  0
ARC
  5
2FB6B
330
1F
100
AcDbEntity
  8
freecads.com
100
AcDbCircle
 10
7078.142389578207
 20
403.7338857141003
 30
0.0
 40
19.23354180502035
100
AcDbArc
 50
75.89517493507966
 51
87.95533461550034
  0
ARC
  5
2FB6C
330
1F
100
AcDbEntity
  8
freecads.com
100
AcDbCircle
 10
7081.05721522402
 20
415.3341264456612
 30
0.0
 40
7.272697621798298
100
AcDbArc
 50
53.28819754479382
 51
75.89523621961163
  0
ARC
  5
2FB6D
330
1F
100
AcDbEntity
  8
freecads.com
100
AcDbCircle
 10
7079.63242695779
 20
413.4234422814625
 30
0.0
 40
9.656126995385362
100
AcDbArc
 50
35.00847321540895
 51
53.28821736935211
  0
ARC
  5
2FB6E
330
1F
100
AcDbEntity
  8
freecads.com
100
AcDbCircle
 10
7135.30814751047
 20
415.9374369803772
 30
0.0
 40
5.989944114223057
100
AcDbArc
 50
20.66352655846837
 51
45.0000393872873
  0
ARC
  5
2FB6F
330
1F
100
AcDbEntity
  8
freecads.com
100
AcDbCircle
 10
7124.033051771519
 20
411.6851365388065
 30
0.0
 40
18.04024879784448
100
AcDbArc
 50
9.965692773793726
 51
20.66351818248855
  0
ARC
  5
2FB70
330
1F
100
AcDbEntity
  8
freecads.com
100
AcDbCircle
 10
7105.98454710035
 20
408.5138355435119
 30
0.0
 40
36.36525004935322
100
AcDbArc
 50
2.631594293567212
 51
9.965699700123082
  0
ARC
  5
2FB71
330
1F
100
AcDbEntity
  8
freecads.com
100
AcDbCircle
 10
6998.085346553562
 20
403.5546201286124
 30
0.0
 40
144.3783571066343
100
AcDbArc
 50
359.9999680791626
 51
2.631562161038928
  0
ARC
  5
2FB72
330
1F
100
AcDbEntity
  8
freecads.com
100
AcDbCircle
 10
7062.579162132722
 20
403.5544935869693
 30
0.0
 40
79.8845415274582
100
AcDbArc
 50
352.3497639476498
 51
0.0000330680957299
  0
ARC
  5
2FB73
330
1F
100
AcDbEntity
  8
freecads.com
100
AcDbCircle
 10
7132.208545576824
 20
394.2017974595874
 30
0.0
 40
9.629833758828178
100
AcDbArc
 50
316.03898826929
 51
352.3498151306639
  0
ARC
  5
2FB74
330
1F
100
AcDbEntity
  8
freecads.com
100
AcDbCircle
 10
7132.56405507485
 20
393.8589501611787
 30
0.0
 40
9.135939768970786
100
AcDbArc
 50
278.3919192129884
 51
316.039001692874
  0
ARC
  5
2FB75
330
1F
100
AcDbEntity
  8
freecads.com
100
AcDbCircle
 10
7123.674106582709
 20
454.1204427446864
 30
0.0
 40
70.04963833165046
100
AcDbArc
 50
269.9999982707749
 51
278.3919108597041
  0
ARC
  5
2FB76
330
1F
100
AcDbEntity
  8
freecads.com
100
AcDbCircle
 10
7123.67414061875
 20
442.5845089128634
 30
0.0
 40
58.51370449983942
100
AcDbArc
 50
260.0587401949395
 51
269.9999646021611
  0
ARC
  5
2FB77
330
1F
100
AcDbEntity
  8
freecads.com
100
AcDbCircle
 10
7115.301407590829
 20
394.8139932283448
 30
0.0
 40
10.01499495905896
100
AcDbArc
 50
223.3818968899266
 51
260.0586872675245
  0
ARC
  5
2FB78
330
1F
100
AcDbEntity
  8
freecads.com
100
AcDbCircle
 10
7115.908890241961
 20
395.3880816378587
 30
0.0
 40
10.85082548808026
100
AcDbArc
 50
188.6323365780826
 51
223.3818358637172
  0
ARC
  5
2FB79
330
1F
100
AcDbEntity
  8
freecads.com
100
AcDbCircle
 10
7175.90816191757
 20
404.4966647185502
 30
0.0
 40
71.53755292777022
100
AcDbArc
 50
180.0000395235083
 51
188.6322625637709
  0
ARC
  5
2FB7A
330
1F
100
AcDbEntity
  8
freecads.com
100
AcDbCircle
 10
7287.098259902021
 20
404.4967415950232
 30
0.0
 40
182.7276509122467
100
AcDbArc
 50
177.7449504785745
 51
180.0000395785366
  0
ARC
  5
2FB7B
330
1F
100
AcDbEntity
  8
freecads.com
100
AcDbCircle
 10
7127.189312526636
 20
410.7937237272198
 30
0.0
 40
22.69476855780812
100
AcDbArc
 50
167.2639972033971
 51
177.7450205449822
  0
ARC
  5
2FB7C
330
1F
100
AcDbEntity
  8
freecads.com
100
AcDbCircle
 10
7113.628196078993
 20
413.8588165097972
 30
0.0
 40
8.791579244832407
100
AcDbArc
 50
148.4378600947441
 51
167.264046749896
  0
ARC
  5
2FB7D
330
1F
100
AcDbEntity
  8
freecads.com
100
AcDbCircle
 10
7112.126834814481
 20
414.7810833002295
 30
0.0
 40
7.029574228034231
100
AcDbArc
 50
126.1748759214011
 51
148.4377918485786
  0
ARC
  5
2FB7E
330
1F
100
AcDbEntity
  8
freecads.com
100
AcDbCircle
 10
7114.930490472005
 20
410.9468649861228
 30
0.0
 40
11.77949160901057
100
AcDbArc
 50
96.12322708548013
 51
126.174927509425
  0
ARC
  5
2FB7F
330
1F
100
AcDbEntity
  8
freecads.com
100
AcDbCircle
 10
7123.432252587983
 20
331.6972294925945
 30
0.0
 40
91.48384961366353
100
AcDbArc
 50
89.48720425734009
 51
96.12317977924885
  0
ARC
  5
2FB80
330
1F
100
AcDbEntity
  8
freecads.com
100
AcDbCircle
 10
7123.394285510513
 20
327.4555222023628
 30
0.0
 40
95.72572682015177
100
AcDbArc
 50
83.19427017796002
 51
89.4872025255443
  0
ARC
  5
2FB81
330
1F
100
AcDbEntity
  8
freecads.com
100
AcDbCircle
 10
7133.770584966143
 20
414.3998833248406
 30
0.0
 40
8.164379632092549
100
AcDbArc
 50
44.99998478817135
 51
83.19422508588264
  0
ARC
  5
2FB82
330
1F
100
AcDbEntity
  8
freecads.com
100
AcDbCircle
 10
7209.636137111157
 20
415.9374369803772
 30
0.0
 40
5.989944114223057
100
AcDbArc
 50
20.66352655846837
 51
45.0000393872873
  0
ARC
  5
2FB83
330
1F
100
AcDbEntity
  8
freecads.com
100
AcDbCircle
 10
7198.361041372191
 20
411.6851365388065
 30
0.0
 40
18.04024879784448
100
AcDbArc
 50
9.965692773793726
 51
20.66351818248855
  0
ARC
  5
2FB84
330
1F
100
AcDbEntity
  8
freecads.com
100
AcDbCircle
 10
7180.312536701037
 20
408.5138355435119
 30
0.0
 40
36.36525004935322
100
AcDbArc
 50
2.631594293567212
 51
9.965699700123082
  0
ARC
  5
2FB85
330
1F
100
AcDbEntity
  8
freecads.com
100
AcDbCircle
 10
7072.413336154234
 20
403.5546201286124
 30
0.0
 40
144.3783571066343
100
AcDbArc
 50
359.9999680791626
 51
2.631562161038928
  0
ARC
  5
2FB86
330
1F
100
AcDbEntity
  8
freecads.com
100
AcDbCircle
 10
7136.76899081147
 20
403.5544662599423
 30
0.0
 40
80.02270244940579
100
AcDbArc
 50
352.3339874717033
 51
0.000052576906923
  0
ARC
  5
2FB87
330
1F
100
AcDbEntity
  8
freecads.com
100
AcDbCircle
 10
7206.643116345091
 20
394.1492983397038
 30
0.0
 40
9.518442984516546
100
AcDbArc
 50
315.599906403269
 51
352.3340988963937
  0
ARC
  5
2FB88
330
1F
100
AcDbEntity
  8
freecads.com
100
AcDbCircle
 10
7206.847196513132
 20
393.9494330160669
 30
0.0
 40
9.232794839995042
100
AcDbArc
 50
278.0876266431973
 51
315.5999711570935
  0
ARC
  5
2FB89
330
1F
100
AcDbEntity
  8
freecads.com
100
AcDbCircle
 10
7197.711816176743
 20
458.2369303500745
 30
0.0
 40
74.16612593705494
100
AcDbArc
 50
269.9999649452547
 51
278.0876867563602
  0
ARC
  5
2FB8A
330
1F
100
AcDbEntity
  8
freecads.com
100
AcDbCircle
 10
7197.711711274184
 20
477.1142376990028
 30
0.0
 40
93.04343328598992
100
AcDbArc
 50
266.3176100595982
 51
270.0000366559877
  0
ARC
  5
2FB8B
330
1F
100
AcDbEntity
  8
freecads.com
100
AcDbCircle
 10
7192.786630210132
 20
400.5889177577483
 30
0.0
 40
16.3597908608009
100
AcDbArc
 50
252.9888011709878
 51
266.3177108086165
  0
ARC
  5
2FB8C
330
1F
100
AcDbEntity
  8
freecads.com
100
AcDbCircle
 10
7191.056973644998
 20
394.9354247585288
 30
0.0
 40
10.44762586601621
100
AcDbArc
 50
235.2554901699633
 51
252.9888112776957
  0
ARC
  5
2FB8D
330
1F
100
AcDbEntity
  8
freecads.com
100
AcDbCircle
 10
7197.485334542929
 20
404.203776035938
 30
0.0
 40
21.72708326588757
100
AcDbArc
 50
224.9999959570875
 51
235.2555069415924
  0
ARC
  5
2FB8E
330
1F
100
AcDbEntity
  8
freecads.com
100
AcDbCircle
 10
7199.035185258487
 20
405.7536570581796
 30
0.0
 40
23.91892459755479
100
AcDbArc
 50
215.207973860703
 51
225.0000476613109
  0
ARC
  5
2FB8F
330
1F
100
AcDbEntity
  8
freecads.com
100
AcDbCircle
 10
7186.11315803563
 20
396.6354866974507
 30
0.0
 40
8.103747764032567
100
AcDbArc
 50
193.2605023568589
 51
215.2080352968888
  0
ARC
  5
2FB90
330
1F
100
AcDbEntity
  8
freecads.com
100
AcDbCircle
 10
7192.976294704742
 20
398.2528855175333
 30
0.0
 40
15.15489120904074
100
AcDbArc
 50
178.8376605051608
 51
193.260564273181
  0
ARC
  5
2FB91
330
1F
100
AcDbEntity
  8
freecads.com
100
AcDbCircle
 10
7344.882251777163
 20
395.1708068419685
 30
0.0
 40
167.0921118070562
100
AcDbArc
 50
176.3566235010341
 51
178.8376630123861
  0
ARC
  5
2FB92
330
1F
100
AcDbEntity
  8
freecads.com
100
AcDbCircle
 10
7246.330980179613
 20
401.446065340162
 30
0.0
 40
68.34125356921041
100
AcDbArc
 50
168.1872109957647
 51
176.3566482989163
  0
ARC
  5
2FB93
330
1F
100
AcDbEntity
  8
freecads.com
100
AcDbCircle
 10
7187.808564289692
 20
413.6856805671049
 30
0.0
 40
8.552614661008796
100
AcDbArc
 50
130.4389480755753
 51
168.187289826042
  0
ARC
  5
2FB94
330
1F
100
AcDbEntity
  8
freecads.com
100
AcDbCircle
 10
7188.672384795616
 20
412.6721140603621
 30
0.0
 40
9.884343961536183
100
AcDbArc
 50
96.29333194099658
 51
130.4390321822987
  0
ARC
  5
2FB95
330
1F
100
AcDbEntity
  8
freecads.com
100
AcDbCircle
 10
7198.432070217357
 20
324.1759921590492
 30
0.0
 40
98.91700679435428
100
AcDbArc
 50
89.99996871553246
 51
96.29335908389862
  0
ARC
  5
2FB96
330
1F
100
AcDbEntity
  8
freecads.com
100
AcDbCircle
 10
7198.432219435563
 20
311.6013473690473
 30
0.0
 40
111.4916515843832
100
AcDbArc
 50
86.93651148504448
 51
90.0000489273164
  0
ARC
  5
2FB97
330
1F
100
AcDbEntity
  8
freecads.com
100
AcDbCircle
 10
7202.646156968753
 20
390.3384528162278
 30
0.0
 40
32.64186373600935
100
AcDbArc
 50
79.2903782196275
 51
86.93652663616571
  0
ARC
  5
2FB98
330
1F
100
AcDbEntity
  8
freecads.com
100
AcDbCircle
 10
7205.493440036692
 20
405.3935352899206
 30
0.0
 40
17.31990142181112
100
AcDbArc
 50
68.58447453604568
 51
79.29030387616845
  0
ARC
  5
2FB99
330
1F
100
AcDbEntity
  8
freecads.com
100
AcDbCircle
 10
7209.624125250717
 20
415.925430223906
 30
0.0
 40
6.006927841111844
100
AcDbArc
 50
45.00000485206943
 51
68.58437012885087
  0
ARC
  5
2FB9A
330
1F
100
AcDbEntity
  8
freecads.com
100
AcDbCircle
 10
7262.162629533531
 20
414.3616153775147
 30
0.0
 40
7.628387096335732
100
AcDbArc
 50
27.31809439287979
 51
47.85527826788338
  0
ARC
  5
2FB9B
330
1F
100
AcDbEntity
  8
freecads.com
100
AcDbCircle
 10
7258.544155902288
 20
412.492551599651
 30
0.0
 40
11.70107058828542
100
AcDbArc
 50
12.41260399332424
 51
27.31801987705936
  0
ARC
  5
2FB9C
330
1F
100
AcDbEntity
  8
freecads.com
100
AcDbCircle
 10
7245.69445715085
 20
409.6643707081311
 30
0.0
 40
24.8583258171497
100
AcDbArc
 50
2.853943399101026
 51
12.41266682685107
  0
ARC
  5
2FB9D
330
1F
100
AcDbEntity
  8
freecads.com
100
AcDbCircle
 10
7143.675069653909
 20
404.5782790662342
 30
0.0
 40
127.0044160674931
100
AcDbArc
 50
359.9999465597311
 51
2.854045559046726
  0
ARC
  5
2FB9E
330
1F
100
AcDbEntity
  8
freecads.com
100
AcDbCircle
 10
7174.70259992138
 20
404.5780618478238
 30
0.0
 40
95.97688580001827
100
AcDbArc
 50
353.6093403340873
 51
0.0000589574892193
  0
ARC
  5
2FB9F
330
1F
100
AcDbEntity
  8
freecads.com
100
AcDbCircle
 10
7260.180620950151
 20
395.0042685346125
 30
0.0
 40
9.964389048676009
100
AcDbArc
 50
319.8652062658901
 51
353.6093785683316
  0
ARC
  5
2FBA0
330
1F
100
AcDbEntity
  8
freecads.com
100
AcDbCircle
 10
7261.313942602908
 20
394.0487452774832
 30
0.0
 40
8.482011679880063
100
AcDbArc
 50
282.1518847766184
 51
319.8652112349508
  0
ARC
  5
2FBA1
330
1F
100
AcDbEntity
  8
freecads.com
100
AcDbCircle
 10
7249.71273319947
 20
447.9248136257155
 30
0.0
 40
63.59297973781403
100
AcDbArc
 50
273.6090418402785
 51
282.1520089017468
  0
ARC
  5
2FBA2
330
1F
100
AcDbEntity
  8
freecads.com
100
AcDbCircle
 10
7245.800260541874
 20
509.9551962132391
 30
0.0
 40
125.7466265033135
100
AcDbArc
 50
270.6167787862526
 51
273.6090527199549
  0
ARC
  5
2FBA3
330
1F
100
AcDbEntity
  8
freecads.com
100
AcDbCircle
 10
7246.937029289708
 20
404.3600054447815
 30
0.0
 40
20.14531705777542
100
AcDbArc
 50
259.03293395846
 51
270.6167459219839
  0
ARC
  5
2FBA4
330
1F
100
AcDbEntity
  8
freecads.com
100
AcDbCircle
 10
7245.308208780262
 20
395.9545521480977
 30
0.0
 40
11.58350058146596
100
AcDbArc
 50
242.5844714052409
 51
259.0328339101594
  0
ARC
  5
2FBA5
330
1F
100
AcDbEntity
  8
freecads.com
100
AcDbCircle
 10
7249.268620818111
 20
403.58986799189
 30
0.0
 40
20.18483254482596
100
AcDbArc
 50
231.7320239346862
 51
242.5844349190775
  0
ARC
  5
2FBA6
330
1F
100
AcDbEntity
  8
freecads.com
100
AcDbCircle
 10
7249.735631287491
 20
404.1818881301151
 30
0.0
 40
20.93887937532448
100
AcDbArc
 50
221.1066963833851
 51
231.732027855347
  0
ARC
  5
2FBA7
330
1F
100
AcDbEntity
  8
freecads.com
100
AcDbCircle
 10
7239.586008393046
 20
395.3257301875055
 30
0.0
 40
7.468676021114193
100
AcDbArc
 50
198.179528190634
 51
221.1067634221919
  0
ARC
  5
2FBA8
330
1F
100
AcDbEntity
  8
freecads.com
100
AcDbCircle
 10
7245.482544286978
 20
397.2621015268742
 30
0.0
 40
13.6750170939258
100
AcDbArc
 50
182.8490921637355
 51
198.1796208877761
  0
ARC
  5
2FBA9
330
1F
100
AcDbEntity
  8
freecads.com
100
AcDbCircle
 10
7366.87384796777
 20
403.3033978774474
 30
0.0
 40
135.2165567868174
100
AcDbArc
 50
180.0000375633307
 51
182.8490953146794
  0
ARC
  5
2FBAA
330
1F
100
AcDbEntity
  8
freecads.com
100
AcDbCircle
 10
7316.331283106993
 20
403.3032362465237
 30
0.0
 40
84.67399192604029
100
AcDbArc
 50
172.61364533246
 51
179.9999506155728
  0
ARC
  5
2FBAB
330
1F
100
AcDbEntity
  8
freecads.com
100
AcDbCircle
 10
7241.943048725065
 20
412.9465644791707
 30
0.0
 40
9.663304728386874
100
AcDbArc
 50
136.1577824037297
 51
172.6136319058245
  0
ARC
  5
2FBAC
330
1F
100
AcDbEntity
  8
freecads.com
100
AcDbCircle
 10
7241.54439227657
 20
413.3294441406833
 30
0.0
 40
9.110562655660583
100
AcDbArc
 50
98.19210868897977
 51
136.1578622232563
  0
ARC
  5
2FBAD
330
1F
100
AcDbEntity
  8
freecads.com
100
AcDbCircle
 10
7250.662905728532
 20
349.9895648453166
 30
0.0
 40
73.10343410807168
100
AcDbArc
 50
90.00001282244621
 51
98.19211035685022
  0
ARC
  5
2FBAE
330
1F
100
AcDbEntity
  8
freecads.com
100
AcDbCircle
 10
7250.662980486464
 20
292.7890609922761
 30
0.0
 40
130.3039379611501
100
AcDbArc
 50
87.16083567059964
 51
90.00004006524601
  0
ARC
  5
2FBAF
330
1F
100
AcDbEntity
  8
freecads.com
100
AcDbCircle
 10
7255.4133389122
 20
388.5750636319936
 30
0.0
 40
34.40021432713805
100
AcDbArc
 50
79.51584575539847
 51
87.16084953183727
  0
ARC
  5
2FBB0
330
1F
100
AcDbEntity
  8
freecads.com
100
AcDbCircle
 10
7258.429493726537
 20
404.8739534159904
 30
0.0
 40
17.82459976673993
100
AcDbArc
 50
68.5378869834029
 51
79.5158343135777
  0
ARC
  5
2FBB1
330
1F
100
AcDbEntity
  8
freecads.com
100
AcDbCircle
 10
7262.157174106526
 20
414.3555985149869
 30
0.0
 40
7.636508934851552
100
AcDbArc
 50
47.85522131529076
 51
68.53789939548578
  0
ARC
  5
2FBB2
330
1F
100
AcDbEntity
  8
freecads.com
100
AcDbCircle
 10
7380.995657936757
 20
408.5332475183458
 30
0.0
 40
14.43337878993818
100
AcDbArc
 50
23.48639887484644
 51
46.78817950642108
  0
ARC
  5
2FBB3
330
1F
100
AcDbEntity
  8
freecads.com
100
AcDbCircle
 10
7382.667663477071
 20
409.2597684688225
 30
0.0
 40
12.6103496573964
100
AcDbArc
 50
357.7026907934997
 51
23.4864649238413
  0
ARC
  5
2FBB4
330
1F
100
AcDbEntity
  8
freecads.com
100
AcDbCircle
 10
7382.718024039511
 20
409.257739861634
 30
0.0
 40
12.55994825436055
100
AcDbArc
 50
331.8587618639654
 51
357.7027285664479
  0
ARC
  5
2FBB5
330
1F
100
AcDbEntity
  8
freecads.com
100
AcDbCircle
 10
7381.218197812646
 20
410.0599518318849
 30
0.0
 40
14.26083706788704
100
AcDbArc
 50
308.3617343216266
 51
331.8587917602866
  0
ARC
  5
2FBB6
330
1F
100
AcDbEntity
  8
freecads.com
100
AcDbCircle
 10
7379.596754474348
 20
412.1085145650868
 30
0.0
 40
16.8734387924474
100
AcDbArc
 50
293.6163017339111
 51
308.3617316007022
  0
ARC
  5
2FBB7
330
1F
100
AcDbEntity
  8
freecads.com
100
AcDbCircle
 10
7380.717524797306
 20
409.5451639560924
 30
0.0
 40
14.07578040346159
100
AcDbArc
 50
276.7238435925137
 51
293.6162967308137
  0
ARC
  5
2FBB8
330
1F
100
AcDbEntity
  8
freecads.com
100
AcDbCircle
 10
7377.096894878151
 20
440.2553252007201
 30
0.0
 40
44.99863545731503
100
AcDbArc
 50
268.8660167244279
 51
276.7239170592003
  0
ARC
  5
2FBB9
330
1F
100
AcDbEntity
  8
freecads.com
100
AcDbCircle
 10
7392.300619909612
 20
1208.33071766475
 30
0.0
 40
813.224488812696
100
AcDbArc
 50
267.9112319965343
 51
268.866003342407
  0
ARC
  5
2FBBA
330
1F
100
AcDbEntity
  8
freecads.com
100
AcDbCircle
 10
7372.5694561282
 20
667.3304651956714
 30
0.0
 40
271.8645420160792
100
AcDbArc
 50
265.600640186175
 51
267.9111860977978
  0
ARC
  5
2FBBB
330
1F
100
AcDbEntity
  8
freecads.com
100
AcDbCircle
 10
7364.866461787271
 20
567.204305527317
 30
0.0
 40
171.4425127012679
100
AcDbArc
 50
262.3367787654522
 51
265.6005840736566
  0
ARC
  5
2FBBC
330
1F
100
AcDbEntity
  8
freecads.com
100
AcDbCircle
 10
7361.069605411569
 20
538.9842498084326
 30
0.0
 40
142.9681792926169
100
AcDbArc
 50
258.7470683136197
 51
262.3366991087333
  0
ARC
  5
2FBBD
330
1F
100
AcDbEntity
  8
freecads.com
100
AcDbCircle
 10
7356.041159548126
 20
513.7109638625989
 30
0.0
 40
117.1995112964584
100
AcDbArc
 50
254.5804875275071
 51
258.7470358875856
  0
ARC
  5
2FBBE
330
1F
100
AcDbEntity
  8
freecads.com
100
AcDbCircle
 10
7372.166320746138
 20
572.1758567224169
 30
0.0
 40
177.8473844723017
100
AcDbArc
 50
249.5817055124444
 51
254.5805423609978
  0
ARC
  5
2FBBF
330
1F
100
AcDbEntity
  8
freecads.com
100
AcDbCircle
 10
7311.447600563333
 20
409.0675598065063
 30
0.0
 40
3.804057960055594
100
AcDbArc
 50
170.7418292670488
 51
249.5816753173217
  0
ARC
  5
2FBC0
330
1F
100
AcDbEntity
  8
freecads.com
100
AcDbCircle
 10
7312.923804374571
 20
408.8269275706261
 30
0.0
 40
5.299745616370786
100
AcDbArc
 50
108.2750675488615
 51
170.7418178052592
  0
ARC
  5
2FBC1
330
1F
100
AcDbEntity
  8
freecads.com
100
AcDbCircle
 10
7391.842133569153
 20
169.8509573578703
 30
0.0
 40
256.9694041411834
100
AcDbArc
 50
104.4288048489944
 51
108.2750531633232
  0
ARC
  5
2FBC2
330
1F
100
AcDbEntity
  8
freecads.com
100
AcDbCircle
 10
7363.394028277456
 20
280.4180014008816
 30
0.0
 40
142.8012565557382
100
AcDbArc
 50
100.7846207045765
 51
104.4287834973581
  0
ARC
  5
2FBC3
330
1F
100
AcDbEntity
  8
freecads.com
100
AcDbCircle
 10
7358.277619653032
 20
307.2782356650205
 30
0.0
 40
115.4580705318668
100
AcDbArc
 50
96.5108428750794
 51
100.7846125688409
  0
ARC
  5
2FBC4
330
1F
100
AcDbEntity
  8
freecads.com
100
AcDbCircle
 10
7360.490266954425
 20
287.8910627153673
 30
0.0
 40
134.9710990784185
100
AcDbArc
 50
92.5981679382097
 51
96.510860313989
  0
ARC
  5
2FBC5
330
1F
100
AcDbEntity
  8
freecads.com
100
AcDbCircle
 10
7366.544883929019
 20
154.4632801656553
 30
0.0
 40
268.5361826251405
100
AcDbArc
 50
90.25965860177539
 51
92.59816197776167
  0
ARC
  5
2FBC6
330
1F
100
AcDbEntity
  8
freecads.com
100
AcDbCircle
 10
7368.381098922474
 20
-250.9180794839194
 30
0.0
 40
673.9217009117217
100
AcDbArc
 50
89.18884257691386
 51
90.25957831412855
  0
ARC
  5
2FBC7
330
1F
100
AcDbEntity
  8
freecads.com
100
AcDbCircle
 10
7377.311653963523
 20
379.8486903609082
 30
0.0
 40
43.09171370931608
100
AcDbArc
 50
81.22490529597977
 51
89.18879103308499
  0
ARC
  5
2FBC8
330
1F
100
AcDbEntity
  8
freecads.com
100
AcDbCircle
 10
7381.843140134254
 20
409.2047178663415
 30
0.0
 40
13.38799815358798
100
AcDbArc
 50
64.26520447109957
 51
81.224898531266
  0
ARC
  5
2FBC9
330
1F
100
AcDbEntity
  8
freecads.com
100
AcDbCircle
 10
7382.071441230714
 20
409.6783706352725
 30
0.0
 40
12.86219558977412
100
AcDbArc
 50
46.78816796989266
 51
64.26517653059652
  0
ARC
  5
2FBCA
330
1F
100
AcDbEntity
  8
freecads.com
100
AcDbCircle
 10
6824.814047448235
 20
346.6041687555335
 30
0.0
 40
16.84157910598924
100
AcDbArc
 50
35.60210193623948
 51
61.96004795766249
  0
ARC
  5
2FBCB
330
1F
100
AcDbEntity
  8
freecads.com
100
AcDbCircle
 10
6825.056133823323
 20
346.7775370476084
 30
0.0
 40
16.54381682375289
100
AcDbArc
 50
8.889259539194876
 51
35.60199482787326
  0
ARC
  5
2FBCC
330
1F
100
AcDbEntity
  8
freecads.com
100
AcDbCircle
 10
6824.170014132237
 20
346.6389668027769
 30
0.0
 40
17.44070579081303
100
AcDbArc
 50
342.9852579975444
 51
8.889187424165568
  0
ARC
  5
2FBCD
330
1F
100
AcDbEntity
  8
freecads.com
100
AcDbCircle
 10
6822.032149713152
 20
347.2931933785512
 30
0.0
 40
19.67643311915218
100
AcDbArc
 50
319.3205811010506
 51
342.9852181730591
  0
ARC
  5
2FBCE
330
1F
100
AcDbEntity
  8
freecads.com
100
AcDbCircle
 10
6822.220608722462
 20
347.1312451721169
 30
0.0
 40
19.42794968093413
100
AcDbArc
 50
306.1421217280632
 51
319.3205042286598
  0
ARC
  5
2FBCF
330
1F
100
AcDbEntity
  8
freecads.com
100
AcDbCircle
 10
6828.127608063791
 20
339.0432375067903
 30
0.0
 40
9.412536099222334
100
AcDbArc
 50
283.4826071068732
 51
306.1420724330787
  0
ARC
  5
2FBD0
330
1F
100
AcDbEntity
  8
freecads.com
100
AcDbCircle
 10
6823.613198187565
 20
357.8725617086456
 30
0.0
 40
28.7754735423815
100
AcDbArc
 50
272.9216394848386
 51
283.4824792932748
  0
ARC
  5
2FBD1
330
1F
100
AcDbEntity
  8
freecads.com
100
AcDbCircle
 10
6791.10812514332
 20
994.7897416037012
 30
0.0
 40
666.521562373229
100
AcDbArc
 50
271.8421149359892
 51
272.9215594399866
  0
ARC
  5
2FBD2
330
1F
100
AcDbEntity
  8
freecads.com
100
AcDbCircle
 10
6804.829981022194
 20
568.138424151235
 30
0.0
 40
239.649642457386
100
AcDbArc
 50
267.4297694945811
 51
271.8421451830455
  0
ARC
  5
2FBD3
330
1F
100
AcDbEntity
  8
freecads.com
100
AcDbCircle
 10
6805.419172746784
 20
581.2646353031304
 30
0.0
 40
252.789070378396
100
AcDbArc
 50
263.1906017787954
 51
267.4297767564612
  0
ARC
  5
2FBD4
330
1F
100
AcDbEntity
  8
freecads.com
100
AcDbCircle
 10
6805.245614674699
 20
579.8084913994025
 30
0.0
 40
251.3226197750881
100
AcDbArc
 50
258.9392120898894
 51
263.1905296060633
  0
ARC
  5
2FBD5
330
1F
100
AcDbEntity
  8
freecads.com
100
AcDbCircle
 10
6801.657995565503
 20
561.4557534429549
 30
0.0
 40
232.6225127868744
100
AcDbArc
 50
254.4340516508793
 51
258.9392113732988
  0
ARC
  5
2FBD6
330
1F
100
AcDbEntity
  8
freecads.com
100
AcDbCircle
 10
6844.059497324852
 20
713.6696652702449
 30
0.0
 40
390.6318868923628
100
AcDbArc
 50
252.9404705015553
 51
254.4340357372113
  0
ARC
  5
2FBD7
330
1F
100
AcDbEntity
  8
freecads.com
100
AcDbCircle
 10
6738.729944474748
 20
370.42798671325
 30
0.0
 40
31.59266256971476
100
AcDbArc
 50
243.5246706001679
 51
252.9403999008024
  0
ARC
  5
2FBD8
330
1F
100
AcDbEntity
  8
freecads.com
100
AcDbCircle
 10
6728.497899561684
 20
349.8835081902798
 30
0.0
 40
8.641184602413623
100
AcDbArc
 50
222.4484920276917
 51
243.5246024004848
  0
ARC
  5
2FBD9
330
1F
100
AcDbEntity
  8
freecads.com
100
AcDbCircle
 10
6725.440571531682
 20
347.0870311277249
 30
0.0
 40
4.497811743928648
100
AcDbArc
 50
188.1037478087934
 51
222.4484524512869
  0
ARC
  5
2FBDA
330
1F
100
AcDbEntity
  8
freecads.com
100
AcDbCircle
 10
6741.085687505488
 20
349.3147082864525
 30
0.0
 40
20.30072917576958
100
AcDbArc
 50
183.5665241928129
 51
188.1037570666237
  0
ARC
  5
2FBDB
330
1F
100
AcDbEntity
  8
freecads.com
100
AcDbCircle
 10
6730.874381504197
 20
348.6782306310342
 30
0.0
 40
10.0696063607219
100
AcDbArc
 50
175.8998523277564
 51
183.5663752863097
  0
ARC
  5
2FBDC
330
1F
100
AcDbEntity
  8
freecads.com
100
AcDbCircle
 10
6727.346246216301
 20
348.9311416694182
 30
0.0
 40
6.532417843966825
100
AcDbArc
 50
167.2346915341914
 51
175.8998699676243
  0
ARC
  5
2FBDD
330
1F
100
AcDbEntity
  8
freecads.com
100
AcDbCircle
 10
6721.28660723289
 20
350.304000167198
 30
0.0
 40
0.3192089255330266
100
AcDbArc
 50
90.00001883429666
 51
167.2347180223762
  0
ARC
  5
2FBDE
330
1F
100
AcDbEntity
  8
freecads.com
100
AcDbCircle
 10
6721.286606724695
 20
353.3984740759988
 30
0.0
 40
2.775264983271577
100
AcDbArc
 50
270.0000083255437
 51
284.1281832103571
  0
ARC
  5
2FBDF
330
1F
100
AcDbEntity
  8
freecads.com
100
AcDbCircle
 10
6029.709929894437
 20
3100.937956610164
 30
0.0
 40
2836.015725660703
100
AcDbArc
 50
284.1282914936323
 51
284.2392161143982
  0
ARC
  5
2FBE0
330
1F
100
AcDbEntity
  8
freecads.com
100
AcDbCircle
 10
6508.137247911175
 20
1215.637177229349
 30
0.0
 40
890.957441866057
100
AcDbArc
 50
284.2392394402465
 51
284.6444347707035
  0
ARC
  5
2FBE1
330
1F
100
AcDbEntity
  8
freecads.com
100
AcDbCircle
 10
6325.769838518755
 20
1913.536888109854
 30
0.0
 40
1612.290844985299
100
AcDbArc
 50
284.6444370586736
 51
284.9043306032687
  0
ARC
  5
2FBE2
330
1F
100
AcDbEntity
  8
freecads.com
100
AcDbCircle
 10
6879.354221638874
 20
-166.3540402662038
 30
0.0
 40
540.0107006108411
100
AcDbArc
 50
104.070093291362
 51
104.9043161567053
  0
ARC
  5
2FBE3
330
1F
100
AcDbEntity
  8
freecads.com
100
AcDbCircle
 10
6887.471027805354
 20
-198.7398802040916
 30
0.0
 40
573.3982008291369
100
AcDbArc
 50
103.2725406257035
 51
104.0700946567584
  0
ARC
  5
2FBE4
330
1F
100
AcDbEntity
  8
freecads.com
100
AcDbCircle
 10
6873.099326106109
 20
-137.8096514760909
 30
0.0
 40
510.7959757731801
100
AcDbArc
 50
102.4821746536264
 51
103.2726240937962
  0
ARC
  5
2FBE5
330
1F
100
AcDbEntity
  8
freecads.com
100
AcDbCircle
 10
6782.2103278664
 20
272.7693493941842
 30
0.0
 40
90.27733652338675
100
AcDbArc
 50
99.63184762643807
 51
102.4822802639387
  0
ARC
  5
2FBE6
330
1F
100
AcDbEntity
  8
freecads.com
100
AcDbCircle
 10
6783.718749964144
 20
263.8818743709417
 30
0.0
 40
99.29191080603111
100
AcDbArc
 50
91.69047237118324
 51
99.63192519561559
  0
ARC
  5
2FBE7
330
1F
100
AcDbEntity
  8
freecads.com
100
AcDbCircle
 10
6800.309980323087
 20
-298.2713621097573
 30
0.0
 40
661.6899284150162
100
AcDbArc
 50
89.73356625315707
 51
91.69051333596307
  0
ARC
  5
2FBE8
330
1F
100
AcDbEntity
  8
freecads.com
100
AcDbCircle
 10
6797.696369159879
 20
-860.4022663897266
 30
0.0
 40
1223.826908616318
100
AcDbArc
 50
88.64795260056286
 51
89.73358491048074
  0
ARC
  5
2FBE9
330
1F
100
AcDbEntity
  8
freecads.com
100
AcDbCircle
 10
6826.247742782638
 20
349.2960020597093
 30
0.0
 40
13.79175143066367
100
AcDbArc
 50
61.96009792557953
 51
88.64796369603922
  0
ARC
  5
2FBEA
330
1F
100
AcDbEntity
  8
freecads.com
100
AcDbCircle
 10
6760.337800749432
 20
3.660717793449293
 30
0.0
 40
383.9094475322119
100
AcDbArc
 50
112.1382892013099
 51
113.6536258955867
  0
ARC
  5
2FBEB
330
1F
100
AcDbEntity
  8
freecads.com
100
AcDbCircle
 10
6612.407308278882
 20
341.3982377493594
 30
0.0
 40
15.19538082394982
100
AcDbArc
 50
113.6536138741227
 51
129.4002538225872
  0
ARC
  5
2FBEC
330
1F
100
AcDbEntity
  8
freecads.com
100
AcDbCircle
 10
6606.183021950943
 20
348.9757464006543
 30
0.0
 40
5.389241030299668
100
AcDbArc
 50
129.4003003882008
 51
161.8705904757993
  0
ARC
  5
2FBED
330
1F
100
AcDbEntity
  8
freecads.com
100
AcDbCircle
 10
6618.076744393431
 20
345.0815069586315
 30
0.0
 40
17.9042613806892
100
AcDbArc
 50
161.8705496532666
 51
175.1514928583428
  0
LINE
  5
2FBEE
330
1F
100
AcDbEntity
  8
freecads.com
100
AcDbLine
 10
6600.236550552814
 20
346.594801152547
 30
0.0
 11
6599.674621660437
 21
339.970248467791
 31
0.0
  0
LINE
  5
2FBEF
330
1F
100
AcDbEntity
  8
freecads.com
100
AcDbLine
 10
6599.674621660437
 20
339.970248467791
 30
0.0
 11
6614.173048602942
 21
334.1375397292577
 31
0.0
  0
ARC
  5
2FBF0
330
1F
100
AcDbEntity
  8
freecads.com
100
AcDbCircle
 10
6724.514745287379
 20
608.4151016440882
 30
0.0
 40
295.640780335095
100
AcDbArc
 50
248.0851069210295
 51
249.2757025086918
  0
ARC
  5
2FBF1
330
1F
100
AcDbEntity
  8
freecads.com
100
AcDbCircle
 10
6688.642808696167
 20
513.6041699114429
 30
0.0
 40
194.2706239240185
100
AcDbArc
 50
249.2756793604232
 51
250.9065189015659
  0
ARC
  5
2FBF2
330
1F
100
AcDbEntity
  8
freecads.com
100
AcDbCircle
 10
6703.38559898737
 20
556.1942075270344
 30
0.0
 40
239.3401387834104
100
AcDbArc
 50
250.9064976283772
 51
252.0127559474162
  0
ARC
  5
2FBF3
330
1F
100
AcDbEntity
  8
freecads.com
100
AcDbCircle
 10
6630.973369608051
 20
333.1633280253009
 30
0.0
 40
4.848552207263589
100
AcDbArc
 50
252.0127110979377
 51
270.2464534165148
  0
ARC
  5
2FBF4
330
1F
100
AcDbEntity
  8
freecads.com
100
AcDbCircle
 10
6630.989177996569
 20
329.4879998770266
 30
0.0
 40
1.173190061483494
100
AcDbArc
 50
270.2464950304443
 51
344.2159237642118
  0
ARC
  5
2FBF5
330
1F
100
AcDbEntity
  8
freecads.com
100
AcDbCircle
 10
6610.429902093136
 20
335.2995334554798
 30
0.0
 40
22.53806188901567
100
AcDbArc
 50
344.2158850530494
 51
352.878774929159
  0
ARC
  5
2FBF6
330
1F
100
AcDbEntity
  8
freecads.com
100
AcDbCircle
 10
6577.72448329156
 20
339.3854485078846
 30
0.0
 40
55.49772087997969
100
AcDbArc
 50
352.8788408768253
 51
358.5561494166782
  0
ARC
  5
2FBF7
330
1F
100
AcDbEntity
  8
freecads.com
100
AcDbCircle
 10
6279.31638773327
 20
346.9067305795907
 30
0.0
 40
354.0005871622298
100
AcDbArc
 50
358.5561782496584
 51
0.0000127918053947
  0
ARC
  5
2FBF8
330
1F
100
AcDbEntity
  8
freecads.com
100
AcDbCircle
 10
6380.258866321499
 20
346.9068005601439
 30
0.0
 40
253.0581085739938
100
AcDbArc
 50
0.0000020495986972
 51
1.612049515866284
  0
ARC
  5
2FBF9
330
1F
100
AcDbEntity
  8
freecads.com
100
AcDbCircle
 10
6506.071749401555
 20
350.4474715418691
 30
0.0
 40
127.1954139424974
100
AcDbArc
 50
1.612085882756146
 51
4.309217477852302
  0
ARC
  5
2FBFA
330
1F
100
AcDbEntity
  8
freecads.com
100
AcDbCircle
 10
6407.612843985408
 20
343.0286568452066
 30
0.0
 40
225.9334252005941
100
AcDbArc
 50
4.309147444891234
 51
5.561620716196158
  0
ARC
  5
2FBFB
330
1F
100
AcDbEntity
  8
freecads.com
100
AcDbCircle
 10
6631.956232246884
 20
364.8740076815666
 30
0.0
 40
0.5289549481199285
100
AcDbArc
 50
5.561689818841073
 51
93.56676784535681
  0
ARC
  5
2FBFC
330
1F
100
AcDbEntity
  8
freecads.com
100
AcDbCircle
 10
6632.13856657932
 20
361.9488730092198
 30
0.0
 40
3.459766893661933
100
AcDbArc
 50
93.56682933778939
 51
110.2671169715635
  0
ARC
  5
2FBFD
330
1F
100
AcDbEntity
  8
freecads.com
100
AcDbCircle
 10
6859.561040899499
 20
-253.9400629295633
 30
0.0
 40
659.9962573020107
100
AcDbArc
 50
110.2671161352675
 51
110.6718531010458
  0
ARC
  5
2FBFE
330
1F
100
AcDbEntity
  8
freecads.com
100
AcDbCircle
 10
6753.243592395332
 20
27.83891185166431
 30
0.0
 40
358.8272175832405
100
AcDbArc
 50
110.6718220288872
 51
111.5466097421533
  0
ARC
  5
2FBFF
330
1F
100
AcDbEntity
  8
freecads.com
100
AcDbCircle
 10
6843.556891982167
 20
-200.8908446658897
 30
0.0
 40
604.7414172516337
100
AcDbArc
 50
111.5465429128866
 51
112.1382924087866
  0
LINE
  5
2FC00
330
1F
100
AcDbEntity
  8
freecads.com
100
AcDbLine
 10
6720.652362676294
 20
237.043994400934
 30
0.0
 11
6720.652362676294
 21
203.3673703880704
 31
0.0
  0
LINE
  5
2FC01
330
1F
100
AcDbEntity
  8
freecads.com
100
AcDbLine
 10
6720.652362676294
 20
203.3673703880704
 30
0.0
 11
6742.486209621493
 21
204.1863106028904
 31
0.0
  0
ARC
  5
2FC02
330
1F
100
AcDbEntity
  8
freecads.com
100
AcDbCircle
 10
6731.876604062344
 20
487.0532116315444
 30
0.0
 40
283.0658005264412
100
AcDbArc
 50
272.1480095405982
 51
276.0047973014186
  0
ARC
  5
2FC03
330
1F
100
AcDbEntity
  8
freecads.com
100
AcDbCircle
 10
6759.013157314038
 20
229.0738644075827
 30
0.0
 40
23.66314804100066
100
AcDbArc
 50
276.0048161746537
 51
299.7553874954963
  0
ARC
  5
2FC04
330
1F
100
AcDbEntity
  8
freecads.com
100
AcDbCircle
 10
6761.480083761577
 20
224.7585259514963
 30
0.0
 40
18.69244667326038
100
AcDbArc
 50
299.7554700601291
 51
327.7799530380324
  0
ARC
  5
2FC05
330
1F
100
AcDbEntity
  8
freecads.com
100
AcDbCircle
 10
6656.639135512437
 20
290.8314349898792
 30
0.0
 40
142.6168338558132
100
AcDbArc
 50
327.7800210666634
 51
334.0473041741765
  0
ARC
  5
2FC06
330
1F
100
AcDbEntity
  8
freecads.com
100
AcDbCircle
 10
6438.891854396046
 20
396.8116760375342
 30
0.0
 40
384.7855558784587
100
AcDbArc
 50
334.0472711010932
 51
335.1441331294456
  0
ARC
  5
2FC07
330
1F
100
AcDbEntity
  8
freecads.com
100
AcDbCircle
 10
6571.443765706004
 20
335.4075151458237
 30
0.0
 40
238.7017437479114
100
AcDbArc
 50
335.1440607679
 51
336.7125655383991
  0
ARC
  5
2FC08
330
1F
100
AcDbEntity
  8
freecads.com
100
AcDbCircle
 10
6475.365971388484
 20
376.7601555522197
 30
0.0
 40
343.300899717259
100
AcDbArc
 50
336.7125683516368
 51
337.628379216787
  0
ARC
  5
2FC09
330
1F
100
AcDbEntity
  8
freecads.com
100
AcDbCircle
 10
6789.216791143248
 20
247.5820058008176
 30
0.0
 40
3.905361393708472
100
AcDbArc
 50
337.6284120742842
 51
0.0000690349781049
  0
ARC
  5
2FC0A
330
1F
100
AcDbEntity
  8
freecads.com
100
AcDbCircle
 10
6791.926064467014
 20
247.5820090740017
 30
0.0
 40
1.196088069943997
100
AcDbArc
 50
0.0000686128854209
 51
66.35987630804084
  0
ARC
  5
2FC0B
330
1F
100
AcDbEntity
  8
freecads.com
100
AcDbCircle
 10
6723.472846232631
 20
91.19707580449903
 30
0.0
 40
171.9066338495046
100
AcDbArc
 50
66.35991823729021
 51
68.31274032399832
  0
ARC
  5
2FC0C
330
1F
100
AcDbEntity
  8
freecads.com
100
AcDbCircle
 10
6741.542818291768
 20
136.6344255817748
 30
0.0
 40
123.0079974165901
100
AcDbArc
 50
68.31272169119316
 51
71.65718268975116
  0
ARC
  5
2FC0D
330
1F
100
AcDbEntity
  8
freecads.com
100
AcDbCircle
 10
6707.41226646681
 20
33.6916617827228
 30
0.0
 40
231.4612462681447
100
AcDbArc
 50
71.65715377614626
 51
73.74082927150606
  0
ARC
  5
2FC0E
330
1F
100
AcDbEntity
  8
freecads.com
100
AcDbCircle
 10
7056.332081851593
 20
1230.068639013516
 30
0.0
 40
1014.758200384833
100
AcDbArc
 50
253.2139405344372
 51
253.7408315943608
  0
ARC
  5
2FC0F
330
1F
100
AcDbEntity
  8
freecads.com
100
AcDbCircle
 10
7155.164593095047
 20
1557.700744818961
 30
0.0
 40
1356.972551386673
100
AcDbArc
 50
252.7901199002677
 51
253.2138790025777
  0
ARC
  5
2FC10
330
1F
100
AcDbEntity
  8
freecads.com
100
AcDbCircle
 10
7120.900983365093
 20
1447.077710309306
 30
0.0
 40
1241.164733364139
100
AcDbArc
 50
252.3619690906317
 51
252.7900826573712
  0
ARC
  5
2FC11
330
1F
100
AcDbEntity
  8
freecads.com
100
AcDbCircle
 10
6851.2600918026
 20
599.0142835068182
 30
0.0
 40
351.2671065091314
100
AcDbArc
 50
251.2664255786508
 51
252.3619125397764
  0
ARC
  5
2FC12
330
1F
100
AcDbEntity
  8
freecads.com
100
AcDbCircle
 10
6658.080751770423
 20
29.39025589338417
 30
0.0
 40
250.2225361696422
100
AcDbArc
 50
71.26639582970121
 51
72.49709734429988
  0
ARC
  5
2FC13
330
1F
100
AcDbEntity
  8
freecads.com
100
AcDbCircle
 10
6680.868075211446
 20
101.6505401574977
 30
0.0
 40
174.4543978037515
100
AcDbArc
 50
72.49700919163571
 51
74.10974417306107
  0
ARC
  5
2FC14
330
1F
100
AcDbEntity
  8
freecads.com
100
AcDbCircle
 10
6675.878362281757
 20
84.12347667349241
 30
0.0
 40
192.6778768747827
100
AcDbArc
 50
74.10968123344317
 51
75.3291530955383
  0
ARC
  5
2FC15
330
1F
100
AcDbEntity
  8
freecads.com
100
AcDbCircle
 10
6723.114197139439
 20
264.5498066750588
 30
0.0
 40
6.17081359693455
100
AcDbArc
 50
75.32899745985675
 51
90.00002092829324
  0
ARC
  5
2FC16
330
1F
100
AcDbEntity
  8
freecads.com
100
AcDbCircle
 10
6723.114193858535
 20
269.3979164355405
 30
0.0
 40
1.322703836454475
100
AcDbArc
 50
89.999955517059
 51
171.0418158035688
  0
ARC
  5
2FC17
330
1F
100
AcDbEntity
  8
freecads.com
100
AcDbCircle
 10
6789.832823351026
 20
258.8805251587764
 30
0.0
 40
68.86521667558081
100
AcDbArc
 50
171.0417278361395
 51
175.8190454253044
  0
ARC
  5
2FC18
330
1F
100
AcDbEntity
  8
freecads.com
100
AcDbCircle
 10
6874.488370610605
 20
252.691876736746
 30
0.0
 40
153.7466696031159
100
AcDbArc
 50
175.8189619268112
 51
179.3458116839956
  0
ARC
  5
2FC19
330
1F
100
AcDbEntity
  8
freecads.com
100
AcDbCircle
 10
8244.619892512666
 20
237.0451994376417
 30
0.0
 40
1523.967529836844
100
AcDbArc
 50
179.3457292809207
 51
180.0000453050316
  0
ENDSEC
  0
SECTION
  2
OBJECTS
  0
DICTIONARY
  5
C
330
0
100
AcDbDictionary
281
     1
  3
ACAD_CIP_PREVIOUS_PRODUCT_INFO
350
1A5
  3
ACAD_COLOR
350
73
  3
ACAD_DETAILVIEWSTYLE
350
1AB
  3
ACAD_GROUP
350
D
  3
ACAD_IMAGE_DICT
350
A5B8
  3
ACAD_IMAGE_VARS
350
A5B9
  3
ACAD_LAYOUT
350
1A
  3
ACAD_MATERIAL
350
72
  3
ACAD_MLEADERSTYLE
350
D7
  3
ACAD_MLINESTYLE
350
17
  3
ACAD_PLOTSETTINGS
350
19
  3
ACAD_PLOTSTYLENAME
350
E
  3
ACAD_SCALELIST
350
B6
  3
ACAD_SECTIONVIEWSTYLE
350
1A8
  3
ACAD_TABLESTYLE
350
86
  3
ACAD_VISUALSTYLE
350
99
  3
ACDB_RECOMPOSE_DATA
350
2FC71
  3
AcDbVariableDictionary
350
66
  3
AEC_PROPERTY_SET_DEFS
350
268B
  0
DICTIONARY
  5
18E
330
2
100
AcDbDictionary
280
     1
281
     1
  3
ACAD_LAYERSTATES
360
18F
  0
DICTIONARY
  5
E6
330
10
100
AcDbDictionary
280
     1
281
     1
  0
DICTIONARY
  5
15D
330
1F
100
AcDbDictionary
280
     1
281
     1
  3
ACAD_SORTENTS
360
28E
  0
XRECORD
  5
1A5
102
{ACAD_REACTORS
330
C
102
}
330
C
100
AcDbXrecord
280
     1
300
ACD
300
2022
300

  0
DICTIONARY
  5
73
102
{ACAD_REACTORS
330
C
102
}
330
C
100
AcDbDictionary
281
     1
  0
DICTIONARY
  5
1AB
102
{ACAD_REACTORS
330
C
102
}
330
C
100
AcDbDictionary
281
     1
  3
Imperial24
350
1AC
  3
Metric50
350
224
  0
DICTIONARY
  5
D
102
{ACAD_REACTORS
330
C
102
}
330
C
100
AcDbDictionary
281
     1
  0
DICTIONARY
  5
A5B8
102
{ACAD_REACTORS
330
C
102
}
330
C
100
AcDbDictionary
281
     1
  0
RASTERVARIABLES
  5
A5B9
102
{ACAD_REACTORS
330
C
102
}
330
C
100
AcDbRasterVariables
 90
        0
 70
     1
 71
     1
 72
     5
  0
DICTIONARY
  5
1A
102
{ACAD_REACTORS
330
C
102
}
330
C
100
AcDbDictionary
281
     1
  3
Layout1
350
59
  3
Layout2
350
5E
  3
Model
350
22
  0
DICTIONARY
  5
72
102
{ACAD_REACTORS
330
C
102
}
330
C
100
AcDbDictionary
281
     1
  3
ByBlock
350
97
  3
ByLayer
350
96
  3
Global
350
98
  0
DICTIONARY
  5
D7
102
{ACAD_REACTORS
330
C
102
}
330
C
100
AcDbDictionary
281
     1
  3
Standard
350
D8
  0
DICTIONARY
  5
17
102
{ACAD_REACTORS
330
C
102
}
330
C
100
AcDbDictionary
281
     1
  3
Standard
350
18
  0
DICTIONARY
  5
19
102
{ACAD_REACTORS
330
C
102
}
330
C
100
AcDbDictionary
281
     1
  0
ACDBDICTIONARYWDFLT
  5
E
102
{ACAD_REACTORS
330
C
102
}
330
C
100
AcDbDictionary
281
     1
  3
Normal
350
F
100
AcDbDictionaryWithDefault
340
F
  0
DICTIONARY
  5
B6
102
{ACAD_REACTORS
330
C
102
}
330
C
100
AcDbDictionary
281
     1
  3
*A1
350
47D1
  3
*A2
350
8BD6
  3
A0
350
B7
  3
A1
350
124
  3
A2
350
125
  3
A3
350
126
  3
A4
350
127
  3
A5
350
128
  3
A6
350
129
  3
A7
350
12A
  3
A8
350
12B
  3
A9
350
12C
  3
B0
350
12D
  3
B1
350
12E
  3
B2
350
12F
  3
B3
350
130
  3
B4
350
131
  3
B5
350
132
  3
B6
350
133
  3
B7
350
134
  3
B8
350
135
  3
B9
350
136
  3
C0
350
137
  3
C1
350
138
  3
C2
350
139
  3
C3
350
13A
  3
C4
350
13B
  3
C5
350
13C
  3
C6
350
13D
  3
C7
350
13E
  3
C8
350
13F
  3
C9
350
140
  3
D0
350
141
  3
D1
350
142
  3
D2
350
143
  0
DICTIONARY
  5
1A8
102
{ACAD_REACTORS
330
C
102
}
330
C
100
AcDbDictionary
281
     1
  3
Imperial24
350
1AA
  3
Metric50
350
223
  0
DICTIONARY
  5
86
102
{ACAD_REACTORS
330
C
102
}
330
C
100
AcDbDictionary
281
     1
  3
Standard
350
87
  0
DICTIONARY
  5
99
102
{ACAD_REACTORS
330
C
102
}
330
C
100
AcDbDictionary
281
     1
  3
2dWireframe
350
9F
  3
3dWireframe
350
2684
  3
Basic
350
9E
  3
Brighten
350
A5
  3
ColorChange
350
A9
  3
Conceptual
350
A2
  3
Dim
350
A4
  3
EdgeColorOff
350
175
  3
Facepattern
350
A8
  3
Flat
350
9A
  3
FlatWithEdges
350
9B
  3
Gouraud
350
9C
  3
GouraudWithEdges
350
9D
  3
Hidden
350
A1
  3
JitterOff
350
173
  3
Linepattern
350
A7
  3
OverhangOff
350
174
  3
Realistic
350
A3
  3
Shaded
350
182
  3
Shaded with edges
350
181
  3
Shades of Gray
350
17E
  3
Sketchy
350
17F
  3
Thicken
350
A6
  3
Wireframe
350
A0
  3
X-Ray
350
180
  0
XRECORD
  5
2FC71
102
{ACAD_REACTORS
330
C
102
}
330
C
100
AcDbXrecord
280
     1
 90
        1
330
87
  0
DICTIONARY
  5
66
102
{ACAD_REACTORS
330
C
102
}
330
C
100
AcDbDictionary
281
     1
  3
CANNOSCALE
350
F0
  3
CMLEADERSTYLE
350
EF
  3
CTABLESTYLE
350
89
  3
CVIEWDETAILSTYLE
350
1B7
  3
CVIEWSECTIONSTYLE
350
1B8
  3
DIMASSOC
350
67
  3
HIDETEXT
350
6B
  3
LAYEREVAL
350
14D
  3
LAYERNOTIFY
350
14E
  0
DICTIONARY
  5
268B
102
{ACAD_REACTORS
330
C
102
}
330
C
100
AcDbDictionary
281
     1
  0
DICTIONARY
  5
18F
102
{ACAD_REACTORS
330
18E
102
}
330
18E
100
AcDbDictionary
281
     1
  0
SORTENTSTABLE
  5
28E
102
{ACAD_REACTORS
330
15D
102
}
330
15D
100
AcDbSortentsTable
330
1F
  0
ACDBDETAILVIEWSTYLE
  5
1AC
102
{ACAD_REACTORS
330
1AB
102
}
330
1AB
100
AcDbModelDocViewStyle
 70
     0
  3
Imperial24
290
     0
300
Imperial24
 90
        0
100
AcDbDetailViewStyle
 70
     0
 71
     0
 90
        3
 71
     1
340
11
 62
   256
 40
0.24
340
0
 62
   256
 40
0.24
300

 40
0.36
280
     3
 71
     2
340
16
 90
       25
 62
   256
 71
     3
340
11
 62
   256
 40
0.24
 90
        1
 40
0.75
 90
        1
300
%<\AcVar ViewType \f "%tc1">% %<\AcVar ViewDetailId>%\PSCALE %<\AcVar ViewScale \f "%sn">%
 71
     4
340
16
 90
       25
 62
   256
340
16
 90
       25
 62
   256
280
     0
  0
ACDBDETAILVIEWSTYLE
  5
224
102
{ACAD_REACTORS
330
1AB
102
}
330
1AB
100
AcDbModelDocViewStyle
 70
     0
  3
Metric50
290
     0
300
Metric50
 90
        0
100
AcDbDetailViewStyle
 70
     0
 71
     0
 90
        3
 71
     1
340
11
 62
   256
 40
5.0
340
0
 62
   256
 40
5.0
300

 40
0.0
280
     1
 71
     2
340
16
 90
       25
 62
   256
 71
     3
340
11
 62
   256
 40
5.0
 90
        0
 40
15.0
 90
        1
300
%<\AcVar ViewDetailId>% (%<\AcVar ViewScale \f "%sn">%)
 71
     4
340
16
 90
       25
 62
   256
340
16
 90
       25
 62
   256
280
     0
  0
LAYOUT
  5
59
102
{ACAD_REACTORS
330
1A
102
}
330
1A
100
AcDbPlotSettings
  1

  2
None
  4

  6

 40
0.0
 41
0.0
 42
0.0
 43
0.0
 44
0.0
 45
0.0
 46
0.0
 47
0.0
 48
0.0
 49
0.0
140
0.0
141
0.0
142
1.0
143
1.0
 70
   688
 72
     0
 73
     0
 74
     5
  7

 75
    16
147
1.0
 76
     0
 77
     2
 78
   300
148
0.0
149
0.0
100
AcDbLayout
  1
Layout1
 70
     1
 71
     1
 10
0.0
 20
0.0
 11
12.0
 21
9.0
 12
0.0
 22
0.0
 32
0.0
 14
0.0
 24
0.0
 34
0.0
 15
0.0
 25
0.0
 35
0.0
146
0.0
 13
0.0
 23
0.0
 33
0.0
 16
1.0
 26
0.0
 36
0.0
 17
0.0
 27
1.0
 37
0.0
 76
     0
330
58
  0
LAYOUT
  5
5E
102
{ACAD_REACTORS
330
1A
102
}
330
1A
100
AcDbPlotSettings
  1

  2
None
  4

  6

 40
0.0
 41
0.0
 42
0.0
 43
0.0
 44
0.0
 45
0.0
 46
0.0
 47
0.0
 48
0.0
 49
0.0
140
0.0
141
0.0
142
1.0
143
1.0
 70
   688
 72
     0
 73
     0
 74
     5
  7

 75
    16
147
1.0
 76
     0
 77
     2
 78
   300
148
0.0
149
0.0
100
AcDbLayout
  1
Layout2
 70
     1
 71
     2
 10
0.0
 20
0.0
 11
12.0
 21
9.0
 12
0.0
 22
0.0
 32
0.0
 14
0.0
 24
0.0
 34
0.0
 15
0.0
 25
0.0
 35
0.0
146
0.0
 13
0.0
 23
0.0
 33
0.0
 16
1.0
 26
0.0
 36
0.0
 17
0.0
 27
1.0
 37
0.0
 76
     0
330
5D
  0
LAYOUT
  5
22
102
{ACAD_XDICTIONARY
360
194
102
}
102
{ACAD_REACTORS
330
1A
102
}
330
1A
100
AcDbPlotSettings
  1

  2
none_device
  4
ANSI_A_(8.50_x_11.00_Inches)
  6

 40
6.349999904632568
 41
19.04999923706055
 42
6.350006103515625
 43
19.04998779296875
 44
215.8999938964844
 45
279.3999938964844
 46
0.0
 47
0.0
 48
0.0
 49
0.0
140
0.0
141
0.0
142
1.0
143
2.584895464708373
 70
 11952
 72
     0
 73
     1
 74
     0
  7

 75
     0
147
0.3868628397755418
 76
     0
 77
     2
 78
   300
148
0.0
149
0.0
100
AcDbLayout
  1
Model
 70
     1
 71
     0
 10
0.0
 20
0.0
 11
12.0
 21
9.0
 12
0.0
 22
0.0
 32
0.0
 14
0.0
 24
0.0
 34
0.0
 15
0.0
 25
0.0
 35
0.0
146
0.0
 13
0.0
 23
0.0
 33
0.0
 16
1.0
 26
0.0
 36
0.0
 17
0.0
 27
1.0
 37
0.0
 76
     0
330
1F
331
94
  0
MATERIAL
  5
97
102
{ACAD_XDICTIONARY
360
188
102
}
102
{ACAD_REACTORS
330
72
102
}
330
72
100
AcDbMaterial
  1
ByBlock
 94
       63
  0
MATERIAL
  5
96
102
{ACAD_XDICTIONARY
360
186
102
}
102
{ACAD_REACTORS
330
72
102
}
330
72
100
AcDbMaterial
  1
ByLayer
 94
       63
  0
MATERIAL
  5
98
102
{ACAD_XDICTIONARY
360
110
102
}
102
{ACAD_REACTORS
330
72
102
}
330
72
100
AcDbMaterial
  1
Global
 43
0.0208000000566244
 43
0.0
 43
0.0
 43
0.0
 43
0.0
 43
0.0208000000566244
 43
0.0
 43
0.0
 43
0.0
 43
0.0
 43
1.0
 43
0.0
 43
0.0
 43
0.0
 43
0.0
 43
1.0
 49
0.0208000000566244
 49
0.0
 49
0.0
 49
0.0
 49
0.0
 49
0.0208000000566244
 49
0.0
 49
0.0
 49
0.0
 49
0.0
 49
1.0
 49
0.0
 49
0.0
 49
0.0
 49
0.0
 49
1.0
142
0.0208000000566244
142
0.0
142
0.0
142
0.0
142
0.0
142
0.0208000000566244
142
0.0
142
0.0
142
0.0
142
0.0
142
1.0
142
0.0
142
0.0
142
0.0
142
0.0
142
1.0
144
0.0208000000566244
144
0.0
144
0.0
144
0.0
144
0.0
144
0.0208000000566244
144
0.0
144
0.0
144
0.0
144
0.0
144
1.0
144
0.0
144
0.0
144
0.0
144
0.0
144
1.0
 94
       63
1001
ACAD
1070
    -1
1070
     3
1070
     0
1000

1071
        0
1070
     0
  0
MLEADERSTYLE
  5
D8
102
{ACAD_REACTORS
330
D7
102
}
330
D7
100
AcDbMLeaderStyle
179
     2
170
     2
171
     1
172
     0
 90
        2
 40
0.0
 41
0.0
173
     1
 91
-1056964608
340
14
 92
       -2
290
     1
 42
0.09
291
     1
 43
0.36
  3
Standard
 44
0.18
300

342
11
174
     1
178
     1
175
     1
176
     0
 93
-1056964608
 45
0.18
292
     0
297
     0
 46
0.18
 94
-1056964608
 47
1.0
 49
1.0
140
1.0
293
     1
141
0.0
294
     1
177
     0
142
1.0
295
     0
296
     0
143
0.125
271
     0
272
     9
273
     9
298
     0
  0
MLINESTYLE
  5
18
102
{ACAD_REACTORS
330
17
102
}
330
17
100
AcDbMlineStyle
  2
STANDARD
 70
     0
  3

 62
   256
 51
90.0
 52
90.0
 71
     2
 49
0.5
 62
   256
  6
BYLAYER
 49
-0.5
 62
   256
  6
BYLAYER
  0
ACDBPLACEHOLDER
  5
F
102
{ACAD_REACTORS
330
E
102
}
330
E
  0
SCALE
  5
47D1
102
{ACAD_REACTORS
330
B6
102
}
330
B6
100
AcDbScale
 70
     0
300
1:100_1_XREF_XREF_XREF_XREF
140
1.0
141
0.1
290
     0
  0
SCALE
  5
8BD6
102
{ACAD_REACTORS
330
B6
102
}
330
B6
100
AcDbScale
 70
     0
300
1:100_1_XREF_XREF_XREF_XREF_XREF_XREF_XREF_XREF_XREF
140
1.0
141
0.1
290
     0
1001
ACAD
1000
AcRTDxfName
1000
SCALE
1000
AcRTDxfName
1000
SCALE
1000
AcRTDxfName
1000
SCALE
1000
AcRTDxfName
1000
SCALE
  0
SCALE
  5
B7
102
{ACAD_REACTORS
330
B6
102
}
330
B6
100
AcDbScale
 70
     0
300
1:1
140
1.0
141
1.0
290
     1
  0
SCALE
  5
124
102
{ACAD_REACTORS
330
B6
102
}
330
B6
100
AcDbScale
 70
     0
300
1:2
140
1.0
141
2.0
290
     0
  0
SCALE
  5
125
102
{ACAD_REACTORS
330
B6
102
}
330
B6
100
AcDbScale
 70
     0
300
1:4
140
1.0
141
4.0
290
     0
  0
SCALE
  5
126
102
{ACAD_REACTORS
330
B6
102
}
330
B6
100
AcDbScale
 70
     0
300
1:5
140
1.0
141
5.0
290
     0
  0
SCALE
  5
127
102
{ACAD_REACTORS
330
B6
102
}
330
B6
100
AcDbScale
 70
     0
300
1:8
140
1.0
141
8.0
290
     0
  0
SCALE
  5
128
102
{ACAD_REACTORS
330
B6
102
}
330
B6
100
AcDbScale
 70
     0
300
1:10
140
1.0
141
10.0
290
     0
  0
SCALE
  5
129
102
{ACAD_REACTORS
330
B6
102
}
330
B6
100
AcDbScale
 70
     0
300
1:16
140
1.0
141
16.0
290
     0
  0
SCALE
  5
12A
102
{ACAD_REACTORS
330
B6
102
}
330
B6
100
AcDbScale
 70
     0
300
1:20
140
1.0
141
20.0
290
     0
  0
SCALE
  5
12B
102
{ACAD_REACTORS
330
B6
102
}
330
B6
100
AcDbScale
 70
     0
300
1:30
140
1.0
141
30.0
290
     0
  0
SCALE
  5
12C
102
{ACAD_REACTORS
330
B6
102
}
330
B6
100
AcDbScale
 70
     0
300
1:40
140
1.0
141
40.0
290
     0
  0
SCALE
  5
12D
102
{ACAD_REACTORS
330
B6
102
}
330
B6
100
AcDbScale
 70
     0
300
1:50
140
1.0
141
50.0
290
     0
  0
SCALE
  5
12E
102
{ACAD_REACTORS
330
B6
102
}
330
B6
100
AcDbScale
 70
     0
300
1:100
140
1.0
141
100.0
290
     0
  0
SCALE
  5
12F
102
{ACAD_REACTORS
330
B6
102
}
330
B6
100
AcDbScale
 70
     0
300
2:1
140
2.0
141
1.0
290
     0
  0
SCALE
  5
130
102
{ACAD_REACTORS
330
B6
102
}
330
B6
100
AcDbScale
 70
     0
300
4:1
140
4.0
141
1.0
290
     0
  0
SCALE
  5
131
102
{ACAD_REACTORS
330
B6
102
}
330
B6
100
AcDbScale
 70
     0
300
8:1
140
8.0
141
1.0
290
     0
  0
SCALE
  5
132
102
{ACAD_REACTORS
330
B6
102
}
330
B6
100
AcDbScale
 70
     0
300
10:1
140
10.0
141
1.0
290
     0
  0
SCALE
  5
133
102
{ACAD_REACTORS
330
B6
102
}
330
B6
100
AcDbScale
 70
     0
300
100:1
140
100.0
141
1.0
290
     0
  0
SCALE
  5
134
102
{ACAD_REACTORS
330
B6
102
}
330
B6
100
AcDbScale
 70
     0
300
1/128" = 1'-0"
140
0.0078125
141
12.0
290
     0
  0
SCALE
  5
135
102
{ACAD_REACTORS
330
B6
102
}
330
B6
100
AcDbScale
 70
     0
300
1/64" = 1'-0"
140
0.015625
141
12.0
290
     0
  0
SCALE
  5
136
102
{ACAD_REACTORS
330
B6
102
}
330
B6
100
AcDbScale
 70
     0
300
1/32" = 1'-0"
140
0.03125
141
12.0
290
     0
  0
SCALE
  5
137
102
{ACAD_REACTORS
330
B6
102
}
330
B6
100
AcDbScale
 70
     0
300
1/16" = 1'-0"
140
0.0625
141
12.0
290
     0
  0
SCALE
  5
138
102
{ACAD_REACTORS
330
B6
102
}
330
B6
100
AcDbScale
 70
     0
300
3/32" = 1'-0"
140
0.09375
141
12.0
290
     0
  0
SCALE
  5
139
102
{ACAD_REACTORS
330
B6
102
}
330
B6
100
AcDbScale
 70
     0
300
1/8" = 1'-0"
140
0.125
141
12.0
290
     0
  0
SCALE
  5
13A
102
{ACAD_REACTORS
330
B6
102
}
330
B6
100
AcDbScale
 70
     0
300
3/16" = 1'-0"
140
0.1875
141
12.0
290
     0
  0
SCALE
  5
13B
102
{ACAD_REACTORS
330
B6
102
}
330
B6
100
AcDbScale
 70
     0
300
1/4" = 1'-0"
140
0.25
141
12.0
290
     0
  0
SCALE
  5
13C
102
{ACAD_REACTORS
330
B6
102
}
330
B6
100
AcDbScale
 70
     0
300
3/8" = 1'-0"
140
0.375
141
12.0
290
     0
  0
SCALE
  5
13D
102
{ACAD_REACTORS
330
B6
102
}
330
B6
100
AcDbScale
 70
     0
300
1/2" = 1'-0"
140
0.5
141
12.0
290
     0
  0
SCALE
  5
13E
102
{ACAD_REACTORS
330
B6
102
}
330
B6
100
AcDbScale
 70
     0
300
3/4" = 1'-0"
140
0.75
141
12.0
290
     0
  0
SCALE
  5
13F
102
{ACAD_REACTORS
330
B6
102
}
330
B6
100
AcDbScale
 70
     0
300
1" = 1'-0"
140
1.0
141
12.0
290
     0
  0
SCALE
  5
140
102
{ACAD_REACTORS
330
B6
102
}
330
B6
100
AcDbScale
 70
     0
300
1-1/2" = 1'-0"
140
1.5
141
12.0
290
     0
  0
SCALE
  5
141
102
{ACAD_REACTORS
330
B6
102
}
330
B6
100
AcDbScale
 70
     0
300
3" = 1'-0"
140
3.0
141
12.0
290
     0
  0
SCALE
  5
142
102
{ACAD_REACTORS
330
B6
102
}
330
B6
100
AcDbScale
 70
     0
300
6" = 1'-0"
140
6.0
141
12.0
290
     0
  0
SCALE
  5
143
102
{ACAD_REACTORS
330
B6
102
}
330
B6
100
AcDbScale
 70
     0
300
1'-0" = 1'-0"
140
12.0
141
12.0
290
     0
  0
ACDBSECTIONVIEWSTYLE
  5
1AA
102
{ACAD_REACTORS
330
1A8
102
}
330
1A8
100
AcDbModelDocViewStyle
 70
     0
  3
Imperial24
290
     0
300
Imperial24
 90
        0
100
AcDbSectionViewStyle
 70
     0
 71
     0
 90
       78
 71
     1
340
11
 62
   256
 40
0.24
340
0
340
0
 62
   256
 40
0.24
300
I, O, Q, S, X, Z
 40
0.48
 90
        3
 40
0.18
 90
        1
 71
     2
340
16
 90
       25
 62
   256
340
16
 90
       50
 62
   256
 40
0.24
 40
0.0
 40
0.24
 71
     3
340
11
 62
   256
 40
0.24
 90
        1
 40
0.75
 90
        1
300
%<\AcVar ViewType \f "%tc1">% %<\AcVar ViewSectionStartId>%-%<\AcVar ViewSectionEndId>%\PSCALE %<\AcVar ViewScale \f "%sn">%
 71
     4
 62
   256
 62
   257
300
ANSI31
 40
1.0
 90
        0
290
     0
290
     0
 90
        6
 40
0.0
 40
1.570796326794896
 40
0.2617993877991494
 40
1.308996938995747
 40
-0.2617993877991494
 40
1.832595714594046
  0
ACDBSECTIONVIEWSTYLE
  5
223
102
{ACAD_REACTORS
330
1A8
102
}
330
1A8
100
AcDbModelDocViewStyle
 70
     0
  3
Metric50
290
     0
300
Metric50
 90
        0
100
AcDbSectionViewStyle
 70
     0
 71
     0
 90
      102
 71
     1
340
11
 62
   256
 40
5.0
340
0
340
0
 62
   256
 40
5.0
300
I, O, Q, S, X, Z
 40
10.0
 90
        0
 40
2.5
 90
        0
 71
     2
340
16
 90
       25
 62
   256
340
16
 90
       50
 62
   256
 40
5.0
 40
2.5
 40
5.0
 71
     3
340
11
 62
   256
 40
5.0
 90
        0
 40
15.0
 90
        1
300
%<\AcVar ViewSectionStartId>%-%<\AcVar ViewSectionEndId>% (%<\AcVar ViewScale \f "%sn">%)
 71
     4
 62
   256
 62
   257
300
ANSI31
 40
1.0
 90
        0
290
     0
290
     0
 90
        6
 40
0.0
 40
1.570796326794896
 40
0.2617993877991494
 40
1.308996938995747
 40
-0.2617993877991494
 40
1.832595714594046
  0
TABLESTYLE
  5
87
102
{ACAD_XDICTIONARY
360
104
102
}
102
{ACAD_REACTORS
330
86
102
}
330
86
100
AcDbTableStyle
280
     0
  3
Standard
 70
     0
 71
     0
 40
0.06
 41
0.06
280
     0
281
     0
  7
Standard
140
0.18
170
     2
 62
     0
 63
     7
283
     0
 90
      512
 91
        0
  1

274
    -2
284
     1
 64
     0
275
    -2
285
     1
 65
     0
276
    -2
286
     1
 66
     0
277
    -2
287
     1
 67
     0
278
    -2
288
     1
 68
     0
279
    -2
289
     1
 69
     0
  7
Standard
140
0.25
170
     5
 62
     0
 63
     7
283
     0
 90
      512
 91
        0
  1

274
    -2
284
     1
 64
     0
275
    -2
285
     1
 65
     0
276
    -2
286
     1
 66
     0
277
    -2
287
     1
 67
     0
278
    -2
288
     1
 68
     0
279
    -2
289
     1
 69
     0
  7
Standard
140
0.18
170
     5
 62
     0
 63
     7
283
     0
 90
      512
 91
        0
  1

274
    -2
284
     1
 64
     0
275
    -2
285
     1
 65
     0
276
    -2
286
     1
 66
     0
277
    -2
287
     1
 67
     0
278
    -2
288
     1
 68
     0
279
    -2
289
     1
 69
     0
  0
VISUALSTYLE
  5
9F
102
{ACAD_REACTORS
330
99
102
}
330
99
100
AcDbVisualStyle
  2
2dWireframe
 70
     4
177
     3
291
     0
 70
    58
 90
        0
176
     1
 90
        2
176
     1
 90
        1
176
     1
 90
        0
176
     1
 40
0.6
176
     1
 40
30.0
176
     1
 62
     7
420
 16777215
176
     1
 90
        1
176
     1
 90
        4
176
     1
 62
     7
176
     1
 62
   257
176
     1
 90
        1
176
     1
 90
        1
176
     1
 40
1.0
176
     1
 90
        0
176
     1
 62
   257
176
     1
 40
1.0
176
     1
 90
        1
176
     1
 90
        6
176
     1
 90
        2
176
     1
 62
     7
176
     1
 90
        5
176
     1
 90
        0
176
     1
 90
        0
176
     1
290
     0
176
     1
 90
        1
176
     1
 40
0.0
176
     1
 90
        0
176
     1
290
     1
176
     1
290
     1
176
     1
290
     0
176
     1
290
     0
176
     1
290
     0
176
     1
290
     0
176
     1
290
     0
176
     1
290
     0
176
     1
290
     0
176
     1
 90
       50
176
     1
 40
0.0
176
     1
 40
1.0
176
     1
 90
        0
176
     1
 62
    18
420
        0
176
     1
 90
       50
176
     1
 90
        3
176
     1
 62
     5
420
      255
176
     1
290
     0
176
     1
 90
       50
176
     1
 90
       50
176
     1
 90
       50
176
     1
290
     0
176
     1
 90
       50
176
     1
 62
   256
176
     0
 40
1.0
176
     0
 90
        2
176
     1
  1
strokes_ogs.tif
176
     1
290
     0
176
     1
 40
1.0
176
     1
 40
1.0
176
     1
  0
VISUALSTYLE
  5
2684
102
{ACAD_REACTORS
330
99
102
}
330
99
100
AcDbVisualStyle
  2
3dWireframe
 70
     5
177
     3
291
     0
 70
    58
 90
        0
176
     1
 90
        2
176
     1
 90
        0
176
     1
 90
        0
176
     1
 40
0.6
176
     1
 40
30.0
176
     1
 62
     7
176
     1
 90
        1
176
     1
 90
        4
176
     1
 62
     7
176
     1
 62
   257
176
     1
 90
        1
176
     1
 90
        1
176
     1
 40
1.0
176
     1
 90
        0
176
     1
 62
   257
176
     1
 40
1.0
176
     1
 90
        1
176
     1
 90
        6
176
     1
 90
        2
176
     1
 62
     7
176
     1
 90
        5
176
     1
 90
        0
176
     1
 90
        0
176
     1
290
     0
176
     1
 90
        1
176
     1
 40
0.0
176
     1
 90
        0
176
     1
290
     0
176
     1
290
     1
176
     1
290
     1
176
     1
290
     0
176
     1
290
     0
176
     1
290
     0
176
     1
290
     0
176
     1
290
     0
176
     1
290
     0
176
     1
 90
       50
176
     1
 40
0.0
176
     1
 40
1.0
176
     1
 90
        0
176
     1
 62
    18
420
        0
176
     1
 90
       50
176
     1
 90
        3
176
     1
 62
     5
420
      255
176
     1
290
     0
176
     1
 90
       50
176
     1
 90
       50
176
     1
 90
       50
176
     1
290
     0
176
     1
 90
       50
176
     1
 62
   256
176
     0
 40
1.0
176
     0
 90
        2
176
     1
  1
strokes_ogs.tif
176
     1
290
     0
176
     1
 40
1.0
176
     1
 40
1.0
176
     1
1001
ACAD
1000
AcRTDxfName
1000
VISUALSTYLE
  0
VISUALSTYLE
  5
9E
102
{ACAD_REACTORS
330
99
102
}
330
99
100
AcDbVisualStyle
  2
Basic
 70
     7
177
     3
291
     1
 70
    58
 90
        1
176
     1
 90
        0
176
     1
 90
        1
176
     1
 90
        0
176
     1
 40
0.6
176
     1
 40
30.0
176
     1
 62
     7
420
 16777215
176
     1
 90
        0
176
     1
 90
        4
176
     1
 62
     7
176
     1
 62
   257
176
     1
 90
        1
176
     1
 90
        1
176
     1
 40
1.0
176
     1
 90
        8
176
     1
 62
     7
176
     1
 40
1.0
176
     1
 90
        1
176
     1
 90
        6
176
     1
 90
        2
176
     1
 62
     7
176
     1
 90
        5
176
     1
 90
        0
176
     1
 90
        0
176
     1
290
     0
176
     1
 90
        1
176
     1
 40
0.0
176
     1
 90
        0
176
     1
290
     0
176
     1
290
     1
176
     1
290
     1
176
     1
290
     0
176
     1
290
     0
176
     1
290
     0
176
     1
290
     0
176
     1
290
     0
176
     1
290
     0
176
     1
 90
       50
176
     1
 40
0.0
176
     1
 40
1.0
176
     1
 90
        0
176
     1
 62
    18
420
        0
176
     1
 90
       50
176
     1
 90
        3
176
     1
 62
     5
420
      255
176
     1
290
     0
176
     1
 90
       50
176
     1
 90
       50
176
     1
 90
       50
176
     1
290
     0
176
     1
 90
       50
176
     1
 62
   256
176
     0
 40
1.0
176
     0
 90
        2
176
     1
  1
strokes_ogs.tif
176
     1
290
     0
176
     1
 40
1.0
176
     1
 40
1.0
176
     1
  0
VISUALSTYLE
  5
A5
102
{ACAD_REACTORS
330
99
102
}
330
99
100
AcDbVisualStyle
  2
Brighten
 70
    12
177
     3
291
     1
 70
    58
 90
        2
176
     1
 90
        2
176
     1
 90
        1
176
     1
 90
        0
176
     1
 40
0.6
176
     1
 40
30.0
176
     1
 62
     7
420
 16777215
176
     1
 90
        1
176
     1
 90
        4
176
     1
 62
     7
176
     1
 62
   257
176
     1
 90
        1
176
     1
 90
        1
176
     1
 40
1.0
176
     1
 90
        8
176
     1
 62
     7
176
     1
 40
1.0
176
     1
 90
        1
176
     1
 90
        6
176
     1
 90
        2
176
     1
 62
     7
176
     1
 90
        5
176
     1
 90
        0
176
     1
 90
        0
176
     1
290
     0
176
     1
 90
        1
176
     1
 40
50.0
176
     1
 90
        0
176
     1
290
     0
176
     1
290
     1
176
     1
290
     1
176
     1
290
     0
176
     1
290
     0
176
     1
290
     0
176
     1
290
     0
176
     1
290
     0
176
     1
290
     0
176
     1
 90
       50
176
     1
 40
0.0
176
     1
 40
1.0
176
     1
 90
        0
176
     1
 62
    18
420
        0
176
     1
 90
       50
176
     1
 90
        3
176
     1
 62
     5
420
      255
176
     1
290
     0
176
     1
 90
       50
176
     1
 90
       50
176
     1
 90
       50
176
     1
290
     0
176
     1
 90
       50
176
     1
 62
   256
176
     0
 40
1.0
176
     0
 90
        2
176
     1
  1
strokes_ogs.tif
176
     1
290
     0
176
     1
 40
1.0
176
     1
 40
1.0
176
     1
  0
VISUALSTYLE
  5
A9
102
{ACAD_REACTORS
330
99
102
}
330
99
100
AcDbVisualStyle
  2
ColorChange
 70
    16
177
     3
291
     1
 70
    58
 90
        2
176
     1
 90
        2
176
     1
 90
        3
176
     1
 90
        0
176
     1
 40
0.6
176
     1
 40
30.0
176
     1
 62
     8
420
  8421504
176
     1
 90
        1
176
     1
 90
        4
176
     1
 62
     7
176
     1
 62
   257
176
     1
 90
        1
176
     1
 90
        1
176
     1
 40
1.0
176
     1
 90
        8
176
     1
 62
     8
420
  8421504
176
     1
 40
1.0
176
     1
 90
        1
176
     1
 90
        6
176
     1
 90
        2
176
     1
 62
     7
176
     1
 90
        5
176
     1
 90
        0
176
     1
 90
        0
176
     1
290
     0
176
     1
 90
        1
176
     1
 40
0.0
176
     1
 90
        0
176
     1
290
     0
176
     1
290
     1
176
     1
290
     1
176
     1
290
     0
176
     1
290
     0
176
     1
290
     0
176
     1
290
     0
176
     1
290
     0
176
     1
290
     0
176
     1
 90
       50
176
     1
 40
0.0
176
     1
 40
1.0
176
     1
 90
        0
176
     1
 62
    18
420
        0
176
     1
 90
       50
176
     1
 90
        3
176
     1
 62
     5
420
      255
176
     1
290
     0
176
     1
 90
       50
176
     1
 90
       50
176
     1
 90
       50
176
     1
290
     0
176
     1
 90
       50
176
     1
 62
   256
176
     0
 40
1.0
176
     0
 90
        2
176
     1
  1
strokes_ogs.tif
176
     1
290
     0
176
     1
 40
1.0
176
     1
 40
1.0
176
     1
  0
VISUALSTYLE
  5
A2
102
{ACAD_REACTORS
330
99
102
}
330
99
100
AcDbVisualStyle
  2
Conceptual
 70
     9
177
     3
291
     0
 70
    58
 90
        3
176
     1
 90
        2
176
     1
 90
        1
176
     1
 90
        0
176
     1
 40
0.6
176
     1
 40
30.0
176
     1
 62
     7
420
 16777215
176
     1
 90
        2
176
     1
 90
        2
176
     1
 62
     7
176
     1
 62
   257
176
     1
 90
        1
176
     1
 90
        1
176
     1
 40
40.0
176
     1
 90
        8
176
     1
 62
     7
176
     1
 40
1.0
176
     1
 90
        1
176
     1
 90
        6
176
     1
 90
        2
176
     1
 62
     7
176
     1
 90
        3
176
     1
 90
        0
176
     1
 90
        0
176
     1
290
     0
176
     1
 90
        1
176
     1
 40
0.0
176
     1
 90
        0
176
     1
290
     0
176
     1
290
     1
176
     1
290
     1
176
     1
290
     0
176
     1
290
     0
176
     1
290
     0
176
     1
290
     0
176
     1
290
     0
176
     1
290
     0
176
     1
 90
       50
176
     1
 40
0.0
176
     1
 40
1.0
176
     1
 90
        0
176
     1
 62
    18
420
        0
176
     1
 90
       50
176
     1
 90
        3
176
     1
 62
     5
420
      255
176
     1
290
     0
176
     1
 90
       50
176
     1
 90
       50
176
     1
 90
       50
176
     1
290
     0
176
     1
 90
       50
176
     1
 62
   256
176
     0
 40
1.0
176
     0
 90
        2
176
     1
  1
strokes_ogs.tif
176
     1
290
     0
176
     1
 40
1.0
176
     1
 40
1.0
176
     1
  0
VISUALSTYLE
  5
A4
102
{ACAD_REACTORS
330
99
102
}
330
99
100
AcDbVisualStyle
  2
Dim
 70
    11
177
     3
291
     1
 70
    58
 90
        2
176
     1
 90
        2
176
     1
 90
        1
176
     1
 90
        0
176
     1
 40
0.6
176
     1
 40
30.0
176
     1
 62
     7
420
 16777215
176
     1
 90
        1
176
     1
 90
        4
176
     1
 62
     7
176
     1
 62
   257
176
     1
 90
        1
176
     1
 90
        1
176
     1
 40
1.0
176
     1
 90
        8
176
     1
 62
     7
176
     1
 40
1.0
176
     1
 90
        1
176
     1
 90
        6
176
     1
 90
        2
176
     1
 62
     7
176
     1
 90
        5
176
     1
 90
        0
176
     1
 90
        0
176
     1
290
     0
176
     1
 90
        1
176
     1
 40
-50.0
176
     1
 90
        0
176
     1
290
     0
176
     1
290
     1
176
     1
290
     1
176
     1
290
     0
176
     1
290
     0
176
     1
290
     0
176
     1
290
     0
176
     1
290
     0
176
     1
290
     0
176
     1
 90
       50
176
     1
 40
0.0
176
     1
 40
1.0
176
     1
 90
        0
176
     1
 62
    18
420
        0
176
     1
 90
       50
176
     1
 90
        3
176
     1
 62
     5
420
      255
176
     1
290
     0
176
     1
 90
       50
176
     1
 90
       50
176
     1
 90
       50
176
     1
290
     0
176
     1
 90
       50
176
     1
 62
   256
176
     0
 40
1.0
176
     0
 90
        2
176
     1
  1
strokes_ogs.tif
176
     1
290
     0
176
     1
 40
1.0
176
     1
 40
1.0
176
     1
  0
VISUALSTYLE
  5
175
102
{ACAD_REACTORS
330
99
102
}
330
99
100
AcDbVisualStyle
  2
EdgeColorOff
 70
    22
177
     3
291
     1
 70
    58
 90
        2
176
     0
 90
        2
176
     0
 90
        0
176
     0
 90
        0
176
     0
 40
0.6
176
     0
 40
30.0
176
     0
 62
     7
420
 16777215
176
     0
 90
        1
176
     0
 90
        4
176
     0
 62
     7
176
     0
 62
   257
176
     0
 90
        1
176
     0
 90
        1
176
     0
 40
1.0
176
     0
 90
        8
176
     2
 62
     7
176
     0
 40
1.0
176
     0
 90
        1
176
     0
 90
        6
176
     0
 90
        2
176
     0
 62
     7
176
     0
 90
        5
176
     0
 90
        0
176
     0
 90
        0
176
     0
290
     0
176
     0
 90
        1
176
     0
 40
0.0
176
     0
 90
        0
176
     0
290
     0
176
     1
290
     1
176
     1
290
     1
176
     1
290
     0
176
     1
290
     0
176
     1
290
     0
176
     1
290
     0
176
     1
290
     0
176
     1
290
     0
176
     1
 90
       50
176
     1
 40
0.0
176
     1
 40
1.0
176
     1
 90
        0
176
     1
 62
    18
420
        0
176
     1
 90
       50
176
     1
 90
        3
176
     1
 62
     5
420
      255
176
     1
290
     0
176
     1
 90
       50
176
     1
 90
       50
176
     1
 90
       50
176
     1
290
     0
176
     1
 90
       50
176
     1
 62
   256
176
     0
 40
1.0
176
     0
 90
        2
176
     1
  1
strokes_ogs.tif
176
     1
290
     0
176
     1
 40
1.0
176
     1
 40
1.0
176
     1
  0
VISUALSTYLE
  5
A8
102
{ACAD_REACTORS
330
99
102
}
330
99
100
AcDbVisualStyle
  2
Facepattern
 70
    15
177
     3
291
     1
 70
    58
 90
        2
176
     1
 90
        2
176
     1
 90
        1
176
     1
 90
        0
176
     1
 40
0.6
176
     1
 40
30.0
176
     1
 62
     7
420
 16777215
176
     1
 90
        1
176
     1
 90
        4
176
     1
 62
     7
176
     1
 62
   257
176
     1
 90
        1
176
     1
 90
        1
176
     1
 40
1.0
176
     1
 90
        8
176
     1
 62
     7
176
     1
 40
1.0
176
     1
 90
        1
176
     1
 90
        6
176
     1
 90
        2
176
     1
 62
     7
176
     1
 90
        5
176
     1
 90
        0
176
     1
 90
        0
176
     1
290
     0
176
     1
 90
        1
176
     1
 40
0.0
176
     1
 90
        0
176
     1
290
     0
176
     1
290
     1
176
     1
290
     1
176
     1
290
     0
176
     1
290
     0
176
     1
290
     0
176
     1
290
     0
176
     1
290
     0
176
     1
290
     0
176
     1
 90
       50
176
     1
 40
0.0
176
     1
 40
1.0
176
     1
 90
        0
176
     1
 62
    18
420
        0
176
     1
 90
       50
176
     1
 90
        3
176
     1
 62
     5
420
      255
176
     1
290
     0
176
     1
 90
       50
176
     1
 90
       50
176
     1
 90
       50
176
     1
290
     0
176
     1
 90
       50
176
     1
 62
   256
176
     0
 40
1.0
176
     0
 90
        2
176
     1
  1
strokes_ogs.tif
176
     1
290
     0
176
     1
 40
1.0
176
     1
 40
1.0
176
     1
  0
VISUALSTYLE
  5
9A
102
{ACAD_REACTORS
330
99
102
}
330
99
100
AcDbVisualStyle
  2
Flat
 70
     0
177
     3
291
     1
 70
    58
 90
        2
176
     1
 90
        1
176
     1
 90
        1
176
     1
 90
        2
176
     1
 40
0.6
176
     1
 40
30.0
176
     1
 62
     7
420
 16777215
176
     1
 90
        0
176
     1
 90
        0
176
     1
 62
     7
176
     1
 62
   257
176
     1
 90
        1
176
     1
 90
        1
176
     1
 40
1.0
176
     1
 90
        8
176
     1
 62
     7
176
     1
 40
1.0
176
     1
 90
        1
176
     1
 90
        6
176
     1
 90
        2
176
     1
 62
     7
176
     1
 90
        5
176
     1
 90
        0
176
     1
 90
        0
176
     1
290
     0
176
     1
 90
       13
176
     1
 40
0.0
176
     1
 90
        0
176
     1
290
     0
176
     1
290
     1
176
     1
290
     1
176
     1
290
     0
176
     1
290
     0
176
     1
290
     0
176
     1
290
     0
176
     1
290
     0
176
     1
290
     0
176
     1
 90
       50
176
     1
 40
0.0
176
     1
 40
1.0
176
     1
 90
        0
176
     1
 62
    18
420
        0
176
     1
 90
       50
176
     1
 90
        3
176
     1
 62
     5
420
      255
176
     1
290
     0
176
     1
 90
       50
176
     1
 90
       50
176
     1
 90
       50
176
     1
290
     0
176
     1
 90
       50
176
     1
 62
   256
176
     0
 40
1.0
176
     0
 90
        2
176
     1
  1
strokes_ogs.tif
176
     1
290
     0
176
     1
 40
1.0
176
     1
 40
1.0
176
     1
  0
VISUALSTYLE
  5
9B
102
{ACAD_REACTORS
330
99
102
}
330
99
100
AcDbVisualStyle
  2
FlatWithEdges
 70
     1
177
     3
291
     1
 70
    58
 90
        2
176
     1
 90
        1
176
     1
 90
        1
176
     1
 90
        2
176
     1
 40
0.6
176
     1
 40
30.0
176
     1
 62
     7
420
 16777215
176
     1
 90
        1
176
     1
 90
        0
176
     1
 62
     7
176
     1
 62
   257
176
     1
 90
        1
176
     1
 90
        1
176
     1
 40
1.0
176
     1
 90
        0
176
     1
 62
   257
176
     1
 40
1.0
176
     1
 90
        1
176
     1
 90
        6
176
     1
 90
        2
176
     1
 62
     7
176
     1
 90
        5
176
     1
 90
        0
176
     1
 90
        0
176
     1
290
     0
176
     1
 90
       13
176
     1
 40
0.0
176
     1
 90
        0
176
     1
290
     0
176
     1
290
     1
176
     1
290
     1
176
     1
290
     0
176
     1
290
     0
176
     1
290
     0
176
     1
290
     0
176
     1
290
     0
176
     1
290
     0
176
     1
 90
       50
176
     1
 40
0.0
176
     1
 40
1.0
176
     1
 90
        0
176
     1
 62
    18
420
        0
176
     1
 90
       50
176
     1
 90
        3
176
     1
 62
     5
420
      255
176
     1
290
     0
176
     1
 90
       50
176
     1
 90
       50
176
     1
 90
       50
176
     1
290
     0
176
     1
 90
       50
176
     1
 62
   256
176
     0
 40
1.0
176
     0
 90
        2
176
     1
  1
strokes_ogs.tif
176
     1
290
     0
176
     1
 40
1.0
176
     1
 40
1.0
176
     1
  0
VISUALSTYLE
  5
9C
102
{ACAD_REACTORS
330
99
102
}
330
99
100
AcDbVisualStyle
  2
Gouraud
 70
     2
177
     3
291
     1
 70
    58
 90
        2
176
     1
 90
        2
176
     1
 90
        1
176
     1
 90
        2
176
     1
 40
0.6
176
     1
 40
30.0
176
     1
 62
     7
420
 16777215
176
     1
 90
        0
176
     1
 90
        0
176
     1
 62
     7
176
     1
 62
   257
176
     1
 90
        1
176
     1
 90
        1
176
     1
 40
1.0
176
     1
 90
        0
176
     1
 62
     7
176
     1
 40
1.0
176
     1
 90
        1
176
     1
 90
        6
176
     1
 90
        2
176
     1
 62
     7
176
     1
 90
        5
176
     1
 90
        0
176
     1
 90
        0
176
     1
290
     0
176
     1
 90
       13
176
     1
 40
0.0
176
     1
 90
        0
176
     1
290
     0
176
     1
290
     1
176
     1
290
     1
176
     1
290
     0
176
     1
290
     0
176
     1
290
     0
176
     1
290
     0
176
     1
290
     0
176
     1
290
     0
176
     1
 90
       50
176
     1
 40
0.0
176
     1
 40
1.0
176
     1
 90
        0
176
     1
 62
    18
420
        0
176
     1
 90
       50
176
     1
 90
        3
176
     1
 62
     5
420
      255
176
     1
290
     0
176
     1
 90
       50
176
     1
 90
       50
176
     1
 90
       50
176
     1
290
     0
176
     1
 90
       50
176
     1
 62
   256
176
     0
 40
1.0
176
     0
 90
        2
176
     1
  1
strokes_ogs.tif
176
     1
290
     0
176
     1
 40
1.0
176
     1
 40
1.0
176
     1
  0
VISUALSTYLE
  5
9D
102
{ACAD_REACTORS
330
99
102
}
330
99
100
AcDbVisualStyle
  2
GouraudWithEdges
 70
     3
177
     3
291
     1
 70
    58
 90
        2
176
     1
 90
        2
176
     1
 90
        1
176
     1
 90
        2
176
     1
 40
0.6
176
     1
 40
30.0
176
     1
 62
     7
420
 16777215
176
     1
 90
        1
176
     1
 90
        0
176
     1
 62
     7
176
     1
 62
   257
176
     1
 90
        1
176
     1
 90
        1
176
     1
 40
1.0
176
     1
 90
        0
176
     1
 62
   257
176
     1
 40
1.0
176
     1
 90
        1
176
     1
 90
        6
176
     1
 90
        2
176
     1
 62
     7
176
     1
 90
        5
176
     1
 90
        0
176
     1
 90
        0
176
     1
290
     0
176
     1
 90
       13
176
     1
 40
0.0
176
     1
 90
        0
176
     1
290
     0
176
     1
290
     1
176
     1
290
     1
176
     1
290
     0
176
     1
290
     0
176
     1
290
     0
176
     1
290
     0
176
     1
290
     0
176
     1
290
     0
176
     1
 90
       50
176
     1
 40
0.0
176
     1
 40
1.0
176
     1
 90
        0
176
     1
 62
    18
420
        0
176
     1
 90
       50
176
     1
 90
        3
176
     1
 62
     5
420
      255
176
     1
290
     0
176
     1
 90
       50
176
     1
 90
       50
176
     1
 90
       50
176
     1
290
     0
176
     1
 90
       50
176
     1
 62
   256
176
     0
 40
1.0
176
     0
 90
        2
176
     1
  1
strokes_ogs.tif
176
     1
290
     0
176
     1
 40
1.0
176
     1
 40
1.0
176
     1
  0
VISUALSTYLE
  5
A1
102
{ACAD_REACTORS
330
99
102
}
330
99
100
AcDbVisualStyle
  2
Hidden
 70
     6
177
     3
291
     0
 70
    58
 90
        1
176
     1
 90
        2
176
     1
 90
        2
176
     1
 90
        0
176
     1
 40
0.6
176
     1
 40
30.0
176
     1
 62
     7
420
 16777215
176
     1
 90
        2
176
     1
 90
        2
176
     1
 62
     7
176
     1
 62
   257
176
     1
 90
        2
176
     1
 90
        1
176
     1
 40
40.0
176
     1
 90
        0
176
     1
 62
   257
176
     1
 40
1.0
176
     1
 90
        1
176
     1
 90
        6
176
     1
 90
        2
176
     1
 62
     7
176
     1
 90
        3
176
     1
 90
        0
176
     1
 90
        0
176
     1
290
     0
176
     1
 90
        1
176
     1
 40
0.0
176
     1
 90
        0
176
     1
290
     0
176
     1
290
     1
176
     1
290
     1
176
     1
290
     0
176
     1
290
     0
176
     1
290
     0
176
     1
290
     0
176
     1
290
     0
176
     1
290
     0
176
     1
 90
       50
176
     1
 40
0.0
176
     1
 40
1.0
176
     1
 90
        0
176
     1
 62
    18
420
        0
176
     1
 90
       50
176
     1
 90
        3
176
     1
 62
     5
420
      255
176
     1
290
     0
176
     1
 90
       50
176
     1
 90
       50
176
     1
 90
       50
176
     1
290
     0
176
     1
 90
       50
176
     1
 62
   256
176
     0
 40
1.0
176
     0
 90
        2
176
     1
  1
strokes_ogs.tif
176
     1
290
     0
176
     1
 40
1.0
176
     1
 40
1.0
176
     1
  0
VISUALSTYLE
  5
173
102
{ACAD_REACTORS
330
99
102
}
330
99
100
AcDbVisualStyle
  2
JitterOff
 70
    20
177
     3
291
     1
 70
    58
 90
        2
176
     0
 90
        2
176
     0
 90
        0
176
     0
 90
        0
176
     0
 40
0.6
176
     0
 40
30.0
176
     0
 62
     7
420
 16777215
176
     0
 90
        1
176
     0
 90
        4
176
     0
 62
     7
176
     0
 62
   257
176
     0
 90
        1
176
     0
 90
        1
176
     0
 40
1.0
176
     0
 90
       10
176
     2
 62
     7
176
     0
 40
1.0
176
     0
 90
        1
176
     0
 90
        6
176
     0
 90
        2
176
     0
 62
     7
176
     0
 90
        5
176
     0
 90
        0
176
     0
 90
        0
176
     0
290
     0
176
     0
 90
        1
176
     0
 40
0.0
176
     0
 90
        0
176
     0
290
     0
176
     1
290
     1
176
     1
290
     1
176
     1
290
     0
176
     1
290
     0
176
     1
290
     0
176
     1
290
     0
176
     1
290
     0
176
     1
290
     0
176
     1
 90
       50
176
     1
 40
0.0
176
     1
 40
1.0
176
     1
 90
        0
176
     1
 62
    18
420
        0
176
     1
 90
       50
176
     1
 90
        3
176
     1
 62
     5
420
      255
176
     1
290
     0
176
     1
 90
       50
176
     1
 90
       50
176
     1
 90
       50
176
     1
290
     0
176
     1
 90
       50
176
     1
 62
   256
176
     0
 40
1.0
176
     0
 90
        2
176
     1
  1
strokes_ogs.tif
176
     1
290
     0
176
     1
 40
1.0
176
     1
 40
1.0
176
     1
  0
VISUALSTYLE
  5
A7
102
{ACAD_REACTORS
330
99
102
}
330
99
100
AcDbVisualStyle
  2
Linepattern
 70
    14
177
     3
291
     1
 70
    58
 90
        2
176
     1
 90
        2
176
     1
 90
        1
176
     1
 90
        0
176
     1
 40
0.6
176
     1
 40
30.0
176
     1
 62
     7
420
 16777215
176
     1
 90
        1
176
     1
 90
        4
176
     1
 62
     7
176
     1
 62
   257
176
     1
 90
        7
176
     1
 90
        7
176
     1
 40
1.0
176
     1
 90
        8
176
     1
 62
     7
176
     1
 40
1.0
176
     1
 90
        1
176
     1
 90
        6
176
     1
 90
        2
176
     1
 62
     7
176
     1
 90
        5
176
     1
 90
        0
176
     1
 90
        0
176
     1
290
     0
176
     1
 90
        1
176
     1
 40
0.0
176
     1
 90
        0
176
     1
290
     0
176
     1
290
     1
176
     1
290
     1
176
     1
290
     0
176
     1
290
     0
176
     1
290
     0
176
     1
290
     0
176
     1
290
     0
176
     1
290
     0
176
     1
 90
       50
176
     1
 40
0.0
176
     1
 40
1.0
176
     1
 90
        0
176
     1
 62
    18
420
        0
176
     1
 90
       50
176
     1
 90
        3
176
     1
 62
     5
420
      255
176
     1
290
     0
176
     1
 90
       50
176
     1
 90
       50
176
     1
 90
       50
176
     1
290
     0
176
     1
 90
       50
176
     1
 62
   256
176
     0
 40
1.0
176
     0
 90
        2
176
     1
  1
strokes_ogs.tif
176
     1
290
     0
176
     1
 40
1.0
176
     1
 40
1.0
176
     1
  0
VISUALSTYLE
  5
174
102
{ACAD_REACTORS
330
99
102
}
330
99
100
AcDbVisualStyle
  2
OverhangOff
 70
    21
177
     3
291
     1
 70
    58
 90
        2
176
     0
 90
        2
176
     0
 90
        0
176
     0
 90
        0
176
     0
 40
0.6
176
     0
 40
30.0
176
     0
 62
     7
420
 16777215
176
     0
 90
        1
176
     0
 90
        4
176
     0
 62
     7
176
     0
 62
   257
176
     0
 90
        1
176
     0
 90
        1
176
     0
 40
1.0
176
     0
 90
        9
176
     2
 62
     7
176
     0
 40
1.0
176
     0
 90
        1
176
     0
 90
        6
176
     0
 90
        2
176
     0
 62
     7
176
     0
 90
        5
176
     0
 90
        0
176
     0
 90
        0
176
     0
290
     0
176
     0
 90
        1
176
     0
 40
0.0
176
     0
 90
        0
176
     0
290
     0
176
     1
290
     1
176
     1
290
     1
176
     1
290
     0
176
     1
290
     0
176
     1
290
     0
176
     1
290
     0
176
     1
290
     0
176
     1
290
     0
176
     1
 90
       50
176
     1
 40
0.0
176
     1
 40
1.0
176
     1
 90
        0
176
     1
 62
    18
420
        0
176
     1
 90
       50
176
     1
 90
        3
176
     1
 62
     5
420
      255
176
     1
290
     0
176
     1
 90
       50
176
     1
 90
       50
176
     1
 90
       50
176
     1
290
     0
176
     1
 90
       50
176
     1
 62
   256
176
     0
 40
1.0
176
     0
 90
        2
176
     1
  1
strokes_ogs.tif
176
     1
290
     0
176
     1
 40
1.0
176
     1
 40
1.0
176
     1
  0
VISUALSTYLE
  5
A3
102
{ACAD_REACTORS
330
99
102
}
330
99
100
AcDbVisualStyle
  2
Realistic
 70
     8
177
     3
291
     0
 70
    58
 90
        2
176
     1
 90
        2
176
     1
 90
        0
176
     1
 90
        2
176
     1
 40
0.6
176
     1
 40
30.0
176
     1
 62
     7
420
 16777215
176
     1
 90
        0
176
     1
 90
        0
176
     1
 62
     7
176
     1
 62
   257
176
     1
 90
        1
176
     1
 90
        1
176
     1
 40
1.0
176
     1
 90
        8
176
     1
 62
   257
176
     1
 40
1.0
176
     1
 90
        1
176
     1
 90
        6
176
     1
 90
        2
176
     1
 62
     7
176
     1
 90
        3
176
     1
 90
        0
176
     1
 90
        0
176
     1
290
     0
176
     1
 90
       13
176
     1
 40
0.0
176
     1
 90
        0
176
     1
290
     0
176
     1
290
     1
176
     1
290
     1
176
     1
290
     0
176
     1
290
     0
176
     1
290
     0
176
     1
290
     0
176
     1
290
     0
176
     1
290
     0
176
     1
 90
       50
176
     1
 40
0.0
176
     1
 40
1.0
176
     1
 90
        0
176
     1
 62
    18
420
        0
176
     1
 90
       50
176
     1
 90
        3
176
     1
 62
     5
420
      255
176
     1
290
     0
176
     1
 90
       50
176
     1
 90
       50
176
     1
 90
       50
176
     1
290
     0
176
     1
 90
       50
176
     1
 62
   256
176
     0
 40
1.0
176
     0
 90
        2
176
     1
  1
strokes_ogs.tif
176
     1
290
     0
176
     1
 40
1.0
176
     1
 40
1.0
176
     1
  0
VISUALSTYLE
  5
182
102
{ACAD_REACTORS
330
99
102
}
330
99
100
AcDbVisualStyle
  2
Shaded
 70
    27
177
     3
291
     0
 70
    58
 90
        2
176
     1
 90
        2
176
     1
 90
        1
176
     1
 90
        2
176
     1
 40
0.6
176
     1
 40
30.0
176
     1
 62
     7
420
 16777215
176
     1
 90
        0
176
     1
 90
        4
176
     1
 62
     7
176
     1
 62
   257
176
     1
 90
        1
176
     1
 90
        1
176
     1
 40
1.0
176
     1
 90
        8
176
     1
 62
   257
176
     1
 40
1.0
176
     1
 90
        1
176
     1
 90
        6
176
     1
 90
        2
176
     1
 62
     8
420
  7895160
176
     1
 90
        3
176
     1
 90
        0
176
     1
 90
        0
176
     1
290
     0
176
     1
 90
        5
176
     1
 40
0.0
176
     1
 90
        0
176
     1
290
     0
176
     1
290
     1
176
     1
290
     1
176
     1
290
     0
176
     1
290
     0
176
     1
290
     0
176
     1
290
     0
176
     1
290
     0
176
     1
290
     0
176
     1
 90
       50
176
     1
 40
0.0
176
     1
 40
1.0
176
     1
 90
        0
176
     1
 62
    18
420
        0
176
     1
 90
       50
176
     1
 90
        3
176
     1
 62
     5
420
      255
176
     1
290
     0
176
     1
 90
       50
176
     1
 90
       50
176
     1
 90
       50
176
     1
290
     0
176
     1
 90
       50
176
     1
 62
   256
176
     0
 40
1.0
176
     0
 90
        2
176
     1
  1
strokes_ogs.tif
176
     1
290
     0
176
     1
 40
1.0
176
     1
 40
1.0
176
     1
  0
VISUALSTYLE
  5
181
102
{ACAD_REACTORS
330
99
102
}
330
99
100
AcDbVisualStyle
  2
Shaded with edges
 70
    26
177
     3
291
     0
 70
    58
 90
        2
176
     1
 90
        2
176
     1
 90
        1
176
     1
 90
        2
176
     1
 40
0.6
176
     1
 40
30.0
176
     1
 62
     7
420
 16777215
176
     1
 90
        1
176
     1
 90
        2
176
     1
 62
     7
176
     1
 62
   257
176
     1
 90
        2
176
     1
 90
        1
176
     1
 40
1.0
176
     1
 90
        8
176
     1
 62
   257
176
     1
 40
1.0
176
     1
 90
        1
176
     1
 90
        6
176
     1
 90
        2
176
     1
 62
     7
176
     1
 90
        3
176
     1
 90
        0
176
     1
 90
        0
176
     1
290
     0
176
     1
 90
        5
176
     1
 40
0.0
176
     1
 90
        0
176
     1
290
     0
176
     1
290
     1
176
     1
290
     1
176
     1
290
     0
176
     1
290
     0
176
     1
290
     0
176
     1
290
     0
176
     1
290
     0
176
     1
290
     0
176
     1
 90
       50
176
     1
 40
0.0
176
     1
 40
1.0
176
     1
 90
        0
176
     1
 62
    18
420
        0
176
     1
 90
       50
176
     1
 90
        3
176
     1
 62
     5
420
      255
176
     1
290
     0
176
     1
 90
       50
176
     1
 90
       50
176
     1
 90
       50
176
     1
290
     0
176
     1
 90
       50
176
     1
 62
   256
176
     0
 40
1.0
176
     0
 90
        2
176
     1
  1
strokes_ogs.tif
176
     1
290
     0
176
     1
 40
1.0
176
     1
 40
1.0
176
     1
  0
VISUALSTYLE
  5
17E
102
{ACAD_REACTORS
330
99
102
}
330
99
100
AcDbVisualStyle
  2
Shades of Gray
 70
    23
177
     3
291
     0
 70
    58
 90
        2
176
     1
 90
        2
176
     1
 90
        3
176
     1
 90
        0
176
     1
 40
0.6
176
     1
 40
30.0
176
     1
 62
     7
420
 16777215
176
     1
 90
        2
176
     1
 90
        2
176
     1
 62
     7
176
     1
 62
     7
176
     1
 90
        1
176
     1
 90
        1
176
     1
 40
40.0
176
     1
 90
        8
176
     1
 62
     7
176
     1
 40
1.0
176
     1
 90
        1
176
     1
 90
        6
176
     1
 90
        2
176
     1
 62
     7
176
     1
 90
        3
176
     1
 90
        0
176
     1
 90
        0
176
     1
290
     0
176
     1
 90
        1
176
     1
 40
0.0
176
     1
 90
        0
176
     1
290
     0
176
     1
290
     1
176
     1
290
     1
176
     1
290
     0
176
     1
290
     0
176
     1
290
     0
176
     1
290
     0
176
     1
290
     0
176
     1
290
     0
176
     1
 90
       50
176
     1
 40
0.0
176
     1
 40
1.0
176
     1
 90
        0
176
     1
 62
    18
420
        0
176
     1
 90
       50
176
     1
 90
        3
176
     1
 62
     5
420
      255
176
     1
290
     0
176
     1
 90
       50
176
     1
 90
       50
176
     1
 90
       50
176
     1
290
     0
176
     1
 90
       50
176
     1
 62
   256
176
     0
 40
1.0
176
     0
 90
        2
176
     1
  1
strokes_ogs.tif
176
     1
290
     0
176
     1
 40
1.0
176
     1
 40
1.0
176
     1
  0
VISUALSTYLE
  5
17F
102
{ACAD_REACTORS
330
99
102
}
330
99
100
AcDbVisualStyle
  2
Sketchy
 70
    24
177
     3
291
     0
 70
    58
 90
        1
176
     1
 90
        2
176
     1
 90
        2
176
     1
 90
        0
176
     1
 40
0.6
176
     1
 40
30.0
176
     1
 62
     7
420
 16777215
176
     1
 90
        2
176
     1
 90
        2
176
     1
 62
     7
176
     1
 62
     7
176
     1
 90
        1
176
     1
 90
        1
176
     1
 40
40.0
176
     1
 90
       11
176
     1
 62
     7
176
     1
 40
1.0
176
     1
 90
        1
176
     1
 90
        6
176
     1
 90
        2
176
     1
 62
     7
176
     1
 90
        6
176
     1
 90
        0
176
     1
 90
        0
176
     1
290
     0
176
     1
 90
        1
176
     1
 40
0.0
176
     1
 90
        0
176
     1
290
     0
176
     1
290
     1
176
     1
290
     1
176
     1
290
     0
176
     1
290
     0
176
     1
290
     0
176
     1
290
     0
176
     1
290
     0
176
     1
290
     0
176
     1
 90
       50
176
     1
 40
0.0
176
     1
 40
1.0
176
     1
 90
        0
176
     1
 62
    18
420
        0
176
     1
 90
       50
176
     1
 90
        3
176
     1
 62
     5
420
      255
176
     1
290
     0
176
     1
 90
       50
176
     1
 90
       50
176
     1
 90
       50
176
     1
290
     0
176
     1
 90
       50
176
     1
 62
   256
176
     0
 40
1.0
176
     0
 90
        2
176
     1
  1
strokes_ogs.tif
176
     1
290
     0
176
     1
 40
1.0
176
     1
 40
1.0
176
     1
  0
VISUALSTYLE
  5
A6
102
{ACAD_REACTORS
330
99
102
}
330
99
100
AcDbVisualStyle
  2
Thicken
 70
    13
177
     3
291
     1
 70
    58
 90
        2
176
     1
 90
        2
176
     1
 90
        1
176
     1
 90
        0
176
     1
 40
0.6
176
     1
 40
30.0
176
     1
 62
     7
420
 16777215
176
     1
 90
        1
176
     1
 90
        4
176
     1
 62
     7
176
     1
 62
   257
176
     1
 90
        1
176
     1
 90
        1
176
     1
 40
1.0
176
     1
 90
       12
176
     1
 62
     7
176
     1
 40
1.0
176
     1
 90
        1
176
     1
 90
        6
176
     1
 90
        2
176
     1
 62
     7
176
     1
 90
        5
176
     1
 90
        0
176
     1
 90
        0
176
     1
290
     0
176
     1
 90
        1
176
     1
 40
0.0
176
     1
 90
        0
176
     1
290
     0
176
     1
290
     1
176
     1
290
     1
176
     1
290
     0
176
     1
290
     0
176
     1
290
     0
176
     1
290
     0
176
     1
290
     0
176
     1
290
     0
176
     1
 90
       50
176
     1
 40
0.0
176
     1
 40
1.0
176
     1
 90
        0
176
     1
 62
    18
420
        0
176
     1
 90
       50
176
     1
 90
        3
176
     1
 62
     5
420
      255
176
     1
290
     0
176
     1
 90
       50
176
     1
 90
       50
176
     1
 90
       50
176
     1
290
     0
176
     1
 90
       50
176
     1
 62
   256
176
     0
 40
1.0
176
     0
 90
        2
176
     1
  1
strokes_ogs.tif
176
     1
290
     0
176
     1
 40
1.0
176
     1
 40
1.0
176
     1
  0
VISUALSTYLE
  5
A0
102
{ACAD_REACTORS
330
99
102
}
330
99
100
AcDbVisualStyle
  2
Wireframe
 70
     5
177
     3
291
     0
 70
    58
 90
        0
176
     1
 90
        2
176
     1
 90
        0
176
     1
 90
        0
176
     1
 40
0.6
176
     1
 40
30.0
176
     1
 62
     7
420
 16777215
176
     1
 90
        1
176
     1
 90
        4
176
     1
 62
     7
176
     1
 62
   257
176
     1
 90
        1
176
     1
 90
        1
176
     1
 40
1.0
176
     1
 90
        0
176
     1
 62
   257
176
     1
 40
1.0
176
     1
 90
        1
176
     1
 90
        6
176
     1
 90
        2
176
     1
 62
     7
176
     1
 90
        3
176
     1
 90
        0
176
     1
 90
        0
176
     1
290
     0
176
     1
 90
        1
176
     1
 40
0.0
176
     1
 90
        0
176
     1
290
     0
176
     1
290
     1
176
     1
290
     1
176
     1
290
     0
176
     1
290
     0
176
     1
290
     0
176
     1
290
     0
176
     1
290
     0
176
     1
290
     0
176
     1
 90
       50
176
     1
 40
0.0
176
     1
 40
1.0
176
     1
 90
        0
176
     1
 62
    18
420
        0
176
     1
 90
       50
176
     1
 90
        3
176
     1
 62
     5
420
      255
176
     1
290
     0
176
     1
 90
       50
176
     1
 90
       50
176
     1
 90
       50
176
     1
290
     0
176
     1
 90
       50
176
     1
 62
   256
176
     0
 40
1.0
176
     0
 90
        2
176
     1
  1
strokes_ogs.tif
176
     1
290
     0
176
     1
 40
1.0
176
     1
 40
1.0
176
     1
  0
VISUALSTYLE
  5
180
102
{ACAD_REACTORS
330
99
102
}
330
99
100
AcDbVisualStyle
  2
X-Ray
 70
    25
177
     3
291
     0
 70
    58
 90
        2
176
     1
 90
        2
176
     1
 90
        1
176
     1
 90
        1
176
     1
 40
0.5
176
     1
 40
30.0
176
     1
 62
     7
420
 16777215
176
     1
 90
        1
176
     1
 90
        0
176
     1
 62
     7
176
     1
 62
   257
176
     1
 90
        1
176
     1
 90
        1
176
     1
 40
1.0
176
     1
 90
        8
176
     1
 62
     7
176
     1
 40
1.0
176
     1
 90
        1
176
     1
 90
        6
176
     1
 90
        2
176
     1
 62
     7
176
     1
 90
        3
176
     1
 90
        0
176
     1
 90
        0
176
     1
290
     0
176
     1
 90
       13
176
     1
 40
0.0
176
     1
 90
        0
176
     1
290
     0
176
     1
290
     1
176
     1
290
     1
176
     1
290
     0
176
     1
290
     0
176
     1
290
     0
176
     1
290
     0
176
     1
290
     0
176
     1
290
     0
176
     1
 90
       50
176
     1
 40
0.0
176
     1
 40
1.0
176
     1
 90
        0
176
     1
 62
    18
420
        0
176
     1
 90
       50
176
     1
 90
        3
176
     1
 62
     5
420
      255
176
     1
290
     0
176
     1
 90
       50
176
     1
 90
       50
176
     1
 90
       50
176
     1
290
     0
176
     1
 90
       50
176
     1
 62
   256
176
     0
 40
1.0
176
     0
 90
        2
176
     1
  1
strokes_ogs.tif
176
     1
290
     0
176
     1
 40
1.0
176
     1
 40
1.0
176
     1
  0
DICTIONARYVAR
  5
F0
102
{ACAD_REACTORS
330
66
102
}
330
66
100
DictionaryVariables
280
     0
  1
1:1
  0
DICTIONARYVAR
  5
EF
102
{ACAD_REACTORS
330
66
102
}
330
66
100
DictionaryVariables
280
     0
  1
STANDARD
  0
DICTIONARYVAR
  5
89
102
{ACAD_REACTORS
330
66
102
}
330
66
100
DictionaryVariables
280
     0
  1
STANDARD
  0
DICTIONARYVAR
  5
1B7
102
{ACAD_REACTORS
330
66
102
}
330
66
100
DictionaryVariables
280
     0
  1
Imperial24
  0
DICTIONARYVAR
  5
1B8
102
{ACAD_REACTORS
330
66
102
}
330
66
100
DictionaryVariables
280
     0
  1
Imperial24
  0
DICTIONARYVAR
  5
67
102
{ACAD_REACTORS
330
66
102
}
330
66
100
DictionaryVariables
280
     0
  1
2
  0
DICTIONARYVAR
  5
6B
102
{ACAD_REACTORS
330
66
102
}
330
66
100
DictionaryVariables
280
     0
  1
1
  0
DICTIONARYVAR
  5
14D
102
{ACAD_REACTORS
330
66
102
}
330
66
100
DictionaryVariables
280
     0
  1
0
  0
DICTIONARYVAR
  5
14E
102
{ACAD_REACTORS
330
66
102
}
330
66
100
DictionaryVariables
280
     0
  1
0
  0
DICTIONARY
  5
194
330
22
100
AcDbDictionary
280
     1
281
     1
  0
DICTIONARY
  5
188
330
97
100
AcDbDictionary
280
     1
281
     1
  3
FBXASSET
360
189
  0
DICTIONARY
  5
186
330
96
100
AcDbDictionary
280
     1
281
     1
  3
FBXASSET
360
187
  0
DICTIONARY
  5
110
330
98
100
AcDbDictionary
280
     1
281
     1
  3
BUMPTILE
360
112
  3
DIFFUSETILE
360
111
  3
FBXASSET
360
18A
  3
OPACITYTILE
360
113
  3
REFLECTIONTILE
360
114
  0
DICTIONARY
  5
104
330
87
100
AcDbDictionary
280
     1
281
     1
  3
ACAD_ROUNDTRIP_2008_TABLESTYLE_CELLSTYLEMAP
360
2FC70
  0
XRECORD
  5
189
102
{ACAD_REACTORS
330
188
102
}
330
188
100
AcDbXrecord
280
     1
 70
     1
 90
429727718
  1
508B35C9-AEE7-456F-BE74-D52651303AC6
310
504B03040A0000080000B670623B3DEE336E79000000790000001B0000006175746F6465736B2D64657369676E2D7061636B6167652E786D6C3C3F786D6C2076657273696F6E3D22312E302220656E636F64696E673D227574662D3822203F3E3C666F726D6174733E3C666F726D61743E687474703A2F2F736368656D612E
310
6175746F6465736B2E636F6D2F64657369676E2D7061636B6167652F323030393C2F666F726D61743E3C2F666F726D6174733E504B0304140006080800B670623BD486FD9CA0000000F4000000130000005B436F6E74656E745F54797065735D2E786D6C7D8EC10E82300C865F65E91D8A1E8C310C0EEA1BF002731658846E
310
D98AC1B77784ABF1D8FE5FBFBF75BBCE937A534CCEB38643598122B6FEE978D0B0485F9C41B54DDD7D022595594E1A469170414C76A4D9A4D207E29CF43ECE46F218070CC6BECC4078ACAA135ACF422C856C0E68EA1BF5669944DDD7BCDE7B1F8E415D77AECB980613C2E4AC91FC167A2B244592486606FC29C8FD7F045B9A
310
EF7053A7E60B504B0304140006080800B670623B28ED286BEB0000007C01000008000000636F72652E786D6C8D90416EC3201045AF82665B6183218D6D61A254764FD00B204C5C94182C03558F5F9C3852BBEB6A467FFE9B197D71FA9E6FE8CBACC17AD7012D0820E3B41FAD9B3A48F1826B40272956EFE32F1B20A766D3C1
310
268314D3EAD3B24BDABB685CCCAAF3A3D94515828980F42D371D04FD696655A814B3235C8B45E9AB9A4C419F5D8653B2237A1CB163DE672FD6AC209BF3C08E0D1B30EB19C3FC9D72FCC6EB231EFA33EDE96BDD341517E5064B11EDFCBCAF57A3A2194156843498524CAA0FCA5B7268F9E185D42D21A2DCEC7FA0B48CFF8492
310
759155FBBB0F2C80A4F991FB408A72CB22977B50B96EB9C91F504B0304140006080800B670623B55019EA25F0000007C00000007000000636E782E786D6C4DCB3B0E80201045D1AD90E915ED2CF8AC45050C11660C8261F98AB1B07AC9C97D42D718D865D3E909258CFD00CCE24AC6E326A164D74DC0B4128928FF32603847
310
2BA13128B1252AC747C6BAB984FC68F0B87FE8960A5C09FE86CFB69FBA01504B0304140006080800B670623B7BC41AC871010000D40300000C0000006662782F636F72652E786D6CC553ED6E8320147D15C2DF4501B56B6D90A64BBB27D80B50A5CE54C120983EFEAE1F4DD7A56BBA5FF3879273EEE59E7310BE393735EA95
310
ED2AA333CC428A91D2B9292A5D66D8BB63B0C26823B835C67D2BC348CB46657880B1E0A535BE9DA1DC68A7B403549B42CDA0EC3AE530CA6B5864B8CB3F552343E91D5474A7B095F949962A6421D0502778E72C0840D390E18DC5F170E664C205F7BE2A66B62A605A75AC94C522DDEEE3651AEF837817C741F2CE92E02D592D
310
83FD6ECB76EC7595A651C2C9D02CB8AB9A8BBADC2AE954814544691A3016D0E883256BBA58278B17BA5A53CAC9507ED3E4DBE2C9265F691747B3DCA9ADC382819091F8E1162272A8933DE82182932144F88C09DF060D8140C84E1EEA8B8F1340BDCA9DB1093085F157AA97B557309586747CD0EF0B4EA64E983A6E0EAEEFCE
310
889E9EF17847386AA94B30211D2C0FDE0D3AF9A4610EAD5536E8DD1969631B593F67E381C33F5157F17725E5A636F6BF1491F980C8FC7B90E13E8A2F504B0304140006080800B670623B70102A487D0000009D0000000B0000006662782F636E782E786D6C4DCCD10A83201886E15B91FFDC95A5C30335ACCDFB886521330D
310
A76397BF1A1DECE883878F57749FD5A3B74D2F17830472A901D9F088930B8B849267CC01754AA418F3DF0D5018572BE160506249B16C274D761E8BCFBB7A179E27F65CB39A0F14D396184C9921B81F34C3ACA1B4B99ABB6E6F062A25AA5F69DF23ACBE504B0304140006080800B670623B3610CA3329010000120200003100
310
00006662782F42384135303843342D343331462D343546312D424341352D3532343432364645413344462F636F72652E786D6C8D515B6EC32010BC0AE22B55850D0E446E848992B43E412FE000495162B07854397EA176A4F62F3F2C9A9D991D58BEBB8F37F0AD7D30CE76905418026DA553C65E3A98E219B510EC04F7CEC5
310
3F3408EC30EA0E16180A7EF12E4D0B249D8DDAC68C5AA7F4020E21E80881BCE54B0783FCD2E3500D296646B856D320AFC34557A4CAEDCC133C449F0380794839A138B47B86DB2345744D7A44594FD0E1B867883594369BFE63BF7EEF793D0B054FC9A8456E548E63CE46FB674D8A58F068C6477CE9F510B582A2C1F80D1182
310
70F349E816B32D65AFB8DD62CCEB42FF274A937A52948C8DEB66893BCB021484D7734370E5D2E9F608A3EF93F3119479ABA0E50B14B8C298119A43CCC4FCFCECB8A18B6388CEE7EF5D5D4F994BD86CBBA182D76543B9FCAE2FD7B24DF103504B0304140006080800B670623B1B8617914E0100003303000030000000666278
310
2F42384135303843342D343331462D343546312D424341352D3532343432364645413344462F636E782E786D6CD593C16EC32010447F0571AD6CE3D489D20813A9877E410FBD62D82434182CC055F3F75D1292E692438FBD206B7698593D61BEFD1E2DF982108D773D6D6B460938E5B571FB9ECE6957AD29D90A1EBC4F7736
310
4A9C1CA1A759A682EF839FA72269D8C9D92654AD71C72206887E0E0A22CAF926B15E498B01E0AA19451807D01A34B919F16B070157417138917400F2F6FA41FCF0092A45DEE414C19BDC21783E4BD39D891265658C3D8DEA00A3ACE59CBC8678ACB54CB26EEB6BD7839D7E9348BE70AD9C8321B9BCA7F9A4A26C542347DEE0
310
50F09802D22BA6749A800A394DD62899107273365E3C82CFC6A55557BC06C10774B7ABE7AEC3B0F34CF06446280E154026D0542C187BA9DAB6628BF7B6DBB0E5A65B3EB1F58631DE64BBE083F7B65CC218087E22CABB042E51D1F2268F1FE12B3EA24D40D63E9CFE00120194D60B9D5BC67FE6D39CDF37E20AF817881F504B
310
0304140006080800B670623BBFEF2E3B690500003C100000340000006662782F42384135303843342D343331462D343546312D424341352D3532343432364645413344462F6F626A656374732E786D6CAD575D739B3814FD2B0CFB0C98D84E931D4227B6938EA793B6534F3BFB90198F0099B001899144EAECAFDF231018B0
310
D37A3FFC609090EEE7B94757C1FB7D915B2F54C88CB31BDB7727B64559CC938CA53776A576CE956DBD0F03C1B9EA2DB32D460A7A63EB693B0C52C1ABD24C257447AA5C8D66EF177F5832A68CDA569C13296F6C193FD182B8A4523CA1F2D94D88226EBADBBBBEDB2C1C8A4D05299F46424B222853B014F30C52ACC6287F389C
310
D85E1878FA7B18E87FB36AFAF62AAFF667A83F635211161F291B8999FAB3D5DDC5FCDA99CF6653677679E13B8BFBC5CAF1DF4D27CBCBE5F2FAF6EE1A8AA51290642C117467871F101B91C581D77CEA2C36869F3229E68CD1B8F61F1ED6361B89092D294B90C78C4A68EB793D190E7D1D9BDEE7A91E1B95FDE9F3BCEAEFE809
310
6A6D6F9F7D4B79F4275C90E7A04248AA51D5C4C738DAE06F72885AC4796EBE65D22A88A22223B995679120E2D50EB1542F098381188D4EA111AE3DB043FF20AF6F2B4AE3D7D83D65E5AECA730D4D3BAC91BD05FEA992B565D95F549CD6069B90AB2A63EACA38A45E4B6A87D781574F86817E4C2FCCC72690D62E2729520E37
310
9BAF234797BAF6D62B3BFC781FED37BA1E4F2B2F052FA9501A3E80569BB8F6A9A364D4FA67654E6F803383981F82F21591FF84F23D9882BC896C3FDBCF8C162508933B2E0AE4C69DD43F6BD2BE38DDDBF10BF86CB4FA784D37F3AF16075E67EC9030DECA1FC0A55373F5DFF3378C591FA9BDF485C10B0A8C8BA909E5262639
310
A8E72163488806A595734C81CB77D1DE0ED7604A303B76913CEC0272F412782FF88EFF4636D8AA56DF7B322474C4B767303F625997056C7B032C473C592B36CEBD15F3F9FF5233B7ABCDC74D257624A60F8658567497B14CE1EC3C80B76FD02011038F9EE9EB0F2E12387A9C844D3F09855125116D1D731DF8B43D2CF4E0A0
310
79A020C6BE946BCE0B7EA1E1219331CD73C228AF5A2DDD31A4B1DA918CE91350854D40A71723140BFA92E94E62B0626016CEFA5864A50E5977E8753CEDBEE1CBB7F52780D20E17AF0BA0F5F9B02A3AD07DCC732EB6D1EBB661421BE0C39E21BABF0FE16D22EA6929407C8DE596724C88B749B6DB5512BC7B228ADFD7CB7EA6
310
3A22397E690BA8D5D8D4E40CEC8CDA23C2C0B7D5898640101CEC9C6D331CE328CB93CAFBBAC70A642DF70DF95155945B52F08AA973C23469FD69ADEF84F7BB18F983A8F8C90E37F5D35980B2139A1C523540813E824EF83448CF7C72B598CE97D7CEEDDDDD3B6736BFBC771677EF66CE6A7E7139F7A793E9EDF2B2B3A8B624
310
0CDA13AA5F8388264EC4A0129909F3B7F5A16CEDF08128E97D680ACA4B9BE7B7B58BB638F0B00700EF36AE8B32A705658A68F83EE897FC2B41573190D1CCAF0B92D233A47CFEB019D9809933F67DD1A5467F8CF69AD9A5AE859342D45355448C64F968A371DC2D596ADC6E43D93D1B466F877A64E2893E54F23C4B40388995
310
525E5005DA3983ED45412510D3EFCA13737B3863F74BD30F2A12E5B4B5E489A025CE25500DB855B11ACE5BBFA185D35DD48D8DC3CE7DC69F2944DB42AA6F6CF09BCA622ADD08C7A36E7C6AE18000BAB08E040135C2D21C9D75B3A91B77BB746C403F38018DFE6EC939DD92F16B40BC05294B9CDA035AAD6D330AE27FE4786B
310
8E45145EA34A75BE1C263A676A35A8ACC6297337400BF16C54EF515F3F77CB77EB3583889C754FFA29081AA98E2222ADEF05DA3E63D2EDEA8B8756C05A7FB6CABC4A91CBF325398202CC952E70A008A830324BA200D5E5EF8F5F04C75DB4B0EE3340E071C98B823333B83577596BF3849B69F2085AA0FAFA212F26BEFF5877
310
FDE622B28D88A42E49E43326DA82D31E8CB006401E1DA726059ECEC168F97A6599036306A135688F9AD2E61A6EA178F4CD51974A9F2CCB9F36FE5EBD14601068D9C3BF01504B0304140006080000B670623B000000000000000000000000350000006662782F42384135303843342D343331462D343546312D424341352D35
310
32343432364645413344462F76657274696365732E62696E504B0304140006080800B670623BF270F1330600000004000000360000006662782F42384135303843342D343331462D343546312D424341352D3532343432364645413344462F747269616E676C65732E62696E636660600000504B0304140006080000B67062
310
3B000000000000000000000000370000006662782F42384135303843342D343331462D343546312D424341352D3532343432364645413344462F617474726962757465732E62696E504B0304140006080800B670623B08DA0BD19000000041010000360000006662782F42384135303843342D343331462D343546312D4243
310
41352D3532343432364645413344462F6469726563746F72792E786D6C858F410AC3201045AF22B36F53E9A60B35CBEEBAE80D244E44489C6234F4F835464A48035D0DF398FF9F8AF63D0E6CC63039F212F8F9020C7D47C6792B21C5FE7403D62A1188E2E60C98D7234A5830286103A55745067B9D86B8A3CF9C7F90C11DE6
310
07FB144396D7B6A82D282E9A152AD114D5EF2CB866EEE831B8EEA07A7BB5A8D7D61A2BAAEB7FD5F70921FF497D00504B0304140006080800B670623B3B4606F3FE000000A00100003B0000006662782F42384135303843342D343331462D343546312D424341352D3532343432364645413344462F7265736F75726365732F
310
636F72652E786D6C8D504B6E833010BD0A9A6D65B08134808CA354A427E8052C332156828DFCA97AFC9A40A576D7CDCCE87D344F8F9FBEE647F689CE6B6B7A6039850C8DB2A336530F315C4903D94970676DF82583CCC8197B5861107C72362E3BA4AC096842428D1D7107A5F71820538F74F4E0D50D6799CB1892C2DFF345
310
AABB9C306779A2934E701F5C0A906D4FD609C2A1B7D129F4BCD858C163D4E3AED163FAA9AF1A1D88F67CA98E6D35906AA82A52BFB39ABCD5CD915C86331BD86BD3B665CD8BD52C78D0F34F46E550061C419494B6843142CB0F5677F4D0D58717DA7494F26295FF31C565FCA7296A13AA728FBBD93C0896823C09C18BB5AFB4
310
9E65A6BD762BBE01504B010214000A0000080000B670623B3DEE336E79000000790000001B00000000000000000000000000000000006175746F6465736B2D64657369676E2D7061636B6167652E786D6C504B01021400140006080800B670623BD486FD9CA0000000F40000001300000000000000000000000000B2000000
310
5B436F6E74656E745F54797065735D2E786D6C504B01021400140006080800B670623B28ED286BEB0000007C010000080000000000000000000000000083010000636F72652E786D6C504B01021400140006080800B670623B55019EA25F0000007C000000070000000000000000000000000094020000636E782E786D6C50
310
4B01021400140006080800B670623B7BC41AC871010000D40300000C00000000000000000000000000180300006662782F636F72652E786D6C504B01021400140006080800B670623B70102A487D0000009D0000000B00000000000000000000000000B30400006662782F636E782E786D6C504B01021400140006080800B6
310
70623B3610CA3329010000120200003100000000000000000000000000590500006662782F42384135303843342D343331462D343546312D424341352D3532343432364645413344462F636F72652E786D6C504B01021400140006080800B670623B1B8617914E010000330300003000000000000000000000000000D10600
310
006662782F42384135303843342D343331462D343546312D424341352D3532343432364645413344462F636E782E786D6C504B01021400140006080800B670623BBFEF2E3B690500003C10000034000000000000000000000000006D0800006662782F42384135303843342D343331462D343546312D424341352D35323434
310
32364645413344462F6F626A656374732E786D6C504B01021400140006080000B670623B0000000000000000000000003500000000000000000000000000280E00006662782F42384135303843342D343331462D343546312D424341352D3532343432364645413344462F76657274696365732E62696E504B010214001400
310
06080800B670623BF270F133060000000400000036000000000000000000000000007B0E00006662782F42384135303843342D343331462D343546312D424341352D3532343432364645413344462F747269616E676C65732E62696E504B01021400140006080000B670623B00000000000000000000000037000000000000
310
00000000000000D50E00006662782F42384135303843342D343331462D343546312D424341352D3532343432364645413344462F617474726962757465732E62696E504B01021400140006080800B670623B08DA0BD1900000004101000036000000000000000000000000002A0F00006662782F42384135303843342D3433
310
31462D343546312D424341352D3532343432364645413344462F6469726563746F72792E786D6C504B01021400140006080800B670623B3B4606F3FE000000A00100003B000000000000000000000000000E1000006662782F42384135303843342D343331462D343546312D424341352D3532343432364645413344462F72
310
65736F75726365732F636F72652E786D6C504B0506000000000E000E0080040000651100000000
  0
XRECORD
  5
187
102
{ACAD_REACTORS
330
186
102
}
330
186
100
AcDbXrecord
280
     1
 70
     1
 90
429727718
  1
887D55A9-D0DD-414E-B741-A7DCD4DA2B4C
310
504B03040A0000080000B670623B3DEE336E79000000790000001B0000006175746F6465736B2D64657369676E2D7061636B6167652E786D6C3C3F786D6C2076657273696F6E3D22312E302220656E636F64696E673D227574662D3822203F3E3C666F726D6174733E3C666F726D61743E687474703A2F2F736368656D612E
310
6175746F6465736B2E636F6D2F64657369676E2D7061636B6167652F323030393C2F666F726D61743E3C2F666F726D6174733E504B0304140006080800B670623BD486FD9CA0000000F4000000130000005B436F6E74656E745F54797065735D2E786D6C7D8EC10E82300C865F65E91D8A1E8C310C0EEA1BF002731658846E
310
D98AC1B77784ABF1D8FE5FBFBF75BBCE937A534CCEB38643598122B6FEE978D0B0485F9C41B54DDD7D022595594E1A469170414C76A4D9A4D207E29CF43ECE46F218070CC6BECC4078ACAA135ACF422C856C0E68EA1BF5669944DDD7BCDE7B1F8E415D77AECB980613C2E4AC91FC167A2B244592486606FC29C8FD7F045B9A
310
EF7053A7E60B504B0304140006080800B670623BBC1638F5EC0000007C01000008000000636F72652E786D6C8D90416EC3201045AF82665B61836BE2D8C24471DB9CA01740401C94182C03558F5F9C3852BBEB6A467FFE9B197D7EF89E6EE8CB2CC17AD7032D0820E394D7D68D3DA478C67B4007C117EFE32F1B202727D3C3
310
2A83E0E3E2D3BC49CABB685CCCAAF3DA6CA20CC14440EA969B1E82BA98491632C5EC08D76296EA2A4753D06797E194AC468F2356E77DF66CCD02825543D50CACC62D39ED70FDC68EB8FD68F6F8787A6784342D1DDA1D2F5758F068A7E77DB518198D065111D2624A31A93E69DD11D6D5EC85EC3B4278B9DAFF4069D6FF8492
310
75F1B5DADE7D600104CD8FDC0782976B16B9DC83CA75CD4DFC00504B0304140006080800B670623B55019EA25F0000007C00000007000000636E782E786D6C4DCB3B0E80201045D1AD90E915ED2CF8AC45050C11660C8261F98AB1B07AC9C97D42D718D865D3E909258CFD00CCE24AC6E326A164D74DC0B4128928FF326038
310
472BA13128B1252AC747C6BAB984FC68F0B87FE8960A5C09FE86CFB69FBA01504B0304140006080800B670623B3586FFB671010000D40300000C0000006662782F636F72652E786D6CC553ED6E8320147D15C2DF4541A76D6D90A6DDD627D80B50A4CE54C120983EFEAE1F4DD7A55BBA5FF3879273EEE59E7310B6393735EA
310
95ED2AA3731C851423A5A5292A5DE6D8BB63B0C268C39935C67D29C3488B46E578803167A535BE9D2169B453DA01AA4DA16650749D7218C91A1639EEE4876A4428BC838AEE14B6429E44A9C228041AEA38EB9C0501681A32BC313F1ECE8C4C3867DE57C5CC56054CAB8E95B298A7F12E5EEED224C8E87E11242FE936C8DE96
310
AB60BB7F4D295D66D12E5B30323473E6AAE6A24E5A259C2A308F29CD82280A68FC1E256B9AAE93F489AED694323294DF34F9B678B0C957DA3DC7B3DCA9ADC33C022123F1CD2D44E450277AD04338234388F01913BE0D1A0281909D38D4171F27807A259DB1093085F157AA17B557309586747CD0CF0B46A64E983A6E0EAEEF
310
CE881F9EF1FB8E70D44297604238581EBC1B74B249C31C5AAB6CD0BB33D2C636A27ECCC62F0EFF445DC5DF95244D6DEC7F2922F30191F9F720C37DE49F504B0304140006080800B670623B4220A0FF7D0000009D0000000B0000006662782F636E782E786D6C4DCCD10A83201886E15B91FFDCE542CB0335D0EC3E6259C84A
310
C3E9D8E5AF46073BFAE0E1E315DD675BD1DBA5978F41C2FD4600B9F088930F8B849267CC01754AA418F3DF0D50183727E164506249B1EC174D6E1ECB9A0F5D7D785E68DB8151CD286E5A5363CA6B8A39E90D36D40E96B086F55A43A544F52B1D7B86D517504B0304140006080800B670623B2FA3FEDE290100001202000031
310
0000006662782F45374635344235342D363743322D343832342D383044432D4334454645303536354442422F636F72652E786D6C8D515B6EC32010BC0AE22B55850D2E386E848994D7097A0117488A1283C5A3CAF10BB523B57FF961D1ECCCECC0F2ED7DBC816FED8371B687A4C210682B9D32F6D2C314CFA883602BB8772E
310
FEA141608751F7B0C050F08B77695A20E96CD43666D43AA5177008414708E42D5F7A18E4971E876A483133C2B59A06791D2EBA22556E679EE021FA1C00CC43CA09C5717D6274C7286AD7FB06D1AEA1A8C3873DDAD3E3E98859CB0EBB1DAF67A1E02919B5C88DCA71CCD968FFAC49110B1ECDF8882FBD1EA256503418BF2342
310
106E3E08DD60B6A1EC15771B8C795DE8FF4469524F8A92B1F1AD59E2CEB20005E1F5DC105CB9F4797B84D1F7C9F908CABC55D0F2050A5C61CC1AD2F27A26E6E767C7962E8E213A9FBF7775FDCC5CC266DB960A5E970DE5F2BBBE5CCB36C50F504B0304140006080800B670623B1B8617914E01000033030000300000006662
310
782F45374635344235342D363743322D343832342D383044432D4334454645303536354442422F636E782E786D6CD593C16EC32010447F0571AD6CE3D489D20813A9877E410FBD62D82434182CC055F3F75D1292E692438FBD206B7698593D61BEFD1E2DF982108D773D6D6B460938E5B571FB9ECE6957AD29D90A1EBC4F77
310
364A9C1CA1A759A682EF839FA72269D8C9D92654AD71C72206887E0E0A22CAF926B15E498B01E0AA19451807D01A34B919F16B070157417138917400F2F6FA41FCF0092A45DEE414C19BDC21783E4BD39D891265658C3D8DEA00A3ACE59CBC8678ACB54CB26EEB6BD7839D7E9348BE70AD9C8321B9BCA7F9A4A26C542347DE
310
E050F09802D22BA6749A800A394DD62899107273365E3C82CFC6A55557BC06C10774B7ABE7AEC3B0F34CF06446280E154026D0542C187BA9DAB6628BF7B6DBB0E5A65B3EB1F58631DE64BBE083F7B65CC218087E22CABB042E51D1F2268F1FE12B3EA24D40D63E9CFE00120194D60B9D5BC67FE6D39CDF37E20AF817881F50
310
4B0304140006080800B670623B29652116630500003C100000340000006662782F45374635344235342D363743322D343832342D383044432D4334454645303536354442422F6F626A656374732E786D6CAD575D739B3814FD2B0CFB0C989834C90EA1639B24E3E9A6EDD4D3CE3E64C623834CD8006224913AFDF57B040203
310
B65BEF871F0C12D2FD3CF7E8CA7FBFCB33E3957291B2E2D674ED8969D02262715A24B76625B7D6B569BC0F7CCE98EC2D338D82E4F4D654D366E0279C55A59E8AE99654991CCDDECFFF3444440B6A1A514684B83545F44C7362934AB2988A173B2692D8C97667BB76B3702836E1A47C1E092D09A78584A5982F20C5688C7287
310
C389E904BEA3BE07BEFAD7ABA6A75739B53F43FD69212429A20365233153D70BEF2E2E6FAC4BCF9B5ADEBB0BD79ADFCF43CBBD9A4E16EF168B9BD9DD0D140BC921495BC2E9D60C1E101B9E46BED37CEA2CD6861F3329624541A3DA7F7858DBAC25C6B4A4458C3CA654405BCFEBC970E8AAD8F43E4FD558ABEC4F9FE7557F47
310
4F506B7BFBEC5BCA367FC105710E2AB8A00A554D7CB4A30DFE26FBA86D18CBF4B75418399194A72433B274C3097F33032C554B027F2046A1932B842B0FCCC0DDCBEBDB8AD2F835768F59B9ADB24C41D30C6A64AF817F2A456D59FA83F2E3DA60137255A585BCD60EC9B7929AC18DEFD49381AF1ED30BFDB109A4B1CD488294
310
C3CDE6EBC8D185AABD6568061FEE37BB95AAC7E3CA4BCE4ACAA5820FA0D526AE7DAA2869B5EE5999531BE0CC20E6FBA07C41E43FA27CF7A6206F3CDD793B4F6B919C1462CB788EDCD893FA674CDA17AB7B3B7C019F8D561FAEE966FED562DFE98C1D12C6A9FC015C2A35D7FF3D7FC398F591DA4B5FE0BFA2C0189FEA50AE22
310
92817A1ED3020951A03432862970F976B33383259812CC8E5D240BBA801CBCF8CE2BBEE3BF910DB6AAD5F79E05123AE2DB33981FB1ACCB02B69D00CB014FD68AB573A7627EF9BFD4CC2C5C7D58557C4B22FAA88925A4DBB44825CECE3D78FB060D1231F0E885BE7D673C86A3874958F593906B5502D1563157814FDAC3420D
310
F69A070A22EC4B98E23CFF171A1E5311D12C23056555ABA53B8614563B92D17D02AAB009E8F46284624E5F53D5490C560CCCC2591FF1B45421EB0EBD8EA7ED13BE7C5D7E0428CD60FEF60779EB13E6664FF711CB185F6FDED60D139A001FF60CD1FD6D086F1D51474901E26B2CB794A343BC8ED3EDB612E0DD2351FCB65CF4
310
33D511C9E14B5B40ADC6A6263DB0336A8F700DDF56271A024E70B0B3629DE21847591E55DED73D56206AB927E46FAABC5C939C55853C274C93D69FD6FA4E78BF8B11DF898C9ECD60553FAD39283BA6F18984AA23E8884F83F45C5F5F859797B31B2B9C84A1E5B9DE9D35BFF25C6B76152E422F9C5DCC3D847F5801ED09D5AF
310
41441327A25FF15487F9EB725FB666F048A4701E9A827292E6F97569A32DF61DEC01C0BB8DCBBCCC684E0B49147C1FD54BF685A0AB18C868E6973949E819523E3DAC463660E68C7D9F55A9D1EFA3BD7A76A16AE1A810F95CE59B82A4D968A376DC2E8B44BBDD86B27B368CDE0ED548C7137DA860591A83706223A12CA712B4
310
7306DBF39C0A20A6DF95C7FAF670C6EED7A61F946493D1D6926782963813403548A78AE470DEF80D2D9CEAA26E4D1C76F60BFE74219A06527D6B82DF641A51616F703CAAC6A7160E08A00BEB4810A0274592A1B36E3675E36E978A0DE80727A0D6DF2D39A75BD27E0D8837276589537B40ABB56D5A41F48F1C6FCD3188C4EB
310
A6929D2FFB89CE995A4D00AE813BDD032DC48B56BD437DFDDC2DD7AED70C2272D63DE9A72068A45A92F0A4BE17A8A06B9366E16707AD80B1FC649459952097E74BB23805982B55E0401150A165964402AA8BDF9F3E7386BB686EDCA780C0D382E5392BF460A6EFB2C6EA1937D3F809B440D5F5435C4C5CF7A9EEFAF54564BD
310
2182DA24162F98680B4E7930C21A0079709CEAEB99A372305ABE0C0D7D6078105A83F6A0296DAEE1068A47DD1C55A9F4C9B2FC69E3EFD44B81028E963DF81B504B0304140006080000B670623B000000000000000000000000350000006662782F45374635344235342D363743322D343832342D383044432D433445464530
310
3536354442422F76657274696365732E62696E504B0304140006080800B670623BF270F1330600000004000000360000006662782F45374635344235342D363743322D343832342D383044432D4334454645303536354442422F747269616E676C65732E62696E636660600000504B0304140006080000B670623B00000000
310
0000000000000000370000006662782F45374635344235342D363743322D343832342D383044432D4334454645303536354442422F617474726962757465732E62696E504B0304140006080800B670623B08DA0BD19000000041010000360000006662782F45374635344235342D363743322D343832342D383044432D4334
310
454645303536354442422F6469726563746F72792E786D6C858F410AC3201045AF22B36F53E9A60B35CBEEBAE80D244E44489C6234F4F835464A48035D0DF398FF9F8AF63D0E6CC63039F212F8F9020C7D47C6792B21C5FE7403D62A1188E2E60C98D7234A5830286103A55745067B9D86B8A3CF9C7F90C11DE607FB144396
310
D7B6A82D282E9A152AD114D5EF2CB866EEE831B8EEA07A7BB5A8D7D61A2BAAEB7FD5F70921FF497D00504B0304140006080800B670623B6378F24DFF000000A00100003B0000006662782F45374635344235342D363743322D343832342D383044432D4334454645303536354442422F7265736F75726365732F636F72652E
310
786D6C8D504B6E833010BD0A9A6D65B0094E42641C85B639412F6099496225D8C89FAAC7AF09546A77DDCC8CDE47F3F4C4F16B7C149FE88371B603565228D06A37187BED20C50BD9437194C23B177FC9A0B06AC40E6618A4B87A97A615D2CE46B431A3D60DB8822A048C50E8473E3A08FA86A32A558A5911EEE5A4F45D5DB1
310
6465A6B34E8A107D0E502C4FE609D26370C96B0CA25A58295232C3AA3143FE692E063D485EF7F5AEE71BD2D2F39634AFFC44DAF7DD9E9CCE6F9CD25DCBFA762BAAD92C4534E34F46ED51451C40D694B6843142EB0FD61C283F34FC85EE0F948A6A96FF31A569F8A729191B37F51A77B105902C0779125254735F793DCBCC7B
310
EE567E03504B010214000A0000080000B670623B3DEE336E79000000790000001B00000000000000000000000000000000006175746F6465736B2D64657369676E2D7061636B6167652E786D6C504B01021400140006080800B670623BD486FD9CA0000000F40000001300000000000000000000000000B20000005B436F6E
310
74656E745F54797065735D2E786D6C504B01021400140006080800B670623BBC1638F5EC0000007C010000080000000000000000000000000083010000636F72652E786D6C504B01021400140006080800B670623B55019EA25F0000007C000000070000000000000000000000000095020000636E782E786D6C504B010214
310
00140006080800B670623B3586FFB671010000D40300000C00000000000000000000000000190300006662782F636F72652E786D6C504B01021400140006080800B670623B4220A0FF7D0000009D0000000B00000000000000000000000000B40400006662782F636E782E786D6C504B01021400140006080800B670623B2F
310
A3FEDE290100001202000031000000000000000000000000005A0500006662782F45374635344235342D363743322D343832342D383044432D4334454645303536354442422F636F72652E786D6C504B01021400140006080800B670623B1B8617914E010000330300003000000000000000000000000000D2060000666278
310
2F45374635344235342D363743322D343832342D383044432D4334454645303536354442422F636E782E786D6C504B01021400140006080800B670623B29652116630500003C10000034000000000000000000000000006E0800006662782F45374635344235342D363743322D343832342D383044432D4334454645303536
310
354442422F6F626A656374732E786D6C504B01021400140006080000B670623B0000000000000000000000003500000000000000000000000000230E00006662782F45374635344235342D363743322D343832342D383044432D4334454645303536354442422F76657274696365732E62696E504B01021400140006080800
310
B670623BF270F13306000000040000003600000000000000000000000000760E00006662782F45374635344235342D363743322D343832342D383044432D4334454645303536354442422F747269616E676C65732E62696E504B01021400140006080000B670623B0000000000000000000000003700000000000000000000
310
000000D00E00006662782F45374635344235342D363743322D343832342D383044432D4334454645303536354442422F617474726962757465732E62696E504B01021400140006080800B670623B08DA0BD190000000410100003600000000000000000000000000250F00006662782F45374635344235342D363743322D34
310
3832342D383044432D4334454645303536354442422F6469726563746F72792E786D6C504B01021400140006080800B670623B6378F24DFF000000A00100003B00000000000000000000000000091000006662782F45374635344235342D363743322D343832342D383044432D4334454645303536354442422F7265736F75
310
726365732F636F72652E786D6C504B0506000000000E000E0080040000611100000000
  0
XRECORD
  5
112
102
{ACAD_REACTORS
330
110
102
}
330
110
100
AcDbXrecord
280
     1
270
     1
271
     1
  0
XRECORD
  5
111
102
{ACAD_REACTORS
330
110
102
}
330
110
100
AcDbXrecord
280
     1
270
     1
271
     1
  0
XRECORD
  5
18A
102
{ACAD_REACTORS
330
110
102
}
330
110
100
AcDbXrecord
280
     1
 70
     0
 90
1778669749
  1
9BF507EE-FAF7-4A99-A33D-4EE51894BC40
310
504B03040A0000080000B670623B3DEE336E79000000790000001B0000006175746F6465736B2D64657369676E2D7061636B6167652E786D6C3C3F786D6C2076657273696F6E3D22312E302220656E636F64696E673D227574662D3822203F3E3C666F726D6174733E3C666F726D61743E687474703A2F2F736368656D612E
310
6175746F6465736B2E636F6D2F64657369676E2D7061636B6167652F323030393C2F666F726D61743E3C2F666F726D6174733E504B0304140006080800B670623BD486FD9CA0000000F4000000130000005B436F6E74656E745F54797065735D2E786D6C7D8EC10E82300C865F65E91D8A1E8C310C0EEA1BF002731658846E
310
D98AC1B77784ABF1D8FE5FBFBF75BBCE937A534CCEB38643598122B6FEE978D0B0485F9C41B54DDD7D022595594E1A469170414C76A4D9A4D207E29CF43ECE46F218070CC6BECC4078ACAA135ACF422C856C0E68EA1BF5669944DDD7BCDE7B1F8E415D77AECB980613C2E4AC91FC167A2B244592486606FC29C8FD7F045B9A
310
EF7053A7E60B504B0304140006080800B670623BCA089DFFEC0000007C01000008000000636F72652E786D6C8D90416E83301045AF62CDB632D8402020E32882F604BD80653BC44AB011B6AB1EBF262152BBEB6A467FFE9B197D76FA9EEFE84BAFDE38DB03CD08206DA553C64E3DC470C1474027CE56E7C22F1B202B66DDC3
310
260367D3EAE2B24BD2D9A06D48AA754AEFA2F05E0740F29E9A1EBCBCEA59642286E4F0B76C11F226269DD15797E0188D42CF2346A57DE662F40ABCAEC77628C6120F654571D50C04B7F5B9C1E3997CD4F550BE3745C3F20DE62C98F9755FAE5A04AD801784B498524C8A4F5A75E4D055873772EC0861F966FF03C545FD138A
310
C686B2D8DF7D621E384D8F3C069CE55B16A93C824A75CB8DFF00504B0304140006080800B670623B55019EA25F0000007C00000007000000636E782E786D6C4DCB3B0E80201045D1AD90E915ED2CF8AC45050C11660C8261F98AB1B07AC9C97D42D718D865D3E909258CFD00CCE24AC6E326A164D74DC0B4128928FF326038
310
472BA13128B1252AC747C6BAB984FC68F0B87FE8960A5C09FE86CFB69FBA01504B0304140006080800B670623B68FC0B7272010000D40300000C0000006662782F636F72652E786D6CC5535B6E833010BC8AE5DF0A6C1E8124328E22D29EA01770C0A128602363A31CBFCB234A53A555FA553EC09AD9F5CE8C31DB5DDA060D
310
D2F4B556190E7C8A9154852E6B5565D8D993B7C668C799D1DA7E29C3488956667884316795D1AE5BA0422B2B950554E9522EA0E87B69312A1A5864B82F3E642B7CE12C54F467BF13C55954D20F7CA0A18EB3DE1A1080E621E31BF3D3F1C2C88C73E65C5D2E6C5DC2B4FA544B8379921C36797888BC3C8A032F4E73EA6D927D
310
EA1DF6F42D49F2E8350D5346C666CE6CDD5ED515460A2B4BCC434A375E1078347C0FE22D5D6DE3D50B5D6F2965642CBF6B725DF96493AB958DC245EEDCD6631E809089F8E61622B2A81703E8219C913144F84C09DF070D8140C8561C9BAB8F3340832CAC363130A576376A108D933095FA747AD0CF0B46E64E983A6D0EAE1F
310
CE089F9EF1FB8E70D44255604258581E9D1D75B259C3125A278D37D80B52DAB4A279CEC62F0EFF44DDC43F9454E8469BFF5244960322CBEF41C6FBC83F01504B0304140006080800B670623B0F71DDB67E0000009D0000000B0000006662782F636E782E786D6C4DCCD10A83201886E15B91FFDCA54DB73F502386BB8F5816
310
32D3703976F9ABD1C18E3E78F87855FB990379BBFCF2296AE02706C4C5471A7C9C349475A408A4352AA7B4FEDD80C47E761A7606A3A69CCA72D0E0C6BE8475D3E0E3F3409428EA6B27A84079A782899AA2EC1A7AE3ECCC2FD858CB2D544655BFD2B67BD87C01504B0304140006080800B670623BE134B4FB28010000120200
310
00310000006662782F38353834323741342D343835462D343034322D383541392D4331303331363839454531452F636F72652E786D6C8D515B6EC32010BC0AE22B55850D0EA424C24451959EA0172086A42831583CAA1CBF503B52FB971F16CDCECC0EACD8DFC71BF836215AEF7A481A0C817183D7D65D7A98D3197108F652
310
04EFD31F1A044E8DA6871586525C82CFD3020DDE25E352419DD76601558C264130DCCAA58771F832A36A544E8511AFCDA486ABBA988634A55D7852C4144A00300FA927949C71DABD1D28A29C7D208A6987383B6CD13BC16BB2E1DBE3911C453B0BA5C8D9EA456E758963CFD684674DAA588A64C747FC2118958C86B2C3788B
310
0841B8FB247487D98EB257CC77188BB6D2FF89F2A49F1465EBD2BA5BE2CEB2082511EDDC9042FB7CBA3DC298FBE4430275DE2A9AE1054ADC60CC08E3A29D89E5F9C5714317C7987C28DFBBBA9E0A97B0D97643A568EB864AF95D5FA9759BF207504B0304140006080800B670623B1B8617914E010000330300003000000066
310
62782F38353834323741342D343835462D343034322D383541392D4331303331363839454531452F636E782E786D6CD593C16EC32010447F0571AD6CE3D489D20813A9877E410FBD62D82434182CC055F3F75D1292E692438FBD206B7698593D61BEFD1E2DF982108D773D6D6B460938E5B571FB9ECE6957AD29D90A1EBC4F
310
77364A9C1CA1A759A682EF839FA72269D8C9D92654AD71C72206887E0E0A22CAF926B15E498B01E0AA19451807D01A34B919F16B070157417138917400F2F6FA41FCF0092A45DEE414C19BDC21783E4BD39D891265658C3D8DEA00A3ACE59CBC8678ACB54CB26EEB6BD7839D7E9348BE70AD9C8321B9BCA7F9A4A26C542347
310
DEE050F09802D22BA6749A800A394DD62899107273365E3C82CFC6A55557BC06C10774B7ABE7AEC3B0F34CF06446280E154026D0542C187BA9DAB6628BF7B6DBB0E5A65B3EB1F58631DE64BBE083F7B65CC218087E22CABB042E51D1F2268F1FE12B3EA24D40D63E9CFE00120194D60B9D5BC67FE6D39CDF37E20AF817881F
310
504B0304140006080800B670623B5933D422630500003B100000340000006662782F38353834323741342D343835462D343034322D383541392D4331303331363839454531452F6F626A656374732E786D6CAD575B6FA33814FE2B887D0642934E9B156594264D158D3A534DD4D13E548A0C38942D60649B4EBABF7E3F8321
310
40924EF6928780CDF1B97EE762EFF32E4B8D37CA45C2F21BD3B547A641F39045491EDF98A5DC5AD7A6F1D9F73863B243661A39C9E88DA9B64DDF8B392B0BBD15D12D295339D85DDEFE618890E6D434C2940871638AF08566C426A5641115AF764424B1E3EDCE76ED9AB0CF36E6A47819302D08A7B984A6D8CFC1C5A89572FB
310
CB91E9F89EA3BEFB9EFAD754E3D3544E654F5F7E920B49F2F040D880CDD89D2CEE2E2EA7D6E56432B6269F2E5CEB7679BBB0DCABF168FE693E9FCEEEA6102C240727AD09A75BD3BF876F78127A4EFDA9D5582B7E4CA590E5390D2BFB6161A5B3E618D182E611E2985001691DAB47FDA5AB7CD3F93C566B2DB2BB7D9E55DD13
310
1D468DEECDB3AB290BFE8409E21C54704115AA6AFF68436BFC8DF65E0B184BF5B74418199194272435D224E084BF9B3E481589EFF5D828747285706581E9BB7B7E5D5D911ABFC6EE312DB7659A2A689A7E85EC0DF04FA5A8344BFEA2FCB834E8845895492EAFB541F2BDA0A63FF59C6AD3F7D4637CA13FD68E34B629891172
310
98597F1D183A57B9B75A98FE9765B05BAB7C3C2EBCE0ACA05C2AF8005A4DE09AA7F29216EB9E15397500C6F47CBE77CA7778FE2BD277AF0AE2C693DD6437D1522427B9D8329E2136F6A8FA19A3E6C56ADF0E5F50CF06D48734EDCEBF22F69C56D97EC138153F804B85E6FABFC7AFEFB32E523BE1F3BD372418E363EDCA7548
310
52949E8724474014288D94610BB57C1BEC4C7F854A89CA8E5324F55B871CBC78CE1BBEE3BFE68D6A5589EF3C730474506FCFA8FCF0659516D0ED04580EEA6425581B77CAE797FF4BCECC16EB2FEB926F49481F746159D06D922712BD730FDEAE42BD40F42C7AA5EF3F198F60E86110D6DD20645A9480B795CF95E3E3A659A8
310
C55E724F408873315335CFFB8584874484344D494E59D94869DB90C26A5B64F49C802CAC1D3ABE18A098D3B7444D123D8A9E5AE8F5214F0AE5B2B6E9B575DA3E61CBD3EA2B4009FA940524DD1305FB6A1FB294F14DF0BEA90BA109ECE1481FDC3FFAE8D60E75141700BE82725371B4873751B2DD960265F788137FACE6DD40
310
B575E4F0A5C99F46629D92131467A41EE11ABD8D4CCC039CA0AFB37C93A08B232B8F0AEFCA1E0A1015DF13FC83322B362463652ECF71D3A8B1A7D1BE65DE1D62C44F22C317D35F574FEB16153BA2D13E543D10A80E74C4A65E78A6B7CBCBD1D5DD9DB59C2DAFACC96C3AB566E3F1C29ADCDD5DBAD7D3C9ED7C822ED74F80A6
310
41755310DE4443F44A9E68373FADF6596BFA0F440AE7BECE2727AE9F4F2B1B53B1E7E00CF0DD1E5C65454A339A4BA2D0FBA05ED2EF0443458F47BDBFCA484CCFE0F2ED7E3DD0013B679C7B5499467F0ECEEADDB9CA85A34CE44B99053949D2C1416DB85DE4B136BB7165FBAC0B7AB3542BED4F8CA182A549847A1319316519
310
95A83A67147B9E5101C47487F2485F1ECE38FD568F839204296D3479219888530154036E6528FBFBC66F98E0D4107563A2D7D9AFF8D389681A08F58D89F22693900A3B407754734FC51C10C010D6D640809EE4718AC1BA3ED4AEDB53CA37283F68805A7E4B72CEB0A4EDEAD5DD8C14059A76AFAA56BA6901E13F32BC51C720
310
12AF41295B5BF61BAD3195181FB506E6B40F4C10AF5AF40EF9F5B159AE5DD1F43C72D635E94310D45C2D49785C5D0B94D3B54AB3C5A38349C0587D338AB48C11CBF339599C02CCA54A70A008A8D03C0B2201D5F9EFCF8F9CE12A9A19CB0410789EB32C63B95ECCF455D658BFE0621A3DA32C5075FB101723D77DAE867E7D0F
310
D90444509B44E2151B4DC2290B065803200FBAA9BE9D392A0603F2D5C2D00D6302A615680F66D2FA166E2079D4C551A54AB758161FCEFD4E450A14704CECFEDF504B0304140006080000B670623B000000000000000000000000350000006662782F38353834323741342D343835462D343034322D383541392D4331303331
310
363839454531452F76657274696365732E62696E504B0304140006080800B670623BF270F1330600000004000000360000006662782F38353834323741342D343835462D343034322D383541392D4331303331363839454531452F747269616E676C65732E62696E636660600000504B0304140006080000B670623B000000
310
000000000000000000370000006662782F38353834323741342D343835462D343034322D383541392D4331303331363839454531452F617474726962757465732E62696E504B0304140006080800B670623B08DA0BD19000000041010000360000006662782F38353834323741342D343835462D343034322D383541392D43
310
31303331363839454531452F6469726563746F72792E786D6C858F410AC3201045AF22B36F53E9A60B35CBEEBAE80D244E44489C6234F4F835464A48035D0DF398FF9F8AF63D0E6CC63039F212F8F9020C7D47C6792B21C5FE7403D62A1188E2E60C98D7234A5830286103A55745067B9D86B8A3CF9C7F90C11DE607FB1443
310
96D7B6A82D282E9A152AD114D5EF2CB866EEE831B8EEA07A7BB5A8D7D61A2BAAEB7FD5F70921FF497D00504B0304140006080800B670623BD9A3B367FE000000A00100003B0000006662782F38353834323741342D343835462D343034322D383541392D4331303331363839454531452F7265736F75726365732F636F7265
310
2E786D6C8D504B6E833010BD0A9A6D65B01D0201194711694FD00B586642AD043BF2A7EAF16B122AB5BB6E6646EFA3797AE2F8B5DC8A4FF4C1383B002B291468B59B8C9D0748F1420E501CA5F0CEC55F3228AC5A708015062966EFD27D83B4B3116DCCA875136EA00A012314FA968F0182FEC045952AC5AC08D7F2AEF455CD
310
58B232D3592745883E07289E4FD609D26370C96B0CA27AB252A464A64D63A6FCD35C0C7A904D73EE467EE664DCD58CD4ED4849D79C5A723ED1B7A61977AF2D6F45B59AA58866F9C9A83DAA8813484E6947182394BFB3BAA7FBBEDEBFD0434FA9A856F91F53BA4FFF342563E38E6F719FB60092E5200F428A6AED2BAF479979
310
AFDDCA6F504B010214000A0000080000B670623B3DEE336E79000000790000001B00000000000000000000000000000000006175746F6465736B2D64657369676E2D7061636B6167652E786D6C504B01021400140006080800B670623BD486FD9CA0000000F40000001300000000000000000000000000B20000005B436F6E
310
74656E745F54797065735D2E786D6C504B01021400140006080800B670623BCA089DFFEC0000007C010000080000000000000000000000000083010000636F72652E786D6C504B01021400140006080800B670623B55019EA25F0000007C000000070000000000000000000000000095020000636E782E786D6C504B010214
310
00140006080800B670623B68FC0B7272010000D40300000C00000000000000000000000000190300006662782F636F72652E786D6C504B01021400140006080800B670623B0F71DDB67E0000009D0000000B00000000000000000000000000B50400006662782F636E782E786D6C504B01021400140006080800B670623BE1
310
34B4FB280100001202000031000000000000000000000000005C0500006662782F38353834323741342D343835462D343034322D383541392D4331303331363839454531452F636F72652E786D6C504B01021400140006080800B670623B1B8617914E010000330300003000000000000000000000000000D3060000666278
310
2F38353834323741342D343835462D343034322D383541392D4331303331363839454531452F636E782E786D6C504B01021400140006080800B670623B5933D422630500003B10000034000000000000000000000000006F0800006662782F38353834323741342D343835462D343034322D383541392D4331303331363839
310
454531452F6F626A656374732E786D6C504B01021400140006080000B670623B0000000000000000000000003500000000000000000000000000240E00006662782F38353834323741342D343835462D343034322D383541392D4331303331363839454531452F76657274696365732E62696E504B01021400140006080800
310
B670623BF270F13306000000040000003600000000000000000000000000770E00006662782F38353834323741342D343835462D343034322D383541392D4331303331363839454531452F747269616E676C65732E62696E504B01021400140006080000B670623B0000000000000000000000003700000000000000000000
310
000000D10E00006662782F38353834323741342D343835462D343034322D383541392D4331303331363839454531452F617474726962757465732E62696E504B01021400140006080800B670623B08DA0BD190000000410100003600000000000000000000000000260F00006662782F38353834323741342D343835462D34
310
3034322D383541392D4331303331363839454531452F6469726563746F72792E786D6C504B01021400140006080800B670623BD9A3B367FE000000A00100003B000000000000000000000000000A1000006662782F38353834323741342D343835462D343034322D383541392D4331303331363839454531452F7265736F75
310
726365732F636F72652E786D6C504B0506000000000E000E0080040000611100000000
  0
XRECORD
  5
113
102
{ACAD_REACTORS
330
110
102
}
330
110
100
AcDbXrecord
280
     1
270
     1
271
     1
  0
XRECORD
  5
114
102
{ACAD_REACTORS
330
110
102
}
330
110
100
AcDbXrecord
280
     1
270
     1
271
     1
  0
CELLSTYLEMAP
  5
2FC70
102
{ACAD_REACTORS
330
104
102
}
330
104
100
AcDbCellStyleMap
 90
        3
300
CELLSTYLE
  1
TABLEFORMAT_BEGIN
 90
        5
170
     1
 91
        0
 92
    32768
 62
   257
 93
        1
300
CONTENTFORMAT
  1
CONTENTFORMAT_BEGIN
 90
        0
 91
        0
 92
      512
 93
        0
300

 40
0.0
140
1.0
 94
        5
 62
     0
340
11
144
0.25
309
CONTENTFORMAT_END
171
     1
301
MARGIN
  1
CELLMARGIN_BEGIN
 40
0.06
 40
0.06
 40
0.06
 40
0.06
 40
0.18
 40
0.18
309
CELLMARGIN_END
 94
        6
 95
        1
302
GRIDFORMAT
  1
GRIDFORMAT_BEGIN
 90
        0
 91
        1
 62
     0
 92
       -2
340
0
 93
        0
 40
0.045
309
GRIDFORMAT_END
 95
        2
302
GRIDFORMAT
  1
GRIDFORMAT_BEGIN
 90
        0
 91
        1
 62
     0
 92
       -2
340
0
 93
        0
 40
0.045
309
GRIDFORMAT_END
 95
        4
302
GRIDFORMAT
  1
GRIDFORMAT_BEGIN
 90
        0
 91
        1
 62
     0
 92
       -2
340
0
 93
        0
 40
0.045
309
GRIDFORMAT_END
 95
        8
302
GRIDFORMAT
  1
GRIDFORMAT_BEGIN
 90
        0
 91
        1
 62
     0
 92
       -2
340
0
 93
        0
 40
0.045
309
GRIDFORMAT_END
 95
       16
302
GRIDFORMAT
  1
GRIDFORMAT_BEGIN
 90
        0
 91
        1
 62
     0
 92
       -2
340
0
 93
        0
 40
0.045
309
GRIDFORMAT_END
 95
       32
302
GRIDFORMAT
  1
GRIDFORMAT_BEGIN
 90
        0
 91
        1
 62
     0
 92
       -2
340
0
 93
        0
 40
0.045
309
GRIDFORMAT_END
309
TABLEFORMAT_END
  1
CELLSTYLE_BEGIN
 90
        1
 91
        1
300
_TITLE
309
CELLSTYLE_END
300
CELLSTYLE
  1
TABLEFORMAT_BEGIN
 90
        5
170
     1
 91
        0
 92
        0
 62
   257
 93
        1
300
CONTENTFORMAT
  1
CONTENTFORMAT_BEGIN
 90
        0
 91
        0
 92
      512
 93
        0
300

 40
0.0
140
1.0
 94
        5
 62
     0
340
11
144
0.18
309
CONTENTFORMAT_END
171
     1
301
MARGIN
  1
CELLMARGIN_BEGIN
 40
0.06
 40
0.06
 40
0.06
 40
0.06
 40
0.18
 40
0.18
309
CELLMARGIN_END
 94
        6
 95
        1
302
GRIDFORMAT
  1
GRIDFORMAT_BEGIN
 90
        0
 91
        1
 62
     0
 92
       -2
340
0
 93
        0
 40
0.045
309
GRIDFORMAT_END
 95
        2
302
GRIDFORMAT
  1
GRIDFORMAT_BEGIN
 90
        0
 91
        1
 62
     0
 92
       -2
340
0
 93
        0
 40
0.045
309
GRIDFORMAT_END
 95
        4
302
GRIDFORMAT
  1
GRIDFORMAT_BEGIN
 90
        0
 91
        1
 62
     0
 92
       -2
340
0
 93
        0
 40
0.045
309
GRIDFORMAT_END
 95
        8
302
GRIDFORMAT
  1
GRIDFORMAT_BEGIN
 90
        0
 91
        1
 62
     0
 92
       -2
340
0
 93
        0
 40
0.045
309
GRIDFORMAT_END
 95
       16
302
GRIDFORMAT
  1
GRIDFORMAT_BEGIN
 90
        0
 91
        1
 62
     0
 92
       -2
340
0
 93
        0
 40
0.045
309
GRIDFORMAT_END
 95
       32
302
GRIDFORMAT
  1
GRIDFORMAT_BEGIN
 90
        0
 91
        1
 62
     0
 92
       -2
340
0
 93
        0
 40
0.045
309
GRIDFORMAT_END
309
TABLEFORMAT_END
  1
CELLSTYLE_BEGIN
 90
        2
 91
        1
300
_HEADER
309
CELLSTYLE_END
300
CELLSTYLE
  1
TABLEFORMAT_BEGIN
 90
        5
170
     1
 91
        0
 92
        0
 62
   257
 93
        1
300
CONTENTFORMAT
  1
CONTENTFORMAT_BEGIN
 90
        0
 91
        0
 92
      512
 93
        0
300

 40
0.0
140
1.0
 94
        2
 62
     0
340
11
144
0.18
309
CONTENTFORMAT_END
171
     1
301
MARGIN
  1
CELLMARGIN_BEGIN
 40
0.06
 40
0.06
 40
0.06
 40
0.06
 40
0.18
 40
0.18
309
CELLMARGIN_END
 94
        6
 95
        1
302
GRIDFORMAT
  1
GRIDFORMAT_BEGIN
 90
        0
 91
        1
 62
     0
 92
       -2
340
0
 93
        0
 40
0.045
309
GRIDFORMAT_END
 95
        2
302
GRIDFORMAT
  1
GRIDFORMAT_BEGIN
 90
        0
 91
        1
 62
     0
 92
       -2
340
0
 93
        0
 40
0.045
309
GRIDFORMAT_END
 95
        4
302
GRIDFORMAT
  1
GRIDFORMAT_BEGIN
 90
        0
 91
        1
 62
     0
 92
       -2
340
0
 93
        0
 40
0.045
309
GRIDFORMAT_END
 95
        8
302
GRIDFORMAT
  1
GRIDFORMAT_BEGIN
 90
        0
 91
        1
 62
     0
 92
       -2
340
0
 93
        0
 40
0.045
309
GRIDFORMAT_END
 95
       16
302
GRIDFORMAT
  1
GRIDFORMAT_BEGIN
 90
        0
 91
        1
 62
     0
 92
       -2
340
0
 93
        0
 40
0.045
309
GRIDFORMAT_END
 95
       32
302
GRIDFORMAT
  1
GRIDFORMAT_BEGIN
 90
        0
 91
        1
 62
     0
 92
       -2
340
0
 93
        0
 40
0.045
309
GRIDFORMAT_END
309
TABLEFORMAT_END
  1
CELLSTYLE_BEGIN
 90
        3
 91
        2
300
_DATA
309
CELLSTYLE_END
  0
ENDSEC
  0
SECTION
  2
ACDSDATA
 70
     2
 71
     8
  0
ACDSSCHEMA
 90
        0
  1
AcDb_Thumbnail_Schema
  2
AcDbDs::ID
280
    10
 91
        8
  2
Thumbnail_Data
280
    15
 91
        0
101
ACDSRECORD
 95
        0
 90
        1
  2
AcDbDs::TreatedAsObjectData
280
     1
291
     1
101
ACDSRECORD
 95
        0
 90
        2
  2
AcDbDs::Legacy
280
     1
291
     1
101
ACDSRECORD
  1
AcDbDs::ID
 90
        3
  2
AcDs:Indexable
280
     1
291
     1
101
ACDSRECORD
  1
AcDbDs::ID
 90
        4
  2
AcDbDs::HandleAttribute
280
     7
282
     1
  0
ACDSSCHEMA
 90
        1
  1
AcDbDs::TreatedAsObjectDataSchema
  2
AcDbDs::TreatedAsObjectData
280
     1
 91
        0
  0
ACDSSCHEMA
 90
        2
  1
AcDbDs::LegacySchema
  2
AcDbDs::Legacy
280
     1
 91
        0
  0
ACDSSCHEMA
 90
        3
  1
AcDbDs::IndexedPropertySchema
  2
AcDs:Indexable
280
     1
 91
        0
  0
ACDSSCHEMA
 90
        4
  1
AcDbDs::HandleAttributeSchema
  2
AcDbDs::HandleAttribute
280
     7
 91
        1
284
     1
  0
ACDSRECORD
 90
        0
  2
AcDbDs::ID
280
    10
320
22
  2
Thumbnail_Data
280
    15
 94
     1504
310
89504E470D0A1A0A0000000D49484452000001000000005808030000002D06D97A00000300504C5445212830FFFFFF2128300000000000000000000000000000000000000000000000000000330000660000990000CC0000FF0033000033330033660033990033CC0033FF0066000066330066660066990066CC0066FF0099
310
000099330099660099990099CC0099FF00CC0000CC3300CC6600CC9900CCCC00CCFF00FF0000FF3300FF6600FF9900FFCC00FFFF3300003300333300663300993300CC3300FF3333003333333333663333993333CC3333FF3366003366333366663366993366CC3366FF3399003399333399663399993399CC3399FF33CC00
310
33CC3333CC6633CC9933CCCC33CCFF33FF0033FF3333FF6633FF9933FFCC33FFFF6600006600336600666600996600CC6600FF6633006633336633666633996633CC6633FF6666006666336666666666996666CC6666FF6699006699336699666699996699CC6699FF66CC0066CC3366CC6666CC9966CCCC66CCFF66FF0066
310
FF3366FF6666FF9966FFCC66FFFF9900009900339900669900999900CC9900FF9933009933339933669933999933CC9933FF9966009966339966669966999966CC9966FF9999009999339999669999999999CC9999FF99CC0099CC3399CC6699CC9999CCCC99CCFF99FF0099FF3399FF6699FF9999FFCC99FFFFCC0000CC00
310
33CC0066CC0099CC00CCCC00FFCC3300CC3333CC3366CC3399CC33CCCC33FFCC6600CC6633CC6666CC6699CC66CCCC66FFCC9900CC9933CC9966CC9999CC99CCCC99FFCCCC00CCCC33CCCC66CCCC99CCCCCCCCCCFFCCFF00CCFF33CCFF66CCFF99CCFFCCCCFFFFFF0000FF0033FF0066FF0099FF00CCFF00FFFF3300FF3333
310
FF3366FF3399FF33CCFF33FFFF6600FF6633FF6666FF6699FF66CCFF66FFFF9900FF9933FF9966FF9999FF99CCFF99FFFFCC00FFCC33FFCC66FFCC99FFCCCCFFCCFFFFFF00FFFF33FFFF66FFFF99FFFFCCFFFFFF0000000D0D0D1A1A1A2828283535354343435050505D5D5D6B6B6B787878868686939393A1A1A1AEAEAEBB
310
BBBBC9C9C9D6D6D6E4E4E4F1F1F1FFFFFF0000000000000000000000000000000000000000000000000000000000002E4550F10000029B4944415478DAED9C496284201045BDFF7DDF3E8BB4DDC820205351258B4EA2ED508F1A3E88398EB76DD1B83683D6FB1BEC1A7F6EB6627D729709F39FEED46FBE7E1728E860B50428
310
F46FD4DA5F18DE68757DCA3D45A5FB0FF9AE46FB1502A82CED98EE7E0100BA8FCCB603D05994323862467A2C2BEC5FEE0274BD158E9D01ACB15F9407601DC05401201040E3BD70D806406E9693449324DC688A0092360A9E05C7C6F4C40BE005509A833B1148C63E256D3F00B736D41B3713012D65795497C90730DC55E7C5
310
01D5CA6C5690B2CA036ECC9B9BA15805201A922BA4DC942B92F3EE8FC25D54A4990620DEC3EB053C932E10375E822E647C985D2D5D15F02B091407FC45F7F852E0B72F9047B7C7DD2AE799C3937CAF7F2DF03F83ADDE9D3BC7E17CC63A219686C5541CDC9F7877E7FC4D02402CE7443A7D3E012AD73264011C371EE01F56E0
310
F38C34B626DD3D05E01E17541DC28018AA06B8C2AF7B94CF430061781C1427C1EE00AEB9EC2900FF2490EEE53C80899590FFF54BCFEA3CE95287BFCF71ECEFE6F3F76AD7EB2D2B68399A30A5050590233629F478442907800235B8E7B4EF0BA0DF69369DF8EF70DB9FE443AABA9DB949E6833CDAAD0FF3B6AB0CDDDA263154
310
E8607F34043E64909E2CFAACDDB8F100D300E2086465817600A4ABC0EA99982955E0A7D30B2F82AA1070135E7EA8A3B10CEE2E845E29FC02E83C1CC6ACFDC745F71B06704E4D9904F0D5856CF20A7FEFE702E4B68803405F00C55B557A4025194300E43260E6D905326078A74756F31AF2FF7F3D101D18DA88FFF4B21519AE
310
C0C40B909C2DD25C00BCA50914AAA70D15500962B22BC4F4D5FFCA5766265260C562E9F297059498FFFCBDC1A193A7CB16E5372C9BD95690F77A799AD636DBF57B03E8224957945B84D82F406A611480D97F71AAABFD019D291088CCE1A1A30000000049454E44AE426082
  0
ENDSEC
  0
EOF
