  0
SECTION
  2
HEADER
  9
$ACADVER
  1
AC1032
  9
$ACADMAINTVER
 90
      197
  9
$DWGCODEPAGE
  3
ANSI_1252
  9
$LASTSAVEDBY
  1
gregb
  9
$REQUIREDVERSIONS
160
                 0
  9
$INSBASE
 10
0.0
 20
0.0
 30
0.0
  9
$EXTMIN
 10
12835.65455394138
 20
42703.36597023
 30
0.0
  9
$EXTMAX
 10
16304.158732579
 20
43729.97695348039
 30
0.0
  9
$LIMMIN
 10
0.0
 20
0.0
  9
$LIMMAX
 10
12.0
 20
9.0
  9
$ORTHOMODE
 70
     0
  9
$REGENMODE
 70
     1
  9
$FILLMODE
 70
     1
  9
$QTEXTMODE
 70
     0
  9
$MIRRTEXT
 70
     0
  9
$LTSCALE
 40
1.0
  9
$ATTMODE
 70
     1
  9
$TEXTSIZE
 40
0.2
  9
$TRACEWID
 40
0.05
  9
$TEXTSTYLE
  7
Standard
  9
$CLAYER
  8
freecads.com
  9
$CELTYPE
  6
ByLayer
  9
$CECOLOR
 62
   256
  9
$CELTSCALE
 40
1.0
  9
$DISPSILH
 70
     1
  9
$DIMSCALE
 40
1.0
  9
$DIMASZ
 40
0.18
  9
$DIMEXO
 40
0.0625
  9
$DIMDLI
 40
0.38
  9
$DIMRND
 40
0.0
  9
$DIMDLE
 40
0.0
  9
$DIMEXE
 40
0.18
  9
$DIMTP
 40
0.0
  9
$DIMTM
 40
0.0
  9
$DIMTXT
 40
0.18
  9
$DIMCEN
 40
0.09
  9
$DIMTSZ
 40
0.0
  9
$DIMTOL
 70
     0
  9
$DIMLIM
 70
     0
  9
$DIMTIH
 70
     1
  9
$DIMTOH
 70
     1
  9
$DIMSE1
 70
     0
  9
$DIMSE2
 70
     0
  9
$DIMTAD
 70
     0
  9
$DIMZIN
 70
     0
  9
$DIMBLK
  1

  9
$DIMASO
 70
     1
  9
$DIMSHO
 70
     1
  9
$DIMPOST
  1

  9
$DIMAPOST
  1

  9
$DIMALT
 70
     0
  9
$DIMALTD
 70
     2
  9
$DIMALTF
 40
25.4
  9
$DIMLFAC
 40
1.0
  9
$DIMTOFL
 70
     0
  9
$DIMTVP
 40
0.0
  9
$DIMTIX
 70
     0
  9
$DIMSOXD
 70
     0
  9
$DIMSAH
 70
     0
  9
$DIMBLK1
  1

  9
$DIMBLK2
  1

  9
$DIMSTYLE
  2
Standard
  9
$DIMCLRD
 70
     0
  9
$DIMCLRE
 70
     0
  9
$DIMCLRT
 70
     0
  9
$DIMTFAC
 40
1.0
  9
$DIMGAP
 40
0.09
  9
$DIMJUST
 70
     0
  9
$DIMSD1
 70
     0
  9
$DIMSD2
 70
     0
  9
$DIMTOLJ
 70
     1
  9
$DIMTZIN
 70
     0
  9
$DIMALTZ
 70
     0
  9
$DIMALTTZ
 70
     0
  9
$DIMUPT
 70
     0
  9
$DIMDEC
 70
     4
  9
$DIMTDEC
 70
     4
  9
$DIMALTU
 70
     2
  9
$DIMALTTD
 70
     2
  9
$DIMTXSTY
  7
Standard
  9
$DIMAUNIT
 70
     0
  9
$DIMADEC
 70
     0
  9
$DIMALTRND
 40
0.0
  9
$DIMAZIN
 70
     0
  9
$DIMDSEP
 70
    46
  9
$DIMATFIT
 70
     3
  9
$DIMFRAC
 70
     0
  9
$DIMLDRBLK
  1

  9
$DIMLUNIT
 70
     2
  9
$DIMLWD
 70
    -2
  9
$DIMLWE
 70
    -2
  9
$DIMTMOVE
 70
     0
  9
$DIMFXL
 40
1.0
  9
$DIMFXLON
 70
     0
  9
$DIMJOGANG
 40
0.7853981633974483
  9
$DIMTFILL
 70
     0
  9
$DIMTFILLCLR
 70
     0
  9
$DIMARCSYM
 70
     0
  9
$DIMLTYPE
  6

  9
$DIMLTEX1
  6

  9
$DIMLTEX2
  6

  9
$DIMTXTDIRECTION
 70
     0
  9
$LUNITS
 70
     2
  9
$LUPREC
 70
     4
  9
$SKETCHINC
 40
0.1
  9
$FILLETRAD
 40
0.0
  9
$AUNITS
 70
     0
  9
$AUPREC
 70
     0
  9
$MENU
  1
.
  9
$ELEVATION
 40
0.0
  9
$PELEVATION
 40
0.0
  9
$THICKNESS
 40
0.0
  9
$LIMCHECK
 70
     0
  9
$CHAMFERA
 40
0.0
  9
$CHAMFERB
 40
0.0
  9
$CHAMFERC
 40
0.0
  9
$CHAMFERD
 40
0.0
  9
$SKPOLY
 70
     0
  9
$TDCREATE
 40
2458157.371250000
  9
$TDUCREATE
 40
2458157.287916667
  9
$TDUPDATE
 40
2461017.972314815
  9
$TDUUPDATE
 40
2461017.888981482
  9
$TDINDWG
 40
0.1598263889
  9
$TDUSRTIMER
 40
0.1598263889
  9
$USRTIMER
 70
     1
  9
$ANGBASE
 50
0.0
  9
$ANGDIR
 70
     0
  9
$PDMODE
 70
     0
  9
$PDSIZE
 40
0.0
  9
$PLINEWID
 40
0.0
  9
$SPLFRAME
 70
     0
  9
$SPLINETYPE
 70
     6
  9
$SPLINESEGS
 70
     8
  9
$HANDSEED
  5
E2DA
  9
$SURFTAB1
 70
     6
  9
$SURFTAB2
 70
     6
  9
$SURFTYPE
 70
     6
  9
$SURFU
 70
     6
  9
$SURFV
 70
     6
  9
$UCSBASE
  2

  9
$UCSNAME
  2

  9
$UCSORG
 10
0.0
 20
0.0
 30
0.0
  9
$UCSXDIR
 10
1.0
 20
0.0
 30
0.0
  9
$UCSYDIR
 10
0.0
 20
1.0
 30
0.0
  9
$UCSORTHOREF
  2

  9
$UCSORTHOVIEW
 70
     0
  9
$UCSORGTOP
 10
0.0
 20
0.0
 30
0.0
  9
$UCSORGBOTTOM
 10
0.0
 20
0.0
 30
0.0
  9
$UCSORGLEFT
 10
0.0
 20
0.0
 30
0.0
  9
$UCSORGRIGHT
 10
0.0
 20
0.0
 30
0.0
  9
$UCSORGFRONT
 10
0.0
 20
0.0
 30
0.0
  9
$UCSORGBACK
 10
0.0
 20
0.0
 30
0.0
  9
$PUCSBASE
  2

  9
$PUCSNAME
  2

  9
$PUCSORG
 10
0.0
 20
0.0
 30
0.0
  9
$PUCSXDIR
 10
1.0
 20
0.0
 30
0.0
  9
$PUCSYDIR
 10
0.0
 20
1.0
 30
0.0
  9
$PUCSORTHOREF
  2

  9
$PUCSORTHOVIEW
 70
     0
  9
$PUCSORGTOP
 10
0.0
 20
0.0
 30
0.0
  9
$PUCSORGBOTTOM
 10
0.0
 20
0.0
 30
0.0
  9
$PUCSORGLEFT
 10
0.0
 20
0.0
 30
0.0
  9
$PUCSORGRIGHT
 10
0.0
 20
0.0
 30
0.0
  9
$PUCSORGFRONT
 10
0.0
 20
0.0
 30
0.0
  9
$PUCSORGBACK
 10
0.0
 20
0.0
 30
0.0
  9
$USERI1
 70
     0
  9
$USERI2
 70
     0
  9
$USERI3
 70
     0
  9
$USERI4
 70
     0
  9
$USERI5
 70
     0
  9
$USERR1
 40
0.0
  9
$USERR2
 40
0.0
  9
$USERR3
 40
0.0
  9
$USERR4
 40
0.0
  9
$USERR5
 40
0.0
  9
$WORLDVIEW
 70
     1
  9
$SHADEDGE
 70
     3
  9
$SHADEDIF
 70
    70
  9
$TILEMODE
 70
     1
  9
$MAXACTVP
 70
    64
  9
$PINSBASE
 10
0.0
 20
0.0
 30
0.0
  9
$PLIMCHECK
 70
     0
  9
$PEXTMIN
 10
0.0
 20
0.0
 30
0.0
  9
$PEXTMAX
 10
0.0
 20
0.0
 30
0.0
  9
$PLIMMIN
 10
0.0
 20
0.0
  9
$PLIMMAX
 10
12.0
 20
9.0
  9
$UNITMODE
 70
     0
  9
$VISRETAIN
 70
     1
  9
$PLINEGEN
 70
     0
  9
$PSLTSCALE
 70
     1
  9
$TREEDEPTH
 70
  3020
  9
$CMLSTYLE
  2
Standard
  9
$CMLJUST
 70
     0
  9
$CMLSCALE
 40
1.0
  9
$PROXYGRAPHICS
 70
     1
  9
$MEASUREMENT
 70
     0
  9
$CELWEIGHT
370
    -1
  9
$ENDCAPS
280
     0
  9
$JOINSTYLE
280
     0
  9
$LWDISPLAY
290
     0
  9
$INSUNITS
 70
     1
  9
$HYPERLINKBASE
  1

  9
$STYLESHEET
  1
monochrome.ctb
  9
$XEDIT
290
     1
  9
$CEPSNTYPE
380
     0
  9
$PSTYLEMODE
290
     1
  9
$FINGERPRINTGUID
  2
{358EB121-6EE0-9143-8A3E-6E8E8869FDA6}
  9
$VERSIONGUID
  2
{4A55629E-7AC3-2842-8A57-CF07159EE3DA}
  9
$EXTNAMES
290
     1
  9
$PSVPSCALE
 40
0.0
  9
$OLESTARTUP
290
     0
  9
$SORTENTS
280
   127
  9
$INDEXCTL
280
     0
  9
$HIDETEXT
280
     1
  9
$XCLIPFRAME
280
     2
  9
$HALOGAP
280
     0
  9
$OBSCOLOR
 70
   257
  9
$OBSLTYPE
280
     0
  9
$INTERSECTIONDISPLAY
280
     0
  9
$INTERSECTIONCOLOR
 70
   257
  9
$DIMASSOC
280
     2
  9
$PROJECTNAME
  1

  9
$CAMERADISPLAY
290
     0
  9
$LENSLENGTH
 40
50.0
  9
$CAMERAHEIGHT
 40
0.0
  9
$STEPSPERSEC
 40
2.0
  9
$STEPSIZE
 40
6.0
  9
$3DDWFPREC
 40
2.0
  9
$PSOLWIDTH
 40
0.25
  9
$PSOLHEIGHT
 40
4.0
  9
$LOFTANG1
 40
1.570796326794896
  9
$LOFTANG2
 40
1.570796326794896
  9
$LOFTMAG1
 40
0.0
  9
$LOFTMAG2
 40
0.0
  9
$LOFTPARAM
 70
     7
  9
$LOFTNORMALS
280
     1
  9
$LATITUDE
 40
37.795
  9
$LONGITUDE
 40
-122.394
  9
$NORTHDIRECTION
 40
0.0
  9
$TIMEZONE
 70
 -8000
  9
$LIGHTGLYPHDISPLAY
280
     1
  9
$TILEMODELIGHTSYNCH
280
     1
  9
$CMATERIAL
347
96
  9
$SOLIDHIST
280
     0
  9
$SHOWHIST
280
     1
  9
$DWFFRAME
280
     2
  9
$DGNFRAME
280
     0
  9
$REALWORLDSCALE
290
     1
  9
$INTERFERECOLOR
 62
     1
  9
$INTERFEREOBJVS
345
A3
  9
$INTERFEREVPVS
346
A0
  9
$CSHADOW
280
     0
  9
$SHADOWPLANELOCATION
 40
0.0
  0
ENDSEC
  0
SECTION
  2
CLASSES
  0
CLASS
  1
ACDBDICTIONARYWDFLT
  2
AcDbDictionaryWithDefault
  3
ObjectDBX Classes
 90
        0
 91
        1
280
     0
281
     0
  0
CLASS
  1
DICTIONARYVAR
  2
AcDbDictionaryVar
  3
ObjectDBX Classes
 90
        0
 91
        9
280
     0
281
     0
  0
CLASS
  1
TABLESTYLE
  2
AcDbTableStyle
  3
ObjectDBX Classes
 90
     4095
 91
        1
280
     0
281
     0
  0
CLASS
  1
MATERIAL
  2
AcDbMaterial
  3
ObjectDBX Classes
 90
     1153
 91
        3
280
     0
281
     0
  0
CLASS
  1
VISUALSTYLE
  2
AcDbVisualStyle
  3
ObjectDBX Classes
 90
     4095
 91
       25
280
     0
281
     0
  0
CLASS
  1
SCALE
  2
AcDbScale
  3
ObjectDBX Classes
 90
     1153
 91
       35
280
     0
281
     0
  0
CLASS
  1
MLEADERSTYLE
  2
AcDbMLeaderStyle
  3
ACDB_MLEADERSTYLE_CLASS
 90
     4095
 91
        1
280
     0
281
     0
  0
CLASS
  1
CELLSTYLEMAP
  2
AcDbCellStyleMap
  3
ObjectDBX Classes
 90
     1152
 91
        1
280
     0
281
     0
  0
CLASS
  1
EXACXREFPANELOBJECT
  2
ExAcXREFPanelObject
  3
EXAC_ESW
 90
     1025
 91
        0
280
     0
281
     0
  0
CLASS
  1
NPOCOLLECTION
  2
AcDbImpNonPersistentObjectsCollection
  3
ObjectDBX Classes
 90
     1153
 91
        0
280
     0
281
     0
  0
CLASS
  1
LAYER_INDEX
  2
AcDbLayerIndex
  3
ObjectDBX Classes
 90
        0
 91
        0
280
     0
281
     0
  0
CLASS
  1
SPATIAL_INDEX
  2
AcDbSpatialIndex
  3
ObjectDBX Classes
 90
        0
 91
        0
280
     0
281
     0
  0
CLASS
  1
IDBUFFER
  2
AcDbIdBuffer
  3
ObjectDBX Classes
 90
        0
 91
        0
280
     0
281
     0
  0
CLASS
  1
ACDBSECTIONVIEWSTYLE
  2
AcDbSectionViewStyle
  3
ObjectDBX Classes
 90
     1025
 91
        2
280
     0
281
     0
  0
CLASS
  1
ACDBDETAILVIEWSTYLE
  2
AcDbDetailViewStyle
  3
ObjectDBX Classes
 90
     1025
 91
        2
280
     0
281
     0
  0
CLASS
  1
SORTENTSTABLE
  2
AcDbSortentsTable
  3
ObjectDBX Classes
 90
        0
 91
        1
280
     0
281
     0
  0
CLASS
  1
SPATIAL_FILTER
  2
AcDbSpatialFilter
  3
ObjectDBX Classes
 90
        0
 91
        0
280
     0
281
     0
  0
CLASS
  1
SOLID_BACKGROUND
  2
AcDbSolidBackground
  3
SCENEOE
 90
     4095
 91
        0
280
     0
281
     0
  0
CLASS
  1
RASTERVARIABLES
  2
AcDbRasterVariables
  3
ISM
 90
        0
 91
        1
280
     0
281
     0
  0
CLASS
  1
IMAGEDEF
  2
AcDbRasterImageDef
  3
ISM
 90
        0
 91
        0
280
     0
281
     0
  0
CLASS
  1
IMAGEDEF_REACTOR
  2
AcDbRasterImageDefReactor
  3
ISM
 90
        1
 91
        0
280
     0
281
     0
  0
CLASS
  1
IMAGE
  2
AcDbRasterImage
  3
ISM
 90
     2175
 91
        0
280
     0
281
     1
  0
ENDSEC
  0
SECTION
  2
TABLES
  0
TABLE
  2
VPORT
  5
8
330
0
100
AcDbSymbolTable
 70
     1
  0
VPORT
  5
94
330
8
100
AcDbSymbolTableRecord
100
AcDbViewportTableRecord
  2
*Active
 70
     0
 10
0.0
 20
0.0
 11
1.0
 21
1.0
 12
14569.74454604036
 22
43440.52617992699
 13
0.0
 23
0.0
 14
0.5
 24
0.5
 15
0.5
 25
0.5
 16
0.0
 26
0.0
 36
1.0
 17
0.0
 27
0.0
 37
0.0
 40
1645.715818061518
 41
2.114740368509212
 42
50.0
 43
0.0
 44
0.0
 50
0.0
 51
0.0
 71
     0
 72
  1000
 73
     1
 74
     3
 75
     0
 76
     0
 77
     0
 78
     0
281
     0
 65
     1
110
0.0
120
0.0
130
0.0
111
1.0
121
0.0
131
0.0
112
0.0
122
1.0
132
0.0
 79
     0
146
0.0
348
9F
 60
     3
 61
     5
292
     1
282
     1
141
0.0
142
0.0
 63
   250
421
  3355443
1001
ACAD_NAV_VCDISPLAY
1070
     3
  0
ENDTAB
  0
TABLE
  2
LTYPE
  5
5
330
0
100
AcDbSymbolTable
 70
     1
  0
LTYPE
  5
14
330
5
100
AcDbSymbolTableRecord
100
AcDbLinetypeTableRecord
  2
ByBlock
 70
     0
  3

 72
    65
 73
     0
 40
0.0
  0
LTYPE
  5
15
330
5
100
AcDbSymbolTableRecord
100
AcDbLinetypeTableRecord
  2
ByLayer
 70
     0
  3

 72
    65
 73
     0
 40
0.0
  0
LTYPE
  5
16
330
5
100
AcDbSymbolTableRecord
100
AcDbLinetypeTableRecord
  2
Continuous
 70
     0
  3
Solid line
 72
    65
 73
     0
 40
0.0
  0
ENDTAB
  0
TABLE
  2
LAYER
  5
2
102
{ACAD_XDICTIONARY
360
18E
102
}
330
0
100
AcDbSymbolTable
 70
     2
  0
LAYER
  5
10
102
{ACAD_XDICTIONARY
360
E6
102
}
330
2
100
AcDbSymbolTableRecord
100
AcDbLayerTableRecord
  2
0
 70
     0
 62
     7
  6
Continuous
370
    -3
390
F
347
98
348
0
  0
LAYER
  5
204
330
2
100
AcDbSymbolTableRecord
100
AcDbLayerTableRecord
  2
freecads.com
 70
     0
 62
     7
  6
Continuous
370
    -3
390
F
347
98
348
0
1001
AcAecLayerStandard
1000

1000

1001
AcCmTransparency
1071
        0
  0
ENDTAB
  0
TABLE
  2
STYLE
  5
3
330
0
100
AcDbSymbolTable
 70
     1
  0
STYLE
  5
11
330
3
100
AcDbSymbolTableRecord
100
AcDbTextStyleTableRecord
  2
Standard
 70
     0
 40
0.0
 41
1.0
 50
0.0
 71
     0
 42
0.2
  3
arial.ttf
  4

1001
ACAD
1000
Arial
1071
       34
  0
ENDTAB
  0
TABLE
  2
VIEW
  5
6
330
0
100
AcDbSymbolTable
 70
     0
  0
ENDTAB
  0
TABLE
  2
UCS
  5
7
330
0
100
AcDbSymbolTable
 70
     0
  0
ENDTAB
  0
TABLE
  2
APPID
  5
9
330
0
100
AcDbSymbolTable
 70
    25
  0
APPID
  5
12
330
9
100
AcDbSymbolTableRecord
100
AcDbRegAppTableRecord
  2
ACAD
 70
     0
  0
APPID
  5
DD
330
9
100
AcDbSymbolTableRecord
100
AcDbRegAppTableRecord
  2
AcadAnnoPO
 70
     0
  0
APPID
  5
DE
330
9
100
AcDbSymbolTableRecord
100
AcDbRegAppTableRecord
  2
AcadAnnotative
 70
     0
  0
APPID
  5
DF
330
9
100
AcDbSymbolTableRecord
100
AcDbRegAppTableRecord
  2
ACAD_DSTYLE_DIMJAG
 70
     0
  0
APPID
  5
E0
330
9
100
AcDbSymbolTableRecord
100
AcDbRegAppTableRecord
  2
ACAD_DSTYLE_DIMTALN
 70
     0
  0
APPID
  5
107
330
9
100
AcDbSymbolTableRecord
100
AcDbRegAppTableRecord
  2
ACAD_MLEADERVER
 70
     0
  0
APPID
  5
1A6
330
9
100
AcDbSymbolTableRecord
100
AcDbRegAppTableRecord
  2
ACAD_NAV_VCDISPLAY
 70
     0
  0
APPID
  5
205
330
9
100
AcDbSymbolTableRecord
100
AcDbRegAppTableRecord
  2
AcAecLayerStandard
 70
     0
  0
APPID
  5
206
330
9
100
AcDbSymbolTableRecord
100
AcDbRegAppTableRecord
  2
AcCmTransparency
 70
     0
  0
APPID
  5
222
330
9
100
AcDbSymbolTableRecord
100
AcDbRegAppTableRecord
  2
ACAD_PSEXT
 70
     0
  0
APPID
  5
2DA
330
9
100
AcDbSymbolTableRecord
100
AcDbRegAppTableRecord
  2
GradientColor1ACI
 70
     0
  0
APPID
  5
2DB
330
9
100
AcDbSymbolTableRecord
100
AcDbRegAppTableRecord
  2
GradientColor2ACI
 70
     0
  0
APPID
  5
2F3
330
9
100
AcDbSymbolTableRecord
100
AcDbRegAppTableRecord
  2
ACAD_EXEMPT_FROM_CAD_STANDARDS
 70
     0
  0
APPID
  5
A1A
330
9
100
AcDbSymbolTableRecord
100
AcDbRegAppTableRecord
  2
AcDbBlockRepETag
 70
     0
  0
APPID
  5
228C
330
9
100
AcDbSymbolTableRecord
100
AcDbRegAppTableRecord
  2
RAK
 70
     0
  0
APPID
  5
2683
330
9
100
AcDbSymbolTableRecord
100
AcDbRegAppTableRecord
  2
ACAD_DSTYLE_DIMJOGGED_JOGANGLE_SYMBOL
 70
     0
  0
APPID
  5
47CF
330
9
100
AcDbSymbolTableRecord
100
AcDbRegAppTableRecord
  2
ACAD_DSTYLE_DIMBREAK
 70
     0
  0
APPID
  5
47D0
330
9
100
AcDbSymbolTableRecord
100
AcDbRegAppTableRecord
  2
AcDbDynamicBlockGUID
 70
     0
  0
APPID
  5
8BD5
330
9
100
AcDbSymbolTableRecord
100
AcDbRegAppTableRecord
  2
AcLayerTools
 70
     0
  0
APPID
  5
92D9
330
9
100
AcDbSymbolTableRecord
100
AcDbRegAppTableRecord
  2
AutoGrph01
 70
     0
  0
APPID
  5
92DA
330
9
100
AcDbSymbolTableRecord
100
AcDbRegAppTableRecord
  2
AutoGrphVars
 70
     0
  0
APPID
  5
92DB
330
9
100
AcDbSymbolTableRecord
100
AcDbRegAppTableRecord
  2
AutoGrphZ
 70
     0
  0
APPID
  5
92DC
330
9
100
AcDbSymbolTableRecord
100
AcDbRegAppTableRecord
  2
AutoGrph05
 70
     0
  0
APPID
  5
AD30
330
9
100
AcDbSymbolTableRecord
100
AcDbRegAppTableRecord
  2
AEC_XDATA_BOUND_SPACE
 70
     0
  0
APPID
  5
C1FD
330
9
100
AcDbSymbolTableRecord
100
AcDbRegAppTableRecord
  2
AcDbBlockArrayActionTag
 70
     0
  0
ENDTAB
  0
TABLE
  2
DIMSTYLE
  5
A
330
0
100
AcDbSymbolTable
 70
     1
100
AcDbDimStyleTable
 71
     1
340
27
  0
DIMSTYLE
105
27
330
A
100
AcDbSymbolTableRecord
100
AcDbDimStyleTableRecord
  2
Standard
 70
     0
340
11
  0
ENDTAB
  0
TABLE
  2
BLOCK_RECORD
  5
1
330
0
100
AcDbSymbolTable
 70
     1
  0
BLOCK_RECORD
  5
1F
102
{ACAD_XDICTIONARY
360
15D
102
}
330
1
100
AcDbSymbolTableRecord
100
AcDbBlockTableRecord
  2
*Model_Space
340
22
 70
     0
280
     1
281
     0
  0
BLOCK_RECORD
  5
58
330
1
100
AcDbSymbolTableRecord
100
AcDbBlockTableRecord
  2
*Paper_Space
340
59
 70
     0
280
     1
281
     0
  0
BLOCK_RECORD
  5
5D
330
1
100
AcDbSymbolTableRecord
100
AcDbBlockTableRecord
  2
*Paper_Space0
340
5E
 70
     0
280
     1
281
     0
  0
ENDTAB
  0
ENDSEC
  0
SECTION
  2
BLOCKS
  0
BLOCK
  5
20
330
1F
100
AcDbEntity
  8
0
100
AcDbBlockBegin
  2
*Model_Space
 70
     0
 10
0.0
 20
0.0
 30
0.0
  3
*Model_Space
  1

  0
ENDBLK
  5
21
330
1F
100
AcDbEntity
  8
0
100
AcDbBlockEnd
  0
BLOCK
  5
5A
330
58
100
AcDbEntity
 67
     1
  8
0
100
AcDbBlockBegin
  2
*Paper_Space
 70
     0
 10
0.0
 20
0.0
 30
0.0
  3
*Paper_Space
  1

  0
ENDBLK
  5
5B
330
58
100
AcDbEntity
 67
     1
  8
0
100
AcDbBlockEnd
  0
BLOCK
  5
5F
330
5D
100
AcDbEntity
 67
     1
  8
0
100
AcDbBlockBegin
  2
*Paper_Space0
 70
     0
 10
0.0
 20
0.0
 30
0.0
  3
*Paper_Space0
  1

  0
ENDBLK
  5
60
330
5D
100
AcDbEntity
 67
     1
  8
0
100
AcDbBlockEnd
  0
ENDSEC
  0
SECTION
  2
ENTITIES
  0
LINE
  5
E0FE
330
1F
100
AcDbEntity
  8
freecads.com
100
AcDbLine
 10
13537.98539937092
 20
43455.16681121605
 30
0.0
 11
13550.86963588046
 21
43455.0094816864
 31
0.0
  0
LINE
  5
E0FF
330
1F
100
AcDbEntity
  8
freecads.com
100
AcDbLine
 10
13679.46930575768
 20
43013.77499198289
 30
0.0
 11
13679.58812955486
 21
43023.50586646731
 31
0.0
  0
LINE
  5
E100
330
1F
100
AcDbEntity
  8
freecads.com
100
AcDbLine
 10
13655.61776554564
 20
43423.82412906715
 30
0.0
 11
13655.60471923501
 21
43422.75572345886
 31
0.0
  0
LINE
  5
E101
330
1F
100
AcDbEntity
  8
freecads.com
100
AcDbLine
 10
14122.12586432516
 20
43408.5662887952
 30
0.0
 11
14115.95202291074
 21
43414.89277178503
 31
0.0
  0
LINE
  5
E102
330
1F
100
AcDbEntity
  8
freecads.com
100
AcDbLine
 10
14048.983701506
 20
43415.7105225691
 30
0.0
 11
14115.95202291074
 21
43414.89277178503
 31
0.0
  0
LINE
  5
E103
330
1F
100
AcDbEntity
  8
freecads.com
100
AcDbLine
 10
14010.30797368215
 20
43411.96727644647
 30
0.0
 11
14010.3594417096
 21
43416.1821637581
 31
0.0
  0
LINE
  5
E104
330
1F
100
AcDbEntity
  8
freecads.com
100
AcDbLine
 10
14048.92365071816
 20
43410.79276456836
 30
0.0
 11
14048.983701506
 21
43415.7105225691
 31
0.0
  0
LINE
  5
E105
330
1F
100
AcDbEntity
  8
freecads.com
100
AcDbLine
 10
12835.65455394138
 20
43093.22587930466
 30
0.0
 11
12883.38884912825
 21
42807.42155536083
 31
0.0
  0
LINE
  5
E106
330
1F
100
AcDbEntity
  8
freecads.com
100
AcDbLine
 10
16097.80072041236
 20
43151.3516524287
 30
0.0
 11
16072.2644424047
 21
43125.9987133358
 31
0.0
  0
LINE
  5
E107
330
1F
100
AcDbEntity
  8
freecads.com
100
AcDbLine
 10
16066.11810334789
 20
43119.89650221075
 30
0.0
 11
16015.17772681408
 21
43069.32185451764
 31
0.0
  0
LINE
  5
E108
330
1F
100
AcDbEntity
  8
freecads.com
100
AcDbLine
 10
16287.77053491116
 20
43168.44506426033
 30
0.0
 11
16287.85280554424
 21
43175.18247901163
 31
0.0
  0
LINE
  5
E109
330
1F
100
AcDbEntity
  8
freecads.com
100
AcDbLine
 10
12947.64953322461
 20
42863.33859422715
 30
0.0
 11
12908.3223704699
 21
43098.80605257607
 31
0.0
  0
LINE
  5
E10A
330
1F
100
AcDbEntity
  8
freecads.com
100
AcDbLine
 10
12883.38884912825
 20
42807.42155536083
 30
0.0
 11
13186.45467631399
 21
42768.71339512769
 31
0.0
  0
LINE
  5
E10B
330
1F
100
AcDbEntity
  8
freecads.com
100
AcDbLine
 10
13684.55000756606
 20
42725.67378977252
 30
0.0
 11
13587.90957977669
 21
42732.1814745613
 31
0.0
  0
LINE
  5
E10C
330
1F
100
AcDbEntity
  8
freecads.com
100
AcDbLine
 10
16015.17772681408
 20
43069.32185451764
 30
0.0
 11
15878.14858265228
 21
42963.85057063674
 31
0.0
  0
LINE
  5
E10D
330
1F
100
AcDbEntity
  8
freecads.com
100
AcDbLine
 10
14168.80110703174
 20
42703.36597023
 30
0.0
 11
14071.8200601846
 21
42706.58665523596
 31
0.0
  0
LINE
  5
E10E
330
1F
100
AcDbEntity
  8
freecads.com
100
AcDbLine
 10
15802.89169468032
 20
42886.94770664118
 30
0.0
 11
15822.45330460995
 21
42896.89323166679
 31
0.0
  0
LINE
  5
E10F
330
1F
100
AcDbEntity
  8
freecads.com
100
AcDbLine
 10
13487.22840808575
 20
42761.9559887663
 30
0.0
 11
13488.52764286358
 21
42758.94145189206
 31
0.0
  0
LINE
  5
E110
330
1F
100
AcDbEntity
  8
freecads.com
100
AcDbLine
 10
14318.18921500788
 20
42715.449708109
 30
0.0
 11
14688.00122592538
 21
42719.40320038836
 31
0.0
  0
LINE
  5
E111
330
1F
100
AcDbEntity
  8
freecads.com
100
AcDbLine
 10
13488.60086556546
 20
42764.93790158198
 30
0.0
 11
13487.22840808575
 21
42761.9559887663
 31
0.0
  0
LINE
  5
E112
330
1F
100
AcDbEntity
  8
freecads.com
100
AcDbLine
 10
13949.30010697459
 20
42734.60630890592
 30
0.0
 11
14318.63050888384
 21
42721.53401784031
 31
0.0
  0
LINE
  5
E113
330
1F
100
AcDbEntity
  8
freecads.com
100
AcDbLine
 10
15831.37387631553
 20
42898.71109615786
 30
0.0
 11
15825.08681655733
 21
42894.92519926006
 31
0.0
  0
LINE
  5
E114
330
1F
100
AcDbEntity
  8
freecads.com
100
AcDbLine
 10
13580.63846908303
 20
42763.81402956516
 30
0.0
 11
13949.30010697459
 21
42734.60630890592
 31
0.0
  0
LINE
  5
E115
330
1F
100
AcDbEntity
  8
freecads.com
100
AcDbLine
 10
15711.23340208719
 20
42885.06827498235
 30
0.0
 11
15712.53263686501
 21
42882.05373810811
 31
0.0
  0
LINE
  5
E116
330
1F
100
AcDbEntity
  8
freecads.com
100
AcDbLine
 10
15712.60585956691
 20
42888.05018779802
 30
0.0
 11
15711.23340208719
 21
42885.06827498235
 31
0.0
  0
LINE
  5
E117
330
1F
100
AcDbEntity
  8
freecads.com
100
AcDbLine
 10
14686.31439667787
 20
42725.46475932175
 30
0.0
 11
14688.21895001321
 21
42725.48512003661
 31
0.0
  0
LINE
  5
E118
330
1F
100
AcDbEntity
  8
freecads.com
100
AcDbLine
 10
14688.00122592538
 20
42719.40320038836
 30
0.0
 11
15057.93454204535
 21
42725.69175104516
 31
0.0
  0
LINE
  5
E119
330
1F
100
AcDbEntity
  8
freecads.com
100
AcDbLine
 10
15056.53952249934
 20
42731.74625542799
 30
0.0
 11
15057.74305702148
 21
42731.76671448773
 31
0.0
  0
LINE
  5
E11A
330
1F
100
AcDbEntity
  8
freecads.com
100
AcDbLine
 10
13858.40993484961
 20
42735.67374499442
 30
0.0
 11
13857.8955618655
 21
42735.68002600763
 31
0.0
  0
LINE
  5
E11B
330
1F
100
AcDbEntity
  8
freecads.com
100
AcDbLine
 10
13857.8955618655
 20
42735.68002600763
 30
0.0
 11
13856.52310438578
 21
42732.69811319194
 31
0.0
  0
LINE
  5
E11C
330
1F
100
AcDbEntity
  8
freecads.com
100
AcDbLine
 10
13856.52310438578
 20
42732.69811319194
 30
0.0
 11
13857.82233916358
 21
42729.6835763177
 31
0.0
  0
LINE
  5
E11D
330
1F
100
AcDbEntity
  8
freecads.com
100
AcDbLine
 10
15804.11088937861
 20
42880.93547523059
 30
0.0
 11
15804.92712576425
 21
42880.92550816063
 31
0.0
  0
LINE
  5
E11E
330
1F
100
AcDbEntity
  8
freecads.com
100
AcDbLine
 10
15804.92712576425
 20
42880.92550816063
 30
0.0
 11
15805.10326138681
 21
42881.30819474877
 31
0.0
  0
LINE
  5
E11F
330
1F
100
AcDbEntity
  8
freecads.com
100
AcDbLine
 10
15330.21780206702
 20
42772.53702412958
 30
0.0
 11
15331.51703684483
 21
42769.52248725536
 31
0.0
  0
LINE
  5
E120
330
1F
100
AcDbEntity
  8
freecads.com
100
AcDbLine
 10
15331.59025954675
 20
42775.51893694528
 30
0.0
 11
15330.21780206702
 21
42772.53702412958
 31
0.0
  0
LINE
  5
E121
330
1F
100
AcDbEntity
  8
freecads.com
100
AcDbLine
 10
14966.81676811393
 20
42732.8393755296
 30
0.0
 11
14965.60215015766
 21
42730.20039770812
 31
0.0
  0
LINE
  5
E122
330
1F
100
AcDbEntity
  8
freecads.com
100
AcDbLine
 10
14967.9320483865
 20
42732.82575683202
 30
0.0
 11
14966.81676811393
 21
42732.8393755296
 31
0.0
  0
LINE
  5
E123
330
1F
100
AcDbEntity
  8
freecads.com
100
AcDbLine
 10
15422.99933878964
 20
42768.40539603111
 30
0.0
 11
15423.91152574406
 21
42768.3942573079
 31
0.0
  0
LINE
  5
E124
330
1F
100
AcDbEntity
  8
freecads.com
100
AcDbLine
 10
15423.91152574406
 20
42768.3942573079
 30
0.0
 11
15424.04524653182
 21
42768.68478997403
 31
0.0
  0
LINE
  5
E125
330
1F
100
AcDbEntity
  8
freecads.com
100
AcDbLine
 10
15058.22584735682
 20
42725.72583461544
 30
0.0
 11
15059.13803431124
 21
42725.7146958922
 31
0.0
  0
LINE
  5
E126
330
1F
100
AcDbEntity
  8
freecads.com
100
AcDbLine
 10
15056.45444005885
 20
42731.74480909912
 30
0.0
 11
14970.67475631564
 21
42732.79226560044
 31
0.0
  0
LINE
  5
E127
330
1F
100
AcDbEntity
  8
freecads.com
100
AcDbLine
 10
14226.41274396307
 20
42718.69809691282
 30
0.0
 11
14227.31460782444
 21
42716.6055560479
 31
0.0
  0
LINE
  5
E128
330
1F
100
AcDbEntity
  8
freecads.com
100
AcDbLine
 10
14598.28455382342
 20
42726.53969253652
 30
0.0
 11
14597.08805654979
 21
42726.55430297565
 31
0.0
  0
LINE
  5
E129
330
1F
100
AcDbEntity
  8
freecads.com
100
AcDbLine
 10
14597.08805654979
 20
42726.55430297565
 30
0.0
 11
14596.14289901089
 21
42724.5007767865
 31
0.0
  0
LINE
  5
E12A
330
1F
100
AcDbEntity
  8
freecads.com
100
AcDbLine
 10
14686.31439667787
 20
42725.46475932175
 30
0.0
 11
14600.96208201496
 21
42726.50699721532
 31
0.0
  0
LINE
  5
E12B
330
1F
100
AcDbEntity
  8
freecads.com
100
AcDbLine
 10
16140.1329209448
 20
43120.8801658283
 30
0.0
 11
16281.62528977403
 21
43150.10934012701
 31
0.0
  0
LINE
  5
E12C
330
1F
100
AcDbEntity
  8
freecads.com
100
AcDbLine
 10
16137.22519310517
 20
43126.42749755809
 30
0.0
 11
16279.85566116791
 21
43155.89177782854
 31
0.0
  0
LINE
  5
E12D
330
1F
100
AcDbEntity
  8
freecads.com
100
AcDbLine
 10
16281.62528977403
 20
43150.10934012701
 30
0.0
 11
16290.77127561181
 21
43153.84067594202
 31
0.0
  0
LINE
  5
E12E
330
1F
100
AcDbEntity
  8
freecads.com
100
AcDbLine
 10
16279.85566116791
 20
43155.89177782854
 30
0.0
 11
16287.16125649512
 21
43158.87227987368
 31
0.0
  0
LINE
  5
E12F
330
1F
100
AcDbEntity
  8
freecads.com
100
AcDbLine
 10
16290.77127561181
 20
43153.84067594202
 30
0.0
 11
16297.52902245702
 21
43161.64816485556
 31
0.0
  0
LINE
  5
E130
330
1F
100
AcDbEntity
  8
freecads.com
100
AcDbLine
 10
16287.16125649512
 20
43158.87227987368
 30
0.0
 11
16292.03174826268
 21
43164.49934927268
 31
0.0
  0
LINE
  5
E131
330
1F
100
AcDbEntity
  8
freecads.com
100
AcDbLine
 10
16297.52902245702
 20
43161.64816485556
 30
0.0
 11
16299.92879962051
 21
43171.30928077871
 31
0.0
  0
LINE
  5
E132
330
1F
100
AcDbEntity
  8
freecads.com
100
AcDbLine
 10
16292.03174826268
 20
43164.49934927268
 30
0.0
 11
16293.91530773631
 21
43172.08225601082
 31
0.0
  0
LINE
  5
E133
330
1F
100
AcDbEntity
  8
freecads.com
100
AcDbLine
 10
16136.00040111106
 20
43125.22043296215
 30
0.0
 11
16137.22519310517
 21
43126.42749755809
 31
0.0
  0
LINE
  5
E134
330
1F
100
AcDbEntity
  8
freecads.com
100
AcDbLine
 10
16042.52968691135
 20
43126.3618047066
 30
0.0
 11
16041.11605570723
 21
43123.29043450645
 31
0.0
  0
LINE
  5
E135
330
1F
100
AcDbEntity
  8
freecads.com
100
AcDbLine
 10
16041.11605570723
 20
43123.29043450645
 30
0.0
 11
16042.45426752837
 21
43120.18546152599
 31
0.0
  0
LINE
  5
E136
330
1F
100
AcDbEntity
  8
freecads.com
100
AcDbLine
 10
16016.70241058247
 20
43194.18326050391
 30
0.0
 11
15745.43371716242
 21
43197.49572499585
 31
0.0
  0
LINE
  5
E137
330
1F
100
AcDbEntity
  8
freecads.com
100
AcDbLine
 10
13488.52211528575
 20
42814.11983009213
 30
0.0
 11
13402.21424473944
 21
42815.17373628732
 31
0.0
  0
LINE
  5
E138
330
1F
100
AcDbEntity
  8
freecads.com
100
AcDbLine
 10
13405.39399407778
 20
42831.00430076367
 30
0.0
 11
12947.64953322461
 21
42863.33859422715
 31
0.0
  0
LINE
  5
E139
330
1F
100
AcDbEntity
  8
freecads.com
100
AcDbLine
 10
16293.9522551064
 20
43175.10799857734
 30
0.0
 11
16287.85280554424
 21
43175.18247901163
 31
0.0
  0
LINE
  5
E13A
330
1F
100
AcDbEntity
  8
freecads.com
100
AcDbLine
 10
16299.97428786044
 20
43175.0344634804
 30
0.0
 11
16303.77561406239
 21
43174.98804545144
 31
0.0
  0
LINE
  5
E13B
330
1F
100
AcDbEntity
  8
freecads.com
100
AcDbLine
 10
16300.09147568377
 20
43184.63136264423
 30
0.0
 11
16303.77561406239
 21
43174.98804545144
 31
0.0
  0
LINE
  5
E13C
330
1F
100
AcDbEntity
  8
freecads.com
100
AcDbLine
 10
14558.30888931846
 20
42837.12471771864
 30
0.0
 11
14630.56982949096
 21
42838.02103262537
 31
0.0
  0
LINE
  5
E13D
330
1F
100
AcDbEntity
  8
freecads.com
100
AcDbLine
 10
14533.69134634876
 20
42836.40957193215
 30
0.0
 11
14558.30888931846
 21
42837.12471771864
 31
0.0
  0
LINE
  5
E13E
330
1F
100
AcDbEntity
  8
freecads.com
100
AcDbLine
 10
14461.24271656731
 20
42835.4159475531
 30
0.0
 11
14533.69134634876
 21
42836.40957193215
 31
0.0
  0
LINE
  5
E13F
330
1F
100
AcDbEntity
  8
freecads.com
100
AcDbLine
 10
14436.88079900937
 20
42834.6786417883
 30
0.0
 11
14461.24271656731
 21
42835.4159475531
 31
0.0
  0
LINE
  5
E140
330
1F
100
AcDbEntity
  8
freecads.com
100
AcDbLine
 10
14364.22513796952
 20
42833.58738417373
 30
0.0
 11
14436.88079900937
 21
42834.6786417883
 31
0.0
  0
LINE
  5
E141
330
1F
100
AcDbEntity
  8
freecads.com
100
AcDbLine
 10
14340.13931107975
 20
42832.82928373583
 30
0.0
 11
14364.22513796952
 21
42833.58738417373
 31
0.0
  0
LINE
  5
E142
330
1F
100
AcDbEntity
  8
freecads.com
100
AcDbLine
 10
14267.25777865211
 20
42831.63999085078
 30
0.0
 11
14340.13931107975
 21
42832.82928373583
 31
0.0
  0
LINE
  5
E143
330
1F
100
AcDbEntity
  8
freecads.com
100
AcDbLine
 10
14243.46799767682
 20
42830.8625113978
 30
0.0
 11
14267.25777865211
 21
42831.63999085078
 31
0.0
  0
LINE
  5
E144
330
1F
100
AcDbEntity
  8
freecads.com
100
AcDbLine
 10
14786.72471492462
 20
42840.65210305979
 30
0.0
 11
14791.95441806229
 21
42883.95186333648
 31
0.0
  0
LINE
  5
E145
330
1F
100
AcDbEntity
  8
freecads.com
100
AcDbLine
 10
14630.56982949096
 20
42838.02103262537
 30
0.0
 11
14655.42200969749
 21
42838.71270583613
 31
0.0
  0
LINE
  5
E146
330
1F
100
AcDbEntity
  8
freecads.com
100
AcDbLine
 10
14755.66695668964
 20
42839.74182444866
 30
0.0
 11
14786.72471492462
 21
42840.65210305979
 31
0.0
  0
LINE
  5
E147
330
1F
100
AcDbEntity
  8
freecads.com
100
AcDbLine
 10
15111.87713090668
 20
43101.87388742789
 30
0.0
 11
15111.98570016914
 21
43102.2044574215
 31
0.0
  0
LINE
  5
E148
330
1F
100
AcDbEntity
  8
freecads.com
100
AcDbLine
 10
15110.28471865115
 20
42953.86620404078
 30
0.0
 11
15258.50090011368
 21
42952.05633489576
 31
0.0
  0
LINE
  5
E149
330
1F
100
AcDbEntity
  8
freecads.com
100
AcDbLine
 10
15111.87713090668
 20
43101.87388742789
 30
0.0
 11
15110.28471865115
 21
42953.86620404078
 31
0.0
  0
LINE
  5
E14A
330
1F
100
AcDbEntity
  8
freecads.com
100
AcDbLine
 10
15254.24240843841
 20
42956.40758574493
 30
0.0
 11
15114.6357093035
 21
42958.11232442262
 31
0.0
  0
LINE
  5
E14B
330
1F
100
AcDbEntity
  8
freecads.com
100
AcDbLine
 10
15255.74232171682
 20
43095.81789790104
 30
0.0
 11
15254.24240843841
 21
42956.40758574493
 31
0.0
  0
LINE
  5
E14C
330
1F
100
AcDbEntity
  8
freecads.com
100
AcDbLine
 10
15116.13562258197
 20
43097.52263657873
 30
0.0
 11
15255.74232171682
 21
43095.81789790104
 31
0.0
  0
LINE
  5
E14D
330
1F
100
AcDbEntity
  8
freecads.com
100
AcDbLine
 10
15114.6357093035
 20
42958.11232442262
 30
0.0
 11
15116.13562258197
 21
43097.52263657873
 31
0.0
  0
LINE
  5
E14E
330
1F
100
AcDbEntity
  8
freecads.com
100
AcDbLine
 10
15258.50090011368
 20
42952.05633489576
 30
0.0
 11
15258.63838661031
 21
42952.47495163204
 31
0.0
  0
LINE
  5
E14F
330
1F
100
AcDbEntity
  8
freecads.com
100
AcDbLine
 10
14655.42200969749
 20
42838.71270583613
 30
0.0
 11
14755.66695668964
 21
42839.74182444866
 31
0.0
  0
LINE
  5
E150
330
1F
100
AcDbEntity
  8
freecads.com
100
AcDbLine
 10
15468.68604160385
 20
42781.26699778199
 30
0.0
 11
15463.41321632221
 21
42780.3119435179
 31
0.0
  0
LINE
  5
E151
330
1F
100
AcDbEntity
  8
freecads.com
100
AcDbLine
 10
15351.4749771522
 20
42760.03683730379
 30
0.0
 11
15332.69081345165
 21
42756.63450654539
 31
0.0
  0
LINE
  5
E152
330
1F
100
AcDbEntity
  8
freecads.com
100
AcDbLine
 10
15741.38958892706
 20
42881.49801316112
 30
0.0
 11
15655.43376229581
 21
42843.31879412086
 31
0.0
  0
LINE
  5
E153
330
1F
100
AcDbEntity
  8
freecads.com
100
AcDbLine
 10
15613.14008551535
 20
42824.53310369001
 30
0.0
 11
15604.89965816504
 21
42820.87293202834
 31
0.0
  0
LINE
  5
E154
330
1F
100
AcDbEntity
  8
freecads.com
100
AcDbLine
 10
15604.89965816504
 20
42820.87293202834
 30
0.0
 11
15468.68604160385
 21
42781.26699778199
 31
0.0
  0
LINE
  5
E155
330
1F
100
AcDbEntity
  8
freecads.com
100
AcDbLine
 10
15878.14858265228
 20
42963.85057063674
 30
0.0
 11
15751.48213259264
 21
42887.57546927318
 31
0.0
  0
LINE
  5
E156
330
1F
100
AcDbEntity
  8
freecads.com
100
AcDbLine
 10
15741.72057488654
 20
42881.69732393045
 30
0.0
 11
15741.38958892706
 21
42881.49801316112
 31
0.0
  0
LINE
  5
E157
330
1F
100
AcDbEntity
  8
freecads.com
100
AcDbLine
 10
15061.02740479217
 20
42720.21319909606
 30
0.0
 11
14925.42799625866
 21
42711.45472472323
 31
0.0
  0
LINE
  5
E158
330
1F
100
AcDbEntity
  8
freecads.com
100
AcDbLine
 10
14821.55182619417
 20
43091.48864078361
 30
0.0
 11
14819.82968829442
 21
43116.14557557266
 31
0.0
  0
LINE
  5
E159
330
1F
100
AcDbEntity
  8
freecads.com
100
AcDbLine
 10
14819.82968829442
 20
43116.14557557266
 30
0.0
 11
14813.93622355896
 21
43208.87024939453
 31
0.0
  0
LINE
  5
E15A
330
1F
100
AcDbEntity
  8
freecads.com
100
AcDbLine
 10
14791.95441806229
 20
42883.95186333648
 30
0.0
 11
14802.61391665264
 21
42965.10331784752
 31
0.0
  0
LINE
  5
E15B
330
1F
100
AcDbEntity
  8
freecads.com
100
AcDbLine
 10
14802.61391665264
 20
42965.10331784752
 30
0.0
 11
14821.55182619417
 21
43091.48864078361
 31
0.0
  0
LINE
  5
E15C
330
1F
100
AcDbEntity
  8
freecads.com
100
AcDbLine
 10
13538.97975719387
 20
43536.59806823936
 30
0.0
 11
13539.05463885846
 21
43542.73037587969
 31
0.0
  0
LINE
  5
E15D
330
1F
100
AcDbEntity
  8
freecads.com
100
AcDbLine
 10
15438.54294730261
 20
43270.68634963629
 30
0.0
 11
15578.21111997033
 21
43268.98086030471
 31
0.0
  0
LINE
  5
E15E
330
1F
100
AcDbEntity
  8
freecads.com
100
AcDbLine
 10
15576.50654554382
 20
43129.38761224162
 30
0.0
 11
15436.83837287608
 21
43131.0931015732
 31
0.0
  0
LINE
  5
E15F
330
1F
100
AcDbEntity
  8
freecads.com
100
AcDbLine
 10
15578.21111997033
 20
43268.98086030471
 30
0.0
 11
15576.50654554382
 21
43129.38761224162
 31
0.0
  0
LINE
  5
E160
330
1F
100
AcDbEntity
  8
freecads.com
100
AcDbLine
 10
15432.47917602069
 20
43126.84136355004
 30
0.0
 11
15580.76062206118
 21
43125.03069745868
 31
0.0
  0
LINE
  5
E161
330
1F
100
AcDbEntity
  8
freecads.com
100
AcDbLine
 10
14754.93636096985
 20
43569.38796818453
 30
0.0
 11
13775.49735631773
 21
43598.23997981464
 31
0.0
  0
LINE
  5
E162
330
1F
100
AcDbEntity
  8
freecads.com
100
AcDbLine
 10
14573.46695676274
 20
43534.97912993773
 30
0.0
 11
13857.88738598983
 21
43543.71707860943
 31
0.0
  0
LINE
  5
E163
330
1F
100
AcDbEntity
  8
freecads.com
100
AcDbLine
 10
13857.88738598983
 20
43543.71707860943
 30
0.0
 11
13747.22894895368
 21
43591.20560927426
 31
0.0
  0
LINE
  5
E164
330
1F
100
AcDbEntity
  8
freecads.com
100
AcDbLine
 10
13775.49735631773
 20
43598.23997981464
 30
0.0
 11
13747.22894895368
 21
43591.20560927426
 31
0.0
  0
LINE
  5
E165
330
1F
100
AcDbEntity
  8
freecads.com
100
AcDbLine
 10
13539.05463885846
 20
43542.73037587969
 30
0.0
 11
14543.89879375754
 21
43530.46021473031
 31
0.0
  0
LINE
  5
E166
330
1F
100
AcDbEntity
  8
freecads.com
100
AcDbLine
 10
13627.40407061408
 20
43508.61504186903
 30
0.0
 11
13641.94203711615
 21
43508.43751862735
 31
0.0
  0
LINE
  5
E167
330
1F
100
AcDbEntity
  8
freecads.com
100
AcDbLine
 10
13641.8761467703
 20
43503.04153987052
 30
0.0
 11
13641.94203711615
 21
43508.43751862735
 31
0.0
  0
LINE
  5
E168
330
1F
100
AcDbEntity
  8
freecads.com
100
AcDbLine
 10
14614.94435255693
 20
43491.97186398615
 30
0.0
 11
14717.09638201196
 21
43327.34137600144
 31
0.0
  0
LINE
  5
E169
330
1F
100
AcDbEntity
  8
freecads.com
100
AcDbLine
 10
13881.38591693791
 20
43498.25347882393
 30
0.0
 11
13905.27473126555
 21
43497.4964404462
 31
0.0
  0
LINE
  5
E16A
330
1F
100
AcDbEntity
  8
freecads.com
100
AcDbLine
 10
13684.57148279166
 20
43431.60917585703
 30
0.0
 11
13684.4526589945
 21
43421.87830137262
 31
0.0
  0
LINE
  5
E16B
330
1F
100
AcDbEntity
  8
freecads.com
100
AcDbLine
 10
13946.86827790313
 20
43469.83130294326
 30
0.0
 11
13947.18579290103
 21
43495.83365823571
 31
0.0
  0
LINE
  5
E16C
330
1F
100
AcDbEntity
  8
freecads.com
100
AcDbLine
 10
13946.86827790313
 20
43469.83130294326
 30
0.0
 11
14284.56703668646
 21
43465.70766031665
 31
0.0
  0
LINE
  5
E16D
330
1F
100
AcDbEntity
  8
freecads.com
100
AcDbLine
 10
13601.17529388142
 20
43556.85272192722
 30
0.0
 11
13601.30163532008
 21
43567.19924098248
 31
0.0
  0
LINE
  5
E16E
330
1F
100
AcDbEntity
  8
freecads.com
100
AcDbLine
 10
13592.87867675787
 20
43555.61706055875
 30
0.0
 11
13497.05818069809
 21
43595.928403993
 31
0.0
  0
LINE
  5
E16F
330
1F
100
AcDbEntity
  8
freecads.com
100
AcDbLine
 10
13459.68238392126
 20
43611.4354278248
 30
0.0
 11
13415.04085666871
 21
43621.01784414567
 31
0.0
  0
LINE
  5
E170
330
1F
100
AcDbEntity
  8
freecads.com
100
AcDbLine
 10
13497.05818069809
 20
43595.928403993
 30
0.0
 11
13459.68238392126
 21
43611.4354278248
 31
0.0
  0
LINE
  5
E171
330
1F
100
AcDbEntity
  8
freecads.com
100
AcDbLine
 10
14754.93636096985
 20
43569.38796818453
 30
0.0
 11
14809.88002395398
 21
43326.20839410258
 31
0.0
  0
LINE
  5
E172
330
1F
100
AcDbEntity
  8
freecads.com
100
AcDbLine
 10
14579.82648454046
 20
43510.99668192617
 30
0.0
 11
14573.46695676274
 21
43534.97912993773
 31
0.0
  0
LINE
  5
E173
330
1F
100
AcDbEntity
  8
freecads.com
100
AcDbLine
 10
13677.18928781104
 20
43429.62425858898
 30
0.0
 11
13677.09743360897
 21
43422.10201361192
 31
0.0
  0
LINE
  5
E174
330
1F
100
AcDbEntity
  8
freecads.com
100
AcDbLine
 10
13460.83600549176
 20
43427.78458985117
 30
0.0
 11
13504.87359870552
 21
43427.24684639838
 31
0.0
  0
LINE
  5
E175
330
1F
100
AcDbEntity
  8
freecads.com
100
AcDbLine
 10
14257.68525938145
 20
43327.54515798034
 30
0.0
 11
14259.24535726946
 21
43215.64358462692
 31
0.0
  0
LINE
  5
E176
330
1F
100
AcDbEntity
  8
freecads.com
100
AcDbLine
 10
14246.04196408621
 20
43374.90306981841
 30
0.0
 11
14257.68525938145
 21
43327.54515798034
 31
0.0
  0
LINE
  5
E177
330
1F
100
AcDbEntity
  8
freecads.com
100
AcDbLine
 10
14246.04196408621
 20
43374.90306981841
 30
0.0
 11
14224.42130339783
 21
43395.29446258747
 31
0.0
  0
LINE
  5
E178
330
1F
100
AcDbEntity
  8
freecads.com
100
AcDbLine
 10
14224.42130339783
 20
43395.29446258747
 30
0.0
 11
14195.85993407773
 21
43406.32363639618
 31
0.0
  0
LINE
  5
E179
330
1F
100
AcDbEntity
  8
freecads.com
100
AcDbLine
 10
13499.84618394106
 20
43405.19731501489
 30
0.0
 11
13500.68600215175
 21
43414.97376818454
 31
0.0
  0
LINE
  5
E17A
330
1F
100
AcDbEntity
  8
freecads.com
100
AcDbLine
 10
13500.68600215175
 20
43414.97376818454
 30
0.0
 11
13502.96012834523
 21
43423.62521710168
 31
0.0
  0
LINE
  5
E17B
330
1F
100
AcDbEntity
  8
freecads.com
100
AcDbLine
 10
13506.40308580461
 20
43430.14170978482
 30
0.0
 11
13510.61295090516
 21
43433.76252456071
 31
0.0
  0
LINE
  5
E17C
330
1F
100
AcDbEntity
  8
freecads.com
100
AcDbLine
 10
13635.67910824377
 20
43418.46304265801
 30
0.0
 11
13625.43915382057
 21
43401.98470083862
 31
0.0
  0
LINE
  5
E17D
330
1F
100
AcDbEntity
  8
freecads.com
100
AcDbLine
 10
13641.8761467703
 20
43503.04153987052
 30
0.0
 11
13881.38591693791
 21
43498.25347882393
 31
0.0
  0
LINE
  5
E17E
330
1F
100
AcDbEntity
  8
freecads.com
100
AcDbLine
 10
14429.18738528204
 20
43213.5684209714
 30
0.0
 11
14429.69102709638
 21
43254.81331801392
 31
0.0
  0
LINE
  5
E17F
330
1F
100
AcDbEntity
  8
freecads.com
100
AcDbLine
 10
13412.24861214139
 20
43636.92133269369
 30
0.0
 11
13412.40966413247
 21
43650.11041390507
 31
0.0
  0
LINE
  5
E180
330
1F
100
AcDbEntity
  8
freecads.com
100
AcDbLine
 10
12839.06827203398
 20
43372.78656559916
 30
0.0
 11
12893.76721194781
 21
43657.340076374
 31
0.0
  0
LINE
  5
E181
330
1F
100
AcDbEntity
  8
freecads.com
100
AcDbLine
 10
16098.82241744864
 20
43235.02180822384
 30
0.0
 11
16073.91283130187
 21
43260.99074222447
 31
0.0
  0
LINE
  5
E182
330
1F
100
AcDbEntity
  8
freecads.com
100
AcDbLine
 10
16067.91733101103
 20
43267.24121746065
 30
0.0
 11
16018.22709435096
 21
43319.04466649019
 31
0.0
  0
LINE
  5
E183
330
1F
100
AcDbEntity
  8
freecads.com
100
AcDbLine
 10
12956.64333189081
 20
43599.87056883284
 30
0.0
 11
12911.57816220351
 21
43365.43362602584
 31
0.0
  0
LINE
  5
E184
330
1F
100
AcDbEntity
  8
freecads.com
100
AcDbLine
 10
12893.76721194781
 20
43657.340076374
 30
0.0
 11
13197.68786353811
 21
43688.63631917322
 31
0.0
  0
LINE
  5
E185
330
1F
100
AcDbEntity
  8
freecads.com
100
AcDbLine
 10
13696.68563351812
 20
43719.5004115661
 30
0.0
 11
13599.91511419535
 21
43715.35446961828
 31
0.0
  0
LINE
  5
E186
330
1F
100
AcDbEntity
  8
freecads.com
100
AcDbLine
 10
16018.22709435096
 20
43319.04466649019
 30
0.0
 11
15883.81424618445
 21
43427.83053101762
 31
0.0
  0
LINE
  5
E187
330
1F
100
AcDbEntity
  8
freecads.com
100
AcDbLine
 10
14181.33706312081
 20
43729.97695348039
 30
0.0
 11
14084.30628950453
 21
43729.12534858539
 31
0.0
  0
LINE
  5
E188
330
1F
100
AcDbEntity
  8
freecads.com
100
AcDbLine
 10
16288.2359240608
 20
43206.55732383573
 30
0.0
 11
16288.31819469383
 21
43213.29473858704
 31
0.0
  0
LINE
  5
E189
330
1F
100
AcDbEntity
  8
freecads.com
100
AcDbLine
 10
15810.45764093252
 20
43506.54811573572
 30
0.0
 11
15829.77056453549
 21
43496.12789342622
 31
0.0
  0
LINE
  5
E18A
330
1F
100
AcDbEntity
  8
freecads.com
100
AcDbLine
 10
13498.53691759346
 20
43688.04730420424
 30
0.0
 11
13499.90937507318
 21
43691.02921701994
 31
0.0
  0
LINE
  5
E18B
330
1F
100
AcDbEntity
  8
freecads.com
100
AcDbLine
 10
14330.38556232219
 20
43714.24900346652
 30
0.0
 11
14699.99076740672
 21
43701.26648081191
 31
0.0
  0
LINE
  5
E18C
330
1F
100
AcDbEntity
  8
freecads.com
100
AcDbLine
 10
13499.83615237129
 20
43685.03276733001
 30
0.0
 11
13498.53691759346
 21
43688.04730420424
 31
0.0
  0
LINE
  5
E18D
330
1F
100
AcDbEntity
  8
freecads.com
100
AcDbLine
 10
13961.13867396576
 20
43704.10578806047
 30
0.0
 11
14330.67815564581
 21
43708.15573223191
 31
0.0
  0
LINE
  5
E18E
330
1F
100
AcDbEntity
  8
freecads.com
100
AcDbLine
 10
13499.90937507318
 20
43691.02921701994
 30
0.0
 11
13589.98905709653
 21
43689.92925320034
 31
0.0
  0
LINE
  5
E18F
330
1F
100
AcDbEntity
  8
freecads.com
100
AcDbLine
 10
15838.64408706626
 20
43494.09274508799
 30
0.0
 11
15832.45134739842
 21
43498.03103293051
 31
0.0
  0
LINE
  5
E190
330
1F
100
AcDbEntity
  8
freecads.com
100
AcDbLine
 10
13591.87375588882
 20
43683.90889531318
 30
0.0
 11
13961.13867396576
 21
43704.10578806047
 31
0.0
  0
LINE
  5
E191
330
1F
100
AcDbEntity
  8
freecads.com
100
AcDbLine
 10
15718.8725710413
 20
43510.6651337668
 30
0.0
 11
15720.24502852105
 21
43513.64704658248
 31
0.0
  0
LINE
  5
E192
330
1F
100
AcDbEntity
  8
freecads.com
100
AcDbLine
 10
15720.17180581913
 20
43507.65059689256
 30
0.0
 11
15718.8725710413
 21
43510.6651337668
 31
0.0
  0
LINE
  5
E193
330
1F
100
AcDbEntity
  8
freecads.com
100
AcDbLine
 10
14698.15642769335
 20
43695.24791890487
 30
0.0
 11
14700.05991596663
 21
43695.18105815916
 31
0.0
  0
LINE
  5
E194
330
1F
100
AcDbEntity
  8
freecads.com
100
AcDbLine
 10
14699.99076740672
 20
43701.26648081191
 30
0.0
 11
15069.66022318735
 21
43685.94663395512
 31
0.0
  0
LINE
  5
E195
330
1F
100
AcDbEntity
  8
freecads.com
100
AcDbLine
 10
15068.11777842638
 20
43679.92799897574
 30
0.0
 11
15069.32045450995
 21
43679.87815765634
 31
0.0
  0
LINE
  5
E196
330
1F
100
AcDbEntity
  8
freecads.com
100
AcDbLine
 10
13870.24953778148
 20
43705.2580607653
 30
0.0
 11
13869.73516479737
 21
43705.26434177851
 31
0.0
  0
LINE
  5
E197
330
1F
100
AcDbEntity
  8
freecads.com
100
AcDbLine
 10
13869.73516479737
 20
43705.26434177851
 30
0.0
 11
13868.43593001955
 21
43708.27887865275
 31
0.0
  0
LINE
  5
E198
330
1F
100
AcDbEntity
  8
freecads.com
100
AcDbLine
 10
13868.43593001955
 20
43708.27887865275
 30
0.0
 11
13869.8083874993
 21
43711.26079146844
 31
0.0
  0
LINE
  5
E199
330
1F
100
AcDbEntity
  8
freecads.com
100
AcDbLine
 10
15812.63951742026
 20
43512.51881663501
 30
0.0
 11
15812.80625593847
 21
43512.13194320761
 31
0.0
  0
LINE
  5
E19A
330
1F
100
AcDbEntity
  8
freecads.com
100
AcDbLine
 10
15340.7184101337
 20
43632.46661350121
 30
0.0
 11
15342.09086761343
 21
43635.44852631688
 31
0.0
  0
LINE
  5
E19B
330
1F
100
AcDbEntity
  8
freecads.com
100
AcDbLine
 10
15342.01764491154
 20
43629.45207662698
 30
0.0
 11
15340.7184101337
 21
43632.46661350121
 31
0.0
  0
LINE
  5
E19C
330
1F
100
AcDbEntity
  8
freecads.com
100
AcDbLine
 10
14978.39508472726
 20
43681.02608887897
 30
0.0
 11
14977.24526849335
 21
43683.69393882794
 31
0.0
  0
LINE
  5
E19D
330
1F
100
AcDbEntity
  8
freecads.com
100
AcDbLine
 10
14979.51036499982
 20
43681.01247018139
 30
0.0
 11
14978.39508472726
 21
43681.02608887897
 31
0.0
  0
LINE
  5
E19E
330
1F
100
AcDbEntity
  8
freecads.com
100
AcDbLine
 10
15342.09086761343
 20
43635.44852631688
 30
0.0
 11
15386.38500589307
 21
43634.90765018998
 31
0.0
  0
LINE
  5
E19F
330
1F
100
AcDbEntity
  8
freecads.com
100
AcDbLine
 10
15433.57316955822
 20
43634.33143509265
 30
0.0
 11
15434.48535651267
 21
43634.32029636942
 31
0.0
  0
LINE
  5
E1A0
330
1F
100
AcDbEntity
  8
freecads.com
100
AcDbLine
 10
15434.48535651267
 20
43634.32029636942
 30
0.0
 11
15434.61194309225
 21
43634.02658508763
 31
0.0
  0
LINE
  5
E1A1
330
1F
100
AcDbEntity
  8
freecads.com
100
AcDbLine
 10
14238.5571361623
 20
43713.24261573874
 30
0.0
 11
14239.50982756451
 21
43715.31251061239
 31
0.0
  0
LINE
  5
E1A2
330
1F
100
AcDbEntity
  8
freecads.com
100
AcDbLine
 10
14610.12658483887
 20
43696.32285211964
 30
0.0
 11
14608.93008756527
 21
43696.33746255878
 31
0.0
  0
LINE
  5
E1A3
330
1F
100
AcDbEntity
  8
freecads.com
100
AcDbLine
 10
14608.93008756527
 20
43696.33746255878
 30
0.0
 11
14608.03535562404
 21
43698.41345565517
 31
0.0
  0
LINE
  5
E1A4
330
1F
100
AcDbEntity
  8
freecads.com
100
AcDbLine
 10
14698.15642769335
 20
43695.24791890487
 30
0.0
 11
14612.80411303043
 21
43696.29015679846
 31
0.0
  0
LINE
  5
E1A5
330
1F
100
AcDbEntity
  8
freecads.com
100
AcDbLine
 10
16141.88605991636
 20
43264.45052540573
 30
0.0
 11
16282.62251053238
 21
43231.77505241611
 31
0.0
  0
LINE
  5
E1A6
330
1F
100
AcDbEntity
  8
freecads.com
100
AcDbLine
 10
16138.84374224374
 20
43258.97584973601
 30
0.0
 11
16280.71221183645
 21
43226.03755034047
 31
0.0
  0
LINE
  5
E1A7
330
1F
100
AcDbEntity
  8
freecads.com
100
AcDbLine
 10
16282.62251053238
 20
43231.77505241611
 30
0.0
 11
16291.67465611825
 21
43227.82149905214
 31
0.0
  0
LINE
  5
E1A8
330
1F
100
AcDbEntity
  8
freecads.com
100
AcDbLine
 10
16280.71221183645
 20
43226.03755034047
 30
0.0
 11
16287.94284980881
 21
43222.8795462178
 31
0.0
  0
LINE
  5
E1A9
330
1F
100
AcDbEntity
  8
freecads.com
100
AcDbLine
 10
16291.67465611825
 20
43227.82149905214
 30
0.0
 11
16298.2397417758
 21
43219.85132490929
 31
0.0
  0
LINE
  5
E1AA
330
1F
100
AcDbEntity
  8
freecads.com
100
AcDbLine
 10
16287.94284980881
 20
43222.8795462178
 30
0.0
 11
16292.67448542361
 21
43217.13522515366
 31
0.0
  0
LINE
  5
E1AB
330
1F
100
AcDbEntity
  8
freecads.com
100
AcDbLine
 10
16298.2397417758
 20
43219.85132490929
 30
0.0
 11
16300.402894617
 21
43210.13449100618
 31
0.0
  0
LINE
  5
E1AC
330
1F
100
AcDbEntity
  8
freecads.com
100
AcDbLine
 10
16292.67448542361
 20
43217.13522515366
 30
0.0
 11
16294.3723209931
 21
43209.50858596797
 31
0.0
  0
LINE
  5
E1AD
330
1F
100
AcDbEntity
  8
freecads.com
100
AcDbLine
 10
16137.64879000823
 20
43260.21246185082
 30
0.0
 11
16138.84374224374
 21
43258.97584973601
 31
0.0
  0
LINE
  5
E1AE
330
1F
100
AcDbEntity
  8
freecads.com
100
AcDbLine
 10
16044.17807580855
 20
43261.35383359527
 30
0.0
 11
16042.83986398736
 21
43264.45880657574
 31
0.0
  0
LINE
  5
E1AF
330
1F
100
AcDbEntity
  8
freecads.com
100
AcDbLine
 10
16042.83986398736
 20
43264.45880657574
 30
0.0
 11
16044.25349519151
 21
43267.53017677589
 31
0.0
  0
LINE
  5
E1B0
330
1F
100
AcDbEntity
  8
freecads.com
100
AcDbLine
 10
15602.19716519143
 20
43199.24478783973
 30
0.0
 11
15662.86777579959
 21
43198.50393845968
 31
0.0
  0
LINE
  5
E1B1
330
1F
100
AcDbEntity
  8
freecads.com
100
AcDbLine
 10
13498.55648268775
 20
43635.86742649844
 30
0.0
 11
13412.24861214139
 21
43636.92133269369
 31
0.0
  0
LINE
  5
E1B2
330
1F
100
AcDbEntity
  8
freecads.com
100
AcDbLine
 10
16294.33537362302
 20
43206.48284340143
 30
0.0
 11
16288.2359240608
 21
43206.55732383573
 31
0.0
  0
LINE
  5
E1B3
330
1F
100
AcDbEntity
  8
freecads.com
100
AcDbLine
 10
16300.35740637706
 20
43206.4093083045
 30
0.0
 11
16304.158732579
 21
43206.36289027554
 31
0.0
  0
LINE
  5
E1B4
330
1F
100
AcDbEntity
  8
freecads.com
100
AcDbLine
 10
16300.24021855373
 20
43196.81240914068
 30
0.0
 11
16304.158732579
 21
43206.36289027554
 31
0.0
  0
LINE
  5
E1B5
330
1F
100
AcDbEntity
  8
freecads.com
100
AcDbLine
 10
14567.46253313401
 20
43586.74694126665
 30
0.0
 11
14639.68004048768
 21
43584.08639871812
 31
0.0
  0
LINE
  5
E1B6
330
1F
100
AcDbEntity
  8
freecads.com
100
AcDbLine
 10
14542.86979315126
 20
43588.06299426754
 30
0.0
 11
14567.46253313401
 21
43586.74694126665
 31
0.0
  0
LINE
  5
E1B7
330
1F
100
AcDbEntity
  8
freecads.com
100
AcDbLine
 10
14470.46702829205
 20
43590.825400349
 30
0.0
 11
14542.86979315126
 21
43588.06299426754
 31
0.0
  0
LINE
  5
E1B8
330
1F
100
AcDbEntity
  8
freecads.com
100
AcDbLine
 10
14446.13037861115
 20
43592.15736476294
 30
0.0
 11
14470.46702829205
 21
43590.825400349
 31
0.0
  0
LINE
  5
E1B9
330
1F
100
AcDbEntity
  8
freecads.com
100
AcDbLine
 10
14373.52302826986
 20
43595.0224303357
 30
0.0
 11
14446.13037861115
 21
43592.15736476294
 31
0.0
  0
LINE
  5
E1BA
330
1F
100
AcDbEntity
  8
freecads.com
100
AcDbLine
 10
14349.46289470649
 20
43596.36844153625
 30
0.0
 11
14373.52302826986
 21
43595.0224303357
 31
0.0
  0
LINE
  5
E1BB
330
1F
100
AcDbEntity
  8
freecads.com
100
AcDbLine
 10
14276.63213418842
 20
43599.33702856078
 30
0.0
 11
14349.46289470649
 21
43596.36844153625
 31
0.0
  0
LINE
  5
E1BC
330
1F
100
AcDbEntity
  8
freecads.com
100
AcDbLine
 10
14252.86843147072
 20
43600.69518403726
 30
0.0
 11
14276.63213418842
 21
43599.33702856078
 31
0.0
  0
LINE
  5
E1BD
330
1F
100
AcDbEntity
  8
freecads.com
100
AcDbLine
 10
14795.72411827583
 20
43577.64306389354
 30
0.0
 11
14799.89495217515
 21
43534.22851357326
 31
0.0
  0
LINE
  5
E1BE
330
1F
100
AcDbEntity
  8
freecads.com
100
AcDbLine
 10
14639.68004048768
 20
43584.08639871812
 30
0.0
 11
14664.50792090695
 21
43582.78808183348
 31
0.0
  0
LINE
  5
E1BF
330
1F
100
AcDbEntity
  8
freecads.com
100
AcDbLine
 10
14764.69784815322
 20
43579.31145114174
 30
0.0
 11
14795.72411827583
 21
43577.64306389354
 31
0.0
  0
LINE
  5
E1C0
330
1F
100
AcDbEntity
  8
freecads.com
100
AcDbLine
 10
15114.40097049679
 20
43308.55947445344
 30
0.0
 11
15114.50143540403
 21
43308.22635194168
 31
0.0
  0
LINE
  5
E1C1
330
1F
100
AcDbEntity
  8
freecads.com
100
AcDbLine
 10
15116.42314050684
 20
43456.56191006471
 30
0.0
 11
15264.63932196938
 21
43454.75204091971
 31
0.0
  0
LINE
  5
E1C2
330
1F
100
AcDbEntity
  8
freecads.com
100
AcDbLine
 10
15114.40097049679
 20
43308.55947445344
 30
0.0
 11
15116.42314050684
 21
43456.56191006471
 31
0.0
  0
LINE
  5
E1C3
330
1F
100
AcDbEntity
  8
freecads.com
100
AcDbLine
 10
15260.27584957664
 20
43450.5060729525
 30
0.0
 11
15120.66915044177
 21
43452.21081163019
 31
0.0
  0
LINE
  5
E1C4
330
1F
100
AcDbEntity
  8
freecads.com
100
AcDbLine
 10
15258.3711420244
 20
43311.10070374295
 30
0.0
 11
15260.27584957664
 21
43450.5060729525
 31
0.0
  0
LINE
  5
E1C5
330
1F
100
AcDbEntity
  8
freecads.com
100
AcDbLine
 10
15118.76444288956
 20
43312.80544242065
 30
0.0
 11
15258.3711420244
 21
43311.10070374295
 31
0.0
  0
LINE
  5
E1C6
330
1F
100
AcDbEntity
  8
freecads.com
100
AcDbLine
 10
15120.66915044177
 20
43452.21081163019
 30
0.0
 11
15118.76444288956
 21
43312.80544242065
 31
0.0
  0
LINE
  5
E1C7
330
1F
100
AcDbEntity
  8
freecads.com
100
AcDbLine
 10
15264.63932196938
 20
43454.75204091971
 30
0.0
 11
15264.76654552984
 21
43454.33019180648
 31
0.0
  0
LINE
  5
E1C8
330
1F
100
AcDbEntity
  8
freecads.com
100
AcDbLine
 10
14664.50792090695
 20
43582.78808183348
 30
0.0
 11
14764.69784815322
 21
43579.31145114174
 31
0.0
  0
LINE
  5
E1C9
330
1F
100
AcDbEntity
  8
freecads.com
100
AcDbLine
 10
15478.93219038614
 20
43620.35807317917
 30
0.0
 11
15473.68425819412
 21
43621.4415965088
 31
0.0
  0
LINE
  5
E1CA
330
1F
100
AcDbEntity
  8
freecads.com
100
AcDbLine
 10
15362.27448118041
 20
43644.44400738761
 30
0.0
 11
15343.57899780689
 21
43648.30400245863
 31
0.0
  0
LINE
  5
E1CB
330
1F
100
AcDbEntity
  8
freecads.com
100
AcDbLine
 10
15749.10694611972
 20
43513.49796588507
 30
0.0
 11
15664.10902377181
 21
43553.76470271489
 31
0.0
  0
LINE
  5
E1CC
330
1F
100
AcDbEntity
  8
freecads.com
100
AcDbLine
 10
15622.28667390111
 20
43573.57753471512
 30
0.0
 11
15614.13807907648
 21
43577.43783287621
 31
0.0
  0
LINE
  5
E1CD
330
1F
100
AcDbEntity
  8
freecads.com
100
AcDbLine
 10
15614.13807907648
 20
43577.43783287621
 30
0.0
 11
15478.93219038614
 21
43620.35807317917
 31
0.0
  0
LINE
  5
E1CE
330
1F
100
AcDbEntity
  8
freecads.com
100
AcDbLine
 10
15883.81424618445
 20
43427.83053101762
 30
0.0
 11
15759.04807884482
 21
43507.17587836772
 31
0.0
  0
LINE
  5
E1CF
330
1F
100
AcDbEntity
  8
freecads.com
100
AcDbLine
 10
15749.43296654254
 20
43513.29063240482
 30
0.0
 11
15749.10694611972
 21
43513.49796588507
 31
0.0
  0
LINE
  5
E1D0
330
1F
100
AcDbEntity
  8
freecads.com
100
AcDbLine
 10
15072.88594107432
 20
43691.3480296584
 30
0.0
 11
14937.5408323585
 21
43703.415010005
 31
0.0
  0
LINE
  5
E1D1
330
1F
100
AcDbEntity
  8
freecads.com
100
AcDbLine
 10
14824.41582383
 20
43326.03089731761
 30
0.0
 11
14822.09211708943
 21
43301.42336637436
 31
0.0
  0
LINE
  5
E1D2
330
1F
100
AcDbEntity
  8
freecads.com
100
AcDbLine
 10
14822.09211708943
 20
43301.42336637436
 30
0.0
 11
14813.93622355896
 21
43208.87024939453
 31
0.0
  0
LINE
  5
E1D3
330
1F
100
AcDbEntity
  8
freecads.com
100
AcDbLine
 10
14799.89495217515
 20
43534.22851357326
 30
0.0
 11
14808.56968555858
 21
43452.84096857907
 31
0.0
  0
LINE
  5
E1D4
330
1F
100
AcDbEntity
  8
freecads.com
100
AcDbLine
 10
14808.56968555858
 20
43452.84096857907
 30
0.0
 11
14824.41582383
 21
43326.03089731761
 31
0.0
  0
LINE
  5
E1D5
330
1F
100
AcDbEntity
  8
freecads.com
100
AcDbLine
 10
13531.3573333026
 20
42912.37251813893
 30
0.0
 11
13532.43719985439
 21
43000.80636830908
 31
0.0
  0
LINE
  5
E1D6
330
1F
100
AcDbEntity
  8
freecads.com
100
AcDbLine
 10
13531.3573333026
 20
42912.37251813893
 30
0.0
 11
13531.28245163803
 21
42906.24021049859
 31
0.0
  0
LINE
  5
E1D7
330
1F
100
AcDbEntity
  8
freecads.com
100
AcDbLine
 10
13531.3573333026
 20
42912.37251813893
 30
0.0
 11
13620.43858107249
 21
42938.18802248097
 31
0.0
  0
LINE
  5
E1D8
330
1F
100
AcDbEntity
  8
freecads.com
100
AcDbLine
 10
13620.43858107249
 20
42938.18802248097
 30
0.0
 11
13634.97654757455
 21
42938.01049923927
 31
0.0
  0
LINE
  5
E1D9
330
1F
100
AcDbEntity
  8
freecads.com
100
AcDbLine
 10
13635.04243792045
 20
42943.40647799613
 30
0.0
 11
13634.97654757455
 21
42938.01049923927
 31
0.0
  0
LINE
  5
E1DA
330
1F
100
AcDbEntity
  8
freecads.com
100
AcDbLine
 10
13538.97975719387
 20
43536.59806823936
 30
0.0
 11
13627.40407061408
 21
43508.61504186903
 31
0.0
  0
LINE
  5
E1DB
330
1F
100
AcDbEntity
  8
freecads.com
100
AcDbLine
 10
14746.15069546905
 20
42849.90070816767
 30
0.0
 11
13766.29921380558
 21
42844.97361055364
 31
0.0
  0
LINE
  5
E1DC
330
1F
100
AcDbEntity
  8
freecads.com
100
AcDbLine
 10
14565.57560853725
 20
42888.7304750011
 30
0.0
 11
13849.99603776433
 21
42897.46842367285
 31
0.0
  0
LINE
  5
E1DD
330
1F
100
AcDbEntity
  8
freecads.com
100
AcDbLine
 10
13849.99603776433
 20
42897.46842367285
 30
0.0
 11
13738.2110032318
 21
42852.69615227017
 31
0.0
  0
LINE
  5
E1DE
330
1F
100
AcDbEntity
  8
freecads.com
100
AcDbLine
 10
13766.29921380558
 20
42844.97361055364
 30
0.0
 11
13738.2110032318
 21
42852.69615227017
 31
0.0
  0
LINE
  5
E1DF
330
1F
100
AcDbEntity
  8
freecads.com
100
AcDbLine
 10
13531.28245163803
 20
42906.24021049859
 30
0.0
 11
14536.1266065371
 21
42893.97004934922
 31
0.0
  0
LINE
  5
E1E0
330
1F
100
AcDbEntity
  8
freecads.com
100
AcDbLine
 10
14608.09080453591
 20
42930.71210664748
 30
0.0
 11
14714.23238437608
 21
43092.79911946743
 31
0.0
  0
LINE
  5
E1E1
330
1F
100
AcDbEntity
  8
freecads.com
100
AcDbLine
 10
13874.59770941574
 20
42942.34467144527
 30
0.0
 11
13898.49788639194
 21
42942.5181580139
 31
0.0
  0
LINE
  5
E1E2
330
1F
100
AcDbEntity
  8
freecads.com
100
AcDbLine
 10
13940.7545687205
 20
42969.15939960539
 30
0.0
 11
13940.43705372262
 21
42943.15704431294
 31
0.0
  0
LINE
  5
E1E3
330
1F
100
AcDbEntity
  8
freecads.com
100
AcDbLine
 10
13940.7545687205
 20
42969.15939960539
 30
0.0
 11
14278.45332750379
 21
42965.03575697883
 31
0.0
  0
LINE
  5
E1E4
330
1F
100
AcDbEntity
  8
freecads.com
100
AcDbLine
 10
13593.03973918353
 20
42890.6051897634
 30
0.0
 11
13592.91339774486
 21
42880.25867070812
 31
0.0
  0
LINE
  5
E1E5
330
1F
100
AcDbEntity
  8
freecads.com
100
AcDbLine
 10
13584.77576873288
 20
42892.0430726179
 30
0.0
 11
13487.99950616846
 21
42854.08352996158
 31
0.0
  0
LINE
  5
E1E6
330
1F
100
AcDbEntity
  8
freecads.com
100
AcDbLine
 10
13450.25619748792
 20
42839.49378621233
 30
0.0
 11
13405.39399407778
 21
42831.00430076367
 31
0.0
  0
LINE
  5
E1E7
330
1F
100
AcDbEntity
  8
freecads.com
100
AcDbLine
 10
13487.99950616846
 20
42854.08352996158
 30
0.0
 11
13450.25619748792
 21
42839.49378621233
 31
0.0
  0
LINE
  5
E1E8
330
1F
100
AcDbEntity
  8
freecads.com
100
AcDbLine
 10
14746.15069546905
 20
42849.90070816767
 30
0.0
 11
14807.01602631812
 21
43091.6661375686
 31
0.0
  0
LINE
  5
E1E9
330
1F
100
AcDbEntity
  8
freecads.com
100
AcDbLine
 10
14572.5188525386
 20
42912.55048274503
 30
0.0
 11
14565.57560853725
 21
42888.7304750011
 31
0.0
  0
LINE
  5
E1EA
330
1F
100
AcDbEntity
  8
freecads.com
100
AcDbLine
 10
13455.89393052639
 20
43023.06169489282
 30
0.0
 11
13499.93152374017
 21
43022.52395144003
 31
0.0
  0
LINE
  5
E1EB
330
1F
100
AcDbEntity
  8
freecads.com
100
AcDbLine
 10
14254.95326972575
 20
43103.81347236329
 30
0.0
 11
14259.24535726946
 21
43215.64358462692
 31
0.0
  0
LINE
  5
E1EC
330
1F
100
AcDbEntity
  8
freecads.com
100
AcDbLine
 10
14242.15704278933
 20
43056.75399175433
 30
0.0
 11
14254.95326972575
 21
43103.81347236329
 31
0.0
  0
LINE
  5
E1ED
330
1F
100
AcDbEntity
  8
freecads.com
100
AcDbLine
 10
14242.15704278933
 20
43056.75399175433
 30
0.0
 11
14220.0449040772
 21
43036.89662059802
 31
0.0
  0
LINE
  5
E1EE
330
1F
100
AcDbEntity
  8
freecads.com
100
AcDbLine
 10
14220.0449040772
 20
43036.89662059802
 30
0.0
 11
14191.22273646011
 21
43026.56815768276
 31
0.0
  0
LINE
  5
E1EF
330
1F
100
AcDbEntity
  8
freecads.com
100
AcDbLine
 10
13495.44402179103
 20
43044.68966955839
 30
0.0
 11
13496.04486446874
 21
43034.89562446548
 31
0.0
  0
LINE
  5
E1F0
330
1F
100
AcDbEntity
  8
freecads.com
100
AcDbLine
 10
13496.04486446874
 20
43034.89562446548
 30
0.0
 11
13498.1070582356
 21
43026.19122470572
 31
0.0
  0
LINE
  5
E1F1
330
1F
100
AcDbEntity
  8
freecads.com
100
AcDbLine
 10
13501.38986692116
 20
43019.59260363079
 30
0.0
 11
13505.51006233226
 21
43015.87007040993
 31
0.0
  0
LINE
  5
E1F2
330
1F
100
AcDbEntity
  8
freecads.com
100
AcDbLine
 10
13630.91251683717
 20
43028.11107780674
 30
0.0
 11
13621.07799005942
 21
43044.83454929931
 31
0.0
  0
LINE
  5
E1F3
330
1F
100
AcDbEntity
  8
freecads.com
100
AcDbLine
 10
13635.04243792045
 20
42943.40647799613
 30
0.0
 11
13874.59770941574
 21
42942.34467144527
 31
0.0
  0
LINE
  5
E1F4
330
1F
100
AcDbEntity
  8
freecads.com
100
AcDbLine
 10
13402.05319274828
 20
42801.98465507593
 30
0.0
 11
13402.21424473944
 21
42815.17373628732
 31
0.0
  0
LINE
  5
E1F5
330
1F
100
AcDbEntity
  8
freecads.com
100
AcDbLine
 10
15804.72955790596
 20
42881.11819620903
 30
0.0
 11
15805.10326138681
 21
42881.30819474877
 31
0.0
  0
LINE
  5
E1F6
330
1F
100
AcDbEntity
  8
freecads.com
100
AcDbLine
 10
15805.10326138681
 20
42881.30819474877
 30
0.0
 11
15825.3541746237
 21
42891.60417576024
 31
0.0
  0
LINE
  5
E1F7
330
1F
100
AcDbEntity
  8
freecads.com
100
AcDbLine
 10
15422.12929257404
 20
42774.4133639864
 30
0.0
 11
15655.43376229581
 21
42843.31879412086
 31
0.0
  0
LINE
  5
E1F8
330
1F
100
AcDbEntity
  8
freecads.com
100
AcDbLine
 10
13948.5350795954
 20
42728.533457583
 30
0.0
 11
14226.41274396307
 21
42718.69809691282
 31
0.0
  0
LINE
  5
E1F9
330
1F
100
AcDbEntity
  8
freecads.com
100
AcDbLine
 10
13578.60732488693
 20
42757.84148807248
 30
0.0
 11
13858.40993484961
 21
42735.67374499442
 31
0.0
  0
LINE
  5
E1FA
330
1F
100
AcDbEntity
  8
freecads.com
100
AcDbLine
 10
14318.63050888384
 20
42721.53401784031
 30
0.0
 11
14596.14289901089
 21
42724.5007767865
 31
0.0
  0
LINE
  5
E1FB
330
1F
100
AcDbEntity
  8
freecads.com
100
AcDbLine
 10
14596.14289901089
 20
42724.5007767865
 30
0.0
 11
14684.15935161705
 21
42725.44172071358
 31
0.0
  0
LINE
  5
E1FC
330
1F
100
AcDbEntity
  8
freecads.com
100
AcDbLine
 10
14688.21895001321
 20
42725.48512003661
 30
0.0
 11
14965.60215015766
 21
42730.20039770812
 31
0.0
  0
LINE
  5
E1FD
330
1F
100
AcDbEntity
  8
freecads.com
100
AcDbLine
 10
14965.60215015766
 20
42730.20039770812
 30
0.0
 11
15053.95354739309
 21
42731.70229605816
 31
0.0
  0
LINE
  5
E1FE
330
1F
100
AcDbEntity
  8
freecads.com
100
AcDbLine
 10
15057.74305702148
 20
42731.76671448773
 30
0.0
 11
15375.81117512447
 21
42768.98161112844
 31
0.0
  0
LINE
  5
E1FF
330
1F
100
AcDbEntity
  8
freecads.com
100
AcDbLine
 10
15375.81117512447
 20
42768.98161112844
 30
0.0
 11
15418.50282488702
 21
42773.97665855039
 31
0.0
  0
LINE
  5
E200
330
1F
100
AcDbEntity
  8
freecads.com
100
AcDbLine
 10
15802.93853384669
 20
42886.94713468769
 30
0.0
 11
15802.89169468032
 21
42886.94770664118
 31
0.0
  0
LINE
  5
E201
330
1F
100
AcDbEntity
  8
freecads.com
100
AcDbLine
 10
15741.72057488654
 20
42881.69732393045
 30
0.0
 11
15783.64492030376
 21
42881.18538536582
 31
0.0
  0
LINE
  5
E202
330
1F
100
AcDbEntity
  8
freecads.com
100
AcDbLine
 10
15422.20990647487
 20
42774.41237960933
 30
0.0
 11
15422.12929257404
 21
42774.4133639864
 31
0.0
  0
LINE
  5
E203
330
1F
100
AcDbEntity
  8
freecads.com
100
AcDbLine
 10
16293.91530773631
 20
43172.08225601082
 30
0.0
 11
16293.9522551064
 21
43175.10799857734
 31
0.0
  0
LINE
  5
E204
330
1F
100
AcDbEntity
  8
freecads.com
100
AcDbLine
 10
16091.55630492742
 20
43081.41961187641
 30
0.0
 11
16129.80912740674
 21
43119.1187705345
 31
0.0
  0
LINE
  5
E205
330
1F
100
AcDbEntity
  8
freecads.com
100
AcDbLine
 10
16129.80912740674
 20
43119.1187705345
 30
0.0
 11
16131.56188804206
 21
43120.84616205745
 31
0.0
  0
LINE
  5
E206
330
1F
100
AcDbEntity
  8
freecads.com
100
AcDbLine
 10
16066.11810334789
 20
43119.89650221075
 30
0.0
 11
16129.80912740674
 21
43119.1187705345
 31
0.0
  0
LINE
  5
E207
330
1F
100
AcDbEntity
  8
freecads.com
100
AcDbLine
 10
16136.02251396866
 20
43125.22016294185
 30
0.0
 11
16136.00040111106
 21
43125.22043296215
 31
0.0
  0
LINE
  5
E208
330
1F
100
AcDbEntity
  8
freecads.com
100
AcDbLine
 10
13405.39399407778
 20
42831.00430076367
 30
0.0
 11
13407.62723519678
 21
42830.84654839333
 31
0.0
  0
LINE
  5
E209
330
1F
100
AcDbEntity
  8
freecads.com
100
AcDbLine
 10
13641.8761467703
 20
43503.04153987052
 30
0.0
 11
13550.86963588046
 21
43455.0094816864
 31
0.0
  0
LINE
  5
E20A
330
1F
100
AcDbEntity
  8
freecads.com
100
AcDbLine
 10
13550.86963588046
 20
43455.0094816864
 30
0.0
 11
13510.61295090516
 21
43433.76252456071
 31
0.0
  0
LINE
  5
E20B
330
1F
100
AcDbEntity
  8
freecads.com
100
AcDbLine
 10
13831.94432787903
 20
43471.23464034622
 30
0.0
 11
13881.21776835475
 21
43484.48323417418
 31
0.0
  0
LINE
  5
E20C
330
1F
100
AcDbEntity
  8
freecads.com
100
AcDbLine
 10
13905.27473126555
 20
43497.4964404462
 30
0.0
 11
13947.18579290103
 21
43495.83365823571
 31
0.0
  0
LINE
  5
E20D
330
1F
100
AcDbEntity
  8
freecads.com
100
AcDbLine
 10
13947.18579290103
 20
43495.83365823571
 30
0.0
 11
14275.50248434527
 21
43482.80800026771
 31
0.0
  0
LINE
  5
E20E
330
1F
100
AcDbEntity
  8
freecads.com
100
AcDbLine
 10
14275.50248434527
 20
43482.80800026771
 30
0.0
 11
14284.56703668646
 21
43465.70766031665
 31
0.0
  0
LINE
  5
E20F
330
1F
100
AcDbEntity
  8
freecads.com
100
AcDbLine
 10
14284.56703668646
 20
43465.70766031665
 30
0.0
 11
14355.57219108549
 21
43331.75595119746
 31
0.0
  0
LINE
  5
E210
330
1F
100
AcDbEntity
  8
freecads.com
100
AcDbLine
 10
14614.94435255693
 20
43491.97186398615
 30
0.0
 11
14579.82648454046
 21
43510.99668192617
 31
0.0
  0
LINE
  5
E211
330
1F
100
AcDbEntity
  8
freecads.com
100
AcDbLine
 10
14579.82648454046
 20
43510.99668192617
 30
0.0
 11
14543.89879375754
 21
43530.46021473031
 31
0.0
  0
LINE
  5
E212
330
1F
100
AcDbEntity
  8
freecads.com
100
AcDbLine
 10
13539.11421936101
 20
43547.60962065743
 30
0.0
 11
13592.87867675787
 21
43555.61706055875
 31
0.0
  0
LINE
  5
E213
330
1F
100
AcDbEntity
  8
freecads.com
100
AcDbLine
 10
13592.87867675787
 20
43555.61706055875
 30
0.0
 11
13601.17529388142
 21
43556.85272192722
 31
0.0
  0
LINE
  5
E214
330
1F
100
AcDbEntity
  8
freecads.com
100
AcDbLine
 10
13655.60471923501
 20
43422.75572345886
 30
0.0
 11
13652.04669194882
 21
43422.86394233862
 31
0.0
  0
LINE
  5
E215
330
1F
100
AcDbEntity
  8
freecads.com
100
AcDbLine
 10
13502.96012834523
 20
43423.62521710168
 30
0.0
 11
13504.87359870552
 21
43427.24684639838
 31
0.0
  0
LINE
  5
E216
330
1F
100
AcDbEntity
  8
freecads.com
100
AcDbLine
 10
13504.87359870552
 20
43427.24684639838
 30
0.0
 11
13506.40308580461
 21
43430.14170978482
 31
0.0
  0
LINE
  5
E217
330
1F
100
AcDbEntity
  8
freecads.com
100
AcDbLine
 10
16288.2359240608
 20
43206.55732383573
 30
0.0
 11
16288.04436480257
 21
43190.86990142369
 31
0.0
  0
LINE
  5
E218
330
1F
100
AcDbEntity
  8
freecads.com
100
AcDbLine
 10
15812.4373033419
 20
43512.33101032748
 30
0.0
 11
15812.80625593847
 21
43512.13194320761
 31
0.0
  0
LINE
  5
E219
330
1F
100
AcDbEntity
  8
freecads.com
100
AcDbLine
 10
15812.80625593847
 20
43512.13194320761
 30
0.0
 11
15832.79971975057
 21
43501.34453774056
 31
0.0
  0
LINE
  5
E21A
330
1F
100
AcDbEntity
  8
freecads.com
100
AcDbLine
 10
15432.55667793881
 20
43628.34650366809
 30
0.0
 11
15664.10902377181
 21
43553.76470271489
 31
0.0
  0
LINE
  5
E21B
330
1F
100
AcDbEntity
  8
freecads.com
100
AcDbLine
 10
14328.39262341399
 20
43714.2271619808
 30
0.0
 11
14330.38556232219
 21
43714.24900346652
 31
0.0
  0
LINE
  5
E21C
330
1F
100
AcDbEntity
  8
freecads.com
100
AcDbLine
 10
13589.98905709653
 20
43689.92925320034
 30
0.0
 11
13870.24953778148
 21
43705.2580607653
 31
0.0
  0
LINE
  5
E21D
330
1F
100
AcDbEntity
  8
freecads.com
100
AcDbLine
 10
15720.24502852105
 20
43513.64704658248
 30
0.0
 11
15749.43296654254
 21
43513.29063240482
 31
0.0
  0
LINE
  5
E21E
330
1F
100
AcDbEntity
  8
freecads.com
100
AcDbLine
 10
15749.43296654254
 20
43513.29063240482
 30
0.0
 11
15791.3573119598
 21
43512.77869384017
 31
0.0
  0
LINE
  5
E21F
330
1F
100
AcDbEntity
  8
freecads.com
100
AcDbLine
 10
14330.67815564581
 20
43708.15573223191
 30
0.0
 11
14608.03535562404
 21
43698.41345565517
 31
0.0
  0
LINE
  5
E220
330
1F
100
AcDbEntity
  8
freecads.com
100
AcDbLine
 10
14608.03535562404
 20
43698.41345565517
 30
0.0
 11
14696.00258777427
 21
43695.32357334686
 31
0.0
  0
LINE
  5
E221
330
1F
100
AcDbEntity
  8
freecads.com
100
AcDbLine
 10
15069.66022318735
 20
43685.94663395512
 30
0.0
 11
15362.27448118041
 21
43644.44400738761
 31
0.0
  0
LINE
  5
E222
330
1F
100
AcDbEntity
  8
freecads.com
100
AcDbLine
 10
14700.05991596663
 20
43695.18105815916
 30
0.0
 11
14977.24526849335
 21
43683.69393882794
 31
0.0
  0
LINE
  5
E223
330
1F
100
AcDbEntity
  8
freecads.com
100
AcDbLine
 10
14977.24526849335
 20
43683.69393882794
 30
0.0
 11
15065.53364780465
 21
43680.0350905538
 31
0.0
  0
LINE
  5
E224
330
1F
100
AcDbEntity
  8
freecads.com
100
AcDbLine
 10
15069.32045450995
 20
43679.87815765634
 30
0.0
 11
15386.38500589307
 21
43634.90765018998
 31
0.0
  0
LINE
  5
E225
330
1F
100
AcDbEntity
  8
freecads.com
100
AcDbLine
 10
15386.38500589307
 20
43634.90765018998
 30
0.0
 11
15428.9419552047
 21
43628.87163134644
 31
0.0
  0
LINE
  5
E226
330
1F
100
AcDbEntity
  8
freecads.com
100
AcDbLine
 10
15433.73811675736
 20
43634.30803998518
 30
0.0
 11
15434.61194309225
 21
43634.02658508763
 31
0.0
  0
LINE
  5
E227
330
1F
100
AcDbEntity
  8
freecads.com
100
AcDbLine
 10
15810.50448009887
 20
43506.54754378223
 30
0.0
 11
15810.45764093252
 21
43506.54811573572
 31
0.0
  0
LINE
  5
E228
330
1F
100
AcDbEntity
  8
freecads.com
100
AcDbLine
 10
15432.63729183967
 20
43628.345519291
 30
0.0
 11
15432.55667793881
 21
43628.34650366809
 31
0.0
  0
LINE
  5
E229
330
1F
100
AcDbEntity
  8
freecads.com
100
AcDbLine
 10
16300.402894617
 20
43210.13449100618
 30
0.0
 11
16300.35740637706
 21
43206.4093083045
 31
0.0
  0
LINE
  5
E22A
330
1F
100
AcDbEntity
  8
freecads.com
100
AcDbLine
 10
16294.3723209931
 20
43209.50858596797
 30
0.0
 11
16294.33537362302
 21
43206.48284340143
 31
0.0
  0
LINE
  5
E22B
330
1F
100
AcDbEntity
  8
freecads.com
100
AcDbLine
 10
16094.28749082912
 20
43305.08547542098
 30
0.0
 11
16131.60835506988
 21
43266.46348578439
 31
0.0
  0
LINE
  5
E22C
330
1F
100
AcDbEntity
  8
freecads.com
100
AcDbLine
 10
16131.60835506988
 20
43266.46348578439
 30
0.0
 11
16133.31841298124
 21
43264.69380975261
 31
0.0
  0
LINE
  5
E22D
330
1F
100
AcDbEntity
  8
freecads.com
100
AcDbLine
 10
16044.25349519151
 20
43267.53017677589
 30
0.0
 11
16067.91733101103
 21
43267.24121746065
 31
0.0
  0
LINE
  5
E22E
330
1F
100
AcDbEntity
  8
freecads.com
100
AcDbLine
 10
16067.91733101103
 20
43267.24121746065
 30
0.0
 11
16131.60835506988
 21
43266.46348578439
 31
0.0
  0
LINE
  5
E22F
330
1F
100
AcDbEntity
  8
freecads.com
100
AcDbLine
 10
16137.67090286585
 20
43260.21219183052
 30
0.0
 11
16137.64879000823
 21
43260.21246185082
 31
0.0
  0
LINE
  5
E230
330
1F
100
AcDbEntity
  8
freecads.com
100
AcDbLine
 10
12956.64333189081
 20
43599.87056883284
 30
0.0
 11
13415.04085666871
 21
43621.01784414567
 31
0.0
  0
LINE
  5
E231
330
1F
100
AcDbEntity
  8
freecads.com
100
AcDbLine
 10
13415.04085666871
 20
43621.01784414567
 30
0.0
 11
13417.27728395221
 21
43621.12101735436
 31
0.0
  0
LINE
  5
E232
330
1F
100
AcDbEntity
  8
freecads.com
100
AcDbLine
 10
13635.04243792045
 20
42943.40647799613
 30
0.0
 11
13532.43719985439
 21
43000.80636830908
 31
0.0
  0
LINE
  5
E233
330
1F
100
AcDbEntity
  8
freecads.com
100
AcDbLine
 10
13532.43719985439
 20
43000.80636830908
 30
0.0
 11
13505.51006233226
 21
43015.87007040993
 31
0.0
  0
LINE
  5
E234
330
1F
100
AcDbEntity
  8
freecads.com
100
AcDbLine
 10
13898.49788639194
 20
42942.5181580139
 30
0.0
 11
13940.43705372262
 21
42943.15704431294
 31
0.0
  0
LINE
  5
E235
330
1F
100
AcDbEntity
  8
freecads.com
100
AcDbLine
 10
13940.43705372262
 20
42943.15704431294
 30
0.0
 11
14268.97391541533
 21
42948.16185754672
 31
0.0
  0
LINE
  5
E236
330
1F
100
AcDbEntity
  8
freecads.com
100
AcDbLine
 10
14268.97391541533
 20
42948.16185754672
 30
0.0
 11
14278.45332750379
 21
42965.03575697883
 31
0.0
  0
LINE
  5
E237
330
1F
100
AcDbEntity
  8
freecads.com
100
AcDbLine
 10
14278.45332750379
 20
42965.03575697883
 30
0.0
 11
14352.70819344962
 21
43097.21369466342
 31
0.0
  0
LINE
  5
E238
330
1F
100
AcDbEntity
  8
freecads.com
100
AcDbLine
 10
14608.09080453591
 20
42930.71210664748
 30
0.0
 11
14572.5188525386
 21
42912.55048274503
 31
0.0
  0
LINE
  5
E239
330
1F
100
AcDbEntity
  8
freecads.com
100
AcDbLine
 10
14572.5188525386
 20
42912.55048274503
 30
0.0
 11
14536.1266065371
 21
42893.97004934922
 31
0.0
  0
LINE
  5
E23A
330
1F
100
AcDbEntity
  8
freecads.com
100
AcDbLine
 10
13531.22287113551
 20
42901.36096572084
 30
0.0
 11
13584.77576873288
 21
42892.0430726179
 31
0.0
  0
LINE
  5
E23B
330
1F
100
AcDbEntity
  8
freecads.com
100
AcDbLine
 10
13584.77576873288
 20
42892.0430726179
 30
0.0
 11
13593.03973918353
 21
42890.6051897634
 31
0.0
  0
LINE
  5
E23C
330
1F
100
AcDbEntity
  8
freecads.com
100
AcDbLine
 10
14191.22273646011
 20
43026.56815768276
 30
0.0
 11
13679.58812955486
 21
43023.50586646731
 31
0.0
  0
LINE
  5
E23D
330
1F
100
AcDbEntity
  8
freecads.com
100
AcDbLine
 10
13679.58812955486
 20
43023.50586646731
 30
0.0
 11
13647.16775734149
 21
43023.31182052185
 31
0.0
  0
LINE
  5
E23E
330
1F
100
AcDbEntity
  8
freecads.com
100
AcDbLine
 10
13498.1070582356
 20
43026.19122470572
 30
0.0
 11
13499.93152374017
 21
43022.52395144003
 31
0.0
  0
LINE
  5
E23F
330
1F
100
AcDbEntity
  8
freecads.com
100
AcDbLine
 10
13499.93152374017
 20
43022.52395144003
 30
0.0
 11
13501.38986692116
 21
43019.59260363079
 31
0.0
  0
LINE
  5
E240
330
1F
100
AcDbEntity
  8
freecads.com
100
AcDbLine
 10
15655.43376229581
 20
42843.31879412086
 30
0.0
 11
15783.64492030376
 21
42881.18538536582
 31
0.0
  0
LINE
  5
E241
330
1F
100
AcDbEntity
  8
freecads.com
100
AcDbLine
 10
15783.64492030376
 20
42881.18538536582
 30
0.0
 11
15798.99273224399
 21
42885.7182928777
 31
0.0
  0
LINE
  5
E242
330
1F
100
AcDbEntity
  8
freecads.com
100
AcDbLine
 10
14226.41274396307
 20
42718.69809691282
 30
0.0
 11
14316.19740367392
 21
42715.52020741631
 31
0.0
  0
LINE
  5
E243
330
1F
100
AcDbEntity
  8
freecads.com
100
AcDbLine
 10
14316.19740367392
 20
42715.52020741631
 30
0.0
 11
14318.18921500788
 21
42715.449708109
 31
0.0
  0
LINE
  5
E244
330
1F
100
AcDbEntity
  8
freecads.com
100
AcDbLine
 10
13858.40993484961
 20
42735.67374499442
 30
0.0
 11
13947.90202118693
 21
42728.58361249813
 31
0.0
  0
LINE
  5
E245
330
1F
100
AcDbEntity
  8
freecads.com
100
AcDbLine
 10
13947.90202118693
 20
42728.58361249813
 30
0.0
 11
13948.5350795954
 21
42728.533457583
 31
0.0
  0
LINE
  5
E246
330
1F
100
AcDbEntity
  8
freecads.com
100
AcDbLine
 10
15057.93454204535
 20
42725.69175104516
 30
0.0
 11
15058.22584735682
 21
42725.72583461544
 31
0.0
  0
LINE
  5
E247
330
1F
100
AcDbEntity
  8
freecads.com
100
AcDbLine
 10
15058.22584735682
 20
42725.72583461544
 30
0.0
 11
15351.4749771522
 21
42760.03683730379
 31
0.0
  0
LINE
  5
E248
330
1F
100
AcDbEntity
  8
freecads.com
100
AcDbLine
 10
15351.4749771522
 20
42760.03683730379
 30
0.0
 11
15422.99933878964
 21
42768.40539603111
 31
0.0
  0
LINE
  5
E249
330
1F
100
AcDbEntity
  8
freecads.com
100
AcDbLine
 10
15422.99933878964
 20
42768.40539603111
 30
0.0
 11
15423.16480807651
 21
42768.42475641984
 31
0.0
  0
LINE
  5
E24A
330
1F
100
AcDbEntity
  8
freecads.com
100
AcDbLine
 10
15423.16480807651
 20
42768.42475641984
 30
0.0
 11
15424.04524653182
 21
42768.68478997403
 31
0.0
  0
LINE
  5
E24B
330
1F
100
AcDbEntity
  8
freecads.com
100
AcDbLine
 10
15424.04524653182
 20
42768.68478997403
 30
0.0
 11
15463.41321632221
 21
42780.3119435179
 31
0.0
  0
LINE
  5
E24C
330
1F
100
AcDbEntity
  8
freecads.com
100
AcDbLine
 10
15463.41321632221
 20
42780.3119435179
 30
0.0
 11
15613.14008551535
 21
42824.53310369001
 31
0.0
  0
LINE
  5
E24D
330
1F
100
AcDbEntity
  8
freecads.com
100
AcDbLine
 10
16299.92879962051
 20
43171.30928077871
 30
0.0
 11
16299.97428786044
 21
43175.0344634804
 31
0.0
  0
LINE
  5
E24E
330
1F
100
AcDbEntity
  8
freecads.com
100
AcDbLine
 10
16299.97428786044
 20
43175.0344634804
 30
0.0
 11
16300.09147568377
 21
43184.63136264423
 31
0.0
  0
LINE
  5
E24F
330
1F
100
AcDbEntity
  8
freecads.com
100
AcDbLine
 10
13684.57148279166
 20
43431.60917585703
 30
0.0
 11
13831.94432787903
 21
43471.23464034622
 31
0.0
  0
LINE
  5
E250
330
1F
100
AcDbEntity
  8
freecads.com
100
AcDbLine
 10
15664.10902377181
 20
43553.76470271489
 30
0.0
 11
15791.3573119598
 21
43512.77869384017
 31
0.0
  0
LINE
  5
E251
330
1F
100
AcDbEntity
  8
freecads.com
100
AcDbLine
 10
15791.3573119598
 20
43512.77869384017
 30
0.0
 11
15806.58986135064
 21
43507.87236925691
 31
0.0
  0
LINE
  5
E252
330
1F
100
AcDbEntity
  8
freecads.com
100
AcDbLine
 10
13960.52216387176
 20
43710.19550935006
 30
0.0
 11
14238.5571361623
 21
43713.24261573874
 31
0.0
  0
LINE
  5
E253
330
1F
100
AcDbEntity
  8
freecads.com
100
AcDbLine
 10
14238.5571361623
 20
43713.24261573874
 30
0.0
 11
14328.39262341399
 21
43714.2271619808
 31
0.0
  0
LINE
  5
E254
330
1F
100
AcDbEntity
  8
freecads.com
100
AcDbLine
 10
13870.24953778148
 20
43705.2580607653
 30
0.0
 11
13959.88806952262
 21
43710.16082764883
 31
0.0
  0
LINE
  5
E255
330
1F
100
AcDbEntity
  8
freecads.com
100
AcDbLine
 10
13959.88806952262
 20
43710.16082764883
 30
0.0
 11
13960.52216387176
 21
43710.19550935006
 31
0.0
  0
LINE
  5
E256
330
1F
100
AcDbEntity
  8
freecads.com
100
AcDbLine
 10
15362.27448118041
 20
43644.44400738761
 30
0.0
 11
15433.57316955822
 21
43634.33143509265
 31
0.0
  0
LINE
  5
E257
330
1F
100
AcDbEntity
  8
freecads.com
100
AcDbLine
 10
15433.57316955822
 20
43634.33143509265
 30
0.0
 11
15433.73811675736
 21
43634.30803998518
 31
0.0
  0
LINE
  5
E258
330
1F
100
AcDbEntity
  8
freecads.com
100
AcDbLine
 10
15434.61194309225
 20
43634.02658508763
 30
0.0
 11
15473.68425819412
 21
43621.4415965088
 31
0.0
  0
LINE
  5
E259
330
1F
100
AcDbEntity
  8
freecads.com
100
AcDbLine
 10
16300.35740637706
 20
43206.4093083045
 30
0.0
 11
16300.24021855373
 21
43196.81240914068
 31
0.0
  0
LINE
  5
E25A
330
1F
100
AcDbEntity
  8
freecads.com
100
AcDbLine
 10
13630.91251683717
 20
43028.11107780674
 30
0.0
 11
13647.16775734149
 21
43023.31182052185
 31
0.0
  0
LINE
  5
E25B
330
1F
100
AcDbEntity
  8
freecads.com
100
AcDbLine
 10
13647.16775734149
 20
43023.31182052185
 30
0.0
 11
13679.46930575768
 21
43013.77499198289
 31
0.0
  0
LINE
  5
E25C
330
1F
100
AcDbEntity
  8
freecads.com
100
AcDbLine
 10
13679.46930575768
 20
43013.77499198289
 30
0.0
 11
13825.83061869634
 21
42970.56273700835
 31
0.0
  0
LINE
  5
E25D
330
1F
100
AcDbEntity
  8
freecads.com
100
AcDbLine
 10
13825.83061869634
 20
42970.56273700835
 30
0.0
 11
13874.76585799883
 21
42956.11491609501
 31
0.0
  0
LINE
  5
E25E
330
1F
100
AcDbEntity
  8
freecads.com
100
AcDbLine
 10
15613.14008551535
 20
42824.53310369001
 30
0.0
 11
15804.11088937861
 21
42880.93547523059
 31
0.0
  0
LINE
  5
E25F
330
1F
100
AcDbEntity
  8
freecads.com
100
AcDbLine
 10
15804.11088937861
 20
42880.93547523059
 30
0.0
 11
15804.72955790596
 21
42881.11819620903
 31
0.0
  0
LINE
  5
E260
330
1F
100
AcDbEntity
  8
freecads.com
100
AcDbLine
 10
13677.18928781104
 20
43429.62425858898
 30
0.0
 11
13684.57148279166
 21
43431.60917585703
 31
0.0
  0
LINE
  5
E261
330
1F
100
AcDbEntity
  8
freecads.com
100
AcDbLine
 10
14195.85993407773
 20
43406.32363639618
 30
0.0
 11
14122.12586432516
 21
43408.5662887952
 31
0.0
  0
LINE
  5
E262
330
1F
100
AcDbEntity
  8
freecads.com
100
AcDbLine
 10
13684.4526589945
 20
43421.87830137262
 30
0.0
 11
13677.09743360897
 21
43422.10201361192
 31
0.0
  0
LINE
  5
E263
330
1F
100
AcDbEntity
  8
freecads.com
100
AcDbLine
 10
13677.09743360897
 20
43422.10201361192
 30
0.0
 11
13655.60471923501
 21
43422.75572345886
 31
0.0
  0
LINE
  5
E264
330
1F
100
AcDbEntity
  8
freecads.com
100
AcDbLine
 10
15473.68425819412
 20
43621.4415965088
 30
0.0
 11
15622.28667390111
 21
43573.57753471512
 31
0.0
  0
LINE
  5
E265
330
1F
100
AcDbEntity
  8
freecads.com
100
AcDbLine
 10
15622.28667390111
 20
43573.57753471512
 30
0.0
 11
15812.4373033419
 21
43512.33101032748
 31
0.0
  0
LINE
  5
E266
330
1F
100
AcDbEntity
  8
freecads.com
100
AcDbLine
 10
13655.61776554564
 20
43423.82412906715
 30
0.0
 11
13677.18928781104
 21
43429.62425858898
 31
0.0
  0
LINE
  5
E267
330
1F
100
AcDbEntity
  8
freecads.com
100
AcDbLine
 10
14010.30797368215
 20
43411.96727644647
 30
0.0
 11
13684.4526589945
 21
43421.87830137262
 31
0.0
  0
LINE
  5
E268
330
1F
100
AcDbEntity
  8
freecads.com
100
AcDbLine
 10
13635.67910824377
 20
43418.46304265801
 30
0.0
 11
13652.04669194882
 21
43422.86394233862
 31
0.0
  0
LINE
  5
E269
330
1F
100
AcDbEntity
  8
freecads.com
100
AcDbLine
 10
13652.04669194882
 20
43422.86394233862
 30
0.0
 11
13655.61776554564
 21
43423.82412906715
 31
0.0
  0
LINE
  5
E26A
330
1F
100
AcDbEntity
  8
freecads.com
100
AcDbLine
 10
14122.12586432516
 20
43408.5662887952
 30
0.0
 11
14048.92365071816
 21
43410.79276456836
 31
0.0
  0
LINE
  5
E26B
330
1F
100
AcDbEntity
  8
freecads.com
100
AcDbLine
 10
14048.92365071816
 20
43410.79276456836
 30
0.0
 11
14010.30797368215
 21
43411.96727644647
 31
0.0
  0
LINE
  5
E26C
330
1F
100
AcDbEntity
  8
freecads.com
100
AcDbLine
 10
13537.98539937092
 20
43455.16681121605
 30
0.0
 11
13538.97975719387
 21
43536.59806823936
 31
0.0
  0
LINE
  5
E26D
330
1F
100
AcDbEntity
  8
freecads.com
100
AcDbLine
 10
14048.983701506
 20
43415.7105225691
 30
0.0
 11
14010.3594417096
 21
43416.1821637581
 31
0.0
  0
LINE
  5
E26E
330
1F
100
AcDbEntity
  8
freecads.com
100
AcDbLine
 10
12835.65455394138
 20
43093.22587930466
 30
0.0
 11
12839.06827203398
 21
43372.78656559916
 31
0.0
  0
LINE
  5
E26F
330
1F
100
AcDbEntity
  8
freecads.com
100
AcDbLine
 10
16287.77053491116
 20
43168.44506426033
 30
0.0
 11
16097.80072041236
 21
43151.3516524287
 31
0.0
  0
LINE
  5
E270
330
1F
100
AcDbEntity
  8
freecads.com
100
AcDbLine
 10
14925.42799625866
 20
42711.45472472323
 30
0.0
 11
14168.80110703174
 21
42703.36597023
 31
0.0
  0
LINE
  5
E271
330
1F
100
AcDbEntity
  8
freecads.com
100
AcDbLine
 10
13684.55000756606
 20
42725.67378977252
 30
0.0
 11
14071.8200601846
 21
42706.58665523596
 31
0.0
  0
LINE
  5
E272
330
1F
100
AcDbEntity
  8
freecads.com
100
AcDbLine
 10
12908.3223704699
 20
43098.80605257607
 30
0.0
 11
12911.57816220351
 21
43365.43362602584
 31
0.0
  0
LINE
  5
E273
330
1F
100
AcDbEntity
  8
freecads.com
100
AcDbLine
 10
13685.69123871246
 20
42819.13298993126
 30
0.0
 11
13879.37822718404
 21
42823.68791787158
 31
0.0
  0
LINE
  5
E274
330
1F
100
AcDbEntity
  8
freecads.com
100
AcDbLine
 10
13685.69123871246
 20
42819.13298993126
 30
0.0
 11
13488.52211528575
 21
42814.11983009213
 31
0.0
  0
LINE
  5
E275
330
1F
100
AcDbEntity
  8
freecads.com
100
AcDbLine
 10
13488.60086556546
 20
42764.93790158198
 30
0.0
 11
13580.63846908303
 21
42763.81402956516
 31
0.0
  0
LINE
  5
E276
330
1F
100
AcDbEntity
  8
freecads.com
100
AcDbLine
 10
13578.60732488693
 20
42757.84148807248
 30
0.0
 11
13488.52764286358
 21
42758.94145189206
 31
0.0
  0
LINE
  5
E277
330
1F
100
AcDbEntity
  8
freecads.com
100
AcDbLine
 10
15960.7754568853
 20
42973.15119966768
 30
0.0
 11
15825.3541746237
 21
42891.60417576024
 31
0.0
  0
LINE
  5
E278
330
1F
100
AcDbEntity
  8
freecads.com
100
AcDbLine
 10
15957.36968179881
 20
42978.13621543117
 30
0.0
 11
15822.45330460995
 21
42896.89323166679
 31
0.0
  0
LINE
  5
E279
330
1F
100
AcDbEntity
  8
freecads.com
100
AcDbLine
 10
16095.29325964537
 20
43076.68950495834
 30
0.0
 11
15960.7754568853
 21
42973.15119966768
 31
0.0
  0
LINE
  5
E27A
330
1F
100
AcDbEntity
  8
freecads.com
100
AcDbLine
 10
16091.55630492742
 20
43081.41961187641
 30
0.0
 11
15957.36968179881
 21
42978.13621543117
 31
0.0
  0
LINE
  5
E27B
330
1F
100
AcDbEntity
  8
freecads.com
100
AcDbLine
 10
15802.89169468032
 20
42886.94770664118
 30
0.0
 11
15751.48213259264
 21
42887.57546927318
 31
0.0
  0
LINE
  5
E27C
330
1F
100
AcDbEntity
  8
freecads.com
100
AcDbLine
 10
15751.48213259264
 20
42887.57546927318
 30
0.0
 11
15712.60585956691
 21
42888.05018779802
 31
0.0
  0
LINE
  5
E27D
330
1F
100
AcDbEntity
  8
freecads.com
100
AcDbLine
 10
13857.82233916358
 20
42729.6835763177
 30
0.0
 11
13947.90202118693
 21
42728.58361249813
 31
0.0
  0
LINE
  5
E27E
330
1F
100
AcDbEntity
  8
freecads.com
100
AcDbLine
 10
15741.72057488654
 20
42881.69732393045
 30
0.0
 11
15712.53263686501
 21
42882.05373810811
 31
0.0
  0
LINE
  5
E27F
330
1F
100
AcDbEntity
  8
freecads.com
100
AcDbLine
 10
15375.81117512447
 20
42768.98161112844
 30
0.0
 11
15331.51703684483
 21
42769.52248725536
 31
0.0
  0
LINE
  5
E280
330
1F
100
AcDbEntity
  8
freecads.com
100
AcDbLine
 10
15422.12929257404
 20
42774.4133639864
 30
0.0
 11
15331.59025954675
 21
42775.51893694528
 31
0.0
  0
LINE
  5
E281
330
1F
100
AcDbEntity
  8
freecads.com
100
AcDbLine
 10
14316.19740367392
 20
42715.52020741631
 30
0.0
 11
14227.31460782444
 21
42716.6055560479
 31
0.0
  0
LINE
  5
E282
330
1F
100
AcDbEntity
  8
freecads.com
100
AcDbLine
 10
16140.1329209448
 20
43120.8801658283
 30
0.0
 11
16095.29325964537
 21
43076.68950495834
 31
0.0
  0
LINE
  5
E283
330
1F
100
AcDbEntity
  8
freecads.com
100
AcDbLine
 10
16300.09147568377
 20
43184.63136264423
 30
0.0
 11
16300.24021855373
 21
43196.81240914068
 31
0.0
  0
LINE
  5
E284
330
1F
100
AcDbEntity
  8
freecads.com
100
AcDbLine
 10
16293.9522551064
 20
43175.10799857734
 30
0.0
 11
16294.33537362302
 21
43206.48284340143
 31
0.0
  0
LINE
  5
E285
330
1F
100
AcDbEntity
  8
freecads.com
100
AcDbLine
 10
16072.2644424047
 20
43125.9987133358
 30
0.0
 11
16136.00040111106
 21
43125.22043296215
 31
0.0
  0
LINE
  5
E286
330
1F
100
AcDbEntity
  8
freecads.com
100
AcDbLine
 10
16066.11810334789
 20
43119.89650221075
 30
0.0
 11
16042.45426752837
 21
43120.18546152599
 31
0.0
  0
LINE
  5
E287
330
1F
100
AcDbEntity
  8
freecads.com
100
AcDbLine
 10
16072.2644424047
 20
43125.9987133358
 30
0.0
 11
16042.52968691135
 21
43126.3618047066
 31
0.0
  0
LINE
  5
E288
330
1F
100
AcDbEntity
  8
freecads.com
100
AcDbLine
 10
13186.45467631399
 20
42768.71339512769
 30
0.0
 11
13587.90957977669
 21
42732.1814745613
 31
0.0
  0
LINE
  5
E289
330
1F
100
AcDbEntity
  8
freecads.com
100
AcDbLine
 10
13407.62723519678
 20
42830.84654839333
 30
0.0
 11
13402.21424473944
 21
42815.17373628732
 31
0.0
  0
LINE
  5
E28A
330
1F
100
AcDbEntity
  8
freecads.com
100
AcDbLine
 10
16287.85280554424
 20
43175.18247901163
 30
0.0
 11
16272.15973773031
 21
43175.37410720597
 31
0.0
  0
LINE
  5
E28B
330
1F
100
AcDbEntity
  8
freecads.com
100
AcDbLine
 10
14243.46799767682
 20
42830.8625113978
 30
0.0
 11
14073.29944754002
 21
42827.73858786571
 31
0.0
  0
LINE
  5
E28C
330
1F
100
AcDbEntity
  8
freecads.com
100
AcDbLine
 10
14073.29944754002
 20
42827.73858786571
 30
0.0
 11
13879.37822718404
 21
42823.68791787158
 31
0.0
  0
LINE
  5
E28D
330
1F
100
AcDbEntity
  8
freecads.com
100
AcDbLine
 10
15332.69081345165
 20
42756.63450654539
 30
0.0
 11
15061.02740479217
 21
42720.21319909606
 31
0.0
  0
LINE
  5
E28E
330
1F
100
AcDbEntity
  8
freecads.com
100
AcDbLine
 10
15432.47917602069
 20
43126.84136355004
 30
0.0
 11
15434.29125162026
 21
43275.23823888805
 31
0.0
  0
LINE
  5
E28F
330
1F
100
AcDbEntity
  8
freecads.com
100
AcDbLine
 10
15580.76062206118
 20
43125.03069745868
 30
0.0
 11
15582.57306882008
 21
43273.45796826651
 31
0.0
  0
LINE
  5
E290
330
1F
100
AcDbEntity
  8
freecads.com
100
AcDbLine
 10
15436.83837287608
 20
43131.0931015732
 30
0.0
 11
15438.54294730261
 21
43270.68634963629
 31
0.0
  0
LINE
  5
E291
330
1F
100
AcDbEntity
  8
freecads.com
100
AcDbLine
 10
14717.09638201196
 20
43327.34137600144
 30
0.0
 11
14714.23238437608
 21
43092.79911946743
 31
0.0
  0
LINE
  5
E292
330
1F
100
AcDbEntity
  8
freecads.com
100
AcDbLine
 10
13831.94432787903
 20
43471.23464034622
 30
0.0
 11
13946.86827790313
 21
43469.83130294326
 31
0.0
  0
LINE
  5
E293
330
1F
100
AcDbEntity
  8
freecads.com
100
AcDbLine
 10
14809.88002395398
 20
43326.20839410258
 30
0.0
 11
14807.01602631812
 21
43091.6661375686
 31
0.0
  0
LINE
  5
E294
330
1F
100
AcDbEntity
  8
freecads.com
100
AcDbLine
 10
13499.84618394106
 20
43405.19731501489
 30
0.0
 11
13495.44402179103
 21
43044.68966955839
 31
0.0
  0
LINE
  5
E295
330
1F
100
AcDbEntity
  8
freecads.com
100
AcDbLine
 10
13625.43915382057
 20
43401.98470083862
 30
0.0
 11
13621.07799005942
 21
43044.83454929931
 31
0.0
  0
LINE
  5
E296
330
1F
100
AcDbEntity
  8
freecads.com
100
AcDbLine
 10
16288.31819469383
 20
43213.29473858704
 30
0.0
 11
16098.82241744864
 21
43235.02180822384
 31
0.0
  0
LINE
  5
E297
330
1F
100
AcDbEntity
  8
freecads.com
100
AcDbLine
 10
14937.5408323585
 20
43703.415010005
 30
0.0
 11
14181.33706312081
 21
43729.97695348039
 31
0.0
  0
LINE
  5
E298
330
1F
100
AcDbEntity
  8
freecads.com
100
AcDbLine
 10
13696.68563351812
 20
43719.5004115661
 30
0.0
 11
14084.30628950453
 21
43729.12534858539
 31
0.0
  0
LINE
  5
E299
330
1F
100
AcDbEntity
  8
freecads.com
100
AcDbLine
 10
13695.5444023717
 20
43626.04121140737
 30
0.0
 11
13889.06241465863
 21
43616.75811966772
 31
0.0
  0
LINE
  5
E29A
330
1F
100
AcDbEntity
  8
freecads.com
100
AcDbLine
 10
13695.5444023717
 20
43626.04121140737
 30
0.0
 11
13498.55648268775
 21
43635.86742649844
 31
0.0
  0
LINE
  5
E29B
330
1F
100
AcDbEntity
  8
freecads.com
100
AcDbLine
 10
13499.83615237129
 20
43685.03276733001
 30
0.0
 11
13591.87375588882
 21
43683.90889531318
 31
0.0
  0
LINE
  5
E29C
330
1F
100
AcDbEntity
  8
freecads.com
100
AcDbLine
 10
15966.18937704373
 20
43416.51506099609
 30
0.0
 11
15832.79971975057
 21
43501.34453774056
 31
0.0
  0
LINE
  5
E29D
330
1F
100
AcDbEntity
  8
freecads.com
100
AcDbLine
 10
15962.66289147193
 20
43411.61469513078
 30
0.0
 11
15829.77056453549
 21
43496.12789342622
 31
0.0
  0
LINE
  5
E29E
330
1F
100
AcDbEntity
  8
freecads.com
100
AcDbLine
 10
16098.1388328232
 20
43309.72292157862
 30
0.0
 11
15966.18937704373
 21
43416.51506099609
 31
0.0
  0
LINE
  5
E29F
330
1F
100
AcDbEntity
  8
freecads.com
100
AcDbLine
 10
16094.28749082912
 20
43305.08547542098
 30
0.0
 11
15962.66289147193
 21
43411.61469513078
 31
0.0
  0
LINE
  5
E2A0
330
1F
100
AcDbEntity
  8
freecads.com
100
AcDbLine
 10
15810.45764093252
 20
43506.54811573572
 30
0.0
 11
15759.04807884482
 21
43507.17587836772
 31
0.0
  0
LINE
  5
E2A1
330
1F
100
AcDbEntity
  8
freecads.com
100
AcDbLine
 10
15720.17180581913
 20
43507.65059689256
 30
0.0
 11
15759.04807884482
 21
43507.17587836772
 31
0.0
  0
LINE
  5
E2A2
330
1F
100
AcDbEntity
  8
freecads.com
100
AcDbLine
 10
13869.8083874993
 20
43711.26079146844
 30
0.0
 11
13959.88806952262
 21
43710.16082764883
 31
0.0
  0
LINE
  5
E2A3
330
1F
100
AcDbEntity
  8
freecads.com
100
AcDbLine
 10
15432.55667793881
 20
43628.34650366809
 30
0.0
 11
15342.01764491154
 21
43629.45207662698
 31
0.0
  0
LINE
  5
E2A4
330
1F
100
AcDbEntity
  8
freecads.com
100
AcDbLine
 10
14328.39262341399
 20
43714.2271619808
 30
0.0
 11
14239.50982756451
 21
43715.31251061239
 31
0.0
  0
LINE
  5
E2A5
330
1F
100
AcDbEntity
  8
freecads.com
100
AcDbLine
 10
16141.88605991636
 20
43264.45052540573
 30
0.0
 11
16098.1388328232
 21
43309.72292157862
 31
0.0
  0
LINE
  5
E2A6
330
1F
100
AcDbEntity
  8
freecads.com
100
AcDbLine
 10
16073.91283130187
 20
43260.99074222447
 30
0.0
 11
16137.64879000823
 21
43260.21246185082
 31
0.0
  0
LINE
  5
E2A7
330
1F
100
AcDbEntity
  8
freecads.com
100
AcDbLine
 10
16073.91283130187
 20
43260.99074222447
 30
0.0
 11
16044.17807580855
 21
43261.35383359527
 31
0.0
  0
LINE
  5
E2A8
330
1F
100
AcDbEntity
  8
freecads.com
100
AcDbLine
 10
13197.68786353811
 20
43688.63631917322
 30
0.0
 11
13599.91511419535
 21
43715.35446961828
 31
0.0
  0
LINE
  5
E2A9
330
1F
100
AcDbEntity
  8
freecads.com
100
AcDbLine
 10
13417.27728395221
 20
43621.12101735436
 30
0.0
 11
13412.24861214139
 21
43636.92133269369
 31
0.0
  0
LINE
  5
E2AA
330
1F
100
AcDbEntity
  8
freecads.com
100
AcDbLine
 10
16288.2359240608
 20
43206.55732383573
 30
0.0
 11
16272.54285624688
 21
43206.74895203008
 31
0.0
  0
LINE
  5
E2AB
330
1F
100
AcDbEntity
  8
freecads.com
100
AcDbLine
 10
14252.86843147072
 20
43600.69518403726
 30
0.0
 11
14082.82690214911
 21
43607.97341595564
 31
0.0
  0
LINE
  5
E2AC
330
1F
100
AcDbEntity
  8
freecads.com
100
AcDbLine
 10
14082.82690214911
 20
43607.97341595564
 30
0.0
 11
13889.06241465863
 21
43616.75811966772
 31
0.0
  0
LINE
  5
E2AD
330
1F
100
AcDbEntity
  8
freecads.com
100
AcDbLine
 10
15343.57899780689
 20
43648.30400245863
 30
0.0
 11
15072.88594107432
 21
43691.3480296584
 31
0.0
  0
LINE
  5
E2AE
330
1F
100
AcDbEntity
  8
freecads.com
100
AcDbLine
 10
13940.7545687205
 20
42969.15939960539
 30
0.0
 11
13825.83061869634
 21
42970.56273700835
 31
0.0
  0
LINE
  5
E2AF
330
1F
100
AcDbEntity
  8
freecads.com
100
AcDbLine
 10
14352.70819344962
 20
43097.21369466342
 30
0.0
 11
14355.57219108549
 21
43331.75595119746
 31
0.0
  0
LINE
  5
E2B0
330
1F
100
AcDbEntity
  8
freecads.com
100
AcDbLine
 10
15399.01820913366
 20
42771.69690173078
 30
0.0
 11
15332.88949432458
 21
42772.50440007106
 31
0.0
  0
LINE
  5
E2B1
330
1F
100
AcDbEntity
  8
freecads.com
100
AcDbLine
 10
15793.394906449
 20
42884.06500010248
 30
0.0
 11
15713.90509434475
 21
42885.03565092379
 31
0.0
  0
LINE
  5
E2B2
330
1F
100
AcDbEntity
  8
freecads.com
100
AcDbLine
 10
13577.81058298974
 20
42760.84988900157
 30
0.0
 11
13527.9638354578
 21
42761.45856809076
 31
0.0
  0
LINE
  5
E2B3
330
1F
100
AcDbEntity
  8
freecads.com
100
AcDbLine
 10
13527.9638354578
 20
42761.45856809076
 30
0.0
 11
13489.90010034329
 21
42761.92336470774
 31
0.0
  0
LINE
  5
E2B4
330
1F
100
AcDbEntity
  8
freecads.com
100
AcDbLine
 10
13489.90010034329
 20
42761.92336470774
 30
0.0
 11
13487.22840808575
 21
42761.9559887663
 31
0.0
  0
LINE
  5
E2B5
330
1F
100
AcDbEntity
  8
freecads.com
100
AcDbLine
 10
13859.19479664333
 20
42732.66548913341
 30
0.0
 11
13856.52310438578
 21
42732.69811319194
 31
0.0
  0
LINE
  5
E2B6
330
1F
100
AcDbEntity
  8
freecads.com
100
AcDbLine
 10
15332.88949432458
 20
42772.50440007106
 30
0.0
 11
15330.21780206702
 21
42772.53702412958
 31
0.0
  0
LINE
  5
E2B7
330
1F
100
AcDbEntity
  8
freecads.com
100
AcDbLine
 10
15713.90509434475
 20
42885.03565092379
 30
0.0
 11
15711.23340208719
 21
42885.06827498235
 31
0.0
  0
LINE
  5
E2B8
330
1F
100
AcDbEntity
  8
freecads.com
100
AcDbLine
 10
16093.50506400413
 20
43079.07720090482
 30
0.0
 11
16093.36977599651
 21
43078.9438710292
 31
0.0
  0
LINE
  5
E2B9
330
1F
100
AcDbEntity
  8
freecads.com
100
AcDbLine
 10
16132.9047642589
 20
43122.16960174833
 30
0.0
 11
16044.32278788087
 21
43123.25127707059
 31
0.0
  0
LINE
  5
E2BA
330
1F
100
AcDbEntity
  8
freecads.com
100
AcDbLine
 10
14600.96208201497
 20
42726.50699721531
 30
0.0
 11
14598.28455382344
 21
42726.53969253647
 31
0.0
  0
LINE
  5
E2BB
330
1F
100
AcDbEntity
  8
freecads.com
100
AcDbLine
 10
14715.66438319404
 20
43210.07024773441
 30
0.0
 11
14715.16074137969
 21
43168.82535069191
 31
0.0
  0
LINE
  5
E2BC
330
1F
100
AcDbEntity
  8
freecads.com
100
AcDbLine
 10
13539.27234496552
 20
43687.5498835287
 30
0.0
 11
13501.20860985102
 21
43688.0146801457
 31
0.0
  0
LINE
  5
E2BD
330
1F
100
AcDbEntity
  8
freecads.com
100
AcDbLine
 10
13501.20860985102
 20
43688.0146801457
 30
0.0
 11
13498.53691759346
 21
43688.04730420424
 31
0.0
  0
LINE
  5
E2BE
330
1F
100
AcDbEntity
  8
freecads.com
100
AcDbLine
 10
13871.10762227709
 20
43708.2462545942
 30
0.0
 11
13868.43593001955
 21
43708.27887865275
 31
0.0
  0
LINE
  5
E2BF
330
1F
100
AcDbEntity
  8
freecads.com
100
AcDbLine
 10
15343.39010239126
 20
43632.43398944266
 30
0.0
 11
15340.7184101337
 21
43632.46661350121
 31
0.0
  0
LINE
  5
E2C0
330
1F
100
AcDbEntity
  8
freecads.com
100
AcDbLine
 10
15721.54426329884
 20
43510.63250970826
 30
0.0
 11
15718.8725710413
 21
43510.6651337668
 31
0.0
  0
LINE
  5
E2C1
330
1F
100
AcDbEntity
  8
freecads.com
100
AcDbLine
 10
16096.29286671329
 20
43307.37960241447
 30
0.0
 11
16096.16087474409
 21
43307.51619604834
 31
0.0
  0
LINE
  5
E2C2
330
1F
100
AcDbEntity
  8
freecads.com
100
AcDbLine
 10
16134.62857253905
 20
43263.33797381761
 30
0.0
 11
16046.04659616098
 21
43264.41964913988
 31
0.0
  0
LINE
  5
E2C3
330
1F
100
AcDbEntity
  8
freecads.com
100
AcDbLine
 10
14715.664383194
 20
43210.07024773446
 30
0.0
 11
14716.16802500834
 21
43251.31514477697
 31
0.0
  0
ENDSEC
  0
SECTION
  2
OBJECTS
  0
DICTIONARY
  5
C
330
0
100
AcDbDictionary
281
     1
  3
ACAD_CIP_PREVIOUS_PRODUCT_INFO
350
1A5
  3
ACAD_COLOR
350
73
  3
ACAD_DETAILVIEWSTYLE
350
1AB
  3
ACAD_GROUP
350
D
  3
ACAD_IMAGE_DICT
350
A5B8
  3
ACAD_IMAGE_VARS
350
A5B9
  3
ACAD_LAYOUT
350
1A
  3
ACAD_MATERIAL
350
72
  3
ACAD_MLEADERSTYLE
350
D7
  3
ACAD_MLINESTYLE
350
17
  3
ACAD_PLOTSETTINGS
350
19
  3
ACAD_PLOTSTYLENAME
350
E
  3
ACAD_SCALELIST
350
B6
  3
ACAD_SECTIONVIEWSTYLE
350
1A8
  3
ACAD_TABLESTYLE
350
86
  3
ACAD_VISUALSTYLE
350
99
  3
ACDB_RECOMPOSE_DATA
350
E2D9
  3
AcDbVariableDictionary
350
66
  3
AEC_PROPERTY_SET_DEFS
350
268B
  0
DICTIONARY
  5
18E
330
2
100
AcDbDictionary
280
     1
281
     1
  3
ACAD_LAYERSTATES
360
18F
  0
DICTIONARY
  5
E6
330
10
100
AcDbDictionary
280
     1
281
     1
  0
DICTIONARY
  5
15D
330
1F
100
AcDbDictionary
280
     1
281
     1
  3
ACAD_SORTENTS
360
28E
  0
XRECORD
  5
1A5
102
{ACAD_REACTORS
330
C
102
}
330
C
100
AcDbXrecord
280
     1
300
ACD
300
2022
300

  0
DICTIONARY
  5
73
102
{ACAD_REACTORS
330
C
102
}
330
C
100
AcDbDictionary
281
     1
  0
DICTIONARY
  5
1AB
102
{ACAD_REACTORS
330
C
102
}
330
C
100
AcDbDictionary
281
     1
  3
Imperial24
350
1AC
  3
Metric50
350
224
  0
DICTIONARY
  5
D
102
{ACAD_REACTORS
330
C
102
}
330
C
100
AcDbDictionary
281
     1
  0
DICTIONARY
  5
A5B8
102
{ACAD_REACTORS
330
C
102
}
330
C
100
AcDbDictionary
281
     1
  0
RASTERVARIABLES
  5
A5B9
102
{ACAD_REACTORS
330
C
102
}
330
C
100
AcDbRasterVariables
 90
        0
 70
     1
 71
     1
 72
     5
  0
DICTIONARY
  5
1A
102
{ACAD_REACTORS
330
C
102
}
330
C
100
AcDbDictionary
281
     1
  3
Layout1
350
59
  3
Layout2
350
5E
  3
Model
350
22
  0
DICTIONARY
  5
72
102
{ACAD_REACTORS
330
C
102
}
330
C
100
AcDbDictionary
281
     1
  3
ByBlock
350
97
  3
ByLayer
350
96
  3
Global
350
98
  0
DICTIONARY
  5
D7
102
{ACAD_REACTORS
330
C
102
}
330
C
100
AcDbDictionary
281
     1
  3
Standard
350
D8
  0
DICTIONARY
  5
17
102
{ACAD_REACTORS
330
C
102
}
330
C
100
AcDbDictionary
281
     1
  3
Standard
350
18
  0
DICTIONARY
  5
19
102
{ACAD_REACTORS
330
C
102
}
330
C
100
AcDbDictionary
281
     1
  0
ACDBDICTIONARYWDFLT
  5
E
102
{ACAD_REACTORS
330
C
102
}
330
C
100
AcDbDictionary
281
     1
  3
Normal
350
F
100
AcDbDictionaryWithDefault
340
F
  0
DICTIONARY
  5
B6
102
{ACAD_REACTORS
330
C
102
}
330
C
100
AcDbDictionary
281
     1
  3
*A1
350
47D1
  3
*A2
350
8BD6
  3
A0
350
B7
  3
A1
350
124
  3
A2
350
125
  3
A3
350
126
  3
A4
350
127
  3
A5
350
128
  3
A6
350
129
  3
A7
350
12A
  3
A8
350
12B
  3
A9
350
12C
  3
B0
350
12D
  3
B1
350
12E
  3
B2
350
12F
  3
B3
350
130
  3
B4
350
131
  3
B5
350
132
  3
B6
350
133
  3
B7
350
134
  3
B8
350
135
  3
B9
350
136
  3
C0
350
137
  3
C1
350
138
  3
C2
350
139
  3
C3
350
13A
  3
C4
350
13B
  3
C5
350
13C
  3
C6
350
13D
  3
C7
350
13E
  3
C8
350
13F
  3
C9
350
140
  3
D0
350
141
  3
D1
350
142
  3
D2
350
143
  0
DICTIONARY
  5
1A8
102
{ACAD_REACTORS
330
C
102
}
330
C
100
AcDbDictionary
281
     1
  3
Imperial24
350
1AA
  3
Metric50
350
223
  0
DICTIONARY
  5
86
102
{ACAD_REACTORS
330
C
102
}
330
C
100
AcDbDictionary
281
     1
  3
Standard
350
87
  0
DICTIONARY
  5
99
102
{ACAD_REACTORS
330
C
102
}
330
C
100
AcDbDictionary
281
     1
  3
2dWireframe
350
9F
  3
3dWireframe
350
2684
  3
Basic
350
9E
  3
Brighten
350
A5
  3
ColorChange
350
A9
  3
Conceptual
350
A2
  3
Dim
350
A4
  3
EdgeColorOff
350
175
  3
Facepattern
350
A8
  3
Flat
350
9A
  3
FlatWithEdges
350
9B
  3
Gouraud
350
9C
  3
GouraudWithEdges
350
9D
  3
Hidden
350
A1
  3
JitterOff
350
173
  3
Linepattern
350
A7
  3
OverhangOff
350
174
  3
Realistic
350
A3
  3
Shaded
350
182
  3
Shaded with edges
350
181
  3
Shades of Gray
350
17E
  3
Sketchy
350
17F
  3
Thicken
350
A6
  3
Wireframe
350
A0
  3
X-Ray
350
180
  0
XRECORD
  5
E2D9
102
{ACAD_REACTORS
330
C
102
}
330
C
100
AcDbXrecord
280
     1
 90
        1
330
87
  0
DICTIONARY
  5
66
102
{ACAD_REACTORS
330
C
102
}
330
C
100
AcDbDictionary
281
     1
  3
CANNOSCALE
350
F0
  3
CMLEADERSTYLE
350
EF
  3
CTABLESTYLE
350
89
  3
CVIEWDETAILSTYLE
350
1B7
  3
CVIEWSECTIONSTYLE
350
1B8
  3
DIMASSOC
350
67
  3
HIDETEXT
350
6B
  3
LAYEREVAL
350
14D
  3
LAYERNOTIFY
350
14E
  0
DICTIONARY
  5
268B
102
{ACAD_REACTORS
330
C
102
}
330
C
100
AcDbDictionary
281
     1
  0
DICTIONARY
  5
18F
102
{ACAD_REACTORS
330
18E
102
}
330
18E
100
AcDbDictionary
281
     1
  0
SORTENTSTABLE
  5
28E
102
{ACAD_REACTORS
330
15D
102
}
330
15D
100
AcDbSortentsTable
330
1F
  0
ACDBDETAILVIEWSTYLE
  5
1AC
102
{ACAD_REACTORS
330
1AB
102
}
330
1AB
100
AcDbModelDocViewStyle
 70
     0
  3
Imperial24
290
     0
300
Imperial24
 90
        0
100
AcDbDetailViewStyle
 70
     0
 71
     0
 90
        3
 71
     1
340
11
 62
   256
 40
0.24
340
0
 62
   256
 40
0.24
300

 40
0.36
280
     3
 71
     2
340
16
 90
       25
 62
   256
 71
     3
340
11
 62
   256
 40
0.24
 90
        1
 40
0.75
 90
        1
300
%<\AcVar ViewType \f "%tc1">% %<\AcVar ViewDetailId>%\PSCALE %<\AcVar ViewScale \f "%sn">%
 71
     4
340
16
 90
       25
 62
   256
340
16
 90
       25
 62
   256
280
     0
  0
ACDBDETAILVIEWSTYLE
  5
224
102
{ACAD_REACTORS
330
1AB
102
}
330
1AB
100
AcDbModelDocViewStyle
 70
     0
  3
Metric50
290
     0
300
Metric50
 90
        0
100
AcDbDetailViewStyle
 70
     0
 71
     0
 90
        3
 71
     1
340
11
 62
   256
 40
5.0
340
0
 62
   256
 40
5.0
300

 40
0.0
280
     1
 71
     2
340
16
 90
       25
 62
   256
 71
     3
340
11
 62
   256
 40
5.0
 90
        0
 40
15.0
 90
        1
300
%<\AcVar ViewDetailId>% (%<\AcVar ViewScale \f "%sn">%)
 71
     4
340
16
 90
       25
 62
   256
340
16
 90
       25
 62
   256
280
     0
  0
LAYOUT
  5
59
102
{ACAD_REACTORS
330
1A
102
}
330
1A
100
AcDbPlotSettings
  1

  2
None
  4

  6

 40
0.0
 41
0.0
 42
0.0
 43
0.0
 44
0.0
 45
0.0
 46
0.0
 47
0.0
 48
0.0
 49
0.0
140
0.0
141
0.0
142
1.0
143
1.0
 70
   688
 72
     0
 73
     0
 74
     5
  7

 75
    16
147
1.0
 76
     0
 77
     2
 78
   300
148
0.0
149
0.0
100
AcDbLayout
  1
Layout1
 70
     1
 71
     1
 10
0.0
 20
0.0
 11
12.0
 21
9.0
 12
0.0
 22
0.0
 32
0.0
 14
0.0
 24
0.0
 34
0.0
 15
0.0
 25
0.0
 35
0.0
146
0.0
 13
0.0
 23
0.0
 33
0.0
 16
1.0
 26
0.0
 36
0.0
 17
0.0
 27
1.0
 37
0.0
 76
     0
330
58
  0
LAYOUT
  5
5E
102
{ACAD_REACTORS
330
1A
102
}
330
1A
100
AcDbPlotSettings
  1

  2
None
  4

  6

 40
0.0
 41
0.0
 42
0.0
 43
0.0
 44
0.0
 45
0.0
 46
0.0
 47
0.0
 48
0.0
 49
0.0
140
0.0
141
0.0
142
1.0
143
1.0
 70
   688
 72
     0
 73
     0
 74
     5
  7

 75
    16
147
1.0
 76
     0
 77
     2
 78
   300
148
0.0
149
0.0
100
AcDbLayout
  1
Layout2
 70
     1
 71
     2
 10
0.0
 20
0.0
 11
12.0
 21
9.0
 12
0.0
 22
0.0
 32
0.0
 14
0.0
 24
0.0
 34
0.0
 15
0.0
 25
0.0
 35
0.0
146
0.0
 13
0.0
 23
0.0
 33
0.0
 16
1.0
 26
0.0
 36
0.0
 17
0.0
 27
1.0
 37
0.0
 76
     0
330
5D
  0
LAYOUT
  5
22
102
{ACAD_XDICTIONARY
360
194
102
}
102
{ACAD_REACTORS
330
1A
102
}
330
1A
100
AcDbPlotSettings
  1

  2
none_device
  4
ANSI_A_(8.50_x_11.00_Inches)
  6

 40
6.349999904632568
 41
19.04999923706055
 42
6.350006103515625
 43
19.04998779296875
 44
215.8999938964844
 45
279.3999938964844
 46
0.0
 47
0.0
 48
0.0
 49
0.0
140
0.0
141
0.0
142
1.0
143
2.584895464708373
 70
 11952
 72
     0
 73
     1
 74
     0
  7

 75
     0
147
0.3868628397755418
 76
     0
 77
     2
 78
   300
148
0.0
149
0.0
100
AcDbLayout
  1
Model
 70
     1
 71
     0
 10
0.0
 20
0.0
 11
12.0
 21
9.0
 12
0.0
 22
0.0
 32
0.0
 14
0.0
 24
0.0
 34
0.0
 15
0.0
 25
0.0
 35
0.0
146
0.0
 13
0.0
 23
0.0
 33
0.0
 16
1.0
 26
0.0
 36
0.0
 17
0.0
 27
1.0
 37
0.0
 76
     0
330
1F
331
94
  0
MATERIAL
  5
97
102
{ACAD_XDICTIONARY
360
188
102
}
102
{ACAD_REACTORS
330
72
102
}
330
72
100
AcDbMaterial
  1
ByBlock
 94
       63
  0
MATERIAL
  5
96
102
{ACAD_XDICTIONARY
360
186
102
}
102
{ACAD_REACTORS
330
72
102
}
330
72
100
AcDbMaterial
  1
ByLayer
 94
       63
  0
MATERIAL
  5
98
102
{ACAD_XDICTIONARY
360
110
102
}
102
{ACAD_REACTORS
330
72
102
}
330
72
100
AcDbMaterial
  1
Global
 43
0.0208000000566244
 43
0.0
 43
0.0
 43
0.0
 43
0.0
 43
0.0208000000566244
 43
0.0
 43
0.0
 43
0.0
 43
0.0
 43
1.0
 43
0.0
 43
0.0
 43
0.0
 43
0.0
 43
1.0
 49
0.0208000000566244
 49
0.0
 49
0.0
 49
0.0
 49
0.0
 49
0.0208000000566244
 49
0.0
 49
0.0
 49
0.0
 49
0.0
 49
1.0
 49
0.0
 49
0.0
 49
0.0
 49
0.0
 49
1.0
142
0.0208000000566244
142
0.0
142
0.0
142
0.0
142
0.0
142
0.0208000000566244
142
0.0
142
0.0
142
0.0
142
0.0
142
1.0
142
0.0
142
0.0
142
0.0
142
0.0
142
1.0
144
0.0208000000566244
144
0.0
144
0.0
144
0.0
144
0.0
144
0.0208000000566244
144
0.0
144
0.0
144
0.0
144
0.0
144
1.0
144
0.0
144
0.0
144
0.0
144
0.0
144
1.0
 94
       63
1001
ACAD
1070
    -1
1070
     3
1070
     0
1000

1071
        0
1070
     0
  0
MLEADERSTYLE
  5
D8
102
{ACAD_REACTORS
330
D7
102
}
330
D7
100
AcDbMLeaderStyle
179
     2
170
     2
171
     1
172
     0
 90
        2
 40
0.0
 41
0.0
173
     1
 91
-1056964608
340
14
 92
       -2
290
     1
 42
0.09
291
     1
 43
0.36
  3
Standard
 44
0.18
300

342
11
174
     1
178
     1
175
     1
176
     0
 93
-1056964608
 45
0.18
292
     0
297
     0
 46
0.18
 94
-1056964608
 47
1.0
 49
1.0
140
1.0
293
     1
141
0.0
294
     1
177
     0
142
1.0
295
     0
296
     0
143
0.125
271
     0
272
     9
273
     9
298
     0
  0
MLINESTYLE
  5
18
102
{ACAD_REACTORS
330
17
102
}
330
17
100
AcDbMlineStyle
  2
STANDARD
 70
     0
  3

 62
   256
 51
90.0
 52
90.0
 71
     2
 49
0.5
 62
   256
  6
BYLAYER
 49
-0.5
 62
   256
  6
BYLAYER
  0
ACDBPLACEHOLDER
  5
F
102
{ACAD_REACTORS
330
E
102
}
330
E
  0
SCALE
  5
47D1
102
{ACAD_REACTORS
330
B6
102
}
330
B6
100
AcDbScale
 70
     0
300
1:100_1_XREF_XREF_XREF_XREF
140
1.0
141
0.1
290
     0
  0
SCALE
  5
8BD6
102
{ACAD_REACTORS
330
B6
102
}
330
B6
100
AcDbScale
 70
     0
300
1:100_1_XREF_XREF_XREF_XREF_XREF_XREF_XREF_XREF_XREF
140
1.0
141
0.1
290
     0
1001
ACAD
1000
AcRTDxfName
1000
SCALE
1000
AcRTDxfName
1000
SCALE
1000
AcRTDxfName
1000
SCALE
1000
AcRTDxfName
1000
SCALE
  0
SCALE
  5
B7
102
{ACAD_REACTORS
330
B6
102
}
330
B6
100
AcDbScale
 70
     0
300
1:1
140
1.0
141
1.0
290
     1
  0
SCALE
  5
124
102
{ACAD_REACTORS
330
B6
102
}
330
B6
100
AcDbScale
 70
     0
300
1:2
140
1.0
141
2.0
290
     0
  0
SCALE
  5
125
102
{ACAD_REACTORS
330
B6
102
}
330
B6
100
AcDbScale
 70
     0
300
1:4
140
1.0
141
4.0
290
     0
  0
SCALE
  5
126
102
{ACAD_REACTORS
330
B6
102
}
330
B6
100
AcDbScale
 70
     0
300
1:5
140
1.0
141
5.0
290
     0
  0
SCALE
  5
127
102
{ACAD_REACTORS
330
B6
102
}
330
B6
100
AcDbScale
 70
     0
300
1:8
140
1.0
141
8.0
290
     0
  0
SCALE
  5
128
102
{ACAD_REACTORS
330
B6
102
}
330
B6
100
AcDbScale
 70
     0
300
1:10
140
1.0
141
10.0
290
     0
  0
SCALE
  5
129
102
{ACAD_REACTORS
330
B6
102
}
330
B6
100
AcDbScale
 70
     0
300
1:16
140
1.0
141
16.0
290
     0
  0
SCALE
  5
12A
102
{ACAD_REACTORS
330
B6
102
}
330
B6
100
AcDbScale
 70
     0
300
1:20
140
1.0
141
20.0
290
     0
  0
SCALE
  5
12B
102
{ACAD_REACTORS
330
B6
102
}
330
B6
100
AcDbScale
 70
     0
300
1:30
140
1.0
141
30.0
290
     0
  0
SCALE
  5
12C
102
{ACAD_REACTORS
330
B6
102
}
330
B6
100
AcDbScale
 70
     0
300
1:40
140
1.0
141
40.0
290
     0
  0
SCALE
  5
12D
102
{ACAD_REACTORS
330
B6
102
}
330
B6
100
AcDbScale
 70
     0
300
1:50
140
1.0
141
50.0
290
     0
  0
SCALE
  5
12E
102
{ACAD_REACTORS
330
B6
102
}
330
B6
100
AcDbScale
 70
     0
300
1:100
140
1.0
141
100.0
290
     0
  0
SCALE
  5
12F
102
{ACAD_REACTORS
330
B6
102
}
330
B6
100
AcDbScale
 70
     0
300
2:1
140
2.0
141
1.0
290
     0
  0
SCALE
  5
130
102
{ACAD_REACTORS
330
B6
102
}
330
B6
100
AcDbScale
 70
     0
300
4:1
140
4.0
141
1.0
290
     0
  0
SCALE
  5
131
102
{ACAD_REACTORS
330
B6
102
}
330
B6
100
AcDbScale
 70
     0
300
8:1
140
8.0
141
1.0
290
     0
  0
SCALE
  5
132
102
{ACAD_REACTORS
330
B6
102
}
330
B6
100
AcDbScale
 70
     0
300
10:1
140
10.0
141
1.0
290
     0
  0
SCALE
  5
133
102
{ACAD_REACTORS
330
B6
102
}
330
B6
100
AcDbScale
 70
     0
300
100:1
140
100.0
141
1.0
290
     0
  0
SCALE
  5
134
102
{ACAD_REACTORS
330
B6
102
}
330
B6
100
AcDbScale
 70
     0
300
1/128" = 1'-0"
140
0.0078125
141
12.0
290
     0
  0
SCALE
  5
135
102
{ACAD_REACTORS
330
B6
102
}
330
B6
100
AcDbScale
 70
     0
300
1/64" = 1'-0"
140
0.015625
141
12.0
290
     0
  0
SCALE
  5
136
102
{ACAD_REACTORS
330
B6
102
}
330
B6
100
AcDbScale
 70
     0
300
1/32" = 1'-0"
140
0.03125
141
12.0
290
     0
  0
SCALE
  5
137
102
{ACAD_REACTORS
330
B6
102
}
330
B6
100
AcDbScale
 70
     0
300
1/16" = 1'-0"
140
0.0625
141
12.0
290
     0
  0
SCALE
  5
138
102
{ACAD_REACTORS
330
B6
102
}
330
B6
100
AcDbScale
 70
     0
300
3/32" = 1'-0"
140
0.09375
141
12.0
290
     0
  0
SCALE
  5
139
102
{ACAD_REACTORS
330
B6
102
}
330
B6
100
AcDbScale
 70
     0
300
1/8" = 1'-0"
140
0.125
141
12.0
290
     0
  0
SCALE
  5
13A
102
{ACAD_REACTORS
330
B6
102
}
330
B6
100
AcDbScale
 70
     0
300
3/16" = 1'-0"
140
0.1875
141
12.0
290
     0
  0
SCALE
  5
13B
102
{ACAD_REACTORS
330
B6
102
}
330
B6
100
AcDbScale
 70
     0
300
1/4" = 1'-0"
140
0.25
141
12.0
290
     0
  0
SCALE
  5
13C
102
{ACAD_REACTORS
330
B6
102
}
330
B6
100
AcDbScale
 70
     0
300
3/8" = 1'-0"
140
0.375
141
12.0
290
     0
  0
SCALE
  5
13D
102
{ACAD_REACTORS
330
B6
102
}
330
B6
100
AcDbScale
 70
     0
300
1/2" = 1'-0"
140
0.5
141
12.0
290
     0
  0
SCALE
  5
13E
102
{ACAD_REACTORS
330
B6
102
}
330
B6
100
AcDbScale
 70
     0
300
3/4" = 1'-0"
140
0.75
141
12.0
290
     0
  0
SCALE
  5
13F
102
{ACAD_REACTORS
330
B6
102
}
330
B6
100
AcDbScale
 70
     0
300
1" = 1'-0"
140
1.0
141
12.0
290
     0
  0
SCALE
  5
140
102
{ACAD_REACTORS
330
B6
102
}
330
B6
100
AcDbScale
 70
     0
300
1-1/2" = 1'-0"
140
1.5
141
12.0
290
     0
  0
SCALE
  5
141
102
{ACAD_REACTORS
330
B6
102
}
330
B6
100
AcDbScale
 70
     0
300
3" = 1'-0"
140
3.0
141
12.0
290
     0
  0
SCALE
  5
142
102
{ACAD_REACTORS
330
B6
102
}
330
B6
100
AcDbScale
 70
     0
300
6" = 1'-0"
140
6.0
141
12.0
290
     0
  0
SCALE
  5
143
102
{ACAD_REACTORS
330
B6
102
}
330
B6
100
AcDbScale
 70
     0
300
1'-0" = 1'-0"
140
12.0
141
12.0
290
     0
  0
ACDBSECTIONVIEWSTYLE
  5
1AA
102
{ACAD_REACTORS
330
1A8
102
}
330
1A8
100
AcDbModelDocViewStyle
 70
     0
  3
Imperial24
290
     0
300
Imperial24
 90
        0
100
AcDbSectionViewStyle
 70
     0
 71
     0
 90
       78
 71
     1
340
11
 62
   256
 40
0.24
340
0
340
0
 62
   256
 40
0.24
300
I, O, Q, S, X, Z
 40
0.48
 90
        3
 40
0.18
 90
        1
 71
     2
340
16
 90
       25
 62
   256
340
16
 90
       50
 62
   256
 40
0.24
 40
0.0
 40
0.24
 71
     3
340
11
 62
   256
 40
0.24
 90
        1
 40
0.75
 90
        1
300
%<\AcVar ViewType \f "%tc1">% %<\AcVar ViewSectionStartId>%-%<\AcVar ViewSectionEndId>%\PSCALE %<\AcVar ViewScale \f "%sn">%
 71
     4
 62
   256
 62
   257
300
ANSI31
 40
1.0
 90
        0
290
     0
290
     0
 90
        6
 40
0.0
 40
1.570796326794896
 40
0.2617993877991494
 40
1.308996938995747
 40
-0.2617993877991494
 40
1.832595714594046
  0
ACDBSECTIONVIEWSTYLE
  5
223
102
{ACAD_REACTORS
330
1A8
102
}
330
1A8
100
AcDbModelDocViewStyle
 70
     0
  3
Metric50
290
     0
300
Metric50
 90
        0
100
AcDbSectionViewStyle
 70
     0
 71
     0
 90
      102
 71
     1
340
11
 62
   256
 40
5.0
340
0
340
0
 62
   256
 40
5.0
300
I, O, Q, S, X, Z
 40
10.0
 90
        0
 40
2.5
 90
        0
 71
     2
340
16
 90
       25
 62
   256
340
16
 90
       50
 62
   256
 40
5.0
 40
2.5
 40
5.0
 71
     3
340
11
 62
   256
 40
5.0
 90
        0
 40
15.0
 90
        1
300
%<\AcVar ViewSectionStartId>%-%<\AcVar ViewSectionEndId>% (%<\AcVar ViewScale \f "%sn">%)
 71
     4
 62
   256
 62
   257
300
ANSI31
 40
1.0
 90
        0
290
     0
290
     0
 90
        6
 40
0.0
 40
1.570796326794896
 40
0.2617993877991494
 40
1.308996938995747
 40
-0.2617993877991494
 40
1.832595714594046
  0
TABLESTYLE
  5
87
102
{ACAD_XDICTIONARY
360
104
102
}
102
{ACAD_REACTORS
330
86
102
}
330
86
100
AcDbTableStyle
280
     0
  3
Standard
 70
     0
 71
     0
 40
0.06
 41
0.06
280
     0
281
     0
  7
Standard
140
0.18
170
     2
 62
     0
 63
     7
283
     0
 90
      512
 91
        0
  1

274
    -2
284
     1
 64
     0
275
    -2
285
     1
 65
     0
276
    -2
286
     1
 66
     0
277
    -2
287
     1
 67
     0
278
    -2
288
     1
 68
     0
279
    -2
289
     1
 69
     0
  7
Standard
140
0.25
170
     5
 62
     0
 63
     7
283
     0
 90
      512
 91
        0
  1

274
    -2
284
     1
 64
     0
275
    -2
285
     1
 65
     0
276
    -2
286
     1
 66
     0
277
    -2
287
     1
 67
     0
278
    -2
288
     1
 68
     0
279
    -2
289
     1
 69
     0
  7
Standard
140
0.18
170
     5
 62
     0
 63
     7
283
     0
 90
      512
 91
        0
  1

274
    -2
284
     1
 64
     0
275
    -2
285
     1
 65
     0
276
    -2
286
     1
 66
     0
277
    -2
287
     1
 67
     0
278
    -2
288
     1
 68
     0
279
    -2
289
     1
 69
     0
  0
VISUALSTYLE
  5
9F
102
{ACAD_REACTORS
330
99
102
}
330
99
100
AcDbVisualStyle
  2
2dWireframe
 70
     4
177
     3
291
     0
 70
    58
 90
        0
176
     1
 90
        2
176
     1
 90
        1
176
     1
 90
        0
176
     1
 40
0.6
176
     1
 40
30.0
176
     1
 62
     7
420
 16777215
176
     1
 90
        1
176
     1
 90
        4
176
     1
 62
     7
176
     1
 62
   257
176
     1
 90
        1
176
     1
 90
        1
176
     1
 40
1.0
176
     1
 90
        0
176
     1
 62
   257
176
     1
 40
1.0
176
     1
 90
        1
176
     1
 90
        6
176
     1
 90
        2
176
     1
 62
     7
176
     1
 90
        5
176
     1
 90
        0
176
     1
 90
        0
176
     1
290
     0
176
     1
 90
        1
176
     1
 40
0.0
176
     1
 90
        0
176
     1
290
     1
176
     1
290
     1
176
     1
290
     0
176
     1
290
     0
176
     1
290
     0
176
     1
290
     0
176
     1
290
     0
176
     1
290
     0
176
     1
290
     0
176
     1
 90
       50
176
     1
 40
0.0
176
     1
 40
1.0
176
     1
 90
        0
176
     1
 62
    18
420
        0
176
     1
 90
       50
176
     1
 90
        3
176
     1
 62
     5
420
      255
176
     1
290
     0
176
     1
 90
       50
176
     1
 90
       50
176
     1
 90
       50
176
     1
290
     0
176
     1
 90
       50
176
     1
 62
   256
176
     0
 40
1.0
176
     0
 90
        2
176
     1
  1
strokes_ogs.tif
176
     1
290
     0
176
     1
 40
1.0
176
     1
 40
1.0
176
     1
  0
VISUALSTYLE
  5
2684
102
{ACAD_REACTORS
330
99
102
}
330
99
100
AcDbVisualStyle
  2
3dWireframe
 70
     5
177
     3
291
     0
 70
    58
 90
        0
176
     1
 90
        2
176
     1
 90
        0
176
     1
 90
        0
176
     1
 40
0.6
176
     1
 40
30.0
176
     1
 62
     7
176
     1
 90
        1
176
     1
 90
        4
176
     1
 62
     7
176
     1
 62
   257
176
     1
 90
        1
176
     1
 90
        1
176
     1
 40
1.0
176
     1
 90
        0
176
     1
 62
   257
176
     1
 40
1.0
176
     1
 90
        1
176
     1
 90
        6
176
     1
 90
        2
176
     1
 62
     7
176
     1
 90
        5
176
     1
 90
        0
176
     1
 90
        0
176
     1
290
     0
176
     1
 90
        1
176
     1
 40
0.0
176
     1
 90
        0
176
     1
290
     0
176
     1
290
     1
176
     1
290
     1
176
     1
290
     0
176
     1
290
     0
176
     1
290
     0
176
     1
290
     0
176
     1
290
     0
176
     1
290
     0
176
     1
 90
       50
176
     1
 40
0.0
176
     1
 40
1.0
176
     1
 90
        0
176
     1
 62
    18
420
        0
176
     1
 90
       50
176
     1
 90
        3
176
     1
 62
     5
420
      255
176
     1
290
     0
176
     1
 90
       50
176
     1
 90
       50
176
     1
 90
       50
176
     1
290
     0
176
     1
 90
       50
176
     1
 62
   256
176
     0
 40
1.0
176
     0
 90
        2
176
     1
  1
strokes_ogs.tif
176
     1
290
     0
176
     1
 40
1.0
176
     1
 40
1.0
176
     1
1001
ACAD
1000
AcRTDxfName
1000
VISUALSTYLE
  0
VISUALSTYLE
  5
9E
102
{ACAD_REACTORS
330
99
102
}
330
99
100
AcDbVisualStyle
  2
Basic
 70
     7
177
     3
291
     1
 70
    58
 90
        1
176
     1
 90
        0
176
     1
 90
        1
176
     1
 90
        0
176
     1
 40
0.6
176
     1
 40
30.0
176
     1
 62
     7
420
 16777215
176
     1
 90
        0
176
     1
 90
        4
176
     1
 62
     7
176
     1
 62
   257
176
     1
 90
        1
176
     1
 90
        1
176
     1
 40
1.0
176
     1
 90
        8
176
     1
 62
     7
176
     1
 40
1.0
176
     1
 90
        1
176
     1
 90
        6
176
     1
 90
        2
176
     1
 62
     7
176
     1
 90
        5
176
     1
 90
        0
176
     1
 90
        0
176
     1
290
     0
176
     1
 90
        1
176
     1
 40
0.0
176
     1
 90
        0
176
     1
290
     0
176
     1
290
     1
176
     1
290
     1
176
     1
290
     0
176
     1
290
     0
176
     1
290
     0
176
     1
290
     0
176
     1
290
     0
176
     1
290
     0
176
     1
 90
       50
176
     1
 40
0.0
176
     1
 40
1.0
176
     1
 90
        0
176
     1
 62
    18
420
        0
176
     1
 90
       50
176
     1
 90
        3
176
     1
 62
     5
420
      255
176
     1
290
     0
176
     1
 90
       50
176
     1
 90
       50
176
     1
 90
       50
176
     1
290
     0
176
     1
 90
       50
176
     1
 62
   256
176
     0
 40
1.0
176
     0
 90
        2
176
     1
  1
strokes_ogs.tif
176
     1
290
     0
176
     1
 40
1.0
176
     1
 40
1.0
176
     1
  0
VISUALSTYLE
  5
A5
102
{ACAD_REACTORS
330
99
102
}
330
99
100
AcDbVisualStyle
  2
Brighten
 70
    12
177
     3
291
     1
 70
    58
 90
        2
176
     1
 90
        2
176
     1
 90
        1
176
     1
 90
        0
176
     1
 40
0.6
176
     1
 40
30.0
176
     1
 62
     7
420
 16777215
176
     1
 90
        1
176
     1
 90
        4
176
     1
 62
     7
176
     1
 62
   257
176
     1
 90
        1
176
     1
 90
        1
176
     1
 40
1.0
176
     1
 90
        8
176
     1
 62
     7
176
     1
 40
1.0
176
     1
 90
        1
176
     1
 90
        6
176
     1
 90
        2
176
     1
 62
     7
176
     1
 90
        5
176
     1
 90
        0
176
     1
 90
        0
176
     1
290
     0
176
     1
 90
        1
176
     1
 40
50.0
176
     1
 90
        0
176
     1
290
     0
176
     1
290
     1
176
     1
290
     1
176
     1
290
     0
176
     1
290
     0
176
     1
290
     0
176
     1
290
     0
176
     1
290
     0
176
     1
290
     0
176
     1
 90
       50
176
     1
 40
0.0
176
     1
 40
1.0
176
     1
 90
        0
176
     1
 62
    18
420
        0
176
     1
 90
       50
176
     1
 90
        3
176
     1
 62
     5
420
      255
176
     1
290
     0
176
     1
 90
       50
176
     1
 90
       50
176
     1
 90
       50
176
     1
290
     0
176
     1
 90
       50
176
     1
 62
   256
176
     0
 40
1.0
176
     0
 90
        2
176
     1
  1
strokes_ogs.tif
176
     1
290
     0
176
     1
 40
1.0
176
     1
 40
1.0
176
     1
  0
VISUALSTYLE
  5
A9
102
{ACAD_REACTORS
330
99
102
}
330
99
100
AcDbVisualStyle
  2
ColorChange
 70
    16
177
     3
291
     1
 70
    58
 90
        2
176
     1
 90
        2
176
     1
 90
        3
176
     1
 90
        0
176
     1
 40
0.6
176
     1
 40
30.0
176
     1
 62
     8
420
  8421504
176
     1
 90
        1
176
     1
 90
        4
176
     1
 62
     7
176
     1
 62
   257
176
     1
 90
        1
176
     1
 90
        1
176
     1
 40
1.0
176
     1
 90
        8
176
     1
 62
     8
420
  8421504
176
     1
 40
1.0
176
     1
 90
        1
176
     1
 90
        6
176
     1
 90
        2
176
     1
 62
     7
176
     1
 90
        5
176
     1
 90
        0
176
     1
 90
        0
176
     1
290
     0
176
     1
 90
        1
176
     1
 40
0.0
176
     1
 90
        0
176
     1
290
     0
176
     1
290
     1
176
     1
290
     1
176
     1
290
     0
176
     1
290
     0
176
     1
290
     0
176
     1
290
     0
176
     1
290
     0
176
     1
290
     0
176
     1
 90
       50
176
     1
 40
0.0
176
     1
 40
1.0
176
     1
 90
        0
176
     1
 62
    18
420
        0
176
     1
 90
       50
176
     1
 90
        3
176
     1
 62
     5
420
      255
176
     1
290
     0
176
     1
 90
       50
176
     1
 90
       50
176
     1
 90
       50
176
     1
290
     0
176
     1
 90
       50
176
     1
 62
   256
176
     0
 40
1.0
176
     0
 90
        2
176
     1
  1
strokes_ogs.tif
176
     1
290
     0
176
     1
 40
1.0
176
     1
 40
1.0
176
     1
  0
VISUALSTYLE
  5
A2
102
{ACAD_REACTORS
330
99
102
}
330
99
100
AcDbVisualStyle
  2
Conceptual
 70
     9
177
     3
291
     0
 70
    58
 90
        3
176
     1
 90
        2
176
     1
 90
        1
176
     1
 90
        0
176
     1
 40
0.6
176
     1
 40
30.0
176
     1
 62
     7
420
 16777215
176
     1
 90
        2
176
     1
 90
        2
176
     1
 62
     7
176
     1
 62
   257
176
     1
 90
        1
176
     1
 90
        1
176
     1
 40
40.0
176
     1
 90
        8
176
     1
 62
     7
176
     1
 40
1.0
176
     1
 90
        1
176
     1
 90
        6
176
     1
 90
        2
176
     1
 62
     7
176
     1
 90
        3
176
     1
 90
        0
176
     1
 90
        0
176
     1
290
     0
176
     1
 90
        1
176
     1
 40
0.0
176
     1
 90
        0
176
     1
290
     0
176
     1
290
     1
176
     1
290
     1
176
     1
290
     0
176
     1
290
     0
176
     1
290
     0
176
     1
290
     0
176
     1
290
     0
176
     1
290
     0
176
     1
 90
       50
176
     1
 40
0.0
176
     1
 40
1.0
176
     1
 90
        0
176
     1
 62
    18
420
        0
176
     1
 90
       50
176
     1
 90
        3
176
     1
 62
     5
420
      255
176
     1
290
     0
176
     1
 90
       50
176
     1
 90
       50
176
     1
 90
       50
176
     1
290
     0
176
     1
 90
       50
176
     1
 62
   256
176
     0
 40
1.0
176
     0
 90
        2
176
     1
  1
strokes_ogs.tif
176
     1
290
     0
176
     1
 40
1.0
176
     1
 40
1.0
176
     1
  0
VISUALSTYLE
  5
A4
102
{ACAD_REACTORS
330
99
102
}
330
99
100
AcDbVisualStyle
  2
Dim
 70
    11
177
     3
291
     1
 70
    58
 90
        2
176
     1
 90
        2
176
     1
 90
        1
176
     1
 90
        0
176
     1
 40
0.6
176
     1
 40
30.0
176
     1
 62
     7
420
 16777215
176
     1
 90
        1
176
     1
 90
        4
176
     1
 62
     7
176
     1
 62
   257
176
     1
 90
        1
176
     1
 90
        1
176
     1
 40
1.0
176
     1
 90
        8
176
     1
 62
     7
176
     1
 40
1.0
176
     1
 90
        1
176
     1
 90
        6
176
     1
 90
        2
176
     1
 62
     7
176
     1
 90
        5
176
     1
 90
        0
176
     1
 90
        0
176
     1
290
     0
176
     1
 90
        1
176
     1
 40
-50.0
176
     1
 90
        0
176
     1
290
     0
176
     1
290
     1
176
     1
290
     1
176
     1
290
     0
176
     1
290
     0
176
     1
290
     0
176
     1
290
     0
176
     1
290
     0
176
     1
290
     0
176
     1
 90
       50
176
     1
 40
0.0
176
     1
 40
1.0
176
     1
 90
        0
176
     1
 62
    18
420
        0
176
     1
 90
       50
176
     1
 90
        3
176
     1
 62
     5
420
      255
176
     1
290
     0
176
     1
 90
       50
176
     1
 90
       50
176
     1
 90
       50
176
     1
290
     0
176
     1
 90
       50
176
     1
 62
   256
176
     0
 40
1.0
176
     0
 90
        2
176
     1
  1
strokes_ogs.tif
176
     1
290
     0
176
     1
 40
1.0
176
     1
 40
1.0
176
     1
  0
VISUALSTYLE
  5
175
102
{ACAD_REACTORS
330
99
102
}
330
99
100
AcDbVisualStyle
  2
EdgeColorOff
 70
    22
177
     3
291
     1
 70
    58
 90
        2
176
     0
 90
        2
176
     0
 90
        0
176
     0
 90
        0
176
     0
 40
0.6
176
     0
 40
30.0
176
     0
 62
     7
420
 16777215
176
     0
 90
        1
176
     0
 90
        4
176
     0
 62
     7
176
     0
 62
   257
176
     0
 90
        1
176
     0
 90
        1
176
     0
 40
1.0
176
     0
 90
        8
176
     2
 62
     7
176
     0
 40
1.0
176
     0
 90
        1
176
     0
 90
        6
176
     0
 90
        2
176
     0
 62
     7
176
     0
 90
        5
176
     0
 90
        0
176
     0
 90
        0
176
     0
290
     0
176
     0
 90
        1
176
     0
 40
0.0
176
     0
 90
        0
176
     0
290
     0
176
     1
290
     1
176
     1
290
     1
176
     1
290
     0
176
     1
290
     0
176
     1
290
     0
176
     1
290
     0
176
     1
290
     0
176
     1
290
     0
176
     1
 90
       50
176
     1
 40
0.0
176
     1
 40
1.0
176
     1
 90
        0
176
     1
 62
    18
420
        0
176
     1
 90
       50
176
     1
 90
        3
176
     1
 62
     5
420
      255
176
     1
290
     0
176
     1
 90
       50
176
     1
 90
       50
176
     1
 90
       50
176
     1
290
     0
176
     1
 90
       50
176
     1
 62
   256
176
     0
 40
1.0
176
     0
 90
        2
176
     1
  1
strokes_ogs.tif
176
     1
290
     0
176
     1
 40
1.0
176
     1
 40
1.0
176
     1
  0
VISUALSTYLE
  5
A8
102
{ACAD_REACTORS
330
99
102
}
330
99
100
AcDbVisualStyle
  2
Facepattern
 70
    15
177
     3
291
     1
 70
    58
 90
        2
176
     1
 90
        2
176
     1
 90
        1
176
     1
 90
        0
176
     1
 40
0.6
176
     1
 40
30.0
176
     1
 62
     7
420
 16777215
176
     1
 90
        1
176
     1
 90
        4
176
     1
 62
     7
176
     1
 62
   257
176
     1
 90
        1
176
     1
 90
        1
176
     1
 40
1.0
176
     1
 90
        8
176
     1
 62
     7
176
     1
 40
1.0
176
     1
 90
        1
176
     1
 90
        6
176
     1
 90
        2
176
     1
 62
     7
176
     1
 90
        5
176
     1
 90
        0
176
     1
 90
        0
176
     1
290
     0
176
     1
 90
        1
176
     1
 40
0.0
176
     1
 90
        0
176
     1
290
     0
176
     1
290
     1
176
     1
290
     1
176
     1
290
     0
176
     1
290
     0
176
     1
290
     0
176
     1
290
     0
176
     1
290
     0
176
     1
290
     0
176
     1
 90
       50
176
     1
 40
0.0
176
     1
 40
1.0
176
     1
 90
        0
176
     1
 62
    18
420
        0
176
     1
 90
       50
176
     1
 90
        3
176
     1
 62
     5
420
      255
176
     1
290
     0
176
     1
 90
       50
176
     1
 90
       50
176
     1
 90
       50
176
     1
290
     0
176
     1
 90
       50
176
     1
 62
   256
176
     0
 40
1.0
176
     0
 90
        2
176
     1
  1
strokes_ogs.tif
176
     1
290
     0
176
     1
 40
1.0
176
     1
 40
1.0
176
     1
  0
VISUALSTYLE
  5
9A
102
{ACAD_REACTORS
330
99
102
}
330
99
100
AcDbVisualStyle
  2
Flat
 70
     0
177
     3
291
     1
 70
    58
 90
        2
176
     1
 90
        1
176
     1
 90
        1
176
     1
 90
        2
176
     1
 40
0.6
176
     1
 40
30.0
176
     1
 62
     7
420
 16777215
176
     1
 90
        0
176
     1
 90
        0
176
     1
 62
     7
176
     1
 62
   257
176
     1
 90
        1
176
     1
 90
        1
176
     1
 40
1.0
176
     1
 90
        8
176
     1
 62
     7
176
     1
 40
1.0
176
     1
 90
        1
176
     1
 90
        6
176
     1
 90
        2
176
     1
 62
     7
176
     1
 90
        5
176
     1
 90
        0
176
     1
 90
        0
176
     1
290
     0
176
     1
 90
       13
176
     1
 40
0.0
176
     1
 90
        0
176
     1
290
     0
176
     1
290
     1
176
     1
290
     1
176
     1
290
     0
176
     1
290
     0
176
     1
290
     0
176
     1
290
     0
176
     1
290
     0
176
     1
290
     0
176
     1
 90
       50
176
     1
 40
0.0
176
     1
 40
1.0
176
     1
 90
        0
176
     1
 62
    18
420
        0
176
     1
 90
       50
176
     1
 90
        3
176
     1
 62
     5
420
      255
176
     1
290
     0
176
     1
 90
       50
176
     1
 90
       50
176
     1
 90
       50
176
     1
290
     0
176
     1
 90
       50
176
     1
 62
   256
176
     0
 40
1.0
176
     0
 90
        2
176
     1
  1
strokes_ogs.tif
176
     1
290
     0
176
     1
 40
1.0
176
     1
 40
1.0
176
     1
  0
VISUALSTYLE
  5
9B
102
{ACAD_REACTORS
330
99
102
}
330
99
100
AcDbVisualStyle
  2
FlatWithEdges
 70
     1
177
     3
291
     1
 70
    58
 90
        2
176
     1
 90
        1
176
     1
 90
        1
176
     1
 90
        2
176
     1
 40
0.6
176
     1
 40
30.0
176
     1
 62
     7
420
 16777215
176
     1
 90
        1
176
     1
 90
        0
176
     1
 62
     7
176
     1
 62
   257
176
     1
 90
        1
176
     1
 90
        1
176
     1
 40
1.0
176
     1
 90
        0
176
     1
 62
   257
176
     1
 40
1.0
176
     1
 90
        1
176
     1
 90
        6
176
     1
 90
        2
176
     1
 62
     7
176
     1
 90
        5
176
     1
 90
        0
176
     1
 90
        0
176
     1
290
     0
176
     1
 90
       13
176
     1
 40
0.0
176
     1
 90
        0
176
     1
290
     0
176
     1
290
     1
176
     1
290
     1
176
     1
290
     0
176
     1
290
     0
176
     1
290
     0
176
     1
290
     0
176
     1
290
     0
176
     1
290
     0
176
     1
 90
       50
176
     1
 40
0.0
176
     1
 40
1.0
176
     1
 90
        0
176
     1
 62
    18
420
        0
176
     1
 90
       50
176
     1
 90
        3
176
     1
 62
     5
420
      255
176
     1
290
     0
176
     1
 90
       50
176
     1
 90
       50
176
     1
 90
       50
176
     1
290
     0
176
     1
 90
       50
176
     1
 62
   256
176
     0
 40
1.0
176
     0
 90
        2
176
     1
  1
strokes_ogs.tif
176
     1
290
     0
176
     1
 40
1.0
176
     1
 40
1.0
176
     1
  0
VISUALSTYLE
  5
9C
102
{ACAD_REACTORS
330
99
102
}
330
99
100
AcDbVisualStyle
  2
Gouraud
 70
     2
177
     3
291
     1
 70
    58
 90
        2
176
     1
 90
        2
176
     1
 90
        1
176
     1
 90
        2
176
     1
 40
0.6
176
     1
 40
30.0
176
     1
 62
     7
420
 16777215
176
     1
 90
        0
176
     1
 90
        0
176
     1
 62
     7
176
     1
 62
   257
176
     1
 90
        1
176
     1
 90
        1
176
     1
 40
1.0
176
     1
 90
        0
176
     1
 62
     7
176
     1
 40
1.0
176
     1
 90
        1
176
     1
 90
        6
176
     1
 90
        2
176
     1
 62
     7
176
     1
 90
        5
176
     1
 90
        0
176
     1
 90
        0
176
     1
290
     0
176
     1
 90
       13
176
     1
 40
0.0
176
     1
 90
        0
176
     1
290
     0
176
     1
290
     1
176
     1
290
     1
176
     1
290
     0
176
     1
290
     0
176
     1
290
     0
176
     1
290
     0
176
     1
290
     0
176
     1
290
     0
176
     1
 90
       50
176
     1
 40
0.0
176
     1
 40
1.0
176
     1
 90
        0
176
     1
 62
    18
420
        0
176
     1
 90
       50
176
     1
 90
        3
176
     1
 62
     5
420
      255
176
     1
290
     0
176
     1
 90
       50
176
     1
 90
       50
176
     1
 90
       50
176
     1
290
     0
176
     1
 90
       50
176
     1
 62
   256
176
     0
 40
1.0
176
     0
 90
        2
176
     1
  1
strokes_ogs.tif
176
     1
290
     0
176
     1
 40
1.0
176
     1
 40
1.0
176
     1
  0
VISUALSTYLE
  5
9D
102
{ACAD_REACTORS
330
99
102
}
330
99
100
AcDbVisualStyle
  2
GouraudWithEdges
 70
     3
177
     3
291
     1
 70
    58
 90
        2
176
     1
 90
        2
176
     1
 90
        1
176
     1
 90
        2
176
     1
 40
0.6
176
     1
 40
30.0
176
     1
 62
     7
420
 16777215
176
     1
 90
        1
176
     1
 90
        0
176
     1
 62
     7
176
     1
 62
   257
176
     1
 90
        1
176
     1
 90
        1
176
     1
 40
1.0
176
     1
 90
        0
176
     1
 62
   257
176
     1
 40
1.0
176
     1
 90
        1
176
     1
 90
        6
176
     1
 90
        2
176
     1
 62
     7
176
     1
 90
        5
176
     1
 90
        0
176
     1
 90
        0
176
     1
290
     0
176
     1
 90
       13
176
     1
 40
0.0
176
     1
 90
        0
176
     1
290
     0
176
     1
290
     1
176
     1
290
     1
176
     1
290
     0
176
     1
290
     0
176
     1
290
     0
176
     1
290
     0
176
     1
290
     0
176
     1
290
     0
176
     1
 90
       50
176
     1
 40
0.0
176
     1
 40
1.0
176
     1
 90
        0
176
     1
 62
    18
420
        0
176
     1
 90
       50
176
     1
 90
        3
176
     1
 62
     5
420
      255
176
     1
290
     0
176
     1
 90
       50
176
     1
 90
       50
176
     1
 90
       50
176
     1
290
     0
176
     1
 90
       50
176
     1
 62
   256
176
     0
 40
1.0
176
     0
 90
        2
176
     1
  1
strokes_ogs.tif
176
     1
290
     0
176
     1
 40
1.0
176
     1
 40
1.0
176
     1
  0
VISUALSTYLE
  5
A1
102
{ACAD_REACTORS
330
99
102
}
330
99
100
AcDbVisualStyle
  2
Hidden
 70
     6
177
     3
291
     0
 70
    58
 90
        1
176
     1
 90
        2
176
     1
 90
        2
176
     1
 90
        0
176
     1
 40
0.6
176
     1
 40
30.0
176
     1
 62
     7
420
 16777215
176
     1
 90
        2
176
     1
 90
        2
176
     1
 62
     7
176
     1
 62
   257
176
     1
 90
        2
176
     1
 90
        1
176
     1
 40
40.0
176
     1
 90
        0
176
     1
 62
   257
176
     1
 40
1.0
176
     1
 90
        1
176
     1
 90
        6
176
     1
 90
        2
176
     1
 62
     7
176
     1
 90
        3
176
     1
 90
        0
176
     1
 90
        0
176
     1
290
     0
176
     1
 90
        1
176
     1
 40
0.0
176
     1
 90
        0
176
     1
290
     0
176
     1
290
     1
176
     1
290
     1
176
     1
290
     0
176
     1
290
     0
176
     1
290
     0
176
     1
290
     0
176
     1
290
     0
176
     1
290
     0
176
     1
 90
       50
176
     1
 40
0.0
176
     1
 40
1.0
176
     1
 90
        0
176
     1
 62
    18
420
        0
176
     1
 90
       50
176
     1
 90
        3
176
     1
 62
     5
420
      255
176
     1
290
     0
176
     1
 90
       50
176
     1
 90
       50
176
     1
 90
       50
176
     1
290
     0
176
     1
 90
       50
176
     1
 62
   256
176
     0
 40
1.0
176
     0
 90
        2
176
     1
  1
strokes_ogs.tif
176
     1
290
     0
176
     1
 40
1.0
176
     1
 40
1.0
176
     1
  0
VISUALSTYLE
  5
173
102
{ACAD_REACTORS
330
99
102
}
330
99
100
AcDbVisualStyle
  2
JitterOff
 70
    20
177
     3
291
     1
 70
    58
 90
        2
176
     0
 90
        2
176
     0
 90
        0
176
     0
 90
        0
176
     0
 40
0.6
176
     0
 40
30.0
176
     0
 62
     7
420
 16777215
176
     0
 90
        1
176
     0
 90
        4
176
     0
 62
     7
176
     0
 62
   257
176
     0
 90
        1
176
     0
 90
        1
176
     0
 40
1.0
176
     0
 90
       10
176
     2
 62
     7
176
     0
 40
1.0
176
     0
 90
        1
176
     0
 90
        6
176
     0
 90
        2
176
     0
 62
     7
176
     0
 90
        5
176
     0
 90
        0
176
     0
 90
        0
176
     0
290
     0
176
     0
 90
        1
176
     0
 40
0.0
176
     0
 90
        0
176
     0
290
     0
176
     1
290
     1
176
     1
290
     1
176
     1
290
     0
176
     1
290
     0
176
     1
290
     0
176
     1
290
     0
176
     1
290
     0
176
     1
290
     0
176
     1
 90
       50
176
     1
 40
0.0
176
     1
 40
1.0
176
     1
 90
        0
176
     1
 62
    18
420
        0
176
     1
 90
       50
176
     1
 90
        3
176
     1
 62
     5
420
      255
176
     1
290
     0
176
     1
 90
       50
176
     1
 90
       50
176
     1
 90
       50
176
     1
290
     0
176
     1
 90
       50
176
     1
 62
   256
176
     0
 40
1.0
176
     0
 90
        2
176
     1
  1
strokes_ogs.tif
176
     1
290
     0
176
     1
 40
1.0
176
     1
 40
1.0
176
     1
  0
VISUALSTYLE
  5
A7
102
{ACAD_REACTORS
330
99
102
}
330
99
100
AcDbVisualStyle
  2
Linepattern
 70
    14
177
     3
291
     1
 70
    58
 90
        2
176
     1
 90
        2
176
     1
 90
        1
176
     1
 90
        0
176
     1
 40
0.6
176
     1
 40
30.0
176
     1
 62
     7
420
 16777215
176
     1
 90
        1
176
     1
 90
        4
176
     1
 62
     7
176
     1
 62
   257
176
     1
 90
        7
176
     1
 90
        7
176
     1
 40
1.0
176
     1
 90
        8
176
     1
 62
     7
176
     1
 40
1.0
176
     1
 90
        1
176
     1
 90
        6
176
     1
 90
        2
176
     1
 62
     7
176
     1
 90
        5
176
     1
 90
        0
176
     1
 90
        0
176
     1
290
     0
176
     1
 90
        1
176
     1
 40
0.0
176
     1
 90
        0
176
     1
290
     0
176
     1
290
     1
176
     1
290
     1
176
     1
290
     0
176
     1
290
     0
176
     1
290
     0
176
     1
290
     0
176
     1
290
     0
176
     1
290
     0
176
     1
 90
       50
176
     1
 40
0.0
176
     1
 40
1.0
176
     1
 90
        0
176
     1
 62
    18
420
        0
176
     1
 90
       50
176
     1
 90
        3
176
     1
 62
     5
420
      255
176
     1
290
     0
176
     1
 90
       50
176
     1
 90
       50
176
     1
 90
       50
176
     1
290
     0
176
     1
 90
       50
176
     1
 62
   256
176
     0
 40
1.0
176
     0
 90
        2
176
     1
  1
strokes_ogs.tif
176
     1
290
     0
176
     1
 40
1.0
176
     1
 40
1.0
176
     1
  0
VISUALSTYLE
  5
174
102
{ACAD_REACTORS
330
99
102
}
330
99
100
AcDbVisualStyle
  2
OverhangOff
 70
    21
177
     3
291
     1
 70
    58
 90
        2
176
     0
 90
        2
176
     0
 90
        0
176
     0
 90
        0
176
     0
 40
0.6
176
     0
 40
30.0
176
     0
 62
     7
420
 16777215
176
     0
 90
        1
176
     0
 90
        4
176
     0
 62
     7
176
     0
 62
   257
176
     0
 90
        1
176
     0
 90
        1
176
     0
 40
1.0
176
     0
 90
        9
176
     2
 62
     7
176
     0
 40
1.0
176
     0
 90
        1
176
     0
 90
        6
176
     0
 90
        2
176
     0
 62
     7
176
     0
 90
        5
176
     0
 90
        0
176
     0
 90
        0
176
     0
290
     0
176
     0
 90
        1
176
     0
 40
0.0
176
     0
 90
        0
176
     0
290
     0
176
     1
290
     1
176
     1
290
     1
176
     1
290
     0
176
     1
290
     0
176
     1
290
     0
176
     1
290
     0
176
     1
290
     0
176
     1
290
     0
176
     1
 90
       50
176
     1
 40
0.0
176
     1
 40
1.0
176
     1
 90
        0
176
     1
 62
    18
420
        0
176
     1
 90
       50
176
     1
 90
        3
176
     1
 62
     5
420
      255
176
     1
290
     0
176
     1
 90
       50
176
     1
 90
       50
176
     1
 90
       50
176
     1
290
     0
176
     1
 90
       50
176
     1
 62
   256
176
     0
 40
1.0
176
     0
 90
        2
176
     1
  1
strokes_ogs.tif
176
     1
290
     0
176
     1
 40
1.0
176
     1
 40
1.0
176
     1
  0
VISUALSTYLE
  5
A3
102
{ACAD_REACTORS
330
99
102
}
330
99
100
AcDbVisualStyle
  2
Realistic
 70
     8
177
     3
291
     0
 70
    58
 90
        2
176
     1
 90
        2
176
     1
 90
        0
176
     1
 90
        2
176
     1
 40
0.6
176
     1
 40
30.0
176
     1
 62
     7
420
 16777215
176
     1
 90
        0
176
     1
 90
        0
176
     1
 62
     7
176
     1
 62
   257
176
     1
 90
        1
176
     1
 90
        1
176
     1
 40
1.0
176
     1
 90
        8
176
     1
 62
   257
176
     1
 40
1.0
176
     1
 90
        1
176
     1
 90
        6
176
     1
 90
        2
176
     1
 62
     7
176
     1
 90
        3
176
     1
 90
        0
176
     1
 90
        0
176
     1
290
     0
176
     1
 90
       13
176
     1
 40
0.0
176
     1
 90
        0
176
     1
290
     0
176
     1
290
     1
176
     1
290
     1
176
     1
290
     0
176
     1
290
     0
176
     1
290
     0
176
     1
290
     0
176
     1
290
     0
176
     1
290
     0
176
     1
 90
       50
176
     1
 40
0.0
176
     1
 40
1.0
176
     1
 90
        0
176
     1
 62
    18
420
        0
176
     1
 90
       50
176
     1
 90
        3
176
     1
 62
     5
420
      255
176
     1
290
     0
176
     1
 90
       50
176
     1
 90
       50
176
     1
 90
       50
176
     1
290
     0
176
     1
 90
       50
176
     1
 62
   256
176
     0
 40
1.0
176
     0
 90
        2
176
     1
  1
strokes_ogs.tif
176
     1
290
     0
176
     1
 40
1.0
176
     1
 40
1.0
176
     1
  0
VISUALSTYLE
  5
182
102
{ACAD_REACTORS
330
99
102
}
330
99
100
AcDbVisualStyle
  2
Shaded
 70
    27
177
     3
291
     0
 70
    58
 90
        2
176
     1
 90
        2
176
     1
 90
        1
176
     1
 90
        2
176
     1
 40
0.6
176
     1
 40
30.0
176
     1
 62
     7
420
 16777215
176
     1
 90
        0
176
     1
 90
        4
176
     1
 62
     7
176
     1
 62
   257
176
     1
 90
        1
176
     1
 90
        1
176
     1
 40
1.0
176
     1
 90
        8
176
     1
 62
   257
176
     1
 40
1.0
176
     1
 90
        1
176
     1
 90
        6
176
     1
 90
        2
176
     1
 62
     8
420
  7895160
176
     1
 90
        3
176
     1
 90
        0
176
     1
 90
        0
176
     1
290
     0
176
     1
 90
        5
176
     1
 40
0.0
176
     1
 90
        0
176
     1
290
     0
176
     1
290
     1
176
     1
290
     1
176
     1
290
     0
176
     1
290
     0
176
     1
290
     0
176
     1
290
     0
176
     1
290
     0
176
     1
290
     0
176
     1
 90
       50
176
     1
 40
0.0
176
     1
 40
1.0
176
     1
 90
        0
176
     1
 62
    18
420
        0
176
     1
 90
       50
176
     1
 90
        3
176
     1
 62
     5
420
      255
176
     1
290
     0
176
     1
 90
       50
176
     1
 90
       50
176
     1
 90
       50
176
     1
290
     0
176
     1
 90
       50
176
     1
 62
   256
176
     0
 40
1.0
176
     0
 90
        2
176
     1
  1
strokes_ogs.tif
176
     1
290
     0
176
     1
 40
1.0
176
     1
 40
1.0
176
     1
  0
VISUALSTYLE
  5
181
102
{ACAD_REACTORS
330
99
102
}
330
99
100
AcDbVisualStyle
  2
Shaded with edges
 70
    26
177
     3
291
     0
 70
    58
 90
        2
176
     1
 90
        2
176
     1
 90
        1
176
     1
 90
        2
176
     1
 40
0.6
176
     1
 40
30.0
176
     1
 62
     7
420
 16777215
176
     1
 90
        1
176
     1
 90
        2
176
     1
 62
     7
176
     1
 62
   257
176
     1
 90
        2
176
     1
 90
        1
176
     1
 40
1.0
176
     1
 90
        8
176
     1
 62
   257
176
     1
 40
1.0
176
     1
 90
        1
176
     1
 90
        6
176
     1
 90
        2
176
     1
 62
     7
176
     1
 90
        3
176
     1
 90
        0
176
     1
 90
        0
176
     1
290
     0
176
     1
 90
        5
176
     1
 40
0.0
176
     1
 90
        0
176
     1
290
     0
176
     1
290
     1
176
     1
290
     1
176
     1
290
     0
176
     1
290
     0
176
     1
290
     0
176
     1
290
     0
176
     1
290
     0
176
     1
290
     0
176
     1
 90
       50
176
     1
 40
0.0
176
     1
 40
1.0
176
     1
 90
        0
176
     1
 62
    18
420
        0
176
     1
 90
       50
176
     1
 90
        3
176
     1
 62
     5
420
      255
176
     1
290
     0
176
     1
 90
       50
176
     1
 90
       50
176
     1
 90
       50
176
     1
290
     0
176
     1
 90
       50
176
     1
 62
   256
176
     0
 40
1.0
176
     0
 90
        2
176
     1
  1
strokes_ogs.tif
176
     1
290
     0
176
     1
 40
1.0
176
     1
 40
1.0
176
     1
  0
VISUALSTYLE
  5
17E
102
{ACAD_REACTORS
330
99
102
}
330
99
100
AcDbVisualStyle
  2
Shades of Gray
 70
    23
177
     3
291
     0
 70
    58
 90
        2
176
     1
 90
        2
176
     1
 90
        3
176
     1
 90
        0
176
     1
 40
0.6
176
     1
 40
30.0
176
     1
 62
     7
420
 16777215
176
     1
 90
        2
176
     1
 90
        2
176
     1
 62
     7
176
     1
 62
     7
176
     1
 90
        1
176
     1
 90
        1
176
     1
 40
40.0
176
     1
 90
        8
176
     1
 62
     7
176
     1
 40
1.0
176
     1
 90
        1
176
     1
 90
        6
176
     1
 90
        2
176
     1
 62
     7
176
     1
 90
        3
176
     1
 90
        0
176
     1
 90
        0
176
     1
290
     0
176
     1
 90
        1
176
     1
 40
0.0
176
     1
 90
        0
176
     1
290
     0
176
     1
290
     1
176
     1
290
     1
176
     1
290
     0
176
     1
290
     0
176
     1
290
     0
176
     1
290
     0
176
     1
290
     0
176
     1
290
     0
176
     1
 90
       50
176
     1
 40
0.0
176
     1
 40
1.0
176
     1
 90
        0
176
     1
 62
    18
420
        0
176
     1
 90
       50
176
     1
 90
        3
176
     1
 62
     5
420
      255
176
     1
290
     0
176
     1
 90
       50
176
     1
 90
       50
176
     1
 90
       50
176
     1
290
     0
176
     1
 90
       50
176
     1
 62
   256
176
     0
 40
1.0
176
     0
 90
        2
176
     1
  1
strokes_ogs.tif
176
     1
290
     0
176
     1
 40
1.0
176
     1
 40
1.0
176
     1
  0
VISUALSTYLE
  5
17F
102
{ACAD_REACTORS
330
99
102
}
330
99
100
AcDbVisualStyle
  2
Sketchy
 70
    24
177
     3
291
     0
 70
    58
 90
        1
176
     1
 90
        2
176
     1
 90
        2
176
     1
 90
        0
176
     1
 40
0.6
176
     1
 40
30.0
176
     1
 62
     7
420
 16777215
176
     1
 90
        2
176
     1
 90
        2
176
     1
 62
     7
176
     1
 62
     7
176
     1
 90
        1
176
     1
 90
        1
176
     1
 40
40.0
176
     1
 90
       11
176
     1
 62
     7
176
     1
 40
1.0
176
     1
 90
        1
176
     1
 90
        6
176
     1
 90
        2
176
     1
 62
     7
176
     1
 90
        6
176
     1
 90
        0
176
     1
 90
        0
176
     1
290
     0
176
     1
 90
        1
176
     1
 40
0.0
176
     1
 90
        0
176
     1
290
     0
176
     1
290
     1
176
     1
290
     1
176
     1
290
     0
176
     1
290
     0
176
     1
290
     0
176
     1
290
     0
176
     1
290
     0
176
     1
290
     0
176
     1
 90
       50
176
     1
 40
0.0
176
     1
 40
1.0
176
     1
 90
        0
176
     1
 62
    18
420
        0
176
     1
 90
       50
176
     1
 90
        3
176
     1
 62
     5
420
      255
176
     1
290
     0
176
     1
 90
       50
176
     1
 90
       50
176
     1
 90
       50
176
     1
290
     0
176
     1
 90
       50
176
     1
 62
   256
176
     0
 40
1.0
176
     0
 90
        2
176
     1
  1
strokes_ogs.tif
176
     1
290
     0
176
     1
 40
1.0
176
     1
 40
1.0
176
     1
  0
VISUALSTYLE
  5
A6
102
{ACAD_REACTORS
330
99
102
}
330
99
100
AcDbVisualStyle
  2
Thicken
 70
    13
177
     3
291
     1
 70
    58
 90
        2
176
     1
 90
        2
176
     1
 90
        1
176
     1
 90
        0
176
     1
 40
0.6
176
     1
 40
30.0
176
     1
 62
     7
420
 16777215
176
     1
 90
        1
176
     1
 90
        4
176
     1
 62
     7
176
     1
 62
   257
176
     1
 90
        1
176
     1
 90
        1
176
     1
 40
1.0
176
     1
 90
       12
176
     1
 62
     7
176
     1
 40
1.0
176
     1
 90
        1
176
     1
 90
        6
176
     1
 90
        2
176
     1
 62
     7
176
     1
 90
        5
176
     1
 90
        0
176
     1
 90
        0
176
     1
290
     0
176
     1
 90
        1
176
     1
 40
0.0
176
     1
 90
        0
176
     1
290
     0
176
     1
290
     1
176
     1
290
     1
176
     1
290
     0
176
     1
290
     0
176
     1
290
     0
176
     1
290
     0
176
     1
290
     0
176
     1
290
     0
176
     1
 90
       50
176
     1
 40
0.0
176
     1
 40
1.0
176
     1
 90
        0
176
     1
 62
    18
420
        0
176
     1
 90
       50
176
     1
 90
        3
176
     1
 62
     5
420
      255
176
     1
290
     0
176
     1
 90
       50
176
     1
 90
       50
176
     1
 90
       50
176
     1
290
     0
176
     1
 90
       50
176
     1
 62
   256
176
     0
 40
1.0
176
     0
 90
        2
176
     1
  1
strokes_ogs.tif
176
     1
290
     0
176
     1
 40
1.0
176
     1
 40
1.0
176
     1
  0
VISUALSTYLE
  5
A0
102
{ACAD_REACTORS
330
99
102
}
330
99
100
AcDbVisualStyle
  2
Wireframe
 70
     5
177
     3
291
     0
 70
    58
 90
        0
176
     1
 90
        2
176
     1
 90
        0
176
     1
 90
        0
176
     1
 40
0.6
176
     1
 40
30.0
176
     1
 62
     7
420
 16777215
176
     1
 90
        1
176
     1
 90
        4
176
     1
 62
     7
176
     1
 62
   257
176
     1
 90
        1
176
     1
 90
        1
176
     1
 40
1.0
176
     1
 90
        0
176
     1
 62
   257
176
     1
 40
1.0
176
     1
 90
        1
176
     1
 90
        6
176
     1
 90
        2
176
     1
 62
     7
176
     1
 90
        3
176
     1
 90
        0
176
     1
 90
        0
176
     1
290
     0
176
     1
 90
        1
176
     1
 40
0.0
176
     1
 90
        0
176
     1
290
     0
176
     1
290
     1
176
     1
290
     1
176
     1
290
     0
176
     1
290
     0
176
     1
290
     0
176
     1
290
     0
176
     1
290
     0
176
     1
290
     0
176
     1
 90
       50
176
     1
 40
0.0
176
     1
 40
1.0
176
     1
 90
        0
176
     1
 62
    18
420
        0
176
     1
 90
       50
176
     1
 90
        3
176
     1
 62
     5
420
      255
176
     1
290
     0
176
     1
 90
       50
176
     1
 90
       50
176
     1
 90
       50
176
     1
290
     0
176
     1
 90
       50
176
     1
 62
   256
176
     0
 40
1.0
176
     0
 90
        2
176
     1
  1
strokes_ogs.tif
176
     1
290
     0
176
     1
 40
1.0
176
     1
 40
1.0
176
     1
  0
VISUALSTYLE
  5
180
102
{ACAD_REACTORS
330
99
102
}
330
99
100
AcDbVisualStyle
  2
X-Ray
 70
    25
177
     3
291
     0
 70
    58
 90
        2
176
     1
 90
        2
176
     1
 90
        1
176
     1
 90
        1
176
     1
 40
0.5
176
     1
 40
30.0
176
     1
 62
     7
420
 16777215
176
     1
 90
        1
176
     1
 90
        0
176
     1
 62
     7
176
     1
 62
   257
176
     1
 90
        1
176
     1
 90
        1
176
     1
 40
1.0
176
     1
 90
        8
176
     1
 62
     7
176
     1
 40
1.0
176
     1
 90
        1
176
     1
 90
        6
176
     1
 90
        2
176
     1
 62
     7
176
     1
 90
        3
176
     1
 90
        0
176
     1
 90
        0
176
     1
290
     0
176
     1
 90
       13
176
     1
 40
0.0
176
     1
 90
        0
176
     1
290
     0
176
     1
290
     1
176
     1
290
     1
176
     1
290
     0
176
     1
290
     0
176
     1
290
     0
176
     1
290
     0
176
     1
290
     0
176
     1
290
     0
176
     1
 90
       50
176
     1
 40
0.0
176
     1
 40
1.0
176
     1
 90
        0
176
     1
 62
    18
420
        0
176
     1
 90
       50
176
     1
 90
        3
176
     1
 62
     5
420
      255
176
     1
290
     0
176
     1
 90
       50
176
     1
 90
       50
176
     1
 90
       50
176
     1
290
     0
176
     1
 90
       50
176
     1
 62
   256
176
     0
 40
1.0
176
     0
 90
        2
176
     1
  1
strokes_ogs.tif
176
     1
290
     0
176
     1
 40
1.0
176
     1
 40
1.0
176
     1
  0
DICTIONARYVAR
  5
F0
102
{ACAD_REACTORS
330
66
102
}
330
66
100
DictionaryVariables
280
     0
  1
1:1
  0
DICTIONARYVAR
  5
EF
102
{ACAD_REACTORS
330
66
102
}
330
66
100
DictionaryVariables
280
     0
  1
STANDARD
  0
DICTIONARYVAR
  5
89
102
{ACAD_REACTORS
330
66
102
}
330
66
100
DictionaryVariables
280
     0
  1
STANDARD
  0
DICTIONARYVAR
  5
1B7
102
{ACAD_REACTORS
330
66
102
}
330
66
100
DictionaryVariables
280
     0
  1
Imperial24
  0
DICTIONARYVAR
  5
1B8
102
{ACAD_REACTORS
330
66
102
}
330
66
100
DictionaryVariables
280
     0
  1
Imperial24
  0
DICTIONARYVAR
  5
67
102
{ACAD_REACTORS
330
66
102
}
330
66
100
DictionaryVariables
280
     0
  1
2
  0
DICTIONARYVAR
  5
6B
102
{ACAD_REACTORS
330
66
102
}
330
66
100
DictionaryVariables
280
     0
  1
1
  0
DICTIONARYVAR
  5
14D
102
{ACAD_REACTORS
330
66
102
}
330
66
100
DictionaryVariables
280
     0
  1
0
  0
DICTIONARYVAR
  5
14E
102
{ACAD_REACTORS
330
66
102
}
330
66
100
DictionaryVariables
280
     0
  1
0
  0
DICTIONARY
  5
194
330
22
100
AcDbDictionary
280
     1
281
     1
  0
DICTIONARY
  5
188
330
97
100
AcDbDictionary
280
     1
281
     1
  3
FBXASSET
360
189
  0
DICTIONARY
  5
186
330
96
100
AcDbDictionary
280
     1
281
     1
  3
FBXASSET
360
187
  0
DICTIONARY
  5
110
330
98
100
AcDbDictionary
280
     1
281
     1
  3
BUMPTILE
360
112
  3
DIFFUSETILE
360
111
  3
FBXASSET
360
18A
  3
OPACITYTILE
360
113
  3
REFLECTIONTILE
360
114
  0
DICTIONARY
  5
104
330
87
100
AcDbDictionary
280
     1
281
     1
  3
ACAD_ROUNDTRIP_2008_TABLESTYLE_CELLSTYLEMAP
360
E2D8
  0
XRECORD
  5
189
102
{ACAD_REACTORS
330
188
102
}
330
188
100
AcDbXrecord
280
     1
 70
     1
 90
429727718
  1
508B35C9-AEE7-456F-BE74-D52651303AC6
310
504B03040A0000080000B670623B3DEE336E79000000790000001B0000006175746F6465736B2D64657369676E2D7061636B6167652E786D6C3C3F786D6C2076657273696F6E3D22312E302220656E636F64696E673D227574662D3822203F3E3C666F726D6174733E3C666F726D61743E687474703A2F2F736368656D612E
310
6175746F6465736B2E636F6D2F64657369676E2D7061636B6167652F323030393C2F666F726D61743E3C2F666F726D6174733E504B0304140006080800B670623BD486FD9CA0000000F4000000130000005B436F6E74656E745F54797065735D2E786D6C7D8EC10E82300C865F65E91D8A1E8C310C0EEA1BF002731658846E
310
D98AC1B77784ABF1D8FE5FBFBF75BBCE937A534CCEB38643598122B6FEE978D0B0485F9C41B54DDD7D022595594E1A469170414C76A4D9A4D207E29CF43ECE46F218070CC6BECC4078ACAA135ACF422C856C0E68EA1BF5669944DDD7BCDE7B1F8E415D77AECB980613C2E4AC91FC167A2B244592486606FC29C8FD7F045B9A
310
EF7053A7E60B504B0304140006080800B670623B28ED286BEB0000007C01000008000000636F72652E786D6C8D90416EC3201045AF82665B6183218D6D61A254764FD00B204C5C94182C03558F5F9C3852BBEB6A467FFE9B197D71FA9E6FE8CBACC17AD7012D0820E3B41FAD9B3A48F1826B40272956EFE32F1B20A766D3C1
310
268314D3EAD3B24BDABB685CCCAAF3A3D94515828980F42D371D04FD696655A814B3235C8B45E9AB9A4C419F5D8653B2237A1CB163DE672FD6AC209BF3C08E0D1B30EB19C3FC9D72FCC6EB231EFA33EDE96BDD341517E5064B11EDFCBCAF57A3A2194156843498524CAA0FCA5B7268F9E185D42D21A2DCEC7FA0B48CFF8492
310
759155FBBB0F2C80A4F991FB408A72CB22977B50B96EB9C91F504B0304140006080800B670623B55019EA25F0000007C00000007000000636E782E786D6C4DCB3B0E80201045D1AD90E915ED2CF8AC45050C11660C8261F98AB1B07AC9C97D42D718D865D3E909258CFD00CCE24AC6E326A164D74DC0B4128928FF32603847
310
2BA13128B1252AC747C6BAB984FC68F0B87FE8960A5C09FE86CFB69FBA01504B0304140006080800B670623B7BC41AC871010000D40300000C0000006662782F636F72652E786D6CC553ED6E8320147D15C2DF4501B56B6D90A64BBB27D80B50A5CE54C120983EFEAE1F4DD7A56BBA5FF3879273EEE59E7310BE393735EA95
310
ED2AA333CC428A91D2B9292A5D66D8BB63B0C26823B835C67D2BC348CB46657880B1E0A535BE9DA1DC68A7B403549B42CDA0EC3AE530CA6B5864B8CB3F552343E91D5474A7B095F949962A6421D0502778E72C0840D390E18DC5F170E664C205F7BE2A66B62A605A75AC94C522DDEEE3651AEF837817C741F2CE92E02D592D
310
83FD6ECB76EC7595A651C2C9D02CB8AB9A8BBADC2AE954814544691A3016D0E883256BBA58278B17BA5A53CAC9507ED3E4DBE2C9265F691747B3DCA9ADC382819091F8E1162272A8933DE82182932144F88C09DF060D8140C84E1EEA8B8F1340BDCA9DB1093085F157AA97B557309586747CD0EF0B4EA64E983A6E0EAEEFCE
310
889E9EF17847386AA94B30211D2C0FDE0D3AF9A4610EAD5536E8DD1969631B593F67E381C33F5157F17725E5A636F6BF1491F980C8FC7B90E13E8A2F504B0304140006080800B670623B70102A487D0000009D0000000B0000006662782F636E782E786D6C4DCCD10A83201886E15B91FFDC95A5C30335ACCDFB886521330D
310
A76397BF1A1DECE883878F57749FD5A3B74D2F17830472A901D9F088930B8B849267CC01754AA418F3DF0D5018572BE160506249B16C274D761E8BCFBB7A179E27F65CB39A0F14D396184C9921B81F34C3ACA1B4B99ABB6E6F062A25AA5F69DF23ACBE504B0304140006080800B670623B3610CA3329010000120200003100
310
00006662782F42384135303843342D343331462D343546312D424341352D3532343432364645413344462F636F72652E786D6C8D515B6EC32010BC0AE22B55850D0E446E848992B43E412FE000495162B07854397EA176A4F62F3F2C9A9D991D58BEBB8F37F0AD7D30CE76905418026DA553C65E3A98E219B510EC04F7CEC5
310
3F3408EC30EA0E16180A7EF12E4D0B249D8DDAC68C5AA7F4020E21E80881BCE54B0783FCD2E3500D296646B856D320AFC34557A4CAEDCC133C449F0380794839A138B47B86DB2345744D7A44594FD0E1B867883594369BFE63BF7EEF793D0B054FC9A8456E548E63CE46FB674D8A58F068C6477CE9F510B582A2C1F80D1182
310
70F349E816B32D65AFB8DD62CCEB42FF274A937A52948C8DEB66893BCB021484D7734370E5D2E9F608A3EF93F3119479ABA0E50B14B8C298119A43CCC4FCFCECB8A18B6388CEE7EF5D5D4F994BD86CBBA182D76543B9FCAE2FD7B24DF103504B0304140006080800B670623B1B8617914E0100003303000030000000666278
310
2F42384135303843342D343331462D343546312D424341352D3532343432364645413344462F636E782E786D6CD593C16EC32010447F0571AD6CE3D489D20813A9877E410FBD62D82434182CC055F3F75D1292E692438FBD206B7698593D61BEFD1E2DF982108D773D6D6B460938E5B571FB9ECE6957AD29D90A1EBC4F7736
310
4A9C1CA1A759A682EF839FA72269D8C9D92654AD71C72206887E0E0A22CAF926B15E498B01E0AA19451807D01A34B919F16B070157417138917400F2F6FA41FCF0092A45DEE414C19BDC21783E4BD39D891265658C3D8DEA00A3ACE59CBC8678ACB54CB26EEB6BD7839D7E9348BE70AD9C8321B9BCA7F9A4A26C542347DEE0
310
50F09802D22BA6749A800A394DD62899107273365E3C82CFC6A55557BC06C10774B7ABE7AEC3B0F34CF06446280E154026D0542C187BA9DAB6628BF7B6DBB0E5A65B3EB1F58631DE64BBE083F7B65CC218087E22CABB042E51D1F2268F1FE12B3EA24D40D63E9CFE00120194D60B9D5BC67FE6D39CDF37E20AF817881F504B
310
0304140006080800B670623BBFEF2E3B690500003C100000340000006662782F42384135303843342D343331462D343546312D424341352D3532343432364645413344462F6F626A656374732E786D6CAD575D739B3814FD2B0CFB0C98D84E931D4227B6938EA793B6534F3BFB90198F0099B001899144EAECAFDF231018B0
310
D37A3FFC609090EEE7B94757C1FB7D915B2F54C88CB31BDB7727B64559CC938CA53776A576CE956DBD0F03C1B9EA2DB32D460A7A63EB693B0C52C1ABD24C257447AA5C8D66EF177F5832A68CDA569C13296F6C193FD182B8A4523CA1F2D94D88226EBADBBBBEDB2C1C8A4D05299F46424B222853B014F30C52ACC6287F389C
310
D85E1878FA7B18E87FB36AFAF62AAFF667A83F635211161F291B8999FAB3D5DDC5FCDA99CF6653677679E13B8BFBC5CAF1DF4D27CBCBE5F2FAF6EE1A8AA51290642C117467871F101B91C581D77CEA2C36869F3229E68CD1B8F61F1ED6361B89092D294B90C78C4A68EB793D190E7D1D9BDEE7A91E1B95FDE9F3BCEAEFE809
310
6A6D6F9F7D4B79F4275C90E7A04248AA51D5C4C738DAE06F72885AC4796EBE65D22A88A22223B995679120E2D50EB1542F098381188D4EA111AE3DB043FF20AF6F2B4AE3D7D83D65E5AECA730D4D3BAC91BD05FEA992B565D95F549CD6069B90AB2A63EACA38A45E4B6A87D781574F86817E4C2FCCC72690D62E2729520E37
310
9BAF234797BAF6D62B3BFC781FED37BA1E4F2B2F052FA9501A3E80569BB8F6A9A364D4FA67654E6F803383981F82F21591FF84F23D9882BC896C3FDBCF8C162508933B2E0AE4C69DD43F6BD2BE38DDDBF10BF86CB4FA784D37F3AF16075E67EC9030DECA1FC0A55373F5DFF3378C591FA9BDF485C10B0A8C8BA909E5262639
310
A8E72163488806A595734C81CB77D1DE0ED7604A303B76913CEC0272F412782FF88EFF4636D8AA56DF7B322474C4B767303F625997056C7B032C473C592B36CEBD15F3F9FF5233B7ABCDC74D257624A60F8658567497B14CE1EC3C80B76FD02011038F9EE9EB0F2E12387A9C844D3F09855125116D1D731DF8B43D2CF4E0A0
310
79A020C6BE946BCE0B7EA1E1219331CD73C228AF5A2DDD31A4B1DA918CE91350854D40A71723140BFA92E94E62B0626016CEFA5864A50E5977E8753CEDBEE1CBB7F52780D20E17AF0BA0F5F9B02A3AD07DCC732EB6D1EBB661421BE0C39E21BABF0FE16D22EA6929407C8DE596724C88B749B6DB5512BC7B228ADFD7CB7EA6
310
3A22397E690BA8D5D8D4E40CEC8CDA23C2C0B7D5898640101CEC9C6D331CE328CB93CAFBBAC70A642DF70DF95155945B52F08AA973C23469FD69ADEF84F7BB18F983A8F8C90E37F5D35980B2139A1C523540813E824EF83448CF7C72B598CE97D7CEEDDDDD3B6736BFBC771677EF66CE6A7E7139F7A793E9EDF2B2B3A8B624
310
0CDA13AA5F8388264EC4A0129909F3B7F5A16CEDF08128E97D680ACA4B9BE7B7B58BB638F0B00700EF36AE8B32A705658A68F83EE897FC2B41573190D1CCAF0B92D233A47CFEB019D9809933F67DD1A5467F8CF69AD9A5AE859342D45355448C64F968A371DC2D596ADC6E43D93D1B466F877A64E2893E54F23C4B40388995
310
525E5005DA3983ED45412510D3EFCA13737B3863F74BD30F2A12E5B4B5E489A025CE25500DB855B11ACE5BBFA185D35DD48D8DC3CE7DC69F2944DB42AA6F6CF09BCA622ADD08C7A36E7C6AE18000BAB08E040135C2D21C9D75B3A91B77BB746C403F38018DFE6EC939DD92F16B40BC05294B9CDA035AAD6D330AE27FE4786B
310
8E45145EA34A75BE1C263A676A35A8ACC6297337400BF16C54EF515F3F77CB77EB3583889C754FFA29081AA98E2222ADEF05DA3E63D2EDEA8B8756C05A7FB6CABC4A91CBF325398202CC952E70A008A830324BA200D5E5EF8F5F04C75DB4B0EE3340E071C98B823333B83577596BF3849B69F2085AA0FAFA212F26BEFF5877
310
FDE622B28D88A42E49E43326DA82D31E8CB006401E1DA726059ECEC168F97A6599036306A135688F9AD2E61A6EA178F4CD51974A9F2CCB9F36FE5EBD14601068D9C3BF01504B0304140006080000B670623B000000000000000000000000350000006662782F42384135303843342D343331462D343546312D424341352D35
310
32343432364645413344462F76657274696365732E62696E504B0304140006080800B670623BF270F1330600000004000000360000006662782F42384135303843342D343331462D343546312D424341352D3532343432364645413344462F747269616E676C65732E62696E636660600000504B0304140006080000B67062
310
3B000000000000000000000000370000006662782F42384135303843342D343331462D343546312D424341352D3532343432364645413344462F617474726962757465732E62696E504B0304140006080800B670623B08DA0BD19000000041010000360000006662782F42384135303843342D343331462D343546312D4243
310
41352D3532343432364645413344462F6469726563746F72792E786D6C858F410AC3201045AF22B36F53E9A60B35CBEEBAE80D244E44489C6234F4F835464A48035D0DF398FF9F8AF63D0E6CC63039F212F8F9020C7D47C6792B21C5FE7403D62A1188E2E60C98D7234A5830286103A55745067B9D86B8A3CF9C7F90C11DE6
310
07FB144396D7B6A82D282E9A152AD114D5EF2CB866EEE831B8EEA07A7BB5A8D7D61A2BAAEB7FD5F70921FF497D00504B0304140006080800B670623B3B4606F3FE000000A00100003B0000006662782F42384135303843342D343331462D343546312D424341352D3532343432364645413344462F7265736F75726365732F
310
636F72652E786D6C8D504B6E833010BD0A9A6D65B08134808CA354A427E8052C332156828DFCA97AFC9A40A576D7CDCCE87D344F8F9FBEE647F689CE6B6B7A6039850C8DB2A336530F315C4903D94970676DF82583CCC8197B5861107C72362E3BA4AC096842428D1D7107A5F71820538F74F4E0D50D6799CB1892C2DFF345
310
AABB9C306779A2934E701F5C0A906D4FD609C2A1B7D129F4BCD858C163D4E3AED163FAA9AF1A1D88F67CA98E6D35906AA82A52BFB39ABCD5CD915C86331BD86BD3B665CD8BD52C78D0F34F46E550061C419494B6843142CB0F5677F4D0D58717DA7494F26295FF31C565FCA7296A13AA728FBBD93C0896823C09C18BB5AFB4
310
9E65A6BD762BBE01504B010214000A0000080000B670623B3DEE336E79000000790000001B00000000000000000000000000000000006175746F6465736B2D64657369676E2D7061636B6167652E786D6C504B01021400140006080800B670623BD486FD9CA0000000F40000001300000000000000000000000000B2000000
310
5B436F6E74656E745F54797065735D2E786D6C504B01021400140006080800B670623B28ED286BEB0000007C010000080000000000000000000000000083010000636F72652E786D6C504B01021400140006080800B670623B55019EA25F0000007C000000070000000000000000000000000094020000636E782E786D6C50
310
4B01021400140006080800B670623B7BC41AC871010000D40300000C00000000000000000000000000180300006662782F636F72652E786D6C504B01021400140006080800B670623B70102A487D0000009D0000000B00000000000000000000000000B30400006662782F636E782E786D6C504B01021400140006080800B6
310
70623B3610CA3329010000120200003100000000000000000000000000590500006662782F42384135303843342D343331462D343546312D424341352D3532343432364645413344462F636F72652E786D6C504B01021400140006080800B670623B1B8617914E010000330300003000000000000000000000000000D10600
310
006662782F42384135303843342D343331462D343546312D424341352D3532343432364645413344462F636E782E786D6C504B01021400140006080800B670623BBFEF2E3B690500003C10000034000000000000000000000000006D0800006662782F42384135303843342D343331462D343546312D424341352D35323434
310
32364645413344462F6F626A656374732E786D6C504B01021400140006080000B670623B0000000000000000000000003500000000000000000000000000280E00006662782F42384135303843342D343331462D343546312D424341352D3532343432364645413344462F76657274696365732E62696E504B010214001400
310
06080800B670623BF270F133060000000400000036000000000000000000000000007B0E00006662782F42384135303843342D343331462D343546312D424341352D3532343432364645413344462F747269616E676C65732E62696E504B01021400140006080000B670623B00000000000000000000000037000000000000
310
00000000000000D50E00006662782F42384135303843342D343331462D343546312D424341352D3532343432364645413344462F617474726962757465732E62696E504B01021400140006080800B670623B08DA0BD1900000004101000036000000000000000000000000002A0F00006662782F42384135303843342D3433
310
31462D343546312D424341352D3532343432364645413344462F6469726563746F72792E786D6C504B01021400140006080800B670623B3B4606F3FE000000A00100003B000000000000000000000000000E1000006662782F42384135303843342D343331462D343546312D424341352D3532343432364645413344462F72
310
65736F75726365732F636F72652E786D6C504B0506000000000E000E0080040000651100000000
  0
XRECORD
  5
187
102
{ACAD_REACTORS
330
186
102
}
330
186
100
AcDbXrecord
280
     1
 70
     1
 90
429727718
  1
887D55A9-D0DD-414E-B741-A7DCD4DA2B4C
310
504B03040A0000080000B670623B3DEE336E79000000790000001B0000006175746F6465736B2D64657369676E2D7061636B6167652E786D6C3C3F786D6C2076657273696F6E3D22312E302220656E636F64696E673D227574662D3822203F3E3C666F726D6174733E3C666F726D61743E687474703A2F2F736368656D612E
310
6175746F6465736B2E636F6D2F64657369676E2D7061636B6167652F323030393C2F666F726D61743E3C2F666F726D6174733E504B0304140006080800B670623BD486FD9CA0000000F4000000130000005B436F6E74656E745F54797065735D2E786D6C7D8EC10E82300C865F65E91D8A1E8C310C0EEA1BF002731658846E
310
D98AC1B77784ABF1D8FE5FBFBF75BBCE937A534CCEB38643598122B6FEE978D0B0485F9C41B54DDD7D022595594E1A469170414C76A4D9A4D207E29CF43ECE46F218070CC6BECC4078ACAA135ACF422C856C0E68EA1BF5669944DDD7BCDE7B1F8E415D77AECB980613C2E4AC91FC167A2B244592486606FC29C8FD7F045B9A
310
EF7053A7E60B504B0304140006080800B670623BBC1638F5EC0000007C01000008000000636F72652E786D6C8D90416EC3201045AF82665B61836BE2D8C24471DB9CA01740401C94182C03558F5F9C3852BBEB6A467FFE9B197D7EF89E6EE8CB2CC17AD7032D0820E394D7D68D3DA478C67B4007C117EFE32F1B202727D3C3
310
2A83E0E3E2D3BC49CABB685CCCAAF3DA6CA20CC14440EA969B1E82BA98491632C5EC08D76296EA2A4753D06797E194AC468F2356E77DF66CCD02825543D50CACC62D39ED70FDC68EB8FD68F6F8787A6784342D1DDA1D2F5758F068A7E77DB518198D065111D2624A31A93E69DD11D6D5EC85EC3B4278B9DAFF4069D6FF8492
310
75F1B5DADE7D600104CD8FDC0782976B16B9DC83CA75CD4DFC00504B0304140006080800B670623B55019EA25F0000007C00000007000000636E782E786D6C4DCB3B0E80201045D1AD90E915ED2CF8AC45050C11660C8261F98AB1B07AC9C97D42D718D865D3E909258CFD00CCE24AC6E326A164D74DC0B4128928FF326038
310
472BA13128B1252AC747C6BAB984FC68F0B87FE8960A5C09FE86CFB69FBA01504B0304140006080800B670623B3586FFB671010000D40300000C0000006662782F636F72652E786D6CC553ED6E8320147D15C2DF4541A76D6D90A6DDD627D80B50A4CE54C120983EFEAE1F4DD7A55BBA5FF3879273EEE59E7310B6393735EA
310
95ED2AA3731C851423A5A5292A5DE6D8BB63B0C268C39935C67D29C3488B46E578803167A535BE9D2169B453DA01AA4DA16650749D7218C91A1639EEE4876A4428BC838AEE14B6429E44A9C228041AEA38EB9C0501681A32BC313F1ECE8C4C3867DE57C5CC56054CAB8E95B298A7F12E5EEED224C8E87E11242FE936C8DE96
310
AB60BB7F4D295D66D12E5B30323473E6AAE6A24E5A259C2A308F29CD82280A68FC1E256B9AAE93F489AED694323294DF34F9B678B0C957DA3DC7B3DCA9ADC33C022123F1CD2D44E450277AD04338234388F01913BE0D1A0281909D38D4171F27807A259DB1093085F157AA17B557309586747CD0CF0B46A64E983A6E0EAEEF
310
CE881F9EF1FB8E70D44297604238581EBC1B74B249C31C5AAB6CD0BB33D2C636A27ECCC62F0EFF445DC5DF95244D6DEC7F2922F30191F9F720C37DE49F504B0304140006080800B670623B4220A0FF7D0000009D0000000B0000006662782F636E782E786D6C4DCCD10A83201886E15B91FFDCE542CB0335D0EC3E6259C84A
310
C3E9D8E5AF46073BFAE0E1E315DD675BD1DBA5978F41C2FD4600B9F088930F8B849267CC01754AA418F3DF0D50183727E164506249B1EC174D6E1ECB9A0F5D7D785E68DB8151CD286E5A5363CA6B8A39E90D36D40E96B086F55A43A544F52B1D7B86D517504B0304140006080800B670623B2FA3FEDE290100001202000031
310
0000006662782F45374635344235342D363743322D343832342D383044432D4334454645303536354442422F636F72652E786D6C8D515B6EC32010BC0AE22B55850D2E386E848994D7097A0117488A1283C5A3CAF10BB523B57FF961D1ECCCECC0F2ED7DBC816FED8371B687A4C210682B9D32F6D2C314CFA883602BB8772E
310
FEA141608751F7B0C050F08B77695A20E96CD43666D43AA5177008414708E42D5F7A18E4971E876A483133C2B59A06791D2EBA22556E679EE021FA1C00CC43CA09C5717D6274C7286AD7FB06D1AEA1A8C3873DDAD3E3E98859CB0EBB1DAF67A1E02919B5C88DCA71CCD968FFAC49110B1ECDF8882FBD1EA256503418BF2342
310
106E3E08DD60B6A1EC15771B8C795DE8FF4469524F8A92B1F1AD59E2CEB20005E1F5DC105CB9F4797B84D1F7C9F908CABC55D0F2050A5C61CC1AD2F27A26E6E767C7962E8E213A9FBF7775FDCC5CC266DB960A5E970DE5F2BBBE5CCB36C50F504B0304140006080800B670623B1B8617914E01000033030000300000006662
310
782F45374635344235342D363743322D343832342D383044432D4334454645303536354442422F636E782E786D6CD593C16EC32010447F0571AD6CE3D489D20813A9877E410FBD62D82434182CC055F3F75D1292E692438FBD206B7698593D61BEFD1E2DF982108D773D6D6B460938E5B571FB9ECE6957AD29D90A1EBC4F77
310
364A9C1CA1A759A682EF839FA72269D8C9D92654AD71C72206887E0E0A22CAF926B15E498B01E0AA19451807D01A34B919F16B070157417138917400F2F6FA41FCF0092A45DEE414C19BDC21783E4BD39D891265658C3D8DEA00A3ACE59CBC8678ACB54CB26EEB6BD7839D7E9348BE70AD9C8321B9BCA7F9A4A26C542347DE
310
E050F09802D22BA6749A800A394DD62899107273365E3C82CFC6A55557BC06C10774B7ABE7AEC3B0F34CF06446280E154026D0542C187BA9DAB6628BF7B6DBB0E5A65B3EB1F58631DE64BBE083F7B65CC218087E22CABB042E51D1F2268F1FE12B3EA24D40D63E9CFE00120194D60B9D5BC67FE6D39CDF37E20AF817881F50
310
4B0304140006080800B670623B29652116630500003C100000340000006662782F45374635344235342D363743322D343832342D383044432D4334454645303536354442422F6F626A656374732E786D6CAD575D739B3814FD2B0CFB0C989834C90EA1639B24E3E9A6EDD4D3CE3E64C623834CD8006224913AFDF57B040203
310
B65BEF871F0C12D2FD3CF7E8CA7FBFCB33E3957291B2E2D674ED8969D02262715A24B76625B7D6B569BC0F7CCE98EC2D338D82E4F4D654D366E0279C55A59E8AE99654991CCDDECFFF3444440B6A1A514684B83545F44C7362934AB2988A173B2692D8C97667BB76B3702836E1A47C1E092D09A78584A5982F20C5688C7287
310
C389E904BEA3BE07BEFAD7ABA6A75739B53F43FD69212429A20365233153D70BEF2E2E6FAC4BCF9B5ADEBB0BD79ADFCF43CBBD9A4E16EF168B9BD9DD0D140BC921495BC2E9D60C1E101B9E46BED37CEA2CD6861F3329624541A3DA7F7858DBAC25C6B4A4458C3CA654405BCFEBC970E8AAD8F43E4FD558ABEC4F9FE7557F47
310
4F506B7BFBEC5BCA367FC105710E2AB8A00A554D7CB4A30DFE26FBA86D18CBF4B75418399194A72433B274C3097F33032C554B027F2046A1932B842B0FCCC0DDCBEBDB8AD2F835768F59B9ADB24C41D30C6A64AF817F2A456D59FA83F2E3DA60137255A585BCD60EC9B7929AC18DEFD49381AF1ED30BFDB109A4B1CD488294
310
C3CDE6EBC8D185AABD6568061FEE37BB95AAC7E3CA4BCE4ACAA5820FA0D526AE7DAA2869B5EE5999531BE0CC20E6FBA07C41E43FA27CF7A6206F3CDD793B4F6B919C1462CB788EDCD893FA674CDA17AB7B3B7C019F8D561FAEE966FED562DFE98C1D12C6A9FC015C2A35D7FF3D7FC398F591DA4B5FE0BFA2C0189FEA50AE22
310
92817A1ED3020951A03432862970F976B33383259812CC8E5D240BBA801CBCF8CE2BBEE3BF910DB6AAD5F79E05123AE2DB33981FB1ACCB02B69D00CB014FD68AB573A7627EF9BFD4CC2C5C7D58557C4B22FAA88925A4DBB44825CECE3D78FB060D1231F0E885BE7D673C86A3874958F593906B5502D1563157814FDAC3420D
310
F69A070A22EC4B98E23CFF171A1E5311D12C23056555ABA53B8614563B92D17D02AAB009E8F46284624E5F53D5490C560CCCC2591FF1B45421EB0EBD8EA7ED13BE7C5D7E0428CD60FEF60779EB13E6664FF711CB185F6FDED60D139A001FF60CD1FD6D086F1D51474901E26B2CB794A343BC8ED3EDB612E0DD2351FCB65CF4
310
33D511C9E14B5B40ADC6A6263DB0336A8F700DDF56271A024E70B0B3629DE21847591E55DED73D56206AB927E46FAABC5C939C55853C274C93D69FD6FA4E78BF8B11DF898C9ECD60553FAD39283BA6F18984AA23E8884F83F45C5F5F859797B31B2B9C84A1E5B9DE9D35BFF25C6B76152E422F9C5DCC3D847F5801ED09D5AF
310
41441327A25FF15487F9EB725FB666F048A4701E9A827292E6F97569A32DF61DEC01C0BB8DCBBCCC684E0B49147C1FD54BF685A0AB18C868E6973949E819523E3DAC463660E68C7D9F55A9D1EFA3BD7A76A16AE1A810F95CE59B82A4D968A376DC2E8B44BBDD86B27B368CDE0ED548C7137DA860591A83706223A12CA712B4
310
7306DBF39C0A20A6DF95C7FAF670C6EED7A61F946493D1D6926782963813403548A78AE470DEF80D2D9CEAA26E4D1C76F60BFE74219A06527D6B82DF641A51616F703CAAC6A7160E08A00BEB4810A0274592A1B36E3675E36E978A0DE80727A0D6DF2D39A75BD27E0D8837276589537B40ABB56D5A41F48F1C6FCD3188C4EB
310
A6929D2FFB89CE995A4D00AE813BDD032DC48B56BD437DFDDC2DD7AED70C2272D63DE9A72068A45A92F0A4BE17A8A06B9366E16707AD80B1FC649459952097E74BB23805982B55E0401150A165964402AA8BDF9F3E7386BB686EDCA780C0D382E5392BF460A6EFB2C6EA1937D3F809B440D5F5435C4C5CF7A9EEFAF54564BD
310
2182DA24162F98680B4E7930C21A0079709CEAEB99A372305ABE0C0D7D6078105A83F6A0296DAEE1068A47DD1C55A9F4C9B2FC69E3EFD44B81028E963DF81B504B0304140006080000B670623B000000000000000000000000350000006662782F45374635344235342D363743322D343832342D383044432D433445464530
310
3536354442422F76657274696365732E62696E504B0304140006080800B670623BF270F1330600000004000000360000006662782F45374635344235342D363743322D343832342D383044432D4334454645303536354442422F747269616E676C65732E62696E636660600000504B0304140006080000B670623B00000000
310
0000000000000000370000006662782F45374635344235342D363743322D343832342D383044432D4334454645303536354442422F617474726962757465732E62696E504B0304140006080800B670623B08DA0BD19000000041010000360000006662782F45374635344235342D363743322D343832342D383044432D4334
310
454645303536354442422F6469726563746F72792E786D6C858F410AC3201045AF22B36F53E9A60B35CBEEBAE80D244E44489C6234F4F835464A48035D0DF398FF9F8AF63D0E6CC63039F212F8F9020C7D47C6792B21C5FE7403D62A1188E2E60C98D7234A5830286103A55745067B9D86B8A3CF9C7F90C11DE607FB144396
310
D7B6A82D282E9A152AD114D5EF2CB866EEE831B8EEA07A7BB5A8D7D61A2BAAEB7FD5F70921FF497D00504B0304140006080800B670623B6378F24DFF000000A00100003B0000006662782F45374635344235342D363743322D343832342D383044432D4334454645303536354442422F7265736F75726365732F636F72652E
310
786D6C8D504B6E833010BD0A9A6D65B0094E42641C85B639412F6099496225D8C89FAAC7AF09546A77DDCC8CDE47F3F4C4F16B7C149FE88371B603565228D06A37187BED20C50BD9437194C23B177FC9A0B06AC40E6618A4B87A97A615D2CE46B431A3D60DB8822A048C50E8473E3A08FA86A32A558A5911EEE5A4F45D5DB1
310
6465A6B34E8A107D0E502C4FE609D26370C96B0CA25A58295232C3AA3143FE692E063D485EF7F5AEE71BD2D2F39634AFFC44DAF7DD9E9CCE6F9CD25DCBFA762BAAD92C4534E34F46ED51451C40D694B6843142EB0FD61C283F34FC85EE0F948A6A96FF31A569F8A729191B37F51A77B105902C0779125254735F793DCBCC7B
310
EE567E03504B010214000A0000080000B670623B3DEE336E79000000790000001B00000000000000000000000000000000006175746F6465736B2D64657369676E2D7061636B6167652E786D6C504B01021400140006080800B670623BD486FD9CA0000000F40000001300000000000000000000000000B20000005B436F6E
310
74656E745F54797065735D2E786D6C504B01021400140006080800B670623BBC1638F5EC0000007C010000080000000000000000000000000083010000636F72652E786D6C504B01021400140006080800B670623B55019EA25F0000007C000000070000000000000000000000000095020000636E782E786D6C504B010214
310
00140006080800B670623B3586FFB671010000D40300000C00000000000000000000000000190300006662782F636F72652E786D6C504B01021400140006080800B670623B4220A0FF7D0000009D0000000B00000000000000000000000000B40400006662782F636E782E786D6C504B01021400140006080800B670623B2F
310
A3FEDE290100001202000031000000000000000000000000005A0500006662782F45374635344235342D363743322D343832342D383044432D4334454645303536354442422F636F72652E786D6C504B01021400140006080800B670623B1B8617914E010000330300003000000000000000000000000000D2060000666278
310
2F45374635344235342D363743322D343832342D383044432D4334454645303536354442422F636E782E786D6C504B01021400140006080800B670623B29652116630500003C10000034000000000000000000000000006E0800006662782F45374635344235342D363743322D343832342D383044432D4334454645303536
310
354442422F6F626A656374732E786D6C504B01021400140006080000B670623B0000000000000000000000003500000000000000000000000000230E00006662782F45374635344235342D363743322D343832342D383044432D4334454645303536354442422F76657274696365732E62696E504B01021400140006080800
310
B670623BF270F13306000000040000003600000000000000000000000000760E00006662782F45374635344235342D363743322D343832342D383044432D4334454645303536354442422F747269616E676C65732E62696E504B01021400140006080000B670623B0000000000000000000000003700000000000000000000
310
000000D00E00006662782F45374635344235342D363743322D343832342D383044432D4334454645303536354442422F617474726962757465732E62696E504B01021400140006080800B670623B08DA0BD190000000410100003600000000000000000000000000250F00006662782F45374635344235342D363743322D34
310
3832342D383044432D4334454645303536354442422F6469726563746F72792E786D6C504B01021400140006080800B670623B6378F24DFF000000A00100003B00000000000000000000000000091000006662782F45374635344235342D363743322D343832342D383044432D4334454645303536354442422F7265736F75
310
726365732F636F72652E786D6C504B0506000000000E000E0080040000611100000000
  0
XRECORD
  5
112
102
{ACAD_REACTORS
330
110
102
}
330
110
100
AcDbXrecord
280
     1
270
     1
271
     1
  0
XRECORD
  5
111
102
{ACAD_REACTORS
330
110
102
}
330
110
100
AcDbXrecord
280
     1
270
     1
271
     1
  0
XRECORD
  5
18A
102
{ACAD_REACTORS
330
110
102
}
330
110
100
AcDbXrecord
280
     1
 70
     0
 90
1778669749
  1
9BF507EE-FAF7-4A99-A33D-4EE51894BC40
310
504B03040A0000080000B670623B3DEE336E79000000790000001B0000006175746F6465736B2D64657369676E2D7061636B6167652E786D6C3C3F786D6C2076657273696F6E3D22312E302220656E636F64696E673D227574662D3822203F3E3C666F726D6174733E3C666F726D61743E687474703A2F2F736368656D612E
310
6175746F6465736B2E636F6D2F64657369676E2D7061636B6167652F323030393C2F666F726D61743E3C2F666F726D6174733E504B0304140006080800B670623BD486FD9CA0000000F4000000130000005B436F6E74656E745F54797065735D2E786D6C7D8EC10E82300C865F65E91D8A1E8C310C0EEA1BF002731658846E
310
D98AC1B77784ABF1D8FE5FBFBF75BBCE937A534CCEB38643598122B6FEE978D0B0485F9C41B54DDD7D022595594E1A469170414C76A4D9A4D207E29CF43ECE46F218070CC6BECC4078ACAA135ACF422C856C0E68EA1BF5669944DDD7BCDE7B1F8E415D77AECB980613C2E4AC91FC167A2B244592486606FC29C8FD7F045B9A
310
EF7053A7E60B504B0304140006080800B670623BCA089DFFEC0000007C01000008000000636F72652E786D6C8D90416E83301045AF62CDB632D8402020E32882F604BD80653BC44AB011B6AB1EBF262152BBEB6A467FFE9B197D76FA9EEFE84BAFDE38DB03CD08206DA553C64E3DC470C1474027CE56E7C22F1B202B66DDC3
310
260367D3EAE2B24BD2D9A06D48AA754AEFA2F05E0740F29E9A1EBCBCEA59642286E4F0B76C11F226269DD15797E0188D42CF2346A57DE662F40ABCAEC77628C6120F654571D50C04B7F5B9C1E3997CD4F550BE3745C3F20DE62C98F9755FAE5A04AD801784B498524C8A4F5A75E4D055873772EC0861F966FF03C545FD138A
310
C686B2D8DF7D621E384D8F3C069CE55B16A93C824A75CB8DFF00504B0304140006080800B670623B55019EA25F0000007C00000007000000636E782E786D6C4DCB3B0E80201045D1AD90E915ED2CF8AC45050C11660C8261F98AB1B07AC9C97D42D718D865D3E909258CFD00CCE24AC6E326A164D74DC0B4128928FF326038
310
472BA13128B1252AC747C6BAB984FC68F0B87FE8960A5C09FE86CFB69FBA01504B0304140006080800B670623B68FC0B7272010000D40300000C0000006662782F636F72652E786D6CC5535B6E833010BC8AE5DF0A6C1E8124328E22D29EA01770C0A128602363A31CBFCB234A53A555FA553EC09AD9F5CE8C31DB5DDA060D
310
D2F4B556190E7C8A9154852E6B5565D8D993B7C668C799D1DA7E29C3488956667884316795D1AE5BA0422B2B950554E9522EA0E87B69312A1A5864B82F3E642B7CE12C54F467BF13C55954D20F7CA0A18EB3DE1A1080E621E31BF3D3F1C2C88C73E65C5D2E6C5DC2B4FA544B8379921C36797888BC3C8A032F4E73EA6D927D
310
EA1DF6F42D49F2E8350D5346C666CE6CDD5ED515460A2B4BCC434A375E1078347C0FE22D5D6DE3D50B5D6F2965642CBF6B725DF96493AB958DC245EEDCD6631E809089F8E61622B2A81703E8219C913144F84C09DF070D8140C8561C9BAB8F3340832CAC363130A576376A108D933095FA747AD0CF0B46E64E983A6D0EAE1F
310
CE089F9EF1FB8E70D44255604258581E9D1D75B259C3125A278D37D80B52DAB4A279CEC62F0EFF44DDC43F9454E8469BFF5244960322CBEF41C6FBC83F01504B0304140006080800B670623B0F71DDB67E0000009D0000000B0000006662782F636E782E786D6C4DCCD10A83201886E15B91FFDCA54DB73F502386BB8F5816
310
32D3703976F9ABD1C18E3E78F87855FB990379BBFCF2296AE02706C4C5471A7C9C349475A408A4352AA7B4FEDD80C47E761A7606A3A69CCA72D0E0C6BE8475D3E0E3F3409428EA6B27A84079A782899AA2EC1A7AE3ECCC2FD858CB2D544655BFD2B67BD87C01504B0304140006080800B670623BE134B4FB28010000120200
310
00310000006662782F38353834323741342D343835462D343034322D383541392D4331303331363839454531452F636F72652E786D6C8D515B6EC32010BC0AE22B55850D0EA424C24451959EA0172086A42831583CAA1CBF503B52FB971F16CDCECC0EACD8DFC71BF836215AEF7A481A0C817183D7D65D7A98D3197108F652
310
04EFD31F1A044E8DA6871586525C82CFD3020DDE25E352419DD76601558C264130DCCAA58771F832A36A544E8511AFCDA486ABBA988634A55D7852C4144A00300FA927949C71DABD1D28A29C7D208A6987383B6CD13BC16BB2E1DBE3911C453B0BA5C8D9EA456E758963CFD684674DAA588A64C747FC2118958C86B2C3788B
310
0841B8FB247487D98EB257CC77188BB6D2FF89F2A49F1465EBD2BA5BE2CEB2082511EDDC9042FB7CBA3DC298FBE4430275DE2A9AE1054ADC60CC08E3A29D89E5F9C5714317C7987C28DFBBBA9E0A97B0D97643A568EB864AF95D5FA9759BF207504B0304140006080800B670623B1B8617914E010000330300003000000066
310
62782F38353834323741342D343835462D343034322D383541392D4331303331363839454531452F636E782E786D6CD593C16EC32010447F0571AD6CE3D489D20813A9877E410FBD62D82434182CC055F3F75D1292E692438FBD206B7698593D61BEFD1E2DF982108D773D6D6B460938E5B571FB9ECE6957AD29D90A1EBC4F
310
77364A9C1CA1A759A682EF839FA72269D8C9D92654AD71C72206887E0E0A22CAF926B15E498B01E0AA19451807D01A34B919F16B070157417138917400F2F6FA41FCF0092A45DEE414C19BDC21783E4BD39D891265658C3D8DEA00A3ACE59CBC8678ACB54CB26EEB6BD7839D7E9348BE70AD9C8321B9BCA7F9A4A26C542347
310
DEE050F09802D22BA6749A800A394DD62899107273365E3C82CFC6A55557BC06C10774B7ABE7AEC3B0F34CF06446280E154026D0542C187BA9DAB6628BF7B6DBB0E5A65B3EB1F58631DE64BBE083F7B65CC218087E22CABB042E51D1F2268F1FE12B3EA24D40D63E9CFE00120194D60B9D5BC67FE6D39CDF37E20AF817881F
310
504B0304140006080800B670623B5933D422630500003B100000340000006662782F38353834323741342D343835462D343034322D383541392D4331303331363839454531452F6F626A656374732E786D6CAD575B6FA33814FE2B887D0642934E9B156594264D158D3A534DD4D13E548A0C38942D60649B4EBABF7E3F8321
310
40924EF6928780CDF1B97EE762EFF32E4B8D37CA45C2F21BD3B547A641F39045491EDF98A5DC5AD7A6F1D9F73863B243661A39C9E88DA9B64DDF8B392B0BBD15D12D295339D85DDEFE618890E6D434C2940871638AF08566C426A5641115AF764424B1E3EDCE76ED9AB0CF36E6A47819302D08A7B984A6D8CFC1C5A89572FB
310
CB91E9F89EA3BEFB9EFAD754E3D3544E654F5F7E920B49F2F040D880CDD89D2CEE2E2EA7D6E56432B6269F2E5CEB7679BBB0DCABF168FE693E9FCEEEA6102C240727AD09A75BD3BF876F78127A4EFDA9D5582B7E4CA590E5390D2BFB6161A5B3E618D182E611E2985001691DAB47FDA5AB7CD3F93C566B2DB2BB7D9E55DD13
310
1D468DEECDB3AB290BFE8409E21C54704115AA6AFF68436BFC8DF65E0B184BF5B74418199194272435D224E084BF9B3E481589EFF5D828747285706581E9BB7B7E5D5D911ABFC6EE312DB7659A2A689A7E85EC0DF04FA5A8344BFEA2FCB834E8845895492EAFB541F2BDA0A63FF59C6AD3F7D4637CA13FD68E34B629891172
310
98597F1D183A57B9B75A98FE9765B05BAB7C3C2EBCE0ACA05C2AF8005A4DE09AA7F29216EB9E15397500C6F47CBE77CA7778FE2BD277AF0AE2C693DD6437D1522427B9D8329E2136F6A8FA19A3E6C56ADF0E5F50CF06D48734EDCEBF22F69C56D97EC138153F804B85E6FABFC7AFEFB32E523BE1F3BD372418E363EDCA7548
310
52949E8724474014288D94610BB57C1BEC4C7F854A89CA8E5324F55B871CBC78CE1BBEE3BFE68D6A5589EF3C730474506FCFA8FCF0659516D0ED04580EEA6425581B77CAE797FF4BCECC16EB2FEB926F49481F746159D06D922712BD730FDEAE42BD40F42C7AA5EF3F198F60E86110D6DD20645A9480B795CF95E3E3A659A8
310
C55E724F408873315335CFFB8584874484344D494E59D94869DB90C26A5B64F49C802CAC1D3ABE18A098D3B7444D123D8A9E5AE8F5214F0AE5B2B6E9B575DA3E61CBD3EA2B4009FA940524DD1305FB6A1FB294F14DF0BEA90BA109ECE1481FDC3FFAE8D60E75141700BE82725371B4873751B2DD960265F788137FACE6DD40
310
B575E4F0A5C99F46629D92131467A41EE11ABD8D4CCC039CA0AFB37C93A08B232B8F0AEFCA1E0A1015DF13FC83322B362463652ECF71D3A8B1A7D1BE65DE1D62C44F22C317D35F574FEB16153BA2D13E543D10A80E74C4A65E78A6B7CBCBD1D5DD9DB59C2DAFACC96C3AB566E3F1C29ADCDD5DBAD7D3C9ED7C822ED74F80A6
310
41755310DE4443F44A9E68373FADF6596BFA0F440AE7BECE2727AE9F4F2B1B53B1E7E00CF0DD1E5C65454A339A4BA2D0FBA05ED2EF0443458F47BDBFCA484CCFE0F2ED7E3DD0013B679C7B5499467F0ECEEADDB9CA85A34CE44B99053949D2C1416DB85DE4B136BB7165FBAC0B7AB3542BED4F8CA182A549847A1319316519
310
95A83A67147B9E5101C47487F2485F1ECE38FD568F839204296D3479219888530154036E6528FBFBC66F98E0D4107563A2D7D9AFF8D389681A08F58D89F22693900A3B407754734FC51C10C010D6D640809EE4718AC1BA3ED4AEDB53CA37283F68805A7E4B72CEB0A4EDEAD5DD8C14059A76AFAA56BA6901E13F32BC51C720
310
12AF41295B5BF61BAD3195181FB506E6B40F4C10AF5AF40EF9F5B159AE5DD1F43C72D635E94310D45C2D49785C5D0B94D3B54AB3C5A38349C0587D338AB48C11CBF339599C02CCA54A70A008A8D03C0B2201D5F9EFCF8F9CE12A9A19CB0410789EB32C63B95ECCF455D658BFE0621A3DA32C5075FB101723D77DAE867E7D0F
310
D90444509B44E2151B4DC2290B065803200FBAA9BE9D392A0603F2D5C2D00D6302A615680F66D2FA166E2079D4C551A54AB758161FCEFD4E450A14704CECFEDF504B0304140006080000B670623B000000000000000000000000350000006662782F38353834323741342D343835462D343034322D383541392D4331303331
310
363839454531452F76657274696365732E62696E504B0304140006080800B670623BF270F1330600000004000000360000006662782F38353834323741342D343835462D343034322D383541392D4331303331363839454531452F747269616E676C65732E62696E636660600000504B0304140006080000B670623B000000
310
000000000000000000370000006662782F38353834323741342D343835462D343034322D383541392D4331303331363839454531452F617474726962757465732E62696E504B0304140006080800B670623B08DA0BD19000000041010000360000006662782F38353834323741342D343835462D343034322D383541392D43
310
31303331363839454531452F6469726563746F72792E786D6C858F410AC3201045AF22B36F53E9A60B35CBEEBAE80D244E44489C6234F4F835464A48035D0DF398FF9F8AF63D0E6CC63039F212F8F9020C7D47C6792B21C5FE7403D62A1188E2E60C98D7234A5830286103A55745067B9D86B8A3CF9C7F90C11DE607FB1443
310
96D7B6A82D282E9A152AD114D5EF2CB866EEE831B8EEA07A7BB5A8D7D61A2BAAEB7FD5F70921FF497D00504B0304140006080800B670623BD9A3B367FE000000A00100003B0000006662782F38353834323741342D343835462D343034322D383541392D4331303331363839454531452F7265736F75726365732F636F7265
310
2E786D6C8D504B6E833010BD0A9A6D65B01D0201194711694FD00B586642AD043BF2A7EAF16B122AB5BB6E6646EFA3797AE2F8B5DC8A4FF4C1383B002B291468B59B8C9D0748F1420E501CA5F0CEC55F3228AC5A708015062966EFD27D83B4B3116DCCA875136EA00A012314FA968F0182FEC045952AC5AC08D7F2AEF455CD
310
58B232D3592745883E07289E4FD609D26370C96B0CA27AB252A464A64D63A6FCD35C0C7A904D73EE467EE664DCD58CD4ED4849D79C5A723ED1B7A61977AF2D6F45B59AA58866F9C9A83DAA8813484E6947182394BFB3BAA7FBBEDEBFD0434FA9A856F91F53BA4FFF342563E38E6F719FB60092E5200F428A6AED2BAF479979
310
AFDDCA6F504B010214000A0000080000B670623B3DEE336E79000000790000001B00000000000000000000000000000000006175746F6465736B2D64657369676E2D7061636B6167652E786D6C504B01021400140006080800B670623BD486FD9CA0000000F40000001300000000000000000000000000B20000005B436F6E
310
74656E745F54797065735D2E786D6C504B01021400140006080800B670623BCA089DFFEC0000007C010000080000000000000000000000000083010000636F72652E786D6C504B01021400140006080800B670623B55019EA25F0000007C000000070000000000000000000000000095020000636E782E786D6C504B010214
310
00140006080800B670623B68FC0B7272010000D40300000C00000000000000000000000000190300006662782F636F72652E786D6C504B01021400140006080800B670623B0F71DDB67E0000009D0000000B00000000000000000000000000B50400006662782F636E782E786D6C504B01021400140006080800B670623BE1
310
34B4FB280100001202000031000000000000000000000000005C0500006662782F38353834323741342D343835462D343034322D383541392D4331303331363839454531452F636F72652E786D6C504B01021400140006080800B670623B1B8617914E010000330300003000000000000000000000000000D3060000666278
310
2F38353834323741342D343835462D343034322D383541392D4331303331363839454531452F636E782E786D6C504B01021400140006080800B670623B5933D422630500003B10000034000000000000000000000000006F0800006662782F38353834323741342D343835462D343034322D383541392D4331303331363839
310
454531452F6F626A656374732E786D6C504B01021400140006080000B670623B0000000000000000000000003500000000000000000000000000240E00006662782F38353834323741342D343835462D343034322D383541392D4331303331363839454531452F76657274696365732E62696E504B01021400140006080800
310
B670623BF270F13306000000040000003600000000000000000000000000770E00006662782F38353834323741342D343835462D343034322D383541392D4331303331363839454531452F747269616E676C65732E62696E504B01021400140006080000B670623B0000000000000000000000003700000000000000000000
310
000000D10E00006662782F38353834323741342D343835462D343034322D383541392D4331303331363839454531452F617474726962757465732E62696E504B01021400140006080800B670623B08DA0BD190000000410100003600000000000000000000000000260F00006662782F38353834323741342D343835462D34
310
3034322D383541392D4331303331363839454531452F6469726563746F72792E786D6C504B01021400140006080800B670623BD9A3B367FE000000A00100003B000000000000000000000000000A1000006662782F38353834323741342D343835462D343034322D383541392D4331303331363839454531452F7265736F75
310
726365732F636F72652E786D6C504B0506000000000E000E0080040000611100000000
  0
XRECORD
  5
113
102
{ACAD_REACTORS
330
110
102
}
330
110
100
AcDbXrecord
280
     1
270
     1
271
     1
  0
XRECORD
  5
114
102
{ACAD_REACTORS
330
110
102
}
330
110
100
AcDbXrecord
280
     1
270
     1
271
     1
  0
CELLSTYLEMAP
  5
E2D8
102
{ACAD_REACTORS
330
104
102
}
330
104
100
AcDbCellStyleMap
 90
        3
300
CELLSTYLE
  1
TABLEFORMAT_BEGIN
 90
        5
170
     1
 91
        0
 92
    32768
 62
   257
 93
        1
300
CONTENTFORMAT
  1
CONTENTFORMAT_BEGIN
 90
        0
 91
        0
 92
      512
 93
        0
300

 40
0.0
140
1.0
 94
        5
 62
     0
340
11
144
0.25
309
CONTENTFORMAT_END
171
     1
301
MARGIN
  1
CELLMARGIN_BEGIN
 40
0.06
 40
0.06
 40
0.06
 40
0.06
 40
0.18
 40
0.18
309
CELLMARGIN_END
 94
        6
 95
        1
302
GRIDFORMAT
  1
GRIDFORMAT_BEGIN
 90
        0
 91
        1
 62
     0
 92
       -2
340
0
 93
        0
 40
0.045
309
GRIDFORMAT_END
 95
        2
302
GRIDFORMAT
  1
GRIDFORMAT_BEGIN
 90
        0
 91
        1
 62
     0
 92
       -2
340
0
 93
        0
 40
0.045
309
GRIDFORMAT_END
 95
        4
302
GRIDFORMAT
  1
GRIDFORMAT_BEGIN
 90
        0
 91
        1
 62
     0
 92
       -2
340
0
 93
        0
 40
0.045
309
GRIDFORMAT_END
 95
        8
302
GRIDFORMAT
  1
GRIDFORMAT_BEGIN
 90
        0
 91
        1
 62
     0
 92
       -2
340
0
 93
        0
 40
0.045
309
GRIDFORMAT_END
 95
       16
302
GRIDFORMAT
  1
GRIDFORMAT_BEGIN
 90
        0
 91
        1
 62
     0
 92
       -2
340
0
 93
        0
 40
0.045
309
GRIDFORMAT_END
 95
       32
302
GRIDFORMAT
  1
GRIDFORMAT_BEGIN
 90
        0
 91
        1
 62
     0
 92
       -2
340
0
 93
        0
 40
0.045
309
GRIDFORMAT_END
309
TABLEFORMAT_END
  1
CELLSTYLE_BEGIN
 90
        1
 91
        1
300
_TITLE
309
CELLSTYLE_END
300
CELLSTYLE
  1
TABLEFORMAT_BEGIN
 90
        5
170
     1
 91
        0
 92
        0
 62
   257
 93
        1
300
CONTENTFORMAT
  1
CONTENTFORMAT_BEGIN
 90
        0
 91
        0
 92
      512
 93
        0
300

 40
0.0
140
1.0
 94
        5
 62
     0
340
11
144
0.18
309
CONTENTFORMAT_END
171
     1
301
MARGIN
  1
CELLMARGIN_BEGIN
 40
0.06
 40
0.06
 40
0.06
 40
0.06
 40
0.18
 40
0.18
309
CELLMARGIN_END
 94
        6
 95
        1
302
GRIDFORMAT
  1
GRIDFORMAT_BEGIN
 90
        0
 91
        1
 62
     0
 92
       -2
340
0
 93
        0
 40
0.045
309
GRIDFORMAT_END
 95
        2
302
GRIDFORMAT
  1
GRIDFORMAT_BEGIN
 90
        0
 91
        1
 62
     0
 92
       -2
340
0
 93
        0
 40
0.045
309
GRIDFORMAT_END
 95
        4
302
GRIDFORMAT
  1
GRIDFORMAT_BEGIN
 90
        0
 91
        1
 62
     0
 92
       -2
340
0
 93
        0
 40
0.045
309
GRIDFORMAT_END
 95
        8
302
GRIDFORMAT
  1
GRIDFORMAT_BEGIN
 90
        0
 91
        1
 62
     0
 92
       -2
340
0
 93
        0
 40
0.045
309
GRIDFORMAT_END
 95
       16
302
GRIDFORMAT
  1
GRIDFORMAT_BEGIN
 90
        0
 91
        1
 62
     0
 92
       -2
340
0
 93
        0
 40
0.045
309
GRIDFORMAT_END
 95
       32
302
GRIDFORMAT
  1
GRIDFORMAT_BEGIN
 90
        0
 91
        1
 62
     0
 92
       -2
340
0
 93
        0
 40
0.045
309
GRIDFORMAT_END
309
TABLEFORMAT_END
  1
CELLSTYLE_BEGIN
 90
        2
 91
        1
300
_HEADER
309
CELLSTYLE_END
300
CELLSTYLE
  1
TABLEFORMAT_BEGIN
 90
        5
170
     1
 91
        0
 92
        0
 62
   257
 93
        1
300
CONTENTFORMAT
  1
CONTENTFORMAT_BEGIN
 90
        0
 91
        0
 92
      512
 93
        0
300

 40
0.0
140
1.0
 94
        2
 62
     0
340
11
144
0.18
309
CONTENTFORMAT_END
171
     1
301
MARGIN
  1
CELLMARGIN_BEGIN
 40
0.06
 40
0.06
 40
0.06
 40
0.06
 40
0.18
 40
0.18
309
CELLMARGIN_END
 94
        6
 95
        1
302
GRIDFORMAT
  1
GRIDFORMAT_BEGIN
 90
        0
 91
        1
 62
     0
 92
       -2
340
0
 93
        0
 40
0.045
309
GRIDFORMAT_END
 95
        2
302
GRIDFORMAT
  1
GRIDFORMAT_BEGIN
 90
        0
 91
        1
 62
     0
 92
       -2
340
0
 93
        0
 40
0.045
309
GRIDFORMAT_END
 95
        4
302
GRIDFORMAT
  1
GRIDFORMAT_BEGIN
 90
        0
 91
        1
 62
     0
 92
       -2
340
0
 93
        0
 40
0.045
309
GRIDFORMAT_END
 95
        8
302
GRIDFORMAT
  1
GRIDFORMAT_BEGIN
 90
        0
 91
        1
 62
     0
 92
       -2
340
0
 93
        0
 40
0.045
309
GRIDFORMAT_END
 95
       16
302
GRIDFORMAT
  1
GRIDFORMAT_BEGIN
 90
        0
 91
        1
 62
     0
 92
       -2
340
0
 93
        0
 40
0.045
309
GRIDFORMAT_END
 95
       32
302
GRIDFORMAT
  1
GRIDFORMAT_BEGIN
 90
        0
 91
        1
 62
     0
 92
       -2
340
0
 93
        0
 40
0.045
309
GRIDFORMAT_END
309
TABLEFORMAT_END
  1
CELLSTYLE_BEGIN
 90
        3
 91
        2
300
_DATA
309
CELLSTYLE_END
  0
ENDSEC
  0
SECTION
  2
ACDSDATA
 70
     2
 71
     8
  0
ACDSSCHEMA
 90
        0
  1
AcDb_Thumbnail_Schema
  2
AcDbDs::ID
280
    10
 91
        8
  2
Thumbnail_Data
280
    15
 91
        0
101
ACDSRECORD
 95
        0
 90
        1
  2
AcDbDs::TreatedAsObjectData
280
     1
291
     1
101
ACDSRECORD
 95
        0
 90
        2
  2
AcDbDs::Legacy
280
     1
291
     1
101
ACDSRECORD
  1
AcDbDs::ID
 90
        3
  2
AcDs:Indexable
280
     1
291
     1
101
ACDSRECORD
  1
AcDbDs::ID
 90
        4
  2
AcDbDs::HandleAttribute
280
     7
282
     1
  0
ACDSSCHEMA
 90
        1
  1
AcDbDs::TreatedAsObjectDataSchema
  2
AcDbDs::TreatedAsObjectData
280
     1
 91
        0
  0
ACDSSCHEMA
 90
        2
  1
AcDbDs::LegacySchema
  2
AcDbDs::Legacy
280
     1
 91
        0
  0
ACDSSCHEMA
 90
        3
  1
AcDbDs::IndexedPropertySchema
  2
AcDs:Indexable
280
     1
 91
        0
  0
ACDSSCHEMA
 90
        4
  1
AcDbDs::HandleAttributeSchema
  2
AcDbDs::HandleAttribute
280
     7
 91
        1
284
     1
  0
ACDSRECORD
 90
        0
  2
AcDbDs::ID
280
    10
320
22
  2
Thumbnail_Data
280
    15
 94
     1659
310
89504E470D0A1A0A0000000D49484452000001000000005808030000002D06D97A00000300504C5445212830FFFFFF2128300000000000000000000000000000000000000000000000000000330000660000990000CC0000FF0033000033330033660033990033CC0033FF0066000066330066660066990066CC0066FF0099
310
000099330099660099990099CC0099FF00CC0000CC3300CC6600CC9900CCCC00CCFF00FF0000FF3300FF6600FF9900FFCC00FFFF3300003300333300663300993300CC3300FF3333003333333333663333993333CC3333FF3366003366333366663366993366CC3366FF3399003399333399663399993399CC3399FF33CC00
310
33CC3333CC6633CC9933CCCC33CCFF33FF0033FF3333FF6633FF9933FFCC33FFFF6600006600336600666600996600CC6600FF6633006633336633666633996633CC6633FF6666006666336666666666996666CC6666FF6699006699336699666699996699CC6699FF66CC0066CC3366CC6666CC9966CCCC66CCFF66FF0066
310
FF3366FF6666FF9966FFCC66FFFF9900009900339900669900999900CC9900FF9933009933339933669933999933CC9933FF9966009966339966669966999966CC9966FF9999009999339999669999999999CC9999FF99CC0099CC3399CC6699CC9999CCCC99CCFF99FF0099FF3399FF6699FF9999FFCC99FFFFCC0000CC00
310
33CC0066CC0099CC00CCCC00FFCC3300CC3333CC3366CC3399CC33CCCC33FFCC6600CC6633CC6666CC6699CC66CCCC66FFCC9900CC9933CC9966CC9999CC99CCCC99FFCCCC00CCCC33CCCC66CCCC99CCCCCCCCCCFFCCFF00CCFF33CCFF66CCFF99CCFFCCCCFFFFFF0000FF0033FF0066FF0099FF00CCFF00FFFF3300FF3333
310
FF3366FF3399FF33CCFF33FFFF6600FF6633FF6666FF6699FF66CCFF66FFFF9900FF9933FF9966FF9999FF99CCFF99FFFFCC00FFCC33FFCC66FFCC99FFCCCCFFCCFFFFFF00FFFF33FFFF66FFFF99FFFFCCFFFFFF0000000D0D0D1A1A1A2828283535354343435050505D5D5D6B6B6B787878868686939393A1A1A1AEAEAEBB
310
BBBBC9C9C9D6D6D6E4E4E4F1F1F1FFFFFF0000000000000000000000000000000000000000000000000000000000002E4550F10000031F4944415478DAED9CCB82C2200C45F9FFFFBDFB59E84CDB11C8EB8682255BB592E3250F9A5ACAB66DDBB66DDB4632C8F6DD3EDA79AC004758247CA6FCE40C5EEBFD2529A9F6EA70C7
310
958B1FBDCBF23D5F24F4245C5DF1AEE940F0AECA088637811800A0EEF4CDB19BFA6DE887A0CB4B770A352D76C1A0A9CA1B240DE4EB247A39D8425C0D01AB3C72BB11426004F0721812024FBE0FA51A3F0298FDAFD6FD94608CF866182100A27101B818D801A8D28167CF83526D598389034068C7F5523011807E793E00AC6E
310
F69A3169F5B625A07A15D02811602DD8400E02A76B21C5FFEAA52372408604DE22400A00C015771100E02A9574F9DD550639FA83CE974001C055EFA9446001F0D91C59F78EF08200C07E2C01B946B37602816D7F0300D93D142700280573E6A020C006F0BA227821009E85FCBA750700691B0C0170144FD2651B7B0011007D
310
02930038DE9000A04B601000BD043200F402C12C008E0E23034047044F01D024B00A80F8596A83C01A0058FD61AD895D1A008A616BD4DBF8C50118B646FB20723800B808499D89E12CE744C1DA0A2C0EE0AF813D46311E06E0ECFCE94ECCB3005C30DC02A0A40038ED6CE591E46D0A283328E0FDF1670238C9623E00C804F0
310
7F9F8C5300CA1C002E6960641D9005205C092E0EC003ABAA89D90150468BD0EC85663813CC3F10E974C3F900D402483D126B9F0825DD18F108A0E400788FA0976901A4DE1768C93F06A075CADCA9C3A1C18AF0C98F5EFE6600D7286C1D8A81862A0A1D40D77F7B142C1F73B076F15805100220DD21774DC9554F59E2FE2700
310
803821E04A84CA19211D00C5888C1B80E2E7755602D501E9D219120B4D89B91FCD5214D7EE528835069E07403727E65600A96B41510020D6BE0C00CCA71DB2FCD7BAEF4803CC071F12A6C5CFEEC32269636BEDE422E509C65307D66861DF039585B246C78900EC414D59CF4025086FC7C6F2DF1B8604FDA095FE299183E0BF
310
EBCC484CBDD20F9DF4048DCFFD6026D2AA6AB06779CEEB3F3AF59F3D70C4E3EDE697773E9242BECAFB9ADE596DD9A8F5E57D137CC76069CB19FF03A8FE55E51B1D57A57D7235B0DEBF30D5D7F908D7439561D9B66DDBB66DDB6EB41F5740EA94E54AACA90000000049454E44AE42608202FB07C5241FF92E788B7500000000
310
49454E44AE426082
  0
ENDSEC
  0
EOF
