  0
SECTION
  2
HEADER
  9
$ACADVER
  1
AC1032
  9
$ACADMAINTVER
 90
      197
  9
$DWGCODEPAGE
  3
ANSI_1252
  9
$LASTSAVEDBY
  1
gregb
  9
$REQUIREDVERSIONS
160
                 0
  9
$INSBASE
 10
0.0
 20
0.0
 30
0.0
  9
$EXTMIN
 10
10646.97923560874
 20
29240.70616025023
 30
0.0
  9
$EXTMAX
 10
10800.90965502597
 20
29410.69497123161
 30
0.0
  9
$LIMMIN
 10
0.0
 20
0.0
  9
$LIMMAX
 10
12.0
 20
9.0
  9
$ORTHOMODE
 70
     1
  9
$REGENMODE
 70
     1
  9
$FILLMODE
 70
     1
  9
$QTEXTMODE
 70
     0
  9
$MIRRTEXT
 70
     0
  9
$LTSCALE
 40
1.0
  9
$ATTMODE
 70
     1
  9
$TEXTSIZE
 40
0.2
  9
$TRACEWID
 40
0.05
  9
$TEXTSTYLE
  7
Standard
  9
$CLAYER
  8
freecads.com
  9
$CELTYPE
  6
ByLayer
  9
$CECOLOR
 62
   256
  9
$CELTSCALE
 40
1.0
  9
$DISPSILH
 70
     1
  9
$DIMSCALE
 40
1.0
  9
$DIMASZ
 40
0.18
  9
$DIMEXO
 40
0.0625
  9
$DIMDLI
 40
0.38
  9
$DIMRND
 40
0.0
  9
$DIMDLE
 40
0.0
  9
$DIMEXE
 40
0.18
  9
$DIMTP
 40
0.0
  9
$DIMTM
 40
0.0
  9
$DIMTXT
 40
0.18
  9
$DIMCEN
 40
0.09
  9
$DIMTSZ
 40
0.0
  9
$DIMTOL
 70
     0
  9
$DIMLIM
 70
     0
  9
$DIMTIH
 70
     1
  9
$DIMTOH
 70
     1
  9
$DIMSE1
 70
     0
  9
$DIMSE2
 70
     0
  9
$DIMTAD
 70
     0
  9
$DIMZIN
 70
     0
  9
$DIMBLK
  1

  9
$DIMASO
 70
     1
  9
$DIMSHO
 70
     1
  9
$DIMPOST
  1

  9
$DIMAPOST
  1

  9
$DIMALT
 70
     0
  9
$DIMALTD
 70
     2
  9
$DIMALTF
 40
25.4
  9
$DIMLFAC
 40
1.0
  9
$DIMTOFL
 70
     0
  9
$DIMTVP
 40
0.0
  9
$DIMTIX
 70
     0
  9
$DIMSOXD
 70
     0
  9
$DIMSAH
 70
     0
  9
$DIMBLK1
  1

  9
$DIMBLK2
  1

  9
$DIMSTYLE
  2
Standard
  9
$DIMCLRD
 70
     0
  9
$DIMCLRE
 70
     0
  9
$DIMCLRT
 70
     0
  9
$DIMTFAC
 40
1.0
  9
$DIMGAP
 40
0.09
  9
$DIMJUST
 70
     0
  9
$DIMSD1
 70
     0
  9
$DIMSD2
 70
     0
  9
$DIMTOLJ
 70
     1
  9
$DIMTZIN
 70
     0
  9
$DIMALTZ
 70
     0
  9
$DIMALTTZ
 70
     0
  9
$DIMUPT
 70
     0
  9
$DIMDEC
 70
     4
  9
$DIMTDEC
 70
     4
  9
$DIMALTU
 70
     2
  9
$DIMALTTD
 70
     2
  9
$DIMTXSTY
  7
Standard
  9
$DIMAUNIT
 70
     0
  9
$DIMADEC
 70
     0
  9
$DIMALTRND
 40
0.0
  9
$DIMAZIN
 70
     0
  9
$DIMDSEP
 70
    46
  9
$DIMATFIT
 70
     3
  9
$DIMFRAC
 70
     0
  9
$DIMLDRBLK
  1

  9
$DIMLUNIT
 70
     2
  9
$DIMLWD
 70
    -2
  9
$DIMLWE
 70
    -2
  9
$DIMTMOVE
 70
     0
  9
$DIMFXL
 40
1.0
  9
$DIMFXLON
 70
     0
  9
$DIMJOGANG
 40
0.7853981633974483
  9
$DIMTFILL
 70
     0
  9
$DIMTFILLCLR
 70
     0
  9
$DIMARCSYM
 70
     0
  9
$DIMLTYPE
  6

  9
$DIMLTEX1
  6

  9
$DIMLTEX2
  6

  9
$DIMTXTDIRECTION
 70
     0
  9
$LUNITS
 70
     2
  9
$LUPREC
 70
     4
  9
$SKETCHINC
 40
0.1
  9
$FILLETRAD
 40
0.0
  9
$AUNITS
 70
     0
  9
$AUPREC
 70
     0
  9
$MENU
  1
.
  9
$ELEVATION
 40
0.0
  9
$PELEVATION
 40
0.0
  9
$THICKNESS
 40
0.0
  9
$LIMCHECK
 70
     0
  9
$CHAMFERA
 40
0.0
  9
$CHAMFERB
 40
0.0
  9
$CHAMFERC
 40
0.0
  9
$CHAMFERD
 40
0.0
  9
$SKPOLY
 70
     0
  9
$TDCREATE
 40
2458157.371250000
  9
$TDUCREATE
 40
2458157.287916667
  9
$TDUPDATE
 40
2461016.553078704
  9
$TDUUPDATE
 40
2461016.469745370
  9
$TDINDWG
 40
0.0607060185
  9
$TDUSRTIMER
 40
0.0607060185
  9
$USRTIMER
 70
     1
  9
$ANGBASE
 50
0.0
  9
$ANGDIR
 70
     0
  9
$PDMODE
 70
     0
  9
$PDSIZE
 40
0.0
  9
$PLINEWID
 40
0.0
  9
$SPLFRAME
 70
     0
  9
$SPLINETYPE
 70
     6
  9
$SPLINESEGS
 70
     8
  9
$HANDSEED
  5
AEE9
  9
$SURFTAB1
 70
     6
  9
$SURFTAB2
 70
     6
  9
$SURFTYPE
 70
     6
  9
$SURFU
 70
     6
  9
$SURFV
 70
     6
  9
$UCSBASE
  2

  9
$UCSNAME
  2

  9
$UCSORG
 10
0.0
 20
0.0
 30
0.0
  9
$UCSXDIR
 10
1.0
 20
0.0
 30
0.0
  9
$UCSYDIR
 10
0.0
 20
1.0
 30
0.0
  9
$UCSORTHOREF
  2

  9
$UCSORTHOVIEW
 70
     0
  9
$UCSORGTOP
 10
0.0
 20
0.0
 30
0.0
  9
$UCSORGBOTTOM
 10
0.0
 20
0.0
 30
0.0
  9
$UCSORGLEFT
 10
0.0
 20
0.0
 30
0.0
  9
$UCSORGRIGHT
 10
0.0
 20
0.0
 30
0.0
  9
$UCSORGFRONT
 10
0.0
 20
0.0
 30
0.0
  9
$UCSORGBACK
 10
0.0
 20
0.0
 30
0.0
  9
$PUCSBASE
  2

  9
$PUCSNAME
  2

  9
$PUCSORG
 10
0.0
 20
0.0
 30
0.0
  9
$PUCSXDIR
 10
1.0
 20
0.0
 30
0.0
  9
$PUCSYDIR
 10
0.0
 20
1.0
 30
0.0
  9
$PUCSORTHOREF
  2

  9
$PUCSORTHOVIEW
 70
     0
  9
$PUCSORGTOP
 10
0.0
 20
0.0
 30
0.0
  9
$PUCSORGBOTTOM
 10
0.0
 20
0.0
 30
0.0
  9
$PUCSORGLEFT
 10
0.0
 20
0.0
 30
0.0
  9
$PUCSORGRIGHT
 10
0.0
 20
0.0
 30
0.0
  9
$PUCSORGFRONT
 10
0.0
 20
0.0
 30
0.0
  9
$PUCSORGBACK
 10
0.0
 20
0.0
 30
0.0
  9
$USERI1
 70
     0
  9
$USERI2
 70
     0
  9
$USERI3
 70
     0
  9
$USERI4
 70
     0
  9
$USERI5
 70
     0
  9
$USERR1
 40
0.0
  9
$USERR2
 40
0.0
  9
$USERR3
 40
0.0
  9
$USERR4
 40
0.0
  9
$USERR5
 40
0.0
  9
$WORLDVIEW
 70
     1
  9
$SHADEDGE
 70
     3
  9
$SHADEDIF
 70
    70
  9
$TILEMODE
 70
     1
  9
$MAXACTVP
 70
    64
  9
$PINSBASE
 10
0.0
 20
0.0
 30
0.0
  9
$PLIMCHECK
 70
     0
  9
$PEXTMIN
 10
0.0
 20
0.0
 30
0.0
  9
$PEXTMAX
 10
0.0
 20
0.0
 30
0.0
  9
$PLIMMIN
 10
0.0
 20
0.0
  9
$PLIMMAX
 10
12.0
 20
9.0
  9
$UNITMODE
 70
     0
  9
$VISRETAIN
 70
     1
  9
$PLINEGEN
 70
     0
  9
$PSLTSCALE
 70
     1
  9
$TREEDEPTH
 70
  3020
  9
$CMLSTYLE
  2
Standard
  9
$CMLJUST
 70
     0
  9
$CMLSCALE
 40
1.0
  9
$PROXYGRAPHICS
 70
     1
  9
$MEASUREMENT
 70
     0
  9
$CELWEIGHT
370
    -1
  9
$ENDCAPS
280
     0
  9
$JOINSTYLE
280
     0
  9
$LWDISPLAY
290
     0
  9
$INSUNITS
 70
     1
  9
$HYPERLINKBASE
  1

  9
$STYLESHEET
  1
monochrome.ctb
  9
$XEDIT
290
     1
  9
$CEPSNTYPE
380
     0
  9
$PSTYLEMODE
290
     1
  9
$FINGERPRINTGUID
  2
{358EB121-6EE0-9143-8A3E-6E8E8869FDA6}
  9
$VERSIONGUID
  2
{D6D580AD-A542-E242-89B1-8EC802A91281}
  9
$EXTNAMES
290
     1
  9
$PSVPSCALE
 40
0.0
  9
$OLESTARTUP
290
     0
  9
$SORTENTS
280
   127
  9
$INDEXCTL
280
     0
  9
$HIDETEXT
280
     1
  9
$XCLIPFRAME
280
     2
  9
$HALOGAP
280
     0
  9
$OBSCOLOR
 70
   257
  9
$OBSLTYPE
280
     0
  9
$INTERSECTIONDISPLAY
280
     0
  9
$INTERSECTIONCOLOR
 70
   257
  9
$DIMASSOC
280
     2
  9
$PROJECTNAME
  1

  9
$CAMERADISPLAY
290
     0
  9
$LENSLENGTH
 40
50.0
  9
$CAMERAHEIGHT
 40
0.0
  9
$STEPSPERSEC
 40
2.0
  9
$STEPSIZE
 40
6.0
  9
$3DDWFPREC
 40
2.0
  9
$PSOLWIDTH
 40
0.25
  9
$PSOLHEIGHT
 40
4.0
  9
$LOFTANG1
 40
1.570796326794896
  9
$LOFTANG2
 40
1.570796326794896
  9
$LOFTMAG1
 40
0.0
  9
$LOFTMAG2
 40
0.0
  9
$LOFTPARAM
 70
     7
  9
$LOFTNORMALS
280
     1
  9
$LATITUDE
 40
37.795
  9
$LONGITUDE
 40
-122.394
  9
$NORTHDIRECTION
 40
0.0
  9
$TIMEZONE
 70
 -8000
  9
$LIGHTGLYPHDISPLAY
280
     1
  9
$TILEMODELIGHTSYNCH
280
     1
  9
$CMATERIAL
347
96
  9
$SOLIDHIST
280
     0
  9
$SHOWHIST
280
     1
  9
$DWFFRAME
280
     2
  9
$DGNFRAME
280
     0
  9
$REALWORLDSCALE
290
     1
  9
$INTERFERECOLOR
 62
     1
  9
$INTERFEREOBJVS
345
A3
  9
$INTERFEREVPVS
346
A0
  9
$CSHADOW
280
     0
  9
$SHADOWPLANELOCATION
 40
0.0
  0
ENDSEC
  0
SECTION
  2
CLASSES
  0
CLASS
  1
ACDBDICTIONARYWDFLT
  2
AcDbDictionaryWithDefault
  3
ObjectDBX Classes
 90
        0
 91
        1
280
     0
281
     0
  0
CLASS
  1
DICTIONARYVAR
  2
AcDbDictionaryVar
  3
ObjectDBX Classes
 90
        0
 91
        9
280
     0
281
     0
  0
CLASS
  1
TABLESTYLE
  2
AcDbTableStyle
  3
ObjectDBX Classes
 90
     4095
 91
        1
280
     0
281
     0
  0
CLASS
  1
MATERIAL
  2
AcDbMaterial
  3
ObjectDBX Classes
 90
     1153
 91
        3
280
     0
281
     0
  0
CLASS
  1
VISUALSTYLE
  2
AcDbVisualStyle
  3
ObjectDBX Classes
 90
     4095
 91
       25
280
     0
281
     0
  0
CLASS
  1
SCALE
  2
AcDbScale
  3
ObjectDBX Classes
 90
     1153
 91
       35
280
     0
281
     0
  0
CLASS
  1
MLEADERSTYLE
  2
AcDbMLeaderStyle
  3
ACDB_MLEADERSTYLE_CLASS
 90
     4095
 91
        1
280
     0
281
     0
  0
CLASS
  1
CELLSTYLEMAP
  2
AcDbCellStyleMap
  3
ObjectDBX Classes
 90
     1152
 91
        1
280
     0
281
     0
  0
CLASS
  1
EXACXREFPANELOBJECT
  2
ExAcXREFPanelObject
  3
EXAC_ESW
 90
     1025
 91
        0
280
     0
281
     0
  0
CLASS
  1
NPOCOLLECTION
  2
AcDbImpNonPersistentObjectsCollection
  3
ObjectDBX Classes
 90
     1153
 91
        0
280
     0
281
     0
  0
CLASS
  1
LAYER_INDEX
  2
AcDbLayerIndex
  3
ObjectDBX Classes
 90
        0
 91
        0
280
     0
281
     0
  0
CLASS
  1
SPATIAL_INDEX
  2
AcDbSpatialIndex
  3
ObjectDBX Classes
 90
        0
 91
        0
280
     0
281
     0
  0
CLASS
  1
IDBUFFER
  2
AcDbIdBuffer
  3
ObjectDBX Classes
 90
        0
 91
        0
280
     0
281
     0
  0
CLASS
  1
ACDBSECTIONVIEWSTYLE
  2
AcDbSectionViewStyle
  3
ObjectDBX Classes
 90
     1025
 91
        2
280
     0
281
     0
  0
CLASS
  1
ACDBDETAILVIEWSTYLE
  2
AcDbDetailViewStyle
  3
ObjectDBX Classes
 90
     1025
 91
        2
280
     0
281
     0
  0
CLASS
  1
SORTENTSTABLE
  2
AcDbSortentsTable
  3
ObjectDBX Classes
 90
        0
 91
        1
280
     0
281
     0
  0
CLASS
  1
SPATIAL_FILTER
  2
AcDbSpatialFilter
  3
ObjectDBX Classes
 90
        0
 91
        0
280
     0
281
     0
  0
CLASS
  1
SOLID_BACKGROUND
  2
AcDbSolidBackground
  3
SCENEOE
 90
     4095
 91
        0
280
     0
281
     0
  0
ENDSEC
  0
SECTION
  2
TABLES
  0
TABLE
  2
VPORT
  5
8
330
0
100
AcDbSymbolTable
 70
     1
  0
VPORT
  5
94
330
8
100
AcDbSymbolTableRecord
100
AcDbViewportTableRecord
  2
*Active
 70
     0
 10
0.0
 20
0.0
 11
1.0
 21
1.0
 12
10723.89572704433
 22
29338.39818952722
 13
0.0
 23
0.0
 14
0.5
 24
0.5
 15
0.5
 25
0.5
 16
0.0
 26
0.0
 36
1.0
 17
0.0
 27
0.0
 37
0.0
 40
192.6833785395286
 41
2.066284779050736
 42
50.0
 43
0.0
 44
0.0
 50
0.0
 51
0.0
 71
     0
 72
  1000
 73
     1
 74
     3
 75
     0
 76
     0
 77
     0
 78
     0
281
     0
 65
     1
110
0.0
120
0.0
130
0.0
111
1.0
121
0.0
131
0.0
112
0.0
122
1.0
132
0.0
 79
     0
146
0.0
348
9F
 60
     3
 61
     5
292
     1
282
     1
141
0.0
142
0.0
 63
   250
421
  3355443
1001
ACAD_NAV_VCDISPLAY
1070
     3
  0
ENDTAB
  0
TABLE
  2
LTYPE
  5
5
330
0
100
AcDbSymbolTable
 70
     1
  0
LTYPE
  5
14
330
5
100
AcDbSymbolTableRecord
100
AcDbLinetypeTableRecord
  2
ByBlock
 70
     0
  3

 72
    65
 73
     0
 40
0.0
  0
LTYPE
  5
15
330
5
100
AcDbSymbolTableRecord
100
AcDbLinetypeTableRecord
  2
ByLayer
 70
     0
  3

 72
    65
 73
     0
 40
0.0
  0
LTYPE
  5
16
330
5
100
AcDbSymbolTableRecord
100
AcDbLinetypeTableRecord
  2
Continuous
 70
     0
  3
Solid line
 72
    65
 73
     0
 40
0.0
  0
ENDTAB
  0
TABLE
  2
LAYER
  5
2
102
{ACAD_XDICTIONARY
360
18E
102
}
330
0
100
AcDbSymbolTable
 70
     2
  0
LAYER
  5
10
102
{ACAD_XDICTIONARY
360
E6
102
}
330
2
100
AcDbSymbolTableRecord
100
AcDbLayerTableRecord
  2
0
 70
     0
 62
     7
  6
Continuous
370
    -3
390
F
347
98
348
0
  0
LAYER
  5
204
330
2
100
AcDbSymbolTableRecord
100
AcDbLayerTableRecord
  2
freecads.com
 70
     0
 62
     7
  6
Continuous
370
    -3
390
F
347
98
348
0
1001
AcAecLayerStandard
1000

1000

1001
AcCmTransparency
1071
        0
  0
ENDTAB
  0
TABLE
  2
STYLE
  5
3
330
0
100
AcDbSymbolTable
 70
     1
  0
STYLE
  5
11
330
3
100
AcDbSymbolTableRecord
100
AcDbTextStyleTableRecord
  2
Standard
 70
     0
 40
0.0
 41
1.0
 50
0.0
 71
     0
 42
0.2
  3
arial.ttf
  4

1001
ACAD
1000
Arial
1071
       34
  0
ENDTAB
  0
TABLE
  2
VIEW
  5
6
330
0
100
AcDbSymbolTable
 70
     0
  0
ENDTAB
  0
TABLE
  2
UCS
  5
7
330
0
100
AcDbSymbolTable
 70
     0
  0
ENDTAB
  0
TABLE
  2
APPID
  5
9
330
0
100
AcDbSymbolTable
 70
    23
  0
APPID
  5
12
330
9
100
AcDbSymbolTableRecord
100
AcDbRegAppTableRecord
  2
ACAD
 70
     0
  0
APPID
  5
DD
330
9
100
AcDbSymbolTableRecord
100
AcDbRegAppTableRecord
  2
AcadAnnoPO
 70
     0
  0
APPID
  5
DE
330
9
100
AcDbSymbolTableRecord
100
AcDbRegAppTableRecord
  2
AcadAnnotative
 70
     0
  0
APPID
  5
DF
330
9
100
AcDbSymbolTableRecord
100
AcDbRegAppTableRecord
  2
ACAD_DSTYLE_DIMJAG
 70
     0
  0
APPID
  5
E0
330
9
100
AcDbSymbolTableRecord
100
AcDbRegAppTableRecord
  2
ACAD_DSTYLE_DIMTALN
 70
     0
  0
APPID
  5
107
330
9
100
AcDbSymbolTableRecord
100
AcDbRegAppTableRecord
  2
ACAD_MLEADERVER
 70
     0
  0
APPID
  5
1A6
330
9
100
AcDbSymbolTableRecord
100
AcDbRegAppTableRecord
  2
ACAD_NAV_VCDISPLAY
 70
     0
  0
APPID
  5
205
330
9
100
AcDbSymbolTableRecord
100
AcDbRegAppTableRecord
  2
AcAecLayerStandard
 70
     0
  0
APPID
  5
206
330
9
100
AcDbSymbolTableRecord
100
AcDbRegAppTableRecord
  2
AcCmTransparency
 70
     0
  0
APPID
  5
222
330
9
100
AcDbSymbolTableRecord
100
AcDbRegAppTableRecord
  2
ACAD_PSEXT
 70
     0
  0
APPID
  5
2DA
330
9
100
AcDbSymbolTableRecord
100
AcDbRegAppTableRecord
  2
GradientColor1ACI
 70
     0
  0
APPID
  5
2DB
330
9
100
AcDbSymbolTableRecord
100
AcDbRegAppTableRecord
  2
GradientColor2ACI
 70
     0
  0
APPID
  5
2F3
330
9
100
AcDbSymbolTableRecord
100
AcDbRegAppTableRecord
  2
ACAD_EXEMPT_FROM_CAD_STANDARDS
 70
     0
  0
APPID
  5
A1A
330
9
100
AcDbSymbolTableRecord
100
AcDbRegAppTableRecord
  2
AcDbBlockRepETag
 70
     0
  0
APPID
  5
228C
330
9
100
AcDbSymbolTableRecord
100
AcDbRegAppTableRecord
  2
RAK
 70
     0
  0
APPID
  5
2683
330
9
100
AcDbSymbolTableRecord
100
AcDbRegAppTableRecord
  2
ACAD_DSTYLE_DIMJOGGED_JOGANGLE_SYMBOL
 70
     0
  0
APPID
  5
47CF
330
9
100
AcDbSymbolTableRecord
100
AcDbRegAppTableRecord
  2
ACAD_DSTYLE_DIMBREAK
 70
     0
  0
APPID
  5
47D0
330
9
100
AcDbSymbolTableRecord
100
AcDbRegAppTableRecord
  2
AcDbDynamicBlockGUID
 70
     0
  0
APPID
  5
8BD5
330
9
100
AcDbSymbolTableRecord
100
AcDbRegAppTableRecord
  2
AcLayerTools
 70
     0
  0
APPID
  5
92D9
330
9
100
AcDbSymbolTableRecord
100
AcDbRegAppTableRecord
  2
AutoGrph01
 70
     0
  0
APPID
  5
92DA
330
9
100
AcDbSymbolTableRecord
100
AcDbRegAppTableRecord
  2
AutoGrphVars
 70
     0
  0
APPID
  5
92DB
330
9
100
AcDbSymbolTableRecord
100
AcDbRegAppTableRecord
  2
AutoGrphZ
 70
     0
  0
APPID
  5
92DC
330
9
100
AcDbSymbolTableRecord
100
AcDbRegAppTableRecord
  2
AutoGrph05
 70
     0
  0
ENDTAB
  0
TABLE
  2
DIMSTYLE
  5
A
330
0
100
AcDbSymbolTable
 70
     1
100
AcDbDimStyleTable
 71
     1
340
27
  0
DIMSTYLE
105
27
330
A
100
AcDbSymbolTableRecord
100
AcDbDimStyleTableRecord
  2
Standard
 70
     0
340
11
  0
ENDTAB
  0
TABLE
  2
BLOCK_RECORD
  5
1
330
0
100
AcDbSymbolTable
 70
     1
  0
BLOCK_RECORD
  5
1F
102
{ACAD_XDICTIONARY
360
15D
102
}
330
1
100
AcDbSymbolTableRecord
100
AcDbBlockTableRecord
  2
*Model_Space
340
22
 70
     0
280
     1
281
     0
  0
BLOCK_RECORD
  5
58
330
1
100
AcDbSymbolTableRecord
100
AcDbBlockTableRecord
  2
*Paper_Space
340
59
 70
     0
280
     1
281
     0
  0
BLOCK_RECORD
  5
5D
330
1
100
AcDbSymbolTableRecord
100
AcDbBlockTableRecord
  2
*Paper_Space0
340
5E
 70
     0
280
     1
281
     0
  0
ENDTAB
  0
ENDSEC
  0
SECTION
  2
BLOCKS
  0
BLOCK
  5
20
330
1F
100
AcDbEntity
  8
0
100
AcDbBlockBegin
  2
*Model_Space
 70
     0
 10
0.0
 20
0.0
 30
0.0
  3
*Model_Space
  1

  0
ENDBLK
  5
21
330
1F
100
AcDbEntity
  8
0
100
AcDbBlockEnd
  0
BLOCK
  5
5A
330
58
100
AcDbEntity
 67
     1
  8
0
100
AcDbBlockBegin
  2
*Paper_Space
 70
     0
 10
0.0
 20
0.0
 30
0.0
  3
*Paper_Space
  1

  0
ENDBLK
  5
5B
330
58
100
AcDbEntity
 67
     1
  8
0
100
AcDbBlockEnd
  0
BLOCK
  5
5F
330
5D
100
AcDbEntity
 67
     1
  8
0
100
AcDbBlockBegin
  2
*Paper_Space0
 70
     0
 10
0.0
 20
0.0
 30
0.0
  3
*Paper_Space0
  1

  0
ENDBLK
  5
60
330
5D
100
AcDbEntity
 67
     1
  8
0
100
AcDbBlockEnd
  0
ENDSEC
  0
SECTION
  2
ENTITIES
  0
ARC
  5
AA4F
330
1F
100
AcDbEntity
  8
freecads.com
100
AcDbCircle
 10
10696.0694721251
 20
29407.96474264038
 30
0.0
 40
3.227216856213593
100
AcDbArc
 50
358.9357255188669
 51
14.65499289428076
  0
ARC
  5
AA50
330
1F
100
AcDbEntity
  8
freecads.com
100
AcDbCircle
 10
10697.86298960861
 20
29407.93142258421
 30
0.0
 40
1.433389888588103
100
AcDbArc
 50
330.1065442590317
 51
358.9357842084197
  0
ARC
  5
AA51
330
1F
100
AcDbEntity
  8
freecads.com
100
AcDbCircle
 10
10697.88594495058
 20
29407.91822830742
 30
0.0
 40
1.40691279166818
100
AcDbArc
 50
300.9429873446439
 51
330.1064686459866
  0
ARC
  5
AA52
330
1F
100
AcDbEntity
  8
freecads.com
100
AcDbCircle
 10
10697.03241548866
 20
29409.34193932159
 30
0.0
 40
3.066872307501022
100
AcDbArc
 50
284.6549934082201
 51
300.9430606088273
  0
ARC
  5
AA53
330
1F
100
AcDbEntity
  8
freecads.com
100
AcDbCircle
 10
10698.42422785463
 20
29404.01964284829
 30
0.0
 40
2.434398583100782
100
AcDbArc
 50
104.6550293358386
 51
126.0658341933598
  0
ARC
  5
AA54
330
1F
100
AcDbEntity
  8
freecads.com
100
AcDbCircle
 10
10698.28510162829
 20
29404.21067421336
 30
0.0
 40
2.198074463937949
100
AcDbArc
 50
126.0658727595038
 51
149.1802827472548
  0
ARC
  5
AA55
330
1F
100
AcDbEntity
  8
freecads.com
100
AcDbCircle
 10
10698.89850586272
 20
29403.84473104938
 30
0.0
 40
2.912342728716673
100
AcDbArc
 50
149.1803724765517
 51
168.7771323116014
  0
ARC
  5
AA56
330
1F
100
AcDbEntity
  8
freecads.com
100
AcDbCircle
 10
10702.06135650784
 20
29403.21716116003
 30
0.0
 40
6.136853260462073
100
AcDbArc
 50
168.7771629343352
 51
179.9999899954654
  0
ARC
  5
AA57
330
1F
100
AcDbEntity
  8
freecads.com
100
AcDbCircle
 10
10689.03563065218
 20
29403.21716685969
 30
0.0
 40
6.888872595195797
100
AcDbArc
 50
341.2980718962154
 51
359.9999615074401
  0
ARC
  5
AA58
330
1F
100
AcDbEntity
  8
freecads.com
100
AcDbCircle
 10
10690.81810270631
 20
29402.61376786192
 30
0.0
 40
5.00703918751942
100
AcDbArc
 50
317.544311582532
 51
341.2980571273217
  0
ARC
  5
AA59
330
1F
100
AcDbEntity
  8
freecads.com
100
AcDbCircle
 10
10691.97032857036
 20
29401.5595787258
 30
0.0
 40
3.445328850592544
100
AcDbArc
 50
287.9969839162767
 51
317.5443955337736
  0
ARC
  5
AA5A
330
1F
100
AcDbEntity
  8
freecads.com
100
AcDbCircle
 10
10692.30003285339
 20
29400.54467198895
 30
0.0
 40
2.378210957039073
100
AcDbArc
 50
249.0064249919253
 51
287.9969802749053
  0
ARC
  5
AA5B
330
1F
100
AcDbEntity
  8
freecads.com
100
AcDbCircle
 10
10690.15099409788
 20
29394.94435624339
 30
0.0
 40
3.620280855299338
100
AcDbArc
 50
69.00643287613798
 51
82.18550065555337
  0
ARC
  5
AA5C
330
1F
100
AcDbEntity
  8
freecads.com
100
AcDbCircle
 10
10690.59253629137
 20
29398.16163694731
 30
0.0
 40
0.3728426901479093
100
AcDbArc
 50
82.18551315607317
 51
151.8320468460053
  0
ARC
  5
AA5D
330
1F
100
AcDbEntity
  8
freecads.com
100
AcDbCircle
 10
10691.04922341362
 20
29397.91709323492
 30
0.0
 40
0.8908820273575505
100
AcDbArc
 50
151.8321034240861
 51
189.7958503951126
  0
ARC
  5
AA5E
330
1F
100
AcDbEntity
  8
freecads.com
100
AcDbCircle
 10
10707.76371481406
 20
29400.80294194977
 30
0.0
 40
17.85267278129817
100
AcDbArc
 50
189.7958547362398
 51
194.089327292737
  0
ARC
  5
AA5F
330
1F
100
AcDbEntity
  8
freecads.com
100
AcDbCircle
 10
10683.04518381149
 20
29394.59897629344
 30
0.0
 40
7.632518306667355
100
AcDbArc
 50
5.064598304769991
 51
14.08928733960967
  0
ARC
  5
AA60
330
1F
100
AcDbEntity
  8
freecads.com
100
AcDbCircle
 10
10688.41608468428
 20
29395.07497319939
 30
0.0
 40
2.24056604056977
100
AcDbArc
 50
342.5853052648002
 51
5.064558229598926
  0
ARC
  5
AA61
330
1F
100
AcDbEntity
  8
freecads.com
100
AcDbCircle
 10
10689.18026628567
 20
29394.83527365582
 30
0.0
 40
1.439673169414474
100
AcDbArc
 50
313.0642027403069
 51
342.5854681767929
  0
ARC
  5
AA62
330
1F
100
AcDbEntity
  8
freecads.com
100
AcDbCircle
 10
10688.71380203058
 20
29395.33437476034
 30
0.0
 40
2.122820894158764
100
AcDbArc
 50
290.9935601722198
 51
313.0641683104867
  0
ARC
  5
AA63
330
1F
100
AcDbEntity
  8
freecads.com
100
AcDbCircle
 10
10689.98941529777
 20
29392.01017664291
 30
0.0
 40
1.4377243353606
100
AcDbArc
 50
110.993628181214
 51
166.1675695842655
  0
ARC
  5
AA64
330
1F
100
AcDbEntity
  8
freecads.com
100
AcDbCircle
 10
10694.4243893839
 20
29390.91818623092
 30
0.0
 40
6.005156677985619
100
AcDbArc
 50
166.1676232744637
 51
185.2888001003055
  0
ARC
  5
AA65
330
1F
100
AcDbEntity
  8
freecads.com
100
AcDbCircle
 10
10697.15293249867
 20
29391.17077209111
 30
0.0
 40
8.745366003196135
100
AcDbArc
 50
185.2888295284076
 51
201.1214620475275
  0
ARC
  5
AA66
330
1F
100
AcDbEntity
  8
freecads.com
100
AcDbCircle
 10
10696.37826267689
 20
29390.87152666326
 30
0.0
 40
7.914907600381146
100
AcDbArc
 50
201.1215174939515
 51
218.1842326456002
  0
ARC
  5
AA67
330
1F
100
AcDbEntity
  8
freecads.com
100
AcDbCircle
 10
10687.82355207865
 20
29384.14344003206
 30
0.0
 40
2.968576360956254
100
AcDbArc
 50
7.971549275780092
 51
38.18429930271292
  0
ARC
  5
AA68
330
1F
100
AcDbEntity
  8
freecads.com
100
AcDbCircle
 10
10689.11184857918
 20
29384.32384735542
 30
0.0
 40
1.667709467073185
100
AcDbArc
 50
321.5010285141513
 51
7.971502907380412
  0
ARC
  5
AA69
330
1F
100
AcDbEntity
  8
freecads.com
100
AcDbCircle
 10
10687.44794931913
 20
29385.6473226763
 30
0.0
 40
3.79377335900624
100
AcDbArc
 50
293.9910117498396
 51
321.5010420592755
  0
ARC
  5
AA6A
330
1F
100
AcDbEntity
  8
freecads.com
100
AcDbCircle
 10
10681.24410745795
 20
29399.587224938
 30
0.0
 40
19.05183774818543
100
AcDbArc
 50
285.672617637393
 51
293.9910601791869
  0
LINE
  5
AA6B
330
1F
100
AcDbEntity
  8
freecads.com
100
AcDbLine
 10
10686.39077724738
 20
29381.2437162316
 30
0.0
 11
10682.47454224737
 21
29380.1449322316
 31
0.0
  0
LINE
  5
AA6C
330
1F
100
AcDbEntity
  8
freecads.com
100
AcDbLine
 10
10682.47454224737
 20
29380.1449322316
 30
0.0
 11
10684.52282424737
 21
29378.0966502316
 31
0.0
  0
ARC
  5
AA6D
330
1F
100
AcDbEntity
  8
freecads.com
100
AcDbCircle
 10
10672.64170131366
 20
29366.21553804629
 30
0.0
 40
16.80243758881345
100
AcDbArc
 50
39.22074275650888
 51
44.99997408332396
  0
ARC
  5
AA6E
330
1F
100
AcDbEntity
  8
freecads.com
100
AcDbCircle
 10
10684.39831195007
 20
29375.81108915992
 30
0.0
 40
1.627046495654449
100
AcDbArc
 50
7.154749393048188
 51
39.22063388123957
  0
ARC
  5
AA6F
330
1F
100
AcDbEntity
  8
freecads.com
100
AcDbCircle
 10
10684.52668402698
 20
29375.82720314586
 30
0.0
 40
1.497667012454564
100
AcDbArc
 50
333.1771746964518
 51
7.154756465061168
  0
ARC
  5
AA70
330
1F
100
AcDbEntity
  8
freecads.com
100
AcDbCircle
 10
10673.85134283604
 20
29381.22505532155
 30
0.0
 40
13.4600964334996
100
AcDbArc
 50
326.4168199918449
 51
333.1771356755068
  0
ARC
  5
AA71
330
1F
100
AcDbEntity
  8
freecads.com
100
AcDbCircle
 10
10693.26886837466
 20
29368.33229821507
 30
0.0
 40
9.84791686342438
100
AcDbArc
 50
146.416825204564
 51
154.4546469069543
  0
ARC
  5
AA72
330
1F
100
AcDbEntity
  8
freecads.com
100
AcDbCircle
 10
10686.97714659311
 20
29371.33940755787
 30
0.0
 40
2.874505246727326
100
AcDbArc
 50
154.4545814799965
 51
174.5599595072233
  0
ARC
  5
AA73
330
1F
100
AcDbEntity
  8
freecads.com
100
AcDbCircle
 10
10686.33710322208
 20
29371.40035924387
 30
0.0
 40
2.23156619453894
100
AcDbArc
 50
174.5599201646152
 51
198.0912212348792
  0
ARC
  5
AA74
330
1F
100
AcDbEntity
  8
freecads.com
100
AcDbCircle
 10
10688.50622822621
 20
29372.10897406581
 30
0.0
 40
4.51350358399954
100
AcDbArc
 50
198.0912613348888
 51
211.9851720985493
  0
ARC
  5
AA75
330
1F
100
AcDbEntity
  8
freecads.com
100
AcDbCircle
 10
10680.96678332316
 20
29367.4005186064
 30
0.0
 40
4.375409862498047
100
AcDbArc
 50
19.97323687117624
 51
31.98517216419259
  0
ARC
  5
AA76
330
1F
100
AcDbEntity
  8
freecads.com
100
AcDbCircle
 10
10678.54087540716
 20
29366.51885692629
 30
0.0
 40
6.956563971614652
100
AcDbArc
 50
11.48623736174954
 51
19.97313203163463
  0
ARC
  5
AA77
330
1F
100
AcDbEntity
  8
freecads.com
100
AcDbCircle
 10
10678.77345231732
 20
29366.56611616939
 30
0.0
 40
6.719234126890698
100
AcDbArc
 50
2.89109699181515
 51
11.48624478820196
  0
ARC
  5
AA78
330
1F
100
AcDbEntity
  8
freecads.com
100
AcDbCircle
 10
10682.08454718189
 20
29366.73332825388
 30
0.0
 40
3.403919800415976
100
AcDbArc
 50
348.5945174398092
 51
2.891179847661976
  0
ARC
  5
AA79
330
1F
100
AcDbEntity
  8
freecads.com
100
AcDbCircle
 10
10245.14584838491
 20
29454.87958202314
 30
0.0
 40
449.1450874750583
100
AcDbArc
 50
347.928228092414
 51
348.5944615399283
  0
ARC
  5
AA7A
330
1F
100
AcDbEntity
  8
freecads.com
100
AcDbCircle
 10
10679.6443133221
 20
29361.95506864692
 30
0.0
 40
4.821015182113448
100
AcDbArc
 50
330.9978683054446
 51
347.9281590674592
  0
ARC
  5
AA7B
330
1F
100
AcDbEntity
  8
freecads.com
100
AcDbCircle
 10
10683.27039674
 20
29359.94492188912
 30
0.0
 40
0.6750326759452838
100
AcDbArc
 50
260.5307245662748
 51
330.9978336887358
  0
ARC
  5
AA7C
330
1F
100
AcDbEntity
  8
freecads.com
100
AcDbCircle
 10
10683.83350720303
 20
29363.32105720227
 30
0.0
 40
4.097806849959793
100
AcDbArc
 50
241.8449970314107
 51
260.5307226622719
  0
ARC
  5
AA7D
330
1F
100
AcDbEntity
  8
freecads.com
100
AcDbCircle
 10
10684.11801317446
 20
29363.85266885231
 30
0.0
 40
4.700761735684388
100
AcDbArc
 50
230.7571150533665
 51
241.84504418568
  0
ARC
  5
AA7E
330
1F
100
AcDbEntity
  8
freecads.com
100
AcDbCircle
 10
10684.04558963738
 20
29363.76401632772
 30
0.0
 40
4.586287115004236
100
AcDbArc
 50
219.4623636589324
 51
230.7572093150192
  0
ARC
  5
AA7F
330
1F
100
AcDbEntity
  8
freecads.com
100
AcDbCircle
 10
10683.36038793099
 20
29363.1999325255
 30
0.0
 40
3.698767022622979
100
AcDbArc
 50
207.0657744083674
 51
219.4623320678455
  0
ARC
  5
AA80
330
1F
100
AcDbEntity
  8
freecads.com
100
AcDbCircle
 10
10681.2228488312
 20
29362.10771016685
 30
0.0
 40
1.298345583824359
100
AcDbArc
 50
179.9999971424846
 51
207.0658111189433
  0
ARC
  5
AA81
330
1F
100
AcDbEntity
  8
freecads.com
100
AcDbCircle
 10
10678.20665218717
 20
29362.10770919234
 30
0.0
 40
1.717851060205108
100
AcDbArc
 50
0.0000346628765325
 51
20.68862309262684
  0
ARC
  5
AA82
330
1F
100
AcDbEntity
  8
freecads.com
100
AcDbCircle
 10
10675.4647064498
 20
29361.07224429943
 30
0.0
 40
4.648798683603875
100
AcDbArc
 50
20.68853181657535
 51
30.53001840051726
  0
ARC
  5
AA83
330
1F
100
AcDbEntity
  8
freecads.com
100
AcDbCircle
 10
10674.85506409328
 20
29360.71270178464
 30
0.0
 40
5.35656603435586
100
AcDbArc
 50
30.53006779784824
 51
39.85404819662345
  0
ARC
  5
AA84
330
1F
100
AcDbEntity
  8
freecads.com
100
AcDbCircle
 10
10675.43767894886
 20
29361.19904704283
 30
0.0
 40
4.59763798763517
100
AcDbArc
 50
39.85407664249326
 51
50.30994240308319
  0
ARC
  5
AA85
330
1F
100
AcDbEntity
  8
freecads.com
100
AcDbCircle
 10
10673.77281041929
 20
29359.19302541135
 30
0.0
 40
7.204534611301661
100
AcDbArc
 50
50.30978799975507
 51
58.72092611125989
  0
ARC
  5
AA86
330
1F
100
AcDbEntity
  8
freecads.com
100
AcDbCircle
 10
10677.22218798907
 20
29364.87092616689
 30
0.0
 40
0.5609841592648774
100
AcDbArc
 50
58.72088382005241
 51
113.0919871499517
  0
ARC
  5
AA87
330
1F
100
AcDbEntity
  8
freecads.com
100
AcDbCircle
 10
10677.27939123999
 20
29364.73676409976
 30
0.0
 40
0.7068322726273828
100
AcDbArc
 50
113.0920210561687
 51
159.2919665576059
  0
ARC
  5
AA88
330
1F
100
AcDbEntity
  8
freecads.com
100
AcDbCircle
 10
10687.35998130849
 20
29360.92602909826
 30
0.0
 40
11.48365914239163
100
AcDbArc
 50
159.2920499221433
 51
165.3449725869561
  0
ARC
  5
AA89
330
1F
100
AcDbEntity
  8
freecads.com
100
AcDbCircle
 10
10671.25184042833
 20
29365.13841164352
 30
0.0
 40
5.166156752170453
100
AcDbArc
 50
333.7021626146322
 51
345.3449521250111
  0
ARC
  5
AA8A
330
1F
100
AcDbEntity
  8
freecads.com
100
AcDbCircle
 10
10674.56215732219
 20
29363.50250827925
 30
0.0
 40
1.473680922190063
100
AcDbArc
 50
304.0879779885659
 51
333.7021039412682
  0
ARC
  5
AA8B
330
1F
100
AcDbEntity
  8
freecads.com
100
AcDbCircle
 10
10674.72942097227
 20
29363.25534992926
 30
0.0
 40
1.175244365101489
100
AcDbArc
 50
269.903483958064
 51
304.0879582793955
  0
ARC
  5
AA8C
330
1F
100
AcDbEntity
  8
freecads.com
100
AcDbCircle
 10
10674.73228998292
 20
29364.95877853291
 30
0.0
 40
2.878675384830861
100
AcDbArc
 50
252.3911676885848
 51
269.9034930388016
  0
ARC
  5
AA8D
330
1F
100
AcDbEntity
  8
freecads.com
100
AcDbCircle
 10
10673.13520165295
 20
29359.92680198246
 30
0.0
 40
2.40066918983351
100
AcDbArc
 50
72.39122340297635
 51
93.70592367676424
  0
ARC
  5
AA8E
330
1F
100
AcDbEntity
  8
freecads.com
100
AcDbCircle
 10
10673.10260508625
 20
29360.430068397
 30
0.0
 40
1.896348240267517
100
AcDbArc
 50
93.70593760368405
 51
119.1413848331692
  0
ARC
  5
AA8F
330
1F
100
AcDbEntity
  8
freecads.com
100
AcDbCircle
 10
10673.44288310305
 20
29359.81975531814
 30
0.0
 40
2.595112279791408
100
AcDbArc
 50
119.141471324147
 51
140.2207631983183
  0
ARC
  5
AA90
330
1F
100
AcDbEntity
  8
freecads.com
100
AcDbCircle
 10
10676.33791390453
 20
29357.40947872785
 30
0.0
 40
6.362158414796575
100
AcDbArc
 50
140.2207305913513
 51
151.0091132381961
  0
ARC
  5
AA91
330
1F
100
AcDbEntity
  8
freecads.com
100
AcDbCircle
 10
10681.23351913332
 20
29354.69682925909
 30
0.0
 40
11.95906985741149
100
AcDbArc
 50
151.0091592579386
 51
156.0551851589234
  0
ARC
  5
AA92
330
1F
100
AcDbEntity
  8
freecads.com
100
AcDbCircle
 10
10679.1275775651
 20
29355.63202137651
 30
0.0
 40
9.654818528838076
100
AcDbArc
 50
156.0551630565313
 51
161.979601765122
  0
ARC
  5
AA93
330
1F
100
AcDbEntity
  8
freecads.com
100
AcDbCircle
 10
10677.5422484948
 20
29356.14774735484
 30
0.0
 40
7.98771278957885
100
AcDbArc
 50
161.9795831944001
 51
167.9631112486075
  0
ARC
  5
AA94
330
1F
100
AcDbEntity
  8
freecads.com
100
AcDbCircle
 10
10670.68253170956
 20
29357.61044219175
 30
0.0
 40
0.97378446377643
100
AcDbArc
 50
167.9631319389367
 51
196.1420310666117
  0
ARC
  5
AA95
330
1F
100
AcDbEntity
  8
freecads.com
100
AcDbCircle
 10
10668.91902633846
 20
29357.10003046902
 30
0.0
 40
0.8620998791574077
100
AcDbArc
 50
347.392442376304
 51
16.14205059430321
  0
ARC
  5
AA96
330
1F
100
AcDbEntity
  8
freecads.com
100
AcDbCircle
 10
10666.17607072387
 20
29357.71353135461
 30
0.0
 40
3.672827336634299
100
AcDbArc
 50
337.5933108971746
 51
347.3924764032702
  0
ARC
  5
AA97
330
1F
100
AcDbEntity
  8
freecads.com
100
AcDbCircle
 10
10665.25965812619
 20
29358.09137829559
 30
0.0
 40
4.664079252137012
100
AcDbArc
 50
328.5861990200072
 51
337.5932682508871
  0
ARC
  5
AA98
330
1F
100
AcDbEntity
  8
freecads.com
100
AcDbCircle
 10
10664.78441352092
 20
29358.38160776379
 30
0.0
 40
5.220937024676863
100
AcDbArc
 50
320.3098127378721
 51
328.5863697198446
  0
ARC
  5
AA99
330
1F
100
AcDbEntity
  8
freecads.com
100
AcDbCircle
 10
10672.06470910289
 20
29352.33949899422
 30
0.0
 40
4.240023927792683
100
AcDbArc
 50
140.3098450798083
 51
151.8778837174522
  0
ARC
  5
AA9A
330
1F
100
AcDbEntity
  8
freecads.com
100
AcDbCircle
 10
10669.68617494227
 20
29353.61069869319
 30
0.0
 40
1.543104680234416
100
AcDbArc
 50
151.8779038023525
 51
176.4704537158357
  0
ARC
  5
AA9B
330
1F
100
AcDbEntity
  8
freecads.com
100
AcDbCircle
 10
10669.32880210271
 20
29353.63274043321
 30
0.0
 40
1.185052749975459
100
AcDbArc
 50
176.4704004173002
 51
205.3927983526607
  0
ARC
  5
AA9C
330
1F
100
AcDbEntity
  8
freecads.com
100
AcDbCircle
 10
10670.05756041093
 20
29353.97866992943
 30
0.0
 40
1.991747170534295
100
AcDbArc
 50
205.3928465659777
 51
225.0000718907627
  0
ARC
  5
AA9D
330
1F
100
AcDbEntity
  8
freecads.com
100
AcDbCircle
 10
10667.59984266453
 20
29351.52095185942
 30
0.0
 40
1.483990827742266
100
AcDbArc
 50
16.02518774506632
 51
44.99991234625326
  0
ARC
  5
AA9E
330
1F
100
AcDbEntity
  8
freecads.com
100
AcDbCircle
 10
10666.87923550067
 20
29351.31397355762
 30
0.0
 40
2.23373391841225
100
AcDbArc
 50
354.6949248848926
 51
16.02530230705323
  0
ARC
  5
AA9F
330
1F
100
AcDbEntity
  8
freecads.com
100
AcDbCircle
 10
10664.97424151028
 20
29351.49086894997
 30
0.0
 40
4.146923423722407
100
AcDbArc
 50
339.7958405677444
 51
354.6948664179657
  0
ARC
  5
AAA0
330
1F
100
AcDbEntity
  8
freecads.com
100
AcDbCircle
 10
10656.53613300121
 20
29354.59617609549
 30
0.0
 40
13.1382863726272
100
AcDbArc
 50
333.4869094328866
 51
339.7958724754547
  0
ARC
  5
AAA1
330
1F
100
AcDbEntity
  8
freecads.com
100
AcDbCircle
 10
10677.52070604566
 20
29344.12767808268
 30
0.0
 40
10.31255063806506
100
AcDbArc
 50
153.4869644930344
 51
167.3233322345694
  0
ARC
  5
AAA2
330
1F
100
AcDbEntity
  8
freecads.com
100
AcDbCircle
 10
10670.91539418188
 20
29345.61342588804
 30
0.0
 40
3.542204165481151
100
AcDbArc
 50
167.3233745417212
 51
198.0179672510457
  0
ARC
  5
AAA3
330
1F
100
AcDbEntity
  8
freecads.com
100
AcDbCircle
 10
10670.13755570886
 20
29345.36042156644
 30
0.0
 40
2.724253141971467
100
AcDbArc
 50
198.0179756153255
 51
234.2014086276108
  0
ARC
  5
AAA4
330
1F
100
AcDbEntity
  8
freecads.com
100
AcDbCircle
 10
10671.6999634074
 20
29347.52686348269
 30
0.0
 40
5.395318171676001
100
AcDbArc
 50
234.2013959147525
 51
255.9106901065786
  0
ARC
  5
AAA5
330
1F
100
AcDbEntity
  8
freecads.com
100
AcDbCircle
 10
10669.18224241643
 20
29337.49546022224
 30
0.0
 40
4.947213934249197
100
AcDbArc
 50
64.44556544955402
 51
75.91073188929309
  0
ARC
  5
AAA6
330
1F
100
AcDbEntity
  8
freecads.com
100
AcDbCircle
 10
10668.8795827075
 20
29336.86247223242
 30
0.0
 40
5.648838260134727
100
AcDbArc
 50
54.0658473112738
 51
64.44555267871637
  0
ARC
  5
AAA7
330
1F
100
AcDbEntity
  8
freecads.com
100
AcDbCircle
 10
10669.33377782061
 20
29337.48912798574
 30
0.0
 40
4.874893408123682
100
AcDbArc
 50
43.03944870572967
 51
54.06587097033709
  0
ARC
  5
AAA8
330
1F
100
AcDbEntity
  8
freecads.com
100
AcDbCircle
 10
10671.48787952172
 20
29339.50063403595
 30
0.0
 40
1.927638629738198
100
AcDbArc
 50
20.99361001739404
 51
43.03946789371365
  0
ARC
  5
AAA9
330
1F
100
AcDbEntity
  8
freecads.com
100
AcDbCircle
 10
10670.99022065435
 20
29339.30966260437
 30
0.0
 40
2.460681250882053
100
AcDbArc
 50
3.642419982092943
 51
20.99364845776619
  0
ARC
  5
AAAA
330
1F
100
AcDbEntity
  8
freecads.com
100
AcDbCircle
 10
10673.08438181912
 20
29339.44297306393
 30
0.0
 40
0.3622812264181793
100
AcDbArc
 50
292.6927852859463
 51
3.642365345484358
  0
ARC
  5
AAAB
330
1F
100
AcDbEntity
  8
freecads.com
100
AcDbCircle
 10
10672.79444346153
 20
29340.13633519299
 30
0.0
 40
1.113823170172249
100
AcDbArc
 50
259.9113020050777
 51
292.6928458773561
  0
ARC
  5
AAAC
330
1F
100
AcDbEntity
  8
freecads.com
100
AcDbCircle
 10
10676.10440609634
 20
29358.73974671547
 30
0.0
 40
20.00939865542085
100
AcDbArc
 50
255.9106963880576
 51
259.911368852072
  0
ARC
  5
AAAD
330
1F
100
AcDbEntity
  8
freecads.com
100
AcDbCircle
 10
10665.89502992747
 20
29318.06243025569
 30
0.0
 40
21.92955025996191
100
AcDbArc
 50
75.91066300944757
 51
79.69688199473518
  0
ARC
  5
AAAE
330
1F
100
AcDbEntity
  8
freecads.com
100
AcDbCircle
 10
10669.64457124101
 20
29338.68845045171
 30
0.0
 40
0.9654912734829533
100
AcDbArc
 50
79.69680156685488
 51
116.2270503406544
  0
ARC
  5
AAAF
330
1F
100
AcDbEntity
  8
freecads.com
100
AcDbCircle
 10
10669.38081328439
 20
29339.22383998478
 30
0.0
 40
0.3686577859836441
100
AcDbArc
 50
116.2271053201238
 51
187.8409683645619
  0
ARC
  5
AAB0
330
1F
100
AcDbEntity
  8
freecads.com
100
AcDbCircle
 10
10672.71716196052
 20
29339.683292772
 30
0.0
 40
3.736493790362023
100
AcDbArc
 50
187.8409572188376
 51
200.9935273948229
  0
ARC
  5
AAB1
330
1F
100
AcDbEntity
  8
freecads.com
100
AcDbCircle
 10
10666.72280244204
 20
29337.38304701849
 30
0.0
 40
2.684057320203268
100
AcDbArc
 50
3.51089511549172
 51
20.99359998851344
  0
ARC
  5
AAB2
330
1F
100
AcDbEntity
  8
freecads.com
100
AcDbCircle
 10
10668.78435907081
 20
29337.50953061707
 30
0.0
 40
0.6186242338144855
100
AcDbArc
 50
311.6162680876538
 51
3.510903814002566
  0
ARC
  5
AAB3
330
1F
100
AcDbEntity
  8
freecads.com
100
AcDbCircle
 10
10668.44204538717
 20
29337.89486758473
 30
0.0
 40
1.134049530683783
100
AcDbArc
 50
277.0405705483735
 51
311.6162610081123
  0
ARC
  5
AAB4
330
1F
100
AcDbEntity
  8
freecads.com
100
AcDbCircle
 10
10667.37167985931
 20
29346.56154668022
 30
0.0
 40
9.866575448623308
100
AcDbArc
 50
269.9999964465007
 51
277.0405780044661
  0
ARC
  5
AAB5
330
1F
100
AcDbEntity
  8
freecads.com
100
AcDbCircle
 10
10667.3716823599
 20
29332.24959110955
 30
0.0
 40
4.445380122052323
100
AcDbArc
 50
90.00004011693933
 51
105.25687184839
  0
ARC
  5
AAB6
330
1F
100
AcDbEntity
  8
freecads.com
100
AcDbCircle
 10
10667.05648466529
 20
29333.40519714616
 30
0.0
 40
3.247559226215586
100
AcDbArc
 50
105.256966788919
 51
124.5617976083221
  0
ARC
  5
AAB7
330
1F
100
AcDbEntity
  8
freecads.com
100
AcDbCircle
 10
10667.21256105915
 20
29333.17863232755
 30
0.0
 40
3.522680031948907
100
AcDbArc
 50
124.5618330626459
 51
142.9766136676656
  0
ARC
  5
AAB8
330
1F
100
AcDbEntity
  8
freecads.com
100
AcDbCircle
 10
10669.10395535479
 20
29331.7521499045
 30
0.0
 40
5.891693430992738
100
AcDbArc
 50
142.9765839185709
 51
155.50453259801
  0
ARC
  5
AAB9
330
1F
100
AcDbEntity
  8
freecads.com
100
AcDbCircle
 10
10651.64136508277
 20
29339.7086388305
 30
0.0
 40
13.29808965892278
100
AcDbArc
 50
330.880717456181
 51
335.504546947076
  0
ARC
  5
AABA
330
1F
100
AcDbEntity
  8
freecads.com
100
AcDbCircle
 10
10655.89367060696
 20
29337.33995773373
 30
0.0
 40
8.430569509075446
100
AcDbArc
 50
324.3750602726425
 51
330.880737768193
  0
ARC
  5
AABB
330
1F
100
AcDbEntity
  8
freecads.com
100
AcDbCircle
 10
10657.18962813986
 20
29336.41128701028
 30
0.0
 40
6.836224740940835
100
AcDbArc
 50
317.9994747513951
 51
324.3750790197325
  0
ARC
  5
AABC
330
1F
100
AcDbEntity
  8
freecads.com
100
AcDbCircle
 10
10661.95107966858
 20
29332.12397869287
 30
0.0
 40
0.4290074612755957
100
AcDbArc
 50
269.9999437460926
 51
317.9993820326263
  0
ARC
  5
AABD
330
1F
100
AcDbEntity
  8
freecads.com
100
AcDbCircle
 10
10661.95107879364
 20
29333.34295550901
 30
0.0
 40
1.647984277412723
100
AcDbArc
 50
223.7496936000088
 51
270.0000157750106
  0
ARC
  5
AABE
330
1F
100
AcDbEntity
  8
freecads.com
100
AcDbCircle
 10
10695.83193394775
 20
29365.77646047532
 30
0.0
 40
48.55048517419716
100
AcDbArc
 50
219.7448880002057
 51
223.7496845021906
  0
ARC
  5
AABF
330
1F
100
AcDbEntity
  8
freecads.com
100
AcDbCircle
 10
10687.19178382695
 20
29358.59184960768
 30
0.0
 40
37.31345587687336
100
AcDbArc
 50
214.4514963916932
 51
219.7449141140459
  0
ARC
  5
AAC0
330
1F
100
AcDbEntity
  8
freecads.com
100
AcDbCircle
 10
10662.49764911593
 20
29341.65081304985
 30
0.0
 40
7.366853251874507
100
AcDbArc
 50
196.8346611307274
 51
214.4515648544465
  0
ARC
  5
AAC1
330
1F
100
AcDbEntity
  8
freecads.com
100
AcDbCircle
 10
10650.87152096361
 20
29338.13299705974
 30
0.0
 40
4.779828811735077
100
AcDbArc
 50
16.83472081943826
 51
28.49191158985409
  0
ARC
  5
AAC2
330
1F
100
AcDbEntity
  8
freecads.com
100
AcDbCircle
 10
10652.99374078629
 20
29339.28488048433
 30
0.0
 40
2.365154423825902
100
AcDbArc
 50
28.49191246594211
 51
48.22380730852104
  0
ARC
  5
AAC3
330
1F
100
AcDbEntity
  8
freecads.com
100
AcDbCircle
 10
10653.62387663512
 20
29339.99024104677
 30
0.0
 40
1.419318967193775
100
AcDbArc
 50
48.22374447174637
 51
74.73592306255203
  0
ARC
  5
AAC4
330
1F
100
AcDbEntity
  8
freecads.com
100
AcDbCircle
 10
10653.75160060098
 20
29340.45827174597
 30
0.0
 40
0.9341734767972114
100
AcDbArc
 50
74.73595895051374
 51
110.9935960393436
  0
ARC
  5
AAC5
330
1F
100
AcDbEntity
  8
freecads.com
100
AcDbCircle
 10
10652.98726073686
 20
29342.45010819713
 30
0.0
 40
1.199280969879356
100
AcDbArc
 50
264.1203950642379
 51
290.9936365587315
  0
ARC
  5
AAC6
330
1F
100
AcDbEntity
  8
freecads.com
100
AcDbCircle
 10
10653.01581630246
 20
29342.72738604819
 30
0.0
 40
1.478025345636273
100
AcDbArc
 50
241.1431881204898
 51
264.1203396314682
  0
ARC
  5
AAC7
330
1F
100
AcDbEntity
  8
freecads.com
100
AcDbCircle
 10
10653.12761549827
 20
29342.93027290616
 30
0.0
 40
1.709676240989265
100
AcDbArc
 50
219.9691635634768
 51
241.1432149827668
  0
ARC
  5
AAC8
330
1F
100
AcDbEntity
  8
freecads.com
100
AcDbCircle
 10
10653.33391212184
 20
29343.10318491757
 30
0.0
 40
1.978854361537018
100
AcDbArc
 50
200.9936021445624
 51
219.9691126876113
  0
ARC
  5
AAC9
330
1F
100
AcDbEntity
  8
freecads.com
100
AcDbCircle
 10
10647.44327209654
 20
29340.84273215395
 30
0.0
 40
4.330605726630766
100
AcDbArc
 50
20.9936339643447
 51
32.93791619054362
  0
ARC
  5
AACA
330
1F
100
AcDbEntity
  8
freecads.com
100
AcDbCircle
 10
10650.69186051708
 20
29342.9473886072
 30
0.0
 40
0.4598298984217902
100
AcDbArc
 50
32.9379655138921
 51
94.82759646914598
  0
ARC
  5
AACB
330
1F
100
AcDbEntity
  8
freecads.com
100
AcDbCircle
 10
10650.74341922013
 20
29342.33691600467
 30
0.0
 40
1.072475879629899
100
AcDbArc
 50
94.82758408362814
 51
128.8152540013874
  0
ARC
  5
AACC
330
1F
100
AcDbEntity
  8
freecads.com
100
AcDbCircle
 10
10666.63094451158
 20
29322.58762611082
 30
0.0
 40
26.41903207959857
100
AcDbArc
 50
128.8153043831824
 51
132.1446425023605
  0
ARC
  5
AACD
330
1F
100
AcDbEntity
  8
freecads.com
100
AcDbCircle
 10
10652.84803240247
 20
29337.81762133316
 30
0.0
 40
5.878306175207304
100
AcDbArc
 50
132.1447485802172
 51
153.584860426867
  0
ARC
  5
AACE
330
1F
100
AcDbEntity
  8
freecads.com
100
AcDbCircle
 10
10652.79269380752
 20
29337.84511221261
 30
0.0
 40
5.816515330093284
100
AcDbArc
 50
153.5848810204704
 51
175.1955955305821
  0
ARC
  5
AACF
330
1F
100
AcDbEntity
  8
freecads.com
100
AcDbCircle
 10
10651.92544514998
 20
29337.91799521601
 30
0.0
 40
4.946209541243294
100
AcDbArc
 50
175.1954911903419
 51
198.8499245436544
  0
ARC
  5
AAD0
330
1F
100
AcDbEntity
  8
freecads.com
100
AcDbCircle
 10
10650.44314009336
 20
29337.4119302119
 30
0.0
 40
3.379898566623702
100
AcDbArc
 50
198.8498365486769
 51
230.3098607825255
  0
ARC
  5
AAD1
330
1F
100
AcDbEntity
  8
freecads.com
100
AcDbCircle
 10
10646.99322587694
 20
29333.25503769312
 30
0.0
 40
2.022106941830801
100
AcDbArc
 50
27.12027760056845
 51
50.30977568762265
  0
ARC
  5
AAD2
330
1F
100
AcDbEntity
  8
freecads.com
100
AcDbCircle
 10
10645.28944574136
 20
29332.3824109893
 30
0.0
 40
3.93635460465215
100
AcDbArc
 50
13.03248008685276
 51
27.12024308215748
  0
ARC
  5
AAD3
330
1F
100
AcDbEntity
  8
freecads.com
100
AcDbCircle
 10
10644.36907050059
 20
29332.16937675067
 30
0.0
 40
4.881063115598753
100
AcDbArc
 50
0.3656000087608787
 51
13.03247144212696
  0
ARC
  5
AAD4
330
1F
100
AcDbEntity
  8
freecads.com
100
AcDbCircle
 10
10643.49014643252
 20
29332.16376447143
 30
0.0
 40
5.760005101788362
100
AcDbArc
 50
349.1777925601414
 51
0.3656383595280137
  0
ARC
  5
AAD5
330
1F
100
AcDbEntity
  8
freecads.com
100
AcDbCircle
 10
10654.90335014511
 20
29329.98199849338
 30
0.0
 40
5.859862443418803
100
AcDbArc
 50
169.1778315686811
 51
179.5319209121126
  0
ARC
  5
AAD6
330
1F
100
AcDbEntity
  8
freecads.com
100
AcDbCircle
 10
10653.83196344571
 20
29329.99075361994
 30
0.0
 40
4.788439972169515
100
AcDbArc
 50
179.5319474197925
 51
191.578622663268
  0
ARC
  5
AAD7
330
1F
100
AcDbEntity
  8
freecads.com
100
AcDbCircle
 10
10652.61363143241
 20
29329.74113827968
 30
0.0
 40
3.544799866382839
100
AcDbArc
 50
191.578600859379
 51
205.4012676238245
  0
ARC
  5
AAD8
330
1F
100
AcDbEntity
  8
freecads.com
100
AcDbCircle
 10
10650.41192272677
 20
29328.69563248424
 30
0.0
 40
1.107464519572244
100
AcDbArc
 50
205.4013637270545
 51
238.2825909155017
  0
ARC
  5
AAD9
330
1F
100
AcDbEntity
  8
freecads.com
100
AcDbCircle
 10
10649.19174315376
 20
29326.72134048311
 30
0.0
 40
1.213454931014048
100
AcDbArc
 50
21.83019089476373
 51
58.28246546160616
  0
ARC
  5
AADA
330
1F
100
AcDbEntity
  8
freecads.com
100
AcDbCircle
 10
10647.61944588122
 20
29326.09150073913
 30
0.0
 40
2.907213124009941
100
AcDbArc
 50
2.845202273217338
 51
21.83027263846992
  0
ARC
  5
AADB
330
1F
100
AcDbEntity
  8
freecads.com
100
AcDbCircle
 10
10643.722815139
 20
29325.89785167089
 30
0.0
 40
6.808652743275654
100
AcDbArc
 50
351.194788503655
 51
2.845121542746771
  0
ARC
  5
AADC
330
1F
100
AcDbEntity
  8
freecads.com
100
AcDbCircle
 10
10620.6346002755
 20
29329.47425294117
 30
0.0
 40
30.1722207847558
100
AcDbArc
 50
347.3368432236504
 51
351.1947765753267
  0
ARC
  5
AADD
330
1F
100
AcDbEntity
  8
freecads.com
100
AcDbCircle
 10
10672.44183072698
 20
29317.83394113958
 30
0.0
 40
22.92661146129024
100
AcDbArc
 50
167.3367239494391
 51
171.3987984860594
  0
ARC
  5
AADE
330
1F
100
AcDbEntity
  8
freecads.com
100
AcDbCircle
 10
10660.64063516042
 20
29319.61894563202
 30
0.0
 40
10.99118277866641
100
AcDbArc
 50
171.3987383273286
 51
178.4386329845265
  0
ARC
  5
AADF
330
1F
100
AcDbEntity
  8
freecads.com
100
AcDbCircle
 10
10656.97044312302
 20
29319.71898343602
 30
0.0
 40
7.319627637635462
100
AcDbArc
 50
178.4386067942178
 51
186.1552643449094
  0
ARC
  5
AAE0
330
1F
100
AcDbEntity
  8
freecads.com
100
AcDbCircle
 10
10649.95937276294
 20
29318.96287515622
 30
0.0
 40
0.2679039246197159
100
AcDbArc
 50
186.1551425769504
 51
269.999889737614
  0
ARC
  5
AAE1
330
1F
100
AcDbEntity
  8
freecads.com
100
AcDbCircle
 10
10649.9593715151
 20
29320.30883772265
 30
0.0
 40
1.613866491043775
100
AcDbArc
 50
270.0000259972616
 51
307.9923102049659
  0
ARC
  5
AAE2
330
1F
100
AcDbEntity
  8
freecads.com
100
AcDbCircle
 10
10642.35347828105
 20
29330.04660549891
 30
0.0
 40
13.96998777372346
100
AcDbArc
 50
307.9923738843147
 51
315.7577917678328
  0
ARC
  5
AAE3
330
1F
100
AcDbEntity
  8
freecads.com
100
AcDbCircle
 10
10642.40380365051
 20
29329.99759048253
 30
0.0
 40
13.89973740264899
100
AcDbArc
 50
315.7578022472153
 51
323.5779315915367
  0
ARC
  5
AAE4
330
1F
100
AcDbEntity
  8
freecads.com
100
AcDbCircle
 10
10652.20404820749
 20
29322.76639932924
 30
0.0
 40
1.720455039885314
100
AcDbArc
 50
323.5779197104625
 51
0.0000300509146924
  0
ARC
  5
AAE5
330
1F
100
AcDbEntity
  8
freecads.com
100
AcDbCircle
 10
10654.78209615943
 20
29322.76639931825
 30
0.0
 40
0.8575929120552562
100
AcDbArc
 50
155.5995244345483
 51
179.9999389789465
  0
ARC
  5
AAE6
330
1F
100
AcDbEntity
  8
freecads.com
100
AcDbCircle
 10
10654.86004776934
 20
29322.73104139287
 30
0.0
 40
0.9431886851237491
100
AcDbArc
 50
132.8789653011912
 51
155.5997055154394
  0
ARC
  5
AAE7
330
1F
100
AcDbEntity
  8
freecads.com
100
AcDbCircle
 10
10654.90250400421
 20
29322.68531908854
 30
0.0
 40
1.005583083850874
100
AcDbArc
 50
110.9625320027845
 51
132.8789535157741
  0
ARC
  5
AAE8
330
1F
100
AcDbEntity
  8
freecads.com
100
AcDbCircle
 10
10654.92450151603
 20
29322.62789386418
 30
0.0
 40
1.06707736741898
100
AcDbArc
 50
89.99990703674397
 51
110.9623870350182
  0
ARC
  5
AAE9
330
1F
100
AcDbEntity
  8
freecads.com
100
AcDbCircle
 10
10654.92450302727
 20
29323.04769166603
 30
0.0
 40
0.6472795655715037
100
AcDbArc
 50
53.89567714612901
 51
89.99998051651436
  0
ARC
  5
AAEA
330
1F
100
AcDbEntity
  8
freecads.com
100
AcDbCircle
 10
10654.57307482182
 20
29322.56583417496
 30
0.0
 40
1.243675763816192
100
AcDbArc
 50
31.73984521370958
 51
53.89582643548453
  0
ARC
  5
AAEB
330
1F
100
AcDbEntity
  8
freecads.com
100
AcDbCircle
 10
10654.08905773256
 20
29322.26643936028
 30
0.0
 40
1.812806502520742
100
AcDbArc
 50
13.72573852199036
 51
31.73969934289541
  0
ARC
  5
AAEC
330
1F
100
AcDbEntity
  8
freecads.com
100
AcDbCircle
 10
10653.31896770805
 20
29322.07834183251
 30
0.0
 40
2.605535539329848
100
AcDbArc
 50
359.9999647960111
 51
13.72580850731971
  0
ARC
  5
AAED
330
1F
100
AcDbEntity
  8
freecads.com
100
AcDbCircle
 10
10657.93670154114
 20
29322.07834136246
 30
0.0
 40
2.012198293764503
100
AcDbArc
 50
180.0000322003565
 51
200.2489067671296
  0
ARC
  5
AAEE
330
1F
100
AcDbEntity
  8
freecads.com
100
AcDbCircle
 10
10656.76785316271
 20
29321.6471567773
 30
0.0
 40
0.7663545321994288
100
AcDbArc
 50
200.248977613164
 51
241.8449103354205
  0
ARC
  5
AAEF
330
1F
100
AcDbEntity
  8
freecads.com
100
AcDbCircle
 10
10656.94433478377
 20
29321.97691508834
 30
0.0
 40
1.140368310383782
100
AcDbArc
 50
241.844936253085
 51
274.0476672630789
  0
ARC
  5
AAF0
330
1F
100
AcDbEntity
  8
freecads.com
100
AcDbCircle
 10
10656.66539576045
 20
29325.91880458212
 30
0.0
 40
5.09211472935732
100
AcDbArc
 50
274.0476624600933
 51
284.6549272877989
  0
ARC
  5
AAF1
330
1F
100
AcDbEntity
  8
freecads.com
100
AcDbCircle
 10
10659.37867505167
 20
29315.54319230544
 30
0.0
 40
5.632399927642985
100
AcDbArc
 50
93.14277082428606
 51
104.6550304465815
  0
ARC
  5
AAF2
330
1F
100
AcDbEntity
  8
freecads.com
100
AcDbCircle
 10
10659.09742626435
 20
29320.66548167945
 30
0.0
 40
0.5023951214533593
100
AcDbArc
 50
25.7167513206282
 51
93.14272602436249
  0
ARC
  5
AAF3
330
1F
100
AcDbEntity
  8
freecads.com
100
AcDbCircle
 10
10658.34676464837
 20
29320.30394302933
 30
0.0
 40
1.335583609868847
100
AcDbArc
 50
352.1430000932931
 51
25.71672322144521
  0
ARC
  5
AAF4
330
1F
100
AcDbEntity
  8
freecads.com
100
AcDbCircle
 10
10617.8651597795
 20
29325.89017981277
 30
0.0
 40
42.20080567166174
100
AcDbArc
 50
349.3747199026646
 51
352.1431173131696
  0
ARC
  5
AAF5
330
1F
100
AcDbEntity
  8
freecads.com
100
AcDbCircle
 10
10689.4048147838
 20
29312.46920927826
 30
0.0
 40
30.58686284589712
100
AcDbArc
 50
169.3746922618046
 51
173.0761361207014
  0
ARC
  5
AAF6
330
1F
100
AcDbEntity
  8
freecads.com
100
AcDbCircle
 10
10660.73922044074
 20
29315.95024121746
 30
0.0
 40
1.710680923717731
100
AcDbArc
 50
173.0761061001406
 51
203.3073242361465
  0
ARC
  5
AAF7
330
1F
100
AcDbEntity
  8
freecads.com
100
AcDbCircle
 10
10659.87312017241
 20
29315.5771062177
 30
0.0
 40
0.7676223874508756
100
AcDbArc
 50
203.3071845624872
 51
256.1100341034229
  0
ARC
  5
AAF8
330
1F
100
AcDbEntity
  8
freecads.com
100
AcDbCircle
 10
10660.81320971488
 20
29319.37867575168
 30
0.0
 40
4.683704520078572
100
AcDbArc
 50
256.1100020318052
 51
270.0000309800397
  0
ARC
  5
AAF9
330
1F
100
AcDbEntity
  8
freecads.com
100
AcDbCircle
 10
10660.81321597797
 20
29311.46922401443
 30
0.0
 40
3.225747217177283
100
AcDbArc
 50
75.09145537078227
 51
90.00006626281928
  0
ARC
  5
AAFA
330
1F
100
AcDbEntity
  8
freecads.com
100
AcDbCircle
 10
10661.10003956377
 20
29312.54654106635
 30
0.0
 40
2.110902026253764
100
AcDbArc
 50
54.6074624817551
 51
75.09144588796501
  0
ARC
  5
AAFB
330
1F
100
AcDbEntity
  8
freecads.com
100
AcDbCircle
 10
10661.42125846682
 20
29312.99866536849
 30
0.0
 40
1.556286872952236
100
AcDbArc
 50
30.2407962765318
 51
54.60744762228229
  0
ARC
  5
AAFC
330
1F
100
AcDbEntity
  8
freecads.com
100
AcDbCircle
 10
10661.75799811538
 20
29313.19497179904
 30
0.0
 40
1.16650513199272
100
AcDbArc
 50
359.9999721287511
 51
30.24087460311603
  0
ARC
  5
AAFD
330
1F
100
AcDbEntity
  8
freecads.com
100
AcDbCircle
 10
10664.52495151902
 20
29313.1949725242
 30
0.0
 40
1.600448271644903
100
AcDbArc
 50
180.0000462749068
 51
200.9647989820645
  0
ARC
  5
AAFE
330
1F
100
AcDbEntity
  8
freecads.com
100
AcDbCircle
 10
10664.43895965751
 20
29313.16202224085
 30
0.0
 40
1.508359611019787
100
AcDbArc
 50
200.9647386099523
 51
222.8820684972883
  0
ARC
  5
AAFF
330
1F
100
AcDbEntity
  8
freecads.com
100
AcDbCircle
 10
10664.37048711957
 20
29313.09843503255
 30
0.0
 40
1.414915394991559
100
AcDbArc
 50
222.8821123518716
 51
245.6023986898789
  0
ARC
  5
AB00
330
1F
100
AcDbEntity
  8
freecads.com
100
AcDbCircle
 10
10664.31751408283
 20
29312.98163890782
 30
0.0
 40
1.286667676223192
100
AcDbArc
 50
245.6023119271632
 51
270.0000073271121
  0
ARC
  5
AB01
330
1F
100
AcDbEntity
  8
freecads.com
100
AcDbCircle
 10
10664.31751470078
 20
29309.8677729352
 30
0.0
 40
1.827198296403195
100
AcDbArc
 50
47.81393174431598
 51
90.00001421743645
  0
ARC
  5
AB02
330
1F
100
AcDbEntity
  8
freecads.com
100
AcDbCircle
 10
10663.99250751342
 20
29309.50916471443
 30
0.0
 40
2.311170948351975
100
AcDbArc
 50
12.42397445160217
 51
47.81393241094985
  0
ARC
  5
AB03
330
1F
100
AcDbEntity
  8
freecads.com
100
AcDbCircle
 10
10660.90323068525
 20
29308.82859141867
 30
0.0
 40
5.47452539133944
100
AcDbArc
 50
351.4600947067776
 51
12.4239383308721
  0
ARC
  5
AB04
330
1F
100
AcDbEntity
  8
freecads.com
100
AcDbCircle
 10
10648.18473437667
 20
29310.73846145457
 30
0.0
 40
18.33561989784417
100
AcDbArc
 50
342.9383470438121
 51
351.4600296032032
  0
ARC
  5
AB05
330
1F
100
AcDbEntity
  8
freecads.com
100
AcDbCircle
 10
10687.64264269658
 20
29298.62849537614
 30
0.0
 40
22.93880084192496
100
AcDbArc
 50
162.9382745491978
 51
167.9616222692941
  0
ARC
  5
AB06
330
1F
100
AcDbEntity
  8
freecads.com
100
AcDbCircle
 10
10668.84270135544
 20
29302.63771382362
 30
0.0
 40
3.716115623945355
100
AcDbArc
 50
167.9616857726631
 51
187.251952619549
  0
ARC
  5
AB07
330
1F
100
AcDbEntity
  8
freecads.com
100
AcDbCircle
 10
10667.56507279734
 20
29302.47513257617
 30
0.0
 40
2.428184183808022
100
AcDbArc
 50
187.2519029972164
 51
212.6737678297314
  0
ARC
  5
AB08
330
1F
100
AcDbEntity
  8
freecads.com
100
AcDbCircle
 10
10670.91187482378
 20
29304.62158557006
 30
0.0
 40
6.404155041238289
100
AcDbArc
 50
212.6738240810779
 51
224.9999984947066
  0
ARC
  5
AB09
330
1F
100
AcDbEntity
  8
freecads.com
100
AcDbCircle
 10
10672.76769607513
 20
29306.47739926492
 30
0.0
 40
9.028677280996578
100
AcDbArc
 50
224.9999650242233
 51
233.4264376937629
  0
ARC
  5
AB0A
330
1F
100
AcDbEntity
  8
freecads.com
100
AcDbCircle
 10
10668.40688094244
 20
29300.59989447968
 30
0.0
 40
1.710086493015252
100
AcDbArc
 50
233.4264718048523
 51
262.3236075056621
  0
ARC
  5
AB0B
330
1F
100
AcDbEntity
  8
freecads.com
100
AcDbCircle
 10
10668.39280664448
 20
29300.49548174996
 30
0.0
 40
1.604729461966565
100
AcDbArc
 50
262.3236410527058
 51
292.463415667709
  0
ARC
  5
AB0C
330
1F
100
AcDbEntity
  8
freecads.com
100
AcDbCircle
 10
10666.10672900736
 20
29306.02458255693
 30
0.0
 40
7.587797796570973
100
AcDbArc
 50
292.4633050816908
 51
301.9851939297887
  0
ARC
  5
AB0D
330
1F
100
AcDbEntity
  8
freecads.com
100
AcDbCircle
 10
10674.9228700461
 20
29291.90771478053
 30
0.0
 40
9.055828570040265
100
AcDbArc
 50
110.5079896141691
 51
121.985272353902
  0
ARC
  5
AB0E
330
1F
100
AcDbEntity
  8
freecads.com
100
AcDbCircle
 10
10672.03467287802
 20
29299.62926791741
 30
0.0
 40
0.8117964420459477
100
AcDbArc
 50
43.51639912075795
 51
110.5080269211713
  0
ARC
  5
AB0F
330
1F
100
AcDbEntity
  8
freecads.com
100
AcDbCircle
 10
10671.90385583548
 20
29299.50505545457
 30
0.0
 40
0.9921899966594162
100
AcDbArc
 50
345.0866956423431
 51
43.51642194761381
  0
ARC
  5
AB10
330
1F
100
AcDbEntity
  8
freecads.com
100
AcDbCircle
 10
10661.5158086065
 20
29302.27169292448
 30
0.0
 40
11.742343861666
100
AcDbArc
 50
335.5045951244921
 51
345.0866544900397
  0
ARC
  5
AB11
330
1F
100
AcDbEntity
  8
freecads.com
100
AcDbCircle
 10
10676.79237162311
 20
29295.31123669173
 30
0.0
 40
5.045191054711681
100
AcDbArc
 50
155.5045439448603
 51
179.4473660046973
  0
ARC
  5
AB12
330
1F
100
AcDbEntity
  8
freecads.com
100
AcDbCircle
 10
10674.76639788691
 20
29295.33077573774
 30
0.0
 40
3.019123100746811
100
AcDbArc
 50
179.4473157243447
 51
214.6067632554273
  0
ARC
  5
AB13
330
1F
100
AcDbEntity
  8
freecads.com
100
AcDbCircle
 10
10675.78114450783
 20
29296.03097753542
 30
0.0
 40
4.252003168776865
100
AcDbArc
 50
214.6067432179106
 51
243.0318873564115
  0
ARC
  5
AB14
330
1F
100
AcDbEntity
  8
freecads.com
100
AcDbCircle
 10
10679.3300995048
 20
29303.00579767719
 30
0.0
 40
12.07780648731821
100
AcDbArc
 50
243.031909453718
 51
256.0796279083437
  0
ARC
  5
AB15
330
1F
100
AcDbEntity
  8
freecads.com
100
AcDbCircle
 10
10673.68875670217
 20
29280.24486325323
 30
0.0
 40
11.37181791199141
100
AcDbArc
 50
69.36537871622491
 51
76.07966839142178
  0
ARC
  5
AB16
330
1F
100
AcDbEntity
  8
freecads.com
100
AcDbCircle
 10
10671.94039968905
 20
29275.60194807737
 30
0.0
 40
16.33300865369622
100
AcDbArc
 50
64.24674626235281
 51
69.36538748945617
  0
ARC
  5
AB17
330
1F
100
AcDbEntity
  8
freecads.com
100
AcDbCircle
 10
10672.47082049392
 20
29276.70139061813
 30
0.0
 40
15.11230388613024
100
AcDbArc
 50
59.02514706092198
 51
64.24686821250458
  0
ARC
  5
AB18
330
1F
100
AcDbEntity
  8
freecads.com
100
AcDbCircle
 10
10677.39821163984
 20
29284.91010640976
 30
0.0
 40
5.538266156275893
100
AcDbArc
 50
47.98019802248222
 51
59.02514111019267
  0
ARC
  5
AB19
330
1F
100
AcDbEntity
  8
freecads.com
100
AcDbCircle
 10
10687.59456940058
 20
29296.22643728838
 30
0.0
 40
9.694102541320434
100
AcDbArc
 50
227.9801819955129
 51
234.5623442607095
  0
ARC
  5
AB1A
330
1F
100
AcDbEntity
  8
freecads.com
100
AcDbCircle
 10
10701.59477735632
 20
29315.89924760226
 30
0.0
 40
33.84001914122744
100
AcDbArc
 50
234.5623426828609
 51
237.1577305407976
  0
ARC
  5
AB1B
330
1F
100
AcDbEntity
  8
freecads.com
100
AcDbCircle
 10
10703.42762940737
 20
29318.73864042284
 30
0.0
 40
37.21958985809346
100
AcDbArc
 50
237.1577019516466
 51
239.7164251471075
  0
ARC
  5
AB1C
330
1F
100
AcDbEntity
  8
freecads.com
100
AcDbCircle
 10
10698.93269022035
 20
29311.04137840393
 30
0.0
 40
28.30598672117713
100
AcDbArc
 50
239.7163937047073
 51
242.8580682680811
  0
ARC
  5
AB1D
330
1F
100
AcDbEntity
  8
freecads.com
100
AcDbCircle
 10
10680.30324915995
 20
29274.70188082449
 30
0.0
 40
12.53045727862836
100
AcDbArc
 50
47.70410767371802
 51
62.85803212943038
  0
ARC
  5
AB1E
330
1F
100
AcDbEntity
  8
freecads.com
100
AcDbCircle
 10
10664.51705793738
 20
29257.35055395582
 30
0.0
 40
35.98834246503675
100
AcDbArc
 50
40.80574981933884
 51
47.70414024158752
  0
ARC
  5
AB1F
330
1F
100
AcDbEntity
  8
freecads.com
100
AcDbCircle
 10
10681.42298587507
 20
29271.94634008119
 30
0.0
 40
13.65345110530047
100
AcDbArc
 50
28.47402835850358
 51
40.80568726458802
  0
ARC
  5
AB20
330
1F
100
AcDbEntity
  8
freecads.com
100
AcDbCircle
 10
10693.0547436472
 20
29278.25504413164
 30
0.0
 40
0.4210085618524736
100
AcDbArc
 50
251.979736620633
 51
28.47401441888934
  0
ARC
  5
AB21
330
1F
100
AcDbEntity
  8
freecads.com
100
AcDbCircle
 10
10693.53501226517
 20
29279.73137787908
 30
0.0
 40
1.973496654964349
100
AcDbArc
 50
229.6532163263597
 51
251.9796981739748
  0
ARC
  5
AB22
330
1F
100
AcDbEntity
  8
freecads.com
100
AcDbCircle
 10
10697.21482099611
 20
29284.06329351201
 30
0.0
 40
7.657376082530331
100
AcDbArc
 50
221.506028252684
 51
229.6532629518547
  0
ARC
  5
AB23
330
1F
100
AcDbEntity
  8
freecads.com
100
AcDbCircle
 10
10698.36016468437
 20
29285.07683183661
 30
0.0
 40
9.186778612805866
100
AcDbArc
 50
213.8042926892667
 51
221.5060701868624
  0
ARC
  5
AB24
330
1F
100
AcDbEntity
  8
freecads.com
100
AcDbCircle
 10
10698.20945194191
 20
29284.97592852603
 30
0.0
 40
9.005406595131701
100
AcDbArc
 50
205.9864865007039
 51
213.80432668046
  0
ARC
  5
AB25
330
1F
100
AcDbEntity
  8
freecads.com
100
AcDbCircle
 10
10682.38570301003
 20
29277.26277499731
 30
0.0
 40
8.598109179200875
100
AcDbArc
 50
25.98657567652811
 51
36.44015437174799
  0
ARC
  5
AB26
330
1F
100
AcDbEntity
  8
freecads.com
100
AcDbCircle
 10
10687.02515097523
 20
29280.68829494076
 30
0.0
 40
2.831076640296256
100
AcDbArc
 50
36.44011342504174
 51
60.36820047751191
  0
ARC
  5
AB27
330
1F
100
AcDbEntity
  8
freecads.com
100
AcDbCircle
 10
10686.92408951428
 20
29280.51063648808
 30
0.0
 40
3.035468285580154
100
AcDbArc
 50
60.36808644203119
 51
83.25947136236626
  0
ARC
  5
AB28
330
1F
100
AcDbEntity
  8
freecads.com
100
AcDbCircle
 10
10686.03818839874
 20
29273.01498046846
 30
0.0
 40
10.58329445945838
100
AcDbArc
 50
83.25953493412511
 51
92.29429238049688
  0
ARC
  5
AB29
330
1F
100
AcDbEntity
  8
freecads.com
100
AcDbCircle
 10
10686.50341826539
 20
29261.40266033927
 30
0.0
 40
22.20493021400812
100
AcDbArc
 50
92.29426544857481
 51
101.1292499858397
  0
ARC
  5
AB2A
330
1F
100
AcDbEntity
  8
freecads.com
100
AcDbCircle
 10
10684.50751010223
 20
29271.5484723627
 30
0.0
 40
11.86466179338178
100
AcDbArc
 50
101.1292521085127
 51
115.252632408305
  0
ARC
  5
AB2B
330
1F
100
AcDbEntity
  8
freecads.com
100
AcDbCircle
 10
10683.02382511184
 20
29274.69396298319
 30
0.0
 40
8.386812976323414
100
AcDbArc
 50
115.2526408353303
 51
132.3381473319534
  0
ARC
  5
AB2C
330
1F
100
AcDbEntity
  8
freecads.com
100
AcDbCircle
 10
10681.13751332171
 20
29276.76422767326
 30
0.0
 40
5.586068779418719
100
AcDbArc
 50
132.3381874730652
 51
155.5045471608208
  0
ARC
  5
AB2D
330
1F
100
AcDbEntity
  8
freecads.com
100
AcDbCircle
 10
10690.96922458394
 20
29272.28459224082
 30
0.0
 40
16.39021983127882
100
AcDbArc
 50
155.5045192788276
 51
164.9008008090254
  0
ARC
  5
AB2E
330
1F
100
AcDbEntity
  8
freecads.com
100
AcDbCircle
 10
10681.47960088484
 20
29274.84494775977
 30
0.0
 40
6.561263715094728
100
AcDbArc
 50
164.900807767509
 51
183.517549812147
  0
ARC
  5
AB2F
330
1F
100
AcDbEntity
  8
freecads.com
100
AcDbCircle
 10
10676.78092727872
 20
29274.55612324143
 30
0.0
 40
1.85372154754292
100
AcDbArc
 50
183.5176514576347
 51
223.4827580420304
  0
ARC
  5
AB30
330
1F
100
AcDbEntity
  8
freecads.com
100
AcDbCircle
 10
10676.09772290571
 20
29273.90817696861
 30
0.0
 40
0.9121257808986214
100
AcDbArc
 50
223.4827506795318
 51
290.9935203464831
  0
ARC
  5
AB31
330
1F
100
AcDbEntity
  8
freecads.com
100
AcDbCircle
 10
10677.13570769315
 20
29271.20322566771
 30
0.0
 40
1.985144306481642
100
AcDbArc
 50
82.87563208322737
 51
110.9935805313051
  0
ARC
  5
AB32
330
1F
100
AcDbEntity
  8
freecads.com
100
AcDbCircle
 10
10677.30704998851
 20
29272.57409031518
 30
0.0
 40
0.6036132486006597
100
AcDbArc
 50
15.03383813281408
 51
82.87562937709932
  0
ARC
  5
AB33
330
1F
100
AcDbEntity
  8
freecads.com
100
AcDbCircle
 10
10677.00250973641
 20
29272.49229712451
 30
0.0
 40
0.9189462332216388
100
AcDbArc
 50
323.4428357256271
 51
15.03378242611662
  0
ARC
  5
AB34
330
1F
100
AcDbEntity
  8
freecads.com
100
AcDbCircle
 10
10675.37844290576
 20
29273.69654815026
 30
0.0
 40
2.940780450814313
100
AcDbArc
 50
301.71748734563
 51
323.4429078622371
  0
ARC
  5
AB35
330
1F
100
AcDbEntity
  8
freecads.com
100
AcDbCircle
 10
10677.9839474801
 20
29269.48075345973
 30
0.0
 40
2.015183528035425
100
AcDbArc
 50
121.717459551515
 51
157.4530477296908
  0
ARC
  5
AB36
330
1F
100
AcDbEntity
  8
freecads.com
100
AcDbCircle
 10
10678.22188491823
 20
29269.38196538162
 30
0.0
 40
2.272813706453883
100
AcDbArc
 50
157.4529860353396
 51
190.1105818851387
  0
ARC
  5
AB37
330
1F
100
AcDbEntity
  8
freecads.com
100
AcDbCircle
 10
10678.5156956577
 20
29269.4343544495
 30
0.0
 40
2.571258617711934
100
AcDbArc
 50
190.1105252199563
 51
220.4340779739099
  0
ARC
  5
AB38
330
1F
100
AcDbEntity
  8
freecads.com
100
AcDbCircle
 10
10678.59953748051
 20
29269.50579322681
 30
0.0
 40
2.681408289311598
100
AcDbArc
 50
220.4340415981054
 51
249.8193795378486
  0
ARC
  5
AB39
330
1F
100
AcDbEntity
  8
freecads.com
100
AcDbCircle
 10
10676.09680262352
 20
29262.69645638704
 30
0.0
 40
4.573297077681104
100
AcDbArc
 50
59.7148153518908
 51
69.81936372938712
  0
ARC
  5
AB3A
330
1F
100
AcDbEntity
  8
freecads.com
100
AcDbCircle
 10
10674.89950229117
 20
29260.64629340564
 30
0.0
 40
6.947469846482762
100
AcDbArc
 50
52.32833202471057
 51
59.71486625283581
  0
ARC
  5
AB3B
330
1F
100
AcDbEntity
  8
freecads.com
100
AcDbCircle
 10
10675.13107933623
 20
29260.94623894302
 30
0.0
 40
6.56853020336962
100
AcDbArc
 50
44.80230127672483
 51
52.32826033943342
  0
ARC
  5
AB3C
330
1F
100
AcDbEntity
  8
freecads.com
100
AcDbCircle
 10
10677.69977244436
 20
29263.4972716148
 30
0.0
 40
2.948315848355763
100
AcDbArc
 50
31.10470300797553
 51
44.80222961472672
  0
ARC
  5
AB3D
330
1F
100
AcDbEntity
  8
freecads.com
100
AcDbCircle
 10
10681.82989195353
 20
29265.98918806782
 30
0.0
 40
1.87532746026758
100
AcDbArc
 50
211.1048777255625
 51
231.9241687422806
  0
ARC
  5
AB3E
330
1F
100
AcDbEntity
  8
freecads.com
100
AcDbCircle
 10
10682.9995491386
 20
29267.48220433285
 30
0.0
 40
3.771954861270502
100
AcDbArc
 50
231.924174087514
 51
244.2674874934212
  0
ARC
  5
AB3F
330
1F
100
AcDbEntity
  8
freecads.com
100
AcDbCircle
 10
10683.17240722655
 20
29267.84083451818
 30
0.0
 40
4.170069830000074
100
AcDbArc
 50
244.2673596766804
 51
256.0747295033688
  0
ARC
  5
AB40
330
1F
100
AcDbEntity
  8
freecads.com
100
AcDbCircle
 10
10682.97419497594
 20
29267.04141968902
 30
0.0
 40
3.346448457423183
100
AcDbArc
 50
256.0747770669407
 51
269.9999704046327
  0
ARC
  5
AB41
330
1F
100
AcDbEntity
  8
freecads.com
100
AcDbCircle
 10
10682.97419317754
 20
29260.99496254265
 30
0.0
 40
2.700008688952835
100
AcDbArc
 50
72.74288409700537
 51
89.99999851808992
  0
ARC
  5
AB42
330
1F
100
AcDbEntity
  8
freecads.com
100
AcDbCircle
 10
10683.28001127424
 20
29261.97942342489
 30
0.0
 40
1.669141123775787
100
AcDbArc
 50
48.00288405133126
 51
72.74291058452307
  0
ARC
  5
AB43
330
1F
100
AcDbEntity
  8
freecads.com
100
AcDbCircle
 10
10683.39456370621
 20
29262.10666124928
 30
0.0
 40
1.497934454438989
100
AcDbArc
 50
21.62499524856656
 51
48.00284359723254
  0
ARC
  5
AB44
330
1F
100
AcDbEntity
  8
freecads.com
100
AcDbCircle
 10
10682.97184884404
 20
29261.93908327571
 30
0.0
 40
1.952654403337677
100
AcDbArc
 50
359.9999693631581
 51
21.62499432545102
  0
ARC
  5
AB45
330
1F
100
AcDbEntity
  8
freecads.com
100
AcDbCircle
 10
10686.81470347157
 20
29261.93908350162
 30
0.0
 40
1.890200224192057
100
AcDbArc
 50
180.0000384967287
 51
225.8326918038301
  0
ARC
  5
AB46
330
1F
100
AcDbEntity
  8
freecads.com
100
AcDbCircle
 10
10691.0237718128
 20
29266.27232247125
 30
0.0
 40
7.931161759336639
100
AcDbArc
 50
225.8327669383274
 51
241.6437306619941
  0
ARC
  5
AB47
330
1F
100
AcDbEntity
  8
freecads.com
100
AcDbCircle
 10
10694.5200152756
 20
29272.7503147528
 30
0.0
 40
15.2924186052133
100
AcDbArc
 50
241.6437529472223
 51
252.9047615723756
  0
ARC
  5
AB48
330
1F
100
AcDbEntity
  8
freecads.com
100
AcDbCircle
 10
10701.64468567496
 20
29295.91609534524
 30
0.0
 40
39.5290503587273
100
AcDbArc
 50
252.9046880428982
 51
258.4461723966947
  0
ARC
  5
AB49
330
1F
100
AcDbEntity
  8
freecads.com
100
AcDbCircle
 10
10691.7922154421
 20
29247.72144894154
 30
0.0
 40
9.66236262837561
100
AcDbArc
 50
70.75379217934828
 51
78.44618376368771
  0
ARC
  5
AB4A
330
1F
100
AcDbEntity
  8
freecads.com
100
AcDbCircle
 10
10693.37682399184
 20
29252.26005232442
 30
0.0
 40
4.855086380545436
100
AcDbArc
 50
57.88054689049703
 51
70.75372880687872
  0
ARC
  5
AB4B
330
1F
100
AcDbEntity
  8
freecads.com
100
AcDbCircle
 10
10694.61892843869
 20
29254.23863775616
 30
0.0
 40
2.518930613567469
100
AcDbArc
 50
39.78944784309751
 51
57.88062068337453
  0
ARC
  5
AB4C
330
1F
100
AcDbEntity
  8
freecads.com
100
AcDbCircle
 10
10696.15370711315
 20
29255.51688825915
 30
0.0
 40
0.5215648663964192
100
AcDbArc
 50
341.7880763666777
 51
39.78945454491017
  0
ARC
  5
AB4D
330
1F
100
AcDbEntity
  8
freecads.com
100
AcDbCircle
 10
10694.98928205689
 20
29255.89999906961
 30
0.0
 40
1.747395036012295
100
AcDbArc
 50
290.3565961691384
 51
341.7881139401659
  0
ARC
  5
AB4E
330
1F
100
AcDbEntity
  8
freecads.com
100
AcDbCircle
 10
10693.71540593413
 20
29259.33330205756
 30
0.0
 40
5.40940674861087
100
AcDbArc
 50
268.1627177769002
 51
290.3566153861295
  0
ARC
  5
AB4F
330
1F
100
AcDbEntity
  8
freecads.com
100
AcDbCircle
 10
10693.86746945396
 20
29264.07413580081
 30
0.0
 40
10.15267860410724
100
AcDbArc
 50
252.4416883945395
 51
268.1627806220227
  0
ARC
  5
AB50
330
1F
100
AcDbEntity
  8
freecads.com
100
AcDbCircle
 10
10696.43125891053
 20
29272.1767605662
 30
0.0
 40
18.65123992151966
100
AcDbArc
 50
242.4701200881088
 51
252.4417683588228
  0
ARC
  5
AB51
330
1F
100
AcDbEntity
  8
freecads.com
100
AcDbCircle
 10
10676.20884099787
 20
29233.37926596068
 30
0.0
 40
25.10023746952459
100
AcDbArc
 50
62.47012485499755
 51
69.65472379118033
  0
ARC
  5
AB52
330
1F
100
AcDbEntity
  8
freecads.com
100
AcDbCircle
 10
10683.57965894478
 20
29253.25688706207
 30
0.0
 40
3.900030445613207
100
AcDbArc
 50
69.65472908052153
 51
98.08416104626104
  0
ARC
  5
AB53
330
1F
100
AcDbEntity
  8
freecads.com
100
AcDbCircle
 10
10683.12303793984
 20
29256.4716344316
 30
0.0
 40
0.653015910369898
100
AcDbArc
 50
98.08404315833662
 51
188.9963583063122
  0
ARC
  5
AB54
330
1F
100
AcDbEntity
  8
freecads.com
100
AcDbCircle
 10
10685.3444761385
 20
29256.82333553206
 30
0.0
 40
2.90212269629975
100
AcDbArc
 50
188.9964477857765
 51
219.6901401078451
  0
ARC
  5
AB55
330
1F
100
AcDbEntity
  8
freecads.com
100
AcDbCircle
 10
10693.1559436893
 20
29263.30626327525
 30
0.0
 40
13.05334811102871
100
AcDbArc
 50
219.6901161498899
 51
235.0806496780381
  0
ARC
  5
AB56
330
1F
100
AcDbEntity
  8
freecads.com
100
AcDbCircle
 10
10700.93479422139
 20
29274.4488863395
 30
0.0
 40
26.64262934116603
100
AcDbArc
 50
235.0805559457078
 51
244.1059314643442
  0
ARC
  5
AB57
330
1F
100
AcDbEntity
  8
freecads.com
100
AcDbCircle
 10
10701.6227529704
 20
29275.86608115642
 30
0.0
 40
28.21797958454178
100
AcDbArc
 50
244.1059548153635
 51
252.9356759659317
  0
ARC
  5
AB58
330
1F
100
AcDbEntity
  8
freecads.com
100
AcDbCircle
 10
10699.04660025422
 20
29267.47360208295
 30
0.0
 40
19.43901222980025
100
AcDbArc
 50
252.9356990542781
 51
264.6104912395041
  0
ARC
  5
AB59
330
1F
100
AcDbEntity
  8
freecads.com
100
AcDbCircle
 10
10686.651728788
 20
29136.09314953355
 30
0.0
 40
112.5248318743695
100
AcDbArc
 50
82.25020082202346
 51
84.61047430626996
  0
ARC
  5
AB5A
330
1F
100
AcDbEntity
  8
freecads.com
100
AcDbCircle
 10
10700.36958613277
 20
29236.89260155839
 30
0.0
 40
10.79622656279741
100
AcDbArc
 50
69.06595201309908
 51
82.25027358587672
  0
ARC
  5
AB5B
330
1F
100
AcDbEntity
  8
freecads.com
100
AcDbCircle
 10
10702.91094182103
 20
29243.53589639511
 30
0.0
 40
3.683431400431501
100
AcDbArc
 50
42.90665119939197
 51
69.06600445411456
  0
ARC
  5
AB5C
330
1F
100
AcDbEntity
  8
freecads.com
100
AcDbCircle
 10
10702.78767303006
 20
29243.42132592852
 30
0.0
 40
3.851721586211496
100
AcDbArc
 50
17.60879674109258
 51
42.90660073005652
  0
ARC
  5
AB5D
330
1F
100
AcDbEntity
  8
freecads.com
100
AcDbCircle
 10
10710.1030174122
 20
29245.74312900174
 30
0.0
 40
3.82323984300783
100
AcDbArc
 50
197.6088385121696
 51
228.8556381239583
  0
ARC
  5
AB5E
330
1F
100
AcDbEntity
  8
freecads.com
100
AcDbCircle
 10
10711.29112817455
 20
29247.10296274304
 30
0.0
 40
5.628995913911463
100
AcDbArc
 50
228.8556624450682
 51
252.2434053602309
  0
ARC
  5
AB5F
330
1F
100
AcDbEntity
  8
freecads.com
100
AcDbCircle
 10
10712.6827477109
 20
29251.44869095504
 30
0.0
 40
10.19210435294441
100
AcDbArc
 50
252.2434615168342
 51
268.8101540333772
  0
ARC
  5
AB60
330
1F
100
AcDbEntity
  8
freecads.com
100
AcDbCircle
 10
10713.07039704028
 20
29270.11393555613
 30
0.0
 40
28.86137396965001
100
AcDbArc
 50
268.8101986721646
 51
276.4309359739168
  0
ARC
  5
AB61
330
1F
100
AcDbEntity
  8
freecads.com
100
AcDbCircle
 10
10712.75515630332
 20
29272.91093266736
 30
0.0
 40
31.67607991557952
100
AcDbArc
 50
276.4308963481422
 51
280.9333069351627
  0
ARC
  5
AB62
330
1F
100
AcDbEntity
  8
freecads.com
100
AcDbCircle
 10
10717.63857781085
 20
29247.63085061879
 30
0.0
 40
5.928645985133855
100
AcDbArc
 50
280.9332818370758
 51
296.5095202292289
  0
ARC
  5
AB63
330
1F
100
AcDbEntity
  8
freecads.com
100
AcDbCircle
 10
10718.90472240238
 20
29245.09240647765
 30
0.0
 40
3.091954111780617
100
AcDbArc
 50
296.5095807432164
 51
319.8422087570254
  0
ARC
  5
AB64
330
1F
100
AcDbEntity
  8
freecads.com
100
AcDbCircle
 10
10718.23260184186
 20
29245.65954675094
 30
0.0
 40
3.971382413270509
100
AcDbArc
 50
319.8421804177428
 51
339.183192930041
  0
ARC
  5
AB65
330
1F
100
AcDbEntity
  8
freecads.com
100
AcDbCircle
 10
10726.98422960851
 20
29242.33218167044
 30
0.0
 40
5.391434841434085
100
AcDbArc
 50
134.4880626186373
 51
159.1832366824225
  0
ARC
  5
AB66
330
1F
100
AcDbEntity
  8
freecads.com
100
AcDbCircle
 10
10725.65946918465
 20
29243.68083010693
 30
0.0
 40
3.500973843195322
100
AcDbArc
 50
100.3699369191881
 51
134.4880682636761
  0
ARC
  5
AB67
330
1F
100
AcDbEntity
  8
freecads.com
100
AcDbCircle
 10
10725.90044510914
 20
29242.36398728316
 30
0.0
 40
4.839683826232545
100
AcDbArc
 50
72.42407519468827
 51
100.3699857451399
  0
ARC
  5
AB68
330
1F
100
AcDbEntity
  8
freecads.com
100
AcDbCircle
 10
10723.59882489223
 20
29235.09776219623
 30
0.0
 40
12.46172309645409
100
AcDbArc
 50
58.63064697778026
 51
72.4240846603893
  0
ARC
  5
AB69
330
1F
100
AcDbEntity
  8
freecads.com
100
AcDbCircle
 10
10738.62561583307
 20
29259.74523072939
 30
0.0
 40
16.40525026537718
100
AcDbArc
 50
238.6306415443398
 51
244.3345189389706
  0
ARC
  5
AB6A
330
1F
100
AcDbEntity
  8
freecads.com
100
AcDbCircle
 10
10739.54413920437
 20
29261.65676650843
 30
0.0
 40
18.52601763072834
100
AcDbArc
 50
244.3345710694004
 51
249.5414030282227
  0
ARC
  5
AB6B
330
1F
100
AcDbEntity
  8
freecads.com
100
AcDbCircle
 10
10738.715429667
 20
29259.43542245371
 30
0.0
 40
16.15512562419592
100
AcDbArc
 50
249.5414432616618
 51
254.8973942079683
  0
ARC
  5
AB6C
330
1F
100
AcDbEntity
  8
freecads.com
100
AcDbCircle
 10
10735.55915921075
 20
29247.73987356712
 30
0.0
 40
4.041170574265444
100
AcDbArc
 50
254.8973741704738
 51
269.8993223785881
  0
ARC
  5
AB6D
330
1F
100
AcDbEntity
  8
freecads.com
100
AcDbCircle
 10
10735.54542086674
 20
29239.91992817658
 30
0.0
 40
3.778786884253069
100
AcDbArc
 50
76.02485919225216
 51
89.89936079898264
  0
ARC
  5
AB6E
330
1F
100
AcDbEntity
  8
freecads.com
100
AcDbCircle
 10
10735.05578430593
 20
29237.95248322569
 30
0.0
 40
5.806244305864832
100
AcDbArc
 50
65.96830760518734
 51
76.02482057959331
  0
ARC
  5
AB6F
330
1F
100
AcDbEntity
  8
freecads.com
100
AcDbCircle
 10
10735.13195758429
 20
29238.12329376038
 30
0.0
 40
5.619218620448901
100
AcDbArc
 50
55.77830849249898
 51
65.96840343301163
  0
ARC
  5
AB70
330
1F
100
AcDbEntity
  8
freecads.com
100
AcDbCircle
 10
10736.57517924516
 20
29240.24520052304
 30
0.0
 40
3.053019666386072
100
AcDbArc
 50
39.69024401747928
 51
55.77831875325053
  0
ARC
  5
AB71
330
1F
100
AcDbEntity
  8
freecads.com
100
AcDbCircle
 10
10742.0407628439
 20
29244.7812339263
 30
0.0
 40
4.049670183965822
100
AcDbArc
 50
219.6901390211162
 51
247.964068063919
  0
ARC
  5
AB72
330
1F
100
AcDbEntity
  8
freecads.com
100
AcDbCircle
 10
10742.17122961389
 20
29245.10355655382
 30
0.0
 40
4.397396303589269
100
AcDbArc
 50
247.9640103232596
 51
274.5451560935432
  0
ARC
  5
AB73
330
1F
100
AcDbEntity
  8
freecads.com
100
AcDbCircle
 10
10742.23663967266
 20
29244.28076027868
 30
0.0
 40
3.572004162749327
100
AcDbArc
 50
274.5451230568455
 51
304.5889391662278
  0
ARC
  5
AB74
330
1F
100
AcDbEntity
  8
freecads.com
100
AcDbCircle
 10
10742.9156474355
 20
29243.29607207407
 30
0.0
 40
2.375901156192203
100
AcDbArc
 50
304.5889909771454
 51
345.344945575947
  0
ARC
  5
AB75
330
1F
100
AcDbEntity
  8
freecads.com
100
AcDbCircle
 10
10748.06872831087
 20
29241.94850639527
 30
0.0
 40
2.950464937754188
100
AcDbArc
 50
145.8446565750365
 51
165.3449480432942
  0
ARC
  5
AB76
330
1F
100
AcDbEntity
  8
freecads.com
100
AcDbCircle
 10
10747.33387868321
 20
29242.44707140275
 30
0.0
 40
2.062449711563814
100
AcDbArc
 50
120.3435301375692
 51
145.8446230874391
  0
ARC
  5
AB77
330
1F
100
AcDbEntity
  8
freecads.com
100
AcDbCircle
 10
10747.74630725463
 20
29241.74250812657
 30
0.0
 40
2.878848349883798
100
AcDbArc
 50
99.51440774512862
 51
120.3434724975925
  0
ARC
  5
AB78
330
1F
100
AcDbEntity
  8
freecads.com
100
AcDbCircle
 10
10748.63088921953
 20
29236.46458443511
 30
0.0
 40
8.230386796491217
100
AcDbArc
 50
90.00004157508717
 51
99.51438041750204
  0
ARC
  5
AB79
330
1F
100
AcDbEntity
  8
freecads.com
100
AcDbCircle
 10
10748.63088568992
 20
29253.00363437399
 30
0.0
 40
8.308663142390987
100
AcDbArc
 50
269.9999831564175
 51
278.2586871085874
  0
ARC
  5
AB7A
330
1F
100
AcDbEntity
  8
freecads.com
100
AcDbCircle
 10
10748.53284333852
 20
29253.67899585071
 30
0.0
 40
8.991103928609545
100
AcDbArc
 50
278.2587819899115
 51
286.0427423508014
  0
ARC
  5
AB7B
330
1F
100
AcDbEntity
  8
freecads.com
100
AcDbCircle
 10
10748.90977310647
 20
29252.36814887608
 30
0.0
 40
7.627140644366027
100
AcDbArc
 50
286.0428006096911
 51
294.248860429343
  0
ARC
  5
AB7C
330
1F
100
AcDbEntity
  8
freecads.com
100
AcDbCircle
 10
10751.14137732315
 20
29247.41390619825
 30
0.0
 40
2.193488291596108
100
AcDbArc
 50
294.2488806946267
 51
314.999980746233
  0
ARC
  5
AB7D
330
1F
100
AcDbEntity
  8
freecads.com
100
AcDbCircle
 10
10754.20044029057
 20
29244.35483975104
 30
0.0
 40
2.13268250567272
100
AcDbArc
 50
110.082121735969
 51
134.9999536976023
  0
ARC
  5
AB7E
330
1F
100
AcDbEntity
  8
freecads.com
100
AcDbCircle
 10
10754.44473610338
 20
29243.68663215654
 30
0.0
 40
2.844147075065365
100
AcDbArc
 50
89.99999709912895
 51
110.082177685339
  0
ARC
  5
AB7F
330
1F
100
AcDbEntity
  8
freecads.com
100
AcDbCircle
 10
10754.44474104157
 20
29240.45425474667
 30
0.0
 40
6.076524484933957
100
AcDbArc
 50
77.2472656719226
 51
90.00004520466736
  0
ARC
  5
AB80
330
1F
100
AcDbEntity
  8
freecads.com
100
AcDbCircle
 10
10749.21542421913
 20
29217.34896677239
 30
0.0
 40
29.76618650877008
100
AcDbArc
 50
73.3213506418363
 51
77.24733175143504
  0
ARC
  5
AB81
330
1F
100
AcDbEntity
  8
freecads.com
100
AcDbCircle
 10
10781.33625516626
 20
29324.55853108228
 30
0.0
 40
82.15181231291357
100
AcDbArc
 50
253.3213762299141
 51
255.842288854982
  0
ARC
  5
AB82
330
1F
100
AcDbEntity
  8
freecads.com
100
AcDbCircle
 10
10762.27534056123
 20
29248.99603518131
 30
0.0
 40
4.222297670744074
100
AcDbArc
 50
255.8422193864563
 51
277.6855145034897
  0
ARC
  5
AB83
330
1F
100
AcDbEntity
  8
freecads.com
100
AcDbCircle
 10
10762.7026767304
 20
29245.82936613827
 30
0.0
 40
1.02692460494677
100
AcDbArc
 50
277.6854636379747
 51
334.6213768199133
  0
ARC
  5
AB84
330
1F
100
AcDbEntity
  8
freecads.com
100
AcDbCircle
 10
10760.87795983291
 20
29246.69496903786
 30
0.0
 40
3.046543414471157
100
AcDbArc
 50
334.621414914591
 51
0.0000412573191219
  0
ARC
  5
AB85
330
1F
100
AcDbEntity
  8
freecads.com
100
AcDbCircle
 10
10769.072566705
 20
29246.69497281955
 30
0.0
 40
5.148063457621237
100
AcDbArc
 50
164.9177440279513
 51
180.0000176732812
  0
ARC
  5
AB86
330
1F
100
AcDbEntity
  8
freecads.com
100
AcDbCircle
 10
10764.89024557983
 20
29247.82206089503
 30
0.0
 40
0.816535144902167
100
AcDbArc
 50
106.2685734559106
 51
164.9177874036885
  0
ARC
  5
AB87
330
1F
100
AcDbEntity
  8
freecads.com
100
AcDbCircle
 10
10764.9535329942
 20
29247.60519297884
 30
0.0
 40
1.042448822865521
100
AcDbArc
 50
56.48436486825855
 51
106.2685681693258
  0
ARC
  5
AB88
330
1F
100
AcDbEntity
  8
freecads.com
100
AcDbCircle
 10
10761.31643103369
 20
29242.11338750139
 30
0.0
 40
7.629438884598124
100
AcDbArc
 50
44.99999743261489
 51
56.48436703488386
  0
ARC
  5
AB89
330
1F
100
AcDbEntity
  8
freecads.com
100
AcDbCircle
 10
10768.08303438391
 20
29248.87998806922
 30
0.0
 40
1.939981377039617
100
AcDbArc
 50
224.9999519897215
 51
249.7710116938997
  0
ARC
  5
AB8A
330
1F
100
AcDbEntity
  8
freecads.com
100
AcDbCircle
 10
10767.81755814404
 20
29248.15957050002
 30
0.0
 40
1.172205948974176
100
AcDbArc
 50
249.7710244176293
 51
285.8831517271443
  0
ARC
  5
AB8B
330
1F
100
AcDbEntity
  8
freecads.com
100
AcDbCircle
 10
10767.43115197942
 20
29249.5175854703
 30
0.0
 40
2.584124637690526
100
AcDbArc
 50
285.8830904498071
 51
307.6843699353333
  0
ARC
  5
AB8C
330
1F
100
AcDbEntity
  8
freecads.com
100
AcDbCircle
 10
10758.89119377452
 20
29260.57325262012
 30
0.0
 40
16.55404454686486
100
AcDbArc
 50
307.6843264370489
 51
313.2118387717393
  0
ARC
  5
AB8D
330
1F
100
AcDbEntity
  8
freecads.com
100
AcDbCircle
 10
10775.65905807522
 20
29242.72467954135
 30
0.0
 40
7.935398773770324
100
AcDbArc
 50
119.7342249971532
 51
133.2118231289214
  0
ARC
  5
AB8E
330
1F
100
AcDbEntity
  8
freecads.com
100
AcDbCircle
 10
10774.90363889687
 20
29244.0472302836
 30
0.0
 40
6.412310266542549
100
AcDbArc
 50
103.9214197657857
 51
119.734208240928
  0
ARC
  5
AB8F
330
1F
100
AcDbEntity
  8
freecads.com
100
AcDbCircle
 10
10776.20622422482
 20
29238.79221964389
 30
0.0
 40
11.82635361324875
100
AcDbArc
 50
93.08006300639297
 51
103.9214978242507
  0
ARC
  5
AB90
330
1F
100
AcDbEntity
  8
freecads.com
100
AcDbCircle
 10
10779.04786413595
 20
29185.98269956786
 30
0.0
 40
64.71227166375569
100
AcDbArc
 50
90.00003443161141
 51
93.08007009455154
  0
ARC
  5
AB91
330
1F
100
AcDbEntity
  8
freecads.com
100
AcDbCircle
 10
10779.04779020008
 20
29294.40293690432
 30
0.0
 40
43.70796567273494
100
AcDbArc
 50
270.0000459426521
 51
273.7493764178528
  0
ARC
  5
AB92
330
1F
100
AcDbEntity
  8
freecads.com
100
AcDbCircle
 10
10780.3577456989
 20
29274.41359331184
 30
0.0
 40
23.67574560937201
100
AcDbArc
 50
273.7493687143758
 51
279.6822815249517
  0
ARC
  5
AB93
330
1F
100
AcDbEntity
  8
freecads.com
100
AcDbCircle
 10
10781.58339010541
 20
29267.22995891316
 30
0.0
 40
16.3883038507716
100
AcDbArc
 50
279.6822484840908
 51
286.595751261898
  0
ARC
  5
AB94
330
1F
100
AcDbEntity
  8
freecads.com
100
AcDbCircle
 10
10785.14077008734
 20
29255.29374227139
 30
0.0
 40
3.933255875947682
100
AcDbArc
 50
286.5957090941694
 51
306.5546179376917
  0
ARC
  5
AB95
330
1F
100
AcDbEntity
  8
freecads.com
100
AcDbCircle
 10
10785.44936829049
 20
29254.87752192383
 30
0.0
 40
3.415112817805065
100
AcDbArc
 50
306.5546597246245
 51
329.5377102878724
  0
ARC
  5
AB96
330
1F
100
AcDbEntity
  8
freecads.com
100
AcDbCircle
 10
10787.49179964361
 20
29253.67624814419
 30
0.0
 40
1.04560136481109
100
AcDbArc
 50
329.5376988303857
 51
24.90570709578239
  0
ARC
  5
AB97
330
1F
100
AcDbEntity
  8
freecads.com
100
AcDbCircle
 10
10783.54359354368
 20
29251.84307254601
 30
0.0
 40
5.398630675685508
100
AcDbArc
 50
24.90571974647396
 51
42.47455022602648
  0
ARC
  5
AB98
330
1F
100
AcDbEntity
  8
freecads.com
100
AcDbCircle
 10
10627.26750565417
 20
29108.77025706198
 30
0.0
 40
217.2760626418463
100
AcDbArc
 50
42.47451381423525
 51
43.70063179766899
  0
ARC
  5
AB99
330
1F
100
AcDbEntity
  8
freecads.com
100
AcDbCircle
 10
10876.93960369874
 20
29347.36756269164
 30
0.0
 40
128.0713433072194
100
AcDbArc
 50
220.9701085222334
 51
223.7006961607552
  0
ARC
  5
AB9A
330
1F
100
AcDbEntity
  8
freecads.com
100
AcDbCircle
 10
10803.84827572428
 20
29283.89721960686
 30
0.0
 40
31.26831300154185
100
AcDbArc
 50
213.1848609143485
 51
220.9701947879493
  0
ARC
  5
AB9B
330
1F
100
AcDbEntity
  8
freecads.com
100
AcDbCircle
 10
10784.4622375195
 20
29271.2186713625
 30
0.0
 40
8.104460496793418
100
AcDbArc
 50
196.5493483063329
 51
213.1848915978495
  0
ARC
  5
AB9C
330
1F
100
AcDbEntity
  8
freecads.com
100
AcDbCircle
 10
10777.27900528396
 20
29269.08416959667
 30
0.0
 40
0.6108016349324598
100
AcDbArc
 50
90.00000343208251
 51
196.5493462512176
  0
ARC
  5
AB9D
330
1F
100
AcDbEntity
  8
freecads.com
100
AcDbCircle
 10
10777.27900594451
 20
29267.82240286877
 30
0.0
 40
1.872568362826443
100
AcDbArc
 50
70.45081225188297
 51
90.00002133058407
  0
ARC
  5
AB9E
330
1F
100
AcDbEntity
  8
freecads.com
100
AcDbCircle
 10
10776.36924834577
 20
29265.2603084827
 30
0.0
 40
4.591389160825338
100
AcDbArc
 50
60.4467253728946
 51
70.45085587630542
  0
ARC
  5
AB9F
330
1F
100
AcDbEntity
  8
freecads.com
100
AcDbCircle
 10
10776.08472110863
 20
29264.75850025801
 30
0.0
 40
5.168248973119638
100
AcDbArc
 50
50.89324920177788
 51
60.44671057685589
  0
ARC
  5
ABA0
330
1F
100
AcDbEntity
  8
freecads.com
100
AcDbCircle
 10
10776.70864817458
 20
29265.52605383058
 30
0.0
 40
4.179096067660792
100
AcDbArc
 50
39.69011686981669
 51
50.8932813253936
  0
ARC
  5
ABA1
330
1F
100
AcDbEntity
  8
freecads.com
100
AcDbCircle
 10
10782.84867609919
 20
29270.62181573926
 30
0.0
 40
3.800047517022463
100
AcDbArc
 50
219.6901327915507
 51
232.1561573336917
  0
ARC
  5
ABA2
330
1F
100
AcDbEntity
  8
freecads.com
100
AcDbCircle
 10
10783.70710419077
 20
29271.72674218445
 30
0.0
 40
5.19924773060288
100
AcDbArc
 50
232.1561200752636
 51
242.0113322697778
  0
ARC
  5
ABA3
330
1F
100
AcDbEntity
  8
freecads.com
100
AcDbCircle
 10
10783.52391871423
 20
29271.38206298584
 30
0.0
 40
4.808913682952216
100
AcDbArc
 50
242.0113715390852
 51
252.1781358794903
  0
ARC
  5
ABA4
330
1F
100
AcDbEntity
  8
freecads.com
100
AcDbCircle
 10
10782.74694769487
 20
29268.9652428418
 30
0.0
 40
2.270271610201279
100
AcDbArc
 50
252.1780759609771
 51
270.0000139436494
  0
ARC
  5
ABA5
330
1F
100
AcDbEntity
  8
freecads.com
100
AcDbCircle
 10
10782.74694442304
 20
29272.66641849686
 30
0.0
 40
5.971447265257867
100
AcDbArc
 50
270.0000366943409
 51
277.2901837199939
  0
ARC
  5
ABA6
330
1F
100
AcDbEntity
  8
freecads.com
100
AcDbCircle
 10
10783.46768644402
 20
29267.03248878682
 30
0.0
 40
0.2916028097817713
100
AcDbArc
 50
277.2901760572529
 51
342.5348349800942
  0
ARC
  5
ABA7
330
1F
100
AcDbEntity
  8
freecads.com
100
AcDbCircle
 10
10783.40561811105
 20
29267.05201658923
 30
0.0
 40
0.3566705669669102
100
AcDbArc
 50
342.5349556690531
 51
39.15034859742418
  0
ARC
  5
ABA8
330
1F
100
AcDbEntity
  8
freecads.com
100
AcDbCircle
 10
10777.3578691109
 20
29262.1283268
 30
0.0
 40
8.155259484802087
100
AcDbArc
 50
39.1502768438732
 51
45.00005114474631
  0
ARC
  5
ABA9
330
1F
100
AcDbEntity
  8
freecads.com
100
AcDbCircle
 10
10788.36249393247
 20
29273.13296804849
 30
0.0
 40
7.407641802280183
100
AcDbArc
 50
213.7387962810025
 51
225.0000335363667
  0
ARC
  5
ABAA
330
1F
100
AcDbEntity
  8
freecads.com
100
AcDbCircle
 10
10783.31892681106
 20
29269.76439175771
 30
0.0
 40
1.342588172266939
100
AcDbArc
 50
173.884437970778
 51
213.7388375469168
  0
ARC
  5
ABAB
330
1F
100
AcDbEntity
  8
freecads.com
100
AcDbCircle
 10
10782.69125248344
 20
29269.83164413526
 30
0.0
 40
0.7113212367836203
100
AcDbArc
 50
113.4235681267484
 51
173.8845107657125
  0
ARC
  5
ABAC
330
1F
100
AcDbEntity
  8
freecads.com
100
AcDbCircle
 10
10783.42450217945
 20
29268.13911288403
 30
0.0
 40
2.555858347571133
100
AcDbArc
 50
89.99997605973673
 51
113.4235535453737
  0
ARC
  5
ABAD
330
1F
100
AcDbEntity
  8
freecads.com
100
AcDbCircle
 10
10783.42450258676
 20
29271.85340979231
 30
0.0
 40
1.158438560708948
100
AcDbArc
 50
270.000032673413
 51
299.8023289269956
  0
ARC
  5
ABAE
330
1F
100
AcDbEntity
  8
freecads.com
100
AcDbCircle
 10
10783.20183296636
 20
29272.24218286115
 30
0.0
 40
1.606463402545419
100
AcDbArc
 50
299.8022112682274
 51
323.1300761386568
  0
ARC
  5
ABAF
330
1F
100
AcDbEntity
  8
freecads.com
100
AcDbCircle
 10
10782.84443916796
 20
29272.51022415754
 30
0.0
 40
2.053203219096083
100
AcDbArc
 50
323.130172310651
 51
343.4556779773851
  0
ARC
  5
ABB0
330
1F
100
AcDbEntity
  8
freecads.com
100
AcDbCircle
 10
10782.22251547731
 20
29272.69497349204
 30
0.0
 40
2.701987770070939
100
AcDbArc
 50
343.4556024996358
 51
359.9999520673633
  0
ARC
  5
ABB1
330
1F
100
AcDbEntity
  8
freecads.com
100
AcDbCircle
 10
10787.95306377622
 20
29272.69496908794
 30
0.0
 40
3.028560528842112
100
AcDbArc
 50
163.5463528418549
 51
179.9999594451264
  0
ARC
  5
ABB2
330
1F
100
AcDbEntity
  8
freecads.com
100
AcDbCircle
 10
10786.53386995354
 20
29273.11410163997
 30
0.0
 40
1.548768921059166
100
AcDbArc
 50
136.3728536346315
 51
163.5462383556421
  0
ARC
  5
ABB3
330
1F
100
AcDbEntity
  8
freecads.com
100
AcDbCircle
 10
10786.47504221667
 20
29273.17017595453
 30
0.0
 40
1.467497576916885
100
AcDbArc
 50
108.2941935763837
 51
136.3728605788384
  0
ARC
  5
ABB4
330
1F
100
AcDbEntity
  8
freecads.com
100
AcDbCircle
 10
10786.83088400494
 20
29272.09386441432
 30
0.0
 40
2.601106817281275
100
AcDbArc
 50
90.00001668714766
 51
108.2943353721222
  0
ARC
  5
ABB5
330
1F
100
AcDbEntity
  8
freecads.com
100
AcDbCircle
 10
10786.83088571819
 20
29278.33505879904
 30
0.0
 40
3.640087567437646
100
AcDbArc
 50
269.999961108797
 51
283.856651784237
  0
ARC
  5
ABB6
330
1F
100
AcDbEntity
  8
freecads.com
100
AcDbCircle
 10
10787.49780667741
 20
29275.63138877094
 30
0.0
 40
0.8553765973968538
100
AcDbArc
 50
283.8566092698609
 51
324.4571368939915
  0
ARC
  5
ABB7
330
1F
100
AcDbEntity
  8
freecads.com
100
AcDbCircle
 10
10787.43085612186
 20
29275.6792222878
 30
0.0
 40
0.9376591728222683
100
AcDbArc
 50
324.4570105835747
 51
2.679332755943019
  0
ARC
  5
ABB8
330
1F
100
AcDbEntity
  8
freecads.com
100
AcDbCircle
 10
10783.88602615406
 20
29275.51332517151
 30
0.0
 40
4.486368988204316
100
AcDbArc
 50
2.679443249282351
 51
14.6550381342965
  0
ARC
  5
ABB9
330
1F
100
AcDbEntity
  8
freecads.com
100
AcDbCircle
 10
10791.42053216508
 20
29277.48364527819
 30
0.0
 40
3.301502489481904
100
AcDbArc
 50
177.897036331845
 51
194.6549988954294
  0
ARC
  5
ABBA
330
1F
100
AcDbEntity
  8
freecads.com
100
AcDbCircle
 10
10798.57992397754
 20
29277.22074990109
 30
0.0
 40
10.46571948113695
100
AcDbArc
 50
170.8037841530672
 51
177.897027724527
  0
ARC
  5
ABBB
330
1F
100
AcDbEntity
  8
freecads.com
100
AcDbCircle
 10
10799.99439505343
 20
29276.99174975712
 30
0.0
 40
11.89860799406348
100
AcDbArc
 50
163.9752238786442
 51
170.8037761224349
  0
ARC
  5
ABBC
330
1F
100
AcDbEntity
  8
freecads.com
100
AcDbCircle
 10
10798.05194525321
 20
29277.54965376282
 30
0.0
 40
9.877626028308826
100
AcDbArc
 50
156.1237685258262
 51
163.975259268219
  0
ARC
  5
ABBD
330
1F
100
AcDbEntity
  8
freecads.com
100
AcDbCircle
 10
10804.96718442799
 20
29274.48866555011
 30
0.0
 40
17.44004506474413
100
AcDbArc
 50
150.2597718268004
 51
156.1237462032836
  0
ARC
  5
ABBE
330
1F
100
AcDbEntity
  8
freecads.com
100
AcDbCircle
 10
10791.38613206509
 20
29282.24780532842
 30
0.0
 40
1.798778064177249
100
AcDbArc
 50
119.1495678235946
 51
150.2598120862143
  0
ARC
  5
ABBF
330
1F
100
AcDbEntity
  8
freecads.com
100
AcDbCircle
 10
10791.13485163954
 20
29282.69834918889
 30
0.0
 40
1.282898599111119
100
AcDbArc
 50
79.95779421427475
 51
119.1495616700079
  0
ARC
  5
ABC0
330
1F
100
AcDbEntity
  8
freecads.com
100
AcDbCircle
 10
10790.07672418201
 20
29276.72309041458
 30
0.0
 40
7.351123309549587
100
AcDbArc
 50
69.18321561202671
 51
79.95787768113264
  0
ARC
  5
ABC1
330
1F
100
AcDbEntity
  8
freecads.com
100
AcDbCircle
 10
10818.23494942637
 20
29350.7846118385
 30
0.0
 40
71.88267380089413
100
AcDbArc
 50
249.183168518203
 51
250.9191974332396
  0
ARC
  5
ABC2
330
1F
100
AcDbEntity
  8
freecads.com
100
AcDbCircle
 10
10795.23401159613
 20
29284.28981643821
 30
0.0
 40
1.522166722017154
100
AcDbArc
 50
250.9191529065268
 51
278.6751528664609
  0
ARC
  5
ABC3
330
1F
100
AcDbEntity
  8
freecads.com
100
AcDbCircle
 10
10795.39855735047
 20
29283.21137854103
 30
0.0
 40
0.4312480250772819
100
AcDbArc
 50
278.675131101998
 51
347.6688071828006
  0
ARC
  5
ABC4
330
1F
100
AcDbEntity
  8
freecads.com
100
AcDbCircle
 10
10791.3885833449
 20
29284.08798546307
 30
0.0
 40
4.535919902477677
100
AcDbArc
 50
347.6687573159521
 51
359.9999591814488
  0
ARC
  5
ABC5
330
1F
100
AcDbEntity
  8
freecads.com
100
AcDbCircle
 10
10797.46054856937
 20
29284.08798364102
 30
0.0
 40
1.536045322001619
100
AcDbArc
 50
157.9946136635083
 51
180.0000525725296
  0
ARC
  5
ABC6
330
1F
100
AcDbEntity
  8
freecads.com
100
AcDbCircle
 10
10798.3499188164
 20
29283.72855683448
 30
0.0
 40
2.495298711646066
100
AcDbArc
 50
142.6941885591195
 51
157.9946000095523
  0
ARC
  5
ABC7
330
1F
100
AcDbEntity
  8
freecads.com
100
AcDbCircle
 10
10798.50964436101
 20
29283.60684962542
 30
0.0
 40
2.696109304827232
100
AcDbArc
 50
127.9644504559028
 51
142.6941319881404
  0
ARC
  5
ABC8
330
1F
100
AcDbEntity
  8
freecads.com
100
AcDbCircle
 10
10798.22416316276
 20
29283.9727189239
 30
0.0
 40
2.232040497299722
100
AcDbArc
 50
110.9936248981519
 51
127.964487506766
  0
ARC
  5
ABC9
330
1F
100
AcDbEntity
  8
freecads.com
100
AcDbCircle
 10
10796.30996882215
 20
29288.96102419598
 30
0.0
 40
3.110929600039109
100
AcDbArc
 50
290.9936273020243
 51
302.8665972835083
  0
ARC
  5
ABCA
330
1F
100
AcDbEntity
  8
freecads.com
100
AcDbCircle
 10
10796.47174518699
 20
29288.71063769458
 30
0.0
 40
2.812827281531866
100
AcDbArc
 50
302.8665791701183
 51
315.6712216980206
  0
ARC
  5
ABCB
330
1F
100
AcDbEntity
  8
freecads.com
100
AcDbCircle
 10
10796.91842211316
 20
29288.27430768382
 30
0.0
 40
2.188404224092709
100
AcDbArc
 50
315.6711848484526
 51
330.0719456459983
  0
ARC
  5
ABCC
330
1F
100
AcDbEntity
  8
freecads.com
100
AcDbCircle
 10
10798.10337214398
 20
29287.59215725243
 30
0.0
 40
0.8211311033916155
100
AcDbArc
 50
330.0720472358364
 51
0.0000683231526649
  0
ARC
  5
ABCD
330
1F
100
AcDbEntity
  8
freecads.com
100
AcDbCircle
 10
10797.77027942558
 20
29287.59215758449
 30
0.0
 40
1.154223821790491
100
AcDbArc
 50
0.0000321228165585
 51
24.03964690084297
  0
ARC
  5
ABCE
330
1F
100
AcDbEntity
  8
freecads.com
100
AcDbCircle
 10
10793.5954389407
 20
29285.72994141071
 30
0.0
 40
5.725563029520324
100
AcDbArc
 50
24.03959984724346
 51
31.3734763054919
  0
ARC
  5
ABCF
330
1F
100
AcDbEntity
  8
freecads.com
100
AcDbCircle
 10
10792.53402931052
 20
29285.0827330373
 30
0.0
 40
6.968731996973632
100
AcDbArc
 50
31.37344405476958
 51
38.35769933183174
  0
ARC
  5
ABD0
330
1F
100
AcDbEntity
  8
freecads.com
100
AcDbCircle
 10
10792.15584804997
 20
29284.78345830121
 30
0.0
 40
7.451004153941532
100
AcDbArc
 50
38.35761672018239
 51
45.00000398557097
  0
ARC
  5
ABD1
330
1F
100
AcDbEntity
  8
freecads.com
100
AcDbCircle
 10
10813.05380959145
 20
29305.68145577342
 30
0.0
 40
22.10320189085155
100
AcDbArc
 50
220.1265326840271
 51
225.0000645159603
  0
ARC
  5
ABD2
330
1F
100
AcDbEntity
  8
freecads.com
100
AcDbCircle
 10
10796.75137900548
 20
29291.9406264213
 30
0.0
 40
0.7823286841928542
100
AcDbArc
 50
165.4906686553475
 51
220.1265072145608
  0
ARC
  5
ABD3
330
1F
100
AcDbEntity
  8
freecads.com
100
AcDbCircle
 10
10796.32414020941
 20
29292.05119289972
 30
0.0
 40
0.3410148106161472
100
AcDbArc
 50
69.45458734066075
 51
165.4907946884722
  0
ARC
  5
ABD4
330
1F
100
AcDbEntity
  8
freecads.com
100
AcDbCircle
 10
10792.33692803886
 20
29281.41252697077
 30
0.0
 40
11.70231199186463
100
AcDbArc
 50
61.84500295319008
 51
69.4547516067998
  0
ARC
  5
ABD5
330
1F
100
AcDbEntity
  8
freecads.com
100
AcDbCircle
 10
10806.59767361493
 20
29308.05896810672
 30
0.0
 40
18.52022412933075
100
AcDbArc
 50
241.8450448878812
 51
248.1961454624646
  0
ARC
  5
ABD6
330
1F
100
AcDbEntity
  8
freecads.com
100
AcDbCircle
 10
10799.97631979194
 20
29291.50763527918
 30
0.0
 40
0.6935883048894807
100
AcDbArc
 50
248.19624922398
 51
316.5030332803728
  0
ARC
  5
ABD7
330
1F
100
AcDbEntity
  8
freecads.com
100
AcDbCircle
 10
10799.48107488686
 20
29291.97755677075
 30
0.0
 40
1.376298876249722
100
AcDbArc
 50
316.5029894404399
 51
357.7891080711649
  0
ARC
  5
ABD8
330
1F
100
AcDbEntity
  8
freecads.com
100
AcDbCircle
 10
10729.30112068475
 20
29294.68697120862
 30
0.0
 40
71.60853434122225
100
AcDbArc
 50
357.7890988376615
 51
0.2064327186093604
  0
ARC
  5
ABD9
330
1F
100
AcDbEntity
  8
freecads.com
100
AcDbCircle
 10
10769.18648742889
 20
29294.83069509998
 30
0.0
 40
31.72290864886111
100
AcDbArc
 50
0.2063982933404114
 51
6.326653281589329
  0
ARC
  5
ABDA
330
1F
100
AcDbEntity
  8
freecads.com
100
AcDbCircle
 10
10795.6335658679
 20
29297.76293336592
 30
0.0
 40
5.113775269380899
100
AcDbArc
 50
6.326651273322546
 51
29.91237713766302
  0
ARC
  5
ABDB
330
1F
100
AcDbEntity
  8
freecads.com
100
AcDbCircle
 10
10798.45546099595
 20
29299.38640359866
 30
0.0
 40
1.858203474702192
100
AcDbArc
 50
29.91244904033818
 51
74.88084135001319
  0
ARC
  5
ABDC
330
1F
100
AcDbEntity
  8
freecads.com
100
AcDbCircle
 10
10798.20859482284
 20
29298.47268610839
 30
0.0
 40
2.804682507456233
100
AcDbArc
 50
74.88087152935965
 51
107.9430233369145
  0
ARC
  5
ABDD
330
1F
100
AcDbEntity
  8
freecads.com
100
AcDbCircle
 10
10796.11716827218
 20
29304.93127962259
 30
0.0
 40
3.984094642987841
100
AcDbArc
 50
276.3272173360139
 51
287.9430328104692
  0
ARC
  5
ABDE
330
1F
100
AcDbEntity
  8
freecads.com
100
AcDbCircle
 10
10796.53969776381
 20
29301.12065025791
 30
0.0
 40
0.150111423643089
100
AcDbArc
 50
157.6487241846402
 51
276.3273074455747
  0
ARC
  5
ABDF
330
1F
100
AcDbEntity
  8
freecads.com
100
AcDbCircle
 10
10797.92881532061
 20
29300.54947726263
 30
0.0
 40
1.652072201135923
100
AcDbArc
 50
134.4494218554451
 51
157.6486742234457
  0
ARC
  5
ABE0
330
1F
100
AcDbEntity
  8
freecads.com
100
AcDbCircle
 10
10841.00940665797
 20
29256.63285645407
 30
0.0
 40
63.17123127552008
100
AcDbArc
 50
132.7722816519477
 51
134.4494137716918
  0
ARC
  5
ABE1
330
1F
100
AcDbEntity
  8
freecads.com
100
AcDbCircle
 10
10786.66451222647
 20
29315.37696818272
 30
0.0
 40
16.85525317530638
100
AcDbArc
 50
312.7723192583157
 51
317.5381826580621
  0
ARC
  5
ABE2
330
1F
100
AcDbEntity
  8
freecads.com
100
AcDbCircle
 10
10792.63438013528
 20
29309.91388966213
 30
0.0
 40
8.763000721852687
100
AcDbArc
 50
317.5382641597518
 51
325.3139834321843
  0
ARC
  5
ABE3
330
1F
100
AcDbEntity
  8
freecads.com
100
AcDbCircle
 10
10795.00085361473
 20
29308.27611378751
 30
0.0
 40
5.885066298627723
100
AcDbArc
 50
325.3140336795742
 51
333.9366446629049
  0
ARC
  5
ABE4
330
1F
100
AcDbEntity
  8
freecads.com
100
AcDbCircle
 10
10799.99758487949
 20
29305.83220248088
 30
0.0
 40
0.3226903847808457
100
AcDbArc
 50
333.9365505762929
 51
45.00004806636034
  0
ARC
  5
ABE5
330
1F
100
AcDbEntity
  8
freecads.com
100
AcDbCircle
 10
10800.88009851598
 20
29306.71471744508
 30
0.0
 40
0.9253733077548327
100
AcDbArc
 50
194.2872160217591
 51
225.0000413681515
  0
ARC
  5
ABE6
330
1F
100
AcDbEntity
  8
freecads.com
100
AcDbCircle
 10
10823.1268702031
 20
29312.38007884023
 30
0.0
 40
23.88218428481654
100
AcDbArc
 50
191.3744934670866
 51
194.2872540578353
  0
ARC
  5
ABE7
330
1F
100
AcDbEntity
  8
freecads.com
100
AcDbCircle
 10
10822.95366799466
 20
29312.34526762011
 30
0.0
 40
23.70551842776009
100
AcDbArc
 50
187.8110595743836
 51
191.3745698567081
  0
ARC
  5
ABE8
330
1F
100
AcDbEntity
  8
freecads.com
100
AcDbCircle
 10
10834.09130261548
 20
29313.87316961595
 30
0.0
 40
34.94746618846214
100
AcDbArc
 50
185.1469998671443
 51
187.8111336078839
  0
ARC
  5
ABE9
330
1F
100
AcDbEntity
  8
freecads.com
100
AcDbCircle
 10
10771.58874915504
 20
29308.24328113821
 30
0.0
 40
27.80812984365729
100
AcDbArc
 50
5.147001954759448
 51
12.57360135506023
  0
ARC
  5
ABEA
330
1F
100
AcDbEntity
  8
freecads.com
100
AcDbCircle
 10
10790.07816946498
 20
29312.36722131049
 30
0.0
 40
8.864382961323743
100
AcDbArc
 50
12.57354664053302
 51
29.98470425726243
  0
ARC
  5
ABEB
330
1F
100
AcDbEntity
  8
freecads.com
100
AcDbCircle
 10
10791.67018987893
 20
29313.28582319981
 30
0.0
 40
7.026351832833222
100
AcDbArc
 50
29.98459785934905
 51
50.06450416441315
  0
ARC
  5
ABEC
330
1F
100
AcDbEntity
  8
freecads.com
100
AcDbCircle
 10
10787.76603709912
 20
29308.62241721172
 30
0.0
 40
13.10827293866773
100
AcDbArc
 50
50.0644078264801
 51
62.65564976475135
  0
ARC
  5
ABED
330
1F
100
AcDbEntity
  8
freecads.com
100
AcDbCircle
 10
10789.01447123131
 20
29311.03664444114
 30
0.0
 40
10.39035445247374
100
AcDbArc
 50
62.65560573383253
 51
74.89494046949421
  0
ARC
  5
ABEE
330
1F
100
AcDbEntity
  8
freecads.com
100
AcDbCircle
 10
10789.76214771935
 20
29313.80665418311
 30
0.0
 40
7.521212751315226
100
AcDbArc
 50
74.89499987611225
 51
90.48880388796934
  0
ARC
  5
ABEF
330
1F
100
AcDbEntity
  8
freecads.com
100
AcDbCircle
 10
10789.77888329943
 20
29311.84604578708
 30
0.0
 40
9.48189257274782
100
AcDbArc
 50
90.48885681302401
 51
104.0893256559136
  0
ARC
  5
ABF0
330
1F
100
AcDbEntity
  8
freecads.com
100
AcDbCircle
 10
10793.22764420709
 20
29298.105209655
 30
0.0
 40
23.64891517478926
100
AcDbArc
 50
104.0893791662766
 51
110.9616662875427
  0
ARC
  5
ABF1
330
1F
100
AcDbEntity
  8
freecads.com
100
AcDbCircle
 10
10784.39276370725
 20
29321.16696810657
 30
0.0
 40
1.04723465317359
100
AcDbArc
 50
258.679140027703
 51
290.961631342007
  0
ARC
  5
ABF2
330
1F
100
AcDbEntity
  8
freecads.com
100
AcDbCircle
 10
10784.33822924459
 20
29320.89457812821
 30
0.0
 40
0.7694392105914681
100
AcDbArc
 50
218.0261629369984
 51
258.6793179273915
  0
ARC
  5
ABF3
330
1F
100
AcDbEntity
  8
freecads.com
100
AcDbCircle
 10
10785.00572724961
 20
29321.41657481025
 30
0.0
 40
1.61680815193957
100
AcDbArc
 50
192.4754726637851
 51
218.0261366667906
  0
ARC
  5
ABF4
330
1F
100
AcDbEntity
  8
freecads.com
100
AcDbCircle
 10
10789.66651512599
 20
29322.44775498699
 30
0.0
 40
6.390305421808819
100
AcDbArc
 50
183.2764346698587
 51
192.4754853279203
  0
ARC
  5
ABF5
330
1F
100
AcDbEntity
  8
freecads.com
100
AcDbCircle
 10
10787.15099411606
 20
29322.30374968955
 30
0.0
 40
3.870665868804466
100
AcDbArc
 50
162.4512443040459
 51
183.276445030464
  0
ARC
  5
ABF6
330
1F
100
AcDbEntity
  8
freecads.com
100
AcDbCircle
 10
10784.37957311149
 20
29323.18017032283
 30
0.0
 40
0.9639688582868371
100
AcDbArc
 50
104.1057349636454
 51
162.4513274544774
  0
ARC
  5
ABF7
330
1F
100
AcDbEntity
  8
freecads.com
100
AcDbCircle
 10
10785.46383825026
 20
29318.86536900042
 30
0.0
 40
5.412917199523405
100
AcDbArc
 50
87.02299227794533
 51
104.1057638310473
  0
ARC
  5
ABF8
330
1F
100
AcDbEntity
  8
freecads.com
100
AcDbCircle
 10
10769.79239043962
 20
29017.52636378308
 30
0.0
 40
307.1591522081089
100
AcDbArc
 50
86.08078966002185
 51
87.02295615079689
  0
LINE
  5
ABF9
330
1F
100
AcDbEntity
  8
freecads.com
100
AcDbLine
 10
10790.78665524737
 20
29323.9671992316
 30
0.0
 11
10798.42450324737
 21
29323.4439232316
 31
0.0
  0
LINE
  5
ABFA
330
1F
100
AcDbEntity
  8
freecads.com
100
AcDbLine
 10
10798.42450324737
 20
29323.4439232316
 30
0.0
 11
10798.56196624737
 21
29330.1569102316
 31
0.0
  0
ARC
  5
ABFB
330
1F
100
AcDbEntity
  8
freecads.com
100
AcDbCircle
 10
10842.81384844426
 20
29329.25079906001
 30
0.0
 40
44.26115808948575
100
AcDbArc
 50
175.3890158338179
 51
178.8269630714065
  0
ARC
  5
ABFC
330
1F
100
AcDbEntity
  8
freecads.com
100
AcDbCircle
 10
10829.82967250381
 20
29330.29797817155
 30
0.0
 40
31.23482288175324
100
AcDbArc
 50
170.9246200444404
 51
175.3890007913579
  0
ARC
  5
ABFD
330
1F
100
AcDbEntity
  8
freecads.com
100
AcDbCircle
 10
10827.23257621765
 20
29330.71284997805
 30
0.0
 40
28.60479859773675
100
AcDbArc
 50
166.9205680564777
 51
170.9246772188625
  0
ARC
  5
ABFE
330
1F
100
AcDbEntity
  8
freecads.com
100
AcDbCircle
 10
10800.98301397293
 20
29336.81138394409
 30
0.0
 40
1.656113387240313
100
AcDbArc
 50
134.9999373257504
 51
166.9206359778526
  0
ARC
  5
ABFF
330
1F
100
AcDbEntity
  8
freecads.com
100
AcDbCircle
 10
10797.52628836
 20
29340.26811447396
 30
0.0
 40
3.23243833276574
100
AcDbArc
 50
314.9999704835461
 51
340.6748910855786
  0
ARC
  5
AC00
330
1F
100
AcDbEntity
  8
freecads.com
100
AcDbCircle
 10
10795.1398247803
 20
29341.10502913465
 30
0.0
 40
5.761397519156638
100
AcDbArc
 50
340.6747715647586
 51
357.3328844894802
  0
ARC
  5
AC01
330
1F
100
AcDbEntity
  8
freecads.com
100
AcDbCircle
 10
10797.08809976959
 20
29341.0142678215
 30
0.0
 40
3.811009596249054
100
AcDbArc
 50
357.3329393296356
 51
18.20905332751418
  0
ARC
  5
AC02
330
1F
100
AcDbEntity
  8
freecads.com
100
AcDbCircle
 10
10800.03149268017
 20
29341.98252238653
 30
0.0
 40
0.7124488450674528
100
AcDbArc
 50
18.20899012269282
 51
90.00003480555427
  0
ARC
  5
AC03
330
1F
100
AcDbEntity
  8
freecads.com
100
AcDbCircle
 10
10800.03149278707
 20
29343.83913585034
 30
0.0
 40
1.144164618740901
100
AcDbArc
 50
214.0174512812903
 51
269.999972973666
  0
ARC
  5
AC04
330
1F
100
AcDbEntity
  8
freecads.com
100
AcDbCircle
 10
10801.79802078521
 20
29345.03145594884
 30
0.0
 40
3.275419738488246
100
AcDbArc
 50
188.4029438034516
 51
214.0174354892403
  0
ARC
  5
AC05
330
1F
100
AcDbEntity
  8
freecads.com
100
AcDbCircle
 10
10806.07665655828
 20
29345.66349830548
 30
0.0
 40
7.600486399160209
100
AcDbArc
 50
172.5653213834324
 51
188.4029718989874
  0
ARC
  5
AC06
330
1F
100
AcDbEntity
  8
freecads.com
100
AcDbCircle
 10
10817.34303723361
 20
29344.19333782854
 30
0.0
 40
18.96238348323783
100
AcDbArc
 50
164.5644174460101
 51
172.5653858260675
  0
ARC
  5
AC07
330
1F
100
AcDbEntity
  8
freecads.com
100
AcDbCircle
 10
10778.13985395974
 20
29355.01789170164
 30
0.0
 40
21.70775968539031
100
AcDbArc
 50
344.5644174183226
 51
349.3082887075406
  0
ARC
  5
AC08
330
1F
100
AcDbEntity
  8
freecads.com
100
AcDbCircle
 10
10792.90477969858
 20
29352.23024369928
 30
0.0
 40
6.681981387456757
100
AcDbArc
 50
349.3082760070646
 51
0.7201756891192245
  0
ARC
  5
AC09
330
1F
100
AcDbEntity
  8
freecads.com
100
AcDbCircle
 10
10796.0517914215
 20
29352.26980864234
 30
0.0
 40
3.534720964670566
100
AcDbArc
 50
0.7200671875127979
 51
17.01383506501118
  0
ARC
  5
AC0A
330
1F
100
AcDbEntity
  8
freecads.com
100
AcDbCircle
 10
10797.7920713775
 20
29352.80232252167
 30
0.0
 40
1.714790922902778
100
AcDbArc
 50
17.01391912611124
 51
45.00001984745367
  0
ARC
  5
AC0B
330
1F
100
AcDbEntity
  8
freecads.com
100
AcDbCircle
 10
10800.29823637365
 20
29355.30849256085
 30
0.0
 40
1.829465170165278
100
AcDbArc
 50
200.8122457268012
 51
225.0000930764432
  0
ARC
  5
AC0C
330
1F
100
AcDbEntity
  8
freecads.com
100
AcDbCircle
 10
10807.21613140319
 20
29357.93803432385
 30
0.0
 40
9.23025982499487
100
AcDbArc
 50
193.5234023160969
 51
200.8121756336082
  0
ARC
  5
AC0D
330
1F
100
AcDbEntity
  8
freecads.com
100
AcDbCircle
 10
10809.17226966705
 20
29358.40850750816
 30
0.0
 40
11.24217978476154
100
AcDbArc
 50
186.5771603870171
 51
193.523406395413
  0
ARC
  5
AC0E
330
1F
100
AcDbEntity
  8
freecads.com
100
AcDbCircle
 10
10810.01576845737
 20
29358.5057487045
 30
0.0
 40
12.0912652099941
100
AcDbArc
 50
179.9999690705072
 51
186.5770934618524
  0
LINE
  5
AC0F
330
1F
100
AcDbEntity
  8
freecads.com
100
AcDbLine
 10
10797.92450324738
 20
29358.5057552316
 30
0.0
 11
10797.92450324738
 21
29361.9165392316
 31
0.0
  0
LINE
  5
AC10
330
1F
100
AcDbEntity
  8
freecads.com
100
AcDbLine
 10
10797.92450324738
 20
29361.9165392316
 30
0.0
 11
10795.90923324738
 21
29359.5557552316
 31
0.0
  0
LINE
  5
AC11
330
1F
100
AcDbEntity
  8
freecads.com
100
AcDbLine
 10
10795.90923324738
 20
29359.5557552316
 30
0.0
 11
10793.89396324738
 21
29357.1949712316
 31
0.0
  0
LINE
  5
AC12
330
1F
100
AcDbEntity
  8
freecads.com
100
AcDbLine
 10
10793.89396324738
 20
29357.1949712316
 30
0.0
 11
10794.54756624737
 21
29360.1949712316
 31
0.0
  0
ARC
  5
AC13
330
1F
100
AcDbEntity
  8
freecads.com
100
AcDbCircle
 10
10818.23169704445
 20
29355.03496513692
 30
0.0
 40
24.23971358143778
100
AcDbArc
 50
164.6121753309625
 51
167.7091674647937
  0
ARC
  5
AC14
330
1F
100
AcDbEntity
  8
freecads.com
100
AcDbCircle
 10
10825.34483341867
 20
29353.07730267668
 30
0.0
 40
31.61732507747178
100
AcDbArc
 50
162.0745266890083
 51
164.6121676440588
  0
ARC
  5
AC15
330
1F
100
AcDbEntity
  8
freecads.com
100
AcDbCircle
 10
10822.57495855419
 20
29353.9733111747
 30
0.0
 40
28.70613322646803
100
AcDbArc
 50
159.5011436134675
 51
162.0745326899289
  0
ARC
  5
AC16
330
1F
100
AcDbEntity
  8
freecads.com
100
AcDbCircle
 10
10803.27974390758
 20
29361.18705708203
 30
0.0
 40
8.106535214016682
100
AcDbArc
 50
152.9056978999444
 51
159.5011418027352
  0
ARC
  5
AC17
330
1F
100
AcDbEntity
  8
freecads.com
100
AcDbCircle
 10
10776.20943268543
 20
29375.0362484797
 30
0.0
 40
22.30073122071672
100
AcDbArc
 50
332.9056747353216
 51
337.2422184464646
  0
ARC
  5
AC18
330
1F
100
AcDbEntity
  8
freecads.com
100
AcDbCircle
 10
10795.62928356827
 20
29366.88972783363
 30
0.0
 40
1.24137683962324
100
AcDbArc
 50
337.2422136594307
 51
12.77312789814669
  0
ARC
  5
AC19
330
1F
100
AcDbEntity
  8
freecads.com
100
AcDbCircle
 10
10796.31178783818
 20
29367.04445242561
 30
0.0
 40
0.5415541636493861
100
AcDbArc
 50
12.77312664760934
 51
75.99742676701795
  0
ARC
  5
AC1A
330
1F
100
AcDbEntity
  8
freecads.com
100
AcDbCircle
 10
10795.42450592682
 20
29363.48643635607
 30
0.0
 40
4.20853487553532
100
AcDbArc
 50
75.99743813087446
 51
90.00003647839617
  0
ARC
  5
AC1B
330
1F
100
AcDbEntity
  8
freecads.com
100
AcDbCircle
 10
10795.42450392533
 20
29368.80396463502
 30
0.0
 40
1.108993403412662
100
AcDbArc
 50
233.0042832629616
 51
269.9999649736026
  0
ARC
  5
AC1C
330
1F
100
AcDbEntity
  8
freecads.com
100
AcDbCircle
 10
10795.66224301235
 20
29369.11950235407
 30
0.0
 40
1.504067985788666
100
AcDbArc
 50
203.5535304558907
 51
233.0042424290957
  0
ARC
  5
AC1D
330
1F
100
AcDbEntity
  8
freecads.com
100
AcDbCircle
 10
10797.53998662023
 20
29369.93805066871
 30
0.0
 40
3.552467946819928
100
AcDbArc
 50
186.022452024497
 51
203.5534607585914
  0
ARC
  5
AC1E
330
1F
100
AcDbEntity
  8
freecads.com
100
AcDbCircle
 10
10808.89444894816
 20
29371.13595863928
 30
0.0
 40
14.96994570078979
100
AcDbArc
 50
180.0000168699502
 51
186.0224793302523
  0
ARC
  5
AC1F
330
1F
100
AcDbEntity
  8
freecads.com
100
AcDbCircle
 10
10774.46591622015
 20
29371.13595884316
 30
0.0
 40
19.45858702722817
100
AcDbArc
 50
359.9999864213304
 51
8.412040031001252
  0
ARC
  5
AC20
330
1F
100
AcDbEntity
  8
freecads.com
100
AcDbCircle
 10
10792.33404021509
 20
29373.77833003107
 30
0.0
 40
1.396140332676885
100
AcDbArc
 50
8.412063339497095
 51
65.99026942555555
  0
ARC
  5
AC21
330
1F
100
AcDbEntity
  8
freecads.com
100
AcDbCircle
 10
10792.51853235469
 20
29374.19251962761
 30
0.0
 40
0.9427195882745273
100
AcDbArc
 50
65.99020046219745
 51
141.222696666436
  0
ARC
  5
AC22
330
1F
100
AcDbEntity
  8
freecads.com
100
AcDbCircle
 10
10801.53310020012
 20
29366.95049373122
 30
0.0
 40
12.5059964821268
100
AcDbArc
 50
141.2226795633527
 51
152.6556117609995
  0
ARC
  5
AC23
330
1F
100
AcDbEntity
  8
freecads.com
100
AcDbCircle
 10
10781.36847129318
 20
29377.37802212822
 30
0.0
 40
10.19522831797427
100
AcDbArc
 50
325.2409384614191
 51
332.6556328293742
  0
ARC
  5
AC24
330
1F
100
AcDbEntity
  8
freecads.com
100
AcDbCircle
 10
10785.25981220936
 20
29374.67758652868
 30
0.0
 40
5.458680360536253
100
AcDbArc
 50
313.4059512288811
 51
325.240978500539
  0
ARC
  5
AC25
330
1F
100
AcDbEntity
  8
freecads.com
100
AcDbCircle
 10
10786.9434660882
 20
29372.89754188231
 30
0.0
 40
3.008527441465104
100
AcDbArc
 50
297.5605585310685
 51
313.4059641021083
  0
ARC
  5
AC26
330
1F
100
AcDbEntity
  8
freecads.com
100
AcDbCircle
 10
10788.10257121159
 20
29370.676654724
 30
0.0
 40
0.5033598907787227
100
AcDbArc
 50
238.2825243787519
 51
297.5606256865682
  0
ARC
  5
AC27
330
1F
100
AcDbEntity
  8
freecads.com
100
AcDbCircle
 10
10787.36890057526
 20
29369.48954902651
 30
0.0
 40
0.8921660099523748
100
AcDbArc
 50
58.28258270088178
 51
95.33363141054982
  0
ARC
  5
AC28
330
1F
100
AcDbEntity
  8
freecads.com
100
AcDbCircle
 10
10787.73272599866
 20
29365.59251668149
 30
0.0
 40
4.806144808676729
100
AcDbArc
 50
95.33364774602222
 51
105.9841350844939
  0
ARC
  5
AC29
330
1F
100
AcDbEntity
  8
freecads.com
100
AcDbCircle
 10
10788.21156396925
 20
29363.92080348863
 30
0.0
 40
6.545084370895037
100
AcDbArc
 50
105.9839906362718
 51
115.495812805577
  0
ARC
  5
AC2A
330
1F
100
AcDbEntity
  8
freecads.com
100
AcDbCircle
 10
10789.10445287698
 20
29362.04848764748
 30
0.0
 40
8.619407684785679
100
AcDbArc
 50
115.4958608958542
 51
123.2338082554437
  0
ARC
  5
AC2B
330
1F
100
AcDbEntity
  8
freecads.com
100
AcDbCircle
 10
10761.36334130748
 20
29404.38674812869
 30
0.0
 40
41.9977590838766
100
AcDbArc
 50
300.9276577935216
 51
303.2338496679054
  0
ARC
  5
AC2C
330
1F
100
AcDbEntity
  8
freecads.com
100
AcDbCircle
 10
10782.29736962876
 20
29369.44682004574
 30
0.0
 40
1.266541127647042
100
AcDbArc
 50
272.0100476609589
 51
300.9277089810668
  0
ARC
  5
AC2D
330
1F
100
AcDbEntity
  8
freecads.com
100
AcDbCircle
 10
10782.33070867848
 20
29368.49689827902
 30
0.0
 40
0.3160344968821055
100
AcDbArc
 50
195.2173263465347
 51
272.0099998830791
  0
ARC
  5
AC2E
330
1F
100
AcDbEntity
  8
freecads.com
100
AcDbCircle
 10
10784.81222267078
 20
29369.17191803231
 30
0.0
 40
2.887719423402352
100
AcDbArc
 50
179.9999960458774
 51
195.2173540938639
  0
ARC
  5
AC2F
330
1F
100
AcDbEntity
  8
freecads.com
100
AcDbCircle
 10
10778.40383141783
 20
29369.17191682047
 30
0.0
 40
3.520671829539706
100
AcDbArc
 50
0.0000229647601812
 51
18.28728212969427
  0
ARC
  5
AC30
330
1F
100
AcDbEntity
  8
freecads.com
100
AcDbCircle
 10
10781.27142284323
 20
29370.11957660253
 30
0.0
 40
0.5005493741568371
100
AcDbArc
 50
18.28720892479453
 51
94.78664133629701
  0
ARC
  5
AC31
330
1F
100
AcDbEntity
  8
freecads.com
100
AcDbCircle
 10
10781.34152262245
 20
29369.28245480066
 30
0.0
 40
1.340601092930145
100
AcDbArc
 50
94.78669444956459
 51
134.1342259038225
  0
ARC
  5
AC32
330
1F
100
AcDbEntity
  8
freecads.com
100
AcDbCircle
 10
10791.08229425004
 20
29359.24272451678
 30
0.0
 40
15.32912553526814
100
AcDbArc
 50
134.1341189190934
 51
140.7334557070918
  0
ARC
  5
AC33
330
1F
100
AcDbEntity
  8
freecads.com
100
AcDbCircle
 10
10769.44371569837
 20
29376.9326360679
 30
0.0
 40
12.62013299557463
100
AcDbArc
 50
315.2001126522157
 51
320.7333512292191
  0
ARC
  5
AC34
330
1F
100
AcDbEntity
  8
freecads.com
100
AcDbCircle
 10
10778.2676450103
 20
29368.17012936363
 30
0.0
 40
0.1845689856693338
100
AcDbArc
 50
204.7761626024652
 51
315.2002140961621
  0
ARC
  5
AC35
330
1F
100
AcDbEntity
  8
freecads.com
100
AcDbCircle
 10
10779.09141466649
 20
29368.55034315376
 30
0.0
 40
1.091850073676263
100
AcDbArc
 50
173.4193370078133
 51
204.7759046391543
  0
ARC
  5
AC36
330
1F
100
AcDbEntity
  8
freecads.com
100
AcDbCircle
 10
10893.51321801059
 20
29355.3503229093
 30
0.0
 40
116.2725325467769
100
AcDbArc
 50
172.2921755112493
 51
173.4192889989825
  0
ARC
  5
AC37
330
1F
100
AcDbEntity
  8
freecads.com
100
AcDbCircle
 10
10766.27774834764
 20
29372.57093731454
 30
0.0
 40
12.12300593039988
100
AcDbArc
 50
352.2921271014086
 51
5.848290303819242
  0
ARC
  5
AC38
330
1F
100
AcDbEntity
  8
freecads.com
100
AcDbCircle
 10
10777.30942766139
 20
29373.70088932194
 30
0.0
 40
1.033608290298268
100
AcDbArc
 50
5.848269646540572
 51
87.36920131865494
  0
ARC
  5
AC39
330
1F
100
AcDbEntity
  8
freecads.com
100
AcDbCircle
 10
10777.26807815088
 20
29372.80100205116
 30
0.0
 40
1.934445058049792
100
AcDbArc
 50
87.36916772614497
 51
140.7605752807176
  0
ARC
  5
AC3A
330
1F
100
AcDbEntity
  8
freecads.com
100
AcDbCircle
 10
10793.64915858986
 20
29359.42214887212
 30
0.0
 40
23.08470531022525
100
AcDbArc
 50
140.7605941844573
 51
149.4587276521905
  0
ARC
  5
AC3B
330
1F
100
AcDbEntity
  8
freecads.com
100
AcDbCircle
 10
10763.27408703426
 20
29377.34389794721
 30
0.0
 40
12.18332641708821
100
AcDbArc
 50
317.7476719386254
 51
329.4588094659537
  0
ARC
  5
AC3C
330
1F
100
AcDbEntity
  8
freecads.com
100
AcDbCircle
 10
10769.45749853044
 20
29371.72681861499
 30
0.0
 40
3.829515433142621
100
AcDbArc
 50
290.0097970010897
 51
317.7477297449385
  0
ARC
  5
AC3D
330
1F
100
AcDbEntity
  8
freecads.com
100
AcDbCircle
 10
10770.51997511378
 20
29368.80923867089
 30
0.0
 40
0.7244986505241141
100
AcDbArc
 50
209.9843963319952
 51
290.0098469907888
  0
ARC
  5
AC3E
330
1F
100
AcDbEntity
  8
freecads.com
100
AcDbCircle
 10
10771.35859220501
 20
29369.29310893451
 30
0.0
 40
1.692697523545273
100
AcDbArc
 50
166.9531600801148
 51
209.9843648397529
  0
ARC
  5
AC3F
330
1F
100
AcDbEntity
  8
freecads.com
100
AcDbCircle
 10
10768.19308454141
 20
29370.02664733325
 30
0.0
 40
1.556689703415363
100
AcDbArc
 50
346.9532645465936
 51
8.235473861902313
  0
ARC
  5
AC40
330
1F
100
AcDbEntity
  8
freecads.com
100
AcDbCircle
 10
10765.75364474683
 20
29369.67357913721
 30
0.0
 40
4.021547440171132
100
AcDbArc
 50
8.235441524851788
 51
18.71326300639949
  0
ARC
  5
AC41
330
1F
100
AcDbEntity
  8
freecads.com
100
AcDbCircle
 10
10765.172492874
 20
29369.47672561925
 30
0.0
 40
4.635134277385818
100
AcDbArc
 50
18.71319873441473
 51
28.61576374255011
  0
ARC
  5
AC42
330
1F
100
AcDbEntity
  8
freecads.com
100
AcDbCircle
 10
10765.73629886225
 20
29369.78433012807
 30
0.0
 40
3.992874418610697
100
AcDbArc
 50
28.61568508678559
 51
39.69012400166914
  0
ARC
  5
AC43
330
1F
100
AcDbEntity
  8
freecads.com
100
AcDbCircle
 10
10771.34319162002
 20
29374.43763280013
 30
0.0
 40
3.293446474329933
100
AcDbArc
 50
202.6960526593243
 51
219.6901638235381
  0
ARC
  5
AC44
330
1F
100
AcDbEntity
  8
freecads.com
100
AcDbCircle
 10
10770.08249916638
 20
29373.91037486875
 30
0.0
 40
1.926937641995238
100
AcDbArc
 50
177.3103836390651
 51
202.6960278705248
  0
ARC
  5
AC45
330
1F
100
AcDbEntity
  8
freecads.com
100
AcDbCircle
 10
10771.19754891927
 20
29373.85798916738
 30
0.0
 40
3.043217272332428
100
AcDbArc
 50
158.2273709417019
 51
177.3103118623923
  0
ARC
  5
AC46
330
1F
100
AcDbEntity
  8
freecads.com
100
AcDbCircle
 10
10780.72577108108
 20
29370.05227505537
 30
0.0
 40
13.30335749881466
100
AcDbArc
 50
151.8449922209284
 51
158.2274666574467
  0
ARC
  5
AC47
330
1F
100
AcDbEntity
  8
freecads.com
100
AcDbCircle
 10
10752.45256248054
 20
29385.183625172
 30
0.0
 40
18.76425982649337
100
AcDbArc
 50
331.8450953237423
 51
336.8750861576375
  0
ARC
  5
AC48
330
1F
100
AcDbEntity
  8
freecads.com
100
AcDbCircle
 10
10768.0736899845
 20
29378.5126193282
 30
0.0
 40
1.778326132319187
100
AcDbArc
 50
336.8751019997079
 51
5.215613880106735
  0
ARC
  5
AC49
330
1F
100
AcDbEntity
  8
freecads.com
100
AcDbCircle
 10
10768.67713909422
 20
29378.56770184038
 30
0.0
 40
1.17236828627802
100
AcDbArc
 50
5.215685578583397
 51
42.90559317459545
  0
ARC
  5
AC4A
330
1F
100
AcDbEntity
  8
freecads.com
100
AcDbCircle
 10
10764.9594513386
 20
29375.11233238999
 30
0.0
 40
6.247876170917254
100
AcDbArc
 50
42.90562294602462
 51
53.82503319653292
  0
ARC
  5
AC4B
330
1F
100
AcDbEntity
  8
freecads.com
100
AcDbCircle
 10
10774.86339171424
 20
29388.65675934985
 30
0.0
 40
10.53126375445399
100
AcDbArc
 50
223.9290885477727
 51
233.8250196377514
  0
ARC
  5
AC4C
330
1F
100
AcDbEntity
  8
freecads.com
100
AcDbCircle
 10
10767.890760678
 20
29381.94002573331
 30
0.0
 40
0.8497300927319932
100
AcDbArc
 50
161.6294869367364
 51
223.9291196194588
  0
ARC
  5
AC4D
330
1F
100
AcDbEntity
  8
freecads.com
100
AcDbCircle
 10
10768.30601895113
 20
29381.80212637944
 30
0.0
 40
1.287286563601492
100
AcDbArc
 50
115.0443001775196
 51
161.6295447640719
  0
ARC
  5
AC4E
330
1F
100
AcDbEntity
  8
freecads.com
100
AcDbCircle
 10
10777.22357462737
 20
29362.71696461828
 30
0.0
 40
22.35304547916601
100
AcDbArc
 50
109.2186374388353
 51
115.0443631223892
  0
ARC
  5
AC4F
330
1F
100
AcDbEntity
  8
freecads.com
100
AcDbCircle
 10
10768.21360766684
 20
29388.56298103355
 30
0.0
 40
5.01840075899039
100
AcDbArc
 50
289.2186789101294
 51
314.9945326990817
  0
ARC
  5
AC50
330
1F
100
AcDbEntity
  8
freecads.com
100
AcDbCircle
 10
10767.96964246043
 20
29388.80699126723
 30
0.0
 40
5.363451503206762
100
AcDbArc
 50
314.9945443055963
 51
339.5170866322763
  0
ARC
  5
AC51
330
1F
100
AcDbEntity
  8
freecads.com
100
AcDbCircle
 10
10767.4415496957
 20
29389.00426208454
 30
0.0
 40
5.927187029411007
100
AcDbArc
 50
339.5170458372993
 51
2.676826874182367
  0
ARC
  5
AC52
330
1F
100
AcDbEntity
  8
freecads.com
100
AcDbCircle
 10
10766.44849713255
 20
29388.95783414457
 30
0.0
 40
6.921324317109429
100
AcDbArc
 50
2.676821027498927
 51
23.29493811040899
  0
ARC
  5
AC53
330
1F
100
AcDbEntity
  8
freecads.com
100
AcDbCircle
 10
10785.98848390273
 20
29397.37104583786
 30
0.0
 40
14.35291395304495
100
AcDbArc
 50
199.9580762938028
 51
203.2949758563324
  0
ARC
  5
AC54
330
1F
100
AcDbEntity
  8
freecads.com
100
AcDbCircle
 10
10833.02900545568
 20
29414.45348012987
 30
0.0
 40
64.39909491936259
100
AcDbArc
 50
198.863092750618
 51
199.9581213559169
  0
ARC
  5
AC55
330
1F
100
AcDbEntity
  8
freecads.com
100
AcDbCircle
 10
10840.09837161697
 20
29416.86875968407
 30
0.0
 40
71.86967141968118
100
AcDbArc
 50
197.7733208736171
 51
198.8630783867605
  0
ARC
  5
AC56
330
1F
100
AcDbEntity
  8
freecads.com
100
AcDbCircle
 10
10829.98113974032
 20
29413.62558178871
 30
0.0
 40
61.24533220732517
100
AcDbArc
 50
196.5446054058735
 51
197.7732443313696
  0
ARC
  5
AC57
330
1F
100
AcDbEntity
  8
freecads.com
100
AcDbCircle
 10
10764.40223727551
 20
29394.14469085159
 30
0.0
 40
7.165906344494397
100
AcDbArc
 50
16.54451892999908
 51
35.91511324068803
  0
ARC
  5
AC58
330
1F
100
AcDbEntity
  8
freecads.com
100
AcDbCircle
 10
10767.72022537655
 20
29396.54785217039
 30
0.0
 40
3.069050310556196
100
AcDbArc
 50
35.91504634994862
 51
72.4035163074877
  0
ARC
  5
AC59
330
1F
100
AcDbEntity
  8
freecads.com
100
AcDbCircle
 10
10768.16410988656
 20
29397.94745569392
 30
0.0
 40
1.600743979680036
100
AcDbArc
 50
72.40347047984949
 51
127.5372053070347
  0
ARC
  5
AC5A
330
1F
100
AcDbEntity
  8
freecads.com
100
AcDbCircle
 10
10768.80783691906
 20
29397.10965737306
 30
0.0
 40
2.657290485427317
100
AcDbArc
 50
127.5371538742315
 51
165.345039839482
  0
ARC
  5
AC5B
330
1F
100
AcDbEntity
  8
freecads.com
100
AcDbCircle
 10
10763.4283398316
 20
29398.51642718375
 30
0.0
 40
2.903104303995361
100
AcDbArc
 50
327.9504385608177
 51
345.3449620921499
  0
ARC
  5
AC5C
330
1F
100
AcDbEntity
  8
freecads.com
100
AcDbCircle
 10
10763.32567582729
 20
29398.58070343488
 30
0.0
 40
3.024229587240094
100
AcDbArc
 50
311.0809896733952
 51
327.9504206729231
  0
ARC
  5
AC5D
330
1F
100
AcDbEntity
  8
freecads.com
100
AcDbCircle
 10
10763.5144091042
 20
29398.36420532294
 30
0.0
 40
2.737015934574611
100
AcDbArc
 50
293.3069473235877
 51
311.0810465237415
  0
ARC
  5
AC5E
330
1F
100
AcDbEntity
  8
freecads.com
100
AcDbCircle
 10
10763.84305417678
 20
29397.60136677727
 30
0.0
 40
1.90639554566611
100
AcDbArc
 50
270.0000321761774
 51
293.3068028828998
  0
ARC
  5
AC5F
330
1F
100
AcDbEntity
  8
freecads.com
100
AcDbCircle
 10
10763.84305449506
 20
29393.69853430697
 30
0.0
 40
1.996436924628738
100
AcDbArc
 50
89.99997840917755
 51
113.4491837120097
  0
ARC
  5
AC60
330
1F
100
AcDbEntity
  8
freecads.com
100
AcDbCircle
 10
10764.77605486308
 20
29391.54756563949
 30
0.0
 40
4.341038360957653
100
AcDbArc
 50
113.4491848635561
 51
126.5688609731232
  0
ARC
  5
AC61
330
1F
100
AcDbEntity
  8
freecads.com
100
AcDbCircle
 10
10765.18007818076
 20
29391.00292402003
 30
0.0
 40
5.019175024810887
100
AcDbArc
 50
126.5688227437545
 51
138.8531774374638
  0
ARC
  5
AC62
330
1F
100
AcDbEntity
  8
freecads.com
100
AcDbCircle
 10
10764.7748509457
 20
29391.35700365976
 30
0.0
 40
4.481047248836577
100
AcDbArc
 50
138.8531178407099
 51
152.2279371119312
  0
ARC
  5
AC63
330
1F
100
AcDbEntity
  8
freecads.com
100
AcDbCircle
 10
10746.80937006433
 20
29400.81792231614
 30
0.0
 40
15.82332383527907
100
AcDbArc
 50
323.9486745003964
 51
332.2279780934578
  0
ARC
  5
AC64
330
1F
100
AcDbEntity
  8
freecads.com
100
AcDbCircle
 10
10757.14375554382
 20
29393.29539901895
 30
0.0
 40
3.04099697373133
100
AcDbArc
 50
295.8539676979492
 51
323.9486635365816
  0
ARC
  5
AC65
330
1F
100
AcDbEntity
  8
freecads.com
100
AcDbCircle
 10
10757.65217836604
 20
29392.24620840521
 30
0.0
 40
1.875109024534533
100
AcDbArc
 50
257.4802113193509
 51
295.8538436304374
  0
ARC
  5
AC66
330
1F
100
AcDbEntity
  8
freecads.com
100
AcDbCircle
 10
10758.25496572365
 20
29394.96077025021
 30
0.0
 40
4.655792143626311
100
AcDbArc
 50
238.014734695319
 51
257.4802139417656
  0
ARC
  5
AC67
330
1F
100
AcDbEntity
  8
freecads.com
100
AcDbCircle
 10
10752.95352290986
 20
29386.47181524964
 30
0.0
 40
5.352586991355932
100
AcDbArc
 50
58.01482523876494
 51
69.86356681792722
  0
ARC
  5
AC68
330
1F
100
AcDbEntity
  8
freecads.com
100
AcDbCircle
 10
10754.36064992514
 20
29390.3094023519
 30
0.0
 40
1.265157333909999
100
AcDbArc
 50
69.86364697947215
 51
104.4440415569861
  0
ARC
  5
AC69
330
1F
100
AcDbEntity
  8
freecads.com
100
AcDbCircle
 10
10754.42311478951
 20
29390.06689667953
 30
0.0
 40
1.515578699628826
100
AcDbArc
 50
104.4440875302327
 51
135.1339531958196
  0
ARC
  5
AC6A
330
1F
100
AcDbEntity
  8
freecads.com
100
AcDbCircle
 10
10759.42101227771
 20
29385.09229877029
 30
0.0
 40
8.567217066793078
100
AcDbArc
 50
135.1338803557404
 51
143.6516721837752
  0
ARC
  5
AC6B
330
1F
100
AcDbEntity
  8
freecads.com
100
AcDbCircle
 10
10736.97047695081
 20
29401.61304025256
 30
0.0
 40
19.30681090887348
100
AcDbArc
 50
319.7749249008333
 51
323.6516459174323
  0
ARC
  5
AC6C
330
1F
100
AcDbEntity
  8
freecads.com
100
AcDbCircle
 10
10751.03579842564
 20
29389.71636732002
 30
0.0
 40
0.8849734583397555
100
AcDbArc
 50
283.4043978582345
 51
319.7748909041626
  0
ARC
  5
AC6D
330
1F
100
AcDbEntity
  8
freecads.com
100
AcDbCircle
 10
10751.16101455842
 20
29389.19094365064
 30
0.0
 40
0.3448354090828605
100
AcDbArc
 50
213.1561734442028
 51
283.4044077815896
  0
ARC
  5
AC6E
330
1F
100
AcDbEntity
  8
freecads.com
100
AcDbCircle
 10
10753.65747647478
 20
29390.82185497516
 30
0.0
 40
3.326813586110029
100
AcDbArc
 50
199.799374503879
 51
213.1561498183306
  0
ARC
  5
AC6F
330
1F
100
AcDbEntity
  8
freecads.com
100
AcDbCircle
 10
10755.77696029582
 20
29391.584891815
 30
0.0
 40
5.579464665754309
100
AcDbArc
 50
192.4881818800355
 51
199.7993923637743
  0
ARC
  5
AC70
330
1F
100
AcDbEntity
  8
freecads.com
100
AcDbCircle
 10
10760.34872535377
 20
29392.59745809284
 30
0.0
 40
10.262020187248
100
AcDbArc
 50
187.85506689928
 51
192.4882890658146
  0
ARC
  5
AC71
330
1F
100
AcDbEntity
  8
freecads.com
100
AcDbCircle
 10
10760.20408475965
 20
29392.57749304261
 30
0.0
 40
10.11600818570369
100
AcDbArc
 50
183.2046063112207
 51
187.8550101616704
  0
ARC
  5
AC72
330
1F
100
AcDbEntity
  8
freecads.com
100
AcDbCircle
 10
10754.98545890169
 20
29392.28530374334
 30
0.0
 40
4.889208932624437
100
AcDbArc
 50
175.1935433488238
 51
183.2045834854424
  0
ARC
  5
AC73
330
1F
100
AcDbEntity
  8
freecads.com
100
AcDbCircle
 10
10726.9525247273
 20
29394.64247565137
 30
0.0
 40
23.24265303614333
100
AcDbArc
 50
355.1935450107293
 51
1.379299136445082
  0
ARC
  5
AC74
330
1F
100
AcDbEntity
  8
freecads.com
100
AcDbCircle
 10
10742.20688975779
 20
29395.0097787594
 30
0.0
 40
7.98386658188975
100
AcDbArc
 50
1.379234026929586
 51
15.10416429003289
  0
ARC
  5
AC75
330
1F
100
AcDbEntity
  8
freecads.com
100
AcDbCircle
 10
10746.55814059967
 20
29396.18417851472
 30
0.0
 40
3.476916540655156
100
AcDbArc
 50
15.10411829352955
 51
36.95672478359923
  0
ARC
  5
AC76
330
1F
100
AcDbEntity
  8
freecads.com
100
AcDbCircle
 10
10748.4940540378
 20
29397.64070278615
 30
0.0
 40
1.054268445450319
100
AcDbArc
 50
36.95672328015564
 51
89.99998861027185
  0
ARC
  5
AC77
330
1F
100
AcDbEntity
  8
freecads.com
100
AcDbCircle
 10
10748.49405338674
 20
29399.73867520197
 30
0.0
 40
1.043703970371225
100
AcDbArc
 50
236.8624850085459
 51
270.0000472459284
  0
ARC
  5
AC78
330
1F
100
AcDbEntity
  8
freecads.com
100
AcDbCircle
 10
10749.12532085287
 20
29400.7056535878
 30
0.0
 40
2.198496511241476
100
AcDbArc
 50
217.8749195761353
 51
236.8624936932739
  0
ARC
  5
AC79
330
1F
100
AcDbEntity
  8
freecads.com
100
AcDbCircle
 10
10749.74514941417
 20
29401.18774312244
 30
0.0
 40
2.983733905171036
100
AcDbArc
 50
201.6979323462696
 51
217.8749463463504
  0
ARC
  5
AC7A
330
1F
100
AcDbEntity
  8
freecads.com
100
AcDbCircle
 10
10750.46209964972
 20
29401.47301942672
 30
0.0
 40
3.75535571021364
100
AcDbArc
 50
188.0832634051215
 51
201.6978915680635
  0
ARC
  5
AC7B
330
1F
100
AcDbEntity
  8
freecads.com
100
AcDbCircle
 10
10742.77379065324
 20
29400.3811022677
 30
0.0
 40
4.01010488832557
100
AcDbArc
 50
8.083262962583123
 51
22.52557014300849
  0
ARC
  5
AC7C
330
1F
100
AcDbEntity
  8
freecads.com
100
AcDbCircle
 10
10744.5283178791
 20
29401.10877014991
 30
0.0
 40
2.110666462609825
100
AcDbArc
 50
22.52553554651349
 51
45.87199924307468
  0
ARC
  5
AC7D
330
1F
100
AcDbEntity
  8
freecads.com
100
AcDbCircle
 10
10744.70353111795
 20
29401.28939836362
 30
0.0
 40
1.859019426750902
100
AcDbArc
 50
45.87202291096249
 51
71.05616685503929
  0
ARC
  5
AC7E
330
1F
100
AcDbEntity
  8
freecads.com
100
AcDbCircle
 10
10744.42450184402
 20
29400.47646047096
 30
0.0
 40
2.718510760639139
100
AcDbArc
 50
71.05609881070335
 51
89.99997042255866
  0
ARC
  5
AC7F
330
1F
100
AcDbEntity
  8
freecads.com
100
AcDbCircle
 10
10744.42450504537
 20
29406.56472385686
 30
0.0
 40
3.369752625255184
100
AcDbArc
 50
255.2995025665663
 51
269.9999694287127
  0
ARC
  5
AC80
330
1F
100
AcDbEntity
  8
freecads.com
100
AcDbCircle
 10
10744.94613847528
 20
29408.55295828617
 30
0.0
 40
5.425276300868867
100
AcDbArc
 50
245.0097949731223
 51
255.2993856824138
  0
ARC
  5
AC81
330
1F
100
AcDbEntity
  8
freecads.com
100
AcDbCircle
 10
10744.91632929984
 20
29408.4889978917
 30
0.0
 40
5.354710593941839
100
AcDbArc
 50
234.665056459592
 51
245.0097684436379
  0
ARC
  5
AC82
330
1F
100
AcDbEntity
  8
freecads.com
100
AcDbCircle
 10
10743.61115687728
 20
29406.64802750398
 30
0.0
 40
3.098021199930685
100
AcDbArc
 50
219.0811578105436
 51
234.6651524730077
  0
ARC
  5
AC83
330
1F
100
AcDbEntity
  8
freecads.com
100
AcDbCircle
 10
10718.12061728855
 20
29385.94635081913
 30
0.0
 40
29.7398688980661
100
AcDbArc
 50
39.08114660807342
 51
41.27023717512886
  0
ARC
  5
AC84
330
1F
100
AcDbEntity
  8
freecads.com
100
AcDbCircle
 10
10740.18213621491
 20
29405.30757337278
 30
0.0
 40
0.3873978588266189
100
AcDbArc
 50
41.27020623767465
 51
89.99999519814856
  0
ARC
  5
AC85
330
1F
100
AcDbEntity
  8
freecads.com
100
AcDbCircle
 10
10740.18213634039
 20
29405.51031066426
 30
0.0
 40
0.184660567336801
100
AcDbArc
 50
90.00002886175975
 51
173.2249899910848
  0
ARC
  5
AC86
330
1F
100
AcDbEntity
  8
freecads.com
100
AcDbCircle
 10
10750.14016189405
 20
29404.32729347324
 30
0.0
 40
10.21271135508034
100
AcDbArc
 50
173.2249937230105
 51
177.9367930282562
  0
ARC
  5
AC87
330
1F
100
AcDbEntity
  8
freecads.com
100
AcDbCircle
 10
10739.1974418803
 20
29404.72150968933
 30
0.0
 40
0.7371072609676239
100
AcDbArc
 50
320.1335013006009
 51
357.9367041996806
  0
ARC
  5
AC88
330
1F
100
AcDbEntity
  8
freecads.com
100
AcDbCircle
 10
10739.54790492979
 20
29404.42882455346
 30
0.0
 40
0.280501372028056
100
AcDbArc
 50
243.2352561120243
 51
320.1335878725006
  0
ARC
  5
AC89
330
1F
100
AcDbEntity
  8
freecads.com
100
AcDbCircle
 10
10740.29978233357
 20
29405.9195641041
 30
0.0
 40
1.950119303822731
100
AcDbArc
 50
221.4782208900761
 51
243.2352120376488
  0
ARC
  5
AC8A
330
1F
100
AcDbEntity
  8
freecads.com
100
AcDbCircle
 10
10753.80425893695
 20
29417.85819845258
 30
0.0
 40
19.97515407321333
100
AcDbArc
 50
217.5348934876205
 51
221.4782873807528
  0
ARC
  5
AC8B
330
1F
100
AcDbEntity
  8
freecads.com
100
AcDbCircle
 10
10709.56194610528
 20
29383.86708357277
 30
0.0
 40
35.81712259182479
100
AcDbArc
 50
37.53485046455741
 51
40.37313826756349
  0
ARC
  5
AC8C
330
1F
100
AcDbEntity
  8
freecads.com
100
AcDbCircle
 10
10735.88948337997
 20
29406.25229769553
 30
0.0
 40
1.259387853107788
100
AcDbArc
 50
40.37319396149003
 51
72.38177133931543
  0
ARC
  5
AC8D
330
1F
100
AcDbEntity
  8
freecads.com
100
AcDbCircle
 10
10736.15175591647
 20
29407.07817340468
 30
0.0
 40
0.3928674722815215
100
AcDbArc
 50
72.38178631354283
 51
145.0232658311302
  0
ARC
  5
AC8E
330
1F
100
AcDbEntity
  8
freecads.com
100
AcDbCircle
 10
10738.8858261298
 20
29405.16540076303
 30
0.0
 40
3.729608263843331
100
AcDbArc
 50
145.0231382498408
 51
159.0063285613008
  0
ARC
  5
AC8F
330
1F
100
AcDbEntity
  8
freecads.com
100
AcDbCircle
 10
10733.40921102723
 20
29407.26697642539
 30
0.0
 40
2.136389796708111
100
AcDbArc
 50
320.1707284853209
 51
339.0064759926812
  0
ARC
  5
AC90
330
1F
100
AcDbEntity
  8
freecads.com
100
AcDbCircle
 10
10733.6581863425
 20
29407.05932520566
 30
0.0
 40
1.812186563120058
100
AcDbArc
 50
298.8611865076986
 51
320.1706610208595
  0
ARC
  5
AC91
330
1F
100
AcDbEntity
  8
freecads.com
100
AcDbCircle
 10
10733.77788703005
 20
29406.8421423396
 30
0.0
 40
1.564201378271812
100
AcDbArc
 50
275.7111218659308
 51
298.8611482808209
  0
ARC
  5
AC92
330
1F
100
AcDbEntity
  8
freecads.com
100
AcDbCircle
 10
10733.8048976951
 20
29406.57205614565
 30
0.0
 40
1.292767909091157
100
AcDbArc
 50
249.0063203364956
 51
275.7111426652648
  0
ARC
  5
AC93
330
1F
100
AcDbEntity
  8
freecads.com
100
AcDbCircle
 10
10732.76179035608
 20
29403.85376865673
 30
0.0
 40
1.618788340260134
100
AcDbArc
 50
69.00636788779144
 51
90.16564911138228
  0
ARC
  5
AC94
330
1F
100
AcDbEntity
  8
freecads.com
100
AcDbCircle
 10
10732.75921741712
 20
29404.74402402442
 30
0.0
 40
0.7285292545306631
100
AcDbArc
 50
90.1657203203834
 51
128.579235842057
  0
ARC
  5
AC95
330
1F
100
AcDbEntity
  8
freecads.com
100
AcDbCircle
 10
10732.83517857949
 20
29404.64880079485
 30
0.0
 40
0.8503387846906406
100
AcDbArc
 50
128.5793380956859
 51
163.4251316440827
  0
ARC
  5
AC96
330
1F
100
AcDbEntity
  8
freecads.com
100
AcDbCircle
 10
10734.2269057639
 20
29404.23457316962
 30
0.0
 40
2.302402516528875
100
AcDbArc
 50
163.4251232918406
 51
180.0000233430803
  0
ARC
  5
AC97
330
1F
100
AcDbEntity
  8
freecads.com
100
AcDbCircle
 10
10729.47318972296
 20
29404.23457114329
 30
0.0
 40
2.451313524412185
100
AcDbArc
 50
342.7032593461229
 51
0.0000254374937665
  0
ARC
  5
AC98
330
1F
100
AcDbEntity
  8
freecads.com
100
AcDbCircle
 10
10731.12384396573
 20
29403.72055170255
 30
0.0
 40
0.7224770906707897
100
AcDbArc
 50
299.7800772620369
 51
342.7033276873949
  0
ARC
  5
AC99
330
1F
100
AcDbEntity
  8
freecads.com
100
AcDbCircle
 10
10731.01313406135
 20
29403.914019364
 30
0.0
 40
0.9453815970273733
100
AcDbArc
 50
263.7575555120208
 51
299.7800377526891
  0
ARC
  5
AC9A
330
1F
100
AcDbEntity
  8
freecads.com
100
AcDbCircle
 10
10731.39736094524
 20
29407.42663206692
 30
0.0
 40
4.478946128632186
100
AcDbArc
 50
252.3911255608383
 51
263.7575303397444
  0
ARC
  5
AC9B
330
1F
100
AcDbEntity
  8
freecads.com
100
AcDbCircle
 10
10729.1442177051
 20
29400.32761443343
 30
0.0
 40
2.969053993636405
100
AcDbArc
 50
72.39127383981247
 51
91.23544394825055
  0
ARC
  5
AC9C
330
1F
100
AcDbEntity
  8
freecads.com
100
AcDbCircle
 10
10729.10135826406
 20
29402.31495546909
 30
0.0
 40
0.9812508535568195
100
AcDbArc
 50
91.23540722828272
 51
134.2172827910943
  0
ARC
  5
AC9D
330
1F
100
AcDbEntity
  8
freecads.com
100
AcDbCircle
 10
10729.72269919548
 20
29401.67640510819
 30
0.0
 40
1.872211636340294
100
AcDbArc
 50
134.2173478482986
 51
162.2808887943458
  0
ARC
  5
AC9E
330
1F
100
AcDbEntity
  8
freecads.com
100
AcDbCircle
 10
10741.80186117586
 20
29397.8170287762
 30
0.0
 40
14.55294268073474
100
AcDbArc
 50
162.2809483179938
 51
168.4738019402553
  0
ARC
  5
AC9F
330
1F
100
AcDbEntity
  8
freecads.com
100
AcDbCircle
 10
-38523.20535919563
 20
39444.32114453417
 30
0.0
 40
50264.40071957438
100
AcDbArc
 50
348.4722373483545
 51
348.4738416300917
  0
ARC
  5
ACA0
330
1F
100
AcDbEntity
  8
freecads.com
100
AcDbCircle
 10
-92373.59456759902
 20
50427.33361638714
 30
0.0
 40
105223.394349764
100
AcDbArc
 50
348.4714001006973
 51
348.4723168331144
  0
ARC
  5
ACA1
330
1F
100
AcDbEntity
  8
freecads.com
100
AcDbCircle
 10
-92346.80599760398
 20
50421.80922238276
 30
0.0
 40
105196.0421483338
100
AcDbArc
 50
348.470515532916
 51
348.4714322654691
  0
ARC
  5
ACA2
330
1F
100
AcDbEntity
  8
freecads.com
100
AcDbCircle
 10
-38472.44506648451
 20
39432.00120638662
 30
0.0
 40
50212.20228647217
100
AcDbArc
 50
348.4689906445024
 51
348.4705949264843
  0
ARC
  5
ACA3
330
1F
100
AcDbEntity
  8
freecads.com
100
AcDbCircle
 10
10719.82675552126
 20
29395.99169284845
 30
0.0
 40
6.614012198042075
100
AcDbArc
 50
329.5956999333056
 51
348.4690072952199
  0
ARC
  5
ACA4
330
1F
100
AcDbEntity
  8
freecads.com
100
AcDbCircle
 10
10715.91947947935
 20
29398.2844779663
 30
0.0
 40
11.14431789018104
100
AcDbArc
 50
316.8266735978407
 51
329.5956747367232
  0
ARC
  5
ACA5
330
1F
100
AcDbEntity
  8
freecads.com
100
AcDbCircle
 10
10716.77965516425
 20
29397.4774631754
 30
0.0
 40
9.964837037618739
100
AcDbArc
 50
303.5496524632065
 51
316.8267126201385
  0
ARC
  5
ACA6
330
1F
100
AcDbEntity
  8
freecads.com
100
AcDbCircle
 10
10720.70199963605
 20
29391.56258844565
 30
0.0
 40
2.867617214049497
100
AcDbArc
 50
269.9999522737197
 51
303.5496749434324
  0
ARC
  5
ACA7
330
1F
100
AcDbEntity
  8
freecads.com
100
AcDbCircle
 10
10720.70199709258
 20
29389.04502665534
 30
0.0
 40
0.3500554237375924
100
AcDbArc
 50
211.3126321882202
 51
270.0000253366084
  0
ARC
  5
ACA8
330
1F
100
AcDbEntity
  8
freecads.com
100
AcDbCircle
 10
10722.57189670722
 20
29390.18250133833
 30
0.0
 40
2.538747549937199
100
AcDbArc
 50
197.6674983637424
 51
211.3125002008699
  0
ARC
  5
ACA9
330
1F
100
AcDbEntity
  8
freecads.com
100
AcDbCircle
 10
10724.25847498515
 20
29390.71971043712
 30
0.0
 40
4.3088153179574
100
AcDbArc
 50
186.9171685746013
 51
197.6675907677096
  0
ARC
  5
ACAA
330
1F
100
AcDbEntity
  8
freecads.com
100
AcDbCircle
 10
10727.68951039652
 20
29391.13595313065
 30
0.0
 40
7.765007149144909
100
AcDbArc
 50
179.9999918764354
 51
186.9171582464291
  0
ARC
  5
ACAB
330
1F
100
AcDbEntity
  8
freecads.com
100
AcDbCircle
 10
10712.66105093508
 20
29391.1359510317
 30
0.0
 40
7.263452312293133
100
AcDbArc
 50
0.0000252415593848
 51
16.45522787138345
  0
ARC
  5
ACAC
330
1F
100
AcDbEntity
  8
freecads.com
100
AcDbCircle
 10
10718.16198690452
 20
29392.76072740236
 30
0.0
 40
1.527583171999799
100
AcDbArc
 50
16.45524468025798
 51
68.66904378777046
  0
ARC
  5
ACAD
330
1F
100
AcDbEntity
  8
freecads.com
100
AcDbCircle
 10
10718.11594779851
 20
29392.64282874617
 30
0.0
 40
1.654152095563836
100
AcDbArc
 50
68.66907788417151
 51
118.2082425989832
  0
ARC
  5
ACAE
330
1F
100
AcDbEntity
  8
freecads.com
100
AcDbCircle
 10
10721.25891995422
 20
29386.78323781472
 30
0.0
 40
8.303443776302172
100
AcDbArc
 50
118.2082526990673
 51
133.2117983241616
  0
ARC
  5
ACAF
330
1F
100
AcDbEntity
  8
freecads.com
100
AcDbCircle
 10
10710.09191499104
 20
29398.66996179699
 30
0.0
 40
8.005946367982426
100
AcDbArc
 50
303.1851318946252
 51
313.211908223706
  0
ARC
  5
ACB0
330
1F
100
AcDbEntity
  8
freecads.com
100
AcDbCircle
 10
10711.82081183832
 20
29396.02644350447
 30
0.0
 40
4.847264163110343
100
AcDbArc
 50
288.584116600151
 51
303.1850674077859
  0
ARC
  5
ACB1
330
1F
100
AcDbEntity
  8
freecads.com
100
AcDbCircle
 10
10712.09406015643
 20
29395.21376783838
 30
0.0
 40
3.989880712377603
100
AcDbArc
 50
272.3092271320015
 51
288.5840686849542
  0
ARC
  5
ACB2
330
1F
100
AcDbEntity
  8
freecads.com
100
AcDbCircle
 10
10712.10271300734
 20
29394.99921607059
 30
0.0
 40
3.775154531184267
100
AcDbArc
 50
255.3449600103788
 51
272.3092126716634
  0
ARC
  5
ACB3
330
1F
100
AcDbEntity
  8
freecads.com
100
AcDbCircle
 10
10715.88287838742
 20
29409.4546148126
 30
0.0
 40
18.71664719729038
100
AcDbArc
 50
250.2043760077381
 51
255.3450077940818
  0
ARC
  5
ACB4
330
1F
100
AcDbEntity
  8
freecads.com
100
AcDbCircle
 10
10709.80560371217
 20
29392.57029133342
 30
0.0
 40
0.771908502402364
100
AcDbArc
 50
198.3526744236625
 51
250.2044348154564
  0
ARC
  5
ACB5
330
1F
100
AcDbEntity
  8
freecads.com
100
AcDbCircle
 10
10710.01431281015
 20
29392.63952849662
 30
0.0
 40
0.9918022775483755
100
AcDbArc
 50
155.2668527780365
 51
198.3526909972585
  0
ARC
  5
ACB6
330
1F
100
AcDbEntity
  8
freecads.com
100
AcDbCircle
 10
10739.18582543806
 20
29379.20162325569
 30
0.0
 40
33.10962359631477
100
AcDbArc
 50
151.8450854404119
 51
155.2667643208084
  0
ARC
  5
ACB7
330
1F
100
AcDbEntity
  8
freecads.com
100
AcDbCircle
 10
10704.4250431791
 20
29397.80498563326
 30
0.0
 40
6.316219134133932
100
AcDbArc
 50
331.8451125345112
 51
341.9114614015646
  0
ARC
  5
ACB8
330
1F
100
AcDbEntity
  8
freecads.com
100
AcDbCircle
 10
10708.11605415734
 20
29396.59939653663
 30
0.0
 40
2.433306939477344
100
AcDbArc
 50
341.9114148834691
 51
2.430410813499834
  0
ARC
  5
ACB9
330
1F
100
AcDbEntity
  8
freecads.com
100
AcDbCircle
 10
10708.49021090018
 20
29396.61527905613
 30
0.0
 40
2.058813251104828
100
AcDbArc
 50
2.430361831492492
 51
25.1476979706813
  0
ARC
  5
ACBA
330
1F
100
AcDbEntity
  8
freecads.com
100
AcDbCircle
 10
10706.97196062343
 20
29395.90253889017
 30
0.0
 40
3.736037877382774
100
AcDbArc
 50
25.14766880465261
 51
39.69018559573198
  0
ARC
  5
ACBB
330
1F
100
AcDbEntity
  8
freecads.com
100
AcDbCircle
 10
10712.6467350773
 20
29400.61218297141
 30
0.0
 40
3.638500242000702
100
AcDbArc
 50
204.0231236422767
 51
219.6901537775914
  0
ARC
  5
ACBC
330
1F
100
AcDbEntity
  8
freecads.com
100
AcDbCircle
 10
10711.31079807198
 20
29400.01673874221
 30
0.0
 40
2.175871952831659
100
AcDbArc
 50
180.998085583774
 51
204.0231092898447
  0
ARC
  5
ACBD
330
1F
100
AcDbEntity
  8
freecads.com
100
AcDbCircle
 10
10712.25644079331
 20
29400.03321079692
 30
0.0
 40
3.12165812580681
100
AcDbArc
 50
162.5677734023707
 51
180.9980379772125
  0
ARC
  5
ACBE
330
1F
100
AcDbEntity
  8
freecads.com
100
AcDbCircle
 10
10720.08614234961
 20
29397.5746958003
 30
0.0
 40
11.32827268049343
100
AcDbArc
 50
155.50453376282
 51
162.5677829746296
  0
ARC
  5
ACBF
330
1F
100
AcDbEntity
  8
freecads.com
100
AcDbCircle
 10
10692.53689518008
 20
29410.12695925364
 30
0.0
 40
18.94581421588851
100
AcDbArc
 50
335.5045866140956
 51
342.9909395126608
  0
ARC
  5
ACC0
330
1F
100
AcDbEntity
  8
freecads.com
100
AcDbCircle
 10
10705.58347337087
 20
29406.13596128081
 30
0.0
 40
5.30245439114964
100
AcDbArc
 50
342.9909669446675
 51
2.303989930046804
  0
ARC
  5
ACC1
330
1F
100
AcDbEntity
  8
freecads.com
100
AcDbCircle
 10
10709.64809557261
 20
29406.29949581488
 30
0.0
 40
1.234543725130933
100
AcDbArc
 50
2.304039305198216
 51
49.66808058991418
  0
ARC
  5
ACC2
330
1F
100
AcDbEntity
  8
freecads.com
100
AcDbCircle
 10
10709.88352614804
 20
29406.57679267578
 30
0.0
 40
0.8707840449660709
100
AcDbArc
 50
49.66808178257562
 51
110.9936434810494
  0
ARC
  5
ACC3
330
1F
100
AcDbEntity
  8
freecads.com
100
AcDbCircle
 10
10709.14692882025
 20
29408.49632780365
 30
0.0
 40
1.185229264922926
100
AcDbArc
 50
259.6474743393074
 51
290.9936956022934
  0
ARC
  5
ACC4
330
1F
100
AcDbEntity
  8
freecads.com
100
AcDbCircle
 10
10709.52573117133
 20
29410.56993330845
 30
0.0
 40
3.293150281167585
100
AcDbArc
 50
245.0211826135078
 51
259.6474694550218
  0
ARC
  5
ACC5
330
1F
100
AcDbEntity
  8
freecads.com
100
AcDbCircle
 10
10709.96138338758
 20
29411.50509001276
 30
0.0
 40
4.32480473646007
100
AcDbArc
 50
232.1550551146598
 51
245.0211547342187
  0
ARC
  5
ACC6
330
1F
100
AcDbEntity
  8
freecads.com
100
AcDbCircle
 10
10710.36004602852
 20
29412.0182089031
 30
0.0
 40
4.974591545274019
100
AcDbArc
 50
220.5709986535481
 51
232.1550392148697
  0
ARC
  5
ACC7
330
1F
100
AcDbEntity
  8
freecads.com
100
AcDbCircle
 10
10703.48594102334
 20
29406.13241749391
 30
0.0
 40
4.075041603901639
100
AcDbArc
 50
40.5710391077461
 51
56.98565656713622
  0
ARC
  5
ACC8
330
1F
100
AcDbEntity
  8
freecads.com
100
AcDbCircle
 10
10701.98218194043
 20
29403.8180889864
 30
0.0
 40
6.835006788483079
100
AcDbArc
 50
56.98570762568045
 51
68.12896870837224
  0
ARC
  5
ACC9
330
1F
100
AcDbEntity
  8
freecads.com
100
AcDbCircle
 10
10701.71121735298
 20
29403.14304069222
 30
0.0
 40
7.562407645716231
100
AcDbArc
 50
68.12901587329182
 51
78.75732032450054
  0
ARC
  5
ACCA
330
1F
100
AcDbEntity
  8
freecads.com
100
AcDbCircle
 10
10701.81766343296
 20
29403.67854151821
 30
0.0
 40
7.016429713392389
100
AcDbArc
 50
78.75731604565165
 51
90.00003417918959
  0
ARC
  5
ACCB
330
1F
100
AcDbEntity
  8
freecads.com
100
AcDbCircle
 10
10701.81764747546
 20
29391.34285560389
 30
0.0
 40
19.35211562771525
100
AcDbArc
 50
89.99996514692121
 51
94.91404389727222
  0
ARC
  5
ACCC
330
1F
100
AcDbEntity
  8
freecads.com
100
AcDbCircle
 10
10700.29279581768
 20
29409.07837665125
 30
0.0
 40
1.551163984627626
100
AcDbArc
 50
94.91397344660732
 51
126.0838368695066
  0
ARC
  5
ACCD
330
1F
100
AcDbEntity
  8
freecads.com
100
AcDbCircle
 10
10699.80798384118
 20
29409.74361262386
 30
0.0
 40
0.7280105652627097
100
AcDbArc
 50
126.0837760950699
 51
178.2540749155289
  0
ARC
  5
ACCE
330
1F
100
AcDbEntity
  8
freecads.com
100
AcDbCircle
 10
10702.55203112323
 20
29409.65996799663
 30
0.0
 40
3.473332387889282
100
AcDbArc
 50
178.2540462186643
 51
194.6549830510065
  0
ARC
  5
ACCF
330
1F
100
AcDbEntity
  8
freecads.com
100
AcDbCircle
 10
10725.19081575696
 20
29364.9325103168
 30
0.0
 40
1.450286685657575
100
AcDbArc
 50
11.85182694546101
 51
31.71747825049348
  0
ARC
  5
ACD0
330
1F
100
AcDbEntity
  8
freecads.com
100
AcDbCircle
 10
10724.26664619131
 20
29364.73856539643
 30
0.0
 40
2.394587494831934
100
AcDbArc
 50
358.2062156602489
 51
11.85190261235315
  0
ARC
  5
ACD1
330
1F
100
AcDbEntity
  8
freecads.com
100
AcDbCircle
 10
10724.14591693882
 20
29364.74235309577
 30
0.0
 40
2.515376149220702
100
AcDbArc
 50
344.8712139579026
 51
358.2060622155345
  0
ARC
  5
ACD2
330
1F
100
AcDbEntity
  8
freecads.com
100
AcDbCircle
 10
10724.75948935134
 20
29364.57646441536
 30
0.0
 40
1.879773946837308
100
AcDbArc
 50
328.2825063771019
 51
344.8713135426518
  0
ARC
  5
ACD3
330
1F
100
AcDbEntity
  8
freecads.com
100
AcDbCircle
 10
10725.81462162783
 20
29363.9243558461
 30
0.0
 40
0.6393910595864308
100
AcDbArc
 50
261.7564757894633
 51
328.2825422681267
  0
ARC
  5
ACD4
330
1F
100
AcDbEntity
  8
freecads.com
100
AcDbCircle
 10
10725.93296480874
 20
29364.74120835537
 30
0.0
 40
1.464771656874028
100
AcDbArc
 50
225.7431805158797
 51
261.756496424447
  0
ARC
  5
ACD5
330
1F
100
AcDbEntity
  8
freecads.com
100
AcDbCircle
 10
10727.13981615771
 20
29365.97977631888
 30
0.0
 40
3.194089666589476
100
AcDbArc
 50
203.2466188506979
 51
225.7431225718786
  0
ARC
  5
ACD6
330
1F
100
AcDbEntity
  8
freecads.com
100
AcDbCircle
 10
10727.21443443982
 20
29366.01182833281
 30
0.0
 40
3.275300624102112
100
AcDbArc
 50
181.1696318102642
 51
203.2465977306342
  0
ARC
  5
ACD7
330
1F
100
AcDbEntity
  8
freecads.com
100
AcDbCircle
 10
10724.58895815549
 20
29365.95822518897
 30
0.0
 40
0.6492772014007395
100
AcDbArc
 50
124.603206658282
 51
181.1696831005228
  0
ARC
  5
ACD8
330
1F
100
AcDbEntity
  8
freecads.com
100
AcDbCircle
 10
10724.80104782097
 20
29365.65081864678
 30
0.0
 40
1.022748496669696
100
AcDbArc
 50
84.254491011683
 51
124.6031468777854
  0
ARC
  5
ACD9
330
1F
100
AcDbEntity
  8
freecads.com
100
AcDbCircle
 10
10724.70812145778
 20
29364.72725647082
 30
0.0
 40
1.950973901314512
100
AcDbArc
 50
57.09574615148051
 51
84.25444229819973
  0
ARC
  5
ACDA
330
1F
100
AcDbEntity
  8
freecads.com
100
AcDbCircle
 10
10724.60777076286
 20
29364.57216687922
 30
0.0
 40
2.135698137379824
100
AcDbArc
 50
31.71751842143327
 51
57.09569199549569
  0
ARC
  5
ACDB
330
1F
100
AcDbEntity
  8
freecads.com
100
AcDbCircle
 10
10750.3226214367
 20
29349.44149887265
 30
0.0
 40
2.103112816347949
100
AcDbArc
 50
3.892696332018429
 51
20.99370074993501
  0
ARC
  5
ACDC
330
1F
100
AcDbEntity
  8
freecads.com
100
AcDbCircle
 10
10751.57738189973
 20
29349.52687943713
 30
0.0
 40
0.8454508345820189
100
AcDbArc
 50
330.1260811858923
 51
3.89267821652351
  0
ARC
  5
ACDD
330
1F
100
AcDbEntity
  8
freecads.com
100
AcDbCircle
 10
10751.69321372116
 20
29349.46034143696
 30
0.0
 40
0.7118682147547508
100
AcDbArc
 50
292.5212892947648
 51
330.1262132095714
  0
ARC
  5
ACDE
330
1F
100
AcDbEntity
  8
freecads.com
100
AcDbCircle
 10
10751.4245020548
 20
29350.1083873868
 30
0.0
 40
1.413416155197142
100
AcDbArc
 50
270.000048343682
 51
292.521292834849
  0
ARC
  5
ACDF
330
1F
100
AcDbEntity
  8
freecads.com
100
AcDbCircle
 10
10751.42450443995
 20
29350.1083873868
 30
0.0
 40
1.413416155197117
100
AcDbArc
 50
247.478707165151
 51
269.9999516563179
  0
ARC
  5
ACE0
330
1F
100
AcDbEntity
  8
freecads.com
100
AcDbCircle
 10
10751.15579277359
 20
29349.46034143696
 30
0.0
 40
0.7118682147545722
100
AcDbArc
 50
209.8737867904286
 51
247.4787107052352
  0
ARC
  5
ACE1
330
1F
100
AcDbEntity
  8
freecads.com
100
AcDbCircle
 10
10751.27162459502
 20
29349.52687943713
 30
0.0
 40
0.8454508345819673
100
AcDbArc
 50
176.1073217834765
 51
209.8739188141077
  0
ARC
  5
ACE2
330
1F
100
AcDbEntity
  8
freecads.com
100
AcDbCircle
 10
10752.52638505805
 20
29349.44149887265
 30
0.0
 40
2.10311281634796
100
AcDbArc
 50
159.006299250065
 51
176.1073036679816
  0
ARC
  5
ACE3
330
1F
100
AcDbEntity
  8
freecads.com
100
AcDbCircle
 10
10759.92209985251
 20
29346.60349648643
 30
0.0
 40
10.02465653365555
100
AcDbArc
 50
155.4430909830586
 51
159.0063721376043
  0
ARC
  5
ACE4
330
1F
100
AcDbEntity
  8
freecads.com
100
AcDbCircle
 10
10756.14766292817
 20
29348.32813255151
 30
0.0
 40
5.874868147152793
100
AcDbArc
 50
150.1262775341935
 51
155.4430594110591
  0
ARC
  5
ACE5
330
1F
100
AcDbEntity
  8
freecads.com
100
AcDbCircle
 10
10755.77267407534
 20
29348.54351114953
 30
0.0
 40
5.442427885515056
100
AcDbArc
 50
145.5677785186438
 51
150.1260879379924
  0
ARC
  5
ACE6
330
1F
100
AcDbEntity
  8
freecads.com
100
AcDbCircle
 10
10751.42450348199
 20
29351.52435924612
 30
0.0
 40
0.1706119854861024
100
AcDbArc
 50
90.00007879053013
 51
145.5679042519401
  0
ARC
  5
ACE7
330
1F
100
AcDbEntity
  8
freecads.com
100
AcDbCircle
 10
10751.42450301276
 20
29351.52435924612
 30
0.0
 40
0.170611985485882
100
AcDbArc
 50
34.43209574805984
 51
89.99992120946988
  0
ARC
  5
ACE8
330
1F
100
AcDbEntity
  8
freecads.com
100
AcDbCircle
 10
10747.07633241941
 20
29348.54351114953
 30
0.0
 40
5.44242788551505
100
AcDbArc
 50
29.87391206200761
 51
34.43222148135614
  0
ARC
  5
ACE9
330
1F
100
AcDbEntity
  8
freecads.com
100
AcDbCircle
 10
10746.70134356657
 20
29348.32813255151
 30
0.0
 40
5.874868147152785
100
AcDbArc
 50
24.55694058894087
 51
29.87372246580648
  0
ARC
  5
ACEA
330
1F
100
AcDbEntity
  8
freecads.com
100
AcDbCircle
 10
10742.92690664224
 20
29346.60349648643
 30
0.0
 40
10.02465653365556
100
AcDbArc
 50
20.99362786239571
 51
24.5569090169414
  0
ARC
  5
ACEB
330
1F
100
AcDbEntity
  8
freecads.com
100
AcDbCircle
 10
10702.3560103083
 20
29339.69618451426
 30
0.0
 40
0.5012554074483619
100
AcDbArc
 50
316.8411713698495
 51
359.8613161222421
  0
ARC
  5
ACEC
330
1F
100
AcDbEntity
  8
freecads.com
100
AcDbCircle
 10
10702.56994309994
 20
29339.49557837962
 30
0.0
 40
0.2079806888037884
100
AcDbArc
 50
235.0867109619411
 51
316.8409634854113
  0
ARC
  5
ACED
330
1F
100
AcDbEntity
  8
freecads.com
100
AcDbCircle
 10
10703.47702990587
 20
29340.7952197169
 30
0.0
 40
1.792869984332318
100
AcDbArc
 50
214.5246174456976
 51
235.0868093219909
  0
ARC
  5
ACEE
330
1F
100
AcDbEntity
  8
freecads.com
100
AcDbCircle
 10
10712.70661413443
 20
29347.14439886729
 30
0.0
 40
12.99542776886497
100
AcDbArc
 50
209.7544786188995
 51
214.5246946132416
  0
ARC
  5
ACEF
330
1F
100
AcDbEntity
  8
freecads.com
100
AcDbCircle
 10
10731.15447683311
 20
29357.69018486806
 30
0.0
 40
34.24483341991116
100
AcDbArc
 50
205.6700248151773
 51
209.7545522032975
  0
ARC
  5
ACF0
330
1F
100
AcDbEntity
  8
freecads.com
100
AcDbCircle
 10
10702.90326534338
 20
29344.11199707645
 30
0.0
 40
2.900007142809332
100
AcDbArc
 50
180.7463628827729
 51
205.6700834274703
  0
ARC
  5
ACF1
330
1F
100
AcDbEntity
  8
freecads.com
100
AcDbCircle
 10
10700.22508203946
 20
29344.07710786846
 30
0.0
 40
0.2215965943337012
100
AcDbArc
 50
48.25100555873452
 51
180.7463868638404
  0
ARC
  5
ACF2
330
1F
100
AcDbEntity
  8
freecads.com
100
AcDbCircle
 10
10695.21482242525
 20
29338.46338593951
 30
0.0
 40
7.745995261171291
100
AcDbArc
 50
37.10249547713273
 51
48.25101531388689
  0
ARC
  5
ACF3
330
1F
100
AcDbEntity
  8
freecads.com
100
AcDbCircle
 10
10695.16312542263
 20
29338.4242950356
 30
0.0
 40
7.810807904805447
100
AcDbArc
 50
29.6030300797687
 51
37.10243245763425
  0
ARC
  5
ACF4
330
1F
100
AcDbEntity
  8
freecads.com
100
AcDbCircle
 10
10693.81640295197
 20
29337.65916322918
 30
0.0
 40
9.359706898976964
100
AcDbArc
 50
23.05494953101632
 51
29.60299152537915
  0
ARC
  5
ACF5
330
1F
100
AcDbEntity
  8
freecads.com
100
AcDbCircle
 10
10694.8585935063
 20
29338.10274921366
 30
0.0
 40
8.227042042685583
100
AcDbArc
 50
16.26243363797859
 51
23.05480691626649
  0
ARC
  5
ACF6
330
1F
100
AcDbEntity
  8
freecads.com
100
AcDbCircle
 10
10700.33776331334
 20
29339.701073144
 30
0.0
 40
2.519508323052168
100
AcDbArc
 50
359.8612371446133
 51
16.26240198826433
  0
ARC
  5
ACF7
330
1F
100
AcDbEntity
  8
freecads.com
100
AcDbCircle
 10
10669.80382183328
 20
29324.62508778629
 30
0.0
 40
20.9010951867657
100
AcDbArc
 50
15.4397278446228
 51
20.99358083653492
  0
ARC
  5
ACF8
330
1F
100
AcDbEntity
  8
freecads.com
100
AcDbCircle
 10
10689.01086082624
 20
29329.92991889127
 30
0.0
 40
0.9749420224087316
100
AcDbArc
 50
324.0127754069094
 51
15.43971864924232
  0
ARC
  5
ACF9
330
1F
100
AcDbEntity
  8
freecads.com
100
AcDbCircle
 10
10689.42863577368
 20
29329.62653076349
 30
0.0
 40
0.4586279098841147
100
AcDbArc
 50
237.7214836795535
 51
324.0126907608014
  0
ARC
  5
ACFA
330
1F
100
AcDbEntity
  8
freecads.com
100
AcDbCircle
 10
10694.09326379682
 20
29337.01138028629
 30
0.0
 40
9.193314914501687
100
AcDbArc
 50
227.8553190419989
 51
237.7215116743664
  0
ARC
  5
ACFB
330
1F
100
AcDbEntity
  8
freecads.com
100
AcDbCircle
 10
10696.36307629004
 20
29339.5194995575
 30
0.0
 40
12.57602256267162
100
AcDbArc
 50
222.9549932922039
 51
227.8553273587792
  0
ARC
  5
ACFC
330
1F
100
AcDbEntity
  8
freecads.com
100
AcDbCircle
 10
10694.24095587147
 20
29337.54372094514
 30
0.0
 40
9.676523261793343
100
AcDbArc
 50
216.9907748502459
 51
222.9550645999863
  0
ARC
  5
ACFD
330
1F
100
AcDbEntity
  8
freecads.com
100
AcDbCircle
 10
10692.90412158608
 20
29336.53667877319
 30
0.0
 40
8.00282680106879
100
AcDbArc
 50
211.0228051705985
 51
216.9907593656422
  0
ARC
  5
ACFE
330
1F
100
AcDbEntity
  8
freecads.com
100
AcDbCircle
 10
10686.77391460222
 20
29332.84995734607
 30
0.0
 40
0.8494113548420408
100
AcDbArc
 50
179.9998728139902
 51
211.0228179859972
  0
ARC
  5
ACFF
330
1F
100
AcDbEntity
  8
freecads.com
100
AcDbCircle
 10
10686.68757138394
 20
29332.84995789041
 30
0.0
 40
0.7630681365665586
100
AcDbArc
 50
115.1377386588073
 51
179.9998992949388
  0
ARC
  5
AD00
330
1F
100
AcDbEntity
  8
freecads.com
100
AcDbCircle
 10
10687.04524273866
 20
29332.08771737663
 30
0.0
 40
1.60505352766299
100
AcDbArc
 50
77.74875847212303
 51
115.1377189503176
  0
ARC
  5
AD01
330
1F
100
AcDbEntity
  8
freecads.com
100
AcDbCircle
 10
10686.74843337912
 20
29330.72084184005
 30
0.0
 40
3.003783139992671
100
AcDbArc
 50
52.31963897846481
 51
77.74874777838718
  0
ARC
  5
AD02
330
1F
100
AcDbEntity
  8
freecads.com
100
AcDbCircle
 10
10687.19462188939
 20
29331.29855208026
 30
0.0
 40
2.273828820639473
100
AcDbArc
 50
20.9936513778028
 51
52.31962937438513
  0
ARC
  5
AD03
330
1F
100
AcDbEntity
  8
freecads.com
100
AcDbCircle
 10
10741.99023817506
 20
29328.24711028122
 30
0.0
 40
0.9884621361770598
100
AcDbArc
 50
306.7651108714047
 51
356.9763793587132
  0
ARC
  5
AD04
330
1F
100
AcDbEntity
  8
freecads.com
100
AcDbCircle
 10
10741.86928119399
 20
29328.40900657267
 30
0.0
 40
1.190553700692664
100
AcDbArc
 50
263.0506683741013
 51
306.7649862183261
  0
ARC
  5
AD05
330
1F
100
AcDbEntity
  8
freecads.com
100
AcDbCircle
 10
10741.95208820227
 20
29329.08839644003
 30
0.0
 40
1.874971403918672
100
AcDbArc
 50
230.1158420547296
 51
263.0507224214232
  0
ARC
  5
AD06
330
1F
100
AcDbEntity
  8
freecads.com
100
AcDbCircle
 10
10742.01605083352
 20
29329.16493439251
 30
0.0
 40
1.974717463303615
100
AcDbArc
 50
198.4349386990053
 51
230.1157770711934
  0
ARC
  5
AD07
330
1F
100
AcDbEntity
  8
freecads.com
100
AcDbCircle
 10
10741.49462550858
 20
29328.99112705226
 30
0.0
 40
1.425087259428829
100
AcDbArc
 50
176.5934985482154
 51
198.4349768034818
  0
ARC
  5
AD08
330
1F
100
AcDbEntity
  8
freecads.com
100
AcDbCircle
 10
10740.57699549057
 20
29329.0457479628
 30
0.0
 40
0.5058330542051431
100
AcDbArc
 50
129.3523134341948
 51
176.5934023042383
  0
ARC
  5
AD09
330
1F
100
AcDbEntity
  8
freecads.com
100
AcDbCircle
 10
10740.71156148836
 20
29328.88164503575
 30
0.0
 40
0.7180541144926794
100
AcDbArc
 50
91.67527513959077
 51
129.3522462615525
  0
ARC
  5
AD0A
330
1F
100
AcDbEntity
  8
freecads.com
100
AcDbCircle
 10
10740.77517005153
 20
29326.7066698991
 30
0.0
 40
2.89395918924816
100
AcDbArc
 50
78.29741123306355
 51
91.67519974704326
  0
ARC
  5
AD0B
330
1F
100
AcDbEntity
  8
freecads.com
100
AcDbCircle
 10
10740.7492429659
 20
29326.5814888737
 30
0.0
 40
3.0217969883574
100
AcDbArc
 50
65.62898789089231
 51
78.29745870973792
  0
ARC
  5
AD0C
330
1F
100
AcDbEntity
  8
freecads.com
100
AcDbCircle
 10
10741.03718130479
 20
29327.21711835787
 30
0.0
 40
2.323990906364517
100
AcDbArc
 50
50.20427352248466
 51
65.62880123064282
  0
ARC
  5
AD0D
330
1F
100
AcDbEntity
  8
freecads.com
100
AcDbCircle
 10
10741.46134732429
 20
29327.72629716227
 30
0.0
 40
1.661284435177585
100
AcDbArc
 50
31.85458064342471
 51
50.20423564994235
  0
ARC
  5
AD0E
330
1F
100
AcDbEntity
  8
freecads.com
100
AcDbCircle
 10
10742.27531545102
 20
29328.23205296498
 30
0.0
 40
0.7029874857372822
100
AcDbArc
 50
356.9763141299345
 51
31.85457620587973
  0
ARC
  5
AD0F
330
1F
100
AcDbEntity
  8
freecads.com
100
AcDbCircle
 10
10766.47360461282
 20
29327.27423576901
 30
0.0
 40
3.012491786164019
100
AcDbArc
 50
317.6626545484685
 51
339.0064369095619
  0
ARC
  5
AD10
330
1F
100
AcDbEntity
  8
freecads.com
100
AcDbCircle
 10
10767.39865945407
 20
29326.43139876115
 30
0.0
 40
1.761052342503383
100
AcDbArc
 50
285.7639600062167
 51
317.6626313067359
  0
ARC
  5
AD11
330
1F
100
AcDbEntity
  8
freecads.com
100
AcDbCircle
 10
10767.68421761228
 20
29325.41982977544
 30
0.0
 40
0.7099504090252359
100
AcDbArc
 50
229.2873485849963
 51
285.7639515184365
  0
ARC
  5
AD12
330
1F
100
AcDbEntity
  8
freecads.com
100
AcDbCircle
 10
10767.77756021056
 20
29325.52830394375
 30
0.0
 40
0.8530569631843365
100
AcDbArc
 50
179.9999806664875
 51
229.2874293454471
  0
ARC
  5
AD13
330
1F
100
AcDbEntity
  8
freecads.com
100
AcDbCircle
 10
10768.69238632047
 20
29325.52830395062
 30
0.0
 40
1.767883073090638
100
AcDbArc
 50
154.333670443082
 51
179.9999908936369
  0
ARC
  5
AD14
330
1F
100
AcDbEntity
  8
freecads.com
100
AcDbCircle
 10
10769.49370420673
 20
29325.14323358668
 30
0.0
 40
2.656921621200986
100
AcDbArc
 50
135.417986836739
 51
154.3336331798998
  0
ARC
  5
AD15
330
1F
100
AcDbEntity
  8
freecads.com
100
AcDbCircle
 10
10769.47530678672
 20
29325.1613669659
 30
0.0
 40
2.631089770671539
100
AcDbArc
 50
116.4065514548645
 51
135.4180247945615
  0
ARC
  5
AD16
330
1F
100
AcDbEntity
  8
freecads.com
100
AcDbCircle
 10
10769.05978338185
 20
29325.99819022678
 30
0.0
 40
1.696781004820348
100
AcDbArc
 50
89.99993700605408
 51
116.4065073268944
  0
ARC
  5
AD17
330
1F
100
AcDbEntity
  8
freecads.com
100
AcDbCircle
 10
10769.05978516676
 20
29327.36409967205
 30
0.0
 40
0.3308715595461634
100
AcDbArc
 50
38.9847026737859
 51
89.99998604061328
  0
ARC
  5
AD18
330
1F
100
AcDbEntity
  8
freecads.com
100
AcDbCircle
 10
10768.80205655529
 20
29327.15550712122
 30
0.0
 40
0.6624358661738976
100
AcDbArc
 50
8.580890065850008
 51
38.98483343662265
  0
ARC
  5
AD19
330
1F
100
AcDbEntity
  8
freecads.com
100
AcDbCircle
 10
10768.01730510904
 20
29327.03708982543
 30
0.0
 40
1.456071480501192
100
AcDbArc
 50
349.422486412016
 51
8.580987735422306
  0
ARC
  5
AD1A
330
1F
100
AcDbEntity
  8
freecads.com
100
AcDbCircle
 10
10766.21410010776
 20
29327.37381781448
 30
0.0
 40
3.290447127767409
100
AcDbArc
 50
339.0064198787934
 51
349.4224904058561
  0
ARC
  5
AD1B
330
1F
100
AcDbEntity
  8
freecads.com
100
AcDbCircle
 10
10756.06197550149
 20
29325.25398778418
 30
0.0
 40
0.8625277458814958
100
AcDbArc
 50
312.1600289137191
 51
0.0000297211612968
  0
ARC
  5
AD1C
330
1F
100
AcDbEntity
  8
freecads.com
100
AcDbCircle
 10
10755.51643048883
 20
29325.85647975855
 30
0.0
 40
1.675310582820437
100
AcDbArc
 50
283.0106311042769
 51
312.1601317887477
  0
ARC
  5
AD1D
330
1F
100
AcDbEntity
  8
freecads.com
100
AcDbCircle
 10
10755.48948951976
 20
29325.97307942361
 30
0.0
 40
1.79498220729533
100
AcDbArc
 50
255.0504654652397
 51
283.0106008244595
  0
ARC
  5
AD1E
330
1F
100
AcDbEntity
  8
freecads.com
100
AcDbCircle
 10
10755.28404804737
 20
29325.2036569661
 30
0.0
 40
0.9986047109482791
100
AcDbArc
 50
211.7174858270769
 51
255.0505502847904
  0
ARC
  5
AD1F
330
1F
100
AcDbEntity
  8
freecads.com
100
AcDbCircle
 10
10755.07431017308
 20
29325.07402964921
 30
0.0
 40
0.7520419051740409
100
AcDbArc
 50
180.7175792768667
 51
211.7173481673706
  0
ARC
  5
AD20
330
1F
100
AcDbEntity
  8
freecads.com
100
AcDbCircle
 10
10754.80460588268
 20
29325.07065258337
 30
0.0
 40
0.4823164728703914
100
AcDbArc
 50
137.5115414900083
 51
180.7176885513723
  0
ARC
  5
AD21
330
1F
100
AcDbEntity
  8
freecads.com
100
AcDbCircle
 10
10755.02129322299
 20
29324.87217607489
 30
0.0
 40
0.7761639296762763
100
AcDbArc
 50
105.4310810954184
 51
137.5115726331989
  0
ARC
  5
AD22
330
1F
100
AcDbEntity
  8
freecads.com
100
AcDbCircle
 10
10755.36548715688
 20
29323.6252113244
 30
0.0
 40
2.069759907201147
100
AcDbArc
 50
90.00002517725539
 51
105.4309409776725
  0
ARC
  5
AD23
330
1F
100
AcDbEntity
  8
freecads.com
100
AcDbCircle
 10
10755.36548743453
 20
29320.10015505259
 30
0.0
 40
5.59481617901214
100
AcDbArc
 50
83.87059639026068
 51
90.00001215751996
  0
ARC
  5
AD24
330
1F
100
AcDbEntity
  8
freecads.com
100
AcDbCircle
 10
10755.6377343827
 20
29322.63533040175
 30
0.0
 40
3.045064729992382
100
AcDbArc
 50
74.20592720268285
 51
83.87057588470936
  0
ARC
  5
AD25
330
1F
100
AcDbEntity
  8
freecads.com
100
AcDbCircle
 10
10755.96187612886
 20
29323.78126914354
 30
0.0
 40
1.854164452248022
100
AcDbArc
 50
62.37872501037359
 51
74.20598080330794
  0
ARC
  5
AD26
330
1F
100
AcDbEntity
  8
freecads.com
100
AcDbCircle
 10
10756.73249122083
 20
29325.25398875918
 30
0.0
 40
0.1920120265471116
100
AcDbArc
 50
359.9998425721437
 51
62.37857754755403
  0
ARC
  5
AD27
330
1F
100
AcDbEntity
  8
freecads.com
100
AcDbCircle
 10
10696.01849398836
 20
29319.32504951783
 30
0.0
 40
0.7677869496905647
100
AcDbArc
 50
306.9927622978627
 51
348.8823996480383
  0
ARC
  5
AD28
330
1F
100
AcDbEntity
  8
freecads.com
100
AcDbCircle
 10
10696.29428069392
 20
29318.95897185111
 30
0.0
 40
0.3094517393525781
100
AcDbArc
 50
225.6219173280822
 51
306.9927781311067
  0
ARC
  5
AD29
330
1F
100
AcDbEntity
  8
freecads.com
100
AcDbCircle
 10
10698.34654873098
 20
29321.05627729312
 30
0.0
 40
3.243816102047113
100
AcDbArc
 50
207.9062917332574
 51
225.6218432643345
  0
ARC
  5
AD2A
330
1F
100
AcDbEntity
  8
freecads.com
100
AcDbCircle
 10
10731.18645051579
 20
29338.44872644247
 30
0.0
 40
40.40503831887642
100
AcDbArc
 50
205.1106240054668
 51
207.9062901885937
  0
LINE
  5
AD2B
330
1F
100
AcDbEntity
  8
freecads.com
100
AcDbLine
 10
10694.60008724738
 20
29321.3021482316
 30
0.0
 11
10692.77567124737
 21
29325.19497123161
 31
0.0
  0
LINE
  5
AD2C
330
1F
100
AcDbEntity
  8
freecads.com
100
AcDbLine
 10
10692.77567124737
 20
29325.19497123161
 30
0.0
 11
10694.94745624737
 21
29323.0698242316
 31
0.0
  0
ARC
  5
AD2D
330
1F
100
AcDbEntity
  8
freecads.com
100
AcDbCircle
 10
10690.12071294527
 20
29318.13715347235
 30
0.0
 40
6.901354339807743
100
AcDbArc
 50
35.30802172297908
 51
45.62185679147381
  0
ARC
  5
AD2E
330
1F
100
AcDbEntity
  8
freecads.com
100
AcDbCircle
 10
10690.03463963937
 20
29318.0762139242
 30
0.0
 40
7.006816381338802
100
AcDbArc
 50
25.11069039119522
 51
35.30787596232175
  0
ARC
  5
AD2F
330
1F
100
AcDbEntity
  8
freecads.com
100
AcDbCircle
 10
10691.16763127149
 20
29318.60720442966
 30
0.0
 40
5.755568621967763
100
AcDbArc
 50
14.07214380273627
 51
25.1106846468626
  0
ARC
  5
AD30
330
1F
100
AcDbEntity
  8
freecads.com
100
AcDbCircle
 10
10694.90462099621
 20
29319.54393985878
 30
0.0
 40
1.902963598503554
100
AcDbArc
 50
348.8823466962657
 51
14.0721512959254
  0
ARC
  5
AD31
330
1F
100
AcDbEntity
  8
freecads.com
100
AcDbCircle
 10
10679.69331978081
 20
29307.73739260009
 30
0.0
 40
4.055922732589469
100
AcDbArc
 50
27.4867175535794
 51
39.69017276247295
  0
ARC
  5
AD32
330
1F
100
AcDbEntity
  8
freecads.com
100
AcDbCircle
 10
10682.3284123613
 20
29309.10835689267
 30
0.0
 40
1.085526126193874
100
AcDbArc
 50
354.9635028182491
 51
27.48679993697414
  0
ARC
  5
AD33
330
1F
100
AcDbEntity
  8
freecads.com
100
AcDbCircle
 10
10682.34196506512
 20
29309.10716510485
 30
0.0
 40
1.071921122250209
100
AcDbArc
 50
322.1739610866915
 51
354.9633633319759
  0
ARC
  5
AD34
330
1F
100
AcDbEntity
  8
freecads.com
100
AcDbCircle
 10
10680.08732609889
 20
29310.85768359084
 30
0.0
 40
3.926340824721993
100
AcDbArc
 50
309.6901190553376
 51
322.1739669680437
  0
ARC
  5
AD35
330
1F
100
AcDbEntity
  8
freecads.com
100
AcDbCircle
 10
10680.54747027348
 20
29310.30323750113
 30
0.0
 40
3.20582494856811
100
AcDbArc
 50
287.576883279715
 51
309.6901787292269
  0
ARC
  5
AD36
330
1F
100
AcDbEntity
  8
freecads.com
100
AcDbCircle
 10
10681.22998745896
 20
29308.14865555834
 30
0.0
 40
0.9457247170175383
100
AcDbArc
 50
232.8213785718832
 51
287.5768728792399
  0
ARC
  5
AD37
330
1F
100
AcDbEntity
  8
freecads.com
100
AcDbCircle
 10
10681.56881103684
 20
29308.59538971661
 30
0.0
 40
1.506414314821493
100
AcDbArc
 50
192.4299533351515
 51
232.8214832363795
  0
ARC
  5
AD38
330
1F
100
AcDbEntity
  8
freecads.com
100
AcDbCircle
 10
10687.31373714504
 20
29309.86164018772
 30
0.0
 40
7.389233897660482
100
AcDbArc
 50
180.000015167614
 51
192.4299354969985
  0
ARC
  5
AD39
330
1F
100
AcDbEntity
  8
freecads.com
100
AcDbCircle
 10
10683.55585653391
 20
29309.861641525
 30
0.0
 40
3.631353286532559
100
AcDbArc
 50
159.9936070689964
 51
180.0000519634655
  0
ARC
  5
AD3A
330
1F
100
AcDbEntity
  8
freecads.com
100
AcDbCircle
 10
10680.90276965627
 20
29310.82762217755
 30
0.0
 40
0.8078822664260581
100
AcDbArc
 50
99.16036040846329
 51
159.9936567485002
  0
ARC
  5
AD3B
330
1F
100
AcDbEntity
  8
freecads.com
100
AcDbCircle
 10
10680.96768361058
 20
29310.42507608631
 30
0.0
 40
1.215628728136518
100
AcDbArc
 50
52.71678225810368
 51
99.1604295566726
  0
ARC
  5
AD3C
330
1F
100
AcDbEntity
  8
freecads.com
100
AcDbCircle
 10
10677.59667885188
 20
29305.99732985193
 30
0.0
 40
6.780573453761796
100
AcDbArc
 50
39.69020723508572
 51
52.71668055554886
  0
ARC
  5
AD3D
330
1F
100
AcDbEntity
  8
freecads.com
100
AcDbCircle
 10
10708.56859464451
 20
29309.03515926098
 30
0.0
 40
18.7862197726414
100
AcDbArc
 50
351.7091671449041
 51
356.6731846144057
  0
ARC
  5
AD3E
330
1F
100
AcDbEntity
  8
freecads.com
100
AcDbCircle
 10
10699.83980164673
 20
29310.30709195921
 30
0.0
 40
27.60719704197611
100
AcDbArc
 50
347.9892345943982
 51
351.7092374195916
  0
ARC
  5
AD3F
330
1F
100
AcDbEntity
  8
freecads.com
100
AcDbCircle
 10
10701.7152764007
 20
29309.90806469868
 30
0.0
 40
25.68974344221735
100
AcDbArc
 50
344.2115246487787
 51
347.9892661677603
  0
ARC
  5
AD40
330
1F
100
AcDbEntity
  8
freecads.com
100
AcDbCircle
 10
10717.66677679949
 20
29305.39771924685
 30
0.0
 40
9.112844423795836
100
AcDbArc
 50
336.0260109337651
 51
344.2114706393371
  0
ARC
  5
AD41
330
1F
100
AcDbEntity
  8
freecads.com
100
AcDbCircle
 10
10360.14633607382
 20
29464.38161841224
 30
0.0
 40
400.3886368394617
100
AcDbArc
 50
335.7555771246928
 51
336.0260130785631
  0
ARC
  5
AD42
330
1F
100
AcDbEntity
  8
freecads.com
100
AcDbCircle
 10
10725.16049045247
 20
29299.99746946639
 30
0.0
 40
0.0669145692174348
100
AcDbArc
 50
226.4678186073356
 51
335.7554846176392
  0
ARC
  5
AD43
330
1F
100
AcDbEntity
  8
freecads.com
100
AcDbCircle
 10
10725.23398720941
 20
29300.07483169666
 30
0.0
 40
0.1736229941515788
100
AcDbArc
 50
169.1513401443347
 51
226.4677910217053
  0
ARC
  5
AD44
330
1F
100
AcDbEntity
  8
freecads.com
100
AcDbCircle
 10
11344.32210937668
 20
29181.43246459976
 30
0.0
 40
630.5275825113
100
AcDbArc
 50
168.9581392925139
 51
169.1513406152915
  0
ARC
  5
AD45
330
1F
100
AcDbEntity
  8
freecads.com
100
AcDbCircle
 10
10664.79999005007
 20
29314.03340904385
 30
0.0
 40
61.81143929928348
100
AcDbArc
 50
348.9582033607896
 51
350.2125100422802
  0
ARC
  5
AD46
330
1F
100
AcDbEntity
  8
freecads.com
100
AcDbCircle
 10
10622.98178996633
 20
29321.24719601572
 30
0.0
 40
104.2472800558462
100
AcDbArc
 50
350.2125467182724
 51
351.0605203854983
  0
ARC
  5
AD47
330
1F
100
AcDbEntity
  8
freecads.com
100
AcDbCircle
 10
10627.15206852963
 20
29320.59111633405
 30
0.0
 40
100.0257088037608
100
AcDbArc
 50
351.0605697137811
 51
351.9149604198782
  0
ARC
  5
AD48
330
1F
100
AcDbEntity
  8
freecads.com
100
AcDbCircle
 10
10686.78090024034
 20
29312.12061625318
 30
0.0
 40
39.79824876435808
100
AcDbArc
 50
351.9148820050089
 51
353.6153895335835
  0
ARC
  5
AD49
330
1F
100
AcDbEntity
  8
freecads.com
100
AcDbCircle
 10
10946.75525141987
 20
29283.03028378067
 30
0.0
 40
221.798598912725
100
AcDbArc
 50
172.6431385187034
 51
173.6153274741611
  0
ARC
  5
AD4A
330
1F
100
AcDbEntity
  8
freecads.com
100
AcDbCircle
 10
10727.30070466241
 20
29311.36445210952
 30
0.0
 40
0.5224746078018386
100
AcDbArc
 50
104.1608117228217
 51
172.6430487473219
  0
ARC
  5
AD4B
330
1F
100
AcDbEntity
  8
freecads.com
100
AcDbCircle
 10
10727.23768769715
 20
29311.61420983944
 30
0.0
 40
0.2648895508503401
100
AcDbArc
 50
357.7183752918764
 51
104.1607539450039
  0
ARC
  5
AD4C
330
1F
100
AcDbEntity
  8
freecads.com
100
AcDbCircle
 10
10526.87467260287
 20
29319.59717850242
 30
0.0
 40
200.7868724014712
100
AcDbArc
 50
356.6731012061071
 51
357.7183981590803
  0
ARC
  5
AD4D
330
1F
100
AcDbEntity
  8
freecads.com
100
AcDbCircle
 10
10781.72692583269
 20
29309.00522041401
 30
0.0
 40
0.1975774146809204
100
AcDbArc
 50
308.5821530446984
 51
359.999947104387
  0
ARC
  5
AD4E
330
1F
100
AcDbEntity
  8
freecads.com
100
AcDbCircle
 10
10758.32787822768
 20
29338.33534932811
 30
0.0
 40
37.71786380670218
100
AcDbArc
 50
307.3354894842669
 51
308.5822333480314
  0
ARC
  5
AD4F
330
1F
100
AcDbEntity
  8
freecads.com
100
AcDbCircle
 10
10767.50137979601
 20
29326.3089059162
 30
0.0
 40
22.5921085474441
100
AcDbArc
 50
304.8456837044806
 51
307.3354311500071
  0
ARC
  5
AD50
330
1F
100
AcDbEntity
  8
freecads.com
100
AcDbCircle
 10
10757.33709622162
 20
29340.90861677852
 30
0.0
 40
40.38154973717378
100
AcDbArc
 50
303.2338033670433
 51
304.84562166146
  0
ARC
  5
AD51
330
1F
100
AcDbEntity
  8
freecads.com
100
AcDbCircle
 10
10774.74348503777
 20
29314.34308141567
 30
0.0
 40
8.621353882397658
100
AcDbArc
 50
288.4327052637748
 51
303.2338237727487
  0
ARC
  5
AD52
330
1F
100
AcDbEntity
  8
freecads.com
100
AcDbCircle
 10
10776.73205407376
 20
29308.37660372121
 30
0.0
 40
2.332215396934216
100
AcDbArc
 50
249.3060835009237
 51
288.4326417316507
  0
ARC
  5
AD53
330
1F
100
AcDbEntity
  8
freecads.com
100
AcDbCircle
 10
10776.11485676577
 20
29306.74271099522
 30
0.0
 40
0.5856364674160674
100
AcDbArc
 50
153.1208452433613
 51
249.3059864734783
  0
ARC
  5
AD54
330
1F
100
AcDbEntity
  8
freecads.com
100
AcDbCircle
 10
10778.6130505447
 20
29305.4764412029
 30
0.0
 40
3.386424096643676
100
AcDbArc
 50
126.1749495460911
 51
153.1207492480458
  0
ARC
  5
AD55
330
1F
100
AcDbEntity
  8
freecads.com
100
AcDbCircle
 10
10779.5207342383
 20
29304.23511188655
 30
0.0
 40
4.924210869659454
100
AcDbArc
 50
108.1851433477436
 51
126.1749603355742
  0
ARC
  5
AD56
330
1F
100
AcDbEntity
  8
freecads.com
100
AcDbCircle
 10
10781.51109846298
 20
29298.17603900976
 30
0.0
 40
11.30182122722895
100
AcDbArc
 50
98.51652462457963
 51
108.1850624923484
  0
ARC
  5
AD57
330
1F
100
AcDbEntity
  8
freecads.com
100
AcDbCircle
 10
10781.28065605483
 20
29299.7148836728
 30
0.0
 40
9.745817820933602
100
AcDbArc
 50
88.82644250968812
 51
98.51648518678148
  0
ARC
  5
AD58
330
1F
100
AcDbEntity
  8
freecads.com
100
AcDbCircle
 10
10781.47097125222
 20
29309.00522037249
 30
0.0
 40
0.453531995156251
100
AcDbArc
 50
359.999982201029
 51
88.82641700858476
  0
ARC
  5
AD59
330
1F
100
AcDbEntity
  8
freecads.com
100
AcDbCircle
 10
10710.5803762254
 20
29304.66571573325
 30
0.0
 40
19.14099931097306
100
AcDbArc
 50
333.8535113526016
 51
340.8730278965592
  0
ARC
  5
AD5A
330
1F
100
AcDbEntity
  8
freecads.com
100
AcDbCircle
 10
10727.49114611325
 20
29296.36419381523
 30
0.0
 40
0.3024907618597404
100
AcDbArc
 50
205.7918366784168
 51
333.8535777254254
  0
ARC
  5
AD5B
330
1F
100
AcDbEntity
  8
freecads.com
100
AcDbCircle
 10
10729.41458144125
 20
29297.29367926687
 30
0.0
 40
2.438736690075848
100
AcDbArc
 50
173.4302361569023
 51
205.7918059730147
  0
ARC
  5
AD5C
330
1F
100
AcDbEntity
  8
freecads.com
100
AcDbCircle
 10
10787.56903139753
 20
29290.59600989955
 30
0.0
 40
60.97760262264738
100
AcDbArc
 50
170.2928516117779
 51
173.4301725130314
  0
ARC
  5
AD5D
330
1F
100
AcDbEntity
  8
freecads.com
100
AcDbCircle
 10
10800.46963469277
 20
29288.38919889774
 30
0.0
 40
74.06559636419292
100
AcDbArc
 50
168.5538328750054
 51
170.2928409992192
  0
ARC
  5
AD5E
330
1F
100
AcDbEntity
  8
freecads.com
100
AcDbCircle
 10
10730.24163417231
 20
29302.60854169412
 30
0.0
 40
2.412531065757636
100
AcDbArc
 50
147.8751586569036
 51
168.5537449406144
  0
ARC
  5
AD5F
330
1F
100
AcDbEntity
  8
freecads.com
100
AcDbCircle
 10
10728.37079240902
 20
29303.78324929527
 30
0.0
 40
0.203461838345329
100
AcDbArc
 50
37.36531551133321
 51
147.875196244318
  0
ARC
  5
AD60
330
1F
100
AcDbEntity
  8
freecads.com
100
AcDbCircle
 10
10726.43431562982
 20
29302.30456158803
 30
0.0
 40
2.639946940268653
100
AcDbArc
 50
19.71143561413888
 51
37.3652475994381
  0
ARC
  5
AD61
330
1F
100
AcDbEntity
  8
freecads.com
100
AcDbCircle
 10
10725.43685387914
 20
29301.9472048102
 30
0.0
 40
3.699491092566885
100
AcDbArc
 50
4.361355193527915
 51
19.71127733569568
  0
ARC
  5
AD62
330
1F
100
AcDbEntity
  8
freecads.com
100
AcDbCircle
 10
10719.3224990767
 20
29301.48087160967
 30
0.0
 40
9.831603396168697
100
AcDbArc
 50
356.9611275507352
 51
4.36139846023697
  0
ARC
  5
AD63
330
1F
100
AcDbEntity
  8
freecads.com
100
AcDbCircle
 10
10718.32208424401
 20
29301.53397171413
 30
0.0
 40
10.8334264636125
100
AcDbArc
 50
349.7871137073715
 51
356.9611805621633
  0
ARC
  5
AD64
330
1F
100
AcDbEntity
  8
freecads.com
100
AcDbCircle
 10
10721.00358747003
 20
29301.05086344628
 30
0.0
 40
8.108751593182796
100
AcDbArc
 50
340.8729996293839
 51
349.7871626823632
  0
ARC
  5
AD65
330
1F
100
AcDbEntity
  8
freecads.com
100
AcDbCircle
 10
10485.30406756742
 20
29447.06210651193
 30
0.0
 40
279.892413809787
100
AcDbArc
 50
327.0370471440732
 51
327.3315472885822
  0
ARC
  5
AD66
330
1F
100
AcDbEntity
  8
freecads.com
100
AcDbCircle
 10
10720.03068849108
 20
29294.84454616373
 30
0.0
 40
0.1304216653941071
100
AcDbArc
 50
265.5808683211497
 51
327.0370774943315
  0
ARC
  5
AD67
330
1F
100
AcDbEntity
  8
freecads.com
100
AcDbCircle
 10
10720.02539063073
 20
29294.7759874782
 30
0.0
 40
0.0616585889227637
100
AcDbArc
 50
162.9586722438081
 51
265.5804313784043
  0
ARC
  5
AD68
330
1F
100
AcDbEntity
  8
freecads.com
100
AcDbCircle
 10
10896.55972758901
 20
29240.66544029798
 30
0.0
 40
184.7027250975454
100
AcDbArc
 50
162.5584926222565
 51
162.9588751220185
  0
ARC
  5
AD69
330
1F
100
AcDbEntity
  8
freecads.com
100
AcDbCircle
 10
10704.46200501633
 20
29301.01807620166
 30
0.0
 40
16.65262168553286
100
AcDbArc
 50
342.5585131761234
 51
345.3759484905689
  0
ARC
  5
AD6A
330
1F
100
AcDbEntity
  8
freecads.com
100
AcDbCircle
 10
10699.66833252596
 20
29302.26887200127
 30
0.0
 40
21.60679024112411
100
AcDbArc
 50
345.3759777490857
 51
347.693627613207
  0
ARC
  5
AD6B
330
1F
100
AcDbEntity
  8
freecads.com
100
AcDbCircle
 10
10701.6254302992
 20
29301.84192448089
 30
0.0
 40
19.60366371512254
100
AcDbArc
 50
347.6936366873206
 51
350.0424522251803
  0
ARC
  5
AD6C
330
1F
100
AcDbEntity
  8
freecads.com
100
AcDbCircle
 10
10715.56836629619
 20
29299.39405759301
 30
0.0
 40
5.447480736754712
100
AcDbArc
 50
350.0424692390796
 51
356.1338676461768
  0
ARC
  5
AD6D
330
1F
100
AcDbEntity
  8
freecads.com
100
AcDbCircle
 10
10727.69925720388
 20
29298.57426022621
 30
0.0
 40
6.711079290522742
100
AcDbArc
 50
171.5893053149351
 51
176.1338691700131
  0
ARC
  5
AD6E
330
1F
100
AcDbEntity
  8
freecads.com
100
AcDbCircle
 10
10721.16865330563
 20
29299.53986124245
 30
0.0
 40
0.109475500656798
100
AcDbArc
 50
85.5805319047217
 51
171.5891669501719
  0
ARC
  5
AD6F
330
1F
100
AcDbEntity
  8
freecads.com
100
AcDbCircle
 10
10721.16307109777
 20
29299.46762350395
 30
0.0
 40
0.1819286021007752
100
AcDbArc
 50
25.25893982456546
 51
85.58080642270345
  0
ARC
  5
AD70
330
1F
100
AcDbEntity
  8
freecads.com
100
AcDbCircle
 10
10711.30702726085
 20
29294.81735540798
 30
0.0
 40
11.07993729542003
100
AcDbArc
 50
22.08186554262972
 51
25.25882759952763
  0
ARC
  5
AD71
330
1F
100
AcDbEntity
  8
freecads.com
100
AcDbCircle
 10
10720.21561909038
 20
29298.4314749477
 30
0.0
 40
1.466151962233904
100
AcDbArc
 50
358.3802826872259
 51
22.08187910833316
  0
ARC
  5
AD72
330
1F
100
AcDbEntity
  8
freecads.com
100
AcDbCircle
 10
10717.41660503061
 20
29298.51062755389
 30
0.0
 40
4.266284966550007
100
AcDbArc
 50
347.6935947233728
 51
358.3802145842824
  0
ARC
  5
AD73
330
1F
100
AcDbEntity
  8
freecads.com
100
AcDbCircle
 10
10716.6027175551
 20
29298.6881711609
 30
0.0
 40
5.099312310118665
100
AcDbArc
 50
337.7375879224298
 51
347.6936811793792
  0
ARC
  5
AD74
330
1F
100
AcDbEntity
  8
freecads.com
100
AcDbCircle
 10
10716.87279989498
 20
29298.57761753003
 30
0.0
 40
4.807479180487502
100
AcDbArc
 50
327.3314893461324
 51
337.7374966110549
  0
ARC
  5
AD75
330
1F
100
AcDbEntity
  8
freecads.com
100
AcDbCircle
 10
10716.57601908903
 20
29295.32044749275
 30
0.0
 40
2.188223361132927
100
AcDbArc
 50
325.8098361033554
 51
338.1903977755605
  0
ARC
  5
AD76
330
1F
100
AcDbEntity
  8
freecads.com
100
AcDbCircle
 10
10718.28781167575
 20
29294.15754422569
 30
0.0
 40
0.1187843384758286
100
AcDbArc
 50
224.9998518784309
 51
325.8097435656156
  0
ARC
  5
AD77
330
1F
100
AcDbEntity
  8
freecads.com
100
AcDbCircle
 10
10718.55311512724
 20
29294.42284862041
 30
0.0
 40
0.4939807446773426
100
AcDbArc
 50
186.6883556029597
 51
225.0000417406795
  0
ARC
  5
AD78
330
1F
100
AcDbEntity
  8
freecads.com
100
AcDbCircle
 10
10727.90458030782
 20
29295.51947759918
 30
0.0
 40
9.909526195718461
100
AcDbArc
 50
182.3587481227213
 51
186.6884187974994
  0
ARC
  5
AD79
330
1F
100
AcDbEntity
  8
freecads.com
100
AcDbCircle
 10
10724.11319968969
 20
29295.36329612806
 30
0.0
 40
6.114930085020131
100
AcDbArc
 50
175.8312224239777
 51
182.358654717952
  0
ARC
  5
AD7A
330
1F
100
AcDbEntity
  8
freecads.com
100
AcDbCircle
 10
10719.61643996872
 20
29295.69105165857
 30
0.0
 40
1.606241619857689
100
AcDbArc
 50
158.1903144832945
 51
175.8311403328879
  0
ARC
  5
AD7B
330
1F
100
AcDbEntity
  8
freecads.com
100
AcDbCircle
 10
10718.42721252543
 20
29296.16694230621
 30
0.0
 40
0.3253302956876153
100
AcDbArc
 50
111.1533207512597
 51
158.1903795260305
  0
ARC
  5
AD7C
330
1F
100
AcDbEntity
  8
freecads.com
100
AcDbCircle
 10
10718.3837644628
 20
29296.27923187553
 30
0.0
 40
0.2049281299241642
100
AcDbArc
 50
45.00011298646387
 51
111.1535757084651
  0
ARC
  5
AD7D
330
1F
100
AcDbEntity
  8
freecads.com
100
AcDbCircle
 10
10717.98927741692
 20
29295.88474613833
 30
0.0
 40
0.7628161350024988
100
AcDbArc
 50
16.17162320127922
 51
44.9999608471928
  0
ARC
  5
AD7E
330
1F
100
AcDbEntity
  8
freecads.com
100
AcDbCircle
 10
10716.75824332709
 20
29295.52775421984
 30
0.0
 40
2.04456812356741
100
AcDbArc
 50
2.358668642342899
 51
16.17174466379042
  0
ARC
  5
AD7F
330
1F
100
AcDbEntity
  8
freecads.com
100
AcDbCircle
 10
10716.21577653137
 20
29295.50541033398
 30
0.0
 40
2.587494889992747
100
AcDbArc
 50
349.9605066273064
 51
2.35866387897765
  0
ARC
  5
AD80
330
1F
100
AcDbEntity
  8
freecads.com
100
AcDbCircle
 10
10716.03289660323
 20
29295.53779132133
 30
0.0
 40
2.773219407601866
100
AcDbArc
 50
338.1903068148806
 51
349.9604185480412
  0
ARC
  5
AD81
330
1F
100
AcDbEntity
  8
freecads.com
100
AcDbCircle
 10
10703.10705291904
 20
29289.19497198997
 30
0.0
 40
5.817450328338103
100
AcDbArc
 50
354.3293262282251
 51
359.9999925307312
  0
ARC
  5
AD82
330
1F
100
AcDbEntity
  8
freecads.com
100
AcDbCircle
 10
10705.77798101248
 20
29288.92976296291
 30
0.0
 40
3.133387603971061
100
AcDbArc
 50
345.3180579512552
 51
354.3292461068828
  0
ARC
  5
AD83
330
1F
100
AcDbEntity
  8
freecads.com
100
AcDbCircle
 10
10706.9068969489
 20
29288.63397498677
 30
0.0
 40
1.966365017077224
100
AcDbArc
 50
334.6168778864328
 51
345.318133554668
  0
ARC
  5
AD84
330
1F
100
AcDbEntity
  8
freecads.com
100
AcDbCircle
 10
10708.53149221983
 20
29287.86314651066
 30
0.0
 40
0.1681752790591733
100
AcDbArc
 50
270.0000093841104
 51
334.6169729809943
  0
ARC
  5
AD85
330
1F
100
AcDbEntity
  8
freecads.com
100
AcDbCircle
 10
10708.5314923369
 20
29287.93778073215
 30
0.0
 40
0.2428095005480083
100
AcDbArc
 50
219.8841413776474
 51
269.9999788751471
  0
ARC
  5
AD86
330
1F
100
AcDbEntity
  8
freecads.com
100
AcDbCircle
 10
10711.09173169641
 20
29290.07727628122
 30
0.0
 40
3.579314675502121
100
AcDbArc
 50
212.8521169080088
 51
219.884226681039
  0
ARC
  5
AD87
330
1F
100
AcDbEntity
  8
freecads.com
100
AcDbCircle
 10
10711.93237451357
 20
29290.62010810925
 30
0.0
 40
4.579987818701098
100
AcDbArc
 50
205.888152053241
 51
212.8520289145761
  0
ARC
  5
AD88
330
1F
100
AcDbEntity
  8
freecads.com
100
AcDbCircle
 10
10714.40906480054
 20
29291.82209226789
 30
0.0
 40
7.33294272119896
100
AcDbArc
 50
200.9935506144057
 51
205.8881577190732
  0
ARC
  5
AD89
330
1F
100
AcDbEntity
  8
freecads.com
100
AcDbCircle
 10
10710.04711249777
 20
29290.14826608117
 30
0.0
 40
2.660863741252909
100
AcDbArc
 50
188.1872231927197
 51
200.9936934673976
  0
ARC
  5
AD8A
330
1F
100
AcDbEntity
  8
freecads.com
100
AcDbCircle
 10
10708.62608162439
 20
29289.94381410378
 30
0.0
 40
1.225200356556692
100
AcDbArc
 50
165.317993806657
 51
188.1871418932513
  0
ARC
  5
AD8B
330
1F
100
AcDbEntity
  8
freecads.com
100
AcDbCircle
 10
10708.06668632716
 20
29290.09038214243
 30
0.0
 40
0.6469224921064475
100
AcDbArc
 50
131.8215351115418
 51
165.3180952491944
  0
ARC
  5
AD8C
330
1F
100
AcDbEntity
  8
freecads.com
100
AcDbCircle
 10
10707.95588814954
 20
29290.21421011787
 30
0.0
 40
0.4807611137263127
100
AcDbArc
 50
89.99998834013254
 51
131.8215872294971
  0
ARC
  5
AD8D
330
1F
100
AcDbEntity
  8
freecads.com
100
AcDbCircle
 10
10707.95588870784
 20
29290.04646204905
 30
0.0
 40
0.6485091825493826
100
AcDbArc
 50
55.27629661039326
 51
90.00004068181397
  0
ARC
  5
AD8E
330
1F
100
AcDbEntity
  8
freecads.com
100
AcDbCircle
 10
10707.66253005218
 20
29289.62317087397
 30
0.0
 40
1.163518619113699
100
AcDbArc
 50
32.8520240557877
 51
55.2763452787408
  0
ARC
  5
AD8F
330
1F
100
AcDbEntity
  8
freecads.com
100
AcDbCircle
 10
10707.25420626039
 20
29289.35949527681
 30
0.0
 40
1.649577401022744
100
AcDbArc
 50
14.35606611470316
 51
32.85213567873108
  0
ARC
  5
AD90
330
1F
100
AcDbEntity
  8
freecads.com
100
AcDbCircle
 10
10706.61137341667
 20
29289.19497244564
 30
0.0
 40
2.313129830705627
100
AcDbArc
 50
359.9999699284497
 51
14.35598740807362
  0
ARC
  5
AD91
330
1F
100
AcDbEntity
  8
freecads.com
100
AcDbCircle
 10
10759.21774940138
 20
29286.40378434062
 30
0.0
 40
2.556846729005545
100
AcDbArc
 50
278.6998892028286
 51
291.9744367952526
  0
ARC
  5
AD92
330
1F
100
AcDbEntity
  8
freecads.com
100
AcDbCircle
 10
10758.92450614836
 20
29288.3201425936
 30
0.0
 40
4.495511362001367
100
AcDbArc
 50
269.9999630266611
 51
278.6999273191274
  0
ARC
  5
AD93
330
1F
100
AcDbEntity
  8
freecads.com
100
AcDbCircle
 10
10758.92450034639
 20
29288.3201425936
 30
0.0
 40
4.495511362001392
100
AcDbArc
 50
261.3000726808726
 51
270.0000369733389
  0
ARC
  5
AD94
330
1F
100
AcDbEntity
  8
freecads.com
100
AcDbCircle
 10
10758.63125709337
 20
29286.40378434062
 30
0.0
 40
2.556846729005505
100
AcDbArc
 50
248.0255632047474
 51
261.3001107971714
  0
ARC
  5
AD95
330
1F
100
AcDbEntity
  8
freecads.com
100
AcDbCircle
 10
10757.82938987135
 20
29284.41654001869
 30
0.0
 40
0.4139209167672457
100
AcDbArc
 50
208.3523270572274
 51
248.0255089804421
  0
ARC
  5
AD96
330
1F
100
AcDbEntity
  8
freecads.com
100
AcDbCircle
 10
10757.57114788423
 20
29284.27718705188
 30
0.0
 40
0.1204789748518833
100
AcDbArc
 50
111.9745711799053
 51
208.3524907503041
  0
ARC
  5
AD97
330
1F
100
AcDbEntity
  8
freecads.com
100
AcDbCircle
 10
10758.14952381587
 20
29282.84382104624
 30
0.0
 40
1.666136383341363
100
AcDbArc
 50
94.00816205348032
 51
111.974518141049
  0
ARC
  5
AD98
330
1F
100
AcDbEntity
  8
freecads.com
100
AcDbCircle
 10
10758.92450471357
 20
29271.78396740793
 30
0.0
 40
12.75310882367034
100
AcDbArc
 50
90.00000658714716
 51
94.00823978526714
  0
ARC
  5
AD99
330
1F
100
AcDbEntity
  8
freecads.com
100
AcDbCircle
 10
10758.92450178118
 20
29271.78396740793
 30
0.0
 40
12.75310882367032
100
AcDbArc
 50
85.99176021473287
 51
89.99999341285285
  0
ARC
  5
AD9A
330
1F
100
AcDbEntity
  8
freecads.com
100
AcDbCircle
 10
10759.69948267887
 20
29282.84382104624
 30
0.0
 40
1.666136383341309
100
AcDbArc
 50
68.025481858951
 51
85.99183794651969
  0
ARC
  5
AD9B
330
1F
100
AcDbEntity
  8
freecads.com
100
AcDbCircle
 10
10760.27785861052
 20
29284.27718705188
 30
0.0
 40
0.12047897485179
100
AcDbArc
 50
331.6475092496959
 51
68.0254288200947
  0
ARC
  5
AD9C
330
1F
100
AcDbEntity
  8
freecads.com
100
AcDbCircle
 10
10760.0196166234
 20
29284.41654001869
 30
0.0
 40
0.4139209167673093
100
AcDbArc
 50
291.9744910195579
 51
331.6476729427726
  0
LINE
  5
AD9D
330
1F
100
AcDbEntity
  8
freecads.com
100
AcDbLine
 10
10734.93215324737
 20
29272.3343942316
 30
0.0
 11
10731.69941824738
 21
29269.1949712316
 31
0.0
  0
LINE
  5
AD9E
330
1F
100
AcDbEntity
  8
freecads.com
100
AcDbLine
 10
10731.69941824738
 20
29269.1949712316
 30
0.0
 11
10734.52273024738
 21
29273.5626612316
 31
0.0
  0
ARC
  5
AD9F
330
1F
100
AcDbEntity
  8
freecads.com
100
AcDbCircle
 10
10756.74585503542
 20
29259.19744023365
 30
0.0
 40
26.46179981907756
100
AcDbArc
 50
142.9164414064408
 51
147.1210214761498
  0
ARC
  5
ADA0
330
1F
100
AcDbEntity
  8
freecads.com
100
AcDbCircle
 10
10743.53760895176
 20
29269.18079571649
 30
0.0
 40
9.905074560043757
100
AcDbArc
 50
134.1610686411391
 51
142.9164148548968
  0
ARC
  5
ADA1
330
1F
100
AcDbEntity
  8
freecads.com
100
AcDbCircle
 10
10739.12611531844
 20
29273.7234018959
 30
0.0
 40
3.572891131080558
100
AcDbArc
 50
119.1132094937652
 51
134.161025805403
  0
ARC
  5
ADA2
330
1F
100
AcDbEntity
  8
freecads.com
100
AcDbCircle
 10
10737.51241957866
 20
29276.62106909335
 30
0.0
 40
0.2561926027590376
100
AcDbArc
 50
18.43493086173809
 51
119.1132602610399
  0
ARC
  5
ADA3
330
1F
100
AcDbEntity
  8
freecads.com
100
AcDbCircle
 10
10736.89939466102
 20
29276.41672775658
 30
0.0
 40
0.9023775078421614
100
AcDbArc
 50
334.8867820531162
 51
18.43492550550319
  0
ARC
  5
ADA4
330
1F
100
AcDbEntity
  8
freecads.com
100
AcDbCircle
 10
10729.14506882737
 20
29280.05131235446
 30
0.0
 40
9.466241958743077
100
AcDbArc
 50
327.1210734424233
 51
334.8867202460573
  0
ARC
  5
ADA5
330
1F
100
AcDbEntity
  8
freecads.com
100
AcDbCircle
 10
10726.71619165374
 20
29281.62135887652
 30
0.0
 40
12.35838483316118
100
AcDbArc
 50
319.6898861151829
 51
327.1210643636123
  0
ARC
  5
ADA6
330
1F
100
AcDbEntity
  8
freecads.com
100
AcDbCircle
 10
10722.15730486312
 20
29285.48893026839
 30
0.0
 40
18.33680914401078
100
AcDbArc
 50
314.161069734963
 51
319.6899563685076
  0
ARC
  5
ADA7
330
1F
100
AcDbEntity
  8
freecads.com
100
AcDbCircle
 10
10734.55295951559
 20
29276.25398818468
 30
0.0
 40
0.371543731786008
100
AcDbArc
 50
325.4471657663158
 51
0.0000072356065875
  0
ARC
  5
ADA8
330
1F
100
AcDbEntity
  8
freecads.com
100
AcDbCircle
 10
10732.91177296567
 20
29277.38417694632
 30
0.0
 40
2.364235360860767
100
AcDbArc
 50
316.6418743270772
 51
325.4471091646396
  0
ARC
  5
ADA9
330
1F
100
AcDbEntity
  8
freecads.com
100
AcDbCircle
 10
10732.38799393083
 20
29277.87877768846
 30
0.0
 40
3.084634119459348
100
AcDbArc
 50
308.4775373844676
 51
316.6417101664304
  0
ARC
  5
ADAA
330
1F
100
AcDbEntity
  8
freecads.com
100
AcDbCircle
 10
10731.83865055401
 20
29278.56994254102
 30
0.0
 40
3.967519728732279
100
AcDbArc
 50
301.7175445934801
 51
308.4776312935117
  0
ARC
  5
ADAB
330
1F
100
AcDbEntity
  8
freecads.com
100
AcDbCircle
 10
10733.26293442284
 20
29276.26541464669
 30
0.0
 40
1.25838087020242
100
AcDbArc
 50
282.8315857788471
 51
301.7174128665152
  0
ARC
  5
ADAC
330
1F
100
AcDbEntity
  8
freecads.com
100
AcDbCircle
 10
10733.42732628255
 20
29275.54367880521
 30
0.0
 40
0.5181597489062248
100
AcDbArc
 50
246.2033710573834
 51
282.8316898867425
  0
ARC
  5
ADAD
330
1F
100
AcDbEntity
  8
freecads.com
100
AcDbCircle
 10
10733.39084121514
 20
29275.46094326227
 30
0.0
 40
0.4277366865361249
100
AcDbArc
 50
204.8764573835811
 51
246.2033906280438
  0
ARC
  5
ADAE
330
1F
100
AcDbEntity
  8
freecads.com
100
AcDbCircle
 10
10733.76827842932
 20
29275.6359552019
 30
0.0
 40
0.8437751819461402
100
AcDbArc
 50
180.00006588773
 51
204.8764503504311
  0
ARC
  5
ADAF
330
1F
100
AcDbEntity
  8
freecads.com
100
AcDbCircle
 10
10734.03597362748
 20
29275.63595410379
 30
0.0
 40
1.111470380104499
100
AcDbArc
 50
158.6716608234218
 51
179.9999934113937
  0
ARC
  5
ADB0
330
1F
100
AcDbEntity
  8
freecads.com
100
AcDbCircle
 10
10733.99224649734
 20
29275.65302482511
 30
0.0
 40
1.064529231527117
100
AcDbArc
 50
136.6417898499105
 51
158.6715257186507
  0
ARC
  5
ADB1
330
1F
100
AcDbEntity
  8
freecads.com
100
AcDbCircle
 10
10733.95478803764
 20
29275.68839341299
 30
0.0
 40
1.013011533505141
100
AcDbArc
 50
113.9883535374672
 51
136.6416911956765
  0
ARC
  5
ADB2
330
1F
100
AcDbEntity
  8
freecads.com
100
AcDbCircle
 10
10733.92450368541
 20
29275.75645279357
 30
0.0
 40
0.9385184380307078
100
AcDbArc
 50
90.00002674149961
 51
113.9884127199898
  0
ARC
  5
ADB3
330
1F
100
AcDbEntity
  8
freecads.com
100
AcDbCircle
 10
10733.92450146152
 20
29274.4129968422
 30
0.0
 40
2.281974389396299
100
AcDbArc
 50
80.34171220891481
 51
89.99995516083362
  0
ARC
  5
ADB4
330
1F
100
AcDbEntity
  8
freecads.com
100
AcDbCircle
 10
10734.07717670477
 20
29275.31011022369
 30
0.0
 40
1.37196221961834
100
AcDbArc
 50
66.20330262246965
 51
80.34175157649556
  0
ARC
  5
ADB5
330
1F
100
AcDbEntity
  8
freecads.com
100
AcDbCircle
 10
10734.30326941511
 20
29275.8228124553
 30
0.0
 40
0.8116217053134013
100
AcDbArc
 50
47.64822182555514
 51
66.20326281461951
  0
ARC
  5
ADB6
330
1F
100
AcDbEntity
  8
freecads.com
100
AcDbCircle
 10
10734.6963222731
 20
29276.25398821699
 30
0.0
 40
0.2281809742736201
100
AcDbArc
 50
0.0000036689755179
 51
47.64826639788104
  0
ARC
  5
ADB7
330
1F
100
AcDbEntity
  8
freecads.com
100
AcDbCircle
 10
10757.51207243745
 20
29274.55462380591
 30
0.0
 40
1.736529211850032
100
AcDbArc
 50
268.9772772762716
 51
288.4350203512008
  0
ARC
  5
ADB8
330
1F
100
AcDbEntity
  8
freecads.com
100
AcDbCircle
 10
10757.53092114085
 20
29275.61029817846
 30
0.0
 40
2.792371839553573
100
AcDbArc
 50
255.3450018849481
 51
268.977214865086
  0
ARC
  5
ADB9
330
1F
100
AcDbEntity
  8
freecads.com
100
AcDbCircle
 10
10757.55807504956
 20
29275.71412773377
 30
0.0
 40
2.899693371927032
100
AcDbArc
 50
241.9516460706119
 51
255.3449659353365
  0
ARC
  5
ADBA
330
1F
100
AcDbEntity
  8
freecads.com
100
AcDbCircle
 10
10757.19033449022
 20
29275.02390378509
 30
0.0
 40
2.117617788434022
100
AcDbArc
 50
225.0000250753006
 51
241.951513620264
  0
ARC
  5
ADBB
330
1F
100
AcDbEntity
  8
freecads.com
100
AcDbCircle
 10
10757.10526499159
 20
29274.93883556283
 30
0.0
 40
1.997312252267434
100
AcDbArc
 50
209.1601210580734
 51
225.0000524760458
  0
ARC
  5
ADBC
330
1F
100
AcDbEntity
  8
freecads.com
100
AcDbCircle
 10
10755.49542278863
 20
29274.0405945824
 30
0.0
 40
0.1538294676034106
100
AcDbArc
 50
108.4347102624088
 51
209.1599673140684
  0
ARC
  5
ADBD
330
1F
100
AcDbEntity
  8
freecads.com
100
AcDbCircle
 10
10755.73733634819
 20
29273.31485778149
 30
0.0
 40
0.9188236339081871
100
AcDbArc
 50
78.53805581763968
 51
108.4349853495306
  0
ARC
  5
ADBE
330
1F
100
AcDbEntity
  8
freecads.com
100
AcDbCircle
 10
10751.94872450413
 20
29254.62983224063
 30
0.0
 40
19.98407367599906
100
AcDbArc
 50
75.34498947207371
 51
78.53799124905442
  0
ARC
  5
ADBF
330
1F
100
AcDbEntity
  8
freecads.com
100
AcDbCircle
 10
10754.80244846013
 20
29265.54246543358
 30
0.0
 40
8.704476891503189
100
AcDbArc
 50
69.4036334469197
 51
75.34502034330805
  0
ARC
  5
ADC0
330
1F
100
AcDbEntity
  8
freecads.com
100
AcDbCircle
 10
10757.41273616949
 20
29272.48836458866
 30
0.0
 40
1.284293807631541
100
AcDbArc
 50
44.99998627925075
 51
69.40357315010229
  0
ARC
  5
ADC1
330
1F
100
AcDbEntity
  8
freecads.com
100
AcDbCircle
 10
10758.17042513105
 20
29273.24605366955
 30
0.0
 40
0.2127597177531361
100
AcDbArc
 50
327.2061663918351
 51
44.99989445488499
  0
ARC
  5
ADC2
330
1F
100
AcDbEntity
  8
freecads.com
100
AcDbCircle
 10
10757.88750135253
 20
29273.42834115981
 30
0.0
 40
0.5493226294916287
100
AcDbArc
 50
288.4350397358144
 51
327.2062847720866
  0
ARC
  5
ADC3
330
1F
100
AcDbEntity
  8
freecads.com
100
AcDbCircle
 10
10693.69582421772
 20
29286.92467853552
 30
0.0
 40
31.63895155631031
100
AcDbArc
 50
327.7422986543624
 51
329.8216200294847
  0
ARC
  5
ADC4
330
1F
100
AcDbEntity
  8
freecads.com
100
AcDbCircle
 10
10720.09118375253
 20
29270.26548614885
 30
0.0
 40
0.4260744709146159
100
AcDbArc
 50
282.4825216813857
 51
327.7423047492072
  0
ARC
  5
ADC5
330
1F
100
AcDbEntity
  8
freecads.com
100
AcDbCircle
 10
10720.15162918897
 20
29269.99243814472
 30
0.0
 40
0.1464159946533413
100
AcDbArc
 50
186.2023932525764
 51
282.4826998763788
  0
ARC
  5
ADC6
330
1F
100
AcDbEntity
  8
freecads.com
100
AcDbCircle
 10
10728.97725250686
 20
29270.9515729006
 30
0.0
 40
9.024003866886026
100
AcDbArc
 50
181.1001960667146
 51
186.2023443126896
  0
ARC
  5
ADC7
330
1F
100
AcDbEntity
  8
freecads.com
100
AcDbCircle
 10
10724.26273805384
 20
29270.8610376301
 30
0.0
 40
4.308620196083869
100
AcDbArc
 50
165.4459958017889
 51
181.1002515165709
  0
ARC
  5
ADC8
330
1F
100
AcDbEntity
  8
freecads.com
100
AcDbCircle
 10
10723.06287569272
 20
29271.17255045631
 30
0.0
 40
3.068979148629081
100
AcDbArc
 50
145.2594382009198
 51
165.4460040161407
  0
ARC
  5
ADC9
330
1F
100
AcDbEntity
  8
freecads.com
100
AcDbCircle
 10
10721.59769887023
 20
29272.18861993246
 30
0.0
 40
1.285964762399083
100
AcDbArc
 50
111.418756871782
 51
145.2593508822537
  0
ARC
  5
ADCA
330
1F
100
AcDbEntity
  8
freecads.com
100
AcDbCircle
 10
10721.31701414285
 20
29272.90415440013
 30
0.0
 40
0.5173468530248825
100
AcDbArc
 50
45.00005692781114
 51
111.4188000184639
  0
ARC
  5
ADCB
330
1F
100
AcDbEntity
  8
freecads.com
100
AcDbCircle
 10
10721.44168327488
 20
29273.02882377699
 30
0.0
 40
0.3410379025712462
100
AcDbArc
 50
353.5765994145815
 51
45.00005727380898
  0
ARC
  5
ADCC
330
1F
100
AcDbEntity
  8
freecads.com
100
AcDbCircle
 10
10718.32654718653
 20
29273.37954006934
 30
0.0
 40
3.475854446913914
100
AcDbArc
 50
344.2101357542879
 51
353.5764445733715
  0
ARC
  5
ADCD
330
1F
100
AcDbEntity
  8
freecads.com
100
AcDbCircle
 10
10716.92938841836
 20
29273.77463647407
 30
0.0
 40
4.927802721632796
100
AcDbArc
 50
335.740782793851
 51
344.2100545019441
  0
ARC
  5
ADCE
330
1F
100
AcDbEntity
  8
freecads.com
100
AcDbCircle
 10
10714.17443782679
 20
29275.01617588315
 30
0.0
 40
7.949585782384763
100
AcDbArc
 50
329.8216676588824
 51
335.740838674332
  0
ARC
  5
ADCF
330
1F
100
AcDbEntity
  8
freecads.com
100
AcDbCircle
 10
10718.65683577942
 20
29269.65463838861
 30
0.0
 40
7.807341702834804
100
AcDbArc
 50
333.2968931786223
 51
345.3449397245495
  0
ARC
  5
ADD0
330
1F
100
AcDbEntity
  8
freecads.com
100
AcDbCircle
 10
10723.13924976016
 20
29267.39991941034
 30
0.0
 40
2.789793221185598
100
AcDbArc
 50
307.3351765601895
 51
333.2968026043427
  0
ARC
  5
ADD1
330
1F
100
AcDbEntity
  8
freecads.com
100
AcDbCircle
 10
10724.55132242455
 20
29265.54866782171
 30
0.0
 40
0.4614715823405775
100
AcDbArc
 50
226.2390755873166
 51
307.3351885588146
  0
ARC
  5
ADD2
330
1F
100
AcDbEntity
  8
freecads.com
100
AcDbCircle
 10
10724.92220956574
 20
29265.93595378921
 30
0.0
 40
0.9977063183652814
100
AcDbArc
 50
179.9999745946061
 51
226.2390779025392
  0
ARC
  5
ADD3
330
1F
100
AcDbEntity
  8
freecads.com
100
AcDbCircle
 10
10726.11090737607
 20
29265.93595503233
 30
0.0
 40
2.186404128695504
100
AcDbArc
 50
153.4021429211065
 51
180.00002098353
  0
ARC
  5
ADD4
330
1F
100
AcDbEntity
  8
freecads.com
100
AcDbCircle
 10
10733.8149408255
 20
29262.0784219038
 30
0.0
 40
10.80224379918886
100
AcDbArc
 50
145.2638306196859
 51
153.4021384556111
  0
ARC
  5
ADD5
330
1F
100
AcDbEntity
  8
freecads.com
100
AcDbCircle
 10
10734.368108884
 20
29261.69488044889
 30
0.0
 40
11.47537004926798
100
AcDbArc
 50
137.8281027614907
 51
145.2638598518166
  0
ARC
  5
ADD6
330
1F
100
AcDbEntity
  8
freecads.com
100
AcDbCircle
 10
10726.53088372754
 20
29268.79424259905
 30
0.0
 40
0.9007286325484841
100
AcDbArc
 50
90.00003054335618
 51
137.8281867999762
  0
ARC
  5
ADD7
330
1F
100
AcDbEntity
  8
freecads.com
100
AcDbCircle
 10
10726.53088323305
 20
29269.63104906871
 30
0.0
 40
0.063922162889641
100
AcDbArc
 50
353.1736414029955
 51
89.9999871571266
  0
ARC
  5
ADD8
330
1F
100
AcDbEntity
  8
freecads.com
100
AcDbCircle
 10
10713.09012838178
 20
29271.24004109181
 30
0.0
 40
13.6006406094797
100
AcDbArc
 50
350.959311928111
 51
353.1736103116645
  0
ARC
  5
ADD9
330
1F
100
AcDbEntity
  8
freecads.com
100
AcDbCircle
 10
10715.96886489844
 20
29270.78200002735
 30
0.0
 40
10.68569197372299
100
AcDbArc
 50
347.4077065810476
 51
350.9593022124739
  0
ARC
  5
ADDA
330
1F
100
AcDbEntity
  8
freecads.com
100
AcDbCircle
 10
10704.83564241605
 20
29273.26897282012
 30
0.0
 40
22.09330682145775
100
AcDbArc
 50
345.3449483748742
 51
347.4077699129713
  0
ARC
  5
ADDB
330
1F
100
AcDbEntity
  8
freecads.com
100
AcDbCircle
 10
10705.22196138341
 20
29263.72772267344
 30
0.0
 40
1.435630602644021
100
AcDbArc
 50
330.2129496937815
 51
349.1153936975139
  0
ARC
  5
ADDC
330
1F
100
AcDbEntity
  8
freecads.com
100
AcDbCircle
 10
10706.39734762674
 20
29263.05492506272
 30
0.0
 40
0.0813080982267187
100
AcDbArc
 50
194.670318597598
 51
330.2131353908101
  0
ARC
  5
ADDD
330
1F
100
AcDbEntity
  8
freecads.com
100
AcDbCircle
 10
10709.6480607166
 20
29263.90592341668
 30
0.0
 40
3.441566092935715
100
AcDbArc
 50
182.3288909741926
 51
194.6701477081258
  0
ARC
  5
ADDE
330
1F
100
AcDbEntity
  8
freecads.com
100
AcDbCircle
 10
10746.3229070275
 20
29265.39750945589
 30
0.0
 40
40.14673168090963
100
AcDbArc
 50
180.289055526567
 51
182.3289605892361
  0
ARC
  5
ADDF
330
1F
100
AcDbEntity
  8
freecads.com
100
AcDbCircle
 10
10742.9456489947
 20
29265.38044826158
 30
0.0
 40
36.76943055369313
100
AcDbArc
 50
178.0472221126363
 51
180.2890198712668
  0
ARC
  5
ADE0
330
1F
100
AcDbEntity
  8
freecads.com
100
AcDbCircle
 10
10711.85443690997
 20
29266.4405226318
 30
0.0
 40
5.660151767966425
100
AcDbArc
 50
169.115445096363
 51
178.0472285127749
  0
ARC
  5
ADE1
330
1F
100
AcDbEntity
  8
freecads.com
100
AcDbCircle
 10
10706.4225651176
 20
29267.48501800743
 30
0.0
 40
0.1287684185253694
100
AcDbArc
 50
78.4796406150664
 51
169.1155404817277
  0
ARC
  5
ADE2
330
1F
100
AcDbEntity
  8
freecads.com
100
AcDbCircle
 10
10706.4057980359
 20
29267.40275789173
 30
0.0
 40
0.2127199620717292
100
AcDbArc
 50
14.67019520932584
 51
78.47947442021683
  0
ARC
  5
ADE3
330
1F
100
AcDbEntity
  8
freecads.com
100
AcDbCircle
 10
10701.76121586441
 20
29266.18685298047
 30
0.0
 40
5.013820700542826
100
AcDbArc
 50
5.061408147321371
 51
14.67023496113589
  0
ARC
  5
ADE4
330
1F
100
AcDbEntity
  8
freecads.com
100
AcDbCircle
 10
10694.00591515696
 20
29265.49998603207
 30
0.0
 40
12.79947900718108
100
AcDbArc
 50
0.289084522515054
 51
5.061362271115646
  0
ARC
  5
ADE5
330
1F
100
AcDbEntity
  8
freecads.com
100
AcDbCircle
 10
10693.20238715311
 20
29265.49592572209
 30
0.0
 40
13.60301726952965
100
AcDbArc
 50
355.5889942952882
 51
0.2891101887863785
  0
ARC
  5
ADE6
330
1F
100
AcDbEntity
  8
freecads.com
100
AcDbCircle
 10
10697.91837847141
 20
29265.13213205845
 30
0.0
 40
8.873015161293954
100
AcDbArc
 50
349.1154195721592
 51
355.5890371511393
  0
ARC
  5
ADE7
330
1F
100
AcDbEntity
  8
freecads.com
100
AcDbCircle
 10
10604.74149788091
 20
29251.00965253929
 30
0.0
 40
106.2055731721256
100
AcDbArc
 50
5.391002250557339
 51
6.588243968374019
  0
ARC
  5
ADE8
330
1F
100
AcDbEntity
  8
freecads.com
100
AcDbCircle
 10
10705.85063974483
 20
29260.55126450344
 30
0.0
 40
4.647210998774657
100
AcDbArc
 50
353.7863397258603
 51
5.390954022887614
  0
ARC
  5
ADE9
330
1F
100
AcDbEntity
  8
freecads.com
100
AcDbCircle
 10
10710.37459884214
 20
29260.05871441996
 30
0.0
 40
0.0965174803346622
100
AcDbArc
 50
211.017323003879
 51
353.786049410983
  0
ARC
  5
ADEA
330
1F
100
AcDbEntity
  8
freecads.com
100
AcDbCircle
 10
10713.32994515914
 20
29261.83571063956
 30
0.0
 40
3.544964582713908
100
AcDbArc
 50
198.771300794977
 51
211.0177199523822
  0
ARC
  5
ADEB
330
1F
100
AcDbEntity
  8
freecads.com
100
AcDbCircle
 10
10722.96660291373
 20
29265.11092035117
 30
0.0
 40
13.72298852323965
100
AcDbArc
 50
189.2181048072339
 51
198.7713373971942
  0
ARC
  5
ADEC
330
1F
100
AcDbEntity
  8
freecads.com
100
AcDbCircle
 10
10748.56363765918
 20
29269.26509433334
 30
0.0
 40
39.65492538173202
100
AcDbArc
 50
184.8889750952665
 51
189.2181875675544
  0
ARC
  5
ADED
330
1F
100
AcDbEntity
  8
freecads.com
100
AcDbCircle
 10
10746.18648720275
 20
29269.06178310606
 30
0.0
 40
37.26909643834133
100
AcDbArc
 50
180.9167459618253
 51
184.8890083167524
  0
ARC
  5
ADEE
330
1F
100
AcDbEntity
  8
freecads.com
100
AcDbCircle
 10
10709.13646499226
 20
29268.46892339702
 30
0.0
 40
0.214331178898819
100
AcDbArc
 50
41.74843493588385
 51
180.9167359126482
  0
ARC
  5
ADEF
330
1F
100
AcDbEntity
  8
freecads.com
100
AcDbCircle
 10
10708.76331472621
 20
29268.13589015835
 30
0.0
 40
0.7144834148311713
100
AcDbArc
 50
11.06905575022073
 51
41.74856684718291
  0
ARC
  5
ADF0
330
1F
100
AcDbEntity
  8
freecads.com
100
AcDbCircle
 10
10637.24724923258
 20
29254.1451768133
 30
0.0
 40
73.58620415472121
100
AcDbArc
 50
9.940968938690087
 51
11.06899913648324
  0
ARC
  5
ADF1
330
1F
100
AcDbEntity
  8
freecads.com
100
AcDbCircle
 10
10660.6784585148
 20
29258.25184237091
 30
0.0
 40
49.79783997328043
100
AcDbArc
 50
7.951940770715277
 51
9.940971112008393
  0
ARC
  5
ADF2
330
1F
100
AcDbEntity
  8
freecads.com
100
AcDbCircle
 10
10628.35873315704
 20
29253.7373025967
 30
0.0
 40
82.43134601494602
100
AcDbArc
 50
6.588276228984355
 51
7.951899689716589
  0
ARC
  5
ADF3
330
1F
100
AcDbEntity
  8
freecads.com
100
AcDbCircle
 10
10706.26343006911
 20
29268.47027850549
 30
0.0
 40
7.173838984264615
100
AcDbArc
 50
339.0703712242538
 51
345.3449827018993
  0
ARC
  5
ADF4
330
1F
100
AcDbEntity
  8
freecads.com
100
AcDbCircle
 10
10710.38258498162
 20
29266.89488661811
 30
0.0
 40
2.76370329563561
100
AcDbArc
 50
326.2798626865237
 51
339.0703401212281
  0
ARC
  5
ADF5
330
1F
100
AcDbEntity
  8
freecads.com
100
AcDbCircle
 10
10711.87931486821
 20
29265.89592822248
 30
0.0
 40
0.9642260855542637
100
AcDbArc
 50
303.080327143444
 51
326.2800331967582
  0
ARC
  5
ADF6
330
1F
100
AcDbEntity
  8
freecads.com
100
AcDbCircle
 10
10712.30469262686
 20
29265.24291096722
 30
0.0
 40
0.1848816346133536
100
AcDbArc
 50
224.9998589068669
 51
303.0801724831809
  0
ARC
  5
ADF7
330
1F
100
AcDbEntity
  8
freecads.com
100
AcDbCircle
 10
10712.71488676696
 20
29265.65310476003
 30
0.0
 40
0.7649835051852207
100
AcDbArc
 50
171.4770751094532
 51
224.9999475072991
  0
ARC
  5
ADF8
330
1F
100
AcDbEntity
  8
freecads.com
100
AcDbCircle
 10
10720.70519299192
 20
29264.45567294627
 30
0.0
 40
8.844515454323985
100
AcDbArc
 50
162.5599121714166
 51
171.4770500984013
  0
ARC
  5
ADF9
330
1F
100
AcDbEntity
  8
freecads.com
100
AcDbCircle
 10
10720.68271280833
 20
29264.46271324809
 30
0.0
 40
8.820958627949046
100
AcDbArc
 50
153.7222750410936
 51
162.5597768469315
  0
ARC
  5
ADFA
330
1F
100
AcDbEntity
  8
freecads.com
100
AcDbCircle
 10
10713.29949957214
 20
29268.10815306636
 30
0.0
 40
0.5868181652375381
100
AcDbArc
 50
90.00003170947838
 51
153.7222222201364
  0
ARC
  5
ADFB
330
1F
100
AcDbEntity
  8
freecads.com
100
AcDbCircle
 10
10713.2994987111
 20
29268.55652323336
 30
0.0
 40
0.1384479982467764
100
AcDbArc
 50
6.263571031072334
 51
89.99977806658492
  0
ARC
  5
ADFC
330
1F
100
AcDbEntity
  8
freecads.com
100
AcDbCircle
 10
10710.40399107171
 20
29268.23870661674
 30
0.0
 40
3.051345506153338
100
AcDbArc
 50
357.3160096898086
 51
6.263811526511535
  0
ARC
  5
ADFD
330
1F
100
AcDbEntity
  8
freecads.com
100
AcDbCircle
 10
10708.47466777818
 20
29268.32916396529
 30
0.0
 40
4.982788205992098
100
AcDbArc
 50
349.6916884514396
 51
357.3158596986169
  0
ARC
  5
ADFE
330
1F
100
AcDbEntity
  8
freecads.com
100
AcDbCircle
 10
10702.98455043226
 20
29269.32771254517
 30
0.0
 40
10.56297527618736
100
AcDbArc
 50
345.3450513863085
 51
349.6916755360142
  0
LINE
  5
ADFF
330
1F
100
AcDbEntity
  8
freecads.com
100
AcDbLine
 10
10719.99104124737
 20
29258.6119102316
 30
0.0
 11
10718.05812324738
 21
29251.1949712316
 31
0.0
  0
LINE
  5
AE00
330
1F
100
AcDbEntity
  8
freecads.com
100
AcDbLine
 10
10718.05812324738
 20
29251.1949712316
 30
0.0
 11
10718.62820724738
 21
29257.1949712316
 31
0.0
  0
ARC
  5
AE01
330
1F
100
AcDbEntity
  8
freecads.com
100
AcDbCircle
 10
10771.66908173386
 20
29252.15530779514
 30
0.0
 40
53.27975763686964
100
AcDbArc
 50
171.9389247770086
 51
174.5723520819312
  0
ARC
  5
AE02
330
1F
100
AcDbEntity
  8
freecads.com
100
AcDbCircle
 10
10765.81479405997
 20
29252.98443362376
 30
0.0
 40
47.36704812191201
100
AcDbArc
 50
169.062592115913
 51
171.9389184032887
  0
ARC
  5
AE03
330
1F
100
AcDbEntity
  8
freecads.com
100
AcDbCircle
 10
10760.64239585798
 20
29253.98404145198
 30
0.0
 40
42.09894419673067
100
AcDbArc
 50
166.2977097868259
 51
169.0626699514753
  0
ARC
  5
AE04
330
1F
100
AcDbEntity
  8
freecads.com
100
AcDbCircle
 10
10724.47505459777
 20
29262.80221624598
 30
0.0
 40
4.872115423252719
100
AcDbArc
 50
152.7819222876085
 51
166.2976614178487
  0
ARC
  5
AE05
330
1F
100
AcDbEntity
  8
freecads.com
100
AcDbCircle
 10
10723.30279720815
 20
29263.40514713799
 30
0.0
 40
3.553891979353446
100
AcDbArc
 50
130.1055045850339
 51
152.7819910396152
  0
ARC
  5
AE06
330
1F
100
AcDbEntity
  8
freecads.com
100
AcDbCircle
 10
10721.19172371438
 20
29265.91163886369
 30
0.0
 40
0.2768304805296458
100
AcDbArc
 50
358.6490536595488
 51
130.105523542181
  0
ARC
  5
AE07
330
1F
100
AcDbEntity
  8
freecads.com
100
AcDbCircle
 10
10708.81366071217
 20
29266.20355951424
 30
0.0
 40
12.6583352902408
100
AcDbArc
 50
347.2224734566642
 51
358.6490044744754
  0
ARC
  5
AE08
330
1F
100
AcDbEntity
  8
freecads.com
100
AcDbCircle
 10
10570.49489552977
 20
29297.5718199891
 30
0.0
 40
154.4893917158436
100
AcDbArc
 50
345.3931520565239
 51
347.2224528557333
  0
ARC
  5
AE09
330
1F
100
AcDbEntity
  8
freecads.com
100
AcDbCircle
 10
10699.77355133294
 20
29261.53998332664
 30
0.0
 40
0.1509519144324558
100
AcDbArc
 50
262.828771383415
 51
359.9999639257706
  0
ARC
  5
AE0A
330
1F
100
AcDbEntity
  8
freecads.com
100
AcDbCircle
 10
10699.893659267
 20
29262.4946077434
 30
0.0
 40
1.11310247068159
100
AcDbArc
 50
239.9937717416154
 51
262.8288830213033
  0
ARC
  5
AE0B
330
1F
100
AcDbEntity
  8
freecads.com
100
AcDbCircle
 10
10701.50519647406
 20
29265.28517448239
 30
0.0
 40
4.335572780012216
100
AcDbArc
 50
229.5637698056451
 51
239.9937916068625
  0
ARC
  5
AE0C
330
1F
100
AcDbEntity
  8
freecads.com
100
AcDbCircle
 10
10707.21425469577
 20
29271.9847432343
 30
0.0
 40
13.13770702348581
100
AcDbArc
 50
225.0000633855533
 51
229.5638710215356
  0
ARC
  5
AE0D
330
1F
100
AcDbEntity
  8
freecads.com
100
AcDbCircle
 10
10710.9680510736
 20
29275.73850721893
 30
0.0
 40
18.44635386595221
100
AcDbArc
 50
221.5283444968866
 51
224.9999739979115
  0
ARC
  5
AE0E
330
1F
100
AcDbEntity
  8
freecads.com
100
AcDbCircle
 10
10706.81931430008
 20
29272.06435235476
 30
0.0
 40
12.90456437320957
100
AcDbArc
 50
216.9906463594442
 51
221.5283374197224
  0
ARC
  5
AE0F
330
1F
100
AcDbEntity
  8
freecads.com
100
AcDbCircle
 10
10705.9500729672
 20
29271.40955674941
 30
0.0
 40
11.81629153077293
100
AcDbArc
 50
212.9267477011512
 51
216.9906551265894
  0
ARC
  5
AE10
330
1F
100
AcDbEntity
  8
freecads.com
100
AcDbCircle
 10
10696.59294137069
 20
29265.34995908291
 30
0.0
 40
0.6684381233117724
100
AcDbArc
 50
179.9999872546769
 51
212.9267862033981
  0
ARC
  5
AE11
330
1F
100
AcDbEntity
  8
freecads.com
100
AcDbCircle
 10
10696.04309465304
 20
29265.34995889003
 30
0.0
 40
0.1185914056632472
100
AcDbArc
 50
74.49828547024303
 51
179.9998349744754
  0
ARC
  5
AE12
330
1F
100
AcDbEntity
  8
freecads.com
100
AcDbCircle
 10
10695.57291425134
 20
29263.65471606175
 30
0.0
 40
1.877829268196376
100
AcDbArc
 50
59.99385670965831
 51
74.49848168105567
  0
ARC
  5
AE13
330
1F
100
AcDbEntity
  8
freecads.com
100
AcDbCircle
 10
10693.80575725597
 20
29260.59466911779
 30
0.0
 40
5.411486176486886
100
AcDbArc
 50
51.74521847403808
 51
59.99385144203895
  0
ARC
  5
AE14
330
1F
100
AcDbEntity
  8
freecads.com
100
AcDbCircle
 10
10687.98278866163
 20
29253.2095071967
 30
0.0
 40
14.81614352544046
100
AcDbArc
 50
47.85527859050576
 51
51.74528841194277
  0
ARC
  5
AE15
330
1F
100
AcDbEntity
  8
freecads.com
100
AcDbCircle
 10
10689.48593020471
 20
29254.87044290571
 30
0.0
 40
12.57602256267162
100
AcDbArc
 50
42.9549932922039
 51
47.85532735877916
  0
ARC
  5
AE16
330
1F
100
AcDbEntity
  8
freecads.com
100
AcDbCircle
 10
10691.60805062328
 20
29256.84622151806
 30
0.0
 40
9.676523261793343
100
AcDbArc
 50
36.99077485024587
 51
42.95506459998628
  0
ARC
  5
AE17
330
1F
100
AcDbEntity
  8
freecads.com
100
AcDbCircle
 10
10692.94488490867
 20
29257.85326369001
 30
0.0
 40
8.00282680106879
100
AcDbArc
 50
31.02280517059845
 51
36.99075936564226
  0
ARC
  5
AE18
330
1F
100
AcDbEntity
  8
freecads.com
100
AcDbCircle
 10
10699.07509189254
 20
29261.53998511713
 30
0.0
 40
0.8494113548420408
100
AcDbArc
 50
359.9998728139902
 51
31.02281798599716
  0
ARC
  5
AE19
330
1F
100
AcDbEntity
  8
freecads.com
100
AcDbCircle
 10
10704.66567859153
 20
29261.26066008126
 30
0.0
 40
0.2271240386518396
100
AcDbArc
 50
288.8632670084533
 51
358.2795743466574
  0
ARC
  5
AE1A
330
1F
100
AcDbEntity
  8
freecads.com
100
AcDbCircle
 10
10704.62223132146
 20
29261.38782309941
 30
0.0
 40
0.3615044630473915
100
AcDbArc
 50
239.5372067206077
 51
288.8633719964255
  0
ARC
  5
AE1B
330
1F
100
AcDbEntity
  8
freecads.com
100
AcDbCircle
 10
10705.51828167195
 20
29262.91127065346
 30
0.0
 40
2.12893159889596
100
AcDbArc
 50
222.9579005197559
 51
239.5371323082411
  0
ARC
  5
AE1C
330
1F
100
AcDbEntity
  8
freecads.com
100
AcDbCircle
 10
10710.28181030636
 20
29267.34676423714
 30
0.0
 40
8.637757021481842
100
AcDbArc
 50
217.1024864846922
 51
222.9577575943669
  0
ARC
  5
AE1D
330
1F
100
AcDbEntity
  8
freecads.com
100
AcDbCircle
 10
10711.44385913623
 20
29268.2256982526
 30
0.0
 40
10.09476851303193
100
AcDbArc
 50
211.4613854100978
 51
217.1025050925046
  0
ARC
  5
AE1E
330
1F
100
AcDbEntity
  8
freecads.com
100
AcDbCircle
 10
10710.98738835738
 20
29267.94638407347
 30
0.0
 40
9.559621820521583
100
AcDbArc
 50
205.584984383389
 51
211.4613265308109
  0
ARC
  5
AE1F
330
1F
100
AcDbEntity
  8
freecads.com
100
AcDbCircle
 10
10709.59472071394
 20
29267.27957376027
 30
0.0
 40
8.015549555746328
100
AcDbArc
 50
199.5288264735354
 51
205.5849554633474
  0
ARC
  5
AE20
330
1F
100
AcDbEntity
  8
freecads.com
100
AcDbCircle
 10
10703.42687123891
 20
29265.09193224344
 30
0.0
 40
1.471228158322889
100
AcDbArc
 50
178.2796163161695
 51
199.5288793778758
  0
ARC
  5
AE21
330
1F
100
AcDbEntity
  8
freecads.com
100
AcDbCircle
 10
10702.18332790322
 20
29265.12928238194
 30
0.0
 40
0.2271240386518396
100
AcDbArc
 50
108.8632670084534
 51
178.2795743466574
  0
ARC
  5
AE22
330
1F
100
AcDbEntity
  8
freecads.com
100
AcDbCircle
 10
10702.22677517329
 20
29265.00211936379
 30
0.0
 40
0.3615044630473915
100
AcDbArc
 50
59.53720672060772
 51
108.8633719964254
  0
ARC
  5
AE23
330
1F
100
AcDbEntity
  8
freecads.com
100
AcDbCircle
 10
10701.3307248228
 20
29263.47867180975
 30
0.0
 40
2.12893159889596
100
AcDbArc
 50
42.9579005197559
 51
59.53713230824114
  0
ARC
  5
AE24
330
1F
100
AcDbEntity
  8
freecads.com
100
AcDbCircle
 10
10696.56719618839
 20
29259.04317822606
 30
0.0
 40
8.637757021481842
100
AcDbArc
 50
37.10248648469216
 51
42.95775759436691
  0
ARC
  5
AE25
330
1F
100
AcDbEntity
  8
freecads.com
100
AcDbCircle
 10
10695.40514735852
 20
29258.1642442106
 30
0.0
 40
10.09476851303193
100
AcDbArc
 50
31.46138541009784
 51
37.10250509250459
  0
ARC
  5
AE26
330
1F
100
AcDbEntity
  8
freecads.com
100
AcDbCircle
 10
10695.86161813737
 20
29258.44355838973
 30
0.0
 40
9.559621820521583
100
AcDbArc
 50
25.58498438338901
 51
31.46132653081088
  0
ARC
  5
AE27
330
1F
100
AcDbEntity
  8
freecads.com
100
AcDbCircle
 10
10697.25428578081
 20
29259.11036870293
 30
0.0
 40
8.015549555746328
100
AcDbArc
 50
19.52882647353549
 51
25.58495546334736
  0
ARC
  5
AE28
330
1F
100
AcDbEntity
  8
freecads.com
100
AcDbCircle
 10
10703.42213525584
 20
29261.29801021976
 30
0.0
 40
1.471228158322889
100
AcDbArc
 50
358.2796163161696
 51
19.52887937787583
  0
ARC
  5
AE29
330
1F
100
AcDbEntity
  8
freecads.com
100
AcDbCircle
 10
10706.82580357118
 20
29262.10670625176
 30
0.0
 40
7.97224576744608
100
AcDbArc
 50
336.3231555397629
 51
342.3911937155977
  0
ARC
  5
AE2A
330
1F
100
AcDbEntity
  8
freecads.com
100
AcDbCircle
 10
10711.17739687468
 20
29260.19858753934
 30
0.0
 40
3.220690095902365
100
AcDbArc
 50
324.3813869713538
 51
336.3231550231438
  0
ARC
  5
AE2B
330
1F
100
AcDbEntity
  8
freecads.com
100
AcDbCircle
 10
10712.79667864031
 20
29259.03849917832
 30
0.0
 40
1.228736672271473
100
AcDbArc
 50
304.0975174906701
 51
324.3814109879445
  0
ARC
  5
AE2C
330
1F
100
AcDbEntity
  8
freecads.com
100
AcDbCircle
 10
10713.37777897408
 20
29258.18013779863
 30
0.0
 40
0.1921741531542472
100
AcDbArc
 50
224.9999663371728
 51
304.0974614141476
  0
ARC
  5
AE2D
330
1F
100
AcDbEntity
  8
freecads.com
100
AcDbCircle
 10
10713.6092002092
 20
29258.41155954503
 30
0.0
 40
0.5194535640190901
100
AcDbArc
 50
184.2740450820302
 51
225.0000274227063
  0
ARC
  5
AE2E
330
1F
100
AcDbEntity
  8
freecads.com
100
AcDbCircle
 10
10717.65980664213
 20
29258.71428235533
 30
0.0
 40
4.581356267714367
100
AcDbArc
 50
176.0590762173721
 51
184.2740627117932
  0
ARC
  5
AE2F
330
1F
100
AcDbEntity
  8
freecads.com
100
AcDbCircle
 10
10719.10318269356
 20
29258.61484733065
 30
0.0
 40
6.028153333641674
100
AcDbArc
 50
168.3234205718165
 51
176.0590787112218
  0
ARC
  5
AE30
330
1F
100
AcDbEntity
  8
freecads.com
100
AcDbCircle
 10
10721.61194259252
 20
29258.09637569541
 30
0.0
 40
8.589927927008073
100
AcDbArc
 50
162.3911829515837
 51
168.3234086735471
  0
ARC
  5
AE31
330
1F
100
AcDbEntity
  8
freecads.com
100
AcDbCircle
 10
10721.02320292357
 20
29258.28323621144
 30
0.0
 40
7.97224576744608
100
AcDbArc
 50
156.3231555397628
 51
162.3911937155977
  0
ARC
  5
AE32
330
1F
100
AcDbEntity
  8
freecads.com
100
AcDbCircle
 10
10716.67160962007
 20
29260.19135492386
 30
0.0
 40
3.220690095902365
100
AcDbArc
 50
144.3813869713538
 51
156.3231550231438
  0
ARC
  5
AE33
330
1F
100
AcDbEntity
  8
freecads.com
100
AcDbCircle
 10
10715.05232785443
 20
29261.35144328489
 30
0.0
 40
1.228736672271473
100
AcDbArc
 50
124.0975174906701
 51
144.3814109879444
  0
ARC
  5
AE34
330
1F
100
AcDbEntity
  8
freecads.com
100
AcDbCircle
 10
10714.47122752067
 20
29262.20980466458
 30
0.0
 40
0.1921741531542472
100
AcDbArc
 50
44.99996633717274
 51
124.0974614141476
  0
ARC
  5
AE35
330
1F
100
AcDbEntity
  8
freecads.com
100
AcDbCircle
 10
10714.23980628555
 20
29261.97838291817
 30
0.0
 40
0.5194535640190901
100
AcDbArc
 50
4.274045082030252
 51
45.00002742270629
  0
ARC
  5
AE36
330
1F
100
AcDbEntity
  8
freecads.com
100
AcDbCircle
 10
10710.18919985263
 20
29261.67566010788
 30
0.0
 40
4.581356267714367
100
AcDbArc
 50
356.0590762173721
 51
4.274062711793196
  0
ARC
  5
AE37
330
1F
100
AcDbEntity
  8
freecads.com
100
AcDbCircle
 10
10708.7458238012
 20
29261.77509513255
 30
0.0
 40
6.028153333641674
100
AcDbArc
 50
348.3234205718165
 51
356.0590787112218
  0
ARC
  5
AE38
330
1F
100
AcDbEntity
  8
freecads.com
100
AcDbCircle
 10
10706.23706390223
 20
29262.29356676779
 30
0.0
 40
8.589927927008073
100
AcDbArc
 50
342.3911829515838
 51
348.3234086735471
  0
ARC
  5
AE39
330
1F
100
AcDbEntity
  8
freecads.com
100
AcDbCircle
 10
10706.73630905769
 20
29251.19497139693
 30
0.0
 40
0.097819189680789
100
AcDbArc
 50
221.9947601009618
 51
359.9999031629753
  0
ARC
  5
AE3A
330
1F
100
AcDbEntity
  8
freecads.com
100
AcDbCircle
 10
10711.62633994026
 20
29255.59717872504
 30
0.0
 40
6.677472021869804
100
AcDbArc
 50
214.5460391414059
 51
221.9948458987776
  0
ARC
  5
AE3B
330
1F
100
AcDbEntity
  8
freecads.com
100
AcDbCircle
 10
10721.70809419173
 20
29262.53810986032
 30
0.0
 40
18.91750036381685
100
AcDbArc
 50
210.1538221567075
 51
214.5460371713908
  0
ARC
  5
AE3C
330
1F
100
AcDbEntity
  8
freecads.com
100
AcDbCircle
 10
10752.75954647267
 20
29280.57700867558
 30
0.0
 40
54.82842571005856
100
AcDbArc
 50
208.1677797845763
 51
210.1538309694419
  0
ARC
  5
AE3D
330
1F
100
AcDbEntity
  8
freecads.com
100
AcDbCircle
 10
10756.57242393863
 20
29282.61871509029
 30
0.0
 40
59.15353838535287
100
AcDbArc
 50
206.2115366387269
 51
208.1677962220958
  0
ARC
  5
AE3E
330
1F
100
AcDbEntity
  8
freecads.com
100
AcDbCircle
 10
10740.7107883443
 20
29274.80991674931
 30
0.0
 40
41.47392257354311
100
AcDbArc
 50
203.6588476012759
 51
206.211612776608
  0
ARC
  5
AE3F
330
1F
100
AcDbEntity
  8
freecads.com
100
AcDbCircle
 10
10742.32296118779
 20
29275.5162081568
 30
0.0
 40
43.23402166995594
100
AcDbArc
 50
201.6234986895527
 51
203.6588204519787
  0
ARC
  5
AE40
330
1F
100
AcDbEntity
  8
freecads.com
100
AcDbCircle
 10
10703.67225966256
 20
29260.19497170271
 30
0.0
 40
1.657381415184396
100
AcDbArc
 50
180.0000162863159
 51
201.6234512069102
  0
ARC
  5
AE41
330
1F
100
AcDbEntity
  8
freecads.com
100
AcDbCircle
 10
10702.11269743706
 20
29260.19497106628
 30
0.0
 40
0.097819189680789
100
AcDbArc
 50
41.99476010096179
 51
179.9999031629753
  0
ARC
  5
AE42
330
1F
100
AcDbEntity
  8
freecads.com
100
AcDbCircle
 10
10697.22266655449
 20
29255.79276373816
 30
0.0
 40
6.677472021869804
100
AcDbArc
 50
34.54603914140595
 51
41.9948458987776
  0
ARC
  5
AE43
330
1F
100
AcDbEntity
  8
freecads.com
100
AcDbCircle
 10
10687.14091230302
 20
29248.85183260288
 30
0.0
 40
18.91750036381685
100
AcDbArc
 50
30.15382215670748
 51
34.5460371713908
  0
ARC
  5
AE44
330
1F
100
AcDbEntity
  8
freecads.com
100
AcDbCircle
 10
10656.08946002208
 20
29230.81293378761
 30
0.0
 40
54.82842571005856
100
AcDbArc
 50
28.16777978457625
 51
30.15383096944191
  0
ARC
  5
AE45
330
1F
100
AcDbEntity
  8
freecads.com
100
AcDbCircle
 10
10652.27658255612
 20
29228.77122737291
 30
0.0
 40
59.15353838535267
100
AcDbArc
 50
26.21153663872693
 51
28.16779622209584
  0
ARC
  5
AE46
330
1F
100
AcDbEntity
  8
freecads.com
100
AcDbCircle
 10
10668.13821815045
 20
29236.58002571388
 30
0.0
 40
41.47392257354289
100
AcDbArc
 50
23.65884760127587
 51
26.21161277660805
  0
ARC
  5
AE47
330
1F
100
AcDbEntity
  8
freecads.com
100
AcDbCircle
 10
10666.52604530696
 20
29235.8737343064
 30
0.0
 40
43.23402166995594
100
AcDbArc
 50
21.62349868955272
 51
23.65882045197876
  0
ARC
  5
AE48
330
1F
100
AcDbEntity
  8
freecads.com
100
AcDbCircle
 10
10705.17674683219
 20
29251.19497076049
 30
0.0
 40
1.657381415184396
100
AcDbArc
 50
0.0000162863159366
 51
21.62345120691024
  0
ARC
  5
AE49
330
1F
100
AcDbEntity
  8
freecads.com
100
AcDbCircle
 10
10708.7454283925
 20
29268.83872893676
 30
0.0
 40
20.30371413894561
100
AcDbArc
 50
312.2160163711511
 51
314.7859681335788
  0
ARC
  5
AE4A
330
1F
100
AcDbEntity
  8
freecads.com
100
AcDbCircle
 10
10722.29390767992
 20
29253.90522912228
 30
0.0
 40
0.1401155585672686
100
AcDbArc
 50
225.0001324685379
 51
312.2160439558174
  0
ARC
  5
AE4B
330
1F
100
AcDbEntity
  8
freecads.com
100
AcDbCircle
 10
10722.34911630871
 20
29253.96043796005
 30
0.0
 40
0.2181924979354974
100
AcDbArc
 50
161.0792038589265
 51
225.0001238703255
  0
ARC
  5
AE4C
330
1F
100
AcDbEntity
  8
freecads.com
100
AcDbCircle
 10
10750.7966005774
 20
29244.20905528657
 30
0.0
 40
30.29058557301459
100
AcDbArc
 50
159.1541706155716
 51
161.0790343629316
  0
ARC
  5
AE4D
330
1F
100
AcDbEntity
  8
freecads.com
100
AcDbCircle
 10
10727.09782481393
 20
29253.23308314327
 30
0.0
 40
4.9318582499513
100
AcDbArc
 50
150.8456733250106
 51
159.1542739545612
  0
ARC
  5
AE4E
330
1F
100
AcDbEntity
  8
freecads.com
100
AcDbCircle
 10
10724.57345633536
 20
29254.64127202202
 30
0.0
 40
2.04128181371163
100
AcDbArc
 50
134.7860416021476
 51
150.8458371949026
  0
ARC
  5
AE4F
330
1F
100
AcDbEntity
  8
freecads.com
100
AcDbCircle
 10
10723.70346891765
 20
29255.51778368881
 30
0.0
 40
0.8063118509271784
100
AcDbArc
 50
107.3375730075632
 51
134.7861574082506
  0
ARC
  5
AE50
330
1F
100
AcDbEntity
  8
freecads.com
100
AcDbCircle
 10
10723.54270065068
 20
29256.03275836639
 30
0.0
 40
0.2668256562865687
100
AcDbArc
 50
44.9998889333636
 51
107.3373735381627
  0
ARC
  5
AE51
330
1F
100
AcDbEntity
  8
freecads.com
100
AcDbCircle
 10
10723.43865212687
 20
29255.92870887741
 30
0.0
 40
0.4139731722781467
100
AcDbArc
 50
358.1275170847977
 51
45.00002287071583
  0
ARC
  5
AE52
330
1F
100
AcDbEntity
  8
freecads.com
100
AcDbCircle
 10
10722.45640724125
 20
29255.96082068108
 30
0.0
 40
1.396742821419563
100
AcDbArc
 50
339.1542977418473
 51
358.1275321268333
  0
ARC
  5
AE53
330
1F
100
AcDbEntity
  8
freecads.com
100
AcDbCircle
 10
10721.56331680165
 20
29256.30089123718
 30
0.0
 40
2.352388423316935
100
AcDbArc
 50
324.7000770066891
 51
339.15425440754
  0
ARC
  5
AE54
330
1F
100
AcDbEntity
  8
freecads.com
100
AcDbCircle
 10
10720.30711574463
 20
29257.19033074387
 30
0.0
 40
3.891590727017771
100
AcDbArc
 50
314.7860488404437
 51
324.7000515996155
  0
ARC
  5
AE55
330
1F
100
AcDbEntity
  8
freecads.com
100
AcDbCircle
 10
10709.18692897739
 20
29276.35567396086
 30
0.0
 40
29.36968685575742
100
AcDbArc
 50
306.2540570407246
 51
309.6583218666044
  0
ARC
  5
AE56
330
1F
100
AcDbEntity
  8
freecads.com
100
AcDbCircle
 10
10717.32655668823
 20
29265.25628577689
 30
0.0
 40
15.60560470948465
100
AcDbArc
 50
300.7892720702698
 51
306.2540243386801
  0
ARC
  5
AE57
330
1F
100
AcDbEntity
  8
freecads.com
100
AcDbCircle
 10
10718.06989915789
 20
29264.00880759056
 30
0.0
 40
14.15344774398658
100
AcDbArc
 50
296.1062933192518
 51
300.7892276809341
  0
ARC
  5
AE58
330
1F
100
AcDbEntity
  8
freecads.com
100
AcDbCircle
 10
10724.15768464943
 20
29251.58554540536
 30
0.0
 40
0.318760341911883
100
AcDbArc
 50
224.6456157200751
 51
296.1062926233601
  0
ARC
  5
AE59
330
1F
100
AcDbEntity
  8
freecads.com
100
AcDbCircle
 10
10724.30392695424
 20
29251.72999078482
 30
0.0
 40
0.5243115018821565
100
AcDbArc
 50
132.5563470062472
 51
224.6456969345833
  0
ARC
  5
AE5A
330
1F
100
AcDbEntity
  8
freecads.com
100
AcDbCircle
 10
10762.13447168074
 20
29210.52666323607
 30
0.0
 40
56.46056374847676
100
AcDbArc
 50
129.2291001944474
 51
132.5563761004306
  0
ARC
  5
AE5B
330
1F
100
AcDbEntity
  8
freecads.com
100
AcDbCircle
 10
10754.74586863085
 20
29219.57665917185
 30
0.0
 40
44.7775041550049
100
AcDbArc
 50
125.0257157699177
 51
129.2291503095471
  0
ARC
  5
AE5C
330
1F
100
AcDbEntity
  8
freecads.com
100
AcDbCircle
 10
10730.37377796191
 20
29254.35038545353
 30
0.0
 40
2.313273994923307
100
AcDbArc
 50
88.74352206455721
 51
125.0257431517151
  0
ARC
  5
AE5D
330
1F
100
AcDbEntity
  8
freecads.com
100
AcDbCircle
 10
10730.42124129267
 20
29256.51439303581
 30
0.0
 40
0.1487459669401139
100
AcDbArc
 50
331.1288156111278
 51
88.74341990763371
  0
ARC
  5
AE5E
330
1F
100
AcDbEntity
  8
freecads.com
100
AcDbCircle
 10
10727.16158134995
 20
29258.31168536615
 30
0.0
 40
3.871062807678915
100
AcDbArc
 50
319.4850894005306
 51
331.1287932793673
  0
ARC
  5
AE5F
330
1F
100
AcDbEntity
  8
freecads.com
100
AcDbCircle
 10
10721.66379203046
 20
29263.00972601776
 30
0.0
 40
11.10274818286317
100
AcDbArc
 50
312.7686994860429
 51
319.4850500388308
  0
ARC
  5
AE60
330
1F
100
AcDbEntity
  8
freecads.com
100
AcDbCircle
 10
10708.0472463035
 20
29277.73038267207
 30
0.0
 40
31.15538017641434
100
AcDbArc
 50
309.6584149383722
 51
312.7686972554516
  0
ARC
  5
AE61
330
1F
100
AcDbEntity
  8
freecads.com
100
AcDbCircle
 10
10729.42223381176
 20
29263.176696703
 30
0.0
 40
10.04758925414401
100
AcDbArc
 50
301.4357537238604
 51
307.1025262965314
  0
ARC
  5
AE62
330
1F
100
AcDbEntity
  8
freecads.com
100
AcDbCircle
 10
10729.70473625002
 20
29262.71453170416
 30
0.0
 40
9.50592135425162
100
AcDbArc
 50
295.5284937827133
 51
301.4357552077461
  0
ARC
  5
AE63
330
1F
100
AcDbEntity
  8
freecads.com
100
AcDbCircle
 10
10730.36870878544
 20
29261.32424388308
 30
0.0
 40
7.965220295265285
100
AcDbArc
 50
289.4376160107043
 51
295.5285563751352
  0
ARC
  5
AE64
330
1F
100
AcDbEntity
  8
freecads.com
100
AcDbCircle
 10
10732.53232405106
 20
29255.19316285905
 30
0.0
 40
1.463575461781511
100
AcDbArc
 50
268.083325599392
 51
289.4377863665138
  0
ARC
  5
AE65
330
1F
100
AcDbEntity
  8
freecads.com
100
AcDbCircle
 10
10732.488308099
 20
29253.87785438351
 30
0.0
 40
0.147530709548838
100
AcDbArc
 50
176.3220462241195
 51
268.0831182570295
  0
ARC
  5
AE66
330
1F
100
AcDbEntity
  8
freecads.com
100
AcDbCircle
 10
10732.79197914339
 20
29253.8583361115
 30
0.0
 40
0.4518283699794698
100
AcDbArc
 50
135.4622199001397
 51
176.3222893875612
  0
ARC
  5
AE67
330
1F
100
AcDbEntity
  8
freecads.com
100
AcDbCircle
 10
10735.04889727978
 20
29251.6375265557
 30
0.0
 40
3.618162931814789
100
AcDbArc
 50
123.8592642584161
 51
135.4620497865131
  0
ARC
  5
AE68
330
1F
100
AcDbEntity
  8
freecads.com
100
AcDbCircle
 10
10741.19305398991
 20
29242.47997927082
 30
0.0
 40
14.64591582864178
100
AcDbArc
 50
119.7545312775615
 51
123.8592203431033
  0
ARC
  5
AE69
330
1F
100
AcDbEntity
  8
freecads.com
100
AcDbCircle
 10
10777.92238307009
 20
29178.2288115015
 30
0.0
 40
88.65440300680857
100
AcDbArc
 50
118.1560160181925
 51
119.754542343782
  0
ARC
  5
AE6A
330
1F
100
AcDbEntity
  8
freecads.com
100
AcDbCircle
 10
10736.81320669561
 20
29255.03862378665
 30
0.0
 40
1.535451879814417
100
AcDbArc
 50
88.83125918361077
 51
118.1559527722541
  0
ARC
  5
AE6B
330
1F
100
AcDbEntity
  8
freecads.com
100
AcDbCircle
 10
10736.84164600188
 20
29256.43263412696
 30
0.0
 40
0.141151473500944
100
AcDbArc
 50
310.3212474434351
 51
88.83118430775949
  0
ARC
  5
AE6C
330
1F
100
AcDbEntity
  8
freecads.com
100
AcDbCircle
 10
10715.53291776294
 20
29281.54008409173
 30
0.0
 40
33.07207831886314
100
AcDbArc
 50
307.1024190711826
 51
310.3213134731432
  0
ARC
  5
AE6D
330
1F
100
AcDbEntity
  8
freecads.com
100
AcDbCircle
 10
10692.98017169872
 20
29249.65202082643
 30
0.0
 40
19.92941865211399
100
AcDbArc
 50
355.2329643324442
 51
0.3630589875712737
  0
ARC
  5
AE6E
330
1F
100
AcDbEntity
  8
freecads.com
100
AcDbCircle
 10
10712.67774770404
 20
29248.00938164474
 30
0.0
 40
0.1634690425785135
100
AcDbArc
 50
214.9514166993222
 51
355.2328242554719
  0
ARC
  5
AE6F
330
1F
100
AcDbEntity
  8
freecads.com
100
AcDbCircle
 10
10714.68004087391
 20
29249.40887937467
 30
0.0
 40
2.606371380821059
100
AcDbArc
 50
192.0472011098349
 51
214.9515194999715
  0
ARC
  5
AE70
330
1F
100
AcDbEntity
  8
freecads.com
100
AcDbCircle
 10
10810.16674821686
 20
29269.78735972743
 30
0.0
 40
100.2434224459034
100
AcDbArc
 50
190.3979844492166
 51
192.0471577010667
  0
ARC
  5
AE71
330
1F
100
AcDbEntity
  8
freecads.com
100
AcDbCircle
 10
10757.5007807515
 20
29260.12332642522
 30
0.0
 40
46.69813629744596
100
AcDbArc
 50
188.3971164615603
 51
190.398063422019
  0
ARC
  5
AE72
330
1F
100
AcDbEntity
  8
freecads.com
100
AcDbCircle
 10
10713.54012602955
 20
29253.63404164076
 30
0.0
 40
2.261102411328009
100
AcDbArc
 50
170.3227797726043
 51
188.3970984223117
  0
ARC
  5
AE73
330
1F
100
AcDbEntity
  8
freecads.com
100
AcDbCircle
 10
10711.44512995057
 20
29253.99128878881
 30
0.0
 40
0.1358649903028919
100
AcDbArc
 50
53.74633045404371
 51
170.3228302955517
  0
ARC
  5
AE74
330
1F
100
AcDbEntity
  8
freecads.com
100
AcDbCircle
 10
10710.5957785895
 20
29252.83307857074
 30
0.0
 40
1.572127028985603
100
AcDbArc
 50
33.2459060363846
 51
53.746259053677
  0
ARC
  5
AE75
330
1F
100
AcDbEntity
  8
freecads.com
100
AcDbCircle
 10
10708.75549191059
 20
29251.62672374644
 30
0.0
 40
3.772569489658282
100
AcDbArc
 50
20.50132639194126
 51
33.24588083600739
  0
ARC
  5
AE76
330
1F
100
AcDbEntity
  8
freecads.com
100
AcDbCircle
 10
10703.00776806631
 20
29249.4776070586
 30
0.0
 40
9.908939094558522
100
AcDbArc
 50
14.30355046065774
 51
20.50121341216573
  0
ARC
  5
AE77
330
1F
100
AcDbEntity
  8
freecads.com
100
AcDbCircle
 10
10702.20960263817
 20
29249.27410685763
 30
0.0
 40
10.73263830085299
100
AcDbArc
 50
8.246493532223098
 51
14.30353861438611
  0
ARC
  5
AE78
330
1F
100
AcDbEntity
  8
freecads.com
100
AcDbCircle
 10
10705.35823262786
 20
29249.73045823829
 30
0.0
 40
7.551109204004467
100
AcDbArc
 50
0.3630449187835864
 51
8.246354589266863
  0
ARC
  5
AE79
330
1F
100
AcDbEntity
  8
freecads.com
100
AcDbCircle
 10
10714.43168740606
 20
29251.27301026401
 30
0.0
 40
1.225407365323099
100
AcDbArc
 50
325.4658013935
 51
345.3942316713077
  0
ARC
  5
AE7A
330
1F
100
AcDbEntity
  8
freecads.com
100
AcDbCircle
 10
10715.36581951704
 20
29250.63017739747
 30
0.0
 40
0.0914598819378845
100
AcDbArc
 50
202.0281716460344
 51
325.4660005226679
  0
ARC
  5
AE7B
330
1F
100
AcDbEntity
  8
freecads.com
100
AcDbCircle
 10
10716.86112964661
 20
29251.23516819546
 30
0.0
 40
1.704521024377521
100
AcDbArc
 50
183.6463523499792
 51
202.0278873918201
  0
ARC
  5
AE7C
330
1F
100
AcDbEntity
  8
freecads.com
100
AcDbCircle
 10
10735.96232759951
 20
29252.45242046923
 30
0.0
 40
20.84446528589016
100
AcDbArc
 50
180.7076760956082
 51
183.6463301586317
  0
ARC
  5
AE7D
330
1F
100
AcDbEntity
  8
freecads.com
100
AcDbCircle
 10
10733.8829183557
 20
29252.42672066886
 30
0.0
 40
18.76489723393331
100
AcDbArc
 50
177.408766755704
 51
180.707629893467
  0
ARC
  5
AE7E
330
1F
100
AcDbEntity
  8
freecads.com
100
AcDbCircle
 10
10718.40529586637
 20
29253.12718247813
 30
0.0
 40
3.271432654681749
100
AcDbArc
 50
165.3943202255547
 51
177.4087696123874
  0
ARC
  5
AE7F
330
1F
100
AcDbEntity
  8
freecads.com
100
AcDbCircle
 10
10715.4064046783
 20
29253.90865288308
 30
0.0
 40
0.1723933919847037
100
AcDbArc
 50
91.58601073342698
 51
165.3944166012192
  0
ARC
  5
AE80
330
1F
100
AcDbEntity
  8
freecads.com
100
AcDbCircle
 10
10715.40681705301
 20
29253.89375641704
 30
0.0
 40
0.1872955647572202
100
AcDbArc
 50
22.02793546352797
 51
91.58598585878204
  0
ARC
  5
AE81
330
1F
100
AcDbEntity
  8
freecads.com
100
AcDbCircle
 10
10713.28793844574
 20
29253.03647196809
 30
0.0
 40
2.473030277875639
100
AcDbArc
 50
7.658676499991324
 51
22.02793446342233
  0
ARC
  5
AE82
330
1F
100
AcDbEntity
  8
freecads.com
100
AcDbCircle
 10
10709.25519025337
 20
29252.49418575462
 30
0.0
 40
6.542075905583248
100
AcDbArc
 50
0.707610701690075
 51
7.658665132777779
  0
ARC
  5
AE83
330
1F
100
AcDbEntity
  8
freecads.com
100
AcDbCircle
 10
10708.63776187067
 20
29252.48656672575
 30
0.0
 40
7.159551295638633
100
AcDbArc
 50
353.9470125506929
 51
0.7075572181551367
  0
ARC
  5
AE84
330
1F
100
AcDbEntity
  8
freecads.com
100
AcDbCircle
 10
10710.5547857105
 20
29252.28328191032
 30
0.0
 40
5.231779234775924
100
AcDbArc
 50
345.3942572141081
 51
353.9470654468906
  0
ARC
  5
AE85
330
1F
100
AcDbEntity
  8
freecads.com
100
AcDbCircle
 10
10732.63790736815
 20
29250.20882887314
 30
0.0
 40
0.9246985832703174
100
AcDbArc
 50
352.9130166909001
 51
31.71744118942985
  0
ARC
  5
AE86
330
1F
100
AcDbEntity
  8
freecads.com
100
AcDbCircle
 10
10733.23080941992
 20
29250.13511615676
 30
0.0
 40
0.3272319251621525
100
AcDbArc
 50
269.9999697878563
 51
352.9129551387153
  0
ARC
  5
AE87
330
1F
100
AcDbEntity
  8
freecads.com
100
AcDbCircle
 10
10733.23081052325
 20
29252.76583197539
 30
0.0
 40
2.957947743792876
100
AcDbArc
 50
250.1704914860808
 51
269.9999752861085
  0
ARC
  5
AE88
330
1F
100
AcDbEntity
  8
freecads.com
100
AcDbCircle
 10
10743.23019322342
 20
29280.49542273349
 30
0.0
 40
32.43536041851525
100
AcDbArc
 50
246.7460956950214
 51
250.1705241593306
  0
ARC
  5
AE89
330
1F
100
AcDbEntity
  8
freecads.com
100
AcDbCircle
 10
10773.3036289074
 20
29350.48013652921
 30
0.0
 40
108.6080044510451
100
AcDbArc
 50
245.977657116371
 51
246.7461052314369
  0
ARC
  5
AE8A
330
1F
100
AcDbEntity
  8
freecads.com
100
AcDbCircle
 10
10729.1507581314
 20
29251.41514996741
 30
0.0
 40
0.1490372779685003
100
AcDbArc
 50
168.3916962493564
 51
245.9777105869755
  0
ARC
  5
AE8B
330
1F
100
AcDbEntity
  8
freecads.com
100
AcDbCircle
 10
10729.15561479936
 20
29251.41415208122
 30
0.0
 40
0.1539954026639336
100
AcDbArc
 50
92.58951957441288
 51
168.3916153830105
  0
ARC
  5
AE8C
330
1F
100
AcDbEntity
  8
freecads.com
100
AcDbCircle
 10
10734.20073333312
 20
29139.86468070447
 30
0.0
 40
111.8174978797609
100
AcDbArc
 50
91.83741135323305
 51
92.58958764608021
  0
ARC
  5
AE8D
330
1F
100
AcDbEntity
  8
freecads.com
100
AcDbCircle
 10
10730.78206450999
 20
29246.43179055845
 30
0.0
 40
5.195566743856314
100
AcDbArc
 50
82.06330880839912
 51
91.8373101135856
  0
ARC
  5
AE8E
330
1F
100
AcDbEntity
  8
freecads.com
100
AcDbCircle
 10
10730.83705902386
 20
29246.82627773189
 30
0.0
 40
4.79726468942861
100
AcDbArc
 50
71.68677450192754
 51
82.06327788043621
  0
ARC
  5
AE8F
330
1F
100
AcDbEntity
  8
freecads.com
100
AcDbCircle
 10
10731.15623795189
 20
29247.79064961393
 30
0.0
 40
3.781445652911201
100
AcDbArc
 50
60.25653461107069
 51
71.68672344811364
  0
ARC
  5
AE90
330
1F
100
AcDbEntity
  8
freecads.com
100
AcDbCircle
 10
10732.48341893371
 20
29250.11335087082
 30
0.0
 40
1.106310051247797
100
AcDbArc
 50
31.71739813674242
 51
60.25650140052977
  0
ENDSEC
  0
SECTION
  2
OBJECTS
  0
DICTIONARY
  5
C
330
0
100
AcDbDictionary
281
     1
  3
ACAD_CIP_PREVIOUS_PRODUCT_INFO
350
1A5
  3
ACAD_COLOR
350
73
  3
ACAD_DETAILVIEWSTYLE
350
1AB
  3
ACAD_GROUP
350
D
  3
ACAD_LAYOUT
350
1A
  3
ACAD_MATERIAL
350
72
  3
ACAD_MLEADERSTYLE
350
D7
  3
ACAD_MLINESTYLE
350
17
  3
ACAD_PLOTSETTINGS
350
19
  3
ACAD_PLOTSTYLENAME
350
E
  3
ACAD_SCALELIST
350
B6
  3
ACAD_SECTIONVIEWSTYLE
350
1A8
  3
ACAD_TABLESTYLE
350
86
  3
ACAD_VISUALSTYLE
350
99
  3
ACDB_RECOMPOSE_DATA
350
AEE8
  3
AcDbVariableDictionary
350
66
  3
AEC_PROPERTY_SET_DEFS
350
268B
  0
DICTIONARY
  5
18E
330
2
100
AcDbDictionary
280
     1
281
     1
  3
ACAD_LAYERSTATES
360
18F
  0
DICTIONARY
  5
E6
330
10
100
AcDbDictionary
280
     1
281
     1
  0
DICTIONARY
  5
15D
330
1F
100
AcDbDictionary
280
     1
281
     1
  3
ACAD_SORTENTS
360
28E
  0
XRECORD
  5
1A5
102
{ACAD_REACTORS
330
C
102
}
330
C
100
AcDbXrecord
280
     1
300
ACD
300
2022
300

  0
DICTIONARY
  5
73
102
{ACAD_REACTORS
330
C
102
}
330
C
100
AcDbDictionary
281
     1
  0
DICTIONARY
  5
1AB
102
{ACAD_REACTORS
330
C
102
}
330
C
100
AcDbDictionary
281
     1
  3
Imperial24
350
1AC
  3
Metric50
350
224
  0
DICTIONARY
  5
D
102
{ACAD_REACTORS
330
C
102
}
330
C
100
AcDbDictionary
281
     1
  0
DICTIONARY
  5
1A
102
{ACAD_REACTORS
330
C
102
}
330
C
100
AcDbDictionary
281
     1
  3
Layout1
350
59
  3
Layout2
350
5E
  3
Model
350
22
  0
DICTIONARY
  5
72
102
{ACAD_REACTORS
330
C
102
}
330
C
100
AcDbDictionary
281
     1
  3
ByBlock
350
97
  3
ByLayer
350
96
  3
Global
350
98
  0
DICTIONARY
  5
D7
102
{ACAD_REACTORS
330
C
102
}
330
C
100
AcDbDictionary
281
     1
  3
Standard
350
D8
  0
DICTIONARY
  5
17
102
{ACAD_REACTORS
330
C
102
}
330
C
100
AcDbDictionary
281
     1
  3
Standard
350
18
  0
DICTIONARY
  5
19
102
{ACAD_REACTORS
330
C
102
}
330
C
100
AcDbDictionary
281
     1
  0
ACDBDICTIONARYWDFLT
  5
E
102
{ACAD_REACTORS
330
C
102
}
330
C
100
AcDbDictionary
281
     1
  3
Normal
350
F
100
AcDbDictionaryWithDefault
340
F
  0
DICTIONARY
  5
B6
102
{ACAD_REACTORS
330
C
102
}
330
C
100
AcDbDictionary
281
     1
  3
*A1
350
47D1
  3
*A2
350
8BD6
  3
A0
350
B7
  3
A1
350
124
  3
A2
350
125
  3
A3
350
126
  3
A4
350
127
  3
A5
350
128
  3
A6
350
129
  3
A7
350
12A
  3
A8
350
12B
  3
A9
350
12C
  3
B0
350
12D
  3
B1
350
12E
  3
B2
350
12F
  3
B3
350
130
  3
B4
350
131
  3
B5
350
132
  3
B6
350
133
  3
B7
350
134
  3
B8
350
135
  3
B9
350
136
  3
C0
350
137
  3
C1
350
138
  3
C2
350
139
  3
C3
350
13A
  3
C4
350
13B
  3
C5
350
13C
  3
C6
350
13D
  3
C7
350
13E
  3
C8
350
13F
  3
C9
350
140
  3
D0
350
141
  3
D1
350
142
  3
D2
350
143
  0
DICTIONARY
  5
1A8
102
{ACAD_REACTORS
330
C
102
}
330
C
100
AcDbDictionary
281
     1
  3
Imperial24
350
1AA
  3
Metric50
350
223
  0
DICTIONARY
  5
86
102
{ACAD_REACTORS
330
C
102
}
330
C
100
AcDbDictionary
281
     1
  3
Standard
350
87
  0
DICTIONARY
  5
99
102
{ACAD_REACTORS
330
C
102
}
330
C
100
AcDbDictionary
281
     1
  3
2dWireframe
350
9F
  3
3dWireframe
350
2684
  3
Basic
350
9E
  3
Brighten
350
A5
  3
ColorChange
350
A9
  3
Conceptual
350
A2
  3
Dim
350
A4
  3
EdgeColorOff
350
175
  3
Facepattern
350
A8
  3
Flat
350
9A
  3
FlatWithEdges
350
9B
  3
Gouraud
350
9C
  3
GouraudWithEdges
350
9D
  3
Hidden
350
A1
  3
JitterOff
350
173
  3
Linepattern
350
A7
  3
OverhangOff
350
174
  3
Realistic
350
A3
  3
Shaded
350
182
  3
Shaded with edges
350
181
  3
Shades of Gray
350
17E
  3
Sketchy
350
17F
  3
Thicken
350
A6
  3
Wireframe
350
A0
  3
X-Ray
350
180
  0
XRECORD
  5
AEE8
102
{ACAD_REACTORS
330
C
102
}
330
C
100
AcDbXrecord
280
     1
 90
        1
330
87
  0
DICTIONARY
  5
66
102
{ACAD_REACTORS
330
C
102
}
330
C
100
AcDbDictionary
281
     1
  3
CANNOSCALE
350
F0
  3
CMLEADERSTYLE
350
EF
  3
CTABLESTYLE
350
89
  3
CVIEWDETAILSTYLE
350
1B7
  3
CVIEWSECTIONSTYLE
350
1B8
  3
DIMASSOC
350
67
  3
HIDETEXT
350
6B
  3
LAYEREVAL
350
14D
  3
LAYERNOTIFY
350
14E
  0
DICTIONARY
  5
268B
102
{ACAD_REACTORS
330
C
102
}
330
C
100
AcDbDictionary
281
     1
  0
DICTIONARY
  5
18F
102
{ACAD_REACTORS
330
18E
102
}
330
18E
100
AcDbDictionary
281
     1
  0
SORTENTSTABLE
  5
28E
102
{ACAD_REACTORS
330
15D
102
}
330
15D
100
AcDbSortentsTable
330
1F
  0
ACDBDETAILVIEWSTYLE
  5
1AC
102
{ACAD_REACTORS
330
1AB
102
}
330
1AB
100
AcDbModelDocViewStyle
 70
     0
  3
Imperial24
290
     0
300
Imperial24
 90
        0
100
AcDbDetailViewStyle
 70
     0
 71
     0
 90
        3
 71
     1
340
11
 62
   256
 40
0.24
340
0
 62
   256
 40
0.24
300

 40
0.36
280
     3
 71
     2
340
16
 90
       25
 62
   256
 71
     3
340
11
 62
   256
 40
0.24
 90
        1
 40
0.75
 90
        1
300
%<\AcVar ViewType \f "%tc1">% %<\AcVar ViewDetailId>%\PSCALE %<\AcVar ViewScale \f "%sn">%
 71
     4
340
16
 90
       25
 62
   256
340
16
 90
       25
 62
   256
280
     0
  0
ACDBDETAILVIEWSTYLE
  5
224
102
{ACAD_REACTORS
330
1AB
102
}
330
1AB
100
AcDbModelDocViewStyle
 70
     0
  3
Metric50
290
     0
300
Metric50
 90
        0
100
AcDbDetailViewStyle
 70
     0
 71
     0
 90
        3
 71
     1
340
11
 62
   256
 40
5.0
340
0
 62
   256
 40
5.0
300

 40
0.0
280
     1
 71
     2
340
16
 90
       25
 62
   256
 71
     3
340
11
 62
   256
 40
5.0
 90
        0
 40
15.0
 90
        1
300
%<\AcVar ViewDetailId>% (%<\AcVar ViewScale \f "%sn">%)
 71
     4
340
16
 90
       25
 62
   256
340
16
 90
       25
 62
   256
280
     0
  0
LAYOUT
  5
59
102
{ACAD_REACTORS
330
1A
102
}
330
1A
100
AcDbPlotSettings
  1

  2
None
  4

  6

 40
0.0
 41
0.0
 42
0.0
 43
0.0
 44
0.0
 45
0.0
 46
0.0
 47
0.0
 48
0.0
 49
0.0
140
0.0
141
0.0
142
1.0
143
1.0
 70
   688
 72
     0
 73
     0
 74
     5
  7

 75
    16
147
1.0
 76
     0
 77
     2
 78
   300
148
0.0
149
0.0
100
AcDbLayout
  1
Layout1
 70
     1
 71
     1
 10
0.0
 20
0.0
 11
12.0
 21
9.0
 12
0.0
 22
0.0
 32
0.0
 14
0.0
 24
0.0
 34
0.0
 15
0.0
 25
0.0
 35
0.0
146
0.0
 13
0.0
 23
0.0
 33
0.0
 16
1.0
 26
0.0
 36
0.0
 17
0.0
 27
1.0
 37
0.0
 76
     0
330
58
  0
LAYOUT
  5
5E
102
{ACAD_REACTORS
330
1A
102
}
330
1A
100
AcDbPlotSettings
  1

  2
None
  4

  6

 40
0.0
 41
0.0
 42
0.0
 43
0.0
 44
0.0
 45
0.0
 46
0.0
 47
0.0
 48
0.0
 49
0.0
140
0.0
141
0.0
142
1.0
143
1.0
 70
   688
 72
     0
 73
     0
 74
     5
  7

 75
    16
147
1.0
 76
     0
 77
     2
 78
   300
148
0.0
149
0.0
100
AcDbLayout
  1
Layout2
 70
     1
 71
     2
 10
0.0
 20
0.0
 11
12.0
 21
9.0
 12
0.0
 22
0.0
 32
0.0
 14
0.0
 24
0.0
 34
0.0
 15
0.0
 25
0.0
 35
0.0
146
0.0
 13
0.0
 23
0.0
 33
0.0
 16
1.0
 26
0.0
 36
0.0
 17
0.0
 27
1.0
 37
0.0
 76
     0
330
5D
  0
LAYOUT
  5
22
102
{ACAD_XDICTIONARY
360
194
102
}
102
{ACAD_REACTORS
330
1A
102
}
330
1A
100
AcDbPlotSettings
  1

  2
none_device
  4
ANSI_A_(8.50_x_11.00_Inches)
  6

 40
6.349999904632568
 41
19.04999923706055
 42
6.350006103515625
 43
19.04998779296875
 44
215.8999938964844
 45
279.3999938964844
 46
0.0
 47
0.0
 48
0.0
 49
0.0
140
0.0
141
0.0
142
1.0
143
2.584895464708373
 70
 11952
 72
     0
 73
     1
 74
     0
  7

 75
     0
147
0.3868628397755418
 76
     0
 77
     2
 78
   300
148
0.0
149
0.0
100
AcDbLayout
  1
Model
 70
     1
 71
     0
 10
0.0
 20
0.0
 11
12.0
 21
9.0
 12
0.0
 22
0.0
 32
0.0
 14
0.0
 24
0.0
 34
0.0
 15
0.0
 25
0.0
 35
0.0
146
0.0
 13
0.0
 23
0.0
 33
0.0
 16
1.0
 26
0.0
 36
0.0
 17
0.0
 27
1.0
 37
0.0
 76
     0
330
1F
331
94
  0
MATERIAL
  5
97
102
{ACAD_XDICTIONARY
360
188
102
}
102
{ACAD_REACTORS
330
72
102
}
330
72
100
AcDbMaterial
  1
ByBlock
 94
       63
  0
MATERIAL
  5
96
102
{ACAD_XDICTIONARY
360
186
102
}
102
{ACAD_REACTORS
330
72
102
}
330
72
100
AcDbMaterial
  1
ByLayer
 94
       63
  0
MATERIAL
  5
98
102
{ACAD_XDICTIONARY
360
110
102
}
102
{ACAD_REACTORS
330
72
102
}
330
72
100
AcDbMaterial
  1
Global
 43
0.0208000000566244
 43
0.0
 43
0.0
 43
0.0
 43
0.0
 43
0.0208000000566244
 43
0.0
 43
0.0
 43
0.0
 43
0.0
 43
1.0
 43
0.0
 43
0.0
 43
0.0
 43
0.0
 43
1.0
 49
0.0208000000566244
 49
0.0
 49
0.0
 49
0.0
 49
0.0
 49
0.0208000000566244
 49
0.0
 49
0.0
 49
0.0
 49
0.0
 49
1.0
 49
0.0
 49
0.0
 49
0.0
 49
0.0
 49
1.0
142
0.0208000000566244
142
0.0
142
0.0
142
0.0
142
0.0
142
0.0208000000566244
142
0.0
142
0.0
142
0.0
142
0.0
142
1.0
142
0.0
142
0.0
142
0.0
142
0.0
142
1.0
144
0.0208000000566244
144
0.0
144
0.0
144
0.0
144
0.0
144
0.0208000000566244
144
0.0
144
0.0
144
0.0
144
0.0
144
1.0
144
0.0
144
0.0
144
0.0
144
0.0
144
1.0
 94
       63
1001
ACAD
1070
    -1
1070
     3
1070
     0
1000

1071
        0
1070
     0
  0
MLEADERSTYLE
  5
D8
102
{ACAD_REACTORS
330
D7
102
}
330
D7
100
AcDbMLeaderStyle
179
     2
170
     2
171
     1
172
     0
 90
        2
 40
0.0
 41
0.0
173
     1
 91
-1056964608
340
14
 92
       -2
290
     1
 42
0.09
291
     1
 43
0.36
  3
Standard
 44
0.18
300

342
11
174
     1
178
     1
175
     1
176
     0
 93
-1056964608
 45
0.18
292
     0
297
     0
 46
0.18
 94
-1056964608
 47
1.0
 49
1.0
140
1.0
293
     1
141
0.0
294
     1
177
     0
142
1.0
295
     0
296
     0
143
0.125
271
     0
272
     9
273
     9
298
     0
  0
MLINESTYLE
  5
18
102
{ACAD_REACTORS
330
17
102
}
330
17
100
AcDbMlineStyle
  2
STANDARD
 70
     0
  3

 62
   256
 51
90.0
 52
90.0
 71
     2
 49
0.5
 62
   256
  6
BYLAYER
 49
-0.5
 62
   256
  6
BYLAYER
  0
ACDBPLACEHOLDER
  5
F
102
{ACAD_REACTORS
330
E
102
}
330
E
  0
SCALE
  5
47D1
102
{ACAD_REACTORS
330
B6
102
}
330
B6
100
AcDbScale
 70
     0
300
1:100_1_XREF_XREF_XREF_XREF
140
1.0
141
0.1
290
     0
  0
SCALE
  5
8BD6
102
{ACAD_REACTORS
330
B6
102
}
330
B6
100
AcDbScale
 70
     0
300
1:100_1_XREF_XREF_XREF_XREF_XREF_XREF_XREF_XREF_XREF
140
1.0
141
0.1
290
     0
1001
ACAD
1000
AcRTDxfName
1000
SCALE
1000
AcRTDxfName
1000
SCALE
1000
AcRTDxfName
1000
SCALE
1000
AcRTDxfName
1000
SCALE
  0
SCALE
  5
B7
102
{ACAD_REACTORS
330
B6
102
}
330
B6
100
AcDbScale
 70
     0
300
1:1
140
1.0
141
1.0
290
     1
  0
SCALE
  5
124
102
{ACAD_REACTORS
330
B6
102
}
330
B6
100
AcDbScale
 70
     0
300
1:2
140
1.0
141
2.0
290
     0
  0
SCALE
  5
125
102
{ACAD_REACTORS
330
B6
102
}
330
B6
100
AcDbScale
 70
     0
300
1:4
140
1.0
141
4.0
290
     0
  0
SCALE
  5
126
102
{ACAD_REACTORS
330
B6
102
}
330
B6
100
AcDbScale
 70
     0
300
1:5
140
1.0
141
5.0
290
     0
  0
SCALE
  5
127
102
{ACAD_REACTORS
330
B6
102
}
330
B6
100
AcDbScale
 70
     0
300
1:8
140
1.0
141
8.0
290
     0
  0
SCALE
  5
128
102
{ACAD_REACTORS
330
B6
102
}
330
B6
100
AcDbScale
 70
     0
300
1:10
140
1.0
141
10.0
290
     0
  0
SCALE
  5
129
102
{ACAD_REACTORS
330
B6
102
}
330
B6
100
AcDbScale
 70
     0
300
1:16
140
1.0
141
16.0
290
     0
  0
SCALE
  5
12A
102
{ACAD_REACTORS
330
B6
102
}
330
B6
100
AcDbScale
 70
     0
300
1:20
140
1.0
141
20.0
290
     0
  0
SCALE
  5
12B
102
{ACAD_REACTORS
330
B6
102
}
330
B6
100
AcDbScale
 70
     0
300
1:30
140
1.0
141
30.0
290
     0
  0
SCALE
  5
12C
102
{ACAD_REACTORS
330
B6
102
}
330
B6
100
AcDbScale
 70
     0
300
1:40
140
1.0
141
40.0
290
     0
  0
SCALE
  5
12D
102
{ACAD_REACTORS
330
B6
102
}
330
B6
100
AcDbScale
 70
     0
300
1:50
140
1.0
141
50.0
290
     0
  0
SCALE
  5
12E
102
{ACAD_REACTORS
330
B6
102
}
330
B6
100
AcDbScale
 70
     0
300
1:100
140
1.0
141
100.0
290
     0
  0
SCALE
  5
12F
102
{ACAD_REACTORS
330
B6
102
}
330
B6
100
AcDbScale
 70
     0
300
2:1
140
2.0
141
1.0
290
     0
  0
SCALE
  5
130
102
{ACAD_REACTORS
330
B6
102
}
330
B6
100
AcDbScale
 70
     0
300
4:1
140
4.0
141
1.0
290
     0
  0
SCALE
  5
131
102
{ACAD_REACTORS
330
B6
102
}
330
B6
100
AcDbScale
 70
     0
300
8:1
140
8.0
141
1.0
290
     0
  0
SCALE
  5
132
102
{ACAD_REACTORS
330
B6
102
}
330
B6
100
AcDbScale
 70
     0
300
10:1
140
10.0
141
1.0
290
     0
  0
SCALE
  5
133
102
{ACAD_REACTORS
330
B6
102
}
330
B6
100
AcDbScale
 70
     0
300
100:1
140
100.0
141
1.0
290
     0
  0
SCALE
  5
134
102
{ACAD_REACTORS
330
B6
102
}
330
B6
100
AcDbScale
 70
     0
300
1/128" = 1'-0"
140
0.0078125
141
12.0
290
     0
  0
SCALE
  5
135
102
{ACAD_REACTORS
330
B6
102
}
330
B6
100
AcDbScale
 70
     0
300
1/64" = 1'-0"
140
0.015625
141
12.0
290
     0
  0
SCALE
  5
136
102
{ACAD_REACTORS
330
B6
102
}
330
B6
100
AcDbScale
 70
     0
300
1/32" = 1'-0"
140
0.03125
141
12.0
290
     0
  0
SCALE
  5
137
102
{ACAD_REACTORS
330
B6
102
}
330
B6
100
AcDbScale
 70
     0
300
1/16" = 1'-0"
140
0.0625
141
12.0
290
     0
  0
SCALE
  5
138
102
{ACAD_REACTORS
330
B6
102
}
330
B6
100
AcDbScale
 70
     0
300
3/32" = 1'-0"
140
0.09375
141
12.0
290
     0
  0
SCALE
  5
139
102
{ACAD_REACTORS
330
B6
102
}
330
B6
100
AcDbScale
 70
     0
300
1/8" = 1'-0"
140
0.125
141
12.0
290
     0
  0
SCALE
  5
13A
102
{ACAD_REACTORS
330
B6
102
}
330
B6
100
AcDbScale
 70
     0
300
3/16" = 1'-0"
140
0.1875
141
12.0
290
     0
  0
SCALE
  5
13B
102
{ACAD_REACTORS
330
B6
102
}
330
B6
100
AcDbScale
 70
     0
300
1/4" = 1'-0"
140
0.25
141
12.0
290
     0
  0
SCALE
  5
13C
102
{ACAD_REACTORS
330
B6
102
}
330
B6
100
AcDbScale
 70
     0
300
3/8" = 1'-0"
140
0.375
141
12.0
290
     0
  0
SCALE
  5
13D
102
{ACAD_REACTORS
330
B6
102
}
330
B6
100
AcDbScale
 70
     0
300
1/2" = 1'-0"
140
0.5
141
12.0
290
     0
  0
SCALE
  5
13E
102
{ACAD_REACTORS
330
B6
102
}
330
B6
100
AcDbScale
 70
     0
300
3/4" = 1'-0"
140
0.75
141
12.0
290
     0
  0
SCALE
  5
13F
102
{ACAD_REACTORS
330
B6
102
}
330
B6
100
AcDbScale
 70
     0
300
1" = 1'-0"
140
1.0
141
12.0
290
     0
  0
SCALE
  5
140
102
{ACAD_REACTORS
330
B6
102
}
330
B6
100
AcDbScale
 70
     0
300
1-1/2" = 1'-0"
140
1.5
141
12.0
290
     0
  0
SCALE
  5
141
102
{ACAD_REACTORS
330
B6
102
}
330
B6
100
AcDbScale
 70
     0
300
3" = 1'-0"
140
3.0
141
12.0
290
     0
  0
SCALE
  5
142
102
{ACAD_REACTORS
330
B6
102
}
330
B6
100
AcDbScale
 70
     0
300
6" = 1'-0"
140
6.0
141
12.0
290
     0
  0
SCALE
  5
143
102
{ACAD_REACTORS
330
B6
102
}
330
B6
100
AcDbScale
 70
     0
300
1'-0" = 1'-0"
140
12.0
141
12.0
290
     0
  0
ACDBSECTIONVIEWSTYLE
  5
1AA
102
{ACAD_REACTORS
330
1A8
102
}
330
1A8
100
AcDbModelDocViewStyle
 70
     0
  3
Imperial24
290
     0
300
Imperial24
 90
        0
100
AcDbSectionViewStyle
 70
     0
 71
     0
 90
       78
 71
     1
340
11
 62
   256
 40
0.24
340
0
340
0
 62
   256
 40
0.24
300
I, O, Q, S, X, Z
 40
0.48
 90
        3
 40
0.18
 90
        1
 71
     2
340
16
 90
       25
 62
   256
340
16
 90
       50
 62
   256
 40
0.24
 40
0.0
 40
0.24
 71
     3
340
11
 62
   256
 40
0.24
 90
        1
 40
0.75
 90
        1
300
%<\AcVar ViewType \f "%tc1">% %<\AcVar ViewSectionStartId>%-%<\AcVar ViewSectionEndId>%\PSCALE %<\AcVar ViewScale \f "%sn">%
 71
     4
 62
   256
 62
   257
300
ANSI31
 40
1.0
 90
        0
290
     0
290
     0
 90
        6
 40
0.0
 40
1.570796326794896
 40
0.2617993877991494
 40
1.308996938995747
 40
-0.2617993877991494
 40
1.832595714594046
  0
ACDBSECTIONVIEWSTYLE
  5
223
102
{ACAD_REACTORS
330
1A8
102
}
330
1A8
100
AcDbModelDocViewStyle
 70
     0
  3
Metric50
290
     0
300
Metric50
 90
        0
100
AcDbSectionViewStyle
 70
     0
 71
     0
 90
      102
 71
     1
340
11
 62
   256
 40
5.0
340
0
340
0
 62
   256
 40
5.0
300
I, O, Q, S, X, Z
 40
10.0
 90
        0
 40
2.5
 90
        0
 71
     2
340
16
 90
       25
 62
   256
340
16
 90
       50
 62
   256
 40
5.0
 40
2.5
 40
5.0
 71
     3
340
11
 62
   256
 40
5.0
 90
        0
 40
15.0
 90
        1
300
%<\AcVar ViewSectionStartId>%-%<\AcVar ViewSectionEndId>% (%<\AcVar ViewScale \f "%sn">%)
 71
     4
 62
   256
 62
   257
300
ANSI31
 40
1.0
 90
        0
290
     0
290
     0
 90
        6
 40
0.0
 40
1.570796326794896
 40
0.2617993877991494
 40
1.308996938995747
 40
-0.2617993877991494
 40
1.832595714594046
  0
TABLESTYLE
  5
87
102
{ACAD_XDICTIONARY
360
104
102
}
102
{ACAD_REACTORS
330
86
102
}
330
86
100
AcDbTableStyle
280
     0
  3
Standard
 70
     0
 71
     0
 40
0.06
 41
0.06
280
     0
281
     0
  7
Standard
140
0.18
170
     2
 62
     0
 63
     7
283
     0
 90
      512
 91
        0
  1

274
    -2
284
     1
 64
     0
275
    -2
285
     1
 65
     0
276
    -2
286
     1
 66
     0
277
    -2
287
     1
 67
     0
278
    -2
288
     1
 68
     0
279
    -2
289
     1
 69
     0
  7
Standard
140
0.25
170
     5
 62
     0
 63
     7
283
     0
 90
      512
 91
        0
  1

274
    -2
284
     1
 64
     0
275
    -2
285
     1
 65
     0
276
    -2
286
     1
 66
     0
277
    -2
287
     1
 67
     0
278
    -2
288
     1
 68
     0
279
    -2
289
     1
 69
     0
  7
Standard
140
0.18
170
     5
 62
     0
 63
     7
283
     0
 90
      512
 91
        0
  1

274
    -2
284
     1
 64
     0
275
    -2
285
     1
 65
     0
276
    -2
286
     1
 66
     0
277
    -2
287
     1
 67
     0
278
    -2
288
     1
 68
     0
279
    -2
289
     1
 69
     0
  0
VISUALSTYLE
  5
9F
102
{ACAD_REACTORS
330
99
102
}
330
99
100
AcDbVisualStyle
  2
2dWireframe
 70
     4
177
     3
291
     0
 70
    58
 90
        0
176
     1
 90
        2
176
     1
 90
        1
176
     1
 90
        0
176
     1
 40
0.6
176
     1
 40
30.0
176
     1
 62
     7
420
 16777215
176
     1
 90
        1
176
     1
 90
        4
176
     1
 62
     7
176
     1
 62
   257
176
     1
 90
        1
176
     1
 90
        1
176
     1
 40
1.0
176
     1
 90
        0
176
     1
 62
   257
176
     1
 40
1.0
176
     1
 90
        1
176
     1
 90
        6
176
     1
 90
        2
176
     1
 62
     7
176
     1
 90
        5
176
     1
 90
        0
176
     1
 90
        0
176
     1
290
     0
176
     1
 90
        1
176
     1
 40
0.0
176
     1
 90
        0
176
     1
290
     1
176
     1
290
     1
176
     1
290
     0
176
     1
290
     0
176
     1
290
     0
176
     1
290
     0
176
     1
290
     0
176
     1
290
     0
176
     1
290
     0
176
     1
 90
       50
176
     1
 40
0.0
176
     1
 40
1.0
176
     1
 90
        0
176
     1
 62
    18
420
        0
176
     1
 90
       50
176
     1
 90
        3
176
     1
 62
     5
420
      255
176
     1
290
     0
176
     1
 90
       50
176
     1
 90
       50
176
     1
 90
       50
176
     1
290
     0
176
     1
 90
       50
176
     1
 62
   256
176
     0
 40
1.0
176
     0
 90
        2
176
     1
  1
strokes_ogs.tif
176
     1
290
     0
176
     1
 40
1.0
176
     1
 40
1.0
176
     1
  0
VISUALSTYLE
  5
2684
102
{ACAD_REACTORS
330
99
102
}
330
99
100
AcDbVisualStyle
  2
3dWireframe
 70
     5
177
     3
291
     0
 70
    58
 90
        0
176
     1
 90
        2
176
     1
 90
        0
176
     1
 90
        0
176
     1
 40
0.6
176
     1
 40
30.0
176
     1
 62
     7
176
     1
 90
        1
176
     1
 90
        4
176
     1
 62
     7
176
     1
 62
   257
176
     1
 90
        1
176
     1
 90
        1
176
     1
 40
1.0
176
     1
 90
        0
176
     1
 62
   257
176
     1
 40
1.0
176
     1
 90
        1
176
     1
 90
        6
176
     1
 90
        2
176
     1
 62
     7
176
     1
 90
        5
176
     1
 90
        0
176
     1
 90
        0
176
     1
290
     0
176
     1
 90
        1
176
     1
 40
0.0
176
     1
 90
        0
176
     1
290
     0
176
     1
290
     1
176
     1
290
     1
176
     1
290
     0
176
     1
290
     0
176
     1
290
     0
176
     1
290
     0
176
     1
290
     0
176
     1
290
     0
176
     1
 90
       50
176
     1
 40
0.0
176
     1
 40
1.0
176
     1
 90
        0
176
     1
 62
    18
420
        0
176
     1
 90
       50
176
     1
 90
        3
176
     1
 62
     5
420
      255
176
     1
290
     0
176
     1
 90
       50
176
     1
 90
       50
176
     1
 90
       50
176
     1
290
     0
176
     1
 90
       50
176
     1
 62
   256
176
     0
 40
1.0
176
     0
 90
        2
176
     1
  1
strokes_ogs.tif
176
     1
290
     0
176
     1
 40
1.0
176
     1
 40
1.0
176
     1
1001
ACAD
1000
AcRTDxfName
1000
VISUALSTYLE
  0
VISUALSTYLE
  5
9E
102
{ACAD_REACTORS
330
99
102
}
330
99
100
AcDbVisualStyle
  2
Basic
 70
     7
177
     3
291
     1
 70
    58
 90
        1
176
     1
 90
        0
176
     1
 90
        1
176
     1
 90
        0
176
     1
 40
0.6
176
     1
 40
30.0
176
     1
 62
     7
420
 16777215
176
     1
 90
        0
176
     1
 90
        4
176
     1
 62
     7
176
     1
 62
   257
176
     1
 90
        1
176
     1
 90
        1
176
     1
 40
1.0
176
     1
 90
        8
176
     1
 62
     7
176
     1
 40
1.0
176
     1
 90
        1
176
     1
 90
        6
176
     1
 90
        2
176
     1
 62
     7
176
     1
 90
        5
176
     1
 90
        0
176
     1
 90
        0
176
     1
290
     0
176
     1
 90
        1
176
     1
 40
0.0
176
     1
 90
        0
176
     1
290
     0
176
     1
290
     1
176
     1
290
     1
176
     1
290
     0
176
     1
290
     0
176
     1
290
     0
176
     1
290
     0
176
     1
290
     0
176
     1
290
     0
176
     1
 90
       50
176
     1
 40
0.0
176
     1
 40
1.0
176
     1
 90
        0
176
     1
 62
    18
420
        0
176
     1
 90
       50
176
     1
 90
        3
176
     1
 62
     5
420
      255
176
     1
290
     0
176
     1
 90
       50
176
     1
 90
       50
176
     1
 90
       50
176
     1
290
     0
176
     1
 90
       50
176
     1
 62
   256
176
     0
 40
1.0
176
     0
 90
        2
176
     1
  1
strokes_ogs.tif
176
     1
290
     0
176
     1
 40
1.0
176
     1
 40
1.0
176
     1
  0
VISUALSTYLE
  5
A5
102
{ACAD_REACTORS
330
99
102
}
330
99
100
AcDbVisualStyle
  2
Brighten
 70
    12
177
     3
291
     1
 70
    58
 90
        2
176
     1
 90
        2
176
     1
 90
        1
176
     1
 90
        0
176
     1
 40
0.6
176
     1
 40
30.0
176
     1
 62
     7
420
 16777215
176
     1
 90
        1
176
     1
 90
        4
176
     1
 62
     7
176
     1
 62
   257
176
     1
 90
        1
176
     1
 90
        1
176
     1
 40
1.0
176
     1
 90
        8
176
     1
 62
     7
176
     1
 40
1.0
176
     1
 90
        1
176
     1
 90
        6
176
     1
 90
        2
176
     1
 62
     7
176
     1
 90
        5
176
     1
 90
        0
176
     1
 90
        0
176
     1
290
     0
176
     1
 90
        1
176
     1
 40
50.0
176
     1
 90
        0
176
     1
290
     0
176
     1
290
     1
176
     1
290
     1
176
     1
290
     0
176
     1
290
     0
176
     1
290
     0
176
     1
290
     0
176
     1
290
     0
176
     1
290
     0
176
     1
 90
       50
176
     1
 40
0.0
176
     1
 40
1.0
176
     1
 90
        0
176
     1
 62
    18
420
        0
176
     1
 90
       50
176
     1
 90
        3
176
     1
 62
     5
420
      255
176
     1
290
     0
176
     1
 90
       50
176
     1
 90
       50
176
     1
 90
       50
176
     1
290
     0
176
     1
 90
       50
176
     1
 62
   256
176
     0
 40
1.0
176
     0
 90
        2
176
     1
  1
strokes_ogs.tif
176
     1
290
     0
176
     1
 40
1.0
176
     1
 40
1.0
176
     1
  0
VISUALSTYLE
  5
A9
102
{ACAD_REACTORS
330
99
102
}
330
99
100
AcDbVisualStyle
  2
ColorChange
 70
    16
177
     3
291
     1
 70
    58
 90
        2
176
     1
 90
        2
176
     1
 90
        3
176
     1
 90
        0
176
     1
 40
0.6
176
     1
 40
30.0
176
     1
 62
     8
420
  8421504
176
     1
 90
        1
176
     1
 90
        4
176
     1
 62
     7
176
     1
 62
   257
176
     1
 90
        1
176
     1
 90
        1
176
     1
 40
1.0
176
     1
 90
        8
176
     1
 62
     8
420
  8421504
176
     1
 40
1.0
176
     1
 90
        1
176
     1
 90
        6
176
     1
 90
        2
176
     1
 62
     7
176
     1
 90
        5
176
     1
 90
        0
176
     1
 90
        0
176
     1
290
     0
176
     1
 90
        1
176
     1
 40
0.0
176
     1
 90
        0
176
     1
290
     0
176
     1
290
     1
176
     1
290
     1
176
     1
290
     0
176
     1
290
     0
176
     1
290
     0
176
     1
290
     0
176
     1
290
     0
176
     1
290
     0
176
     1
 90
       50
176
     1
 40
0.0
176
     1
 40
1.0
176
     1
 90
        0
176
     1
 62
    18
420
        0
176
     1
 90
       50
176
     1
 90
        3
176
     1
 62
     5
420
      255
176
     1
290
     0
176
     1
 90
       50
176
     1
 90
       50
176
     1
 90
       50
176
     1
290
     0
176
     1
 90
       50
176
     1
 62
   256
176
     0
 40
1.0
176
     0
 90
        2
176
     1
  1
strokes_ogs.tif
176
     1
290
     0
176
     1
 40
1.0
176
     1
 40
1.0
176
     1
  0
VISUALSTYLE
  5
A2
102
{ACAD_REACTORS
330
99
102
}
330
99
100
AcDbVisualStyle
  2
Conceptual
 70
     9
177
     3
291
     0
 70
    58
 90
        3
176
     1
 90
        2
176
     1
 90
        1
176
     1
 90
        0
176
     1
 40
0.6
176
     1
 40
30.0
176
     1
 62
     7
420
 16777215
176
     1
 90
        2
176
     1
 90
        2
176
     1
 62
     7
176
     1
 62
   257
176
     1
 90
        1
176
     1
 90
        1
176
     1
 40
40.0
176
     1
 90
        8
176
     1
 62
     7
176
     1
 40
1.0
176
     1
 90
        1
176
     1
 90
        6
176
     1
 90
        2
176
     1
 62
     7
176
     1
 90
        3
176
     1
 90
        0
176
     1
 90
        0
176
     1
290
     0
176
     1
 90
        1
176
     1
 40
0.0
176
     1
 90
        0
176
     1
290
     0
176
     1
290
     1
176
     1
290
     1
176
     1
290
     0
176
     1
290
     0
176
     1
290
     0
176
     1
290
     0
176
     1
290
     0
176
     1
290
     0
176
     1
 90
       50
176
     1
 40
0.0
176
     1
 40
1.0
176
     1
 90
        0
176
     1
 62
    18
420
        0
176
     1
 90
       50
176
     1
 90
        3
176
     1
 62
     5
420
      255
176
     1
290
     0
176
     1
 90
       50
176
     1
 90
       50
176
     1
 90
       50
176
     1
290
     0
176
     1
 90
       50
176
     1
 62
   256
176
     0
 40
1.0
176
     0
 90
        2
176
     1
  1
strokes_ogs.tif
176
     1
290
     0
176
     1
 40
1.0
176
     1
 40
1.0
176
     1
  0
VISUALSTYLE
  5
A4
102
{ACAD_REACTORS
330
99
102
}
330
99
100
AcDbVisualStyle
  2
Dim
 70
    11
177
     3
291
     1
 70
    58
 90
        2
176
     1
 90
        2
176
     1
 90
        1
176
     1
 90
        0
176
     1
 40
0.6
176
     1
 40
30.0
176
     1
 62
     7
420
 16777215
176
     1
 90
        1
176
     1
 90
        4
176
     1
 62
     7
176
     1
 62
   257
176
     1
 90
        1
176
     1
 90
        1
176
     1
 40
1.0
176
     1
 90
        8
176
     1
 62
     7
176
     1
 40
1.0
176
     1
 90
        1
176
     1
 90
        6
176
     1
 90
        2
176
     1
 62
     7
176
     1
 90
        5
176
     1
 90
        0
176
     1
 90
        0
176
     1
290
     0
176
     1
 90
        1
176
     1
 40
-50.0
176
     1
 90
        0
176
     1
290
     0
176
     1
290
     1
176
     1
290
     1
176
     1
290
     0
176
     1
290
     0
176
     1
290
     0
176
     1
290
     0
176
     1
290
     0
176
     1
290
     0
176
     1
 90
       50
176
     1
 40
0.0
176
     1
 40
1.0
176
     1
 90
        0
176
     1
 62
    18
420
        0
176
     1
 90
       50
176
     1
 90
        3
176
     1
 62
     5
420
      255
176
     1
290
     0
176
     1
 90
       50
176
     1
 90
       50
176
     1
 90
       50
176
     1
290
     0
176
     1
 90
       50
176
     1
 62
   256
176
     0
 40
1.0
176
     0
 90
        2
176
     1
  1
strokes_ogs.tif
176
     1
290
     0
176
     1
 40
1.0
176
     1
 40
1.0
176
     1
  0
VISUALSTYLE
  5
175
102
{ACAD_REACTORS
330
99
102
}
330
99
100
AcDbVisualStyle
  2
EdgeColorOff
 70
    22
177
     3
291
     1
 70
    58
 90
        2
176
     0
 90
        2
176
     0
 90
        0
176
     0
 90
        0
176
     0
 40
0.6
176
     0
 40
30.0
176
     0
 62
     7
420
 16777215
176
     0
 90
        1
176
     0
 90
        4
176
     0
 62
     7
176
     0
 62
   257
176
     0
 90
        1
176
     0
 90
        1
176
     0
 40
1.0
176
     0
 90
        8
176
     2
 62
     7
176
     0
 40
1.0
176
     0
 90
        1
176
     0
 90
        6
176
     0
 90
        2
176
     0
 62
     7
176
     0
 90
        5
176
     0
 90
        0
176
     0
 90
        0
176
     0
290
     0
176
     0
 90
        1
176
     0
 40
0.0
176
     0
 90
        0
176
     0
290
     0
176
     1
290
     1
176
     1
290
     1
176
     1
290
     0
176
     1
290
     0
176
     1
290
     0
176
     1
290
     0
176
     1
290
     0
176
     1
290
     0
176
     1
 90
       50
176
     1
 40
0.0
176
     1
 40
1.0
176
     1
 90
        0
176
     1
 62
    18
420
        0
176
     1
 90
       50
176
     1
 90
        3
176
     1
 62
     5
420
      255
176
     1
290
     0
176
     1
 90
       50
176
     1
 90
       50
176
     1
 90
       50
176
     1
290
     0
176
     1
 90
       50
176
     1
 62
   256
176
     0
 40
1.0
176
     0
 90
        2
176
     1
  1
strokes_ogs.tif
176
     1
290
     0
176
     1
 40
1.0
176
     1
 40
1.0
176
     1
  0
VISUALSTYLE
  5
A8
102
{ACAD_REACTORS
330
99
102
}
330
99
100
AcDbVisualStyle
  2
Facepattern
 70
    15
177
     3
291
     1
 70
    58
 90
        2
176
     1
 90
        2
176
     1
 90
        1
176
     1
 90
        0
176
     1
 40
0.6
176
     1
 40
30.0
176
     1
 62
     7
420
 16777215
176
     1
 90
        1
176
     1
 90
        4
176
     1
 62
     7
176
     1
 62
   257
176
     1
 90
        1
176
     1
 90
        1
176
     1
 40
1.0
176
     1
 90
        8
176
     1
 62
     7
176
     1
 40
1.0
176
     1
 90
        1
176
     1
 90
        6
176
     1
 90
        2
176
     1
 62
     7
176
     1
 90
        5
176
     1
 90
        0
176
     1
 90
        0
176
     1
290
     0
176
     1
 90
        1
176
     1
 40
0.0
176
     1
 90
        0
176
     1
290
     0
176
     1
290
     1
176
     1
290
     1
176
     1
290
     0
176
     1
290
     0
176
     1
290
     0
176
     1
290
     0
176
     1
290
     0
176
     1
290
     0
176
     1
 90
       50
176
     1
 40
0.0
176
     1
 40
1.0
176
     1
 90
        0
176
     1
 62
    18
420
        0
176
     1
 90
       50
176
     1
 90
        3
176
     1
 62
     5
420
      255
176
     1
290
     0
176
     1
 90
       50
176
     1
 90
       50
176
     1
 90
       50
176
     1
290
     0
176
     1
 90
       50
176
     1
 62
   256
176
     0
 40
1.0
176
     0
 90
        2
176
     1
  1
strokes_ogs.tif
176
     1
290
     0
176
     1
 40
1.0
176
     1
 40
1.0
176
     1
  0
VISUALSTYLE
  5
9A
102
{ACAD_REACTORS
330
99
102
}
330
99
100
AcDbVisualStyle
  2
Flat
 70
     0
177
     3
291
     1
 70
    58
 90
        2
176
     1
 90
        1
176
     1
 90
        1
176
     1
 90
        2
176
     1
 40
0.6
176
     1
 40
30.0
176
     1
 62
     7
420
 16777215
176
     1
 90
        0
176
     1
 90
        0
176
     1
 62
     7
176
     1
 62
   257
176
     1
 90
        1
176
     1
 90
        1
176
     1
 40
1.0
176
     1
 90
        8
176
     1
 62
     7
176
     1
 40
1.0
176
     1
 90
        1
176
     1
 90
        6
176
     1
 90
        2
176
     1
 62
     7
176
     1
 90
        5
176
     1
 90
        0
176
     1
 90
        0
176
     1
290
     0
176
     1
 90
       13
176
     1
 40
0.0
176
     1
 90
        0
176
     1
290
     0
176
     1
290
     1
176
     1
290
     1
176
     1
290
     0
176
     1
290
     0
176
     1
290
     0
176
     1
290
     0
176
     1
290
     0
176
     1
290
     0
176
     1
 90
       50
176
     1
 40
0.0
176
     1
 40
1.0
176
     1
 90
        0
176
     1
 62
    18
420
        0
176
     1
 90
       50
176
     1
 90
        3
176
     1
 62
     5
420
      255
176
     1
290
     0
176
     1
 90
       50
176
     1
 90
       50
176
     1
 90
       50
176
     1
290
     0
176
     1
 90
       50
176
     1
 62
   256
176
     0
 40
1.0
176
     0
 90
        2
176
     1
  1
strokes_ogs.tif
176
     1
290
     0
176
     1
 40
1.0
176
     1
 40
1.0
176
     1
  0
VISUALSTYLE
  5
9B
102
{ACAD_REACTORS
330
99
102
}
330
99
100
AcDbVisualStyle
  2
FlatWithEdges
 70
     1
177
     3
291
     1
 70
    58
 90
        2
176
     1
 90
        1
176
     1
 90
        1
176
     1
 90
        2
176
     1
 40
0.6
176
     1
 40
30.0
176
     1
 62
     7
420
 16777215
176
     1
 90
        1
176
     1
 90
        0
176
     1
 62
     7
176
     1
 62
   257
176
     1
 90
        1
176
     1
 90
        1
176
     1
 40
1.0
176
     1
 90
        0
176
     1
 62
   257
176
     1
 40
1.0
176
     1
 90
        1
176
     1
 90
        6
176
     1
 90
        2
176
     1
 62
     7
176
     1
 90
        5
176
     1
 90
        0
176
     1
 90
        0
176
     1
290
     0
176
     1
 90
       13
176
     1
 40
0.0
176
     1
 90
        0
176
     1
290
     0
176
     1
290
     1
176
     1
290
     1
176
     1
290
     0
176
     1
290
     0
176
     1
290
     0
176
     1
290
     0
176
     1
290
     0
176
     1
290
     0
176
     1
 90
       50
176
     1
 40
0.0
176
     1
 40
1.0
176
     1
 90
        0
176
     1
 62
    18
420
        0
176
     1
 90
       50
176
     1
 90
        3
176
     1
 62
     5
420
      255
176
     1
290
     0
176
     1
 90
       50
176
     1
 90
       50
176
     1
 90
       50
176
     1
290
     0
176
     1
 90
       50
176
     1
 62
   256
176
     0
 40
1.0
176
     0
 90
        2
176
     1
  1
strokes_ogs.tif
176
     1
290
     0
176
     1
 40
1.0
176
     1
 40
1.0
176
     1
  0
VISUALSTYLE
  5
9C
102
{ACAD_REACTORS
330
99
102
}
330
99
100
AcDbVisualStyle
  2
Gouraud
 70
     2
177
     3
291
     1
 70
    58
 90
        2
176
     1
 90
        2
176
     1
 90
        1
176
     1
 90
        2
176
     1
 40
0.6
176
     1
 40
30.0
176
     1
 62
     7
420
 16777215
176
     1
 90
        0
176
     1
 90
        0
176
     1
 62
     7
176
     1
 62
   257
176
     1
 90
        1
176
     1
 90
        1
176
     1
 40
1.0
176
     1
 90
        0
176
     1
 62
     7
176
     1
 40
1.0
176
     1
 90
        1
176
     1
 90
        6
176
     1
 90
        2
176
     1
 62
     7
176
     1
 90
        5
176
     1
 90
        0
176
     1
 90
        0
176
     1
290
     0
176
     1
 90
       13
176
     1
 40
0.0
176
     1
 90
        0
176
     1
290
     0
176
     1
290
     1
176
     1
290
     1
176
     1
290
     0
176
     1
290
     0
176
     1
290
     0
176
     1
290
     0
176
     1
290
     0
176
     1
290
     0
176
     1
 90
       50
176
     1
 40
0.0
176
     1
 40
1.0
176
     1
 90
        0
176
     1
 62
    18
420
        0
176
     1
 90
       50
176
     1
 90
        3
176
     1
 62
     5
420
      255
176
     1
290
     0
176
     1
 90
       50
176
     1
 90
       50
176
     1
 90
       50
176
     1
290
     0
176
     1
 90
       50
176
     1
 62
   256
176
     0
 40
1.0
176
     0
 90
        2
176
     1
  1
strokes_ogs.tif
176
     1
290
     0
176
     1
 40
1.0
176
     1
 40
1.0
176
     1
  0
VISUALSTYLE
  5
9D
102
{ACAD_REACTORS
330
99
102
}
330
99
100
AcDbVisualStyle
  2
GouraudWithEdges
 70
     3
177
     3
291
     1
 70
    58
 90
        2
176
     1
 90
        2
176
     1
 90
        1
176
     1
 90
        2
176
     1
 40
0.6
176
     1
 40
30.0
176
     1
 62
     7
420
 16777215
176
     1
 90
        1
176
     1
 90
        0
176
     1
 62
     7
176
     1
 62
   257
176
     1
 90
        1
176
     1
 90
        1
176
     1
 40
1.0
176
     1
 90
        0
176
     1
 62
   257
176
     1
 40
1.0
176
     1
 90
        1
176
     1
 90
        6
176
     1
 90
        2
176
     1
 62
     7
176
     1
 90
        5
176
     1
 90
        0
176
     1
 90
        0
176
     1
290
     0
176
     1
 90
       13
176
     1
 40
0.0
176
     1
 90
        0
176
     1
290
     0
176
     1
290
     1
176
     1
290
     1
176
     1
290
     0
176
     1
290
     0
176
     1
290
     0
176
     1
290
     0
176
     1
290
     0
176
     1
290
     0
176
     1
 90
       50
176
     1
 40
0.0
176
     1
 40
1.0
176
     1
 90
        0
176
     1
 62
    18
420
        0
176
     1
 90
       50
176
     1
 90
        3
176
     1
 62
     5
420
      255
176
     1
290
     0
176
     1
 90
       50
176
     1
 90
       50
176
     1
 90
       50
176
     1
290
     0
176
     1
 90
       50
176
     1
 62
   256
176
     0
 40
1.0
176
     0
 90
        2
176
     1
  1
strokes_ogs.tif
176
     1
290
     0
176
     1
 40
1.0
176
     1
 40
1.0
176
     1
  0
VISUALSTYLE
  5
A1
102
{ACAD_REACTORS
330
99
102
}
330
99
100
AcDbVisualStyle
  2
Hidden
 70
     6
177
     3
291
     0
 70
    58
 90
        1
176
     1
 90
        2
176
     1
 90
        2
176
     1
 90
        0
176
     1
 40
0.6
176
     1
 40
30.0
176
     1
 62
     7
420
 16777215
176
     1
 90
        2
176
     1
 90
        2
176
     1
 62
     7
176
     1
 62
   257
176
     1
 90
        2
176
     1
 90
        1
176
     1
 40
40.0
176
     1
 90
        0
176
     1
 62
   257
176
     1
 40
1.0
176
     1
 90
        1
176
     1
 90
        6
176
     1
 90
        2
176
     1
 62
     7
176
     1
 90
        3
176
     1
 90
        0
176
     1
 90
        0
176
     1
290
     0
176
     1
 90
        1
176
     1
 40
0.0
176
     1
 90
        0
176
     1
290
     0
176
     1
290
     1
176
     1
290
     1
176
     1
290
     0
176
     1
290
     0
176
     1
290
     0
176
     1
290
     0
176
     1
290
     0
176
     1
290
     0
176
     1
 90
       50
176
     1
 40
0.0
176
     1
 40
1.0
176
     1
 90
        0
176
     1
 62
    18
420
        0
176
     1
 90
       50
176
     1
 90
        3
176
     1
 62
     5
420
      255
176
     1
290
     0
176
     1
 90
       50
176
     1
 90
       50
176
     1
 90
       50
176
     1
290
     0
176
     1
 90
       50
176
     1
 62
   256
176
     0
 40
1.0
176
     0
 90
        2
176
     1
  1
strokes_ogs.tif
176
     1
290
     0
176
     1
 40
1.0
176
     1
 40
1.0
176
     1
  0
VISUALSTYLE
  5
173
102
{ACAD_REACTORS
330
99
102
}
330
99
100
AcDbVisualStyle
  2
JitterOff
 70
    20
177
     3
291
     1
 70
    58
 90
        2
176
     0
 90
        2
176
     0
 90
        0
176
     0
 90
        0
176
     0
 40
0.6
176
     0
 40
30.0
176
     0
 62
     7
420
 16777215
176
     0
 90
        1
176
     0
 90
        4
176
     0
 62
     7
176
     0
 62
   257
176
     0
 90
        1
176
     0
 90
        1
176
     0
 40
1.0
176
     0
 90
       10
176
     2
 62
     7
176
     0
 40
1.0
176
     0
 90
        1
176
     0
 90
        6
176
     0
 90
        2
176
     0
 62
     7
176
     0
 90
        5
176
     0
 90
        0
176
     0
 90
        0
176
     0
290
     0
176
     0
 90
        1
176
     0
 40
0.0
176
     0
 90
        0
176
     0
290
     0
176
     1
290
     1
176
     1
290
     1
176
     1
290
     0
176
     1
290
     0
176
     1
290
     0
176
     1
290
     0
176
     1
290
     0
176
     1
290
     0
176
     1
 90
       50
176
     1
 40
0.0
176
     1
 40
1.0
176
     1
 90
        0
176
     1
 62
    18
420
        0
176
     1
 90
       50
176
     1
 90
        3
176
     1
 62
     5
420
      255
176
     1
290
     0
176
     1
 90
       50
176
     1
 90
       50
176
     1
 90
       50
176
     1
290
     0
176
     1
 90
       50
176
     1
 62
   256
176
     0
 40
1.0
176
     0
 90
        2
176
     1
  1
strokes_ogs.tif
176
     1
290
     0
176
     1
 40
1.0
176
     1
 40
1.0
176
     1
  0
VISUALSTYLE
  5
A7
102
{ACAD_REACTORS
330
99
102
}
330
99
100
AcDbVisualStyle
  2
Linepattern
 70
    14
177
     3
291
     1
 70
    58
 90
        2
176
     1
 90
        2
176
     1
 90
        1
176
     1
 90
        0
176
     1
 40
0.6
176
     1
 40
30.0
176
     1
 62
     7
420
 16777215
176
     1
 90
        1
176
     1
 90
        4
176
     1
 62
     7
176
     1
 62
   257
176
     1
 90
        7
176
     1
 90
        7
176
     1
 40
1.0
176
     1
 90
        8
176
     1
 62
     7
176
     1
 40
1.0
176
     1
 90
        1
176
     1
 90
        6
176
     1
 90
        2
176
     1
 62
     7
176
     1
 90
        5
176
     1
 90
        0
176
     1
 90
        0
176
     1
290
     0
176
     1
 90
        1
176
     1
 40
0.0
176
     1
 90
        0
176
     1
290
     0
176
     1
290
     1
176
     1
290
     1
176
     1
290
     0
176
     1
290
     0
176
     1
290
     0
176
     1
290
     0
176
     1
290
     0
176
     1
290
     0
176
     1
 90
       50
176
     1
 40
0.0
176
     1
 40
1.0
176
     1
 90
        0
176
     1
 62
    18
420
        0
176
     1
 90
       50
176
     1
 90
        3
176
     1
 62
     5
420
      255
176
     1
290
     0
176
     1
 90
       50
176
     1
 90
       50
176
     1
 90
       50
176
     1
290
     0
176
     1
 90
       50
176
     1
 62
   256
176
     0
 40
1.0
176
     0
 90
        2
176
     1
  1
strokes_ogs.tif
176
     1
290
     0
176
     1
 40
1.0
176
     1
 40
1.0
176
     1
  0
VISUALSTYLE
  5
174
102
{ACAD_REACTORS
330
99
102
}
330
99
100
AcDbVisualStyle
  2
OverhangOff
 70
    21
177
     3
291
     1
 70
    58
 90
        2
176
     0
 90
        2
176
     0
 90
        0
176
     0
 90
        0
176
     0
 40
0.6
176
     0
 40
30.0
176
     0
 62
     7
420
 16777215
176
     0
 90
        1
176
     0
 90
        4
176
     0
 62
     7
176
     0
 62
   257
176
     0
 90
        1
176
     0
 90
        1
176
     0
 40
1.0
176
     0
 90
        9
176
     2
 62
     7
176
     0
 40
1.0
176
     0
 90
        1
176
     0
 90
        6
176
     0
 90
        2
176
     0
 62
     7
176
     0
 90
        5
176
     0
 90
        0
176
     0
 90
        0
176
     0
290
     0
176
     0
 90
        1
176
     0
 40
0.0
176
     0
 90
        0
176
     0
290
     0
176
     1
290
     1
176
     1
290
     1
176
     1
290
     0
176
     1
290
     0
176
     1
290
     0
176
     1
290
     0
176
     1
290
     0
176
     1
290
     0
176
     1
 90
       50
176
     1
 40
0.0
176
     1
 40
1.0
176
     1
 90
        0
176
     1
 62
    18
420
        0
176
     1
 90
       50
176
     1
 90
        3
176
     1
 62
     5
420
      255
176
     1
290
     0
176
     1
 90
       50
176
     1
 90
       50
176
     1
 90
       50
176
     1
290
     0
176
     1
 90
       50
176
     1
 62
   256
176
     0
 40
1.0
176
     0
 90
        2
176
     1
  1
strokes_ogs.tif
176
     1
290
     0
176
     1
 40
1.0
176
     1
 40
1.0
176
     1
  0
VISUALSTYLE
  5
A3
102
{ACAD_REACTORS
330
99
102
}
330
99
100
AcDbVisualStyle
  2
Realistic
 70
     8
177
     3
291
     0
 70
    58
 90
        2
176
     1
 90
        2
176
     1
 90
        0
176
     1
 90
        2
176
     1
 40
0.6
176
     1
 40
30.0
176
     1
 62
     7
420
 16777215
176
     1
 90
        0
176
     1
 90
        0
176
     1
 62
     7
176
     1
 62
   257
176
     1
 90
        1
176
     1
 90
        1
176
     1
 40
1.0
176
     1
 90
        8
176
     1
 62
   257
176
     1
 40
1.0
176
     1
 90
        1
176
     1
 90
        6
176
     1
 90
        2
176
     1
 62
     7
176
     1
 90
        3
176
     1
 90
        0
176
     1
 90
        0
176
     1
290
     0
176
     1
 90
       13
176
     1
 40
0.0
176
     1
 90
        0
176
     1
290
     0
176
     1
290
     1
176
     1
290
     1
176
     1
290
     0
176
     1
290
     0
176
     1
290
     0
176
     1
290
     0
176
     1
290
     0
176
     1
290
     0
176
     1
 90
       50
176
     1
 40
0.0
176
     1
 40
1.0
176
     1
 90
        0
176
     1
 62
    18
420
        0
176
     1
 90
       50
176
     1
 90
        3
176
     1
 62
     5
420
      255
176
     1
290
     0
176
     1
 90
       50
176
     1
 90
       50
176
     1
 90
       50
176
     1
290
     0
176
     1
 90
       50
176
     1
 62
   256
176
     0
 40
1.0
176
     0
 90
        2
176
     1
  1
strokes_ogs.tif
176
     1
290
     0
176
     1
 40
1.0
176
     1
 40
1.0
176
     1
  0
VISUALSTYLE
  5
182
102
{ACAD_REACTORS
330
99
102
}
330
99
100
AcDbVisualStyle
  2
Shaded
 70
    27
177
     3
291
     0
 70
    58
 90
        2
176
     1
 90
        2
176
     1
 90
        1
176
     1
 90
        2
176
     1
 40
0.6
176
     1
 40
30.0
176
     1
 62
     7
420
 16777215
176
     1
 90
        0
176
     1
 90
        4
176
     1
 62
     7
176
     1
 62
   257
176
     1
 90
        1
176
     1
 90
        1
176
     1
 40
1.0
176
     1
 90
        8
176
     1
 62
   257
176
     1
 40
1.0
176
     1
 90
        1
176
     1
 90
        6
176
     1
 90
        2
176
     1
 62
     8
420
  7895160
176
     1
 90
        3
176
     1
 90
        0
176
     1
 90
        0
176
     1
290
     0
176
     1
 90
        5
176
     1
 40
0.0
176
     1
 90
        0
176
     1
290
     0
176
     1
290
     1
176
     1
290
     1
176
     1
290
     0
176
     1
290
     0
176
     1
290
     0
176
     1
290
     0
176
     1
290
     0
176
     1
290
     0
176
     1
 90
       50
176
     1
 40
0.0
176
     1
 40
1.0
176
     1
 90
        0
176
     1
 62
    18
420
        0
176
     1
 90
       50
176
     1
 90
        3
176
     1
 62
     5
420
      255
176
     1
290
     0
176
     1
 90
       50
176
     1
 90
       50
176
     1
 90
       50
176
     1
290
     0
176
     1
 90
       50
176
     1
 62
   256
176
     0
 40
1.0
176
     0
 90
        2
176
     1
  1
strokes_ogs.tif
176
     1
290
     0
176
     1
 40
1.0
176
     1
 40
1.0
176
     1
  0
VISUALSTYLE
  5
181
102
{ACAD_REACTORS
330
99
102
}
330
99
100
AcDbVisualStyle
  2
Shaded with edges
 70
    26
177
     3
291
     0
 70
    58
 90
        2
176
     1
 90
        2
176
     1
 90
        1
176
     1
 90
        2
176
     1
 40
0.6
176
     1
 40
30.0
176
     1
 62
     7
420
 16777215
176
     1
 90
        1
176
     1
 90
        2
176
     1
 62
     7
176
     1
 62
   257
176
     1
 90
        2
176
     1
 90
        1
176
     1
 40
1.0
176
     1
 90
        8
176
     1
 62
   257
176
     1
 40
1.0
176
     1
 90
        1
176
     1
 90
        6
176
     1
 90
        2
176
     1
 62
     7
176
     1
 90
        3
176
     1
 90
        0
176
     1
 90
        0
176
     1
290
     0
176
     1
 90
        5
176
     1
 40
0.0
176
     1
 90
        0
176
     1
290
     0
176
     1
290
     1
176
     1
290
     1
176
     1
290
     0
176
     1
290
     0
176
     1
290
     0
176
     1
290
     0
176
     1
290
     0
176
     1
290
     0
176
     1
 90
       50
176
     1
 40
0.0
176
     1
 40
1.0
176
     1
 90
        0
176
     1
 62
    18
420
        0
176
     1
 90
       50
176
     1
 90
        3
176
     1
 62
     5
420
      255
176
     1
290
     0
176
     1
 90
       50
176
     1
 90
       50
176
     1
 90
       50
176
     1
290
     0
176
     1
 90
       50
176
     1
 62
   256
176
     0
 40
1.0
176
     0
 90
        2
176
     1
  1
strokes_ogs.tif
176
     1
290
     0
176
     1
 40
1.0
176
     1
 40
1.0
176
     1
  0
VISUALSTYLE
  5
17E
102
{ACAD_REACTORS
330
99
102
}
330
99
100
AcDbVisualStyle
  2
Shades of Gray
 70
    23
177
     3
291
     0
 70
    58
 90
        2
176
     1
 90
        2
176
     1
 90
        3
176
     1
 90
        0
176
     1
 40
0.6
176
     1
 40
30.0
176
     1
 62
     7
420
 16777215
176
     1
 90
        2
176
     1
 90
        2
176
     1
 62
     7
176
     1
 62
     7
176
     1
 90
        1
176
     1
 90
        1
176
     1
 40
40.0
176
     1
 90
        8
176
     1
 62
     7
176
     1
 40
1.0
176
     1
 90
        1
176
     1
 90
        6
176
     1
 90
        2
176
     1
 62
     7
176
     1
 90
        3
176
     1
 90
        0
176
     1
 90
        0
176
     1
290
     0
176
     1
 90
        1
176
     1
 40
0.0
176
     1
 90
        0
176
     1
290
     0
176
     1
290
     1
176
     1
290
     1
176
     1
290
     0
176
     1
290
     0
176
     1
290
     0
176
     1
290
     0
176
     1
290
     0
176
     1
290
     0
176
     1
 90
       50
176
     1
 40
0.0
176
     1
 40
1.0
176
     1
 90
        0
176
     1
 62
    18
420
        0
176
     1
 90
       50
176
     1
 90
        3
176
     1
 62
     5
420
      255
176
     1
290
     0
176
     1
 90
       50
176
     1
 90
       50
176
     1
 90
       50
176
     1
290
     0
176
     1
 90
       50
176
     1
 62
   256
176
     0
 40
1.0
176
     0
 90
        2
176
     1
  1
strokes_ogs.tif
176
     1
290
     0
176
     1
 40
1.0
176
     1
 40
1.0
176
     1
  0
VISUALSTYLE
  5
17F
102
{ACAD_REACTORS
330
99
102
}
330
99
100
AcDbVisualStyle
  2
Sketchy
 70
    24
177
     3
291
     0
 70
    58
 90
        1
176
     1
 90
        2
176
     1
 90
        2
176
     1
 90
        0
176
     1
 40
0.6
176
     1
 40
30.0
176
     1
 62
     7
420
 16777215
176
     1
 90
        2
176
     1
 90
        2
176
     1
 62
     7
176
     1
 62
     7
176
     1
 90
        1
176
     1
 90
        1
176
     1
 40
40.0
176
     1
 90
       11
176
     1
 62
     7
176
     1
 40
1.0
176
     1
 90
        1
176
     1
 90
        6
176
     1
 90
        2
176
     1
 62
     7
176
     1
 90
        6
176
     1
 90
        0
176
     1
 90
        0
176
     1
290
     0
176
     1
 90
        1
176
     1
 40
0.0
176
     1
 90
        0
176
     1
290
     0
176
     1
290
     1
176
     1
290
     1
176
     1
290
     0
176
     1
290
     0
176
     1
290
     0
176
     1
290
     0
176
     1
290
     0
176
     1
290
     0
176
     1
 90
       50
176
     1
 40
0.0
176
     1
 40
1.0
176
     1
 90
        0
176
     1
 62
    18
420
        0
176
     1
 90
       50
176
     1
 90
        3
176
     1
 62
     5
420
      255
176
     1
290
     0
176
     1
 90
       50
176
     1
 90
       50
176
     1
 90
       50
176
     1
290
     0
176
     1
 90
       50
176
     1
 62
   256
176
     0
 40
1.0
176
     0
 90
        2
176
     1
  1
strokes_ogs.tif
176
     1
290
     0
176
     1
 40
1.0
176
     1
 40
1.0
176
     1
  0
VISUALSTYLE
  5
A6
102
{ACAD_REACTORS
330
99
102
}
330
99
100
AcDbVisualStyle
  2
Thicken
 70
    13
177
     3
291
     1
 70
    58
 90
        2
176
     1
 90
        2
176
     1
 90
        1
176
     1
 90
        0
176
     1
 40
0.6
176
     1
 40
30.0
176
     1
 62
     7
420
 16777215
176
     1
 90
        1
176
     1
 90
        4
176
     1
 62
     7
176
     1
 62
   257
176
     1
 90
        1
176
     1
 90
        1
176
     1
 40
1.0
176
     1
 90
       12
176
     1
 62
     7
176
     1
 40
1.0
176
     1
 90
        1
176
     1
 90
        6
176
     1
 90
        2
176
     1
 62
     7
176
     1
 90
        5
176
     1
 90
        0
176
     1
 90
        0
176
     1
290
     0
176
     1
 90
        1
176
     1
 40
0.0
176
     1
 90
        0
176
     1
290
     0
176
     1
290
     1
176
     1
290
     1
176
     1
290
     0
176
     1
290
     0
176
     1
290
     0
176
     1
290
     0
176
     1
290
     0
176
     1
290
     0
176
     1
 90
       50
176
     1
 40
0.0
176
     1
 40
1.0
176
     1
 90
        0
176
     1
 62
    18
420
        0
176
     1
 90
       50
176
     1
 90
        3
176
     1
 62
     5
420
      255
176
     1
290
     0
176
     1
 90
       50
176
     1
 90
       50
176
     1
 90
       50
176
     1
290
     0
176
     1
 90
       50
176
     1
 62
   256
176
     0
 40
1.0
176
     0
 90
        2
176
     1
  1
strokes_ogs.tif
176
     1
290
     0
176
     1
 40
1.0
176
     1
 40
1.0
176
     1
  0
VISUALSTYLE
  5
A0
102
{ACAD_REACTORS
330
99
102
}
330
99
100
AcDbVisualStyle
  2
Wireframe
 70
     5
177
     3
291
     0
 70
    58
 90
        0
176
     1
 90
        2
176
     1
 90
        0
176
     1
 90
        0
176
     1
 40
0.6
176
     1
 40
30.0
176
     1
 62
     7
420
 16777215
176
     1
 90
        1
176
     1
 90
        4
176
     1
 62
     7
176
     1
 62
   257
176
     1
 90
        1
176
     1
 90
        1
176
     1
 40
1.0
176
     1
 90
        0
176
     1
 62
   257
176
     1
 40
1.0
176
     1
 90
        1
176
     1
 90
        6
176
     1
 90
        2
176
     1
 62
     7
176
     1
 90
        3
176
     1
 90
        0
176
     1
 90
        0
176
     1
290
     0
176
     1
 90
        1
176
     1
 40
0.0
176
     1
 90
        0
176
     1
290
     0
176
     1
290
     1
176
     1
290
     1
176
     1
290
     0
176
     1
290
     0
176
     1
290
     0
176
     1
290
     0
176
     1
290
     0
176
     1
290
     0
176
     1
 90
       50
176
     1
 40
0.0
176
     1
 40
1.0
176
     1
 90
        0
176
     1
 62
    18
420
        0
176
     1
 90
       50
176
     1
 90
        3
176
     1
 62
     5
420
      255
176
     1
290
     0
176
     1
 90
       50
176
     1
 90
       50
176
     1
 90
       50
176
     1
290
     0
176
     1
 90
       50
176
     1
 62
   256
176
     0
 40
1.0
176
     0
 90
        2
176
     1
  1
strokes_ogs.tif
176
     1
290
     0
176
     1
 40
1.0
176
     1
 40
1.0
176
     1
  0
VISUALSTYLE
  5
180
102
{ACAD_REACTORS
330
99
102
}
330
99
100
AcDbVisualStyle
  2
X-Ray
 70
    25
177
     3
291
     0
 70
    58
 90
        2
176
     1
 90
        2
176
     1
 90
        1
176
     1
 90
        1
176
     1
 40
0.5
176
     1
 40
30.0
176
     1
 62
     7
420
 16777215
176
     1
 90
        1
176
     1
 90
        0
176
     1
 62
     7
176
     1
 62
   257
176
     1
 90
        1
176
     1
 90
        1
176
     1
 40
1.0
176
     1
 90
        8
176
     1
 62
     7
176
     1
 40
1.0
176
     1
 90
        1
176
     1
 90
        6
176
     1
 90
        2
176
     1
 62
     7
176
     1
 90
        3
176
     1
 90
        0
176
     1
 90
        0
176
     1
290
     0
176
     1
 90
       13
176
     1
 40
0.0
176
     1
 90
        0
176
     1
290
     0
176
     1
290
     1
176
     1
290
     1
176
     1
290
     0
176
     1
290
     0
176
     1
290
     0
176
     1
290
     0
176
     1
290
     0
176
     1
290
     0
176
     1
 90
       50
176
     1
 40
0.0
176
     1
 40
1.0
176
     1
 90
        0
176
     1
 62
    18
420
        0
176
     1
 90
       50
176
     1
 90
        3
176
     1
 62
     5
420
      255
176
     1
290
     0
176
     1
 90
       50
176
     1
 90
       50
176
     1
 90
       50
176
     1
290
     0
176
     1
 90
       50
176
     1
 62
   256
176
     0
 40
1.0
176
     0
 90
        2
176
     1
  1
strokes_ogs.tif
176
     1
290
     0
176
     1
 40
1.0
176
     1
 40
1.0
176
     1
  0
DICTIONARYVAR
  5
F0
102
{ACAD_REACTORS
330
66
102
}
330
66
100
DictionaryVariables
280
     0
  1
1:1
  0
DICTIONARYVAR
  5
EF
102
{ACAD_REACTORS
330
66
102
}
330
66
100
DictionaryVariables
280
     0
  1
STANDARD
  0
DICTIONARYVAR
  5
89
102
{ACAD_REACTORS
330
66
102
}
330
66
100
DictionaryVariables
280
     0
  1
STANDARD
  0
DICTIONARYVAR
  5
1B7
102
{ACAD_REACTORS
330
66
102
}
330
66
100
DictionaryVariables
280
     0
  1
Imperial24
  0
DICTIONARYVAR
  5
1B8
102
{ACAD_REACTORS
330
66
102
}
330
66
100
DictionaryVariables
280
     0
  1
Imperial24
  0
DICTIONARYVAR
  5
67
102
{ACAD_REACTORS
330
66
102
}
330
66
100
DictionaryVariables
280
     0
  1
2
  0
DICTIONARYVAR
  5
6B
102
{ACAD_REACTORS
330
66
102
}
330
66
100
DictionaryVariables
280
     0
  1
1
  0
DICTIONARYVAR
  5
14D
102
{ACAD_REACTORS
330
66
102
}
330
66
100
DictionaryVariables
280
     0
  1
0
  0
DICTIONARYVAR
  5
14E
102
{ACAD_REACTORS
330
66
102
}
330
66
100
DictionaryVariables
280
     0
  1
0
  0
DICTIONARY
  5
194
330
22
100
AcDbDictionary
280
     1
281
     1
  0
DICTIONARY
  5
188
330
97
100
AcDbDictionary
280
     1
281
     1
  3
FBXASSET
360
189
  0
DICTIONARY
  5
186
330
96
100
AcDbDictionary
280
     1
281
     1
  3
FBXASSET
360
187
  0
DICTIONARY
  5
110
330
98
100
AcDbDictionary
280
     1
281
     1
  3
BUMPTILE
360
112
  3
DIFFUSETILE
360
111
  3
FBXASSET
360
18A
  3
OPACITYTILE
360
113
  3
REFLECTIONTILE
360
114
  0
DICTIONARY
  5
104
330
87
100
AcDbDictionary
280
     1
281
     1
  3
ACAD_ROUNDTRIP_2008_TABLESTYLE_CELLSTYLEMAP
360
AEE7
  0
XRECORD
  5
189
102
{ACAD_REACTORS
330
188
102
}
330
188
100
AcDbXrecord
280
     1
 70
     1
 90
429727718
  1
508B35C9-AEE7-456F-BE74-D52651303AC6
310
504B03040A0000080000B670623B3DEE336E79000000790000001B0000006175746F6465736B2D64657369676E2D7061636B6167652E786D6C3C3F786D6C2076657273696F6E3D22312E302220656E636F64696E673D227574662D3822203F3E3C666F726D6174733E3C666F726D61743E687474703A2F2F736368656D612E
310
6175746F6465736B2E636F6D2F64657369676E2D7061636B6167652F323030393C2F666F726D61743E3C2F666F726D6174733E504B0304140006080800B670623BD486FD9CA0000000F4000000130000005B436F6E74656E745F54797065735D2E786D6C7D8EC10E82300C865F65E91D8A1E8C310C0EEA1BF002731658846E
310
D98AC1B77784ABF1D8FE5FBFBF75BBCE937A534CCEB38643598122B6FEE978D0B0485F9C41B54DDD7D022595594E1A469170414C76A4D9A4D207E29CF43ECE46F218070CC6BECC4078ACAA135ACF422C856C0E68EA1BF5669944DDD7BCDE7B1F8E415D77AECB980613C2E4AC91FC167A2B244592486606FC29C8FD7F045B9A
310
EF7053A7E60B504B0304140006080800B670623B28ED286BEB0000007C01000008000000636F72652E786D6C8D90416EC3201045AF82665B6183218D6D61A254764FD00B204C5C94182C03558F5F9C3852BBEB6A467FFE9B197D71FA9E6FE8CBACC17AD7012D0820E3B41FAD9B3A48F1826B40272956EFE32F1B20A766D3C1
310
268314D3EAD3B24BDABB685CCCAAF3A3D94515828980F42D371D04FD696655A814B3235C8B45E9AB9A4C419F5D8653B2237A1CB163DE672FD6AC209BF3C08E0D1B30EB19C3FC9D72FCC6EB231EFA33EDE96BDD341517E5064B11EDFCBCAF57A3A2194156843498524CAA0FCA5B7268F9E185D42D21A2DCEC7FA0B48CFF8492
310
759155FBBB0F2C80A4F991FB408A72CB22977B50B96EB9C91F504B0304140006080800B670623B55019EA25F0000007C00000007000000636E782E786D6C4DCB3B0E80201045D1AD90E915ED2CF8AC45050C11660C8261F98AB1B07AC9C97D42D718D865D3E909258CFD00CCE24AC6E326A164D74DC0B4128928FF32603847
310
2BA13128B1252AC747C6BAB984FC68F0B87FE8960A5C09FE86CFB69FBA01504B0304140006080800B670623B7BC41AC871010000D40300000C0000006662782F636F72652E786D6CC553ED6E8320147D15C2DF4501B56B6D90A64BBB27D80B50A5CE54C120983EFEAE1F4DD7A56BBA5FF3879273EEE59E7310BE393735EA95
310
ED2AA333CC428A91D2B9292A5D66D8BB63B0C26823B835C67D2BC348CB46657880B1E0A535BE9DA1DC68A7B403549B42CDA0EC3AE530CA6B5864B8CB3F552343E91D5474A7B095F949962A6421D0502778E72C0840D390E18DC5F170E664C205F7BE2A66B62A605A75AC94C522DDEEE3651AEF837817C741F2CE92E02D592D
310
83FD6ECB76EC7595A651C2C9D02CB8AB9A8BBADC2AE954814544691A3016D0E883256BBA58278B17BA5A53CAC9507ED3E4DBE2C9265F691747B3DCA9ADC382819091F8E1162272A8933DE82182932144F88C09DF060D8140C84E1EEA8B8F1340BDCA9DB1093085F157AA97B557309586747CD0EF0B4EA64E983A6E0EAEEFCE
310
889E9EF17847386AA94B30211D2C0FDE0D3AF9A4610EAD5536E8DD1969631B593F67E381C33F5157F17725E5A636F6BF1491F980C8FC7B90E13E8A2F504B0304140006080800B670623B70102A487D0000009D0000000B0000006662782F636E782E786D6C4DCCD10A83201886E15B91FFDC95A5C30335ACCDFB886521330D
310
A76397BF1A1DECE883878F57749FD5A3B74D2F17830472A901D9F088930B8B849267CC01754AA418F3DF0D5018572BE160506249B16C274D761E8BCFBB7A179E27F65CB39A0F14D396184C9921B81F34C3ACA1B4B99ABB6E6F062A25AA5F69DF23ACBE504B0304140006080800B670623B3610CA3329010000120200003100
310
00006662782F42384135303843342D343331462D343546312D424341352D3532343432364645413344462F636F72652E786D6C8D515B6EC32010BC0AE22B55850D0E446E848992B43E412FE000495162B07854397EA176A4F62F3F2C9A9D991D58BEBB8F37F0AD7D30CE76905418026DA553C65E3A98E219B510EC04F7CEC5
310
3F3408EC30EA0E16180A7EF12E4D0B249D8DDAC68C5AA7F4020E21E80881BCE54B0783FCD2E3500D296646B856D320AFC34557A4CAEDCC133C449F0380794839A138B47B86DB2345744D7A44594FD0E1B867883594369BFE63BF7EEF793D0B054FC9A8456E548E63CE46FB674D8A58F068C6477CE9F510B582A2C1F80D1182
310
70F349E816B32D65AFB8DD62CCEB42FF274A937A52948C8DEB66893BCB021484D7734370E5D2E9F608A3EF93F3119479ABA0E50B14B8C298119A43CCC4FCFCECB8A18B6388CEE7EF5D5D4F994BD86CBBA182D76543B9FCAE2FD7B24DF103504B0304140006080800B670623B1B8617914E0100003303000030000000666278
310
2F42384135303843342D343331462D343546312D424341352D3532343432364645413344462F636E782E786D6CD593C16EC32010447F0571AD6CE3D489D20813A9877E410FBD62D82434182CC055F3F75D1292E692438FBD206B7698593D61BEFD1E2DF982108D773D6D6B460938E5B571FB9ECE6957AD29D90A1EBC4F7736
310
4A9C1CA1A759A682EF839FA72269D8C9D92654AD71C72206887E0E0A22CAF926B15E498B01E0AA19451807D01A34B919F16B070157417138917400F2F6FA41FCF0092A45DEE414C19BDC21783E4BD39D891265658C3D8DEA00A3ACE59CBC8678ACB54CB26EEB6BD7839D7E9348BE70AD9C8321B9BCA7F9A4A26C542347DEE0
310
50F09802D22BA6749A800A394DD62899107273365E3C82CFC6A55557BC06C10774B7ABE7AEC3B0F34CF06446280E154026D0542C187BA9DAB6628BF7B6DBB0E5A65B3EB1F58631DE64BBE083F7B65CC218087E22CABB042E51D1F2268F1FE12B3EA24D40D63E9CFE00120194D60B9D5BC67FE6D39CDF37E20AF817881F504B
310
0304140006080800B670623BBFEF2E3B690500003C100000340000006662782F42384135303843342D343331462D343546312D424341352D3532343432364645413344462F6F626A656374732E786D6CAD575D739B3814FD2B0CFB0C98D84E931D4227B6938EA793B6534F3BFB90198F0099B001899144EAECAFDF231018B0
310
D37A3FFC609090EEE7B94757C1FB7D915B2F54C88CB31BDB7727B64559CC938CA53776A576CE956DBD0F03C1B9EA2DB32D460A7A63EB693B0C52C1ABD24C257447AA5C8D66EF177F5832A68CDA569C13296F6C193FD182B8A4523CA1F2D94D88226EBADBBBBEDB2C1C8A4D05299F46424B222853B014F30C52ACC6287F389C
310
D85E1878FA7B18E87FB36AFAF62AAFF667A83F635211161F291B8999FAB3D5DDC5FCDA99CF6653677679E13B8BFBC5CAF1DF4D27CBCBE5F2FAF6EE1A8AA51290642C117467871F101B91C581D77CEA2C36869F3229E68CD1B8F61F1ED6361B89092D294B90C78C4A68EB793D190E7D1D9BDEE7A91E1B95FDE9F3BCEAEFE809
310
6A6D6F9F7D4B79F4275C90E7A04248AA51D5C4C738DAE06F72885AC4796EBE65D22A88A22223B995679120E2D50EB1542F098381188D4EA111AE3DB043FF20AF6F2B4AE3D7D83D65E5AECA730D4D3BAC91BD05FEA992B565D95F549CD6069B90AB2A63EACA38A45E4B6A87D781574F86817E4C2FCCC72690D62E2729520E37
310
9BAF234797BAF6D62B3BFC781FED37BA1E4F2B2F052FA9501A3E80569BB8F6A9A364D4FA67654E6F803383981F82F21591FF84F23D9882BC896C3FDBCF8C162508933B2E0AE4C69DD43F6BD2BE38DDDBF10BF86CB4FA784D37F3AF16075E67EC9030DECA1FC0A55373F5DFF3378C591FA9BDF485C10B0A8C8BA909E5262639
310
A8E72163488806A595734C81CB77D1DE0ED7604A303B76913CEC0272F412782FF88EFF4636D8AA56DF7B322474C4B767303F625997056C7B032C473C592B36CEBD15F3F9FF5233B7ABCDC74D257624A60F8658567497B14CE1EC3C80B76FD02011038F9EE9EB0F2E12387A9C844D3F09855125116D1D731DF8B43D2CF4E0A0
310
79A020C6BE946BCE0B7EA1E1219331CD73C228AF5A2DDD31A4B1DA918CE91350854D40A71723140BFA92E94E62B0626016CEFA5864A50E5977E8753CEDBEE1CBB7F52780D20E17AF0BA0F5F9B02A3AD07DCC732EB6D1EBB661421BE0C39E21BABF0FE16D22EA6929407C8DE596724C88B749B6DB5512BC7B228ADFD7CB7EA6
310
3A22397E690BA8D5D8D4E40CEC8CDA23C2C0B7D5898640101CEC9C6D331CE328CB93CAFBBAC70A642DF70DF95155945B52F08AA973C23469FD69ADEF84F7BB18F983A8F8C90E37F5D35980B2139A1C523540813E824EF83448CF7C72B598CE97D7CEEDDDDD3B6736BFBC771677EF66CE6A7E7139F7A793E9EDF2B2B3A8B624
310
0CDA13AA5F8388264EC4A0129909F3B7F5A16CEDF08128E97D680ACA4B9BE7B7B58BB638F0B00700EF36AE8B32A705658A68F83EE897FC2B41573190D1CCAF0B92D233A47CFEB019D9809933F67DD1A5467F8CF69AD9A5AE859342D45355448C64F968A371DC2D596ADC6E43D93D1B466F877A64E2893E54F23C4B40388995
310
525E5005DA3983ED45412510D3EFCA13737B3863F74BD30F2A12E5B4B5E489A025CE25500DB855B11ACE5BBFA185D35DD48D8DC3CE7DC69F2944DB42AA6F6CF09BCA622ADD08C7A36E7C6AE18000BAB08E040135C2D21C9D75B3A91B77BB746C403F38018DFE6EC939DD92F16B40BC05294B9CDA035AAD6D330AE27FE4786B
310
8E45145EA34A75BE1C263A676A35A8ACC6297337400BF16C54EF515F3F77CB77EB3583889C754FFA29081AA98E2222ADEF05DA3E63D2EDEA8B8756C05A7FB6CABC4A91CBF325398202CC952E70A008A830324BA200D5E5EF8F5F04C75DB4B0EE3340E071C98B823333B83577596BF3849B69F2085AA0FAFA212F26BEFF5877
310
FDE622B28D88A42E49E43326DA82D31E8CB006401E1DA726059ECEC168F97A6599036306A135688F9AD2E61A6EA178F4CD51974A9F2CCB9F36FE5EBD14601068D9C3BF01504B0304140006080000B670623B000000000000000000000000350000006662782F42384135303843342D343331462D343546312D424341352D35
310
32343432364645413344462F76657274696365732E62696E504B0304140006080800B670623BF270F1330600000004000000360000006662782F42384135303843342D343331462D343546312D424341352D3532343432364645413344462F747269616E676C65732E62696E636660600000504B0304140006080000B67062
310
3B000000000000000000000000370000006662782F42384135303843342D343331462D343546312D424341352D3532343432364645413344462F617474726962757465732E62696E504B0304140006080800B670623B08DA0BD19000000041010000360000006662782F42384135303843342D343331462D343546312D4243
310
41352D3532343432364645413344462F6469726563746F72792E786D6C858F410AC3201045AF22B36F53E9A60B35CBEEBAE80D244E44489C6234F4F835464A48035D0DF398FF9F8AF63D0E6CC63039F212F8F9020C7D47C6792B21C5FE7403D62A1188E2E60C98D7234A5830286103A55745067B9D86B8A3CF9C7F90C11DE6
310
07FB144396D7B6A82D282E9A152AD114D5EF2CB866EEE831B8EEA07A7BB5A8D7D61A2BAAEB7FD5F70921FF497D00504B0304140006080800B670623B3B4606F3FE000000A00100003B0000006662782F42384135303843342D343331462D343546312D424341352D3532343432364645413344462F7265736F75726365732F
310
636F72652E786D6C8D504B6E833010BD0A9A6D65B08134808CA354A427E8052C332156828DFCA97AFC9A40A576D7CDCCE87D344F8F9FBEE647F689CE6B6B7A6039850C8DB2A336530F315C4903D94970676DF82583CCC8197B5861107C72362E3BA4AC096842428D1D7107A5F71820538F74F4E0D50D6799CB1892C2DFF345
310
AABB9C306779A2934E701F5C0A906D4FD609C2A1B7D129F4BCD858C163D4E3AED163FAA9AF1A1D88F67CA98E6D35906AA82A52BFB39ABCD5CD915C86331BD86BD3B665CD8BD52C78D0F34F46E550061C419494B6843142CB0F5677F4D0D58717DA7494F26295FF31C565FCA7296A13AA728FBBD93C0896823C09C18BB5AFB4
310
9E65A6BD762BBE01504B010214000A0000080000B670623B3DEE336E79000000790000001B00000000000000000000000000000000006175746F6465736B2D64657369676E2D7061636B6167652E786D6C504B01021400140006080800B670623BD486FD9CA0000000F40000001300000000000000000000000000B2000000
310
5B436F6E74656E745F54797065735D2E786D6C504B01021400140006080800B670623B28ED286BEB0000007C010000080000000000000000000000000083010000636F72652E786D6C504B01021400140006080800B670623B55019EA25F0000007C000000070000000000000000000000000094020000636E782E786D6C50
310
4B01021400140006080800B670623B7BC41AC871010000D40300000C00000000000000000000000000180300006662782F636F72652E786D6C504B01021400140006080800B670623B70102A487D0000009D0000000B00000000000000000000000000B30400006662782F636E782E786D6C504B01021400140006080800B6
310
70623B3610CA3329010000120200003100000000000000000000000000590500006662782F42384135303843342D343331462D343546312D424341352D3532343432364645413344462F636F72652E786D6C504B01021400140006080800B670623B1B8617914E010000330300003000000000000000000000000000D10600
310
006662782F42384135303843342D343331462D343546312D424341352D3532343432364645413344462F636E782E786D6C504B01021400140006080800B670623BBFEF2E3B690500003C10000034000000000000000000000000006D0800006662782F42384135303843342D343331462D343546312D424341352D35323434
310
32364645413344462F6F626A656374732E786D6C504B01021400140006080000B670623B0000000000000000000000003500000000000000000000000000280E00006662782F42384135303843342D343331462D343546312D424341352D3532343432364645413344462F76657274696365732E62696E504B010214001400
310
06080800B670623BF270F133060000000400000036000000000000000000000000007B0E00006662782F42384135303843342D343331462D343546312D424341352D3532343432364645413344462F747269616E676C65732E62696E504B01021400140006080000B670623B00000000000000000000000037000000000000
310
00000000000000D50E00006662782F42384135303843342D343331462D343546312D424341352D3532343432364645413344462F617474726962757465732E62696E504B01021400140006080800B670623B08DA0BD1900000004101000036000000000000000000000000002A0F00006662782F42384135303843342D3433
310
31462D343546312D424341352D3532343432364645413344462F6469726563746F72792E786D6C504B01021400140006080800B670623B3B4606F3FE000000A00100003B000000000000000000000000000E1000006662782F42384135303843342D343331462D343546312D424341352D3532343432364645413344462F72
310
65736F75726365732F636F72652E786D6C504B0506000000000E000E0080040000651100000000
  0
XRECORD
  5
187
102
{ACAD_REACTORS
330
186
102
}
330
186
100
AcDbXrecord
280
     1
 70
     1
 90
429727718
  1
887D55A9-D0DD-414E-B741-A7DCD4DA2B4C
310
504B03040A0000080000B670623B3DEE336E79000000790000001B0000006175746F6465736B2D64657369676E2D7061636B6167652E786D6C3C3F786D6C2076657273696F6E3D22312E302220656E636F64696E673D227574662D3822203F3E3C666F726D6174733E3C666F726D61743E687474703A2F2F736368656D612E
310
6175746F6465736B2E636F6D2F64657369676E2D7061636B6167652F323030393C2F666F726D61743E3C2F666F726D6174733E504B0304140006080800B670623BD486FD9CA0000000F4000000130000005B436F6E74656E745F54797065735D2E786D6C7D8EC10E82300C865F65E91D8A1E8C310C0EEA1BF002731658846E
310
D98AC1B77784ABF1D8FE5FBFBF75BBCE937A534CCEB38643598122B6FEE978D0B0485F9C41B54DDD7D022595594E1A469170414C76A4D9A4D207E29CF43ECE46F218070CC6BECC4078ACAA135ACF422C856C0E68EA1BF5669944DDD7BCDE7B1F8E415D77AECB980613C2E4AC91FC167A2B244592486606FC29C8FD7F045B9A
310
EF7053A7E60B504B0304140006080800B670623BBC1638F5EC0000007C01000008000000636F72652E786D6C8D90416EC3201045AF82665B61836BE2D8C24471DB9CA01740401C94182C03558F5F9C3852BBEB6A467FFE9B197D7EF89E6EE8CB2CC17AD7032D0820E394D7D68D3DA478C67B4007C117EFE32F1B202727D3C3
310
2A83E0E3E2D3BC49CABB685CCCAAF3DA6CA20CC14440EA969B1E82BA98491632C5EC08D76296EA2A4753D06797E194AC468F2356E77DF66CCD02825543D50CACC62D39ED70FDC68EB8FD68F6F8787A6784342D1DDA1D2F5758F068A7E77DB518198D065111D2624A31A93E69DD11D6D5EC85EC3B4278B9DAFF4069D6FF8492
310
75F1B5DADE7D600104CD8FDC0782976B16B9DC83CA75CD4DFC00504B0304140006080800B670623B55019EA25F0000007C00000007000000636E782E786D6C4DCB3B0E80201045D1AD90E915ED2CF8AC45050C11660C8261F98AB1B07AC9C97D42D718D865D3E909258CFD00CCE24AC6E326A164D74DC0B4128928FF326038
310
472BA13128B1252AC747C6BAB984FC68F0B87FE8960A5C09FE86CFB69FBA01504B0304140006080800B670623B3586FFB671010000D40300000C0000006662782F636F72652E786D6CC553ED6E8320147D15C2DF4541A76D6D90A6DDD627D80B50A4CE54C120983EFEAE1F4DD7A55BBA5FF3879273EEE59E7310B6393735EA
310
95ED2AA3731C851423A5A5292A5DE6D8BB63B0C268C39935C67D29C3488B46E578803167A535BE9D2169B453DA01AA4DA16650749D7218C91A1639EEE4876A4428BC838AEE14B6429E44A9C228041AEA38EB9C0501681A32BC313F1ECE8C4C3867DE57C5CC56054CAB8E95B298A7F12E5EEED224C8E87E11242FE936C8DE96
310
AB60BB7F4D295D66D12E5B30323473E6AAE6A24E5A259C2A308F29CD82280A68FC1E256B9AAE93F489AED694323294DF34F9B678B0C957DA3DC7B3DCA9ADC33C022123F1CD2D44E450277AD04338234388F01913BE0D1A0281909D38D4171F27807A259DB1093085F157AA17B557309586747CD0CF0B46A64E983A6E0EAEEF
310
CE881F9EF1FB8E70D44297604238581EBC1B74B249C31C5AAB6CD0BB33D2C636A27ECCC62F0EFF445DC5DF95244D6DEC7F2922F30191F9F720C37DE49F504B0304140006080800B670623B4220A0FF7D0000009D0000000B0000006662782F636E782E786D6C4DCCD10A83201886E15B91FFDCE542CB0335D0EC3E6259C84A
310
C3E9D8E5AF46073BFAE0E1E315DD675BD1DBA5978F41C2FD4600B9F088930F8B849267CC01754AA418F3DF0D50183727E164506249B1EC174D6E1ECB9A0F5D7D785E68DB8151CD286E5A5363CA6B8A39E90D36D40E96B086F55A43A544F52B1D7B86D517504B0304140006080800B670623B2FA3FEDE290100001202000031
310
0000006662782F45374635344235342D363743322D343832342D383044432D4334454645303536354442422F636F72652E786D6C8D515B6EC32010BC0AE22B55850D2E386E848994D7097A0117488A1283C5A3CAF10BB523B57FF961D1ECCCECC0F2ED7DBC816FED8371B687A4C210682B9D32F6D2C314CFA883602BB8772E
310
FEA141608751F7B0C050F08B77695A20E96CD43666D43AA5177008414708E42D5F7A18E4971E876A483133C2B59A06791D2EBA22556E679EE021FA1C00CC43CA09C5717D6274C7286AD7FB06D1AEA1A8C3873DDAD3E3E98859CB0EBB1DAF67A1E02919B5C88DCA71CCD968FFAC49110B1ECDF8882FBD1EA256503418BF2342
310
106E3E08DD60B6A1EC15771B8C795DE8FF4469524F8A92B1F1AD59E2CEB20005E1F5DC105CB9F4797B84D1F7C9F908CABC55D0F2050A5C61CC1AD2F27A26E6E767C7962E8E213A9FBF7775FDCC5CC266DB960A5E970DE5F2BBBE5CCB36C50F504B0304140006080800B670623B1B8617914E01000033030000300000006662
310
782F45374635344235342D363743322D343832342D383044432D4334454645303536354442422F636E782E786D6CD593C16EC32010447F0571AD6CE3D489D20813A9877E410FBD62D82434182CC055F3F75D1292E692438FBD206B7698593D61BEFD1E2DF982108D773D6D6B460938E5B571FB9ECE6957AD29D90A1EBC4F77
310
364A9C1CA1A759A682EF839FA72269D8C9D92654AD71C72206887E0E0A22CAF926B15E498B01E0AA19451807D01A34B919F16B070157417138917400F2F6FA41FCF0092A45DEE414C19BDC21783E4BD39D891265658C3D8DEA00A3ACE59CBC8678ACB54CB26EEB6BD7839D7E9348BE70AD9C8321B9BCA7F9A4A26C542347DE
310
E050F09802D22BA6749A800A394DD62899107273365E3C82CFC6A55557BC06C10774B7ABE7AEC3B0F34CF06446280E154026D0542C187BA9DAB6628BF7B6DBB0E5A65B3EB1F58631DE64BBE083F7B65CC218087E22CABB042E51D1F2268F1FE12B3EA24D40D63E9CFE00120194D60B9D5BC67FE6D39CDF37E20AF817881F50
310
4B0304140006080800B670623B29652116630500003C100000340000006662782F45374635344235342D363743322D343832342D383044432D4334454645303536354442422F6F626A656374732E786D6CAD575D739B3814FD2B0CFB0C989834C90EA1639B24E3E9A6EDD4D3CE3E64C623834CD8006224913AFDF57B040203
310
B65BEF871F0C12D2FD3CF7E8CA7FBFCB33E3957291B2E2D674ED8969D02262715A24B76625B7D6B569BC0F7CCE98EC2D338D82E4F4D654D366E0279C55A59E8AE99654991CCDDECFFF3444440B6A1A514684B83545F44C7362934AB2988A173B2692D8C97667BB76B3702836E1A47C1E092D09A78584A5982F20C5688C7287
310
C389E904BEA3BE07BEFAD7ABA6A75739B53F43FD69212429A20365233153D70BEF2E2E6FAC4BCF9B5ADEBB0BD79ADFCF43CBBD9A4E16EF168B9BD9DD0D140BC921495BC2E9D60C1E101B9E46BED37CEA2CD6861F3329624541A3DA7F7858DBAC25C6B4A4458C3CA654405BCFEBC970E8AAD8F43E4FD558ABEC4F9FE7557F47
310
4F506B7BFBEC5BCA367FC105710E2AB8A00A554D7CB4A30DFE26FBA86D18CBF4B75418399194A72433B274C3097F33032C554B027F2046A1932B842B0FCCC0DDCBEBDB8AD2F835768F59B9ADB24C41D30C6A64AF817F2A456D59FA83F2E3DA60137255A585BCD60EC9B7929AC18DEFD49381AF1ED30BFDB109A4B1CD488294
310
C3CDE6EBC8D185AABD6568061FEE37BB95AAC7E3CA4BCE4ACAA5820FA0D526AE7DAA2869B5EE5999531BE0CC20E6FBA07C41E43FA27CF7A6206F3CDD793B4F6B919C1462CB788EDCD893FA674CDA17AB7B3B7C019F8D561FAEE966FED562DFE98C1D12C6A9FC015C2A35D7FF3D7FC398F591DA4B5FE0BFA2C0189FEA50AE22
310
92817A1ED3020951A03432862970F976B33383259812CC8E5D240BBA801CBCF8CE2BBEE3BF910DB6AAD5F79E05123AE2DB33981FB1ACCB02B69D00CB014FD68AB573A7627EF9BFD4CC2C5C7D58557C4B22FAA88925A4DBB44825CECE3D78FB060D1231F0E885BE7D673C86A3874958F593906B5502D1563157814FDAC3420D
310
F69A070A22EC4B98E23CFF171A1E5311D12C23056555ABA53B8614563B92D17D02AAB009E8F46284624E5F53D5490C560CCCC2591FF1B45421EB0EBD8EA7ED13BE7C5D7E0428CD60FEF60779EB13E6664FF711CB185F6FDED60D139A001FF60CD1FD6D086F1D51474901E26B2CB794A343BC8ED3EDB612E0DD2351FCB65CF4
310
33D511C9E14B5B40ADC6A6263DB0336A8F700DDF56271A024E70B0B3629DE21847591E55DED73D56206AB927E46FAABC5C939C55853C274C93D69FD6FA4E78BF8B11DF898C9ECD60553FAD39283BA6F18984AA23E8884F83F45C5F5F859797B31B2B9C84A1E5B9DE9D35BFF25C6B76152E422F9C5DCC3D847F5801ED09D5AF
310
41441327A25FF15487F9EB725FB666F048A4701E9A827292E6F97569A32DF61DEC01C0BB8DCBBCCC684E0B49147C1FD54BF685A0AB18C868E6973949E819523E3DAC463660E68C7D9F55A9D1EFA3BD7A76A16AE1A810F95CE59B82A4D968A376DC2E8B44BBDD86B27B368CDE0ED548C7137DA860591A83706223A12CA712B4
310
7306DBF39C0A20A6DF95C7FAF670C6EED7A61F946493D1D6926782963813403548A78AE470DEF80D2D9CEAA26E4D1C76F60BFE74219A06527D6B82DF641A51616F703CAAC6A7160E08A00BEB4810A0274592A1B36E3675E36E978A0DE80727A0D6DF2D39A75BD27E0D8837276589537B40ABB56D5A41F48F1C6FCD3188C4EB
310
A6929D2FFB89CE995A4D00AE813BDD032DC48B56BD437DFDDC2DD7AED70C2272D63DE9A72068A45A92F0A4BE17A8A06B9366E16707AD80B1FC649459952097E74BB23805982B55E0401150A165964402AA8BDF9F3E7386BB686EDCA780C0D382E5392BF460A6EFB2C6EA1937D3F809B440D5F5435C4C5CF7A9EEFAF54564BD
310
2182DA24162F98680B4E7930C21A0079709CEAEB99A372305ABE0C0D7D6078105A83F6A0296DAEE1068A47DD1C55A9F4C9B2FC69E3EFD44B81028E963DF81B504B0304140006080000B670623B000000000000000000000000350000006662782F45374635344235342D363743322D343832342D383044432D433445464530
310
3536354442422F76657274696365732E62696E504B0304140006080800B670623BF270F1330600000004000000360000006662782F45374635344235342D363743322D343832342D383044432D4334454645303536354442422F747269616E676C65732E62696E636660600000504B0304140006080000B670623B00000000
310
0000000000000000370000006662782F45374635344235342D363743322D343832342D383044432D4334454645303536354442422F617474726962757465732E62696E504B0304140006080800B670623B08DA0BD19000000041010000360000006662782F45374635344235342D363743322D343832342D383044432D4334
310
454645303536354442422F6469726563746F72792E786D6C858F410AC3201045AF22B36F53E9A60B35CBEEBAE80D244E44489C6234F4F835464A48035D0DF398FF9F8AF63D0E6CC63039F212F8F9020C7D47C6792B21C5FE7403D62A1188E2E60C98D7234A5830286103A55745067B9D86B8A3CF9C7F90C11DE607FB144396
310
D7B6A82D282E9A152AD114D5EF2CB866EEE831B8EEA07A7BB5A8D7D61A2BAAEB7FD5F70921FF497D00504B0304140006080800B670623B6378F24DFF000000A00100003B0000006662782F45374635344235342D363743322D343832342D383044432D4334454645303536354442422F7265736F75726365732F636F72652E
310
786D6C8D504B6E833010BD0A9A6D65B0094E42641C85B639412F6099496225D8C89FAAC7AF09546A77DDCC8CDE47F3F4C4F16B7C149FE88371B603565228D06A37187BED20C50BD9437194C23B177FC9A0B06AC40E6618A4B87A97A615D2CE46B431A3D60DB8822A048C50E8473E3A08FA86A32A558A5911EEE5A4F45D5DB1
310
6465A6B34E8A107D0E502C4FE609D26370C96B0CA25A58295232C3AA3143FE692E063D485EF7F5AEE71BD2D2F39634AFFC44DAF7DD9E9CCE6F9CD25DCBFA762BAAD92C4534E34F46ED51451C40D694B6843142EB0FD61C283F34FC85EE0F948A6A96FF31A569F8A729191B37F51A77B105902C0779125254735F793DCBCC7B
310
EE567E03504B010214000A0000080000B670623B3DEE336E79000000790000001B00000000000000000000000000000000006175746F6465736B2D64657369676E2D7061636B6167652E786D6C504B01021400140006080800B670623BD486FD9CA0000000F40000001300000000000000000000000000B20000005B436F6E
310
74656E745F54797065735D2E786D6C504B01021400140006080800B670623BBC1638F5EC0000007C010000080000000000000000000000000083010000636F72652E786D6C504B01021400140006080800B670623B55019EA25F0000007C000000070000000000000000000000000095020000636E782E786D6C504B010214
310
00140006080800B670623B3586FFB671010000D40300000C00000000000000000000000000190300006662782F636F72652E786D6C504B01021400140006080800B670623B4220A0FF7D0000009D0000000B00000000000000000000000000B40400006662782F636E782E786D6C504B01021400140006080800B670623B2F
310
A3FEDE290100001202000031000000000000000000000000005A0500006662782F45374635344235342D363743322D343832342D383044432D4334454645303536354442422F636F72652E786D6C504B01021400140006080800B670623B1B8617914E010000330300003000000000000000000000000000D2060000666278
310
2F45374635344235342D363743322D343832342D383044432D4334454645303536354442422F636E782E786D6C504B01021400140006080800B670623B29652116630500003C10000034000000000000000000000000006E0800006662782F45374635344235342D363743322D343832342D383044432D4334454645303536
310
354442422F6F626A656374732E786D6C504B01021400140006080000B670623B0000000000000000000000003500000000000000000000000000230E00006662782F45374635344235342D363743322D343832342D383044432D4334454645303536354442422F76657274696365732E62696E504B01021400140006080800
310
B670623BF270F13306000000040000003600000000000000000000000000760E00006662782F45374635344235342D363743322D343832342D383044432D4334454645303536354442422F747269616E676C65732E62696E504B01021400140006080000B670623B0000000000000000000000003700000000000000000000
310
000000D00E00006662782F45374635344235342D363743322D343832342D383044432D4334454645303536354442422F617474726962757465732E62696E504B01021400140006080800B670623B08DA0BD190000000410100003600000000000000000000000000250F00006662782F45374635344235342D363743322D34
310
3832342D383044432D4334454645303536354442422F6469726563746F72792E786D6C504B01021400140006080800B670623B6378F24DFF000000A00100003B00000000000000000000000000091000006662782F45374635344235342D363743322D343832342D383044432D4334454645303536354442422F7265736F75
310
726365732F636F72652E786D6C504B0506000000000E000E0080040000611100000000
  0
XRECORD
  5
112
102
{ACAD_REACTORS
330
110
102
}
330
110
100
AcDbXrecord
280
     1
270
     1
271
     1
  0
XRECORD
  5
111
102
{ACAD_REACTORS
330
110
102
}
330
110
100
AcDbXrecord
280
     1
270
     1
271
     1
  0
XRECORD
  5
18A
102
{ACAD_REACTORS
330
110
102
}
330
110
100
AcDbXrecord
280
     1
 70
     0
 90
1778669749
  1
9BF507EE-FAF7-4A99-A33D-4EE51894BC40
310
504B03040A0000080000B670623B3DEE336E79000000790000001B0000006175746F6465736B2D64657369676E2D7061636B6167652E786D6C3C3F786D6C2076657273696F6E3D22312E302220656E636F64696E673D227574662D3822203F3E3C666F726D6174733E3C666F726D61743E687474703A2F2F736368656D612E
310
6175746F6465736B2E636F6D2F64657369676E2D7061636B6167652F323030393C2F666F726D61743E3C2F666F726D6174733E504B0304140006080800B670623BD486FD9CA0000000F4000000130000005B436F6E74656E745F54797065735D2E786D6C7D8EC10E82300C865F65E91D8A1E8C310C0EEA1BF002731658846E
310
D98AC1B77784ABF1D8FE5FBFBF75BBCE937A534CCEB38643598122B6FEE978D0B0485F9C41B54DDD7D022595594E1A469170414C76A4D9A4D207E29CF43ECE46F218070CC6BECC4078ACAA135ACF422C856C0E68EA1BF5669944DDD7BCDE7B1F8E415D77AECB980613C2E4AC91FC167A2B244592486606FC29C8FD7F045B9A
310
EF7053A7E60B504B0304140006080800B670623BCA089DFFEC0000007C01000008000000636F72652E786D6C8D90416E83301045AF62CDB632D8402020E32882F604BD80653BC44AB011B6AB1EBF262152BBEB6A467FFE9B197D76FA9EEFE84BAFDE38DB03CD08206DA553C64E3DC470C1474027CE56E7C22F1B202B66DDC3
310
260367D3EAE2B24BD2D9A06D48AA754AEFA2F05E0740F29E9A1EBCBCEA59642286E4F0B76C11F226269DD15797E0188D42CF2346A57DE662F40ABCAEC77628C6120F654571D50C04B7F5B9C1E3997CD4F550BE3745C3F20DE62C98F9755FAE5A04AD801784B498524C8A4F5A75E4D055873772EC0861F966FF03C545FD138A
310
C686B2D8DF7D621E384D8F3C069CE55B16A93C824A75CB8DFF00504B0304140006080800B670623B55019EA25F0000007C00000007000000636E782E786D6C4DCB3B0E80201045D1AD90E915ED2CF8AC45050C11660C8261F98AB1B07AC9C97D42D718D865D3E909258CFD00CCE24AC6E326A164D74DC0B4128928FF326038
310
472BA13128B1252AC747C6BAB984FC68F0B87FE8960A5C09FE86CFB69FBA01504B0304140006080800B670623B68FC0B7272010000D40300000C0000006662782F636F72652E786D6CC5535B6E833010BC8AE5DF0A6C1E8124328E22D29EA01770C0A128602363A31CBFCB234A53A555FA553EC09AD9F5CE8C31DB5DDA060D
310
D2F4B556190E7C8A9154852E6B5565D8D993B7C668C799D1DA7E29C3488956667884316795D1AE5BA0422B2B950554E9522EA0E87B69312A1A5864B82F3E642B7CE12C54F467BF13C55954D20F7CA0A18EB3DE1A1080E621E31BF3D3F1C2C88C73E65C5D2E6C5DC2B4FA544B8379921C36797888BC3C8A032F4E73EA6D927D
310
EA1DF6F42D49F2E8350D5346C666CE6CDD5ED515460A2B4BCC434A375E1078347C0FE22D5D6DE3D50B5D6F2965642CBF6B725DF96493AB958DC245EEDCD6631E809089F8E61622B2A81703E8219C913144F84C09DF070D8140C8561C9BAB8F3340832CAC363130A576376A108D933095FA747AD0CF0B46E64E983A6D0EAE1F
310
CE089F9EF1FB8E70D44255604258581E9D1D75B259C3125A278D37D80B52DAB4A279CEC62F0EFF44DDC43F9454E8469BFF5244960322CBEF41C6FBC83F01504B0304140006080800B670623B0F71DDB67E0000009D0000000B0000006662782F636E782E786D6C4DCCD10A83201886E15B91FFDCA54DB73F502386BB8F5816
310
32D3703976F9ABD1C18E3E78F87855FB990379BBFCF2296AE02706C4C5471A7C9C349475A408A4352AA7B4FEDD80C47E761A7606A3A69CCA72D0E0C6BE8475D3E0E3F3409428EA6B27A84079A782899AA2EC1A7AE3ECCC2FD858CB2D544655BFD2B67BD87C01504B0304140006080800B670623BE134B4FB28010000120200
310
00310000006662782F38353834323741342D343835462D343034322D383541392D4331303331363839454531452F636F72652E786D6C8D515B6EC32010BC0AE22B55850D0EA424C24451959EA0172086A42831583CAA1CBF503B52FB971F16CDCECC0EACD8DFC71BF836215AEF7A481A0C817183D7D65D7A98D3197108F652
310
04EFD31F1A044E8DA6871586525C82CFD3020DDE25E352419DD76601558C264130DCCAA58771F832A36A544E8511AFCDA486ABBA988634A55D7852C4144A00300FA927949C71DABD1D28A29C7D208A6987383B6CD13BC16BB2E1DBE3911C453B0BA5C8D9EA456E758963CFD684674DAA588A64C747FC2118958C86B2C3788B
310
0841B8FB247487D98EB257CC77188BB6D2FF89F2A49F1465EBD2BA5BE2CEB2082511EDDC9042FB7CBA3DC298FBE4430275DE2A9AE1054ADC60CC08E3A29D89E5F9C5714317C7987C28DFBBBA9E0A97B0D97643A568EB864AF95D5FA9759BF207504B0304140006080800B670623B1B8617914E010000330300003000000066
310
62782F38353834323741342D343835462D343034322D383541392D4331303331363839454531452F636E782E786D6CD593C16EC32010447F0571AD6CE3D489D20813A9877E410FBD62D82434182CC055F3F75D1292E692438FBD206B7698593D61BEFD1E2DF982108D773D6D6B460938E5B571FB9ECE6957AD29D90A1EBC4F
310
77364A9C1CA1A759A682EF839FA72269D8C9D92654AD71C72206887E0E0A22CAF926B15E498B01E0AA19451807D01A34B919F16B070157417138917400F2F6FA41FCF0092A45DEE414C19BDC21783E4BD39D891265658C3D8DEA00A3ACE59CBC8678ACB54CB26EEB6BD7839D7E9348BE70AD9C8321B9BCA7F9A4A26C542347
310
DEE050F09802D22BA6749A800A394DD62899107273365E3C82CFC6A55557BC06C10774B7ABE7AEC3B0F34CF06446280E154026D0542C187BA9DAB6628BF7B6DBB0E5A65B3EB1F58631DE64BBE083F7B65CC218087E22CABB042E51D1F2268F1FE12B3EA24D40D63E9CFE00120194D60B9D5BC67FE6D39CDF37E20AF817881F
310
504B0304140006080800B670623B5933D422630500003B100000340000006662782F38353834323741342D343835462D343034322D383541392D4331303331363839454531452F6F626A656374732E786D6CAD575B6FA33814FE2B887D0642934E9B156594264D158D3A534DD4D13E548A0C38942D60649B4EBABF7E3F8321
310
40924EF6928780CDF1B97EE762EFF32E4B8D37CA45C2F21BD3B547A641F39045491EDF98A5DC5AD7A6F1D9F73863B243661A39C9E88DA9B64DDF8B392B0BBD15D12D295339D85DDEFE618890E6D434C2940871638AF08566C426A5641115AF764424B1E3EDCE76ED9AB0CF36E6A47819302D08A7B984A6D8CFC1C5A89572FB
310
CB91E9F89EA3BEFB9EFAD754E3D3544E654F5F7E920B49F2F040D880CDD89D2CEE2E2EA7D6E56432B6269F2E5CEB7679BBB0DCABF168FE693E9FCEEEA6102C240727AD09A75BD3BF876F78127A4EFDA9D5582B7E4CA590E5390D2BFB6161A5B3E618D182E611E2985001691DAB47FDA5AB7CD3F93C566B2DB2BB7D9E55DD13
310
1D468DEECDB3AB290BFE8409E21C54704115AA6AFF68436BFC8DF65E0B184BF5B74418199194272435D224E084BF9B3E481589EFF5D828747285706581E9BB7B7E5D5D911ABFC6EE312DB7659A2A689A7E85EC0DF04FA5A8344BFEA2FCB834E8845895492EAFB541F2BDA0A63FF59C6AD3F7D4637CA13FD68E34B629891172
310
98597F1D183A57B9B75A98FE9765B05BAB7C3C2EBCE0ACA05C2AF8005A4DE09AA7F29216EB9E15397500C6F47CBE77CA7778FE2BD277AF0AE2C693DD6437D1522427B9D8329E2136F6A8FA19A3E6C56ADF0E5F50CF06D48734EDCEBF22F69C56D97EC138153F804B85E6FABFC7AFEFB32E523BE1F3BD372418E363EDCA7548
310
52949E8724474014288D94610BB57C1BEC4C7F854A89CA8E5324F55B871CBC78CE1BBEE3BFE68D6A5589EF3C730474506FCFA8FCF0659516D0ED04580EEA6425581B77CAE797FF4BCECC16EB2FEB926F49481F746159D06D922712BD730FDEAE42BD40F42C7AA5EF3F198F60E86110D6DD20645A9480B795CF95E3E3A659A8
310
C55E724F408873315335CFFB8584874484344D494E59D94869DB90C26A5B64F49C802CAC1D3ABE18A098D3B7444D123D8A9E5AE8F5214F0AE5B2B6E9B575DA3E61CBD3EA2B4009FA940524DD1305FB6A1FB294F14DF0BEA90BA109ECE1481FDC3FFAE8D60E75141700BE82725371B4873751B2DD960265F788137FACE6DD40
310
B575E4F0A5C99F46629D92131467A41EE11ABD8D4CCC039CA0AFB37C93A08B232B8F0AEFCA1E0A1015DF13FC83322B362463652ECF71D3A8B1A7D1BE65DE1D62C44F22C317D35F574FEB16153BA2D13E543D10A80E74C4A65E78A6B7CBCBD1D5DD9DB59C2DAFACC96C3AB566E3F1C29ADCDD5DBAD7D3C9ED7C822ED74F80A6
310
41755310DE4443F44A9E68373FADF6596BFA0F440AE7BECE2727AE9F4F2B1B53B1E7E00CF0DD1E5C65454A339A4BA2D0FBA05ED2EF0443458F47BDBFCA484CCFE0F2ED7E3DD0013B679C7B5499467F0ECEEADDB9CA85A34CE44B99053949D2C1416DB85DE4B136BB7165FBAC0B7AB3542BED4F8CA182A549847A1319316519
310
95A83A67147B9E5101C47487F2485F1ECE38FD568F839204296D3479219888530154036E6528FBFBC66F98E0D4107563A2D7D9AFF8D389681A08F58D89F22693900A3B407754734FC51C10C010D6D640809EE4718AC1BA3ED4AEDB53CA37283F68805A7E4B72CEB0A4EDEAD5DD8C14059A76AFAA56BA6901E13F32BC51C720
310
12AF41295B5BF61BAD3195181FB506E6B40F4C10AF5AF40EF9F5B159AE5DD1F43C72D635E94310D45C2D49785C5D0B94D3B54AB3C5A38349C0587D338AB48C11CBF339599C02CCA54A70A008A8D03C0B2201D5F9EFCF8F9CE12A9A19CB0410789EB32C63B95ECCF455D658BFE0621A3DA32C5075FB101723D77DAE867E7D0F
310
D90444509B44E2151B4DC2290B065803200FBAA9BE9D392A0603F2D5C2D00D6302A615680F66D2FA166E2079D4C551A54AB758161FCEFD4E450A14704CECFEDF504B0304140006080000B670623B000000000000000000000000350000006662782F38353834323741342D343835462D343034322D383541392D4331303331
310
363839454531452F76657274696365732E62696E504B0304140006080800B670623BF270F1330600000004000000360000006662782F38353834323741342D343835462D343034322D383541392D4331303331363839454531452F747269616E676C65732E62696E636660600000504B0304140006080000B670623B000000
310
000000000000000000370000006662782F38353834323741342D343835462D343034322D383541392D4331303331363839454531452F617474726962757465732E62696E504B0304140006080800B670623B08DA0BD19000000041010000360000006662782F38353834323741342D343835462D343034322D383541392D43
310
31303331363839454531452F6469726563746F72792E786D6C858F410AC3201045AF22B36F53E9A60B35CBEEBAE80D244E44489C6234F4F835464A48035D0DF398FF9F8AF63D0E6CC63039F212F8F9020C7D47C6792B21C5FE7403D62A1188E2E60C98D7234A5830286103A55745067B9D86B8A3CF9C7F90C11DE607FB1443
310
96D7B6A82D282E9A152AD114D5EF2CB866EEE831B8EEA07A7BB5A8D7D61A2BAAEB7FD5F70921FF497D00504B0304140006080800B670623BD9A3B367FE000000A00100003B0000006662782F38353834323741342D343835462D343034322D383541392D4331303331363839454531452F7265736F75726365732F636F7265
310
2E786D6C8D504B6E833010BD0A9A6D65B01D0201194711694FD00B586642AD043BF2A7EAF16B122AB5BB6E6646EFA3797AE2F8B5DC8A4FF4C1383B002B291468B59B8C9D0748F1420E501CA5F0CEC55F3228AC5A708015062966EFD27D83B4B3116DCCA875136EA00A012314FA968F0182FEC045952AC5AC08D7F2AEF455CD
310
58B232D3592745883E07289E4FD609D26370C96B0CA27AB252A464A64D63A6FCD35C0C7A904D73EE467EE664DCD58CD4ED4849D79C5A723ED1B7A61977AF2D6F45B59AA58866F9C9A83DAA8813484E6947182394BFB3BAA7FBBEDEBFD0434FA9A856F91F53BA4FFF342563E38E6F719FB60092E5200F428A6AED2BAF479979
310
AFDDCA6F504B010214000A0000080000B670623B3DEE336E79000000790000001B00000000000000000000000000000000006175746F6465736B2D64657369676E2D7061636B6167652E786D6C504B01021400140006080800B670623BD486FD9CA0000000F40000001300000000000000000000000000B20000005B436F6E
310
74656E745F54797065735D2E786D6C504B01021400140006080800B670623BCA089DFFEC0000007C010000080000000000000000000000000083010000636F72652E786D6C504B01021400140006080800B670623B55019EA25F0000007C000000070000000000000000000000000095020000636E782E786D6C504B010214
310
00140006080800B670623B68FC0B7272010000D40300000C00000000000000000000000000190300006662782F636F72652E786D6C504B01021400140006080800B670623B0F71DDB67E0000009D0000000B00000000000000000000000000B50400006662782F636E782E786D6C504B01021400140006080800B670623BE1
310
34B4FB280100001202000031000000000000000000000000005C0500006662782F38353834323741342D343835462D343034322D383541392D4331303331363839454531452F636F72652E786D6C504B01021400140006080800B670623B1B8617914E010000330300003000000000000000000000000000D3060000666278
310
2F38353834323741342D343835462D343034322D383541392D4331303331363839454531452F636E782E786D6C504B01021400140006080800B670623B5933D422630500003B10000034000000000000000000000000006F0800006662782F38353834323741342D343835462D343034322D383541392D4331303331363839
310
454531452F6F626A656374732E786D6C504B01021400140006080000B670623B0000000000000000000000003500000000000000000000000000240E00006662782F38353834323741342D343835462D343034322D383541392D4331303331363839454531452F76657274696365732E62696E504B01021400140006080800
310
B670623BF270F13306000000040000003600000000000000000000000000770E00006662782F38353834323741342D343835462D343034322D383541392D4331303331363839454531452F747269616E676C65732E62696E504B01021400140006080000B670623B0000000000000000000000003700000000000000000000
310
000000D10E00006662782F38353834323741342D343835462D343034322D383541392D4331303331363839454531452F617474726962757465732E62696E504B01021400140006080800B670623B08DA0BD190000000410100003600000000000000000000000000260F00006662782F38353834323741342D343835462D34
310
3034322D383541392D4331303331363839454531452F6469726563746F72792E786D6C504B01021400140006080800B670623BD9A3B367FE000000A00100003B000000000000000000000000000A1000006662782F38353834323741342D343835462D343034322D383541392D4331303331363839454531452F7265736F75
310
726365732F636F72652E786D6C504B0506000000000E000E0080040000611100000000
  0
XRECORD
  5
113
102
{ACAD_REACTORS
330
110
102
}
330
110
100
AcDbXrecord
280
     1
270
     1
271
     1
  0
XRECORD
  5
114
102
{ACAD_REACTORS
330
110
102
}
330
110
100
AcDbXrecord
280
     1
270
     1
271
     1
  0
CELLSTYLEMAP
  5
AEE7
102
{ACAD_REACTORS
330
104
102
}
330
104
100
AcDbCellStyleMap
 90
        3
300
CELLSTYLE
  1
TABLEFORMAT_BEGIN
 90
        5
170
     1
 91
        0
 92
    32768
 62
   257
 93
        1
300
CONTENTFORMAT
  1
CONTENTFORMAT_BEGIN
 90
        0
 91
        0
 92
      512
 93
        0
300

 40
0.0
140
1.0
 94
        5
 62
     0
340
11
144
0.25
309
CONTENTFORMAT_END
171
     1
301
MARGIN
  1
CELLMARGIN_BEGIN
 40
0.06
 40
0.06
 40
0.06
 40
0.06
 40
0.18
 40
0.18
309
CELLMARGIN_END
 94
        6
 95
        1
302
GRIDFORMAT
  1
GRIDFORMAT_BEGIN
 90
        0
 91
        1
 62
     0
 92
       -2
340
0
 93
        0
 40
0.045
309
GRIDFORMAT_END
 95
        2
302
GRIDFORMAT
  1
GRIDFORMAT_BEGIN
 90
        0
 91
        1
 62
     0
 92
       -2
340
0
 93
        0
 40
0.045
309
GRIDFORMAT_END
 95
        4
302
GRIDFORMAT
  1
GRIDFORMAT_BEGIN
 90
        0
 91
        1
 62
     0
 92
       -2
340
0
 93
        0
 40
0.045
309
GRIDFORMAT_END
 95
        8
302
GRIDFORMAT
  1
GRIDFORMAT_BEGIN
 90
        0
 91
        1
 62
     0
 92
       -2
340
0
 93
        0
 40
0.045
309
GRIDFORMAT_END
 95
       16
302
GRIDFORMAT
  1
GRIDFORMAT_BEGIN
 90
        0
 91
        1
 62
     0
 92
       -2
340
0
 93
        0
 40
0.045
309
GRIDFORMAT_END
 95
       32
302
GRIDFORMAT
  1
GRIDFORMAT_BEGIN
 90
        0
 91
        1
 62
     0
 92
       -2
340
0
 93
        0
 40
0.045
309
GRIDFORMAT_END
309
TABLEFORMAT_END
  1
CELLSTYLE_BEGIN
 90
        1
 91
        1
300
_TITLE
309
CELLSTYLE_END
300
CELLSTYLE
  1
TABLEFORMAT_BEGIN
 90
        5
170
     1
 91
        0
 92
        0
 62
   257
 93
        1
300
CONTENTFORMAT
  1
CONTENTFORMAT_BEGIN
 90
        0
 91
        0
 92
      512
 93
        0
300

 40
0.0
140
1.0
 94
        5
 62
     0
340
11
144
0.18
309
CONTENTFORMAT_END
171
     1
301
MARGIN
  1
CELLMARGIN_BEGIN
 40
0.06
 40
0.06
 40
0.06
 40
0.06
 40
0.18
 40
0.18
309
CELLMARGIN_END
 94
        6
 95
        1
302
GRIDFORMAT
  1
GRIDFORMAT_BEGIN
 90
        0
 91
        1
 62
     0
 92
       -2
340
0
 93
        0
 40
0.045
309
GRIDFORMAT_END
 95
        2
302
GRIDFORMAT
  1
GRIDFORMAT_BEGIN
 90
        0
 91
        1
 62
     0
 92
       -2
340
0
 93
        0
 40
0.045
309
GRIDFORMAT_END
 95
        4
302
GRIDFORMAT
  1
GRIDFORMAT_BEGIN
 90
        0
 91
        1
 62
     0
 92
       -2
340
0
 93
        0
 40
0.045
309
GRIDFORMAT_END
 95
        8
302
GRIDFORMAT
  1
GRIDFORMAT_BEGIN
 90
        0
 91
        1
 62
     0
 92
       -2
340
0
 93
        0
 40
0.045
309
GRIDFORMAT_END
 95
       16
302
GRIDFORMAT
  1
GRIDFORMAT_BEGIN
 90
        0
 91
        1
 62
     0
 92
       -2
340
0
 93
        0
 40
0.045
309
GRIDFORMAT_END
 95
       32
302
GRIDFORMAT
  1
GRIDFORMAT_BEGIN
 90
        0
 91
        1
 62
     0
 92
       -2
340
0
 93
        0
 40
0.045
309
GRIDFORMAT_END
309
TABLEFORMAT_END
  1
CELLSTYLE_BEGIN
 90
        2
 91
        1
300
_HEADER
309
CELLSTYLE_END
300
CELLSTYLE
  1
TABLEFORMAT_BEGIN
 90
        5
170
     1
 91
        0
 92
        0
 62
   257
 93
        1
300
CONTENTFORMAT
  1
CONTENTFORMAT_BEGIN
 90
        0
 91
        0
 92
      512
 93
        0
300

 40
0.0
140
1.0
 94
        2
 62
     0
340
11
144
0.18
309
CONTENTFORMAT_END
171
     1
301
MARGIN
  1
CELLMARGIN_BEGIN
 40
0.06
 40
0.06
 40
0.06
 40
0.06
 40
0.18
 40
0.18
309
CELLMARGIN_END
 94
        6
 95
        1
302
GRIDFORMAT
  1
GRIDFORMAT_BEGIN
 90
        0
 91
        1
 62
     0
 92
       -2
340
0
 93
        0
 40
0.045
309
GRIDFORMAT_END
 95
        2
302
GRIDFORMAT
  1
GRIDFORMAT_BEGIN
 90
        0
 91
        1
 62
     0
 92
       -2
340
0
 93
        0
 40
0.045
309
GRIDFORMAT_END
 95
        4
302
GRIDFORMAT
  1
GRIDFORMAT_BEGIN
 90
        0
 91
        1
 62
     0
 92
       -2
340
0
 93
        0
 40
0.045
309
GRIDFORMAT_END
 95
        8
302
GRIDFORMAT
  1
GRIDFORMAT_BEGIN
 90
        0
 91
        1
 62
     0
 92
       -2
340
0
 93
        0
 40
0.045
309
GRIDFORMAT_END
 95
       16
302
GRIDFORMAT
  1
GRIDFORMAT_BEGIN
 90
        0
 91
        1
 62
     0
 92
       -2
340
0
 93
        0
 40
0.045
309
GRIDFORMAT_END
 95
       32
302
GRIDFORMAT
  1
GRIDFORMAT_BEGIN
 90
        0
 91
        1
 62
     0
 92
       -2
340
0
 93
        0
 40
0.045
309
GRIDFORMAT_END
309
TABLEFORMAT_END
  1
CELLSTYLE_BEGIN
 90
        3
 91
        2
300
_DATA
309
CELLSTYLE_END
  0
ENDSEC
  0
SECTION
  2
ACDSDATA
 70
     2
 71
     8
  0
ACDSSCHEMA
 90
        0
  1
AcDb_Thumbnail_Schema
  2
AcDbDs::ID
280
    10
 91
        8
  2
Thumbnail_Data
280
    15
 91
        0
101
ACDSRECORD
 95
        0
 90
        1
  2
AcDbDs::TreatedAsObjectData
280
     1
291
     1
101
ACDSRECORD
 95
        0
 90
        2
  2
AcDbDs::Legacy
280
     1
291
     1
101
ACDSRECORD
  1
AcDbDs::ID
 90
        3
  2
AcDs:Indexable
280
     1
291
     1
101
ACDSRECORD
  1
AcDbDs::ID
 90
        4
  2
AcDbDs::HandleAttribute
280
     7
282
     1
  0
ACDSSCHEMA
 90
        1
  1
AcDbDs::TreatedAsObjectDataSchema
  2
AcDbDs::TreatedAsObjectData
280
     1
 91
        0
  0
ACDSSCHEMA
 90
        2
  1
AcDbDs::LegacySchema
  2
AcDbDs::Legacy
280
     1
 91
        0
  0
ACDSSCHEMA
 90
        3
  1
AcDbDs::IndexedPropertySchema
  2
AcDs:Indexable
280
     1
 91
        0
  0
ACDSSCHEMA
 90
        4
  1
AcDbDs::HandleAttributeSchema
  2
AcDbDs::HandleAttribute
280
     7
 91
        1
284
     1
  0
ACDSRECORD
 90
        0
  2
AcDbDs::ID
280
    10
320
22
  2
Thumbnail_Data
280
    15
 94
     1700
310
89504E470D0A1A0A0000000D49484452000001000000006D080300000079B14F6400000300504C5445212830FFFFFF2128300000000000000000000000000000000000000000000000000000330000660000990000CC0000FF0033000033330033660033990033CC0033FF0066000066330066660066990066CC0066FF0099
310
000099330099660099990099CC0099FF00CC0000CC3300CC6600CC9900CCCC00CCFF00FF0000FF3300FF6600FF9900FFCC00FFFF3300003300333300663300993300CC3300FF3333003333333333663333993333CC3333FF3366003366333366663366993366CC3366FF3399003399333399663399993399CC3399FF33CC00
310
33CC3333CC6633CC9933CCCC33CCFF33FF0033FF3333FF6633FF9933FFCC33FFFF6600006600336600666600996600CC6600FF6633006633336633666633996633CC6633FF6666006666336666666666996666CC6666FF6699006699336699666699996699CC6699FF66CC0066CC3366CC6666CC9966CCCC66CCFF66FF0066
310
FF3366FF6666FF9966FFCC66FFFF9900009900339900669900999900CC9900FF9933009933339933669933999933CC9933FF9966009966339966669966999966CC9966FF9999009999339999669999999999CC9999FF99CC0099CC3399CC6699CC9999CCCC99CCFF99FF0099FF3399FF6699FF9999FFCC99FFFFCC0000CC00
310
33CC0066CC0099CC00CCCC00FFCC3300CC3333CC3366CC3399CC33CCCC33FFCC6600CC6633CC6666CC6699CC66CCCC66FFCC9900CC9933CC9966CC9999CC99CCCC99FFCCCC00CCCC33CCCC66CCCC99CCCCCCCCCCFFCCFF00CCFF33CCFF66CCFF99CCFFCCCCFFFFFF0000FF0033FF0066FF0099FF00CCFF00FFFF3300FF3333
310
FF3366FF3399FF33CCFF33FFFF6600FF6633FF6666FF6699FF66CCFF66FFFF9900FF9933FF9966FF9999FF99CCFF99FFFFCC00FFCC33FFCC66FFCC99FFCCCCFFCCFFFFFF00FFFF33FFFF66FFFF99FFFFCCFFFFFF0000000D0D0D1A1A1A2828283535354343435050505D5D5D6B6B6B787878868686939393A1A1A1AEAEAEBB
310
BBBBC9C9C9D6D6D6E4E4E4F1F1F1FFFFFF0000000000000000000000000000000000000000000000000000000000002E4550F10000035F4944415478DAED5D496EC42010E4FFFFAD7BA464B08169A0C1D87215F12152A2CC882E7ADF1CC2D30F10767EF0FB04EC4C7FFCB9255B44420B043E7CB11100990C203E3B7140FE37
310
6CC3053064FE245B1D01A4A49A0A3043400E8C8C38832B8AFF811C02B55BCF4524E1113181A891838A99809A1400E52F168D859F00550E382CFFD71D23A0A22C654CE0A9E22CB397BB035A4AC0A5177250C4B4E00CA36873C056B98371AB0E3115384A8E526430478B1203E019A15152006A1C30450C16B011B70C646CC02D
310
11D30C708445E41A610A00C490E1889ED4DD60CB734872C6D4084CB046524541C48295F6EAC9DB342187881280CF35AEF1110901E8167DF401E81139443F28E95F76723E00CC5AE8D341255D14BC32A74019020969C11B3816F2F4773EC4C601FF006C0EC0FA0FE97300BF1948BA20CDD3E2220078FDADD75A61965C21812F
310
9855B7CDEAAFB608A4557F603902041290B8EC762C708D03482CDF6D293C0623500AC2D293B30060F5836FE207D472407D047CB4B100F075D06E72C4973D2110811A193DF27C6324A0A57F40BC5B46948103EAA7841743945882A877B6D5E58D493582B340CC1003D70F3A7B7EAA74B83D177719009EF68056A33FE61120C9
310
86F4EE1A57F50B0FFDB7302C912E181810C675C67AAB3574913876AB5C952117890EFA410E40A741A21F23B14E53AE00A01CAC02A729C4BC0A406DB2948903AEA7012855C00D00804D09760F8C4100C844A0EB0F02C32240D62706870F3476A9748D727D8646D81800E580D0210318FF36D66EE135411DEBD48855259A4720
310
044A04B024ACE79D99193C79BDBA443B343496F5B01B2B78C7C6CC6521A30C433C38B76659DA5FBD8193018EB8E729197AA933D8AC19C2FD35C4EA0FF30E0EB3FE772A89AE0A94F400CC0D9B58E73ABE1D817336BEF911A8AE0E38A66AD1F808E89789A0910B41B78828B06FF56B3758E217399C03FE5DAB65FB3C4EB3E722
310
4E60994CD1409F30802FCB2B8140B010C00D2D042F47E0582439B4635D62A3526C7F0C89F67313468F40A4F934EA9F1C8173BE1E02B79F2C83491C1C6F0B283D02016913705C92545A05615B58463B21D90DE4D187F4ABF590EF500FE972A86E095965F1BE19F4A33E5D87D1F601329FB0ADE2845F3AD11E274BFC24D9972D
310
E4932099153C1D64ED976D7CCDD6817A5DDCA42ED8F6553BFFCFAB9E1FD0857410800A7E6C0000000049454E44AE426082
  0
ENDSEC
  0
EOF
