  0
SECTION
  2
HEADER
  9
$ACADVER
  1
AC1032
  9
$ACADMAINTVER
 90
      197
  9
$DWGCODEPAGE
  3
ANSI_1252
  9
$LASTSAVEDBY
  1
gregb
  9
$REQUIREDVERSIONS
160
                 0
  9
$INSBASE
 10
0.0
 20
0.0
 30
0.0
  9
$EXTMIN
 10
10976.12221647872
 20
29590.23169953422
 30
0.0
  9
$EXTMAX
 10
11116.57124237036
 20
29737.97011765407
 30
0.0
  9
$LIMMIN
 10
0.0
 20
0.0
  9
$LIMMAX
 10
12.0
 20
9.0
  9
$ORTHOMODE
 70
     1
  9
$REGENMODE
 70
     1
  9
$FILLMODE
 70
     1
  9
$QTEXTMODE
 70
     0
  9
$MIRRTEXT
 70
     0
  9
$LTSCALE
 40
1.0
  9
$ATTMODE
 70
     1
  9
$TEXTSIZE
 40
0.2
  9
$TRACEWID
 40
0.05
  9
$TEXTSTYLE
  7
Standard
  9
$CLAYER
  8
freecads.com
  9
$CELTYPE
  6
ByLayer
  9
$CECOLOR
 62
   256
  9
$CELTSCALE
 40
1.0
  9
$DISPSILH
 70
     1
  9
$DIMSCALE
 40
1.0
  9
$DIMASZ
 40
0.18
  9
$DIMEXO
 40
0.0625
  9
$DIMDLI
 40
0.38
  9
$DIMRND
 40
0.0
  9
$DIMDLE
 40
0.0
  9
$DIMEXE
 40
0.18
  9
$DIMTP
 40
0.0
  9
$DIMTM
 40
0.0
  9
$DIMTXT
 40
0.18
  9
$DIMCEN
 40
0.09
  9
$DIMTSZ
 40
0.0
  9
$DIMTOL
 70
     0
  9
$DIMLIM
 70
     0
  9
$DIMTIH
 70
     1
  9
$DIMTOH
 70
     1
  9
$DIMSE1
 70
     0
  9
$DIMSE2
 70
     0
  9
$DIMTAD
 70
     0
  9
$DIMZIN
 70
     0
  9
$DIMBLK
  1

  9
$DIMASO
 70
     1
  9
$DIMSHO
 70
     1
  9
$DIMPOST
  1

  9
$DIMAPOST
  1

  9
$DIMALT
 70
     0
  9
$DIMALTD
 70
     2
  9
$DIMALTF
 40
25.4
  9
$DIMLFAC
 40
1.0
  9
$DIMTOFL
 70
     0
  9
$DIMTVP
 40
0.0
  9
$DIMTIX
 70
     0
  9
$DIMSOXD
 70
     0
  9
$DIMSAH
 70
     0
  9
$DIMBLK1
  1

  9
$DIMBLK2
  1

  9
$DIMSTYLE
  2
Standard
  9
$DIMCLRD
 70
     0
  9
$DIMCLRE
 70
     0
  9
$DIMCLRT
 70
     0
  9
$DIMTFAC
 40
1.0
  9
$DIMGAP
 40
0.09
  9
$DIMJUST
 70
     0
  9
$DIMSD1
 70
     0
  9
$DIMSD2
 70
     0
  9
$DIMTOLJ
 70
     1
  9
$DIMTZIN
 70
     0
  9
$DIMALTZ
 70
     0
  9
$DIMALTTZ
 70
     0
  9
$DIMUPT
 70
     0
  9
$DIMDEC
 70
     4
  9
$DIMTDEC
 70
     4
  9
$DIMALTU
 70
     2
  9
$DIMALTTD
 70
     2
  9
$DIMTXSTY
  7
Standard
  9
$DIMAUNIT
 70
     0
  9
$DIMADEC
 70
     0
  9
$DIMALTRND
 40
0.0
  9
$DIMAZIN
 70
     0
  9
$DIMDSEP
 70
    46
  9
$DIMATFIT
 70
     3
  9
$DIMFRAC
 70
     0
  9
$DIMLDRBLK
  1

  9
$DIMLUNIT
 70
     2
  9
$DIMLWD
 70
    -2
  9
$DIMLWE
 70
    -2
  9
$DIMTMOVE
 70
     0
  9
$DIMFXL
 40
1.0
  9
$DIMFXLON
 70
     0
  9
$DIMJOGANG
 40
0.7853981633974483
  9
$DIMTFILL
 70
     0
  9
$DIMTFILLCLR
 70
     0
  9
$DIMARCSYM
 70
     0
  9
$DIMLTYPE
  6

  9
$DIMLTEX1
  6

  9
$DIMLTEX2
  6

  9
$DIMTXTDIRECTION
 70
     0
  9
$LUNITS
 70
     2
  9
$LUPREC
 70
     4
  9
$SKETCHINC
 40
0.1
  9
$FILLETRAD
 40
0.0
  9
$AUNITS
 70
     0
  9
$AUPREC
 70
     0
  9
$MENU
  1
.
  9
$ELEVATION
 40
0.0
  9
$PELEVATION
 40
0.0
  9
$THICKNESS
 40
0.0
  9
$LIMCHECK
 70
     0
  9
$CHAMFERA
 40
0.0
  9
$CHAMFERB
 40
0.0
  9
$CHAMFERC
 40
0.0
  9
$CHAMFERD
 40
0.0
  9
$SKPOLY
 70
     0
  9
$TDCREATE
 40
2458157.371250000
  9
$TDUCREATE
 40
2458157.287916667
  9
$TDUPDATE
 40
2461016.552835648
  9
$TDUUPDATE
 40
2461016.469502315
  9
$TDINDWG
 40
0.0604513889
  9
$TDUSRTIMER
 40
0.0604513889
  9
$USRTIMER
 70
     1
  9
$ANGBASE
 50
0.0
  9
$ANGDIR
 70
     0
  9
$PDMODE
 70
     0
  9
$PDSIZE
 40
0.0
  9
$PLINEWID
 40
0.0
  9
$SPLFRAME
 70
     0
  9
$SPLINETYPE
 70
     6
  9
$SPLINESEGS
 70
     8
  9
$HANDSEED
  5
AD55
  9
$SURFTAB1
 70
     6
  9
$SURFTAB2
 70
     6
  9
$SURFTYPE
 70
     6
  9
$SURFU
 70
     6
  9
$SURFV
 70
     6
  9
$UCSBASE
  2

  9
$UCSNAME
  2

  9
$UCSORG
 10
0.0
 20
0.0
 30
0.0
  9
$UCSXDIR
 10
1.0
 20
0.0
 30
0.0
  9
$UCSYDIR
 10
0.0
 20
1.0
 30
0.0
  9
$UCSORTHOREF
  2

  9
$UCSORTHOVIEW
 70
     0
  9
$UCSORGTOP
 10
0.0
 20
0.0
 30
0.0
  9
$UCSORGBOTTOM
 10
0.0
 20
0.0
 30
0.0
  9
$UCSORGLEFT
 10
0.0
 20
0.0
 30
0.0
  9
$UCSORGRIGHT
 10
0.0
 20
0.0
 30
0.0
  9
$UCSORGFRONT
 10
0.0
 20
0.0
 30
0.0
  9
$UCSORGBACK
 10
0.0
 20
0.0
 30
0.0
  9
$PUCSBASE
  2

  9
$PUCSNAME
  2

  9
$PUCSORG
 10
0.0
 20
0.0
 30
0.0
  9
$PUCSXDIR
 10
1.0
 20
0.0
 30
0.0
  9
$PUCSYDIR
 10
0.0
 20
1.0
 30
0.0
  9
$PUCSORTHOREF
  2

  9
$PUCSORTHOVIEW
 70
     0
  9
$PUCSORGTOP
 10
0.0
 20
0.0
 30
0.0
  9
$PUCSORGBOTTOM
 10
0.0
 20
0.0
 30
0.0
  9
$PUCSORGLEFT
 10
0.0
 20
0.0
 30
0.0
  9
$PUCSORGRIGHT
 10
0.0
 20
0.0
 30
0.0
  9
$PUCSORGFRONT
 10
0.0
 20
0.0
 30
0.0
  9
$PUCSORGBACK
 10
0.0
 20
0.0
 30
0.0
  9
$USERI1
 70
     0
  9
$USERI2
 70
     0
  9
$USERI3
 70
     0
  9
$USERI4
 70
     0
  9
$USERI5
 70
     0
  9
$USERR1
 40
0.0
  9
$USERR2
 40
0.0
  9
$USERR3
 40
0.0
  9
$USERR4
 40
0.0
  9
$USERR5
 40
0.0
  9
$WORLDVIEW
 70
     1
  9
$SHADEDGE
 70
     3
  9
$SHADEDIF
 70
    70
  9
$TILEMODE
 70
     1
  9
$MAXACTVP
 70
    64
  9
$PINSBASE
 10
0.0
 20
0.0
 30
0.0
  9
$PLIMCHECK
 70
     0
  9
$PEXTMIN
 10
0.0
 20
0.0
 30
0.0
  9
$PEXTMAX
 10
0.0
 20
0.0
 30
0.0
  9
$PLIMMIN
 10
0.0
 20
0.0
  9
$PLIMMAX
 10
12.0
 20
9.0
  9
$UNITMODE
 70
     0
  9
$VISRETAIN
 70
     1
  9
$PLINEGEN
 70
     0
  9
$PSLTSCALE
 70
     1
  9
$TREEDEPTH
 70
  3020
  9
$CMLSTYLE
  2
Standard
  9
$CMLJUST
 70
     0
  9
$CMLSCALE
 40
1.0
  9
$PROXYGRAPHICS
 70
     1
  9
$MEASUREMENT
 70
     0
  9
$CELWEIGHT
370
    -1
  9
$ENDCAPS
280
     0
  9
$JOINSTYLE
280
     0
  9
$LWDISPLAY
290
     0
  9
$INSUNITS
 70
     1
  9
$HYPERLINKBASE
  1

  9
$STYLESHEET
  1
monochrome.ctb
  9
$XEDIT
290
     1
  9
$CEPSNTYPE
380
     0
  9
$PSTYLEMODE
290
     1
  9
$FINGERPRINTGUID
  2
{358EB121-6EE0-9143-8A3E-6E8E8869FDA6}
  9
$VERSIONGUID
  2
{50F690B2-564E-F64E-955B-8426D6B54E88}
  9
$EXTNAMES
290
     1
  9
$PSVPSCALE
 40
0.0
  9
$OLESTARTUP
290
     0
  9
$SORTENTS
280
   127
  9
$INDEXCTL
280
     0
  9
$HIDETEXT
280
     1
  9
$XCLIPFRAME
280
     2
  9
$HALOGAP
280
     0
  9
$OBSCOLOR
 70
   257
  9
$OBSLTYPE
280
     0
  9
$INTERSECTIONDISPLAY
280
     0
  9
$INTERSECTIONCOLOR
 70
   257
  9
$DIMASSOC
280
     2
  9
$PROJECTNAME
  1

  9
$CAMERADISPLAY
290
     0
  9
$LENSLENGTH
 40
50.0
  9
$CAMERAHEIGHT
 40
0.0
  9
$STEPSPERSEC
 40
2.0
  9
$STEPSIZE
 40
6.0
  9
$3DDWFPREC
 40
2.0
  9
$PSOLWIDTH
 40
0.25
  9
$PSOLHEIGHT
 40
4.0
  9
$LOFTANG1
 40
1.570796326794896
  9
$LOFTANG2
 40
1.570796326794896
  9
$LOFTMAG1
 40
0.0
  9
$LOFTMAG2
 40
0.0
  9
$LOFTPARAM
 70
     7
  9
$LOFTNORMALS
280
     1
  9
$LATITUDE
 40
37.795
  9
$LONGITUDE
 40
-122.394
  9
$NORTHDIRECTION
 40
0.0
  9
$TIMEZONE
 70
 -8000
  9
$LIGHTGLYPHDISPLAY
280
     1
  9
$TILEMODELIGHTSYNCH
280
     1
  9
$CMATERIAL
347
96
  9
$SOLIDHIST
280
     0
  9
$SHOWHIST
280
     1
  9
$DWFFRAME
280
     2
  9
$DGNFRAME
280
     0
  9
$REALWORLDSCALE
290
     1
  9
$INTERFERECOLOR
 62
     1
  9
$INTERFEREOBJVS
345
A3
  9
$INTERFEREVPVS
346
A0
  9
$CSHADOW
280
     0
  9
$SHADOWPLANELOCATION
 40
0.0
  0
ENDSEC
  0
SECTION
  2
CLASSES
  0
CLASS
  1
ACDBDICTIONARYWDFLT
  2
AcDbDictionaryWithDefault
  3
ObjectDBX Classes
 90
        0
 91
        1
280
     0
281
     0
  0
CLASS
  1
DICTIONARYVAR
  2
AcDbDictionaryVar
  3
ObjectDBX Classes
 90
        0
 91
        9
280
     0
281
     0
  0
CLASS
  1
TABLESTYLE
  2
AcDbTableStyle
  3
ObjectDBX Classes
 90
     4095
 91
        1
280
     0
281
     0
  0
CLASS
  1
MATERIAL
  2
AcDbMaterial
  3
ObjectDBX Classes
 90
     1153
 91
        3
280
     0
281
     0
  0
CLASS
  1
VISUALSTYLE
  2
AcDbVisualStyle
  3
ObjectDBX Classes
 90
     4095
 91
       25
280
     0
281
     0
  0
CLASS
  1
SCALE
  2
AcDbScale
  3
ObjectDBX Classes
 90
     1153
 91
       35
280
     0
281
     0
  0
CLASS
  1
MLEADERSTYLE
  2
AcDbMLeaderStyle
  3
ACDB_MLEADERSTYLE_CLASS
 90
     4095
 91
        1
280
     0
281
     0
  0
CLASS
  1
CELLSTYLEMAP
  2
AcDbCellStyleMap
  3
ObjectDBX Classes
 90
     1152
 91
        1
280
     0
281
     0
  0
CLASS
  1
EXACXREFPANELOBJECT
  2
ExAcXREFPanelObject
  3
EXAC_ESW
 90
     1025
 91
        0
280
     0
281
     0
  0
CLASS
  1
NPOCOLLECTION
  2
AcDbImpNonPersistentObjectsCollection
  3
ObjectDBX Classes
 90
     1153
 91
        0
280
     0
281
     0
  0
CLASS
  1
LAYER_INDEX
  2
AcDbLayerIndex
  3
ObjectDBX Classes
 90
        0
 91
        0
280
     0
281
     0
  0
CLASS
  1
SPATIAL_INDEX
  2
AcDbSpatialIndex
  3
ObjectDBX Classes
 90
        0
 91
        0
280
     0
281
     0
  0
CLASS
  1
IDBUFFER
  2
AcDbIdBuffer
  3
ObjectDBX Classes
 90
        0
 91
        0
280
     0
281
     0
  0
CLASS
  1
ACDBSECTIONVIEWSTYLE
  2
AcDbSectionViewStyle
  3
ObjectDBX Classes
 90
     1025
 91
        2
280
     0
281
     0
  0
CLASS
  1
ACDBDETAILVIEWSTYLE
  2
AcDbDetailViewStyle
  3
ObjectDBX Classes
 90
     1025
 91
        2
280
     0
281
     0
  0
CLASS
  1
SORTENTSTABLE
  2
AcDbSortentsTable
  3
ObjectDBX Classes
 90
        0
 91
        1
280
     0
281
     0
  0
CLASS
  1
SPATIAL_FILTER
  2
AcDbSpatialFilter
  3
ObjectDBX Classes
 90
        0
 91
        0
280
     0
281
     0
  0
CLASS
  1
SOLID_BACKGROUND
  2
AcDbSolidBackground
  3
SCENEOE
 90
     4095
 91
        0
280
     0
281
     0
  0
ENDSEC
  0
SECTION
  2
TABLES
  0
TABLE
  2
VPORT
  5
8
330
0
100
AcDbSymbolTable
 70
     1
  0
VPORT
  5
94
330
8
100
AcDbSymbolTableRecord
100
AcDbViewportTableRecord
  2
*Active
 70
     0
 10
0.0
 20
0.0
 11
1.0
 21
1.0
 12
11046.43073576355
 22
29676.74004183834
 13
0.0
 23
0.0
 14
0.5
 24
0.5
 15
0.5
 25
0.5
 16
0.0
 26
0.0
 36
1.0
 17
0.0
 27
0.0
 37
0.0
 40
168.927888548621
 41
2.066284779050736
 42
50.0
 43
0.0
 44
0.0
 50
0.0
 51
0.0
 71
     0
 72
  1000
 73
     1
 74
     3
 75
     0
 76
     0
 77
     0
 78
     0
281
     0
 65
     1
110
0.0
120
0.0
130
0.0
111
1.0
121
0.0
131
0.0
112
0.0
122
1.0
132
0.0
 79
     0
146
0.0
348
9F
 60
     3
 61
     5
292
     1
282
     1
141
0.0
142
0.0
 63
   250
421
  3355443
1001
ACAD_NAV_VCDISPLAY
1070
     3
  0
ENDTAB
  0
TABLE
  2
LTYPE
  5
5
330
0
100
AcDbSymbolTable
 70
     1
  0
LTYPE
  5
14
330
5
100
AcDbSymbolTableRecord
100
AcDbLinetypeTableRecord
  2
ByBlock
 70
     0
  3

 72
    65
 73
     0
 40
0.0
  0
LTYPE
  5
15
330
5
100
AcDbSymbolTableRecord
100
AcDbLinetypeTableRecord
  2
ByLayer
 70
     0
  3

 72
    65
 73
     0
 40
0.0
  0
LTYPE
  5
16
330
5
100
AcDbSymbolTableRecord
100
AcDbLinetypeTableRecord
  2
Continuous
 70
     0
  3
Solid line
 72
    65
 73
     0
 40
0.0
  0
ENDTAB
  0
TABLE
  2
LAYER
  5
2
102
{ACAD_XDICTIONARY
360
18E
102
}
330
0
100
AcDbSymbolTable
 70
     2
  0
LAYER
  5
10
102
{ACAD_XDICTIONARY
360
E6
102
}
330
2
100
AcDbSymbolTableRecord
100
AcDbLayerTableRecord
  2
0
 70
     0
 62
     7
  6
Continuous
370
    -3
390
F
347
98
348
0
  0
LAYER
  5
204
330
2
100
AcDbSymbolTableRecord
100
AcDbLayerTableRecord
  2
freecads.com
 70
     0
 62
     7
  6
Continuous
370
    -3
390
F
347
98
348
0
1001
AcAecLayerStandard
1000

1000

1001
AcCmTransparency
1071
        0
  0
ENDTAB
  0
TABLE
  2
STYLE
  5
3
330
0
100
AcDbSymbolTable
 70
     1
  0
STYLE
  5
11
330
3
100
AcDbSymbolTableRecord
100
AcDbTextStyleTableRecord
  2
Standard
 70
     0
 40
0.0
 41
1.0
 50
0.0
 71
     0
 42
0.2
  3
arial.ttf
  4

1001
ACAD
1000
Arial
1071
       34
  0
ENDTAB
  0
TABLE
  2
VIEW
  5
6
330
0
100
AcDbSymbolTable
 70
     0
  0
ENDTAB
  0
TABLE
  2
UCS
  5
7
330
0
100
AcDbSymbolTable
 70
     0
  0
ENDTAB
  0
TABLE
  2
APPID
  5
9
330
0
100
AcDbSymbolTable
 70
    23
  0
APPID
  5
12
330
9
100
AcDbSymbolTableRecord
100
AcDbRegAppTableRecord
  2
ACAD
 70
     0
  0
APPID
  5
DD
330
9
100
AcDbSymbolTableRecord
100
AcDbRegAppTableRecord
  2
AcadAnnoPO
 70
     0
  0
APPID
  5
DE
330
9
100
AcDbSymbolTableRecord
100
AcDbRegAppTableRecord
  2
AcadAnnotative
 70
     0
  0
APPID
  5
DF
330
9
100
AcDbSymbolTableRecord
100
AcDbRegAppTableRecord
  2
ACAD_DSTYLE_DIMJAG
 70
     0
  0
APPID
  5
E0
330
9
100
AcDbSymbolTableRecord
100
AcDbRegAppTableRecord
  2
ACAD_DSTYLE_DIMTALN
 70
     0
  0
APPID
  5
107
330
9
100
AcDbSymbolTableRecord
100
AcDbRegAppTableRecord
  2
ACAD_MLEADERVER
 70
     0
  0
APPID
  5
1A6
330
9
100
AcDbSymbolTableRecord
100
AcDbRegAppTableRecord
  2
ACAD_NAV_VCDISPLAY
 70
     0
  0
APPID
  5
205
330
9
100
AcDbSymbolTableRecord
100
AcDbRegAppTableRecord
  2
AcAecLayerStandard
 70
     0
  0
APPID
  5
206
330
9
100
AcDbSymbolTableRecord
100
AcDbRegAppTableRecord
  2
AcCmTransparency
 70
     0
  0
APPID
  5
222
330
9
100
AcDbSymbolTableRecord
100
AcDbRegAppTableRecord
  2
ACAD_PSEXT
 70
     0
  0
APPID
  5
2DA
330
9
100
AcDbSymbolTableRecord
100
AcDbRegAppTableRecord
  2
GradientColor1ACI
 70
     0
  0
APPID
  5
2DB
330
9
100
AcDbSymbolTableRecord
100
AcDbRegAppTableRecord
  2
GradientColor2ACI
 70
     0
  0
APPID
  5
2F3
330
9
100
AcDbSymbolTableRecord
100
AcDbRegAppTableRecord
  2
ACAD_EXEMPT_FROM_CAD_STANDARDS
 70
     0
  0
APPID
  5
A1A
330
9
100
AcDbSymbolTableRecord
100
AcDbRegAppTableRecord
  2
AcDbBlockRepETag
 70
     0
  0
APPID
  5
228C
330
9
100
AcDbSymbolTableRecord
100
AcDbRegAppTableRecord
  2
RAK
 70
     0
  0
APPID
  5
2683
330
9
100
AcDbSymbolTableRecord
100
AcDbRegAppTableRecord
  2
ACAD_DSTYLE_DIMJOGGED_JOGANGLE_SYMBOL
 70
     0
  0
APPID
  5
47CF
330
9
100
AcDbSymbolTableRecord
100
AcDbRegAppTableRecord
  2
ACAD_DSTYLE_DIMBREAK
 70
     0
  0
APPID
  5
47D0
330
9
100
AcDbSymbolTableRecord
100
AcDbRegAppTableRecord
  2
AcDbDynamicBlockGUID
 70
     0
  0
APPID
  5
8BD5
330
9
100
AcDbSymbolTableRecord
100
AcDbRegAppTableRecord
  2
AcLayerTools
 70
     0
  0
APPID
  5
92D9
330
9
100
AcDbSymbolTableRecord
100
AcDbRegAppTableRecord
  2
AutoGrph01
 70
     0
  0
APPID
  5
92DA
330
9
100
AcDbSymbolTableRecord
100
AcDbRegAppTableRecord
  2
AutoGrphVars
 70
     0
  0
APPID
  5
92DB
330
9
100
AcDbSymbolTableRecord
100
AcDbRegAppTableRecord
  2
AutoGrphZ
 70
     0
  0
APPID
  5
92DC
330
9
100
AcDbSymbolTableRecord
100
AcDbRegAppTableRecord
  2
AutoGrph05
 70
     0
  0
ENDTAB
  0
TABLE
  2
DIMSTYLE
  5
A
330
0
100
AcDbSymbolTable
 70
     1
100
AcDbDimStyleTable
 71
     1
340
27
  0
DIMSTYLE
105
27
330
A
100
AcDbSymbolTableRecord
100
AcDbDimStyleTableRecord
  2
Standard
 70
     0
340
11
  0
ENDTAB
  0
TABLE
  2
BLOCK_RECORD
  5
1
330
0
100
AcDbSymbolTable
 70
     1
  0
BLOCK_RECORD
  5
1F
102
{ACAD_XDICTIONARY
360
15D
102
}
330
1
100
AcDbSymbolTableRecord
100
AcDbBlockTableRecord
  2
*Model_Space
340
22
 70
     0
280
     1
281
     0
  0
BLOCK_RECORD
  5
58
330
1
100
AcDbSymbolTableRecord
100
AcDbBlockTableRecord
  2
*Paper_Space
340
59
 70
     0
280
     1
281
     0
  0
BLOCK_RECORD
  5
5D
330
1
100
AcDbSymbolTableRecord
100
AcDbBlockTableRecord
  2
*Paper_Space0
340
5E
 70
     0
280
     1
281
     0
  0
ENDTAB
  0
ENDSEC
  0
SECTION
  2
BLOCKS
  0
BLOCK
  5
20
330
1F
100
AcDbEntity
  8
0
100
AcDbBlockBegin
  2
*Model_Space
 70
     0
 10
0.0
 20
0.0
 30
0.0
  3
*Model_Space
  1

  0
ENDBLK
  5
21
330
1F
100
AcDbEntity
  8
0
100
AcDbBlockEnd
  0
BLOCK
  5
5A
330
58
100
AcDbEntity
 67
     1
  8
0
100
AcDbBlockBegin
  2
*Paper_Space
 70
     0
 10
0.0
 20
0.0
 30
0.0
  3
*Paper_Space
  1

  0
ENDBLK
  5
5B
330
58
100
AcDbEntity
 67
     1
  8
0
100
AcDbBlockEnd
  0
BLOCK
  5
5F
330
5D
100
AcDbEntity
 67
     1
  8
0
100
AcDbBlockBegin
  2
*Paper_Space0
 70
     0
 10
0.0
 20
0.0
 30
0.0
  3
*Paper_Space0
  1

  0
ENDBLK
  5
60
330
5D
100
AcDbEntity
 67
     1
  8
0
100
AcDbBlockEnd
  0
ENDSEC
  0
SECTION
  2
ENTITIES
  0
ARC
  5
A985
330
1F
100
AcDbEntity
  8
freecads.com
100
AcDbCircle
 10
11029.45811633386
 20
29736.73158251465
 30
0.0
 40
1.335181276134108
100
AcDbArc
 50
332.5914035909052
 51
0.0000008395996697
  0
ARC
  5
A986
330
1F
100
AcDbEntity
  8
freecads.com
100
AcDbCircle
 10
11028.43155753468
 20
29737.26388944901
 30
0.0
 40
2.491543520643711
100
AcDbArc
 50
315.4064258792412
 51
332.5915265755503
  0
ARC
  5
A987
330
1F
100
AcDbEntity
  8
freecads.com
100
AcDbCircle
 10
11028.05962045146
 20
29737.63059006072
 30
0.0
 40
3.013852368452985
100
AcDbArc
 50
299.8091580675903
 51
315.4063839320446
  0
ARC
  5
A988
330
1F
100
AcDbEntity
  8
freecads.com
100
AcDbCircle
 10
11028.00092833626
 20
29737.73303680174
 30
0.0
 40
3.131920565407992
100
AcDbArc
 50
284.6549826613614
 51
299.8091352996335
  0
ARC
  5
A989
330
1F
100
AcDbEntity
  8
freecads.com
100
AcDbCircle
 10
11029.59885221862
 20
29731.62255598995
 30
0.0
 40
3.184038307573303
100
AcDbArc
 50
104.6549762710238
 51
119.5462427631554
  0
ARC
  5
A98A
330
1F
100
AcDbEntity
  8
freecads.com
100
AcDbCircle
 10
11029.51938289056
 20
29731.76273905266
 30
0.0
 40
3.022896552827329
100
AcDbArc
 50
119.5461084957118
 51
135.0288125851371
  0
ARC
  5
A98B
330
1F
100
AcDbEntity
  8
freecads.com
100
AcDbCircle
 10
11029.13173203768
 20
29732.14999677312
 30
0.0
 40
2.474953375313532
100
AcDbArc
 50
135.0287560988991
 51
152.1687325379183
  0
ARC
  5
A98C
330
1F
100
AcDbEntity
  8
freecads.com
100
AcDbCircle
 10
11028.08805033117
 20
29732.70099775274
 30
0.0
 40
1.294752721166783
100
AcDbArc
 50
152.1688086498191
 51
180.0000096697786
  0
ARC
  5
A98D
330
1F
100
AcDbEntity
  8
freecads.com
100
AcDbCircle
 10
11024.59855353908
 20
29732.70099741974
 30
0.0
 40
2.194744070916843
100
AcDbArc
 50
339.5880938328156
 51
0.0000029886246435
  0
ARC
  5
A98E
330
1F
100
AcDbEntity
  8
freecads.com
100
AcDbCircle
 10
11013.43721765066
 20
29736.85447066714
 30
0.0
 40
14.10384810232187
100
AcDbArc
 50
334.4246721757248
 51
339.5882106936668
  0
ARC
  5
A98F
330
1F
100
AcDbEntity
  8
freecads.com
100
AcDbCircle
 10
11011.15115080602
 20
29737.94853332957
 30
0.0
 40
16.63822667052864
100
AcDbArc
 50
329.3219203288413
 51
334.4247557834372
  0
ARC
  5
A990
330
1F
100
AcDbEntity
  8
freecads.com
100
AcDbCircle
 10
11009.82757817202
 20
29738.73371123006
 30
0.0
 40
18.17717074121459
100
AcDbArc
 50
324.546711335645
 51
329.3219671723206
  0
ARC
  5
A991
330
1F
100
AcDbEntity
  8
freecads.com
100
AcDbCircle
 10
11048.2606831176
 20
29711.36694609331
 30
0.0
 40
29.00379353262076
100
AcDbArc
 50
144.5467990335161
 51
149.0515005669581
  0
ARC
  5
A992
330
1F
100
AcDbEntity
  8
freecads.com
100
AcDbCircle
 10
11025.66453492228
 20
29724.91645366077
 30
0.0
 40
2.656591241195877
100
AcDbArc
 50
149.0515104377016
 51
175.0545402532887
  0
ARC
  5
A993
330
1F
100
AcDbEntity
  8
freecads.com
100
AcDbCircle
 10
11025.49086087872
 20
29724.93147751217
 30
0.0
 40
2.482268582024814
100
AcDbArc
 50
175.0544463044245
 51
202.3333561808327
  0
ARC
  5
A994
330
1F
100
AcDbEntity
  8
freecads.com
100
AcDbCircle
 10
11045.23994889529
 20
29733.04457972591
 30
0.0
 40
23.83288695753797
100
AcDbArc
 50
202.3333035848053
 51
207.5105860923131
  0
ARC
  5
A995
330
1F
100
AcDbEntity
  8
freecads.com
100
AcDbCircle
 10
10999.65150203733
 20
29709.3020563128
 30
0.0
 40
27.56763740694708
100
AcDbArc
 50
16.97485419004179
 51
27.51053722165949
  0
ARC
  5
A996
330
1F
100
AcDbEntity
  8
freecads.com
100
AcDbCircle
 10
10986.72435184683
 20
29705.35601523004
 30
0.0
 40
41.08364466775812
100
AcDbArc
 50
9.161844667226249
 51
16.97487759610314
  0
ARC
  5
A997
330
1F
100
AcDbEntity
  8
freecads.com
100
AcDbCircle
 10
10988.51012541489
 20
29705.64395305237
 30
0.0
 40
39.27480652676609
100
AcDbArc
 50
1.217064955209919
 51
9.161951398848628
  0
ARC
  5
A998
330
1F
100
AcDbEntity
  8
freecads.com
100
AcDbCircle
 10
11007.78099446209
 20
29706.05335661788
 30
0.0
 40
19.99958914500976
100
AcDbArc
 50
348.0528614821448
 51
1.217081509980721
  0
ARC
  5
A999
330
1F
100
AcDbEntity
  8
freecads.com
100
AcDbCircle
 10
10980.45068453934
 20
29711.83626446707
 30
0.0
 40
47.93501224303205
100
AcDbArc
 50
344.5763964528506
 51
348.0528376935936
  0
ARC
  5
A99A
330
1F
100
AcDbEntity
  8
freecads.com
100
AcDbCircle
 10
11022.45847291661
 20
29700.24677404843
 30
0.0
 40
4.357832750634505
100
AcDbArc
 50
324.4011647109078
 51
344.5763599928964
  0
ARC
  5
A99B
330
1F
100
AcDbEntity
  8
freecads.com
100
AcDbCircle
 10
11024.2921873706
 20
29698.93402127492
 30
0.0
 40
2.102654588467915
100
AcDbArc
 50
291.5578463679331
 51
324.4011325075261
  0
ARC
  5
A99C
330
1F
100
AcDbEntity
  8
freecads.com
100
AcDbCircle
 10
11022.85269865162
 20
29702.57760366472
 30
0.0
 40
6.020284025164935
100
AcDbArc
 50
276.5683817904253
 51
291.5577788151485
  0
ARC
  5
A99D
330
1F
100
AcDbEntity
  8
freecads.com
100
AcDbCircle
 10
11026.78118333938
 20
29668.45952693955
 30
0.0
 40
28.3232182913895
100
AcDbArc
 50
96.56831576424837
 51
100.7868712836468
  0
ARC
  5
A99E
330
1F
100
AcDbEntity
  8
freecads.com
100
AcDbCircle
 10
11021.59676325272
 20
29695.67107954572
 30
0.0
 40
0.6221929155344065
100
AcDbArc
 50
100.7868115619841
 51
166.3606562984697
  0
ARC
  5
A99F
330
1F
100
AcDbEntity
  8
freecads.com
100
AcDbCircle
 10
11022.23448211096
 20
29695.51633564916
 30
0.0
 40
1.278417736519948
100
AcDbArc
 50
166.3606626580788
 51
204.1596284696136
  0
ARC
  5
A9A0
330
1F
100
AcDbEntity
  8
freecads.com
100
AcDbCircle
 10
11148.55063859875
 20
29752.17833648727
 30
0.0
 40
139.7210185818681
100
AcDbArc
 50
204.1597094909592
 51
205.4949152300572
  0
ARC
  5
A9A1
330
1F
100
AcDbEntity
  8
freecads.com
100
AcDbCircle
 10
11010.54361423933
 20
29686.36740119585
 30
0.0
 40
13.17442927866412
100
AcDbArc
 50
18.75450019974474
 51
25.49489424498446
  0
ARC
  5
A9A2
330
1F
100
AcDbEntity
  8
freecads.com
100
AcDbCircle
 10
11011.54221626071
 20
29686.70646078455
 30
0.0
 40
12.11983580166433
100
AcDbArc
 50
11.57886462916438
 51
18.75453419381087
  0
ARC
  5
A9A3
330
1F
100
AcDbEntity
  8
freecads.com
100
AcDbCircle
 10
11013.72628936686
 20
29687.15394852037
 30
0.0
 40
9.890391788750347
100
AcDbArc
 50
4.019472765233541
 51
11.57885633343335
  0
ARC
  5
A9A4
330
1F
100
AcDbEntity
  8
freecads.com
100
AcDbCircle
 10
11021.62905158118
 20
29687.7092651871
 30
0.0
 40
1.968142915070184
100
AcDbArc
 50
339.0064449590275
 51
4.019396136293821
  0
ARC
  5
A9A5
330
1F
100
AcDbEntity
  8
freecads.com
100
AcDbCircle
 10
11020.81216582066
 20
29688.02273692113
 30
0.0
 40
2.843109699453523
100
AcDbArc
 50
307.6567728546418
 51
339.0063679476372
  0
ARC
  5
A9A6
330
1F
100
AcDbEntity
  8
freecads.com
100
AcDbCircle
 10
11021.55433691361
 20
29687.06098103204
 30
0.0
 40
1.628287769534253
100
AcDbArc
 50
260.1309584516618
 51
307.6567717420876
  0
ARC
  5
A9A7
330
1F
100
AcDbEntity
  8
freecads.com
100
AcDbCircle
 10
11021.5624995059
 20
29687.10791469123
 30
0.0
 40
1.675925950358225
100
AcDbArc
 50
213.4690783884007
 51
260.1310430937385
  0
ARC
  5
A9A8
330
1F
100
AcDbEntity
  8
freecads.com
100
AcDbCircle
 10
11022.63155645176
 20
29687.81468049135
 30
0.0
 40
2.957487751325015
100
AcDbArc
 50
182.9347996468596
 51
213.4691084302701
  0
ARC
  5
A9A9
330
1F
100
AcDbEntity
  8
freecads.com
100
AcDbCircle
 10
10983.51970153229
 20
29685.80955018222
 30
0.0
 40
36.20573150856726
100
AcDbArc
 50
2.934787335205749
 51
9.356421511761913
  0
ARC
  5
A9AA
330
1F
100
AcDbEntity
  8
freecads.com
100
AcDbCircle
 10
10989.86227025376
 20
29686.85458944925
 30
0.0
 40
29.77764586383326
100
AcDbArc
 50
9.356441457052101
 51
16.7917406635584
  0
ARC
  5
A9AB
330
1F
100
AcDbEntity
  8
freecads.com
100
AcDbCircle
 10
10995.93471051682
 20
29688.6870182787
 30
0.0
 40
23.43475014000175
100
AcDbArc
 50
16.79172631140231
 51
24.76019017521216
  0
ARC
  5
A9AC
330
1F
100
AcDbEntity
  8
freecads.com
100
AcDbCircle
 10
11013.1954699006
 20
29696.64805570167
 30
0.0
 40
4.42654319261886
100
AcDbArc
 50
24.76024001797313
 51
52.14195230669033
  0
ARC
  5
A9AD
330
1F
100
AcDbEntity
  8
freecads.com
100
AcDbCircle
 10
11014.04896502691
 20
29697.74606962937
 30
0.0
 40
3.035828083024708
100
AcDbArc
 50
52.14202789503399
 51
69.30297132642171
  0
ARC
  5
A9AE
330
1F
100
AcDbEntity
  8
freecads.com
100
AcDbCircle
 10
11013.00207714968
 20
29694.97512071585
 30
0.0
 40
5.997944236860719
100
AcDbArc
 50
69.30299143432925
 51
79.61339571137383
  0
ARC
  5
A9AF
330
1F
100
AcDbEntity
  8
freecads.com
100
AcDbCircle
 10
11012.93741833507
 20
29694.62229259524
 30
0.0
 40
6.356648076922482
100
AcDbArc
 50
79.61350207688166
 51
89.68488324697734
  0
ARC
  5
A9B0
330
1F
100
AcDbEntity
  8
freecads.com
100
AcDbCircle
 10
11012.94801904016
 20
29696.55028716545
 30
0.0
 40
4.428624363967885
100
AcDbArc
 50
89.68484399093
 51
102.8894953287605
  0
ARC
  5
A9B1
330
1F
100
AcDbEntity
  8
freecads.com
100
AcDbCircle
 10
11010.55469701651
 20
29707.00891040594
 30
0.0
 40
6.300345316088016
100
AcDbArc
 50
272.2664111456493
 51
282.8894557077684
  0
ARC
  5
A9B2
330
1F
100
AcDbEntity
  8
freecads.com
100
AcDbCircle
 10
11010.74218333473
 20
29702.27161274589
 30
0.0
 40
1.559339068526125
100
AcDbArc
 50
242.2843799401714
 51
272.2664706582886
  0
ARC
  5
A9B3
330
1F
100
AcDbEntity
  8
freecads.com
100
AcDbCircle
 10
11010.63291261495
 20
29702.06362403212
 30
0.0
 40
1.324393553021614
100
AcDbArc
 50
208.9797101348935
 51
242.2844512525667
  0
ARC
  5
A9B4
330
1F
100
AcDbEntity
  8
freecads.com
100
AcDbCircle
 10
11013.069362708
 20
29703.41303902328
 30
0.0
 40
4.109570365060205
100
AcDbArc
 50
194.6549233663736
 51
208.9796655286662
  0
ARC
  5
A9B5
330
1F
100
AcDbEntity
  8
freecads.com
100
AcDbCircle
 10
11004.68944493155
 20
29701.22164084749
 30
0.0
 40
4.552141238606837
100
AcDbArc
 50
14.6550813906463
 51
25.11620739353812
  0
ARC
  5
A9B6
330
1F
100
AcDbEntity
  8
freecads.com
100
AcDbCircle
 10
11005.6744011195
 20
29701.68336274753
 30
0.0
 40
3.464333440724434
100
AcDbArc
 50
25.11628364780123
 51
37.95405383386021
  0
ARC
  5
A9B7
330
1F
100
AcDbEntity
  8
freecads.com
100
AcDbCircle
 10
11006.48143199434
 20
29702.31284237288
 30
0.0
 40
2.440837748660451
100
AcDbArc
 50
37.95406209243091
 51
53.11848291492589
  0
ARC
  5
A9B8
330
1F
100
AcDbEntity
  8
freecads.com
100
AcDbCircle
 10
11007.50235258359
 20
29703.67349637801
 30
0.0
 40
0.7397621562107107
100
AcDbArc
 50
53.1184127819217
 51
89.99999795446589
  0
ARC
  5
A9B9
330
1F
100
AcDbEntity
  8
freecads.com
100
AcDbCircle
 10
11007.50235254317
 20
29704.62243936563
 30
0.0
 40
0.2091808314087409
100
AcDbArc
 50
181.9319014284369
 51
270.000018303919
  0
ARC
  5
A9BA
330
1F
100
AcDbEntity
  8
freecads.com
100
AcDbCircle
 10
11008.31299606851
 20
29704.64978369759
 30
0.0
 40
1.020285410150823
100
AcDbArc
 50
154.2445956263722
 51
181.9319383223825
  0
ARC
  5
A9BB
330
1F
100
AcDbEntity
  8
freecads.com
100
AcDbCircle
 10
11011.11153386188
 20
29703.29960300193
 30
0.0
 40
4.127503087085289
100
AcDbArc
 50
142.0450141454842
 51
154.2445842741813
  0
ARC
  5
A9BC
330
1F
100
AcDbEntity
  8
freecads.com
100
AcDbCircle
 10
11017.92601820606
 20
29697.98418677721
 30
0.0
 40
12.76988970879205
100
AcDbArc
 50
136.7881091811275
 51
142.0451060905466
  0
ARC
  5
A9BD
330
1F
100
AcDbEntity
  8
freecads.com
100
AcDbCircle
 10
11002.25241967947
 20
29712.70879036458
 30
0.0
 40
8.735357129550379
100
AcDbArc
 50
316.7881453414012
 51
325.4956617740674
  0
ARC
  5
A9BE
330
1F
100
AcDbEntity
  8
freecads.com
100
AcDbCircle
 10
11001.01114730569
 20
29713.56204922985
 30
0.0
 40
10.2416133484233
100
AcDbArc
 50
325.4955805760951
 51
333.2239131998124
  0
ARC
  5
A9BF
330
1F
100
AcDbEntity
  8
freecads.com
100
AcDbCircle
 10
11002.19553139508
 20
29712.96440355544
 30
0.0
 40
8.914983775687661
100
AcDbArc
 50
333.2238589277066
 51
341.3118096369808
  0
ARC
  5
A9C0
330
1F
100
AcDbEntity
  8
freecads.com
100
AcDbCircle
 10
11007.89491282379
 20
29711.03657712906
 30
0.0
 40
2.898384786207493
100
AcDbArc
 50
341.3118373920543
 51
0.0000673138821583
  0
ARC
  5
A9C1
330
1F
100
AcDbEntity
  8
freecads.com
100
AcDbCircle
 10
11014.72661760842
 20
29711.03658418256
 30
0.0
 40
3.933319998418128
100
AcDbArc
 50
166.7113438666733
 51
180.0000531444913
  0
ARC
  5
A9C2
330
1F
100
AcDbEntity
  8
freecads.com
100
AcDbCircle
 10
11019.63810745731
 20
29709.87658753942
 30
0.0
 40
8.979935175729234
100
AcDbArc
 50
159.5414209520055
 51
166.7113665491458
  0
ARC
  5
A9C3
330
1F
100
AcDbEntity
  8
freecads.com
100
AcDbCircle
 10
11020.14372975659
 20
29709.68796123517
 30
0.0
 40
9.519595987894586
100
AcDbArc
 50
152.5054278227027
 51
159.5414300400374
  0
ARC
  5
A9C4
330
1F
100
AcDbEntity
  8
freecads.com
100
AcDbCircle
 10
11017.27126804281
 20
29711.18291618401
 30
0.0
 40
6.281397940199537
100
AcDbArc
 50
142.8974503399564
 51
152.5053620315677
  0
ARC
  5
A9C5
330
1F
100
AcDbEntity
  8
freecads.com
100
AcDbCircle
 10
11007.02156037915
 20
29718.93541028128
 30
0.0
 40
6.569970544090255
100
AcDbArc
 50
322.8975612683907
 51
342.6926963955505
  0
ARC
  5
A9C6
330
1F
100
AcDbEntity
  8
freecads.com
100
AcDbCircle
 10
11004.61760120682
 20
29719.68449657301
 30
0.0
 40
9.087935987595336
100
AcDbArc
 50
342.6926951303669
 51
358.2148667646694
  0
ARC
  5
A9C7
330
1F
100
AcDbEntity
  8
freecads.com
100
AcDbCircle
 10
11003.1732179857
 20
29719.72951449057
 30
0.0
 40
10.53302058800507
100
AcDbArc
 50
358.2148586463347
 51
12.58137720714882
  0
ARC
  5
A9C8
330
1F
100
AcDbEntity
  8
freecads.com
100
AcDbCircle
 10
11001.31352576223
 20
29719.31445943909
 30
0.0
 40
12.43846695612887
100
AcDbArc
 50
12.58137360338447
 51
25.26378187261553
  0
ARC
  5
A9C9
330
1F
100
AcDbEntity
  8
freecads.com
100
AcDbCircle
 10
11007.07828754209
 20
29722.03499330775
 30
0.0
 40
6.06400361329863
100
AcDbArc
 50
25.26377827959488
 51
39.24674026009181
  0
ARC
  5
A9CA
330
1F
100
AcDbEntity
  8
freecads.com
100
AcDbCircle
 10
11008.40136827447
 20
29723.1158774133
 30
0.0
 40
4.355538491042272
100
AcDbArc
 50
39.24666565983411
 51
57.16587103039028
  0
ARC
  5
A9CB
330
1F
100
AcDbEntity
  8
freecads.com
100
AcDbCircle
 10
11007.80128243323
 20
29722.18595313518
 30
0.0
 40
5.462273409567784
100
AcDbArc
 50
57.16581585531854
 51
72.83649580706359
  0
ARC
  5
A9CC
330
1F
100
AcDbEntity
  8
freecads.com
100
AcDbCircle
 10
11005.50002200024
 20
29714.7350234106
 30
0.0
 40
13.26048816302017
100
AcDbArc
 50
72.83644550684273
 51
80.91501139215958
  0
ARC
  5
A9CD
330
1F
100
AcDbEntity
  8
freecads.com
100
AcDbCircle
 10
11009.3680373975
 20
29738.92427519168
 30
0.0
 40
11.2360716942865
100
AcDbArc
 50
252.427762651397
 51
260.9148861901225
  0
ARC
  5
A9CE
330
1F
100
AcDbEntity
  8
freecads.com
100
AcDbCircle
 10
11008.39086603415
 20
29735.83864112277
 30
0.0
 40
7.999406515355174
100
AcDbArc
 50
241.4790558419995
 51
252.4277348112106
  0
ARC
  5
A9CF
330
1F
100
AcDbEntity
  8
freecads.com
100
AcDbCircle
 10
11007.50622654336
 20
29734.21073918189
 30
0.0
 40
6.146664828639233
100
AcDbArc
 50
228.9971842213086
 51
241.4789755990546
  0
ARC
  5
A9D0
330
1F
100
AcDbEntity
  8
freecads.com
100
AcDbCircle
 10
11005.50571073423
 20
29731.9096339952
 30
0.0
 40
3.097542236353365
100
AcDbArc
 50
208.1548950551094
 51
228.9971428656117
  0
ARC
  5
A9D1
330
1F
100
AcDbEntity
  8
freecads.com
100
AcDbCircle
 10
10998.90914267535
 20
29728.37926154862
 30
0.0
 40
4.384318479204135
100
AcDbArc
 50
28.15497458381699
 51
39.62585626726998
  0
ARC
  5
A9D2
330
1F
100
AcDbEntity
  8
freecads.com
100
AcDbCircle
 10
11000.24169067649
 20
29729.48264787659
 30
0.0
 40
2.654247508393278
100
AcDbArc
 50
39.62596478298128
 51
56.33103974475932
  0
ARC
  5
A9D3
330
1F
100
AcDbEntity
  8
freecads.com
100
AcDbCircle
 10
11000.82913994459
 20
29730.3645286457
 30
0.0
 40
1.59462005806039
100
AcDbArc
 50
56.33097716636557
 51
78.40635364431078
  0
ARC
  5
A9D4
330
1F
100
AcDbEntity
  8
freecads.com
100
AcDbCircle
 10
11001.01977046955
 20
29731.29372368641
 30
0.0
 40
0.6460719987950422
100
AcDbArc
 50
78.40648874018762
 51
121.7174440857482
  0
ARC
  5
A9D5
330
1F
100
AcDbEntity
  8
freecads.com
100
AcDbCircle
 10
11000.25499438257
 20
29732.5311566747
 30
0.0
 40
0.8086179556981306
100
AcDbArc
 50
262.6913527603297
 51
301.7175252473294
  0
ARC
  5
A9D6
330
1F
100
AcDbEntity
  8
freecads.com
100
AcDbCircle
 10
11000.56874912593
 20
29734.97749797255
 30
0.0
 40
3.274997444860802
100
AcDbArc
 50
248.8831429155321
 51
262.6914235473873
  0
ARC
  5
A9D7
330
1F
100
AcDbEntity
  8
freecads.com
100
AcDbCircle
 10
11001.08538733464
 20
29736.31524805938
 30
0.0
 40
4.709044282820936
100
AcDbArc
 50
237.1593048076705
 51
248.8832430699798
  0
ARC
  5
A9D8
330
1F
100
AcDbEntity
  8
freecads.com
100
AcDbCircle
 10
11002.00790380771
 20
29737.74448436344
 30
0.0
 40
6.410147764657163
100
AcDbArc
 50
227.8552370073478
 51
237.1593113882775
  0
ARC
  5
A9D9
330
1F
100
AcDbEntity
  8
freecads.com
100
AcDbCircle
 10
10990.39805155623
 20
29724.91573316201
 30
0.0
 40
10.89203494995199
100
AcDbArc
 50
47.85536291460811
 51
54.76199644729565
  0
ARC
  5
A9DA
330
1F
100
AcDbEntity
  8
freecads.com
100
AcDbCircle
 10
10995.54287062827
 20
29732.19871941897
 30
0.0
 40
1.975137950256038
100
AcDbArc
 50
54.76198363532688
 51
79.2079428233897
  0
ARC
  5
A9DB
330
1F
100
AcDbEntity
  8
freecads.com
100
AcDbCircle
 10
10995.70506350352
 20
29733.049601767
 30
0.0
 40
1.108935145495138
100
AcDbArc
 50
79.20797490435262
 51
114.5948001950413
  0
ARC
  5
A9DC
330
1F
100
AcDbEntity
  8
freecads.com
100
AcDbCircle
 10
10996.20759677936
 20
29731.95170413232
 30
0.0
 40
2.316378274416092
100
AcDbArc
 50
114.5947329936316
 51
135.0000484035885
  0
ARC
  5
A9DD
330
1F
100
AcDbEntity
  8
freecads.com
100
AcDbCircle
 10
10992.46818439202
 20
29735.69111572665
 30
0.0
 40
2.971948878327718
100
AcDbArc
 50
300.8270493363682
 51
314.9999730840203
  0
ARC
  5
A9DE
330
1F
100
AcDbEntity
  8
freecads.com
100
AcDbCircle
 10
10991.1805990277
 20
29737.84872487346
 30
0.0
 40
5.48454779195955
100
AcDbArc
 50
291.8679063760904
 51
300.8271498882181
  0
ARC
  5
A9DF
330
1F
100
AcDbEntity
  8
freecads.com
100
AcDbCircle
 10
10991.14314107288
 20
29737.94204883068
 30
0.0
 40
5.585108516713632
100
AcDbArc
 50
282.9695585370187
 51
291.8679318240188
  0
ARC
  5
A9E0
330
1F
100
AcDbEntity
  8
freecads.com
100
AcDbCircle
 10
10991.63861120625
 20
29735.79071210497
 30
0.0
 40
3.3774535707453
100
AcDbArc
 50
269.999989885096
 51
282.9695799703068
  0
ARC
  5
A9E1
330
1F
100
AcDbEntity
  8
freecads.com
100
AcDbCircle
 10
10991.6386127735
 20
29730.72973939062
 30
0.0
 40
1.683519143610081
100
AcDbArc
 50
90.0000736313069
 51
118.8035975816969
  0
ARC
  5
A9E2
330
1F
100
AcDbEntity
  8
freecads.com
100
AcDbCircle
 10
10991.74523784237
 20
29730.53582008572
 30
0.0
 40
1.904818945056407
100
AcDbArc
 50
118.803628478008
 51
145.0609259399618
  0
ARC
  5
A9E3
330
1F
100
AcDbEntity
  8
freecads.com
100
AcDbCircle
 10
10993.03891014916
 20
29729.632038306
 30
0.0
 40
3.482922092092175
100
AcDbArc
 50
145.0610438965282
 51
163.3744914285485
  0
ARC
  5
A9E4
330
1F
100
AcDbEntity
  8
freecads.com
100
AcDbCircle
 10
11000.55553553087
 20
29727.38759903625
 30
0.0
 40
11.32748484374046
100
AcDbArc
 50
163.3745323024797
 51
170.9813048575638
  0
ARC
  5
A9E5
330
1F
100
AcDbEntity
  8
freecads.com
100
AcDbCircle
 10
11019.54614113592
 20
29724.37346450313
 30
0.0
 40
30.55580011653459
100
AcDbArc
 50
170.9813681138873
 51
178.6861216272532
  0
ARC
  5
A9E6
330
1F
100
AcDbEntity
  8
freecads.com
100
AcDbCircle
 10
11030.98335987691
 20
29724.1111504262
 30
0.0
 40
41.99602656552015
100
AcDbArc
 50
178.6861278026842
 51
184.7566852250999
  0
ARC
  5
A9E7
330
1F
100
AcDbEntity
  8
freecads.com
100
AcDbCircle
 10
11039.29954689297
 20
29724.80310061284
 30
0.0
 40
50.34095086385801
100
AcDbArc
 50
184.7566299862463
 51
189.2503349691833
  0
ARC
  5
A9E8
330
1F
100
AcDbEntity
  8
freecads.com
100
AcDbCircle
 10
10990.90326950509
 20
29716.92097475063
 30
0.0
 40
1.307007792633399
100
AcDbArc
 50
189.250285612632
 51
251.5650169518509
  0
ARC
  5
A9E9
330
1F
100
AcDbEntity
  8
freecads.com
100
AcDbCircle
 10
10990.15141267958
 20
29714.66541046443
 30
0.0
 40
1.070566377658472
100
AcDbArc
 50
15.90214476978357
 51
71.56498819415586
  0
ARC
  5
A9EA
330
1F
100
AcDbEntity
  8
freecads.com
100
AcDbCircle
 10
10989.64422615659
 20
29714.52091493962
 30
0.0
 40
1.597934489881505
100
AcDbArc
 50
334.577842809416
 51
15.90211431201851
  0
ARC
  5
A9EB
330
1F
100
AcDbEntity
  8
freecads.com
100
AcDbCircle
 10
10988.74459135686
 20
29714.94851809019
 30
0.0
 40
2.594020443630887
100
AcDbArc
 50
304.0052868257385
 51
334.5778683842236
  0
ARC
  5
A9EC
330
1F
100
AcDbEntity
  8
freecads.com
100
AcDbCircle
 10
10988.93675265555
 20
29714.66369323392
 30
0.0
 40
2.250434699699932
100
AcDbArc
 50
269.9999988402352
 51
304.0051545687983
  0
ARC
  5
A9ED
330
1F
100
AcDbEntity
  8
freecads.com
100
AcDbCircle
 10
10988.93675273253
 20
29712.08048027007
 30
0.0
 40
0.3327782641460088
100
AcDbArc
 50
90.00002109629656
 51
177.6113808626782
  0
ARC
  5
A9EE
330
1F
100
AcDbEntity
  8
freecads.com
100
AcDbCircle
 10
10989.72042623019
 20
29712.04779018984
 30
0.0
 40
1.117133280883028
100
AcDbArc
 50
177.6113621599163
 51
213.866764298294
  0
ARC
  5
A9EF
330
1F
100
AcDbEntity
  8
freecads.com
100
AcDbCircle
 10
10995.52308177735
 20
29715.94212849709
 30
0.0
 40
8.10545799073097
100
AcDbArc
 50
213.8667616195468
 51
224.7308347258188
  0
ARC
  5
A9F0
330
1F
100
AcDbEntity
  8
freecads.com
100
AcDbCircle
 10
11025.13620165348
 20
29745.27831691841
 30
0.0
 40
49.78937359242829
100
AcDbArc
 50
224.7308378485298
 51
227.5698130954566
  0
ARC
  5
A9F1
330
1F
100
AcDbEntity
  8
freecads.com
100
AcDbCircle
 10
10969.63107257599
 20
29684.55666402806
 30
0.0
 40
32.47810773309953
100
AcDbArc
 50
43.54836198747123
 51
47.56988372750259
  0
ARC
  5
A9F2
330
1F
100
AcDbEntity
  8
freecads.com
100
AcDbCircle
 10
10976.32021727765
 20
29690.91517734385
 30
0.0
 40
23.24905857153849
100
AcDbArc
 50
38.38159382064763
 51
43.54833927284404
  0
ARC
  5
A9F3
330
1F
100
AcDbEntity
  8
freecads.com
100
AcDbCircle
 10
10978.66729596194
 20
29692.77421632084
 30
0.0
 40
20.25493027298411
100
AcDbArc
 50
33.520902259358
 51
38.38160562417487
  0
ARC
  5
A9F4
330
1F
100
AcDbEntity
  8
freecads.com
100
AcDbCircle
 10
10994.35156394005
 20
29703.16363903893
 30
0.0
 40
1.441733669950843
100
AcDbArc
 50
0.0000594241882412
 51
33.52084597649502
  0
ARC
  5
A9F5
330
1F
100
AcDbEntity
  8
freecads.com
100
AcDbCircle
 10
10997.96678386967
 20
29703.16363929201
 30
0.0
 40
2.173486259671008
100
AcDbArc
 50
179.9999672539453
 51
199.6879560978482
  0
ARC
  5
A9F6
330
1F
100
AcDbEntity
  8
freecads.com
100
AcDbCircle
 10
11005.4221800306
 20
29705.83129328737
 30
0.0
 40
10.09177583226079
100
AcDbArc
 50
199.6879755989814
 51
205.9898393413676
  0
ARC
  5
A9F7
330
1F
100
AcDbEntity
  8
freecads.com
100
AcDbCircle
 10
11007.08122605842
 20
29706.64010188663
 30
0.0
 40
11.9374749064993
100
AcDbArc
 50
205.9898477620879
 51
212.0677338938888
  0
ARC
  5
A9F8
330
1F
100
AcDbEntity
  8
freecads.com
100
AcDbCircle
 10
11006.98648909432
 20
29706.58073111624
 30
0.0
 40
11.82567159464648
100
AcDbArc
 50
212.0676653127998
 51
218.1886073602825
  0
ARC
  5
A9F9
330
1F
100
AcDbEntity
  8
freecads.com
100
AcDbCircle
 10
10984.10562887257
 20
29688.58265563318
 30
0.0
 40
17.28557169005522
100
AcDbArc
 50
32.56415517455779
 51
38.18855459339154
  0
ARC
  5
A9FA
330
1F
100
AcDbEntity
  8
freecads.com
100
AcDbCircle
 10
10996.76089169189
 20
29696.66488362806
 30
0.0
 40
2.269643933597569
100
AcDbArc
 50
7.445435976951454
 51
32.56414050441581
  0
ARC
  5
A9FB
330
1F
100
AcDbEntity
  8
freecads.com
100
AcDbCircle
 10
10997.45279386887
 20
29696.75530152088
 30
0.0
 40
1.571858853617836
100
AcDbArc
 50
335.3459339060937
 51
7.445526574440098
  0
ARC
  5
A9FC
330
1F
100
AcDbEntity
  8
freecads.com
100
AcDbCircle
 10
10993.20979453282
 20
29698.70274142942
 30
0.0
 40
6.24043096541926
100
AcDbArc
 50
323.825004288145
 51
335.3459508961497
  0
ARC
  5
A9FD
330
1F
100
AcDbEntity
  8
freecads.com
100
AcDbCircle
 10
10992.55442619929
 20
29699.1819573033
 30
0.0
 40
7.052314889617975
100
AcDbArc
 50
313.3792158404558
 51
323.8250184980596
  0
ARC
  5
A9FE
330
1F
100
AcDbEntity
  8
freecads.com
100
AcDbCircle
 10
10997.02310824455
 20
29694.45302457807
 30
0.0
 40
0.5460160998758471
100
AcDbArc
 50
245.7579951886539
 51
313.3791376941491
  0
ARC
  5
A9FF
330
1F
100
AcDbEntity
  8
freecads.com
100
AcDbCircle
 10
10997.42533254093
 20
29695.34626969919
 30
0.0
 40
1.525644208401851
100
AcDbArc
 50
213.5791965680331
 51
245.7581103019118
  0
ARC
  5
AA00
330
1F
100
AcDbEntity
  8
freecads.com
100
AcDbCircle
 10
11048.51775495788
 20
29729.26534270742
 30
0.0
 40
62.85214045732661
100
AcDbArc
 50
211.3688563930714
 51
213.5792590266679
  0
ARC
  5
AA01
330
1F
100
AcDbEntity
  8
freecads.com
100
AcDbCircle
 10
11011.68425969164
 20
29706.80956916563
 30
0.0
 40
19.71320052032585
100
AcDbArc
 50
206.6600755009107
 51
211.3688966839758
  0
ARC
  5
AA02
330
1F
100
AcDbEntity
  8
freecads.com
100
AcDbCircle
 10
11011.50758352627
 20
29706.72087173219
 30
0.0
 40
19.51550959472223
100
AcDbArc
 50
201.9155359072449
 51
206.6600944512305
  0
ARC
  5
AA03
330
1F
100
AcDbEntity
  8
freecads.com
100
AcDbCircle
 10
11008.93220399348
 20
29705.68476093612
 30
0.0
 40
16.73952232537078
100
AcDbArc
 50
197.093993932886
 51
201.9155244687188
  0
ARC
  5
AA04
330
1F
100
AcDbEntity
  8
freecads.com
100
AcDbCircle
 10
10995.85617205495
 20
29701.66354792847
 30
0.0
 40
3.059143481555692
100
AcDbArc
 50
180.122890766255
 51
197.0939813037486
  0
ARC
  5
AA05
330
1F
100
AcDbEntity
  8
freecads.com
100
AcDbCircle
 10
10991.221086594
 20
29701.65360627203
 30
0.0
 40
1.57595264116428
100
AcDbArc
 50
0.1228938614001376
 51
33.20636780208951
  0
ARC
  5
AA06
330
1F
100
AcDbEntity
  8
freecads.com
100
AcDbCircle
 10
10982.86145927805
 20
29696.18188231941
 30
0.0
 40
11.56710532118148
100
AcDbArc
 50
33.20640965025057
 51
40.81432685908462
  0
ARC
  5
AA07
330
1F
100
AcDbEntity
  8
freecads.com
100
AcDbCircle
 10
10980.51832538551
 20
29694.15830306037
 30
0.0
 40
14.66309457436394
100
AcDbArc
 50
40.81437912447522
 51
48.06629108014395
  0
ARC
  5
AA08
330
1F
100
AcDbEntity
  8
freecads.com
100
AcDbCircle
 10
10977.74030993716
 20
29691.06580858879
 30
0.0
 40
18.82012378859822
100
AcDbArc
 50
48.06630698284588
 51
54.08052453894898
  0
ARC
  5
AA09
330
1F
100
AcDbEntity
  8
freecads.com
100
AcDbCircle
 10
10963.46393399599
 20
29671.35776824222
 30
0.0
 40
43.15573071166408
100
AcDbArc
 50
54.08060820230844
 51
57.70323319641494
  0
ARC
  5
AA0A
330
1F
100
AcDbEntity
  8
freecads.com
100
AcDbCircle
 10
10983.55388754746
 20
29703.14088874453
 30
0.0
 40
5.555558071572439
100
AcDbArc
 50
57.70331190508233
 51
74.113825188646
  0
ARC
  5
AA0B
330
1F
100
AcDbEntity
  8
freecads.com
100
AcDbCircle
 10
10984.3050283752
 20
29705.7802053525
 30
0.0
 40
2.811436226574694
100
AcDbArc
 50
74.11382907243201
 51
99.59092786628454
  0
ARC
  5
AA0C
330
1F
100
AcDbEntity
  8
freecads.com
100
AcDbCircle
 10
10984.73326682448
 20
29703.24582203101
 30
0.0
 40
5.381744960883384
100
AcDbArc
 50
99.59084762251585
 51
115.2638087056402
  0
ARC
  5
AA0D
330
1F
100
AcDbEntity
  8
freecads.com
100
AcDbCircle
 10
10984.81541897207
 20
29703.07174371061
 30
0.0
 40
5.574234537190563
100
AcDbArc
 50
115.2638104675365
 51
138.9309417677782
  0
ARC
  5
AA0E
330
1F
100
AcDbEntity
  8
freecads.com
100
AcDbCircle
 10
10989.62804796703
 20
29698.87801623765
 30
0.0
 40
11.95770913653177
100
AcDbArc
 50
138.9310201735415
 51
152.3065246550686
  0
ARC
  5
AA0F
330
1F
100
AcDbEntity
  8
freecads.com
100
AcDbCircle
 10
10991.5791574282
 20
29697.85394517808
 30
0.0
 40
14.16124031727819
100
AcDbArc
 50
152.3065278676901
 51
164.6697223314736
  0
ARC
  5
AA10
330
1F
100
AcDbEntity
  8
freecads.com
100
AcDbCircle
 10
10991.2319909313
 20
29697.94911228637
 30
0.0
 40
13.80126621397102
100
AcDbArc
 50
164.6697058557871
 51
177.2739718005303
  0
ARC
  5
AA11
330
1F
100
AcDbEntity
  8
freecads.com
100
AcDbCircle
 10
10966.25221939751
 20
29699.13851211862
 30
0.0
 40
11.20680563976473
100
AcDbArc
 50
351.7754953936635
 51
357.273918311198
  0
ARC
  5
AA12
330
1F
100
AcDbEntity
  8
freecads.com
100
AcDbCircle
 10
10968.70384614494
 20
29698.78415735272
 30
0.0
 40
8.729702289305492
100
AcDbArc
 50
345.1445550080097
 51
351.7754927240158
  0
ARC
  5
AA13
330
1F
100
AcDbEntity
  8
freecads.com
100
AcDbCircle
 10
10970.33967347783
 20
29698.35025587629
 30
0.0
 40
7.037307077113584
100
AcDbArc
 50
338.3309126602485
 51
345.1445811935808
  0
ARC
  5
AA14
330
1F
100
AcDbEntity
  8
freecads.com
100
AcDbCircle
 10
10976.07528232185
 20
29696.07136454139
 30
0.0
 40
0.8655525026083708
100
AcDbArc
 50
306.4474748616606
 51
338.3308615286058
  0
ARC
  5
AA15
330
1F
100
AcDbEntity
  8
freecads.com
100
AcDbCircle
 10
10976.86426816868
 20
29695.00306545241
 30
0.0
 40
0.4625143669510391
100
AcDbArc
 50
126.4475407717341
 51
182.2157449271609
  0
ARC
  5
AA16
330
1F
100
AcDbEntity
  8
freecads.com
100
AcDbCircle
 10
10981.06363815619
 20
29695.1655530356
 30
0.0
 40
4.665026771054697
100
AcDbArc
 50
182.2158474700106
 51
192.4548902370188
  0
ARC
  5
AA17
330
1F
100
AcDbEntity
  8
freecads.com
100
AcDbCircle
 10
10983.30488161527
 20
29695.66056923318
 30
0.0
 40
6.960285640709839
100
AcDbArc
 50
192.4548536641471
 51
201.3973923151792
  0
ARC
  5
AA18
330
1F
100
AcDbEntity
  8
freecads.com
100
AcDbCircle
 10
10987.8090211269
 20
29697.42549494964
 30
0.0
 40
11.79787135310603
100
AcDbArc
 50
201.3974339990027
 51
207.4205835338433
  0
ARC
  5
AA19
330
1F
100
AcDbEntity
  8
freecads.com
100
AcDbCircle
 10
10953.18293311277
 20
29679.46127697074
 30
0.0
 40
27.21083406960122
100
AcDbArc
 50
23.50761352263852
 51
27.42053501483777
  0
ARC
  5
AA1A
330
1F
100
AcDbEntity
  8
freecads.com
100
AcDbCircle
 10
10976.27495121628
 20
29689.5056213528
 30
0.0
 40
2.028893037227054
100
AcDbArc
 50
357.3869348997331
 51
23.50760546420672
  0
ARC
  5
AA1B
330
1F
100
AcDbEntity
  8
freecads.com
100
AcDbCircle
 10
10977.18159254757
 20
29689.46424631192
 30
0.0
 40
1.121308111389905
100
AcDbArc
 50
318.0824425726586
 51
357.3868088182507
  0
ARC
  5
AA1C
330
1F
100
AcDbEntity
  8
freecads.com
100
AcDbCircle
 10
10973.83443590584
 20
29692.46932743565
 30
0.0
 40
5.619526663704654
100
AcDbArc
 50
306.1749794688054
 51
318.0824630362508
  0
ARC
  5
AA1D
330
1F
100
AcDbEntity
  8
freecads.com
100
AcDbCircle
 10
10981.37442180586
 20
29682.15776730421
 30
0.0
 40
7.154652750918224
100
AcDbArc
 50
126.174834395237
 51
133.8521168946584
  0
ARC
  5
AA1E
330
1F
100
AcDbEntity
  8
freecads.com
100
AcDbCircle
 10
10977.11469094317
 20
29686.59169343586
 30
0.0
 40
1.006075032168179
100
AcDbArc
 50
133.8521284007515
 51
166.4888398078784
  0
ARC
  5
AA1F
330
1F
100
AcDbEntity
  8
freecads.com
100
AcDbCircle
 10
10976.63685574677
 20
29686.70650909393
 30
0.0
 40
0.5146392680484588
100
AcDbArc
 50
166.4887460795822
 51
217.2615403170606
  0
ARC
  5
AA20
330
1F
100
AcDbEntity
  8
freecads.com
100
AcDbCircle
 10
10977.56838555159
 20
29687.41515715933
 30
0.0
 40
1.685079295506306
100
AcDbArc
 50
217.2615451674041
 51
238.2824324725668
  0
ARC
  5
AA21
330
1F
100
AcDbEntity
  8
freecads.com
100
AcDbCircle
 10
10976.0552548916
 20
29684.96686708042
 30
0.0
 40
1.193060503862929
100
AcDbArc
 50
29.60800466931644
 51
58.28248647161754
  0
ARC
  5
AA22
330
1F
100
AcDbEntity
  8
freecads.com
100
AcDbCircle
 10
10975.04539436372
 20
29684.39299680318
 30
0.0
 40
2.354587679982202
100
AcDbArc
 50
12.36371586664348
 51
29.60806861010559
  0
ARC
  5
AA23
330
1F
100
AcDbEntity
  8
freecads.com
100
AcDbCircle
 10
10974.48618067327
 20
29684.27041729444
 30
0.0
 40
2.927078455063843
100
AcDbArc
 50
356.92754526208
 51
12.3637084061193
  0
ARC
  5
AA24
330
1F
100
AcDbEntity
  8
freecads.com
100
AcDbCircle
 10
10974.24246522902
 20
29684.28349789091
 30
0.0
 40
3.171144675115467
100
AcDbArc
 50
342.3912105243928
 51
356.9275642424697
  0
ARC
  5
AA25
330
1F
100
AcDbEntity
  8
freecads.com
100
AcDbCircle
 10
10980.6282148126
 20
29682.25674381729
 30
0.0
 40
3.528521721001467
100
AcDbArc
 50
162.3912608507148
 51
176.6411227131445
  0
ARC
  5
AA26
330
1F
100
AcDbEntity
  8
freecads.com
100
AcDbCircle
 10
10978.84301621461
 20
29682.36151959901
 30
0.0
 40
1.740251048337989
100
AcDbArc
 50
176.64116198917
 51
200.8197170668466
  0
ARC
  5
AA27
330
1F
100
AcDbEntity
  8
freecads.com
100
AcDbCircle
 10
10978.56183355714
 20
29682.25459563285
 30
0.0
 40
1.439424817107217
100
AcDbArc
 50
200.8196443449838
 51
227.9139340984916
  0
ARC
  5
AA28
330
1F
100
AcDbEntity
  8
freecads.com
100
AcDbCircle
 10
10978.94468265152
 20
29682.67851023221
 30
0.0
 40
2.010631449260289
100
AcDbArc
 50
227.9139323230979
 51
249.0064046153458
  0
ARC
  5
AA29
330
1F
100
AcDbEntity
  8
freecads.com
100
AcDbCircle
 10
10977.05323507962
 20
29677.74946257489
 30
0.0
 40
3.268865186346575
100
AcDbArc
 50
57.19087831572308
 51
69.00647683970319
  0
ARC
  5
AA2A
330
1F
100
AcDbEntity
  8
freecads.com
100
AcDbCircle
 10
10977.22804012883
 20
29678.020608851
 30
0.0
 40
2.946255347260691
100
AcDbArc
 50
44.41779894171942
 51
57.19091258012649
  0
ARC
  5
AA2B
330
1F
100
AcDbEntity
  8
freecads.com
100
AcDbCircle
 10
10977.69824126203
 20
29678.48135332004
 30
0.0
 40
2.287943436837257
100
AcDbArc
 50
30.0416340112671
 51
44.41774046322069
  0
ARC
  5
AA2C
330
1F
100
AcDbEntity
  8
freecads.com
100
AcDbCircle
 10
10978.9411939213
 20
29679.20017490371
 30
0.0
 40
0.8521036886967118
100
AcDbArc
 50
359.999975155312
 51
30.04176385785231
  0
ARC
  5
AA2D
330
1F
100
AcDbEntity
  8
freecads.com
100
AcDbCircle
 10
10980.99191920508
 20
29679.20017495233
 30
0.0
 40
1.19862159508405
100
AcDbArc
 50
180.0000199861407
 51
209.0796143162579
  0
ARC
  5
AA2E
330
1F
100
AcDbEntity
  8
freecads.com
100
AcDbCircle
 10
11003.93494240321
 20
29691.95938837695
 30
0.0
 40
27.45085656059897
100
AcDbArc
 50
209.0795784939067
 51
212.0757478759868
  0
ARC
  5
AA2F
330
1F
100
AcDbEntity
  8
freecads.com
100
AcDbCircle
 10
11004.25636940245
 20
29692.16078177876
 30
0.0
 40
27.83016463659435
100
AcDbArc
 50
212.0756644300252
 51
215.6591087965807
  0
ARC
  5
AA30
330
1F
100
AcDbEntity
  8
freecads.com
100
AcDbCircle
 10
11014.29839443875
 20
29699.36578626173
 30
0.0
 40
40.18954797184703
100
AcDbArc
 50
215.6590385372907
 51
218.3797726954853
  0
ARC
  5
AA31
330
1F
100
AcDbEntity
  8
freecads.com
100
AcDbCircle
 10
10955.72279774151
 20
29652.97304470013
 30
0.0
 40
34.53251702933255
100
AcDbArc
 50
35.19656667887079
 51
38.37971548858848
  0
ARC
  5
AA32
330
1F
100
AcDbEntity
  8
freecads.com
100
AcDbCircle
 10
10963.35883714315
 20
29658.35900185633
 30
0.0
 40
25.18812661413149
100
AcDbArc
 50
31.16403053988236
 51
35.1965496735838
  0
ARC
  5
AA33
330
1F
100
AcDbEntity
  8
freecads.com
100
AcDbCircle
 10
10965.0201642571
 20
29659.36373667376
 30
0.0
 40
23.24660663420999
100
AcDbArc
 50
27.55074845789435
 51
31.16397928575874
  0
ARC
  5
AA34
330
1F
100
AcDbEntity
  8
freecads.com
100
AcDbCircle
 10
10984.35890961821
 20
29669.4526320525
 30
0.0
 40
1.434387991783621
100
AcDbArc
 50
0.0000192424238104
 51
27.5507101009713
  0
ARC
  5
AA35
330
1F
100
AcDbEntity
  8
freecads.com
100
AcDbCircle
 10
10989.42634965757
 20
29669.45262921179
 30
0.0
 40
3.633052047569135
100
AcDbArc
 50
179.9999476029775
 51
214.814166955137
  0
ARC
  5
AA36
330
1F
100
AcDbEntity
  8
freecads.com
100
AcDbCircle
 10
11007.19559183842
 20
29681.80905080363
 30
0.0
 40
25.27622931517612
100
AcDbArc
 50
214.8140915290691
 51
223.1341362397567
  0
ARC
  5
AA37
330
1F
100
AcDbEntity
  8
freecads.com
100
AcDbCircle
 10
11006.97730141193
 20
29681.60449246992
 30
0.0
 40
24.97707246459501
100
AcDbArc
 50
223.1340664568872
 51
231.7246370314132
  0
ARC
  5
AA38
330
1F
100
AcDbEntity
  8
freecads.com
100
AcDbCircle
 10
10995.00640872935
 20
29666.43329609896
 30
0.0
 40
5.651765974295144
100
AcDbArc
 50
231.7245776566477
 51
257.6124419476329
  0
ARC
  5
AA39
330
1F
100
AcDbEntity
  8
freecads.com
100
AcDbCircle
 10
10991.88495769658
 20
29652.22137707847
 30
0.0
 40
8.898907508220704
100
AcDbArc
 50
63.56878781932049
 51
77.61248487308515
  0
ARC
  5
AA3A
330
1F
100
AcDbEntity
  8
freecads.com
100
AcDbCircle
 10
10992.09301325765
 20
29652.6399178248
 30
0.0
 40
8.431506745711471
100
AcDbArc
 50
48.94527569488252
 51
63.56882352296032
  0
ARC
  5
AA3B
330
1F
100
AcDbEntity
  8
freecads.com
100
AcDbCircle
 10
10994.57496015611
 20
29655.48956872389
 30
0.0
 40
4.652542515477462
100
AcDbArc
 50
28.92018740003643
 51
48.94528233152214
  0
ARC
  5
AA3C
330
1F
100
AcDbEntity
  8
freecads.com
100
AcDbCircle
 10
10997.95772051831
 20
29657.35850831012
 30
0.0
 40
0.7878299976979121
100
AcDbArc
 50
315.0000162395694
 51
28.92017711671983
  0
ARC
  5
AA3D
330
1F
100
AcDbEntity
  8
freecads.com
100
AcDbCircle
 10
10997.88249083497
 20
29657.43373795481
 30
0.0
 40
0.8942208088435936
100
AcDbArc
 50
281.1706332552264
 51
315.0000160585008
  0
ARC
  5
AA3E
330
1F
100
AcDbEntity
  8
freecads.com
100
AcDbCircle
 10
10986.21953505417
 20
29716.49508153907
 30
0.0
 40
61.09610486178111
100
AcDbArc
 50
279.5264559165107
 51
281.1705874000615
  0
ARC
  5
AA3F
330
1F
100
AcDbEntity
  8
freecads.com
100
AcDbCircle
 10
10988.51886790728
 20
29702.7940992233
 30
0.0
 40
47.20352238117842
100
AcDbArc
 50
276.9642107325469
 51
279.5263712456721
  0
ARC
  5
AA40
330
1F
100
AcDbEntity
  8
freecads.com
100
AcDbCircle
 10
10984.95574809098
 20
29731.9637868495
 30
0.0
 40
76.59002436822797
100
AcDbArc
 50
275.1812216346993
 51
276.9642303194892
  0
ARC
  5
AA41
330
1F
100
AcDbEntity
  8
freecads.com
100
AcDbCircle
 10
10996.81096513336
 20
29601.2217048117
 30
0.0
 40
54.68845134924176
100
AcDbArc
 50
95.1811789218876
 51
99.67717485442165
  0
ARC
  5
AA42
330
1F
100
AcDbEntity
  8
freecads.com
100
AcDbCircle
 10
10988.01584711476
 20
29652.79894937936
 30
0.0
 40
2.366694324525771
100
AcDbArc
 50
99.67707731174909
 51
143.5626033351038
  0
ARC
  5
AA43
330
1F
100
AcDbEntity
  8
freecads.com
100
AcDbCircle
 10
10987.0373769601
 20
29653.52132415437
 30
0.0
 40
1.150458673384664
100
AcDbArc
 50
143.5625273975919
 51
216.3453043864283
  0
ARC
  5
AA44
330
1F
100
AcDbEntity
  8
freecads.com
100
AcDbCircle
 10
10999.43049899327
 20
29662.64006891374
 30
0.0
 40
16.53684810416665
100
AcDbArc
 50
216.3452924277388
 51
226.7881218880517
  0
ARC
  5
AA45
330
1F
100
AcDbEntity
  8
freecads.com
100
AcDbCircle
 10
10993.15344160564
 20
29655.95846456929
 30
0.0
 40
7.369226489846776
100
AcDbArc
 50
226.7881563446985
 51
238.8268323063756
  0
ARC
  5
AA46
330
1F
100
AcDbEntity
  8
freecads.com
100
AcDbCircle
 10
10993.54347265735
 20
29656.60315737205
 30
0.0
 40
8.122720372517127
100
AcDbArc
 50
238.8268096800728
 51
250.0178564010141
  0
ARC
  5
AA47
330
1F
100
AcDbEntity
  8
freecads.com
100
AcDbCircle
 10
10993.78607528898
 20
29657.27032841877
 30
0.0
 40
8.832631100994696
100
AcDbArc
 50
250.0178096213115
 51
260.7270692097101
  0
ARC
  5
AA48
330
1F
100
AcDbEntity
  8
freecads.com
100
AcDbCircle
 10
10994.08742065549
 20
29659.11599670981
 30
0.0
 40
10.70273817559321
100
AcDbArc
 50
260.7270645234723
 51
270.0000211699804
  0
ARC
  5
AA49
330
1F
100
AcDbEntity
  8
freecads.com
100
AcDbCircle
 10
10994.08741675303
 20
29633.65235090373
 30
0.0
 40
14.76090763049449
100
AcDbArc
 50
81.79116301087759
 51
89.9999695023966
  0
ARC
  5
AA4A
330
1F
100
AcDbEntity
  8
freecads.com
100
AcDbCircle
 10
10995.76830458655
 20
29645.30417149532
 30
0.0
 40
2.98846918268514
100
AcDbArc
 50
54.96833810375401
 51
81.7911699308561
  0
ARC
  5
AA4B
330
1F
100
AcDbEntity
  8
freecads.com
100
AcDbCircle
 10
10995.31248786261
 20
29644.65395838904
 30
0.0
 40
3.782538429907393
100
AcDbArc
 50
32.09060571031905
 51
54.96837629396587
  0
ARC
  5
AA4C
330
1F
100
AcDbEntity
  8
freecads.com
100
AcDbCircle
 10
10973.70007892745
 20
29631.10146839296
 30
0.0
 40
29.29265809004529
100
AcDbArc
 50
27.02898460462457
 51
32.09058738064835
  0
ARC
  5
AA4D
330
1F
100
AcDbEntity
  8
freecads.com
100
AcDbCircle
 10
10978.33409421394
 20
29633.46558820142
 30
0.0
 40
24.09043162977761
100
AcDbArc
 50
22.99986511837763
 51
27.02894756844131
  0
ARC
  5
AA4E
330
1F
100
AcDbEntity
  8
freecads.com
100
AcDbCircle
 10
10991.0163040907
 20
29638.84882864179
 30
0.0
 40
10.31299627348255
100
AcDbArc
 50
15.40432568959835
 51
22.99988062058366
  0
ARC
  5
AA4F
330
1F
100
AcDbEntity
  8
freecads.com
100
AcDbCircle
 10
10995.77203499929
 20
29640.15915759278
 30
0.0
 40
5.380052078102438
100
AcDbArc
 50
5.436834757281498
 51
15.40436553329315
  0
ARC
  5
AA50
330
1F
100
AcDbEntity
  8
freecads.com
100
AcDbCircle
 10
11000.8954091915
 20
29640.64678342715
 30
0.0
 40
0.2335248929344342
100
AcDbArc
 50
269.9998573280871
 51
5.436591699303058
  0
ARC
  5
AA51
330
1F
100
AcDbEntity
  8
freecads.com
100
AcDbCircle
 10
11000.89541010987
 20
29637.71576812614
 30
0.0
 40
2.697490408077063
100
AcDbArc
 50
90.00003185788825
 51
99.99707120388258
  0
ARC
  5
AA52
330
1F
100
AcDbEntity
  8
freecads.com
100
AcDbCircle
 10
11002.31726517702
 20
29629.64963017864
 30
0.0
 40
10.8879881475384
100
AcDbArc
 50
99.9970839027231
 51
103.5411183036283
  0
ARC
  5
AA53
330
1F
100
AcDbEntity
  8
freecads.com
100
AcDbCircle
 10
11002.634115796
 20
29628.33403394331
 30
0.0
 40
12.24120201428244
100
AcDbArc
 50
103.5411418738957
 51
107.0274357148863
  0
ARC
  5
AA54
330
1F
100
AcDbEntity
  8
freecads.com
100
AcDbCircle
 10
11002.06787708155
 20
29630.18299916087
 30
0.0
 40
10.30747539005275
100
AcDbArc
 50
107.0275151452672
 51
110.9935914118691
  0
ARC
  5
AA55
330
1F
100
AcDbEntity
  8
freecads.com
100
AcDbCircle
 10
10997.43569094983
 20
29642.25429093196
 30
0.0
 40
2.622073456738455
100
AcDbArc
 50
275.4125712626406
 51
290.9936002964745
  0
ARC
  5
AA56
330
1F
100
AcDbEntity
  8
freecads.com
100
AcDbCircle
 10
10997.61148651139
 20
29640.39890664956
 30
0.0
 40
0.7583795669553606
100
AcDbArc
 50
236.1974839913878
 51
275.4126183815067
  0
ARC
  5
AA57
330
1F
100
AcDbEntity
  8
freecads.com
100
AcDbCircle
 10
10997.59978545298
 20
29640.38142906809
 30
0.0
 40
0.737346720695112
100
AcDbArc
 50
196.2643694414625
 51
236.1974662950914
  0
ARC
  5
AA58
330
1F
100
AcDbEntity
  8
freecads.com
100
AcDbCircle
 10
10999.25827910051
 20
29640.8652892948
 30
0.0
 40
2.464981490514838
100
AcDbArc
 50
180.000064166634
 51
196.2644163357723
  0
ARC
  5
AA59
330
1F
100
AcDbEntity
  8
freecads.com
100
AcDbCircle
 10
10994.33668510598
 20
29640.86528633472
 30
0.0
 40
2.456612504022367
100
AcDbArc
 50
0.0000046528162431
 51
13.9758883575597
  0
ARC
  5
AA5A
330
1F
100
AcDbEntity
  8
freecads.com
100
AcDbCircle
 10
10995.85195576496
 20
29641.24240625413
 30
0.0
 40
0.8951181545078073
100
AcDbArc
 50
13.97602816992652
 51
43.65821557435999
  0
ARC
  5
AA5B
330
1F
100
AcDbEntity
  8
freecads.com
100
AcDbCircle
 10
10996.14732590926
 20
29641.52425720319
 30
0.0
 40
0.4868492729733614
100
AcDbArc
 50
43.65813562376535
 51
87.0345315730494
  0
ARC
  5
AA5C
330
1F
100
AcDbEntity
  8
freecads.com
100
AcDbCircle
 10
10996.13853828656
 20
29641.35464600035
 30
0.0
 40
0.6566879683267877
100
AcDbArc
 50
87.03442904669676
 51
121.7174108866745
  0
ARC
  5
AA5D
330
1F
100
AcDbEntity
  8
freecads.com
100
AcDbCircle
 10
10995.37182173868
 20
29642.59521802335
 30
0.0
 40
0.8016923692533771
100
AcDbArc
 50
272.9562403600019
 51
301.7175794701584
  0
ARC
  5
AA5E
330
1F
100
AcDbEntity
  8
freecads.com
100
AcDbCircle
 10
10995.38886580645
 20
29642.26519937252
 30
0.0
 40
0.4712338845028867
100
AcDbArc
 50
230.1720117854686
 51
272.9560877228554
  0
ARC
  5
AA5F
330
1F
100
AcDbEntity
  8
freecads.com
100
AcDbCircle
 10
10995.52931518534
 20
29642.43360765673
 30
0.0
 40
0.690522229430685
100
AcDbArc
 50
196.5069416585521
 51
230.1721737433399
  0
ARC
  5
AA60
330
1F
100
AcDbEntity
  8
freecads.com
100
AcDbCircle
 10
10996.58769002546
 20
29642.74725090216
 30
0.0
 40
1.794392415462021
100
AcDbArc
 50
179.9999478877077
 51
196.5069065098328
  0
ARC
  5
AA61
330
1F
100
AcDbEntity
  8
freecads.com
100
AcDbCircle
 10
10993.14024888706
 20
29642.74725431709
 30
0.0
 40
1.65304872293728
100
AcDbArc
 50
359.9999382047973
 51
21.21216408150664
  0
ARC
  5
AA62
330
1F
100
AcDbEntity
  8
freecads.com
100
AcDbCircle
 10
10992.29382045492
 20
29642.4187358503
 30
0.0
 40
2.560994466769006
100
AcDbArc
 50
21.21224256395704
 51
36.4932600351475
  0
ARC
  5
AA63
330
1F
100
AcDbEntity
  8
freecads.com
100
AcDbCircle
 10
10992.17713293952
 20
29642.332412087
 30
0.0
 40
2.706141868956899
100
AcDbArc
 50
36.49327338721756
 51
51.3653695543552
  0
ARC
  5
AA64
330
1F
100
AcDbEntity
  8
freecads.com
100
AcDbCircle
 10
10992.52124201665
 20
29642.76293521346
 30
0.0
 40
2.154996498491366
100
AcDbArc
 50
51.36538479802613
 51
69.00643847551123
  0
ARC
  5
AA65
330
1F
100
AcDbEntity
  8
freecads.com
100
AcDbCircle
 10
10992.57185264711
 20
29642.89483079016
 30
0.0
 40
2.013724140750711
100
AcDbArc
 50
69.00637649803233
 51
88.1466708765088
  0
ARC
  5
AA66
330
1F
100
AcDbEntity
  8
freecads.com
100
AcDbCircle
 10
10992.61483723222
 20
29644.22319823664
 30
0.0
 40
0.6846614080649108
100
AcDbArc
 50
88.14677925270139
 51
130.9012018057714
  0
ARC
  5
AA67
330
1F
100
AcDbEntity
  8
freecads.com
100
AcDbCircle
 10
10992.74676192604
 20
29644.07090331961
 30
0.0
 40
0.8861505308167039
100
AcDbArc
 50
130.9010604181366
 51
167.0994689663177
  0
ARC
  5
AA68
330
1F
100
AcDbEntity
  8
freecads.com
100
AcDbCircle
 10
10995.34639195684
 20
29643.47549335932
 30
0.0
 40
3.55309434684113
100
AcDbArc
 50
167.0996286102568
 51
179.9999971795871
  0
ARC
  5
AA69
330
1F
100
AcDbEntity
  8
freecads.com
100
AcDbCircle
 10
10988.28870624447
 20
29643.47549120713
 30
0.0
 40
3.504591365527721
100
AcDbArc
 50
345.5497412847931
 51
0.0000380450374661
  0
ARC
  5
AA6A
330
1F
100
AcDbEntity
  8
freecads.com
100
AcDbCircle
 10
10990.91475699668
 20
29642.79878025773
 30
0.0
 40
0.7927506138936877
100
AcDbArc
 50
302.0258941828098
 51
345.549726320372
  0
ARC
  5
AA6B
330
1F
100
AcDbEntity
  8
freecads.com
100
AcDbCircle
 10
10990.79643730894
 20
29642.9879393714
 30
0.0
 40
1.015866545175949
100
AcDbArc
 50
265.1046132728276
 51
302.0259445409725
  0
ARC
  5
AA6C
330
1F
100
AcDbEntity
  8
freecads.com
100
AcDbCircle
 10
10991.23415527518
 20
29648.09852169129
 30
0.0
 40
6.145159738814983
100
AcDbArc
 50
255.3450148458606
 51
265.1046038204664
  0
ARC
  5
AA6D
330
1F
100
AcDbEntity
  8
freecads.com
100
AcDbCircle
 10
10987.1375169169
 20
29632.43291595767
 30
0.0
 40
10.04723504514983
100
AcDbArc
 50
75.3450380069572
 51
82.12252743508228
  0
ARC
  5
AA6E
330
1F
100
AcDbEntity
  8
freecads.com
100
AcDbCircle
 10
10988.44761844494
 20
29641.90164598742
 30
0.0
 40
0.4883012975944201
100
AcDbArc
 50
82.12264739817703
 51
143.0329782440892
  0
ARC
  5
AA6F
330
1F
100
AcDbEntity
  8
freecads.com
100
AcDbCircle
 10
10988.58200227352
 20
29641.80050116771
 30
0.0
 40
0.6564954946941431
100
AcDbArc
 50
143.0329392491309
 51
192.2886688128073
  0
ARC
  5
AA70
330
1F
100
AcDbEntity
  8
freecads.com
100
AcDbCircle
 10
11005.04236819344
 20
29645.38602630978
 30
0.0
 40
17.50284930677461
100
AcDbArc
 50
192.2886524673593
 51
196.8597910507529
  0
ARC
  5
AA71
330
1F
100
AcDbEntity
  8
freecads.com
100
AcDbCircle
 10
10949.07896010359
 20
29628.42592277409
 30
0.0
 40
40.97405345809211
100
AcDbArc
 50
14.96037854820697
 51
16.85980474029538
  0
ARC
  5
AA72
330
1F
100
AcDbEntity
  8
freecads.com
100
AcDbCircle
 10
10988.14388644944
 20
29638.86438899583
 30
0.0
 40
0.5385486699809763
100
AcDbArc
 50
332.9199136315231
 51
14.96045002185887
  0
ARC
  5
AA73
330
1F
100
AcDbEntity
  8
freecads.com
100
AcDbCircle
 10
10988.4859953017
 20
29638.68947364992
 30
0.0
 40
0.154317170715767
100
AcDbArc
 50
231.6303507028727
 51
332.9197198881169
  0
ARC
  5
AA74
330
1F
100
AcDbEntity
  8
freecads.com
100
AcDbCircle
 10
10994.55248462727
 20
29646.35181897622
 30
0.0
 40
9.927434822548695
100
AcDbArc
 50
226.394907565582
 51
231.6303725484541
  0
ARC
  5
AA75
330
1F
100
AcDbEntity
  8
freecads.com
100
AcDbCircle
 10
10985.58873195128
 20
29636.94062967892
 30
0.0
 40
3.069462731322346
100
AcDbArc
 50
46.39486592730855
 51
61.66652857749889
  0
ARC
  5
AA76
330
1F
100
AcDbEntity
  8
freecads.com
100
AcDbCircle
 10
10983.91261892083
 20
29633.83210511611
 30
0.0
 40
6.601074240033704
100
AcDbArc
 50
61.66651466616668
 51
70.28065785981024
  0
ARC
  5
AA77
330
1F
100
AcDbEntity
  8
freecads.com
100
AcDbCircle
 10
10983.77532724548
 20
29633.44909878596
 30
0.0
 40
7.007943817386085
100
AcDbArc
 50
70.28058347715488
 51
78.71003150006043
  0
ARC
  5
AA78
330
1F
100
AcDbEntity
  8
freecads.com
100
AcDbCircle
 10
10984.21829715534
 20
29635.66800283206
 30
0.0
 40
4.745255702158171
100
AcDbArc
 50
78.70995002459074
 51
89.99999451029381
  0
ARC
  5
AA79
330
1F
100
AcDbEntity
  8
freecads.com
100
AcDbCircle
 10
10984.21830035748
 20
29637.07641702209
 30
0.0
 40
3.336841512133895
100
AcDbArc
 50
90.00004717610073
 51
108.7593060283892
  0
ARC
  5
AA7A
330
1F
100
AcDbEntity
  8
freecads.com
100
AcDbCircle
 10
10983.72286300782
 20
29638.5351524191
 30
0.0
 40
1.79626787678193
100
AcDbArc
 50
108.7593313427402
 51
138.5762738919227
  0
ARC
  5
AA7B
330
1F
100
AcDbEntity
  8
freecads.com
100
AcDbCircle
 10
10984.48491786794
 20
29637.86275657756
 30
0.0
 40
2.812557096209979
100
AcDbArc
 50
138.5763798466996
 51
161.0672090052925
  0
ARC
  5
AA7C
330
1F
100
AcDbEntity
  8
freecads.com
100
AcDbCircle
 10
10993.24502038657
 20
29634.85790310509
 30
0.0
 40
12.07368772524112
100
AcDbArc
 50
161.0672192567789
 51
168.690016926252
  0
ARC
  5
AA7D
330
1F
100
AcDbEntity
  8
freecads.com
100
AcDbCircle
 10
10991.89179670601
 20
29635.12856597134
 30
0.0
 40
10.69366137894006
100
AcDbArc
 50
168.6901056496988
 51
181.6055523743164
  0
ARC
  5
AA7E
330
1F
100
AcDbEntity
  8
freecads.com
100
AcDbCircle
 10
10984.47148197398
 20
29634.92057985043
 30
0.0
 40
3.270432367992291
100
AcDbArc
 50
181.6055818300246
 51
212.8163887842037
  0
ARC
  5
AA7F
330
1F
100
AcDbEntity
  8
freecads.com
100
AcDbCircle
 10
10982.66231534148
 20
29633.75391761478
 30
0.0
 40
1.117716716488035
100
AcDbArc
 50
212.816330589251
 51
274.5784312926805
  0
ARC
  5
AA80
330
1F
100
AcDbEntity
  8
freecads.com
100
AcDbCircle
 10
10982.59351653213
 20
29634.6130408411
 30
0.0
 40
1.979590253722429
100
AcDbArc
 50
274.5784570333551
 51
314.9999748470985
  0
ARC
  5
AA81
330
1F
100
AcDbEntity
  8
freecads.com
100
AcDbCircle
 10
10986.819801358
 20
29630.38675421499
 30
0.0
 40
3.997280338444202
100
AcDbArc
 50
124.7147492124279
 51
134.9999942103026
  0
ARC
  5
AA82
330
1F
100
AcDbEntity
  8
freecads.com
100
AcDbCircle
 10
10987.49854318709
 20
29629.4070380885
 30
0.0
 40
5.189141974234925
100
AcDbArc
 50
116.2569777613608
 51
124.7145770628041
  0
ARC
  5
AA83
330
1F
100
AcDbEntity
  8
freecads.com
100
AcDbCircle
 10
10987.27158006579
 20
29629.86713357647
 30
0.0
 40
4.676111647171397
100
AcDbArc
 50
107.4769217774309
 51
116.2569835602298
  0
ARC
  5
AA84
330
1F
100
AcDbEntity
  8
freecads.com
100
AcDbCircle
 10
10986.42590852447
 20
29632.55303864663
 30
0.0
 40
1.860219887593947
100
AcDbArc
 50
89.99996656515262
 51
107.4769751254997
  0
ARC
  5
AA85
330
1F
100
AcDbEntity
  8
freecads.com
100
AcDbCircle
 10
10986.42590908555
 20
29633.00352810977
 30
0.0
 40
1.409730424451124
100
AcDbArc
 50
36.66802408587448
 51
89.99997868494478
  0
ARC
  5
AA86
330
1F
100
AcDbEntity
  8
freecads.com
100
AcDbCircle
 10
10984.0949399415
 20
29631.26810504012
 30
0.0
 40
4.315777633494245
100
AcDbArc
 50
13.45714960796965
 51
36.66797089757217
  0
ARC
  5
AA87
330
1F
100
AcDbEntity
  8
freecads.com
100
AcDbCircle
 10
10983.06049853325
 20
29631.02057699114
 30
0.0
 40
5.379421917143078
100
AcDbArc
 50
352.9299558315254
 51
13.45713636908711
  0
ARC
  5
AA88
330
1F
100
AcDbEntity
  8
freecads.com
100
AcDbCircle
 10
10985.52474458899
 20
29630.71494656417
 30
0.0
 40
2.896295142069616
100
AcDbArc
 50
320.3098750098945
 51
352.9299682985289
  0
ARC
  5
AA89
330
1F
100
AcDbEntity
  8
freecads.com
100
AcDbCircle
 10
10994.48732932541
 20
29623.27665568194
 30
0.0
 40
8.750854569614158
100
AcDbArc
 50
140.309780682807
 51
146.6196597631975
  0
ARC
  5
AA8A
330
1F
100
AcDbEntity
  8
freecads.com
100
AcDbCircle
 10
10987.52639010726
 20
29627.86312403764
 30
0.0
 40
0.4147663517103572
100
AcDbArc
 50
146.6197531555376
 51
204.3559705140841
  0
ARC
  5
AA8B
330
1F
100
AcDbEntity
  8
freecads.com
100
AcDbCircle
 10
10987.51935400892
 20
29627.85993790966
 30
0.0
 40
0.4070424867067059
100
AcDbArc
 50
204.3558513190693
 51
262.8660477149116
  0
ARC
  5
AA8C
330
1F
100
AcDbEntity
  8
freecads.com
100
AcDbCircle
 10
10988.52151999853
 20
29635.86716974246
 30
0.0
 40
8.476744977820366
100
AcDbArc
 50
262.8660902833379
 51
269.3195557851508
  0
ARC
  5
AA8D
330
1F
100
AcDbEntity
  8
freecads.com
100
AcDbCircle
 10
10988.28266170359
 20
29615.7538421582
 30
0.0
 40
11.63800085197313
100
AcDbArc
 50
84.13892910390464
 51
89.31964760293293
  0
ARC
  5
AA8E
330
1F
100
AcDbEntity
  8
freecads.com
100
AcDbCircle
 10
10989.45098147715
 20
29627.13506613913
 30
0.0
 40
0.1969681015003129
100
AcDbArc
 50
349.0686466679447
 51
84.13881038613679
  0
ARC
  5
AA8F
330
1F
100
AcDbEntity
  8
freecads.com
100
AcDbCircle
 10
10988.99067640251
 20
29627.22396818966
 30
0.0
 40
0.6657797228716324
100
AcDbArc
 50
309.5260162550857
 51
349.0686459336262
  0
ARC
  5
AA90
330
1F
100
AcDbEntity
  8
freecads.com
100
AcDbCircle
 10
10948.26099767381
 20
29676.58746813916
 30
0.0
 40
64.66313792308937
100
AcDbArc
 50
308.0126667597592
 51
309.5259408957624
  0
ARC
  5
AA91
330
1F
100
AcDbEntity
  8
freecads.com
100
AcDbCircle
 10
10991.20908276944
 20
29621.64145517952
 30
0.0
 40
5.076394291744672
100
AcDbArc
 50
128.0125732742572
 51
162.3218732834593
  0
ARC
  5
AA92
330
1F
100
AcDbEntity
  8
freecads.com
100
AcDbCircle
 10
10993.2540172419
 20
29620.98968398861
 30
0.0
 40
7.222684738513865
100
AcDbArc
 50
162.3218019625234
 51
188.6697966703318
  0
ARC
  5
AA93
330
1F
100
AcDbEntity
  8
freecads.com
100
AcDbCircle
 10
10995.57878591223
 20
29621.344165703
 30
0.0
 40
9.574323880974846
100
AcDbArc
 50
188.6697742438857
 51
211.0920525009209
  0
ARC
  5
AA94
330
1F
100
AcDbEntity
  8
freecads.com
100
AcDbCircle
 10
10997.90936368663
 20
29622.74962472194
 30
0.0
 40
12.29588736846632
100
AcDbArc
 50
211.0920744428343
 51
229.6801292477185
  0
ARC
  5
AA95
330
1F
100
AcDbEntity
  8
freecads.com
100
AcDbCircle
 10
11003.78749334599
 20
29629.67604084095
 30
0.0
 40
21.38036030560379
100
AcDbArc
 50
229.6801893076003
 51
246.85207192525
  0
ARC
  5
AA96
330
1F
100
AcDbEntity
  8
freecads.com
100
AcDbCircle
 10
11006.1598147408
 20
29635.22511128201
 30
0.0
 40
27.41526639922058
100
AcDbArc
 50
246.8521603162864
 51
261.1038485638675
  0
ARC
  5
AA97
330
1F
100
AcDbEntity
  8
freecads.com
100
AcDbCircle
 10
11005.24065373736
 20
29629.35300501355
 30
0.0
 40
21.47165731231047
100
AcDbArc
 50
261.1038954891425
 51
276.956827991012
  0
ARC
  5
AA98
330
1F
100
AcDbEntity
  8
freecads.com
100
AcDbCircle
 10
11007.22073317234
 20
29613.12545915611
 30
0.0
 40
5.123753497941021
100
AcDbArc
 50
276.9568514092682
 51
322.8680888456714
  0
ARC
  5
AA99
330
1F
100
AcDbEntity
  8
freecads.com
100
AcDbCircle
 10
11075.60660222003
 20
29561.34584166136
 30
0.0
 40
80.65360874473871
100
AcDbArc
 50
141.7543286182367
 51
142.8681498028288
  0
ARC
  5
AA9A
330
1F
100
AcDbEntity
  8
freecads.com
100
AcDbCircle
 10
11012.54480164006
 20
29611.05203258542
 30
0.0
 40
0.3573067840104776
100
AcDbArc
 50
90.32745065578724
 51
141.7543938981256
  0
ARC
  5
AA9B
330
1F
100
AcDbEntity
  8
freecads.com
100
AcDbCircle
 10
11012.54375347671
 20
29611.23535642616
 30
0.0
 40
0.1739799468351652
100
AcDbArc
 50
3.214937033264507
 51
90.32730598308601
  0
ARC
  5
AA9C
330
1F
100
AcDbEntity
  8
freecads.com
100
AcDbCircle
 10
10981.96709798415
 20
29609.51777735569
 30
0.0
 40
30.79883813383426
100
AcDbArc
 50
0.9730628820508091
 51
3.215089801744997
  0
ARC
  5
AA9D
330
1F
100
AcDbEntity
  8
freecads.com
100
AcDbCircle
 10
11020.43611419402
 20
29610.17116526717
 30
0.0
 40
7.675726502017951
100
AcDbArc
 50
180.9730627042268
 51
187.8549668519238
  0
ARC
  5
AA9E
330
1F
100
AcDbEntity
  8
freecads.com
100
AcDbCircle
 10
11013.27642508195
 20
29609.18341221248
 30
0.0
 40
0.4482231793930953
100
AcDbArc
 50
187.8550720670807
 51
242.3114783185668
  0
ARC
  5
AA9F
330
1F
100
AcDbEntity
  8
freecads.com
100
AcDbCircle
 10
11013.25218159117
 20
29609.13721243629
 30
0.0
 40
0.3960487971213559
100
AcDbArc
 50
242.3114618344381
 51
301.7043536183851
  0
ARC
  5
AAA0
330
1F
100
AcDbEntity
  8
freecads.com
100
AcDbCircle
 10
11010.19439480134
 20
29614.08736299355
 30
0.0
 40
6.214472173907822
100
AcDbArc
 50
301.7042897432294
 51
309.6901504302945
  0
ARC
  5
AAA1
330
1F
100
AcDbEntity
  8
freecads.com
100
AcDbCircle
 10
11015.15828145748
 20
29608.10624268016
 30
0.0
 40
1.558170294282578
100
AcDbArc
 50
100.5943630787726
 51
129.6901942089513
  0
ARC
  5
AAA2
330
1F
100
AcDbEntity
  8
freecads.com
100
AcDbCircle
 10
11014.96676502233
 20
29609.13015843353
 30
0.0
 40
0.5164975937904597
100
AcDbArc
 50
34.67579676058099
 51
100.5943552006227
  0
ARC
  5
AAA3
330
1F
100
AcDbEntity
  8
freecads.com
100
AcDbCircle
 10
11013.30361416998
 20
29607.97957735789
 30
0.0
 40
2.538849583261641
100
AcDbArc
 50
11.99567792136467
 51
34.67579551763254
  0
ARC
  5
AAA4
330
1F
100
AcDbEntity
  8
freecads.com
100
AcDbCircle
 10
10974.27767885499
 20
29599.68740392507
 30
0.0
 40
42.43601448817361
100
AcDbArc
 50
9.085021465633905
 51
11.99571974131956
  0
ARC
  5
AAA5
330
1F
100
AcDbEntity
  8
freecads.com
100
AcDbCircle
 10
11040.74720291085
 20
29610.31625914774
 30
0.0
 40
24.87795279617206
100
AcDbArc
 50
189.0849857151924
 51
193.6962152506572
  0
ARC
  5
AAA6
330
1F
100
AcDbEntity
  8
freecads.com
100
AcDbCircle
 10
11020.44037984143
 20
29605.36740963763
 30
0.0
 40
3.976800324443309
100
AcDbArc
 50
193.6962049944952
 51
211.5753196704854
  0
ARC
  5
AAA7
330
1F
100
AcDbEntity
  8
freecads.com
100
AcDbCircle
 10
11018.28135061532
 20
29604.04044552808
 30
0.0
 40
1.442586255505027
100
AcDbArc
 50
211.5752478616008
 51
245.207735335019
  0
ARC
  5
AAA8
330
1F
100
AcDbEntity
  8
freecads.com
100
AcDbCircle
 10
11018.25753621218
 20
29603.98889731705
 30
0.0
 40
1.385802949487403
100
AcDbArc
 50
245.2078941208391
 51
279.8669103199275
  0
ARC
  5
AAA9
330
1F
100
AcDbEntity
  8
freecads.com
100
AcDbCircle
 10
11018.77252964179
 20
29601.0280165779
 30
0.0
 40
1.619531139095564
100
AcDbArc
 50
74.84576829497564
 51
99.86687214577761
  0
ARC
  5
AAAA
330
1F
100
AcDbEntity
  8
freecads.com
100
AcDbCircle
 10
11018.70253487789
 20
29600.76958521442
 30
0.0
 40
1.887273620969181
100
AcDbArc
 50
52.53579583333535
 51
74.84570546921599
  0
ARC
  5
AAAB
330
1F
100
AcDbEntity
  8
freecads.com
100
AcDbCircle
 10
11018.48658576439
 20
29600.487785254
 30
0.0
 40
2.242302123072164
100
AcDbArc
 50
32.29041376900856
 51
52.53587735025813
  0
ARC
  5
AAAC
330
1F
100
AcDbEntity
  8
freecads.com
100
AcDbCircle
 10
11017.88715364674
 20
29600.10898318219
 30
0.0
 40
2.951393001090461
100
AcDbArc
 50
15.81350458252834
 51
32.29036741404234
  0
ARC
  5
AAAD
330
1F
100
AcDbEntity
  8
freecads.com
100
AcDbCircle
 10
11031.29032348412
 20
29603.9050948466
 30
0.0
 40
10.97898479201719
100
AcDbArc
 50
195.8134272022661
 51
200.8092860863946
  0
ARC
  5
AAAE
330
1F
100
AcDbEntity
  8
freecads.com
100
AcDbCircle
 10
11043.92111750526
 20
29608.70541462904
 30
0.0
 40
24.49120250851518
100
AcDbArc
 50
200.8092611178945
 51
203.5515354291582
  0
ARC
  5
AAAF
330
1F
100
AcDbEntity
  8
freecads.com
100
AcDbCircle
 10
11044.43489465089
 20
29608.929373211
 30
0.0
 40
25.05167052871989
100
AcDbArc
 50
203.5515610339119
 51
206.2807737687528
  0
ARC
  5
AAB0
330
1F
100
AcDbEntity
  8
freecads.com
100
AcDbCircle
 10
11034.34101120549
 20
29603.94485644484
 30
0.0
 40
13.79414458379514
100
AcDbArc
 50
206.2806895676377
 51
210.5468988430367
  0
ARC
  5
AAB1
330
1F
100
AcDbEntity
  8
freecads.com
100
AcDbCircle
 10
11036.12537148125
 20
29604.9978821605
 30
0.0
 40
15.86605306427586
100
AcDbArc
 50
210.5468642903829
 51
215.7202526712289
  0
ARC
  5
AAB2
330
1F
100
AcDbEntity
  8
freecads.com
100
AcDbCircle
 10
11023.7691276458
 20
29596.1123936863
 30
0.0
 40
0.6467013321496644
100
AcDbArc
 50
215.7201064521072
 51
268.3254528763251
  0
ARC
  5
AAB3
330
1F
100
AcDbEntity
  8
freecads.com
100
AcDbCircle
 10
11023.77676726965
 20
29596.37371692212
 30
0.0
 40
0.9081362139706413
100
AcDbArc
 50
268.3254578377751
 51
309.1981797862663
  0
ARC
  5
AAB4
330
1F
100
AcDbEntity
  8
freecads.com
100
AcDbCircle
 10
11002.30170524039
 20
29622.7064360896
 30
0.0
 40
34.88740030125852
100
AcDbArc
 50
309.1981967173026
 51
312.1446417216974
  0
ARC
  5
AAB5
330
1F
100
AcDbEntity
  8
freecads.com
100
AcDbCircle
 10
11077.32503517828
 20
29539.8064354911
 30
0.0
 40
76.92006874352767
100
AcDbArc
 50
130.7599468244344
 51
132.1446543740266
  0
ARC
  5
AAB6
330
1F
100
AcDbEntity
  8
freecads.com
100
AcDbCircle
 10
11027.4716339265
 20
29597.64384918557
 30
0.0
 40
0.5621743302095125
100
AcDbArc
 50
85.13544509383949
 51
130.7600288965943
  0
ARC
  5
AAB7
330
1F
100
AcDbEntity
  8
freecads.com
100
AcDbCircle
 10
11027.49755278721
 20
29597.94839544658
 30
0.0
 40
0.2565271276388894
100
AcDbArc
 50
3.492052010310857
 51
85.13540354857111
  0
ARC
  5
AAB8
330
1F
100
AcDbEntity
  8
freecads.com
100
AcDbCircle
 10
11006.41479717813
 20
29596.6618604908
 30
0.0
 40
21.37850043186509
100
AcDbArc
 50
0.000013516762607
 51
3.492035607663612
  0
ARC
  5
AAB9
330
1F
100
AcDbEntity
  8
freecads.com
100
AcDbCircle
 10
11032.57039541459
 20
29596.66186789849
 30
0.0
 40
4.777097804588851
100
AcDbArc
 50
180.0000283567076
 51
191.650589987027
  0
ARC
  5
AABA
330
1F
100
AcDbEntity
  8
freecads.com
100
AcDbCircle
 10
11028.80184496294
 20
29595.88482792019
 30
0.0
 40
0.929271972449167
100
AcDbArc
 50
191.6506296206847
 51
230.8239254887261
  0
ARC
  5
AABB
330
1F
100
AcDbEntity
  8
freecads.com
100
AcDbCircle
 10
11028.76461735293
 20
29595.83914583445
 30
0.0
 40
0.8703419469739856
100
AcDbArc
 50
230.8240257054126
 51
271.7320400300437
  0
ARC
  5
AABC
330
1F
100
AcDbEntity
  8
freecads.com
100
AcDbCircle
 10
11028.66645167853
 20
29599.08563842766
 30
0.0
 40
4.118318341192036
100
AcDbArc
 50
271.7319696989499
 51
284.6549554589696
  0
ARC
  5
AABD
330
1F
100
AcDbEntity
  8
freecads.com
100
AcDbCircle
 10
11030.31636729375
 20
29592.77633789787
 30
0.0
 40
2.403145812866324
100
AcDbArc
 50
81.57099397553736
 51
104.6550043433045
  0
ARC
  5
AABE
330
1F
100
AcDbEntity
  8
freecads.com
100
AcDbCircle
 10
11030.29977351893
 20
29592.66441211232
 30
0.0
 40
2.516294983304013
100
AcDbArc
 50
59.26952838547882
 51
81.57081129782957
  0
ARC
  5
AABF
330
1F
100
AcDbEntity
  8
freecads.com
100
AcDbCircle
 10
11029.62992095164
 20
29591.53761772736
 30
0.0
 40
3.827160364601543
100
AcDbArc
 50
41.83079659913588
 51
59.26952537742484
  0
ARC
  5
AAC0
330
1F
100
AcDbEntity
  8
freecads.com
100
AcDbCircle
 10
11025.12812681171
 20
29587.5081826342
 30
0.0
 40
9.868890054700308
100
AcDbArc
 50
33.23386287318605
 51
41.83084155629994
  0
LINE
  5
AAC1
330
1F
100
AcDbEntity
  8
freecads.com
100
AcDbLine
 10
11033.38286661
 20
29592.91690353422
 30
0.0
 11
11035.14227961
 21
29590.23169953422
 31
0.0
  0
LINE
  5
AAC2
330
1F
100
AcDbEntity
  8
freecads.com
100
AcDbLine
 10
11035.14227961
 20
29590.23169953422
 30
0.0
 11
11036.57269761
 21
29592.96175053422
 31
0.0
  0
ARC
  5
AAC3
330
1F
100
AcDbEntity
  8
freecads.com
100
AcDbCircle
 10
11052.70688370228
 20
29584.50820897289
 30
0.0
 40
18.21467336488249
100
AcDbArc
 50
147.7049975379923
 51
152.3476123648508
  0
ARC
  5
AAC4
330
1F
100
AcDbEntity
  8
freecads.com
100
AcDbCircle
 10
11038.80485609711
 20
29593.29500813573
 30
0.0
 40
1.768573186938421
100
AcDbArc
 50
121.992034789624
 51
147.704976243847
  0
ARC
  5
AAC5
330
1F
100
AcDbEntity
  8
freecads.com
100
AcDbCircle
 10
11038.12342633529
 20
29594.38586232208
 30
0.0
 40
0.4823736004982081
100
AcDbArc
 50
61.46965470340307
 51
121.9921095334451
  0
ARC
  5
AAC6
330
1F
100
AcDbEntity
  8
freecads.com
100
AcDbCircle
 10
11037.75437501377
 20
29593.70701010798
 30
0.0
 40
1.255056722162648
100
AcDbArc
 50
31.71742396041834
 51
61.46969563564202
  0
ARC
  5
AAC7
330
1F
100
AcDbEntity
  8
freecads.com
100
AcDbCircle
 10
11041.80898662585
 20
29596.21289257332
 30
0.0
 40
3.511422298553005
100
AcDbArc
 50
211.7174185725834
 51
224.833439752521
  0
ARC
  5
AAC8
330
1F
100
AcDbEntity
  8
freecads.com
100
AcDbCircle
 10
11039.78783004336
 20
29594.20345218899
 30
0.0
 40
0.6613478102146042
100
AcDbArc
 50
224.8333858515023
 51
269.9607168578104
  0
ARC
  5
AAC9
330
1F
100
AcDbEntity
  8
freecads.com
100
AcDbCircle
 10
11039.78807892378
 20
29594.57007421388
 30
0.0
 40
1.027969919572291
100
AcDbArc
 50
269.9608552566146
 51
303.4020058535558
  0
ARC
  5
AACA
330
1F
100
AcDbEntity
  8
freecads.com
100
AcDbCircle
 10
11034.84811151188
 20
29602.06135728302
 30
0.0
 40
10.00140850534983
100
AcDbArc
 50
303.402006091076
 51
309.6901292180051
  0
ARC
  5
AACB
330
1F
100
AcDbEntity
  8
freecads.com
100
AcDbCircle
 10
11044.70265878206
 20
29590.18734995578
 30
0.0
 40
5.42921532869639
100
AcDbArc
 50
109.5052490980919
 51
129.6902230446091
  0
ARC
  5
AACC
330
1F
100
AcDbEntity
  8
freecads.com
100
AcDbCircle
 10
11059.69016277538
 20
29547.87648165062
 30
0.0
 40
50.31612714813502
100
AcDbArc
 50
105.577059706
 51
109.5053319738855
  0
ARC
  5
AACD
330
1F
100
AcDbEntity
  8
freecads.com
100
AcDbCircle
 10
11059.06877405153
 20
29550.10552212121
 30
0.0
 40
48.00209487403336
100
AcDbArc
 50
101.1763779484855
 51
105.5770696184335
  0
ARC
  5
AACE
330
1F
100
AcDbEntity
  8
freecads.com
100
AcDbCircle
 10
11054.18421405029
 20
29574.82771763586
 30
0.0
 40
22.80197825785835
100
AcDbArc
 50
93.49720303920175
 51
101.176316946355
  0
ARC
  5
AACF
330
1F
100
AcDbEntity
  8
freecads.com
100
AcDbCircle
 10
11052.61272002177
 20
29600.54205487253
 30
0.0
 40
2.96033400255459
100
AcDbArc
 50
273.497159675701
 51
286.9500913742297
  0
ARC
  5
AAD0
330
1F
100
AcDbEntity
  8
freecads.com
100
AcDbCircle
 10
11051.35447177379
 20
29604.67040219145
 30
0.0
 40
7.276169986358853
100
AcDbArc
 50
286.9502192119986
 51
293.8220483791018
  0
ARC
  5
AAD1
330
1F
100
AcDbEntity
  8
freecads.com
100
AcDbCircle
 10
11051.13282892655
 20
29605.17241314642
 30
0.0
 40
7.824932731675103
100
AcDbArc
 50
293.8220405675668
 51
300.540451996908
  0
ARC
  5
AAD2
330
1F
100
AcDbEntity
  8
freecads.com
100
AcDbCircle
 10
11052.36730256277
 20
29603.08009796457
 30
0.0
 40
5.395589615007464
100
AcDbArc
 50
300.5403129455579
 51
309.4171754010625
  0
ARC
  5
AAD3
330
1F
100
AcDbEntity
  8
freecads.com
100
AcDbCircle
 10
11059.11682131809
 20
29594.86813106493
 30
0.0
 40
5.23419889602345
100
AcDbArc
 50
119.4202161789553
 51
129.4172555249713
  0
ARC
  5
AAD4
330
1F
100
AcDbEntity
  8
freecads.com
100
AcDbCircle
 10
11063.35640785556
 20
29587.35026330641
 30
0.0
 40
13.86509859670599
100
AcDbArc
 50
114.5890292029982
 51
119.4201811614656
  0
ARC
  5
AAD5
330
1F
100
AcDbEntity
  8
freecads.com
100
AcDbCircle
 10
11063.76618254766
 20
29586.45484377182
 30
0.0
 40
14.84982771714585
100
AcDbArc
 50
109.839754584455
 51
114.5891239095425
  0
ARC
  5
AAD6
330
1F
100
AcDbEntity
  8
freecads.com
100
AcDbCircle
 10
11062.11327131006
 20
29591.03602302227
 30
0.0
 40
9.979579378095845
100
AcDbArc
 50
103.442657982372
 51
109.8397887396652
  0
ARC
  5
AAD7
330
1F
100
AcDbEntity
  8
freecads.com
100
AcDbCircle
 10
11058.55211622099
 20
29605.93496801107
 30
0.0
 40
5.339049390425605
100
AcDbArc
 50
283.4426734889249
 51
297.1080002988498
  0
ARC
  5
AAD8
330
1F
100
AcDbEntity
  8
freecads.com
100
AcDbCircle
 10
11051.63533964487
 20
29619.44685368035
 30
0.0
 40
20.51840552115617
100
AcDbArc
 50
297.1080361920249
 51
302.1295513275445
  0
ARC
  5
AAD9
330
1F
100
AcDbEntity
  8
freecads.com
100
AcDbCircle
 10
11050.14540177187
 20
29621.81928230977
 30
0.0
 40
23.31989306655714
100
AcDbArc
 50
302.1295732252838
 51
307.0232640154389
  0
ARC
  5
AADA
330
1F
100
AcDbEntity
  8
freecads.com
100
AcDbCircle
 10
11052.15593578419
 20
29619.1534787326
 30
0.0
 40
19.98091781557136
100
AcDbArc
 50
307.0232425703857
 51
312.5182297181504
  0
ARC
  5
AADB
330
1F
100
AcDbEntity
  8
freecads.com
100
AcDbCircle
 10
11099.39810240283
 20
29567.63053959613
 30
0.0
 40
49.92212621031232
100
AcDbArc
 50
129.5219968543924
 51
132.5181662363525
  0
ARC
  5
AADC
330
1F
100
AcDbEntity
  8
freecads.com
100
AcDbCircle
 10
11069.81404356962
 20
29603.49081204693
 30
0.0
 40
3.433679502631245
100
AcDbArc
 50
108.3513361802515
 51
129.5219791083675
  0
ARC
  5
AADD
330
1F
100
AcDbEntity
  8
freecads.com
100
AcDbCircle
 10
11069.14238291417
 20
29605.51563892255
 30
0.0
 40
1.300360044065067
100
AcDbArc
 50
67.58184112676604
 51
108.3513382836603
  0
ARC
  5
AADE
330
1F
100
AcDbEntity
  8
freecads.com
100
AcDbCircle
 10
11068.23094807031
 20
29603.3063125597
 30
0.0
 40
3.690304907898727
100
AcDbArc
 50
48.84493586914929
 51
67.58188474065073
  0
ARC
  5
AADF
330
1F
100
AcDbEntity
  8
freecads.com
100
AcDbCircle
 10
11074.91011719139
 20
29610.94795315062
 30
0.0
 40
6.458880826372032
100
AcDbArc
 50
228.8449527098026
 51
250.433633335741
  0
ARC
  5
AAE0
330
1F
100
AcDbEntity
  8
freecads.com
100
AcDbCircle
 10
11077.20557816244
 20
29617.40635297031
 30
0.0
 40
13.31308167699255
100
AcDbArc
 50
250.433636525915
 51
263.0020291334901
  0
ARC
  5
AAE1
330
1F
100
AcDbEntity
  8
freecads.com
100
AcDbCircle
 10
11076.75699586779
 20
29613.75190776492
 30
0.0
 40
9.631207720122496
100
AcDbArc
 50
263.002054037918
 51
277.5336142400003
  0
ARC
  5
AAE2
330
1F
100
AcDbEntity
  8
freecads.com
100
AcDbCircle
 10
11077.90299706454
 20
29605.08645108376
 30
0.0
 40
0.8903005454587901
100
AcDbArc
 50
277.5336254772468
 51
0.0000289899508595
  0
ARC
  5
AAE3
330
1F
100
AcDbEntity
  8
freecads.com
100
AcDbCircle
 10
11079.65550515608
 20
29605.08645140302
 30
0.0
 40
0.8622075460862205
100
AcDbArc
 50
112.2150277879745
 51
179.9999912813369
  0
ARC
  5
AAE4
330
1F
100
AcDbEntity
  8
freecads.com
100
AcDbCircle
 10
11082.64425664072
 20
29597.76817846049
 30
0.0
 40
8.767253674871632
100
AcDbArc
 50
99.80943858958298
 51
112.2149082464822
  0
ARC
  5
AAE5
330
1F
100
AcDbEntity
  8
freecads.com
100
AcDbCircle
 10
11083.80540981654
 20
29591.0524415483
 30
0.0
 40
15.58263326601945
100
AcDbArc
 50
90.1567030660407
 51
99.80945538026187
  0
ARC
  5
AAE6
330
1F
100
AcDbEntity
  8
freecads.com
100
AcDbCircle
 10
11083.85033272231
 20
29574.64104273988
 30
0.0
 40
31.9940935580262
100
AcDbArc
 50
84.52114827413769
 51
90.15677089023126
  0
ARC
  5
AAE7
330
1F
100
AcDbEntity
  8
freecads.com
100
AcDbCircle
 10
11087.0428135121
 20
29607.92499729471
 30
0.0
 40
1.442616274154999
100
AcDbArc
 50
264.5211763045931
 51
298.3126640207245
  0
ARC
  5
AAE8
330
1F
100
AcDbEntity
  8
freecads.com
100
AcDbCircle
 10
11082.38646861024
 20
29616.56816947412
 30
0.0
 40
11.26025209791233
100
AcDbArc
 50
298.3127161066903
 51
305.7484731970594
  0
ARC
  5
AAE9
330
1F
100
AcDbEntity
  8
freecads.com
100
AcDbCircle
 10
11080.64329780409
 20
29618.98970769893
 30
0.0
 40
14.24395647897754
100
AcDbArc
 50
305.7485081248014
 51
312.8749512766498
  0
ARC
  5
AAEA
330
1F
100
AcDbEntity
  8
freecads.com
100
AcDbCircle
 10
11077.70022955024
 20
29622.15961946742
 30
0.0
 40
18.5694612318084
100
AcDbArc
 50
312.8749194722
 51
318.716448547365
  0
ARC
  5
AAEB
330
1F
100
AcDbEntity
  8
freecads.com
100
AcDbCircle
 10
11050.58416652073
 20
29645.96783599231
 30
0.0
 40
54.65425094043883
100
AcDbArc
 50
318.7164783217235
 51
321.8971066031139
  0
ARC
  5
AAEC
330
1F
100
AcDbEntity
  8
freecads.com
100
AcDbCircle
 10
11091.1330317033
 20
29614.17015693643
 30
0.0
 40
3.124620038064458
100
AcDbArc
 50
321.8971165385594
 51
347.4806002378896
  0
ARC
  5
AAED
330
1F
100
AcDbEntity
  8
freecads.com
100
AcDbCircle
 10
11091.74981192832
 20
29614.0331986378
 30
0.0
 40
2.492816728852728
100
AcDbArc
 50
347.4806518192809
 51
17.61321865253016
  0
ARC
  5
AAEE
330
1F
100
AcDbEntity
  8
freecads.com
100
AcDbCircle
 10
11067.0407482342
 20
29606.18872561468
 30
0.0
 40
28.41719879767481
100
AcDbArc
 50
17.61326018934054
 51
22.67646646461509
  0
ARC
  5
AAEF
330
1F
100
AcDbEntity
  8
freecads.com
100
AcDbCircle
 10
11116.76822386287
 20
29626.96620874725
 30
0.0
 40
25.4764523842957
100
AcDbArc
 50
195.0573821175803
 51
202.6765169103594
  0
ARC
  5
AAF0
330
1F
100
AcDbEntity
  8
freecads.com
100
AcDbCircle
 10
11095.31357887236
 20
29621.19442076451
 30
0.0
 40
3.258996900231895
100
AcDbArc
 50
160.396171535013
 51
195.057427545961
  0
ARC
  5
AAF1
330
1F
100
AcDbEntity
  8
freecads.com
100
AcDbCircle
 10
11092.98811817614
 20
29622.02265662058
 30
0.0
 40
0.7904462965531604
100
AcDbArc
 50
72.10133045520267
 51
160.3962710624518
  0
ARC
  5
AAF2
330
1F
100
AcDbEntity
  8
freecads.com
100
AcDbCircle
 10
11091.80447033956
 20
29618.35771750569
 30
0.0
 40
4.641783845621772
100
AcDbArc
 50
47.85525308159904
 51
72.10134529349845
  0
ARC
  5
AAF3
330
1F
100
AcDbEntity
  8
freecads.com
100
AcDbCircle
 10
11106.49825270012
 20
29634.59415951978
 30
0.0
 40
17.25637336762428
100
AcDbArc
 50
227.8552977177512
 51
231.5017517623589
  0
ARC
  5
AAF4
330
1F
100
AcDbEntity
  8
freecads.com
100
AcDbCircle
 10
11102.50774978366
 20
29629.57710513266
 30
0.0
 40
10.84583920505394
100
AcDbArc
 50
231.5017852516886
 51
236.6655528364755
  0
ARC
  5
AAF5
330
1F
100
AcDbEntity
  8
freecads.com
100
AcDbCircle
 10
11102.02016009662
 20
29628.83578560024
 30
0.0
 40
9.958540860614286
100
AcDbArc
 50
236.6655312766889
 51
241.1876439726938
  0
ARC
  5
AAF6
330
1F
100
AcDbEntity
  8
freecads.com
100
AcDbCircle
 10
11097.416600437
 20
29620.4662174583
 30
0.0
 40
0.4064503866799009
100
AcDbArc
 50
241.1876352768228
 51
287.1543372770951
  0
ARC
  5
AAF7
330
1F
100
AcDbEntity
  8
freecads.com
100
AcDbCircle
 10
11097.05325904464
 20
29621.64331140222
 30
0.0
 40
1.63834612910689
100
AcDbArc
 50
287.1542600882522
 51
325.9658101630166
  0
ARC
  5
AAF8
330
1F
100
AcDbEntity
  8
freecads.com
100
AcDbCircle
 10
11094.44357003005
 20
29623.40583859957
 30
0.0
 40
4.787469638001146
100
AcDbArc
 50
325.9657798759363
 51
343.4195472564756
  0
ARC
  5
AAF9
330
1F
100
AcDbEntity
  8
freecads.com
100
AcDbCircle
 10
11092.87994374444
 20
29623.87139554045
 30
0.0
 40
6.418932302677915
100
AcDbArc
 50
343.4195429570412
 51
358.5349041276888
  0
ARC
  5
AAFA
330
1F
100
AcDbEntity
  8
freecads.com
100
AcDbCircle
 10
11092.60519878766
 20
29623.87843297911
 30
0.0
 40
6.693767374517655
100
AcDbArc
 50
358.5348145101014
 51
13.1823285639239
  0
ARC
  5
AAFB
330
1F
100
AcDbEntity
  8
freecads.com
100
AcDbCircle
 10
11134.27694712336
 20
29633.63884268284
 30
0.0
 40
36.10576775075119
100
AcDbArc
 50
190.9702415248083
 51
193.1822482910906
  0
ARC
  5
AAFC
330
1F
100
AcDbEntity
  8
freecads.com
100
AcDbCircle
 10
11099.42508185478
 20
29626.88310931364
 30
0.0
 40
0.6051699240238582
100
AcDbArc
 50
149.4862343768641
 51
190.9701904204762
  0
ARC
  5
AAFD
330
1F
100
AcDbEntity
  8
freecads.com
100
AcDbCircle
 10
11099.06200487785
 20
29627.0970952234
 30
0.0
 40
0.1837261427743806
100
AcDbArc
 50
53.22553004158607
 51
149.4861567574138
  0
ARC
  5
AAFE
330
1F
100
AcDbEntity
  8
freecads.com
100
AcDbCircle
 10
11094.37749576612
 20
29620.82934566531
 30
0.0
 40
8.00864212576422
100
AcDbArc
 50
46.75679186949449
 51
53.22560043923971
  0
ARC
  5
AAFF
330
1F
100
AcDbEntity
  8
freecads.com
100
AcDbCircle
 10
11103.71651614614
 20
29630.75938168886
 30
0.0
 40
5.62304585069514
100
AcDbArc
 50
226.756838107481
 51
243.4856215253671
  0
ARC
  5
AB00
330
1F
100
AcDbEntity
  8
freecads.com
100
AcDbCircle
 10
11102.34739533747
 20
29628.01507137308
 30
0.0
 40
2.556169443334699
100
AcDbArc
 50
243.4855847101906
 51
273.6406756625249
  0
ARC
  5
AB01
330
1F
100
AcDbEntity
  8
freecads.com
100
AcDbCircle
 10
11102.42607882123
 20
29626.77842786336
 30
0.0
 40
1.317025278698304
100
AcDbArc
 50
273.6407177299148
 51
319.1620090783248
  0
ARC
  5
AB02
330
1F
100
AcDbEntity
  8
freecads.com
100
AcDbCircle
 10
11102.27008865362
 20
29626.91325655671
 30
0.0
 40
1.523208956374393
100
AcDbArc
 50
319.1619808222618
 51
0.0000743841951663
  0
ARC
  5
AB03
330
1F
100
AcDbEntity
  8
freecads.com
100
AcDbCircle
 10
11106.8571104683
 20
29626.91325771902
 30
0.0
 40
3.063812858298087
100
AcDbArc
 50
169.0883490678809
 51
179.9999847550544
  0
ARC
  5
AB04
330
1F
100
AcDbEntity
  8
freecads.com
100
AcDbCircle
 10
11105.91419558474
 20
29627.09503066505
 30
0.0
 40
2.103536917994734
100
AcDbArc
 50
154.6245120883362
 51
169.0882769183543
  0
ARC
  5
AB05
330
1F
100
AcDbEntity
  8
freecads.com
100
AcDbCircle
 10
11105.26084688092
 20
29627.4049226315
 30
0.0
 40
1.380420357784922
100
AcDbArc
 50
136.6848684005353
 51
154.6245742697952
  0
ARC
  5
AB06
330
1F
100
AcDbEntity
  8
freecads.com
100
AcDbCircle
 10
11104.59312799343
 20
29628.0344826491
 30
0.0
 40
0.4627088952440021
100
AcDbArc
 50
96.18232848811157
 51
136.6849177266678
  0
ARC
  5
AB07
330
1F
100
AcDbEntity
  8
freecads.com
100
AcDbCircle
 10
11106.56097726613
 20
29609.86774378885
 30
0.0
 40
18.73571717458467
100
AcDbArc
 50
94.81359905314977
 51
96.18226436335328
  0
ARC
  5
AB08
330
1F
100
AcDbEntity
  8
freecads.com
100
AcDbCircle
 10
11126.26309451596
 20
29375.90587731479
 30
0.0
 40
253.5256837152148
100
AcDbArc
 50
94.60982542806956
 51
94.81356916633512
  0
ARC
  5
AB09
330
1F
100
AcDbEntity
  8
freecads.com
100
AcDbCircle
 10
11127.28638324175
 20
29363.21218547543
 30
0.0
 40
266.2605544364359
100
AcDbArc
 50
94.38059683229047
 51
94.60977987396615
  0
ARC
  5
AB0A
330
1F
100
AcDbEntity
  8
freecads.com
100
AcDbCircle
 10
11131.74730780964
 20
29304.98403686488
 30
0.0
 40
324.659331294471
100
AcDbArc
 50
94.18310224429351
 51
94.38065804311673
  0
ARC
  5
AB0B
330
1F
100
AcDbEntity
  8
freecads.com
100
AcDbCircle
 10
11107.7358502875
 20
29633.28342137729
 30
0.0
 40
4.516967918528852
100
AcDbArc
 50
274.1831063567368
 51
290.3854329487743
  0
ARC
  5
AB0C
330
1F
100
AcDbEntity
  8
freecads.com
100
AcDbCircle
 10
11105.52966428802
 20
29639.22030596521
 30
0.0
 40
10.85051789264238
100
AcDbArc
 50
290.3854152487736
 51
298.8036484637289
  0
ARC
  5
AB0D
330
1F
100
AcDbEntity
  8
freecads.com
100
AcDbCircle
 10
11105.03775393734
 20
29640.11496021305
 30
0.0
 40
11.87148900695917
100
AcDbArc
 50
298.8036308100364
 51
306.9568167377739
  0
ARC
  5
AB0E
330
1F
100
AcDbEntity
  8
freecads.com
100
AcDbCircle
 10
11106.88458811081
 20
29637.66028264826
 30
0.0
 40
8.799642915216805
100
AcDbArc
 50
306.9568119428789
 51
317.1617743124361
  0
ARC
  5
AB0F
330
1F
100
AcDbEntity
  8
freecads.com
100
AcDbCircle
 10
11094.28776783612
 20
29649.34073061703
 30
0.0
 40
25.97848879564829
100
AcDbArc
 50
317.1617028541092
 51
322.1816144775634
  0
ARC
  5
AB10
330
1F
100
AcDbEntity
  8
freecads.com
100
AcDbCircle
 10
11112.93651993733
 20
29634.86568934817
 30
0.0
 40
2.371227737502128
100
AcDbArc
 50
322.1816005584566
 51
351.2284948867922
  0
ARC
  5
AB11
330
1F
100
AcDbEntity
  8
freecads.com
100
AcDbCircle
 10
11112.71843451556
 20
29634.89933567974
 30
0.0
 40
2.591893382318336
100
AcDbArc
 50
351.2285828078122
 51
18.48715683319817
  0
ARC
  5
AB12
330
1F
100
AcDbEntity
  8
freecads.com
100
AcDbCircle
 10
11083.38403146591
 20
29625.09146063984
 30
0.0
 40
33.52248689549125
100
AcDbArc
 50
18.48720894788259
 51
22.67643889754002
  0
ARC
  5
AB13
330
1F
100
AcDbEntity
  8
freecads.com
100
AcDbCircle
 10
11185.77908416795
 20
29667.87482651104
 30
0.0
 40
77.45121815720121
100
AcDbArc
 50
200.1759577728363
 51
202.6764755481903
  0
ARC
  5
AB14
330
1F
100
AcDbEntity
  8
freecads.com
100
AcDbCircle
 10
11115.8222359044
 20
29642.16904288257
 30
0.0
 40
2.921036814854856
100
AcDbArc
 50
173.3099708908156
 51
200.1759788714484
  0
ARC
  5
AB15
330
1F
100
AcDbEntity
  8
freecads.com
100
AcDbCircle
 10
11113.72523066159
 20
29642.41501388746
 30
0.0
 40
0.809655105263088
100
AcDbArc
 50
107.5315425641783
 51
173.3099332611464
  0
ARC
  5
AB16
330
1F
100
AcDbEntity
  8
freecads.com
100
AcDbCircle
 10
11114.94828481657
 20
29638.5433902564
 30
0.0
 40
4.869868277817502
100
AcDbArc
 50
89.99999066497736
 51
107.5314550885779
  0
ARC
  5
AB17
330
1F
100
AcDbEntity
  8
freecads.com
100
AcDbCircle
 10
11114.94828684986
 20
29667.27653622094
 30
0.0
 40
23.86327768672076
100
AcDbArc
 50
269.999997023048
 51
273.2521163543107
  0
ARC
  5
AB18
330
1F
100
AcDbEntity
  8
freecads.com
100
AcDbCircle
 10
11116.28604382561
 20
29643.73324382028
 30
0.0
 40
0.2820094683037697
100
AcDbArc
 50
273.2522143567693
 51
350.2124538197612
  0
ARC
  5
AB19
330
1F
100
AcDbEntity
  8
freecads.com
100
AcDbCircle
 10
11116.07013529816
 20
29643.77048986448
 30
0.0
 40
0.5011070722021748
100
AcDbArc
 50
350.2123981482372
 51
40.48371139401965
  0
ARC
  5
AB1A
330
1F
100
AcDbEntity
  8
freecads.com
100
AcDbCircle
 10
11070.4271074616
 20
29604.8099374118
 30
0.0
 40
60.51119487006148
100
AcDbArc
 50
40.48382635790858
 51
42.14468733936058
  0
ARC
  5
AB1B
330
1F
100
AcDbEntity
  8
freecads.com
100
AcDbCircle
 10
11108.80646871438
 20
29639.54276346485
 30
0.0
 40
8.74880914642415
100
AcDbArc
 50
42.14468207218148
 51
56.88737310793609
  0
ARC
  5
AB1C
330
1F
100
AcDbEntity
  8
freecads.com
100
AcDbCircle
 10
11112.14868442137
 20
29644.6672499507
 30
0.0
 40
2.630740204700326
100
AcDbArc
 50
56.88729096606305
 51
92.95314403101171
  0
ARC
  5
AB1D
330
1F
100
AcDbEntity
  8
freecads.com
100
AcDbCircle
 10
11112.17866879524
 20
29644.08600247231
 30
0.0
 40
3.212760559859395
100
AcDbArc
 50
92.95312815269092
 51
124.6326175342986
  0
ARC
  5
AB1E
330
1F
100
AcDbEntity
  8
freecads.com
100
AcDbCircle
 10
11118.57866489753
 20
29634.81996705476
 30
0.0
 40
14.47417088310342
100
AcDbArc
 50
124.632611057225
 51
134.9999658739999
  0
LINE
  5
AB1F
330
1F
100
AcDbEntity
  8
freecads.com
100
AcDbLine
 10
11108.34388661
 20
29645.05475753422
 30
0.0
 11
11105.98538561
 21
29642.69625553422
 31
0.0
  0
LINE
  5
AB20
330
1F
100
AcDbEntity
  8
freecads.com
100
AcDbLine
 10
11105.98538561
 20
29642.69625553422
 30
0.0
 11
11104.75822961
 21
29645.30475753422
 31
0.0
  0
ARC
  5
AB21
330
1F
100
AcDbEntity
  8
freecads.com
100
AcDbCircle
 10
11095.51763185941
 20
29640.95756066251
 30
0.0
 40
10.2120892783775
100
AcDbArc
 50
25.19442402281419
 51
31.40239266207064
  0
ARC
  5
AB22
330
1F
100
AcDbEntity
  8
freecads.com
100
AcDbCircle
 10
11102.38716505236
 20
29645.15113477934
 30
0.0
 40
2.163701230926737
100
AcDbArc
 50
31.40240664997318
 51
51.02942517686252
  0
ARC
  5
AB23
330
1F
100
AcDbEntity
  8
freecads.com
100
AcDbCircle
 10
11103.46922980346
 20
29646.48877627412
 30
0.0
 40
0.4431929065856989
100
AcDbArc
 50
51.02952571656949
 51
103.782409504574
  0
ARC
  5
AB24
330
1F
100
AcDbEntity
  8
freecads.com
100
AcDbCircle
 10
11103.46027948352
 20
29646.52526683304
 30
0.0
 40
0.4056207211681606
100
AcDbArc
 50
103.7825114289123
 51
160.1110107094532
  0
ARC
  5
AB25
330
1F
100
AcDbEntity
  8
freecads.com
100
AcDbCircle
 10
11101.96444617355
 20
29647.06642480352
 30
0.0
 40
1.185092716327188
100
AcDbArc
 50
311.9407361121739
 51
340.1110572381216
  0
ARC
  5
AB26
330
1F
100
AcDbEntity
  8
freecads.com
100
AcDbCircle
 10
11100.94033642867
 20
29648.20618699339
 30
0.0
 40
2.717365087360761
100
AcDbArc
 50
296.7878892725155
 51
311.9406728149725
  0
ARC
  5
AB27
330
1F
100
AcDbEntity
  8
freecads.com
100
AcDbCircle
 10
11100.64179098964
 20
29648.79751218258
 30
0.0
 40
3.379781012994675
100
AcDbArc
 50
283.1465785832266
 51
296.7879264699646
  0
ARC
  5
AB28
330
1F
100
AcDbEntity
  8
freecads.com
100
AcDbCircle
 10
11100.60297775802
 20
29648.96368518323
 30
0.0
 40
3.550426649010507
100
AcDbArc
 50
269.9999653358728
 51
283.1465963455601
  0
ARC
  5
AB29
330
1F
100
AcDbEntity
  8
freecads.com
100
AcDbCircle
 10
11100.60297290224
 20
29649.27089044959
 30
0.0
 40
3.857631915375277
100
AcDbArc
 50
258.0962136927324
 51
270.0000402170951
  0
ARC
  5
AB2A
330
1F
100
AcDbEntity
  8
freecads.com
100
AcDbCircle
 10
11100.06387522882
 20
29646.7135378813
 30
0.0
 40
1.244075246758011
100
AcDbArc
 50
230.4299862809171
 51
258.0963242763322
  0
ARC
  5
AB2B
330
1F
100
AcDbEntity
  8
freecads.com
100
AcDbCircle
 10
11099.70203382592
 20
29646.27567859407
 30
0.0
 40
0.6760523984052119
100
AcDbArc
 50
190.0070389998464
 51
230.4298895772408
  0
ARC
  5
AB2C
330
1F
100
AcDbEntity
  8
freecads.com
100
AcDbCircle
 10
11099.93697129056
 20
29646.31713368564
 30
0.0
 40
0.9146192379026729
100
AcDbArc
 50
157.7631613232864
 51
190.0070091903652
  0
ARC
  5
AB2D
330
1F
100
AcDbEntity
  8
freecads.com
100
AcDbCircle
 10
10884.26880358776
 20
29734.49148940899
 30
0.0
 40
232.0821094247769
100
AcDbArc
 50
337.7631599800159
 51
338.5861530193296
  0
ARC
  5
AB2E
330
1F
100
AcDbEntity
  8
freecads.com
100
AcDbCircle
 10
11095.20934527159
 20
29651.7659742559
 30
0.0
 40
5.500064718645479
100
AcDbArc
 50
338.5862171986762
 51
350.7686471834337
  0
ARC
  5
AB2F
330
1F
100
AcDbEntity
  8
freecads.com
100
AcDbCircle
 10
11100.46235657865
 20
29650.91222222555
 30
0.0
 40
0.1781270713782892
100
AcDbArc
 50
350.7685465410177
 51
111.7124847306929
  0
ARC
  5
AB30
330
1F
100
AcDbEntity
  8
freecads.com
100
AcDbCircle
 10
11101.17874579164
 20
29649.11317479119
 30
0.0
 40
2.114563276250901
100
AcDbArc
 50
111.7126648601376
 51
132.8571757116861
  0
ARC
  5
AB31
330
1F
100
AcDbEntity
  8
freecads.com
100
AcDbCircle
 10
11095.35444975253
 20
29655.39025961105
 30
0.0
 40
6.448392883103053
100
AcDbArc
 50
293.4304154078315
 51
312.8572133519881
  0
ARC
  5
AB32
330
1F
100
AcDbEntity
  8
freecads.com
100
AcDbCircle
 10
11097.05357745396
 20
29651.46951145101
 30
0.0
 40
2.175302540007666
100
AcDbArc
 50
249.7875442086832
 51
293.4304923059187
  0
ARC
  5
AB33
330
1F
100
AcDbEntity
  8
freecads.com
100
AcDbCircle
 10
11096.96668842345
 20
29651.23350600564
 30
0.0
 40
1.92381044497702
100
AcDbArc
 50
202.5622006023046
 51
249.7874793017191
  0
ARC
  5
AB34
330
1F
100
AcDbEntity
  8
freecads.com
100
AcDbCircle
 10
11099.97808059938
 20
29652.48468908503
 30
0.0
 40
5.184782989380946
100
AcDbArc
 50
180.0000171375883
 51
202.5621167931582
  0
ARC
  5
AB35
330
1F
100
AcDbEntity
  8
freecads.com
100
AcDbCircle
 10
11103.21530455857
 20
29652.48468762898
 30
0.0
 40
8.422006948572061
100
AcDbArc
 50
171.3799071099029
 51
180.0000006447075
  0
ARC
  5
AB36
330
1F
100
AcDbEntity
  8
freecads.com
100
AcDbCircle
 10
11103.71968548076
 20
29652.40824139121
 30
0.0
 40
8.932148244417337
100
AcDbArc
 50
163.1318279341277
 51
171.3800031293273
  0
ARC
  5
AB37
330
1F
100
AcDbEntity
  8
freecads.com
100
AcDbCircle
 10
11102.35849369438
 20
29652.82098929032
 30
0.0
 40
7.509754519966556
100
AcDbArc
 50
154.3861811348007
 51
163.1319156834563
  0
ARC
  5
AB38
330
1F
100
AcDbEntity
  8
freecads.com
100
AcDbCircle
 10
11097.55530856229
 20
29655.12371212407
 30
0.0
 40
2.183112063203848
100
AcDbArc
 50
132.4449489745935
 51
154.3861234407403
  0
ARC
  5
AB39
330
1F
100
AcDbEntity
  8
freecads.com
100
AcDbCircle
 10
11105.73142285124
 20
29646.18382517777
 30
0.0
 40
14.29799644063631
100
AcDbArc
 50
123.866981550958
 51
132.444964730018
  0
ARC
  5
AB3A
330
1F
100
AcDbEntity
  8
freecads.com
100
AcDbCircle
 10
11109.64829016173
 20
29640.34762246224
 30
0.0
 40
21.32673115355734
100
AcDbArc
 50
117.5098864710983
 51
123.8669412276499
  0
ARC
  5
AB3B
330
1F
100
AcDbEntity
  8
freecads.com
100
AcDbCircle
 10
11108.91243979358
 20
29641.76063050328
 30
0.0
 40
19.73359980685942
100
AcDbArc
 50
111.2328201877922
 51
117.5099507899038
  0
ARC
  5
AB3C
330
1F
100
AcDbEntity
  8
freecads.com
100
AcDbCircle
 10
11103.14545139442
 20
29656.60359677241
 30
0.0
 40
3.809661761810241
100
AcDbArc
 50
89.99995163901735
 51
111.2328548543159
  0
ARC
  5
AB3D
330
1F
100
AcDbEntity
  8
freecads.com
100
AcDbCircle
 10
11103.14545569317
 20
29661.12510166538
 30
0.0
 40
0.7118431311589858
100
AcDbArc
 50
269.9999128165998
 51
347.8160554207993
  0
ARC
  5
AB3E
330
1F
100
AcDbEntity
  8
freecads.com
100
AcDbCircle
 10
11097.05554776403
 20
29662.4400022738
 30
0.0
 40
6.942087283313449
100
AcDbArc
 50
347.8160385900779
 51
2.542981267380083
  0
ARC
  5
AB3F
330
1F
100
AcDbEntity
  8
freecads.com
100
AcDbCircle
 10
11087.67670397151
 20
29662.02346885183
 30
0.0
 40
16.33017606517293
100
AcDbArc
 50
2.542963522847659
 51
12.06942812184421
  0
ARC
  5
AB40
330
1F
100
AcDbEntity
  8
freecads.com
100
AcDbCircle
 10
11056.01575896137
 20
29655.2536211291
 30
0.0
 40
48.70680771709031
100
AcDbArc
 50
12.06942499938508
 51
16.28683499134703
  0
ARC
  5
AB41
330
1F
100
AcDbEntity
  8
freecads.com
100
AcDbCircle
 10
11104.22549267404
 20
29669.33910798141
 30
0.0
 40
1.51847838974181
100
AcDbArc
 50
176.8872638212026
 51
196.286756648481
  0
ARC
  5
AB42
330
1F
100
AcDbEntity
  8
freecads.com
100
AcDbCircle
 10
11108.79535625237
 20
29669.09060740556
 30
0.0
 40
6.095093477412349
100
AcDbArc
 50
169.9818991352499
 51
176.8873877925233
  0
ARC
  5
AB43
330
1F
100
AcDbEntity
  8
freecads.com
100
AcDbCircle
 10
11109.85354705215
 20
29668.90367431854
 30
0.0
 40
7.169668624987796
100
AcDbArc
 50
163.3642367849289
 51
169.9818929822722
  0
ARC
  5
AB44
330
1F
100
AcDbEntity
  8
freecads.com
100
AcDbCircle
 10
11109.46558137284
 20
29669.01960080003
 30
0.0
 40
6.764753427183681
100
AcDbArc
 50
156.451691749397
 51
163.3642786284527
  0
ARC
  5
AB45
330
1F
100
AcDbEntity
  8
freecads.com
100
AcDbCircle
 10
11100.4346706838
 20
29672.95540159661
 30
0.0
 40
3.086534599462848
100
AcDbArc
 50
336.4518300841464
 51
354.940613433064
  0
ARC
  5
AB46
330
1F
100
AcDbEntity
  8
freecads.com
100
AcDbCircle
 10
11089.40007032979
 20
29673.93232014286
 30
0.0
 40
14.16429496961992
100
AcDbArc
 50
354.9406527179753
 51
0.9092939963494247
  0
ARC
  5
AB47
330
1F
100
AcDbEntity
  8
freecads.com
100
AcDbCircle
 10
11086.93017361534
 20
29673.89309754102
 30
0.0
 40
16.63450309691356
100
AcDbArc
 50
0.9093684541230624
 51
6.685851331090423
  0
ARC
  5
AB48
330
1F
100
AcDbEntity
  8
freecads.com
100
AcDbCircle
 10
11087.39357267589
 20
29673.94740662027
 30
0.0
 40
16.16793245353265
100
AcDbArc
 50
6.685892832710436
 51
12.5869704194962
  0
LINE
  5
AB49
330
1F
100
AcDbEntity
  8
freecads.com
100
AcDbLine
 10
11103.17293061
 20
29677.47074353422
 30
0.0
 11
11102.29329761
 21
29681.41020753422
 31
0.0
  0
LINE
  5
AB4A
330
1F
100
AcDbEntity
  8
freecads.com
100
AcDbLine
 10
11102.29329761
 20
29681.41020753422
 30
0.0
 11
11099.43921961
 21
29679.91703953422
 31
0.0
  0
ARC
  5
AB4B
330
1F
100
AcDbEntity
  8
freecads.com
100
AcDbCircle
 10
11093.77535660943
 20
29690.74308475673
 30
0.0
 40
12.21812584847287
100
AcDbArc
 50
291.6387292781039
 51
297.61721873698
  0
ARC
  5
AB4C
330
1F
100
AcDbEntity
  8
freecads.com
100
AcDbCircle
 10
11094.99491704861
 20
29687.6688547398
 30
0.0
 40
8.910828180975764
100
AcDbArc
 50
284.0643422609988
 51
291.638835431721
  0
ARC
  5
AB4D
330
1F
100
AcDbEntity
  8
freecads.com
100
AcDbCircle
 10
11095.49083658149
 20
29685.68930273805
 30
0.0
 40
6.870102253579084
100
AcDbArc
 50
276.0601698287711
 51
284.0643428620392
  0
ARC
  5
AB4E
330
1F
100
AcDbEntity
  8
freecads.com
100
AcDbCircle
 10
11096.12801775732
 20
29679.68757356135
 30
0.0
 40
0.8346442791371684
100
AcDbArc
 50
238.2825512326828
 51
276.0601082035999
  0
ARC
  5
AB4F
330
1F
100
AcDbEntity
  8
freecads.com
100
AcDbCircle
 10
11095.18077898602
 20
29678.15490532318
 30
0.0
 40
0.9671140892787173
100
AcDbArc
 50
58.28261903372831
 51
80.07663080133857
  0
ARC
  5
AB50
330
1F
100
AcDbEntity
  8
freecads.com
100
AcDbCircle
 10
11095.27187885567
 20
29678.67563653845
 30
0.0
 40
0.4384741505659443
100
AcDbArc
 50
80.07648259350316
 51
119.4233465660716
  0
ARC
  5
AB51
330
1F
100
AcDbEntity
  8
freecads.com
100
AcDbCircle
 10
11095.27407203008
 20
29678.67174739171
 30
0.0
 40
0.4429390667204331
100
AcDbArc
 50
119.4233087651824
 51
158.5198196361799
  0
ARC
  5
AB52
330
1F
100
AcDbEntity
  8
freecads.com
100
AcDbCircle
 10
11095.78097875465
 20
29678.47227432571
 30
0.0
 40
0.9876811446493567
100
AcDbArc
 50
158.519834452367
 51
179.9999298938445
  0
ARC
  5
AB53
330
1F
100
AcDbEntity
  8
freecads.com
100
AcDbCircle
 10
11093.9150037048
 20
29678.472276945
 30
0.0
 40
0.8782939051957288
100
AcDbArc
 50
332.6200030980317
 51
359.9999079673281
  0
ARC
  5
AB54
330
1F
100
AcDbEntity
  8
freecads.com
100
AcDbCircle
 10
11093.71079235631
 20
29678.57803601215
 30
0.0
 40
1.108266197283507
100
AcDbArc
 50
309.6196480753509
 51
332.6201687292716
  0
ARC
  5
AB55
330
1F
100
AcDbEntity
  8
freecads.com
100
AcDbCircle
 10
11093.58715317129
 20
29678.72738698776
 30
0.0
 40
1.302153695563645
100
AcDbArc
 50
288.6078180471035
 51
309.6196149006498
  0
ARC
  5
AB56
330
1F
100
AcDbEntity
  8
freecads.com
100
AcDbCircle
 10
11093.51405837839
 20
29678.94448757258
 30
0.0
 40
1.53122903836379
100
AcDbArc
 50
269.9999338298327
 51
288.6077965530861
  0
ARC
  5
AB57
330
1F
100
AcDbEntity
  8
freecads.com
100
AcDbCircle
 10
11093.51405590386
 20
29676.08434938562
 30
0.0
 40
1.328909148595431
100
AcDbArc
 50
89.99996955481947
 51
116.4538049292439
  0
ARC
  5
AB58
330
1F
100
AcDbEntity
  8
freecads.com
100
AcDbCircle
 10
11095.15213240352
 20
29672.79224778358
 30
0.0
 40
5.006031335436292
100
AcDbArc
 50
116.4538863391943
 51
126.3191639366939
  0
ARC
  5
AB59
330
1F
100
AcDbEntity
  8
freecads.com
100
AcDbCircle
 10
11095.87204438066
 20
29671.81291477393
 30
0.0
 40
6.221500955985143
100
AcDbArc
 50
126.3192821128034
 51
135.4366449781399
  0
ARC
  5
AB5A
330
1F
100
AcDbEntity
  8
freecads.com
100
AcDbCircle
 10
11096.10005740943
 20
29671.58835260043
 30
0.0
 40
6.541529253252691
100
AcDbArc
 50
135.4366558876694
 51
144.2174042112193
  0
ARC
  5
AB5B
330
1F
100
AcDbEntity
  8
freecads.com
100
AcDbCircle
 10
11084.80618360579
 20
29679.72852594685
 30
0.0
 40
7.380180684907043
100
AcDbArc
 50
316.4950950871475
 51
324.2174757179676
  0
ARC
  5
AB5C
330
1F
100
AcDbEntity
  8
freecads.com
100
AcDbCircle
 10
11085.44829011129
 20
29679.11908679811
 30
0.0
 40
6.494902852573184
100
AcDbArc
 50
307.9960598181405
 51
316.4950845204111
  0
ARC
  5
AB5D
330
1F
100
AcDbEntity
  8
freecads.com
100
AcDbCircle
 10
11086.29156303501
 20
29678.03958871396
 30
0.0
 40
5.125076097994226
100
AcDbArc
 50
298.814204356054
 51
307.9960939063854
  0
ARC
  5
AB5E
330
1F
100
AcDbEntity
  8
freecads.com
100
AcDbCircle
 10
11088.23305371939
 20
29674.51009758669
 30
0.0
 40
1.096839052477273
100
AcDbArc
 50
269.9999942855946
 51
298.8143461139411
  0
ARC
  5
AB5F
330
1F
100
AcDbEntity
  8
freecads.com
100
AcDbCircle
 10
11088.23305346628
 20
29672.57268721338
 30
0.0
 40
0.840571320833545
100
AcDbArc
 50
89.99999020359357
 51
127.2646520663555
  0
ARC
  5
AB60
330
1F
100
AcDbEntity
  8
freecads.com
100
AcDbCircle
 10
11090.43281303776
 20
29669.68139149212
 30
0.0
 40
4.473549867448342
100
AcDbArc
 50
127.2646527871612
 51
138.0713294170846
  0
ARC
  5
AB61
330
1F
100
AcDbEntity
  8
freecads.com
100
AcDbCircle
 10
11091.65356654516
 20
29668.58495779679
 30
0.0
 40
6.114405124329648
100
AcDbArc
 50
138.0712521359656
 51
147.6933481860045
  0
ARC
  5
AB62
330
1F
100
AcDbEntity
  8
freecads.com
100
AcDbCircle
 10
11093.31057521049
 20
29667.53717307789
 30
0.0
 40
8.074897545672879
100
AcDbArc
 50
147.6933598680565
 51
155.5045614615243
  0
ARC
  5
AB63
330
1F
100
AcDbEntity
  8
freecads.com
100
AcDbCircle
 10
11079.62289456222
 20
29673.77369887099
 30
0.0
 40
6.966606883648832
100
AcDbArc
 50
325.9046097607357
 51
335.5045141208618
  0
ARC
  5
AB64
330
1F
100
AcDbEntity
  8
freecads.com
100
AcDbCircle
 10
11078.29696594938
 20
29674.67125136293
 30
0.0
 40
8.567758707187747
100
AcDbArc
 50
317.684202471746
 51
325.9046822924538
  0
ARC
  5
AB65
330
1F
100
AcDbEntity
  8
freecads.com
100
AcDbCircle
 10
11079.03122830431
 20
29674.00276151322
 30
0.0
 40
7.574773367422835
100
AcDbArc
 50
309.1025146997868
 51
317.684159671988
  0
ARC
  5
AB66
330
1F
100
AcDbEntity
  8
freecads.com
100
AcDbCircle
 10
11082.07475587861
 20
29670.2580402902
 30
0.0
 40
2.749216701744998
100
AcDbArc
 50
290.8206842049071
 51
309.1024779110282
  0
ARC
  5
AB67
330
1F
100
AcDbEntity
  8
freecads.com
100
AcDbCircle
 10
11085.24064620421
 20
29661.93282806953
 30
0.0
 40
6.157635720564756
100
AcDbArc
 50
110.8206777070923
 51
133.2200291017095
  0
ARC
  5
AB68
330
1F
100
AcDbEntity
  8
freecads.com
100
AcDbCircle
 10
11089.65415556366
 20
29657.23621965886
 30
0.0
 40
12.60257136253671
100
AcDbArc
 50
133.2200617639704
 51
146.3294583665658
  0
ARC
  5
AB69
330
1F
100
AcDbEntity
  8
freecads.com
100
AcDbCircle
 10
11089.21140951876
 20
29657.53115998775
 30
0.0
 40
12.07058089471829
100
AcDbArc
 50
146.3294354261431
 51
159.6418995611659
  0
ARC
  5
AB6A
330
1F
100
AcDbEntity
  8
freecads.com
100
AcDbCircle
 10
11082.10882272518
 20
29660.16667918585
 30
0.0
 40
4.494783867086914
100
AcDbArc
 50
159.6419190124333
 51
187.4656679437086
  0
ARC
  5
AB6B
330
1F
100
AcDbEntity
  8
freecads.com
100
AcDbCircle
 10
11065.29830914145
 20
29657.96377329398
 30
0.0
 40
12.45945340025585
100
AcDbArc
 50
0.9836072684976258
 51
7.465697850235822
  0
ARC
  5
AB6C
330
1F
100
AcDbEntity
  8
freecads.com
100
AcDbCircle
 10
11077.1481874394
 20
29658.1672217988
 30
0.0
 40
0.6078287449470999
100
AcDbArc
 50
302.8553425023901
 51
0.9836581036594997
  0
ARC
  5
AB6D
330
1F
100
AcDbEntity
  8
freecads.com
100
AcDbCircle
 10
11077.00620593998
 20
29658.38706738369
 30
0.0
 40
0.8695362675300401
100
AcDbArc
 50
258.0326984316508
 51
302.8553400518646
  0
ARC
  5
AB6E
330
1F
100
AcDbEntity
  8
freecads.com
100
AcDbCircle
 10
11082.23815782863
 20
29683.07094578242
 30
0.0
 40
26.101800798647
100
AcDbArc
 50
254.201901554763
 51
258.0327989074012
  0
ARC
  5
AB6F
330
1F
100
AcDbEntity
  8
freecads.com
100
AcDbCircle
 10
11069.96717278719
 20
29639.7006886254
 30
0.0
 40
18.97098788535834
100
AcDbArc
 50
74.20191917566494
 51
78.69195863692032
  0
ARC
  5
AB70
330
1F
100
AcDbEntity
  8
freecads.com
100
AcDbCircle
 10
11058.61723595092
 20
29582.94182822224
 30
0.0
 40
76.85353534528236
100
AcDbArc
 50
78.69187597922565
 51
80.2794020467277
  0
ARC
  5
AB71
330
1F
100
AcDbEntity
  8
freecads.com
100
AcDbCircle
 10
11057.18452926101
 20
29574.5785889944
 30
0.0
 40
85.33860569493787
100
AcDbArc
 50
80.2793640691534
 51
81.85222311442677
  0
ARC
  5
AB72
330
1F
100
AcDbEntity
  8
freecads.com
100
AcDbCircle
 10
11059.43883489114
 20
29590.32423190938
 30
0.0
 40
69.43240675617729
100
AcDbArc
 50
81.85219985745977
 51
83.68814654215787
  0
ARC
  5
AB73
330
1F
100
AcDbEntity
  8
freecads.com
100
AcDbCircle
 10
11070.98707317903
 20
29694.72873402173
 30
0.0
 40
35.6088321401766
100
AcDbArc
 50
260.176631183343
 51
263.6881292918613
  0
ARC
  5
AB74
330
1F
100
AcDbEntity
  8
freecads.com
100
AcDbCircle
 10
11066.45514139046
 20
29668.55526962563
 30
0.0
 40
9.045913546200555
100
AcDbArc
 50
250.4510977072815
 51
260.1766000692398
  0
ARC
  5
AB75
330
1F
100
AcDbEntity
  8
freecads.com
100
AcDbCircle
 10
11064.34512337574
 20
29662.61288274973
 30
0.0
 40
2.740032338525913
100
AcDbArc
 50
231.4732884543326
 51
250.4510751514309
  0
ARC
  5
AB76
330
1F
100
AcDbEntity
  8
freecads.com
100
AcDbCircle
 10
11062.85115332159
 20
29660.73650135147
 30
0.0
 40
0.341542464785444
100
AcDbArc
 50
144.7517271665164
 51
231.4733018072141
  0
ARC
  5
AB77
330
1F
100
AcDbEntity
  8
freecads.com
100
AcDbCircle
 10
11065.43177180223
 20
29658.91281974396
 30
0.0
 40
3.501511823531301
100
AcDbArc
 50
119.5365976186935
 51
144.7517615764319
  0
ARC
  5
AB78
330
1F
100
AcDbEntity
  8
freecads.com
100
AcDbCircle
 10
11077.33002791132
 20
29637.91397011754
 30
0.0
 40
27.63696674094493
100
AcDbArc
 50
114.0330737758102
 51
119.5365358176445
  0
ARC
  5
AB79
330
1F
100
AcDbEntity
  8
freecads.com
100
AcDbCircle
 10
11076.89200136219
 20
29638.89618507635
 30
0.0
 40
26.56150708020059
100
AcDbArc
 50
108.2113983672505
 51
114.0330014178272
  0
ARC
  5
AB7A
330
1F
100
AcDbEntity
  8
freecads.com
100
AcDbCircle
 10
11070.3755330519
 20
29658.70286151943
 30
0.0
 40
5.710397014795085
100
AcDbArc
 50
89.99999440023705
 51
108.2114184661378
  0
ARC
  5
AB7B
330
1F
100
AcDbEntity
  8
freecads.com
100
AcDbCircle
 10
11070.37553175448
 20
29666.97885215798
 30
0.0
 40
2.565593623758093
100
AcDbArc
 50
270.0000414382458
 51
286.7618793161815
  0
ARC
  5
AB7C
330
1F
100
AcDbEntity
  8
freecads.com
100
AcDbCircle
 10
11067.80684027043
 20
29675.50723756985
 30
0.0
 40
11.47241874125428
100
AcDbArc
 50
286.7619286121185
 51
292.2761560380826
  0
ARC
  5
AB7D
330
1F
100
AcDbEntity
  8
freecads.com
100
AcDbCircle
 10
11067.09933800542
 20
29677.2343087715
 30
0.0
 40
13.33878804830789
100
AcDbArc
 50
292.2762284850324
 51
297.6349281263895
  0
ARC
  5
AB7E
330
1F
100
AcDbEntity
  8
freecads.com
100
AcDbCircle
 10
11067.4504659531
 20
29676.56360251411
 30
0.0
 40
12.58172945175535
100
AcDbArc
 50
297.6350475150121
 51
303.2337938102211
  0
ARC
  5
AB7F
330
1F
100
AcDbEntity
  8
freecads.com
100
AcDbCircle
 10
11066.49143767827
 20
29678.02724052352
 30
0.0
 40
14.33157843219247
100
AcDbArc
 50
303.2338506018164
 51
309.2150883862754
  0
ARC
  5
AB80
330
1F
100
AcDbEntity
  8
freecads.com
100
AcDbCircle
 10
11074.36054304738
 20
29668.38394575002
 30
0.0
 40
1.885054684631498
100
AcDbArc
 50
309.2151712700277
 51
335.8935412402217
  0
ARC
  5
AB81
330
1F
100
AcDbEntity
  8
freecads.com
100
AcDbCircle
 10
11075.24636807132
 20
29667.98757826364
 30
0.0
 40
0.9145944034702825
100
AcDbArc
 50
335.8934818367563
 51
18.75301245936707
  0
ARC
  5
AB82
330
1F
100
AcDbEntity
  8
freecads.com
100
AcDbCircle
 10
11073.84889431292
 20
29667.51312038112
 30
0.0
 40
2.390413900460454
100
AcDbArc
 50
18.75295617538619
 51
39.69020882650112
  0
ARC
  5
AB83
330
1F
100
AcDbEntity
  8
freecads.com
100
AcDbCircle
 10
11080.50247686165
 20
29673.03509323956
 30
0.0
 40
6.256108231713004
100
AcDbArc
 50
212.8459636892302
 51
219.6900865225943
  0
ARC
  5
AB84
330
1F
100
AcDbEntity
  8
freecads.com
100
AcDbCircle
 10
11075.99185837828
 20
29670.12307361866
 30
0.0
 40
0.8871663084749965
100
AcDbArc
 50
183.9237708786352
 51
212.8459432612586
  0
ARC
  5
AB85
330
1F
100
AcDbEntity
  8
freecads.com
100
AcDbCircle
 10
11075.37760652522
 20
29670.08094234684
 30
0.0
 40
0.2714712678583501
100
AcDbArc
 50
121.3920308397649
 51
183.9238237274172
  0
ARC
  5
AB86
330
1F
100
AcDbEntity
  8
freecads.com
100
AcDbCircle
 10
11075.59412687585
 20
29669.72611438136
 30
0.0
 40
0.6871441528605987
100
AcDbArc
 50
89.99993878520079
 51
121.3920429625524
  0
ARC
  5
AB87
330
1F
100
AcDbEntity
  8
freecads.com
100
AcDbCircle
 10
11075.59412872106
 20
29671.64885960298
 30
0.0
 40
1.235601068764298
100
AcDbArc
 50
269.999948479367
 51
297.913344369006
  0
ARC
  5
AB88
330
1F
100
AcDbEntity
  8
freecads.com
100
AcDbCircle
 10
11068.28406528575
 20
29685.4473915747
 30
0.0
 40
16.85086642042558
100
AcDbArc
 50
297.9133493687177
 51
302.0459897456434
  0
ARC
  5
AB89
330
1F
100
AcDbEntity
  8
freecads.com
100
AcDbCircle
 10
11067.20659748503
 20
29687.16863253417
 30
0.0
 40
18.88153313411772
100
AcDbArc
 50
302.0459770437379
 51
306.5014230335411
  0
ARC
  5
AB8A
330
1F
100
AcDbEntity
  8
freecads.com
100
AcDbCircle
 10
11063.38517343116
 20
29692.33267331702
 30
0.0
 40
25.30575285373394
100
AcDbArc
 50
306.5014892772815
 51
310.0787472094796
  0
ARC
  5
AB8B
330
1F
100
AcDbEntity
  8
freecads.com
100
AcDbCircle
 10
11087.59603843997
 20
29663.55971993668
 30
0.0
 40
12.29808778393312
100
AcDbArc
 50
122.2328344879448
 51
130.0788312839723
  0
ARC
  5
AB8C
330
1F
100
AcDbEntity
  8
freecads.com
100
AcDbCircle
 10
11089.49995016428
 20
29660.54023234367
 30
0.0
 40
15.8677075365139
100
AcDbArc
 50
115.7514964216384
 51
122.232900003884
  0
ARC
  5
AB8D
330
1F
100
AcDbEntity
  8
freecads.com
100
AcDbCircle
 10
11088.7964626951
 20
29661.99862955593
 30
0.0
 40
14.24850494018462
100
AcDbArc
 50
109.0633358880097
 51
115.7515210187376
  0
ARC
  5
AB8E
330
1F
100
AcDbEntity
  8
freecads.com
100
AcDbCircle
 10
11085.73163745406
 20
29670.86765361617
 30
0.0
 40
4.864862708132168
100
AcDbArc
 50
94.15718189378941
 51
109.0632824228672
  0
ARC
  5
AB8F
330
1F
100
AcDbEntity
  8
freecads.com
100
AcDbCircle
 10
11085.09016406296
 20
29679.69310150139
 30
0.0
 40
3.983867058697533
100
AcDbArc
 50
274.1572338514873
 51
293.1921507877348
  0
ARC
  5
AB90
330
1F
100
AcDbEntity
  8
freecads.com
100
AcDbCircle
 10
11080.70211463568
 20
29689.93500654497
 30
0.0
 40
15.12620059785605
100
AcDbArc
 50
293.1922345288163
 51
300.249301666874
  0
ARC
  5
AB91
330
1F
100
AcDbEntity
  8
freecads.com
100
AcDbCircle
 10
11079.2671259712
 20
29692.39564843443
 30
0.0
 40
17.97470037404667
100
AcDbArc
 50
300.2493702805316
 51
306.9567903555959
  0
ARC
  5
AB92
330
1F
100
AcDbEntity
  8
freecads.com
100
AcDbCircle
 10
11079.49641920009
 20
29692.09083905955
 30
0.0
 40
17.59327654292976
100
AcDbArc
 50
306.9568864123288
 51
313.7730737315715
  0
ARC
  5
AB93
330
1F
100
AcDbEntity
  8
freecads.com
100
AcDbCircle
 10
11070.94133277229
 20
29701.02037193736
 30
0.0
 40
29.95960425987977
100
AcDbArc
 50
313.773107170516
 51
319.3487197252613
  0
ARC
  5
AB94
330
1F
100
AcDbEntity
  8
freecads.com
100
AcDbCircle
 10
11088.74278988994
 20
29685.7350166432
 30
0.0
 40
6.496144114785184
100
AcDbArc
 50
319.3487404979896
 51
336.6826506037988
  0
ARC
  5
AB95
330
1F
100
AcDbEntity
  8
freecads.com
100
AcDbCircle
 10
11088.42897140572
 20
29685.87026594317
 30
0.0
 40
6.837866829866628
100
AcDbArc
 50
336.6827656916508
 51
353.4398164151768
  0
ARC
  5
AB96
330
1F
100
AcDbEntity
  8
freecads.com
100
AcDbCircle
 10
11060.27471572657
 20
29689.10796997473
 30
0.0
 40
35.1776769958296
100
AcDbArc
 50
353.4398633249034
 51
358.418312538526
  0
ARC
  5
AB97
330
1F
100
AcDbEntity
  8
freecads.com
100
AcDbCircle
 10
11048.37168675777
 20
29689.43665720903
 30
0.0
 40
47.08524324296661
100
AcDbArc
 50
358.4182969197301
 51
1.474043525004231
  0
ARC
  5
AB98
330
1F
100
AcDbEntity
  8
freecads.com
100
AcDbCircle
 10
11087.49187184314
 20
29690.44332324893
 30
0.0
 40
7.952108208451684
100
AcDbArc
 50
1.474026644466688
 51
12.86146435453487
  0
ARC
  5
AB99
330
1F
100
AcDbEntity
  8
freecads.com
100
AcDbCircle
 10
11092.8346428275
 20
29691.66320475033
 30
0.0
 40
2.47184246044693
100
AcDbArc
 50
12.8613533162406
 51
35.44070249838792
  0
ARC
  5
AB9A
330
1F
100
AcDbEntity
  8
freecads.com
100
AcDbCircle
 10
11094.23430201421
 20
29692.65938756119
 30
0.0
 40
0.7538709730322992
100
AcDbArc
 50
35.44072909505909
 51
89.99995471862639
  0
ARC
  5
AB9B
330
1F
100
AcDbEntity
  8
freecads.com
100
AcDbCircle
 10
11094.23430247443
 20
29694.1995715206
 30
0.0
 40
0.7863129863826661
100
AcDbArc
 50
223.85088560736
 51
270.0000098786363
  0
ARC
  5
AB9C
330
1F
100
AcDbEntity
  8
freecads.com
100
AcDbCircle
 10
11096.54844398042
 20
29696.42270391263
 30
0.0
 40
3.995295464089037
100
AcDbArc
 50
210.0017494498591
 51
223.8509046808737
  0
ARC
  5
AB9D
330
1F
100
AcDbEntity
  8
freecads.com
100
AcDbCircle
 10
11098.47058249163
 20
29697.53252689868
 30
0.0
 40
6.214827738388469
100
AcDbArc
 50
198.6639027262201
 51
210.0017298458627
  0
ARC
  5
AB9E
330
1F
100
AcDbEntity
  8
freecads.com
100
AcDbCircle
 10
11101.90062248747
 20
29698.69111109017
 30
0.0
 40
9.835254743826352
100
AcDbArc
 50
190.6253267475135
 51
198.6638351539037
  0
ARC
  5
AB9F
330
1F
100
AcDbEntity
  8
freecads.com
100
AcDbCircle
 10
11080.0506623668
 20
29694.59201427918
 30
0.0
 40
12.39587999870126
100
AcDbArc
 50
10.62528301169789
 51
17.35125097923067
  0
ARC
  5
ABA0
330
1F
100
AcDbEntity
  8
freecads.com
100
AcDbCircle
 10
11079.5418004249
 20
29694.43301305722
 30
0.0
 40
12.92900462243495
100
AcDbArc
 50
17.35128864271744
 51
23.8681870489056
  0
ARC
  5
ABA1
330
1F
100
AcDbEntity
  8
freecads.com
100
AcDbCircle
 10
11081.34439311209
 20
29695.23062400348
 30
0.0
 40
10.95783146479429
100
AcDbArc
 50
23.86814429671736
 51
30.66303637484039
  0
ARC
  5
ABA2
330
1F
100
AcDbEntity
  8
freecads.com
100
AcDbCircle
 10
11088.51265749905
 20
29699.48057177599
 30
0.0
 40
2.624400575275025
100
AcDbArc
 50
30.66310549864534
 51
50.30991693424422
  0
ARC
  5
ABA3
330
1F
100
AcDbEntity
  8
freecads.com
100
AcDbCircle
 10
11092.37149740228
 20
29704.13019185956
 30
0.0
 40
3.417917880444688
100
AcDbArc
 50
217.3568720873215
 51
230.3097852576796
  0
ARC
  5
ABA4
330
1F
100
AcDbEntity
  8
freecads.com
100
AcDbCircle
 10
11093.51988324597
 20
29705.00684225418
 30
0.0
 40
4.862669056363392
100
AcDbArc
 50
207.4118716961927
 51
217.3569848878816
  0
ARC
  5
ABA5
330
1F
100
AcDbEntity
  8
freecads.com
100
AcDbCircle
 10
11093.25835037016
 20
29704.87121668714
 30
0.0
 40
4.568061284074621
100
AcDbArc
 50
197.2145571212195
 51
207.4119714222028
  0
ARC
  5
ABA6
330
1F
100
AcDbEntity
  8
freecads.com
100
AcDbCircle
 10
11091.06190893188
 20
29704.1906910544
 30
0.0
 40
2.268611321882445
100
AcDbArc
 50
180.0000131376087
 51
197.2145122533335
  0
ARC
  5
ABA7
330
1F
100
AcDbEntity
  8
freecads.com
100
AcDbCircle
 10
11088.24305833883
 20
29704.19069074485
 30
0.0
 40
0.5502392711712622
100
AcDbArc
 50
359.9999780668135
 51
104.3961068598693
  0
ARC
  5
ABA8
330
1F
100
AcDbEntity
  8
freecads.com
100
AcDbCircle
 10
11088.79873036187
 20
29702.02587939285
 30
0.0
 40
2.785229111627165
100
AcDbArc
 50
104.3961014518659
 51
137.0986082315042
  0
ARC
  5
ABA9
330
1F
100
AcDbEntity
  8
freecads.com
100
AcDbCircle
 10
11096.54986814917
 20
29694.82271181151
 30
0.0
 40
13.36661655385944
100
AcDbArc
 50
137.0985611717191
 51
149.8673338383114
  0
ARC
  5
ABAA
330
1F
100
AcDbEntity
  8
freecads.com
100
AcDbCircle
 10
11097.73383519824
 20
29694.135454457
 30
0.0
 40
14.73559450979932
100
AcDbArc
 50
149.8672211146231
 51
161.7356197198214
  0
ARC
  5
ABAB
330
1F
100
AcDbEntity
  8
freecads.com
100
AcDbCircle
 10
11065.16529433556
 20
29704.884024194
 30
0.0
 40
19.56078438529466
100
AcDbArc
 50
336.3393218046092
 51
341.7355867881577
  0
ARC
  5
ABAC
330
1F
100
AcDbEntity
  8
freecads.com
100
AcDbCircle
 10
11080.65248212881
 20
29698.09829886473
 30
0.0
 40
2.652234654816076
100
AcDbArc
 50
312.787803418432
 51
336.3392873274261
  0
ARC
  5
ABAD
330
1F
100
AcDbEntity
  8
freecads.com
100
AcDbCircle
 10
11081.61056206491
 20
29697.06322171317
 30
0.0
 40
1.241808522892222
100
AcDbArc
 50
274.242273135958
 51
312.7878989283488
  0
ARC
  5
ABAE
330
1F
100
AcDbEntity
  8
freecads.com
100
AcDbCircle
 10
11081.50604780816
 20
29698.47221507103
 30
0.0
 40
2.654672816569919
100
AcDbArc
 50
252.3912354348282
 51
274.2422521833988
  0
ARC
  5
ABAF
330
1F
100
AcDbEntity
  8
freecads.com
100
AcDbCircle
 10
11079.28054490577
 20
29691.46025770563
 30
0.0
 40
4.701984662385247
100
AcDbArc
 50
72.39125415802027
 51
83.23200296392208
  0
ARC
  5
ABB0
330
1F
100
AcDbEntity
  8
freecads.com
100
AcDbCircle
 10
11079.71350382664
 20
29695.10848239375
 30
0.0
 40
1.028158754406479
100
AcDbArc
 50
83.23206069181821
 51
116.7196478919419
  0
ARC
  5
ABB1
330
1F
100
AcDbEntity
  8
freecads.com
100
AcDbCircle
 10
11079.56356401499
 20
29695.40634896874
 30
0.0
 40
0.6946824529812011
100
AcDbArc
 50
116.7196090711555
 51
159.8640566256977
  0
ARC
  5
ABB2
330
1F
100
AcDbEntity
  8
freecads.com
100
AcDbCircle
 10
11080.72460171087
 20
29694.9806441781
 30
0.0
 40
1.931304100873666
100
AcDbArc
 50
159.864077632303
 51
179.9999301012431
  0
ARC
  5
ABB3
330
1F
100
AcDbEntity
  8
freecads.com
100
AcDbCircle
 10
11076.22670421738
 20
29694.98064712068
 30
0.0
 40
2.566593392623939
100
AcDbArc
 50
346.4936116661464
 51
359.9999869080398
  0
ARC
  5
ABB4
330
1F
100
AcDbEntity
  8
freecads.com
100
AcDbCircle
 10
11077.00067712456
 20
29694.79473946016
 30
0.0
 40
1.770606131863269
100
AcDbArc
 50
328.654649603161
 51
346.493672488333
  0
ARC
  5
ABB5
330
1F
100
AcDbEntity
  8
freecads.com
100
AcDbCircle
 10
11077.48527906885
 20
29694.49957127835
 30
0.0
 40
1.203188032079345
100
AcDbArc
 50
306.6065195354302
 51
328.6546480995067
  0
ARC
  5
ABB6
330
1F
100
AcDbEntity
  8
freecads.com
100
AcDbCircle
 10
11077.83861093379
 20
29694.02392079741
 30
0.0
 40
0.6106622631927113
100
AcDbArc
 50
269.9999696201657
 51
306.6066203749171
  0
ARC
  5
ABB7
330
1F
100
AcDbEntity
  8
freecads.com
100
AcDbCircle
 10
11077.83861113781
 20
29692.91777024395
 30
0.0
 40
0.4954882902670162
100
AcDbArc
 50
90.00006103324723
 51
145.9991973394791
  0
ARC
  5
ABB8
330
1F
100
AcDbEntity
  8
freecads.com
100
AcDbCircle
 10
11082.18531722609
 20
29689.98579355627
 30
0.0
 40
5.738611511694573
100
AcDbArc
 50
145.9992154445588
 51
155.3206789984361
  0
ARC
  5
ABB9
330
1F
100
AcDbEntity
  8
freecads.com
100
AcDbCircle
 10
11084.49006010658
 20
29688.92675502024
 30
0.0
 40
8.275026770635184
100
AcDbArc
 50
155.3207867256866
 51
163.7147591978207
  0
ARC
  5
ABBA
330
1F
100
AcDbEntity
  8
freecads.com
100
AcDbCircle
 10
11089.99085339421
 20
29687.31975756988
 30
0.0
 40
14.00574815616708
100
AcDbArc
 50
163.7147946948392
 51
169.374695971456
  0
ARC
  5
ABBB
330
1F
100
AcDbEntity
  8
freecads.com
100
AcDbCircle
 10
11056.87348209377
 20
29693.53262636548
 30
0.0
 40
19.68935565021363
100
AcDbArc
 50
345.2558541534827
 51
349.3747479992722
  0
ARC
  5
ABBC
330
1F
100
AcDbEntity
  8
freecads.com
100
AcDbCircle
 10
11062.18184629535
 20
29692.13564474557
 30
0.0
 40
14.20024933472846
100
AcDbArc
 50
339.9935338540387
 51
345.2557991992364
  0
ARC
  5
ABBD
330
1F
100
AcDbEntity
  8
freecads.com
100
AcDbCircle
 10
11063.9902593898
 20
29691.47721255523
 30
0.0
 40
12.27569981096702
100
AcDbArc
 50
335.0008491923029
 51
339.9935010362736
  0
ARC
  5
ABBE
330
1F
100
AcDbEntity
  8
freecads.com
100
AcDbCircle
 10
11074.28491151671
 20
29686.67692312783
 30
0.0
 40
0.9168864486106082
100
AcDbArc
 50
301.7174274683025
 51
335.0008524553453
  0
ARC
  5
ABBF
330
1F
100
AcDbEntity
  8
freecads.com
100
AcDbCircle
 10
11075.22856117501
 20
29685.15006562847
 30
0.0
 40
0.878042101770489
100
AcDbArc
 50
121.7175138681366
 51
157.3772787130219
  0
ARC
  5
ABC0
330
1F
100
AcDbEntity
  8
freecads.com
100
AcDbCircle
 10
11088.57632855353
 20
29679.58774108554
 30
0.0
 40
15.3384137537
100
AcDbArc
 50
157.3773689080235
 51
161.8156326344307
  0
ARC
  5
ABC1
330
1F
100
AcDbEntity
  8
freecads.com
100
AcDbCircle
 10
11090.19325036412
 20
29679.05659893681
 30
0.0
 40
17.04033858269976
100
AcDbArc
 50
161.8155875467751
 51
166.7095074156644
  0
ARC
  5
ABC2
330
1F
100
AcDbEntity
  8
freecads.com
100
AcDbCircle
 10
11097.68530906453
 20
29677.28685702093
 30
0.0
 40
24.73858059105657
100
AcDbArc
 50
166.7094918494777
 51
170.4104774616844
  0
ARC
  5
ABC3
330
1F
100
AcDbEntity
  8
freecads.com
100
AcDbCircle
 10
11043.67932713907
 20
29686.4111385952
 30
0.0
 40
30.03274948207438
100
AcDbArc
 50
345.9270600578753
 51
350.410455755884
  0
ARC
  5
ABC4
330
1F
100
AcDbEntity
  8
freecads.com
100
AcDbCircle
 10
11070.43520452182
 20
29679.70395786227
 30
0.0
 40
2.448999774954044
100
AcDbArc
 50
317.8301291004333
 51
345.9270824995019
  0
ARC
  5
ABC5
330
1F
100
AcDbEntity
  8
freecads.com
100
AcDbCircle
 10
11071.06803212086
 20
29679.13075175099
 30
0.0
 40
1.595163715680516
100
AcDbArc
 50
280.030026190666
 51
317.8301070278126
  0
ARC
  5
ABC6
330
1F
100
AcDbEntity
  8
freecads.com
100
AcDbCircle
 10
11069.67400666906
 20
29687.01250732213
 30
0.0
 40
9.599248787910351
100
AcDbArc
 50
270.0000473976734
 51
280.0300261509827
  0
ARC
  5
ABC7
330
1F
100
AcDbEntity
  8
freecads.com
100
AcDbCircle
 10
11069.67401241603
 20
29683.69635583515
 30
0.0
 40
6.283097300928985
100
AcDbArc
 50
249.9758348269907
 51
270.0000200068806
  0
ARC
  5
ABC8
330
1F
100
AcDbEntity
  8
freecads.com
100
AcDbCircle
 10
11068.33918986119
 20
29680.03377178161
 30
0.0
 40
2.384857544043731
100
AcDbArc
 50
208.737218805412
 51
249.9758649353613
  0
ARC
  5
ABC9
330
1F
100
AcDbEntity
  8
freecads.com
100
AcDbCircle
 10
11068.03774283125
 20
29679.86847737773
 30
0.0
 40
2.041066107544839
100
AcDbArc
 50
163.1997902891828
 51
208.7371603736634
  0
ARC
  5
ABCA
330
1F
100
AcDbEntity
  8
freecads.com
100
AcDbCircle
 10
11070.59874512473
 20
29679.09525029141
 30
0.0
 40
4.716250750555313
100
AcDbArc
 50
138.8208480760359
 51
163.1997358715566
  0
ARC
  5
ABCB
330
1F
100
AcDbEntity
  8
freecads.com
100
AcDbCircle
 10
11062.17182652205
 20
29686.46704925414
 30
0.0
 40
6.480015461136797
100
AcDbArc
 50
318.8208220969778
 51
328.781032866346
  0
ARC
  5
ABCC
330
1F
100
AcDbEntity
  8
freecads.com
100
AcDbCircle
 10
11047.19522913826
 20
29695.54396753944
 30
0.0
 40
23.99255139269813
100
AcDbArc
 50
328.7810514711813
 51
332.5422962691618
  0
ARC
  5
ABCD
330
1F
100
AcDbEntity
  8
freecads.com
100
AcDbCircle
 10
11044.71289442587
 20
29696.83384563705
 30
0.0
 40
26.79000936929594
100
AcDbArc
 50
332.5423254753031
 51
336.2348335182606
  0
ARC
  5
ABCE
330
1F
100
AcDbEntity
  8
freecads.com
100
AcDbCircle
 10
11049.42348046606
 20
29694.75967062927
 30
0.0
 40
21.64298859952997
100
AcDbArc
 50
336.2347827347836
 51
340.56788992876
  0
ARC
  5
ABCF
330
1F
100
AcDbEntity
  8
freecads.com
100
AcDbCircle
 10
11049.76604836341
 20
29694.6388250369
 30
0.0
 40
21.27973053500744
100
AcDbArc
 50
340.5678710296802
 51
346.4650550840214
  0
ARC
  5
ABD0
330
1F
100
AcDbEntity
  8
freecads.com
100
AcDbCircle
 10
11065.29444621815
 20
29690.90076011796
 30
0.0
 40
5.307746648431838
100
AcDbArc
 50
346.465141730075
 51
3.017926937955783
  0
ARC
  5
ABD1
330
1F
100
AcDbEntity
  8
freecads.com
100
AcDbCircle
 10
11065.27611923014
 20
29690.8997881843
 30
0.0
 40
5.326099389703819
100
AcDbArc
 50
3.017988244555375
 51
19.53383869587925
  0
ARC
  5
ABD2
330
1F
100
AcDbEntity
  8
freecads.com
100
AcDbCircle
 10
11050.01987677784
 20
29685.4870975108
 30
0.0
 40
21.51406263682322
100
AcDbArc
 50
19.53391292977101
 51
25.38574853462602
  0
ARC
  5
ABD3
330
1F
100
AcDbEntity
  8
freecads.com
100
AcDbCircle
 10
11096.24856985172
 20
29707.42403184241
 30
0.0
 40
29.65547079068699
100
AcDbArc
 50
198.8702705267491
 51
205.3857949457412
  0
ARC
  5
ABD4
330
1F
100
AcDbEntity
  8
freecads.com
100
AcDbCircle
 10
11072.99905374571
 20
29699.47742627022
 30
0.0
 40
5.085396731303918
100
AcDbArc
 50
174.8574843120925
 51
198.8703516103311
  0
ARC
  5
ABD5
330
1F
100
AcDbEntity
  8
freecads.com
100
AcDbCircle
 10
11072.02417547665
 20
29699.5651594657
 30
0.0
 40
4.106578692510259
100
AcDbArc
 50
147.2100967505903
 51
174.8574623570272
  0
ARC
  5
ABD6
330
1F
100
AcDbEntity
  8
freecads.com
100
AcDbCircle
 10
11082.06976861602
 20
29693.09370688487
 30
0.0
 40
16.05620797661552
100
AcDbArc
 50
137.1766425238381
 51
147.2100524416561
  0
ARC
  5
ABD7
330
1F
100
AcDbEntity
  8
freecads.com
100
AcDbCircle
 10
11063.41421882103
 20
29710.38308419844
 30
0.0
 40
9.3790452370724
100
AcDbArc
 50
317.1765671982702
 51
334.7770669561892
  0
ARC
  5
ABD8
330
1F
100
AcDbEntity
  8
freecads.com
100
AcDbCircle
 10
11063.69160397722
 20
29710.25244025784
 30
0.0
 40
9.072434141748709
100
AcDbArc
 50
334.7769570253118
 51
352.8216664873466
  0
ARC
  5
ABD9
330
1F
100
AcDbEntity
  8
freecads.com
100
AcDbCircle
 10
11063.57777030288
 20
29710.26679102559
 30
0.0
 40
9.187168834662317
100
AcDbArc
 50
352.8215800976807
 51
10.74215217712664
  0
ARC
  5
ABDA
330
1F
100
AcDbEntity
  8
freecads.com
100
AcDbCircle
 10
11062.9340639811
 20
29710.14466903614
 30
0.0
 40
9.842357058769795
100
AcDbArc
 50
10.74216287268183
 51
27.76043392944457
  0
ARC
  5
ABDB
330
1F
100
AcDbEntity
  8
freecads.com
100
AcDbCircle
 10
11058.9348597143
 20
29708.03965896588
 30
0.0
 40
14.36172672316819
100
AcDbArc
 50
27.76042318308133
 51
36.37319321941923
  0
ARC
  5
ABDC
330
1F
100
AcDbEntity
  8
freecads.com
100
AcDbCircle
 10
11067.53365313152
 20
29714.37303066688
 30
0.0
 40
3.682267685606888
100
AcDbArc
 50
36.37316607481715
 51
60.0645591181949
  0
ARC
  5
ABDD
330
1F
100
AcDbEntity
  8
freecads.com
100
AcDbCircle
 10
11068.48934732473
 20
29716.03265949506
 30
0.0
 40
1.767138646015207
100
AcDbArc
 50
60.06452486001932
 51
97.42648518929989
  0
ARC
  5
ABDE
330
1F
100
AcDbEntity
  8
freecads.com
100
AcDbCircle
 10
11068.53880328787
 20
29715.65320870083
 30
0.0
 40
2.14979880531921
100
AcDbArc
 50
97.42636725408013
 51
129.6902110890042
  0
ARC
  5
ABDF
330
1F
100
AcDbEntity
  8
freecads.com
100
AcDbCircle
 10
11065.25787568332
 20
29719.60648859883
 30
0.0
 40
2.987604030573227
100
AcDbArc
 50
296.7328419902441
 51
309.6900957407142
  0
ARC
  5
ABE0
330
1F
100
AcDbEntity
  8
freecads.com
100
AcDbCircle
 10
11066.14576362562
 20
29717.8436368579
 30
0.0
 40
1.01377747827245
100
AcDbArc
 50
267.727698014732
 51
296.7328699248742
  0
ARC
  5
ABE1
330
1F
100
AcDbEntity
  8
freecads.com
100
AcDbCircle
 10
11066.13589536713
 20
29717.59490655773
 30
0.0
 40
0.7648514958063522
100
AcDbArc
 50
233.1440663912388
 51
267.7275970310975
  0
ARC
  5
ABE2
330
1F
100
AcDbEntity
  8
freecads.com
100
AcDbCircle
 10
11066.54728709647
 20
29718.14370646268
 30
0.0
 40
1.450726477595891
100
AcDbArc
 50
211.7175618838385
 51
233.144042660166
  0
ARC
  5
ABE3
330
1F
100
AcDbEntity
  8
freecads.com
100
AcDbCircle
 10
11063.99000616276
 20
29716.56321603857
 30
0.0
 40
1.555539604217107
100
AcDbArc
 50
31.71751466252802
 51
49.62145836388694
  0
ARC
  5
ABE4
330
1F
100
AcDbEntity
  8
freecads.com
100
AcDbCircle
 10
11064.16616546134
 20
29716.77036098057
 30
0.0
 40
1.283618429108537
100
AcDbArc
 50
49.62141972920166
 51
70.29955136802596
  0
ARC
  5
ABE5
330
1F
100
AcDbEntity
  8
freecads.com
100
AcDbCircle
 10
11064.24159324527
 20
29716.98101423243
 30
0.0
 40
1.059868248985951
100
AcDbArc
 50
70.29960934531529
 51
93.31918797423531
  0
ARC
  5
ABE6
330
1F
100
AcDbEntity
  8
freecads.com
100
AcDbCircle
 10
11064.22659427306
 20
29717.23961300834
 30
0.0
 40
0.800834861042426
100
AcDbArc
 50
93.31909026470251
 51
121.717378609623
  0
ARC
  5
ABE7
330
1F
100
AcDbEntity
  8
freecads.com
100
AcDbCircle
 10
11063.64461872254
 20
29718.18127038857
 30
0.0
 40
0.30614940404178
100
AcDbArc
 50
226.0853088057006
 51
301.7176109917162
  0
ARC
  5
ABE8
330
1F
100
AcDbEntity
  8
freecads.com
100
AcDbCircle
 10
11065.02016554683
 20
29719.60993833122
 30
0.0
 40
2.289384426966705
100
AcDbArc
 50
208.7923588889893
 51
226.0852510123637
  0
ARC
  5
ABE9
330
1F
100
AcDbEntity
  8
freecads.com
100
AcDbCircle
 10
11067.52964034629
 20
29720.98910206078
 30
0.0
 40
5.152871176029718
100
AcDbArc
 50
197.4692033213525
 51
208.7923985430332
  0
ARC
  5
ABEA
330
1F
100
AcDbEntity
  8
freecads.com
100
AcDbCircle
 10
11073.75933367516
 20
29722.94964329186
 30
0.0
 40
11.68378235981404
100
AcDbArc
 50
191.3285993587668
 51
197.4692370535169
  0
ARC
  5
ABEB
330
1F
100
AcDbEntity
  8
freecads.com
100
AcDbCircle
 10
10948.22727459873
 20
29697.80065580193
 30
0.0
 40
116.342657986454
100
AcDbArc
 50
11.32861809709361
 51
13.80553279485872
  0
ARC
  5
ABEC
330
1F
100
AcDbEntity
  8
freecads.com
100
AcDbCircle
 10
11047.1337316224
 20
29722.10454746255
 30
0.0
 40
14.49391528029502
100
AcDbArc
 50
13.80550084375902
 51
25.29238513397125
  0
ARC
  5
ABED
330
1F
100
AcDbEntity
  8
freecads.com
100
AcDbCircle
 10
11057.84408731445
 20
29727.1655670367
 30
0.0
 40
2.648002981950754
100
AcDbArc
 50
25.2924039442319
 51
57.75213712874252
  0
ARC
  5
ABEE
330
1F
100
AcDbEntity
  8
freecads.com
100
AcDbCircle
 10
11058.77619165498
 20
29728.64298054052
 30
0.0
 40
0.9011288700371849
100
AcDbArc
 50
57.75229227966414
 51
129.6901603557578
  0
ARC
  5
ABEF
330
1F
100
AcDbEntity
  8
freecads.com
100
AcDbCircle
 10
11060.53201700581
 20
29726.52733973553
 30
0.0
 40
3.650466731842871
100
AcDbArc
 50
129.6901625425328
 51
141.8284845975387
  0
ARC
  5
ABF0
330
1F
100
AcDbEntity
  8
freecads.com
100
AcDbCircle
 10
11061.48694196576
 20
29725.77666861107
 30
0.0
 40
4.865122574531782
100
AcDbArc
 50
141.8285984603104
 51
151.6154106609427
  0
ARC
  5
ABF1
330
1F
100
AcDbEntity
  8
freecads.com
100
AcDbCircle
 10
11061.12441630171
 20
29725.97256415791
 30
0.0
 40
4.453054713182861
100
AcDbArc
 50
151.6154632665614
 51
161.7520347530122
  0
ARC
  5
ABF2
330
1F
100
AcDbEntity
  8
freecads.com
100
AcDbCircle
 10
11058.82170847286
 20
29726.73179696536
 30
0.0
 40
2.028410862860728
100
AcDbArc
 50
161.7521503278754
 51
180.000012178364
  0
ARC
  5
ABF3
330
1F
100
AcDbEntity
  8
freecads.com
100
AcDbCircle
 10
11055.04293467036
 20
29726.73179718325
 30
0.0
 40
1.750362939632516
100
AcDbArc
 50
343.2723351584539
 51
359.9999787548767
  0
ARC
  5
ABF4
330
1F
100
AcDbEntity
  8
freecads.com
100
AcDbCircle
 10
11056.07045507097
 20
29726.42298319515
 30
0.0
 40
0.6774397117713695
100
AcDbArc
 50
309.3016594731837
 51
343.2725157353698
  0
ARC
  5
ABF5
330
1F
100
AcDbEntity
  8
freecads.com
100
AcDbCircle
 10
11056.20121250213
 20
29726.26323711533
 30
0.0
 40
0.4710025159383956
100
AcDbArc
 50
266.6269990140224
 51
309.3017485882688
  0
ARC
  5
ABF6
330
1F
100
AcDbEntity
  8
freecads.com
100
AcDbCircle
 10
11056.22141380843
 20
29726.60596551509
 30
0.0
 40
0.8143257583471859
100
AcDbArc
 50
238.2825411492272
 51
266.626889860396
  0
ARC
  5
ABF7
330
1F
100
AcDbEntity
  8
freecads.com
100
AcDbCircle
 10
11055.38423262446
 20
29725.2513756455
 30
0.0
 40
0.7780894040966505
100
AcDbArc
 50
58.28259676251433
 51
103.7565302913127
  0
ARC
  5
ABF8
330
1F
100
AcDbEntity
  8
freecads.com
100
AcDbCircle
 10
11055.27431248863
 20
29725.70035658145
 30
0.0
 40
0.3158488637947365
100
AcDbArc
 50
103.7563608712767
 51
191.0880217937395
  0
ARC
  5
ABF9
330
1F
100
AcDbEntity
  8
freecads.com
100
AcDbCircle
 10
11066.73436547883
 20
29727.94628391174
 30
0.0
 40
11.99390538493992
100
AcDbArc
 50
191.088219943598
 51
198.505890573344
  0
ARC
  5
ABFA
330
1F
100
AcDbEntity
  8
freecads.com
100
AcDbCircle
 10
12191.44361733244
 20
30104.39727554313
 30
0.0
 40
1198.031952964087
100
AcDbArc
 50
198.5058887188302
 51
198.7843460701792
  0
ARC
  5
ABFB
330
1F
100
AcDbEntity
  8
freecads.com
100
AcDbCircle
 10
11016.55636850227
 20
29704.79124100376
 30
0.0
 40
42.9535547289145
100
AcDbArc
 50
11.14317240275443
 51
18.78428439728725
  0
ARC
  5
ABFC
330
1F
100
AcDbEntity
  8
freecads.com
100
AcDbCircle
 10
11044.91202594766
 20
29710.37659168804
 30
0.0
 40
14.05304519315222
100
AcDbArc
 50
353.569100941859
 51
11.14317170826483
  0
ARC
  5
ABFD
330
1F
100
AcDbEntity
  8
freecads.com
100
AcDbCircle
 10
11050.10960604587
 20
29709.79074893729
 30
0.0
 40
8.822552806592096
100
AcDbArc
 50
330.3680486018616
 51
353.5691157104851
  0
ARC
  5
ABFE
330
1F
100
AcDbEntity
  8
freecads.com
100
AcDbCircle
 10
11049.63485765279
 20
29710.06080246885
 30
0.0
 40
9.368734961727799
100
AcDbArc
 50
308.1886358945114
 51
330.3680028164232
  0
ARC
  5
ABFF
330
1F
100
AcDbEntity
  8
freecads.com
100
AcDbCircle
 10
11060.39181817715
 20
29696.38555930779
 30
0.0
 40
8.030244181793838
100
AcDbArc
 50
128.1886168457295
 51
148.5218535874377
  0
ARC
  5
AC00
330
1F
100
AcDbEntity
  8
freecads.com
100
AcDbCircle
 10
11060.65888323181
 20
29696.22205175418
 30
0.0
 40
8.343387062033869
100
AcDbArc
 50
148.5219123866212
 51
168.2801956285125
  0
ARC
  5
AC01
330
1F
100
AcDbEntity
  8
freecads.com
100
AcDbCircle
 10
11063.66146698359
 20
29695.59915083462
 30
0.0
 40
11.40990214301746
100
AcDbArc
 50
168.2801303196437
 51
184.7791090529545
  0
ARC
  5
AC02
330
1F
100
AcDbEntity
  8
freecads.com
100
AcDbCircle
 10
11076.57532606225
 20
29696.67879465758
 30
0.0
 40
24.36881363618051
100
AcDbArc
 50
184.7790585192098
 51
194.1334696847345
  0
ARC
  5
AC03
330
1F
100
AcDbEntity
  8
freecads.com
100
AcDbCircle
 10
11002.59050469247
 20
29678.04924032927
 30
0.0
 40
51.92544622387406
100
AcDbArc
 50
11.47679039286484
 51
14.1333621096222
  0
ARC
  5
AC04
330
1F
100
AcDbEntity
  8
freecads.com
100
AcDbCircle
 10
11046.31535819609
 20
29686.92672882738
 30
0.0
 40
7.308491868540782
100
AcDbArc
 50
0.1882664507685309
 51
11.47671054409153
  0
ARC
  5
AC05
330
1F
100
AcDbEntity
  8
freecads.com
100
AcDbCircle
 10
11051.42909026257
 20
29686.94353258382
 30
0.0
 40
2.194732193504382
100
AcDbArc
 50
337.0604551048935
 51
0.1882497414358779
  0
ARC
  5
AC06
330
1F
100
AcDbEntity
  8
freecads.com
100
AcDbCircle
 10
11052.70498098638
 20
29686.40353722299
 30
0.0
 40
0.8092748217999229
100
AcDbArc
 50
288.4349081226555
 51
337.0604537056891
  0
ARC
  5
AC07
330
1F
100
AcDbEntity
  8
freecads.com
100
AcDbCircle
 10
11053.20036610837
 20
29684.91738511752
 30
0.0
 40
0.7572673894648372
100
AcDbArc
 50
108.4350703303236
 51
155.8627725370224
  0
ARC
  5
AC08
330
1F
100
AcDbEntity
  8
freecads.com
100
AcDbCircle
 10
11058.74064060788
 20
29682.43477138158
 30
0.0
 40
6.828347399783617
100
AcDbArc
 50
155.8627121576782
 51
165.2841613650423
  0
ARC
  5
AC09
330
1F
100
AcDbEntity
  8
freecads.com
100
AcDbCircle
 10
11061.36642594736
 20
29681.74514236266
 30
0.0
 40
9.543183828145398
100
AcDbArc
 50
165.2842121497528
 51
173.8228307762566
  0
ARC
  5
AC0A
330
1F
100
AcDbEntity
  8
freecads.com
100
AcDbCircle
 10
11066.4943658294
 20
29681.19016131779
 30
0.0
 40
14.70106821940289
100
AcDbArc
 50
173.822924270975
 51
179.9999757720884
  0
ARC
  5
AC0B
330
1F
100
AcDbEntity
  8
freecads.com
100
AcDbCircle
 10
11040.70327413251
 20
29681.19017163584
 30
0.0
 40
11.09002347749204
100
AcDbArc
 50
340.6603316263079
 51
359.9999788092798
  0
ARC
  5
AC0C
330
1F
100
AcDbEntity
  8
freecads.com
100
AcDbCircle
 10
11046.55119441833
 20
29679.13771574703
 30
0.0
 40
4.892383051906711
100
AcDbArc
 50
305.0204405667866
 51
340.6602976858188
  0
ARC
  5
AC0D
330
1F
100
AcDbEntity
  8
freecads.com
100
AcDbCircle
 10
11047.53486283596
 20
29677.73396650931
 30
0.0
 40
3.178289857767589
100
AcDbArc
 50
258.2785992901412
 51
305.0203504618169
  0
ARC
  5
AC0E
330
1F
100
AcDbEntity
  8
freecads.com
100
AcDbCircle
 10
11047.90685030289
 20
29679.52681343816
 30
0.0
 40
5.009320929540264
100
AcDbArc
 50
225.0000178824512
 51
258.2785064197186
  0
ARC
  5
AC0F
330
1F
100
AcDbEntity
  8
freecads.com
100
AcDbCircle
 10
11048.20722758107
 20
29679.82718484364
 30
0.0
 40
5.43411439754064
100
AcDbArc
 50
187.6967022534043
 51
224.9999727003643
  0
ARC
  5
AC10
330
1F
100
AcDbEntity
  8
freecads.com
100
AcDbCircle
 10
11063.9714120694
 20
29681.95762566563
 30
0.0
 40
21.3416060501477
100
AcDbArc
 50
174.1986799258464
 51
187.6966047905456
  0
ARC
  5
AC11
330
1F
100
AcDbEntity
  8
freecads.com
100
AcDbCircle
 10
11073.52803255085
 20
29680.98663875558
 30
0.0
 40
30.94742775393116
100
AcDbArc
 50
162.7967687080119
 51
174.1986092930485
  0
ARC
  5
AC12
330
1F
100
AcDbEntity
  8
freecads.com
100
AcDbCircle
 10
11086.39695818006
 20
29677.00220094671
 30
0.0
 40
44.4190643101131
100
AcDbArc
 50
154.1001823093108
 51
162.7967138044642
  0
ARC
  5
AC13
330
1F
100
AcDbEntity
  8
freecads.com
100
AcDbCircle
 10
11103.42842228664
 20
29668.73214211114
 30
0.0
 40
63.35222682335268
100
AcDbArc
 50
150.9258957419408
 51
154.1001081294098
  0
ARC
  5
AC14
330
1F
100
AcDbEntity
  8
freecads.com
100
AcDbCircle
 10
11112.78732981519
 20
29663.52854059599
 30
0.0
 40
74.06047686037758
100
AcDbArc
 50
148.1024759753927
 51
150.9258691483695
  0
ARC
  5
AC15
330
1F
100
AcDbEntity
  8
freecads.com
100
AcDbCircle
 10
11105.87978166221
 20
29667.82755143435
 30
0.0
 40
65.92440190638511
100
AcDbArc
 50
145.2457493088209
 51
148.1023689312872
  0
ARC
  5
AC16
330
1F
100
AcDbEntity
  8
freecads.com
100
AcDbCircle
 10
11064.33504896036
 20
29696.65269611755
 30
0.0
 40
15.35906020602899
100
AcDbArc
 50
136.8175900392977
 51
145.2456648224227
  0
ARC
  5
AC17
330
1F
100
AcDbEntity
  8
freecads.com
100
AcDbCircle
 10
11037.99056993094
 20
29721.37661089286
 30
0.0
 40
20.76992451743359
100
AcDbArc
 50
316.8175539355829
 51
321.399918013698
  0
ARC
  5
AC18
330
1F
100
AcDbEntity
  8
freecads.com
100
AcDbCircle
 10
11048.86650338634
 20
29712.69442705928
 30
0.0
 40
6.853522516709953
100
AcDbArc
 50
321.4000143202053
 51
331.8732617090462
  0
ARC
  5
AC19
330
1F
100
AcDbEntity
  8
freecads.com
100
AcDbCircle
 10
11053.29401638073
 20
29710.32769582408
 30
0.0
 40
1.83313527515255
100
AcDbArc
 50
331.8733589921288
 51
354.1914412547787
  0
ARC
  5
AC1A
330
1F
100
AcDbEntity
  8
freecads.com
100
AcDbCircle
 10
11054.87283238781
 20
29710.16708736152
 30
0.0
 40
0.2461711727009715
100
AcDbArc
 50
354.1914187927074
 51
89.99994828697611
  0
ARC
  5
AC1B
330
1F
100
AcDbEntity
  8
freecads.com
100
AcDbCircle
 10
11054.8728338813
 20
29711.36475193123
 30
0.0
 40
0.9514933970056597
100
AcDbArc
 50
237.4031859349827
 51
269.9999234464569
  0
ARC
  5
AC1C
330
1F
100
AcDbEntity
  8
freecads.com
100
AcDbCircle
 10
11054.78541126272
 20
29711.22803300035
 30
0.0
 40
0.7892134527836861
100
AcDbArc
 50
199.9096781224437
 51
237.4030590651203
  0
ARC
  5
AC1D
330
1F
100
AcDbEntity
  8
freecads.com
100
AcDbCircle
 10
11055.50154931411
 20
29711.48740917973
 30
0.0
 40
1.550875918108959
100
AcDbArc
 50
175.215444834566
 51
199.9097127685418
  0
ARC
  5
AC1E
330
1F
100
AcDbEntity
  8
freecads.com
100
AcDbCircle
 10
11059.25267428881
 20
29711.17342328359
 30
0.0
 40
5.315118965356363
100
AcDbArc
 50
165.3449905654011
 51
175.2153008500698
  0
ARC
  5
AC1F
330
1F
100
AcDbEntity
  8
freecads.com
100
AcDbCircle
 10
11049.36483981329
 20
29713.75915307509
 30
0.0
 40
4.905217094187619
100
AcDbArc
 50
345.3449690589423
 51
14.86555829060319
  0
ARC
  5
AC20
330
1F
100
AcDbEntity
  8
freecads.com
100
AcDbCircle
 10
11035.76594147825
 20
29710.14952334176
 30
0.0
 40
18.97502387106117
100
AcDbArc
 50
14.8655425159994
 51
25.66330084622364
  0
ARC
  5
AC21
330
1F
100
AcDbEntity
  8
freecads.com
100
AcDbCircle
 10
11033.26532907606
 20
29708.94803240296
 30
0.0
 40
21.74930627593017
100
AcDbArc
 50
25.66329973250862
 51
36.03888825649006
  0
ARC
  5
AC22
330
1F
100
AcDbEntity
  8
freecads.com
100
AcDbCircle
 10
11038.07026294767
 20
29712.44397688956
 30
0.0
 40
15.80716715241524
100
AcDbArc
 50
36.03897475373209
 51
49.21849938534881
  0
ARC
  5
AC23
330
1F
100
AcDbEntity
  8
freecads.com
100
AcDbCircle
 10
11178.50905096586
 20
29875.25033712955
 30
0.0
 40
199.2020515211337
100
AcDbArc
 50
227.7916642697765
 51
229.2185399263097
  0
ARC
  5
AC24
330
1F
100
AcDbEntity
  8
freecads.com
100
AcDbCircle
 10
11053.52932607336
 20
29737.45721492086
 30
0.0
 40
13.17281682340764
100
AcDbArc
 50
217.4268807743565
 51
227.7917197307737
  0
ARC
  5
AC25
330
1F
100
AcDbEntity
  8
freecads.com
100
AcDbCircle
 10
11045.9100088956
 20
29731.62614329037
 30
0.0
 40
3.578266775846991
100
AcDbArc
 50
193.5208148353826
 51
217.4269123538647
  0
ARC
  5
AC26
330
1F
100
AcDbEntity
  8
freecads.com
100
AcDbCircle
 10
11045.22493386015
 20
29731.46141242821
 30
0.0
 40
2.873664717145265
100
AcDbArc
 50
165.3449345899267
 51
193.5208991468797
  0
ARC
  5
AC27
330
1F
100
AcDbEntity
  8
freecads.com
100
AcDbCircle
 10
11040.30130927801
 20
29732.74897341828
 30
0.0
 40
2.215528964467685
100
AcDbArc
 50
345.3449706767496
 51
12.01429694146195
  0
ARC
  5
AC28
330
1F
100
AcDbEntity
  8
freecads.com
100
AcDbCircle
 10
11040.58371332062
 20
29732.80907356345
 30
0.0
 40
1.926800596050422
100
AcDbArc
 50
12.01430690921846
 51
41.62527756775539
  0
ARC
  5
AC29
330
1F
100
AcDbEntity
  8
freecads.com
100
AcDbCircle
 10
11038.81355539231
 20
29731.23605658703
 30
0.0
 40
4.294888748812697
100
AcDbArc
 50
41.62527885744209
 51
59.60302377867403
  0
ARC
  5
AC2A
330
1F
100
AcDbEntity
  8
freecads.com
100
AcDbCircle
 10
11028.77827911016
 20
29714.12927779845
 30
0.0
 40
24.12790794863667
100
AcDbArc
 50
59.60301905129103
 51
64.61422588674088
  0
ARC
  5
AC2B
330
1F
100
AcDbEntity
  8
freecads.com
100
AcDbCircle
 10
11022.51693257487
 20
29700.93448946278
 30
0.0
 40
38.73293789238602
100
AcDbArc
 50
64.61420625254759
 51
70.14423813477549
  0
ARC
  5
AC2C
330
1F
100
AcDbEntity
  8
freecads.com
100
AcDbCircle
 10
11032.01678413426
 20
29727.24097120342
 30
0.0
 40
10.76370191389328
100
AcDbArc
 50
70.14426093326943
 51
84.48521153837985
  0
ARC
  5
AC2D
330
1F
100
AcDbEntity
  8
freecads.com
100
AcDbCircle
 10
11032.73425288397
 20
29734.67202954548
 30
0.0
 40
3.298088108595713
100
AcDbArc
 50
84.4852698638004
 51
113.2346524863567
  0
ARC
  5
AC2E
330
1F
100
AcDbEntity
  8
freecads.com
100
AcDbCircle
 10
11031.85005485711
 20
29736.73158238042
 30
0.0
 40
1.056757247110296
100
AcDbArc
 50
113.2347652657532
 51
179.9999916615329
  0
ARC
  5
AC2F
330
1F
100
AcDbEntity
  8
freecads.com
100
AcDbCircle
 10
10840.00352251033
 20
29742.53486210538
 30
0.0
 40
201.0469847795249
100
AcDbArc
 50
346.6207020939425
 51
347.4572167600238
  0
ARC
  5
AC30
330
1F
100
AcDbEntity
  8
freecads.com
100
AcDbCircle
 10
10934.9740522064
 20
29719.94593137466
 30
0.0
 40
103.4270006456016
100
AcDbArc
 50
345.2451713983462
 51
346.6207119554905
  0
ARC
  5
AC31
330
1F
100
AcDbEntity
  8
freecads.com
100
AcDbCircle
 10
10683.38208175909
 20
29786.20761993037
 30
0.0
 40
363.5983498825483
100
AcDbArc
 50
344.9063814712087
 51
345.2451138729314
  0
ARC
  5
AC32
330
1F
100
AcDbEntity
  8
freecads.com
100
AcDbCircle
 10
11034.28747716233
 20
29691.56800430674
 30
0.0
 40
0.154745772516679
100
AcDbArc
 50
270.0001657537126
 51
344.9065956598504
  0
ARC
  5
AC33
330
1F
100
AcDbEntity
  8
freecads.com
100
AcDbCircle
 10
11034.28747762835
 20
29691.89821828684
 30
0.0
 40
0.4849597526222173
100
AcDbArc
 50
175.1987122843054
 51
269.9999978320069
  0
ARC
  5
AC34
330
1F
100
AcDbEntity
  8
freecads.com
100
AcDbCircle
 10
12065.29137799929
 20
29605.2985423789
 30
0.0
 40
1035.11945871709
100
AcDbArc
 50
174.737567550473
 51
175.198683361909
  0
ARC
  5
AC35
330
1F
100
AcDbEntity
  8
freecads.com
100
AcDbCircle
 10
11322.7918753914
 20
29673.68671687271
 30
0.0
 40
289.4771491725428
100
AcDbArc
 50
173.2150433587589
 51
174.7374844175769
  0
ARC
  5
AC36
330
1F
100
AcDbEntity
  8
freecads.com
100
AcDbCircle
 10
11053.08701892517
 20
29705.77523960545
 30
0.0
 40
17.87011153795464
100
AcDbArc
 50
161.6090032936357
 51
173.2149891664721
  0
LINE
  5
AC37
330
1F
100
AcDbEntity
  8
freecads.com
100
AcDbLine
 10
11036.12961261
 20
29711.41325853422
 30
0.0
 11
11037.29329761
 21
29714.91325853422
 31
0.0
  0
LINE
  5
AC38
330
1F
100
AcDbEntity
  8
freecads.com
100
AcDbLine
 10
11037.29329761
 20
29714.91325853422
 30
0.0
 11
11037.60272461
 21
29710.62377753422
 31
0.0
  0
ARC
  5
AC39
330
1F
100
AcDbEntity
  8
freecads.com
100
AcDbCircle
 10
11021.93431434641
 20
29709.49353585977
 30
0.0
 40
15.70912239530909
100
AcDbArc
 50
356.2567708504861
 51
4.125887942957852
  0
ARC
  5
AC3A
330
1F
100
AcDbEntity
  8
freecads.com
100
AcDbCircle
 10
10975.04928226591
 20
29712.5609616852
 30
0.0
 40
62.69438960092923
100
AcDbArc
 50
353.4439341902006
 51
356.2567865338883
  0
ARC
  5
AC3B
330
1F
100
AcDbEntity
  8
freecads.com
100
AcDbCircle
 10
10967.78951908499
 20
29713.39523705691
 30
0.0
 40
70.00193206299849
100
AcDbArc
 50
350.6684877062216
 51
353.4439887541287
  0
ARC
  5
AC3C
330
1F
100
AcDbEntity
  8
freecads.com
100
AcDbCircle
 10
10979.99937458286
 20
29711.38888773399
 30
0.0
 40
57.62833077298454
100
AcDbArc
 50
347.4571673838503
 51
350.6685002312515
  0
ARC
  5
AC3D
330
1F
100
AcDbEntity
  8
freecads.com
100
AcDbCircle
 10
10899.08188369422
 20
29736.23372079835
 30
0.0
 40
173.3011066567892
100
AcDbArc
 50
335.9438795699059
 51
337.8396390836119
  0
ARC
  5
AC3E
330
1F
100
AcDbEntity
  8
freecads.com
100
AcDbCircle
 10
11054.63851752149
 20
29666.79279948607
 30
0.0
 40
2.948801476117573
100
AcDbArc
 50
300.7474515991622
 51
335.9438303937497
  0
ARC
  5
AC3F
330
1F
100
AcDbEntity
  8
freecads.com
100
AcDbCircle
 10
11055.9713202694
 20
29664.55233316984
 30
0.0
 40
0.3418775265189273
100
AcDbArc
 50
162.0216030109776
 51
300.7474112981829
  0
ARC
  5
AC40
330
1F
100
AcDbEntity
  8
freecads.com
100
AcDbCircle
 10
11171.32220996253
 20
29627.12062076429
 30
0.0
 40
121.6141367064733
100
AcDbArc
 50
159.5893674383599
 51
162.0215965544525
  0
ARC
  5
AC41
330
1F
100
AcDbEntity
  8
freecads.com
100
AcDbCircle
 10
10951.01754627701
 20
29709.09782875486
 30
0.0
 40
113.4484240545559
100
AcDbArc
 50
339.5893211618418
 51
340.636909898393
  0
ARC
  5
AC42
330
1F
100
AcDbEntity
  8
freecads.com
100
AcDbCircle
 10
10874.41398329219
 20
29736.01883265955
 30
0.0
 40
194.6447682653705
100
AcDbArc
 50
340.6368859694731
 51
341.3361214930075
  0
ARC
  5
AC43
330
1F
100
AcDbEntity
  8
freecads.com
100
AcDbCircle
 10
10881.14479889988
 20
29733.7452397715
 30
0.0
 40
187.5403257565462
100
AcDbArc
 50
341.3361406020188
 51
342.039959744899
  0
ARC
  5
AC44
330
1F
100
AcDbEntity
  8
freecads.com
100
AcDbCircle
 10
10987.134230373
 20
29699.38893854473
 30
0.0
 40
76.12167822402692
100
AcDbArc
 50
342.0399260326827
 51
343.4202792614415
  0
ARC
  5
AC45
330
1F
100
AcDbEntity
  8
freecads.com
100
AcDbCircle
 10
11086.85848306181
 20
29669.69824458237
 30
0.0
 40
27.92861674100589
100
AcDbArc
 50
159.8049229425884
 51
163.4202159055865
  0
ARC
  5
AC46
330
1F
100
AcDbEntity
  8
freecads.com
100
AcDbCircle
 10
11063.52078384029
 20
29678.28257026884
 30
0.0
 40
3.062196563482372
100
AcDbArc
 50
141.4384321906901
 51
159.80493816165
  0
ARC
  5
AC47
330
1F
100
AcDbEntity
  8
freecads.com
100
AcDbCircle
 10
11061.47197167962
 20
29679.91586591048
 30
0.0
 40
0.4420274997136544
100
AcDbArc
 50
78.06343526913133
 51
141.4383548138474
  0
ARC
  5
AC48
330
1F
100
AcDbEntity
  8
freecads.com
100
AcDbCircle
 10
11061.433274437
 20
29679.73280985084
 30
0.0
 40
0.6291290698741577
100
AcDbArc
 50
29.23255493058616
 51
78.06350171276128
  0
ARC
  5
AC49
330
1F
100
AcDbEntity
  8
freecads.com
100
AcDbCircle
 10
11060.71947200743
 20
29679.33334484006
 30
0.0
 40
1.447105966420947
100
AcDbArc
 50
349.8078879717834
 51
29.23262026650253
  0
ARC
  5
AC4A
330
1F
100
AcDbEntity
  8
freecads.com
100
AcDbCircle
 10
11033.70663615661
 20
29684.1898929311
 30
0.0
 40
28.89304118575691
100
AcDbArc
 50
345.3375293293602
 51
349.8078665736851
  0
ARC
  5
AC4B
330
1F
100
AcDbEntity
  8
freecads.com
100
AcDbCircle
 10
11027.56139324139
 20
29685.79776664205
 30
0.0
 40
35.24514858075014
100
AcDbArc
 50
340.6220632213836
 51
345.3375279054129
  0
ARC
  5
AC4C
330
1F
100
AcDbEntity
  8
freecads.com
100
AcDbCircle
 10
10993.51591292043
 20
29697.77220089896
 30
0.0
 40
71.33506138266058
100
AcDbArc
 50
337.8395631314319
 51
340.6221678113872
  0
ARC
  5
AC4D
330
1F
100
AcDbEntity
  8
freecads.com
100
AcDbCircle
 10
11000.86111921141
 20
29662.79321917251
 30
0.0
 40
27.74750682120799
100
AcDbArc
 50
27.80391911421045
 51
31.19054071321805
  0
ARC
  5
AC4E
330
1F
100
AcDbEntity
  8
freecads.com
100
AcDbCircle
 10
10990.5483512927
 20
29657.3550458607
 30
0.0
 40
39.40627652961956
100
AcDbArc
 50
25.20023809538582
 51
27.80387548429387
  0
ARC
  5
AC4F
330
1F
100
AcDbEntity
  8
freecads.com
100
AcDbCircle
 10
10993.26561396001
 20
29658.63371588076
 30
0.0
 40
36.40319254423396
100
AcDbArc
 50
22.5601518673055
 51
25.20022460311381
  0
ARC
  5
AC50
330
1F
100
AcDbEntity
  8
freecads.com
100
AcDbCircle
 10
11015.97352888108
 20
29668.06759386326
 30
0.0
 40
11.81361235564788
100
AcDbArc
 50
16.45153501512076
 51
22.56010998197148
  0
LINE
  5
AC51
330
1F
100
AcDbEntity
  8
freecads.com
100
AcDbLine
 10
11027.30348761
 20
29671.41325853422
 30
0.0
 11
11028.04171961
 21
29668.91325853422
 31
0.0
  0
LINE
  5
AC52
330
1F
100
AcDbEntity
  8
freecads.com
100
AcDbLine
 10
11028.04171961
 20
29668.91325853422
 30
0.0
 11
11025.32568661
 21
29671.41325853422
 31
0.0
  0
ARC
  5
AC53
330
1F
100
AcDbEntity
  8
freecads.com
100
AcDbCircle
 10
11046.78085545068
 20
29694.72242590732
 30
0.0
 40
31.68030229668322
100
AcDbArc
 50
221.6416681700266
 51
227.3716561862549
  0
ARC
  5
AC54
330
1F
100
AcDbEntity
  8
freecads.com
100
AcDbCircle
 10
11030.37673822654
 20
29680.13680352515
 30
0.0
 40
9.729551918212928
100
AcDbArc
 50
207.8344495946203
 51
221.6415884652078
  0
ARC
  5
AC55
330
1F
100
AcDbEntity
  8
freecads.com
100
AcDbCircle
 10
11026.32813935728
 20
29677.99910649818
 30
0.0
 40
5.151244219587409
100
AcDbArc
 50
187.9269347612923
 51
207.8344390474474
  0
ARC
  5
AC56
330
1F
100
AcDbEntity
  8
freecads.com
100
AcDbCircle
 10
11024.32439534689
 20
29677.7201062456
 30
0.0
 40
3.128169529888736
100
AcDbArc
 50
159.0063841693577
 51
187.926977682717
  0
ARC
  5
AC57
330
1F
100
AcDbEntity
  8
freecads.com
100
AcDbCircle
 10
11029.69293689639
 20
29675.65999599445
 30
0.0
 40
8.878412360893067
100
AcDbArc
 50
150.3123307004029
 51
159.0063448084547
  0
ARC
  5
AC58
330
1F
100
AcDbEntity
  8
freecads.com
100
AcDbCircle
 10
11022.29137693127
 20
29679.87965942166
 30
0.0
 40
0.358515098834066
100
AcDbArc
 50
62.28938843500196
 51
150.3121975552945
  0
ARC
  5
AC59
330
1F
100
AcDbEntity
  8
freecads.com
100
AcDbCircle
 10
11021.72230649368
 20
29678.79622103683
 30
0.0
 40
1.582312425465975
100
AcDbArc
 50
32.45182597726927
 51
62.289498249445
  0
ARC
  5
AC5A
330
1F
100
AcDbEntity
  8
freecads.com
100
AcDbCircle
 10
10911.07363319172
 20
29608.43600565502
 30
0.0
 40
132.7070195254561
100
AcDbArc
 50
31.19062845576154
 51
32.4518104236096
  0
LINE
  5
AC5B
330
1F
100
AcDbEntity
  8
freecads.com
100
AcDbLine
 10
11043.10397861
 20
29663.23094353422
 30
0.0
 11
11041.29329761
 21
29659.91325853422
 31
0.0
  0
LINE
  5
AC5C
330
1F
100
AcDbEntity
  8
freecads.com
100
AcDbLine
 10
11041.29329761
 20
29659.91325853422
 30
0.0
 11
11040.97040561
 21
29663.87337453422
 31
0.0
  0
ARC
  5
AC5D
330
1F
100
AcDbEntity
  8
freecads.com
100
AcDbCircle
 10
11059.94806247567
 20
29665.42073950485
 30
0.0
 40
19.04063545324297
100
AcDbArc
 50
178.7607458697788
 51
184.6613653939299
  0
ARC
  5
AC5E
330
1F
100
AcDbEntity
  8
freecads.com
100
AcDbCircle
 10
11046.57522388558
 20
29665.71002482617
 30
0.0
 40
5.66466827499797
100
AcDbArc
 50
164.2061132136811
 51
178.760727827923
  0
ARC
  5
AC5F
330
1F
100
AcDbEntity
  8
freecads.com
100
AcDbCircle
 10
11044.51724336902
 20
29666.29213977299
 30
0.0
 40
3.525943978162874
100
AcDbArc
 50
144.9058697807021
 51
164.2061493753696
  0
ARC
  5
AC60
330
1F
100
AcDbEntity
  8
freecads.com
100
AcDbCircle
 10
11044.678922739
 20
29666.17854106322
 30
0.0
 40
3.723541765378497
100
AcDbArc
 50
126.3789187166241
 51
144.9059542775471
  0
ARC
  5
AC61
330
1F
100
AcDbEntity
  8
freecads.com
100
AcDbCircle
 10
11051.13228722255
 20
29657.41866528385
 30
0.0
 40
14.60386054873664
100
AcDbArc
 50
121.4222340008469
 51
126.3789210456195
  0
ARC
  5
AC62
330
1F
100
AcDbEntity
  8
freecads.com
100
AcDbCircle
 10
11043.85004224242
 20
29669.33849336814
 30
0.0
 40
0.6355609561007039
100
AcDbArc
 50
73.24255568574085
 51
121.4222089982901
  0
ARC
  5
AC63
330
1F
100
AcDbEntity
  8
freecads.com
100
AcDbCircle
 10
11043.8897448928
 20
29669.47034315934
 30
0.0
 40
0.4978632150794835
100
AcDbArc
 50
15.85873986440247
 51
73.24274124679525
  0
ARC
  5
AC64
330
1F
100
AcDbEntity
  8
freecads.com
100
AcDbCircle
 10
11035.67497627838
 20
29667.13671237906
 30
0.0
 40
9.037667428702429
100
AcDbArc
 50
8.89386634375119
 51
15.85865909147149
  0
ARC
  5
AC65
330
1F
100
AcDbEntity
  8
freecads.com
100
AcDbCircle
 10
11041.51320871245
 20
29668.05031141093
 30
0.0
 40
3.128384803444224
100
AcDbArc
 50
350.6822770808569
 51
8.893928885718002
  0
ARC
  5
AC66
330
1F
100
AcDbEntity
  8
freecads.com
100
AcDbCircle
 10
11032.19193047582
 20
29669.57969895948
 30
0.0
 40
12.57429684189834
100
AcDbArc
 50
344.206100293019
 51
350.6822368749046
  0
ARC
  5
AC67
330
1F
100
AcDbEntity
  8
freecads.com
100
AcDbCircle
 10
11030.1644724389
 20
29670.15317659998
 30
0.0
 40
14.68130009192629
100
AcDbArc
 50
337.9724896131526
 51
344.2061078545234
  0
ARC
  5
AC68
330
1F
100
AcDbEntity
  8
freecads.com
100
AcDbCircle
 10
11031.15426847156
 20
29669.75270848243
 30
0.0
 40
13.61355906559504
100
AcDbArc
 50
331.37571712227
 51
337.9725349849448
  0
ARC
  5
AC69
330
1F
100
AcDbEntity
  8
freecads.com
100
AcDbCircle
 10
10978.36760802606
 20
29632.99054074294
 30
0.0
 40
55.58038455759721
100
AcDbArc
 50
23.68560931366729
 51
27.02892464050083
  0
ARC
  5
AC6A
330
1F
100
AcDbEntity
  8
freecads.com
100
AcDbCircle
 10
11027.10045275185
 20
29654.36816728885
 30
0.0
 40
2.364850436397335
100
AcDbArc
 50
350.6501611163071
 51
23.68560333380504
  0
ARC
  5
AC6B
330
1F
100
AcDbEntity
  8
freecads.com
100
AcDbCircle
 10
11029.07031291114
 20
29654.04383030159
 30
0.0
 40
0.3684678256572004
100
AcDbArc
 50
235.3544320276165
 51
350.6502112991652
  0
ARC
  5
AC6C
330
1F
100
AcDbEntity
  8
freecads.com
100
AcDbCircle
 10
11035.08422886548
 20
29662.74669794253
 30
0.0
 40
10.94708258760134
100
AcDbArc
 50
224.9999339491209
 51
235.3544807237792
  0
ARC
  5
AC6D
330
1F
100
AcDbEntity
  8
freecads.com
100
AcDbCircle
 10
11044.50225131924
 20
29672.16471308354
 30
0.0
 40
24.26617250154398
100
AcDbArc
 50
218.144157259605
 51
224.9999579935028
  0
ARC
  5
AC6E
330
1F
100
AcDbEntity
  8
freecads.com
100
AcDbCircle
 10
11038.15397832164
 20
29667.17907988571
 30
0.0
 40
16.19417718233092
100
AcDbArc
 50
208.8612338622098
 51
218.1440292410917
  0
ARC
  5
AC6F
330
1F
100
AcDbEntity
  8
freecads.com
100
AcDbCircle
 10
11033.88040011918
 20
29664.82369270687
 30
0.0
 40
11.31449282630314
100
AcDbArc
 50
198.3938596730432
 51
208.8611607289776
  0
ARC
  5
AC70
330
1F
100
AcDbEntity
  8
freecads.com
100
AcDbCircle
 10
11024.42097544017
 20
29661.67808481557
 30
0.0
 40
1.345763505883607
100
AcDbArc
 50
148.2825268871053
 51
198.3937780107745
  0
ARC
  5
AC71
330
1F
100
AcDbEntity
  8
freecads.com
100
AcDbCircle
 10
11024.22859246491
 20
29661.79698538989
 30
0.0
 40
1.119603041304136
100
AcDbArc
 50
96.12338057709704
 51
148.2825862120363
  0
ARC
  5
AC72
330
1F
100
AcDbEntity
  8
freecads.com
100
AcDbCircle
 10
11024.24240689859
 20
29661.66821376852
 30
0.0
 40
1.249113539131567
100
AcDbArc
 50
48.03994624326795
 51
96.12336084083089
  0
ARC
  5
AC73
330
1F
100
AcDbEntity
  8
freecads.com
100
AcDbCircle
 10
11020.82233029609
 20
29657.86451330182
 30
0.0
 40
6.364293028390315
100
AcDbArc
 50
30.81490919424962
 51
48.03989133002453
  0
ARC
  5
AC74
330
1F
100
AcDbEntity
  8
freecads.com
100
AcDbCircle
 10
10983.57090374864
 20
29635.64508899343
 30
0.0
 40
49.73907367816953
100
AcDbArc
 50
27.02889686229198
 51
30.81488672706266
  0
ARC
  5
AC75
330
1F
100
AcDbEntity
  8
freecads.com
100
AcDbCircle
 10
10958.27322169747
 20
29661.82923510795
 30
0.0
 40
117.7074776849902
100
AcDbArc
 50
351.7078542228567
 51
353.5451759179521
  0
ARC
  5
AC76
330
1F
100
AcDbEntity
  8
freecads.com
100
AcDbCircle
 10
11070.78715158563
 20
29645.4309814564
 30
0.0
 40
4.004851762379157
100
AcDbArc
 50
330.5083243408165
 51
351.7078255294902
  0
ARC
  5
AC77
330
1F
100
AcDbEntity
  8
freecads.com
100
AcDbCircle
 10
11073.18921425933
 20
29644.07242156366
 30
0.0
 40
1.245215904050317
100
AcDbArc
 50
282.2685680161536
 51
330.5082795789734
  0
ARC
  5
AC78
330
1F
100
AcDbEntity
  8
freecads.com
100
AcDbCircle
 10
11072.2823583644
 20
29648.2426505783
 30
0.0
 40
5.512908213561567
100
AcDbArc
 50
266.2623180519571
 51
282.2685187638206
  0
ARC
  5
AC79
330
1F
100
AcDbEntity
  8
freecads.com
100
AcDbCircle
 10
11071.22768705555
 20
29632.09834796118
 30
0.0
 40
10.66580738943592
100
AcDbArc
 50
86.26229904936202
 51
94.25983386896717
  0
ARC
  5
AC7A
330
1F
100
AcDbEntity
  8
freecads.com
100
AcDbCircle
 10
11070.5053869389
 20
29641.79552645084
 30
0.0
 40
0.9417656310491942
100
AcDbArc
 50
94.25973058010175
 51
141.596549068721
  0
ARC
  5
AC7B
330
1F
100
AcDbEntity
  8
freecads.com
100
AcDbCircle
 10
11070.74407026588
 20
29641.60632497826
 30
0.0
 40
1.24634226805148
100
AcDbArc
 50
141.5965494022623
 51
180.3949616367549
  0
ARC
  5
AC7C
330
1F
100
AcDbEntity
  8
freecads.com
100
AcDbCircle
 10
11090.02951084847
 20
29641.73924024148
 30
0.0
 40
20.53224087121181
100
AcDbArc
 50
180.3948814616283
 51
185.4267048770751
  0
ARC
  5
AC7D
330
1F
100
AcDbEntity
  8
freecads.com
100
AcDbCircle
 10
11055.48383888615
 20
29638.45746419277
 30
0.0
 40
14.16896235520937
100
AcDbArc
 50
358.2235712088413
 51
5.426715692983724
  0
ARC
  5
AC7E
330
1F
100
AcDbEntity
  8
freecads.com
100
AcDbCircle
 10
11068.03907556551
 20
29638.06807028066
 30
0.0
 40
1.607688705873349
100
AcDbArc
 50
322.5237654094966
 51
358.223567745392
  0
ARC
  5
AC7F
330
1F
100
AcDbEntity
  8
freecads.com
100
AcDbCircle
 10
11067.97956012652
 20
29638.11369671157
 30
0.0
 40
1.682681096643201
100
AcDbArc
 50
287.9371571720085
 51
322.5238238610593
  0
ARC
  5
AC80
330
1F
100
AcDbEntity
  8
freecads.com
100
AcDbCircle
 10
11063.58727655907
 20
29651.68251211681
 30
0.0
 40
15.9446902972506
100
AcDbArc
 50
281.3099618413978
 51
287.9370067029928
  0
ARC
  5
AC81
330
1F
100
AcDbEntity
  8
freecads.com
100
AcDbCircle
 10
11061.04859989577
 20
29664.37594875912
 30
0.0
 40
28.88950443238489
100
AcDbArc
 50
278.5101370767723
 51
281.3099279412773
  0
ARC
  5
AC82
330
1F
100
AcDbEntity
  8
freecads.com
100
AcDbCircle
 10
11058.76481912877
 20
29679.63871708106
 30
0.0
 40
44.32218895065823
100
AcDbArc
 50
276.4784614993829
 51
278.5101166206936
  0
ARC
  5
AC83
330
1F
100
AcDbEntity
  8
freecads.com
100
AcDbCircle
 10
11059.0651331159
 20
29676.99395416573
 30
0.0
 40
41.66043025216623
100
AcDbArc
 50
274.4241349150254
 51
276.4784773620223
  0
ARC
  5
AC84
330
1F
100
AcDbEntity
  8
freecads.com
100
AcDbCircle
 10
11061.12933655861
 20
29650.31433740729
 30
0.0
 40
14.90107887307644
100
AcDbArc
 50
270.0000232680416
 51
274.4240829522288
  0
LINE
  5
AC85
330
1F
100
AcDbEntity
  8
freecads.com
100
AcDbLine
 10
11061.12934261
 20
29635.41325853422
 30
0.0
 11
11058.71538761
 21
29635.41325853422
 31
0.0
  0
LINE
  5
AC86
330
1F
100
AcDbEntity
  8
freecads.com
100
AcDbLine
 10
11058.71538761
 20
29635.41325853422
 30
0.0
 11
11060.75434261
 21
29637.60181953422
 31
0.0
  0
ARC
  5
AC87
330
1F
100
AcDbEntity
  8
freecads.com
100
AcDbCircle
 10
11046.168822185
 20
29651.19029592876
 30
0.0
 40
19.93449514768016
100
AcDbArc
 50
317.0267832586096
 51
320.4294441565416
  0
ARC
  5
AC88
330
1F
100
AcDbEntity
  8
freecads.com
100
AcDbCircle
 10
11050.63296463642
 20
29647.50112737414
 30
0.0
 40
14.14324895621494
100
AcDbArc
 50
320.4293543867133
 51
324.8302751552562
  0
ARC
  5
AC89
330
1F
100
AcDbEntity
  8
freecads.com
100
AcDbCircle
 10
11051.59316870095
 20
29646.82454623868
 30
0.0
 40
12.96861970476479
100
AcDbArc
 50
324.8302435470269
 51
328.7768450532038
  0
ARC
  5
AC8A
330
1F
100
AcDbEntity
  8
freecads.com
100
AcDbCircle
 10
11062.03420346201
 20
29640.49546198897
 30
0.0
 40
0.7590941479861622
100
AcDbArc
 50
328.7768615502013
 51
0.0000411551831145
  0
ARC
  5
AC8B
330
1F
100
AcDbEntity
  8
freecads.com
100
AcDbCircle
 10
11063.49280901312
 20
29640.49546335812
 30
0.0
 40
0.6995114031240368
100
AcDbArc
 50
139.5836586235711
 51
180.0000674843867
  0
ARC
  5
AC8C
330
1F
100
AcDbEntity
  8
freecads.com
100
AcDbCircle
 10
11187.66002983687
 20
29534.75971546401
 30
0.0
 40
163.7870557154386
100
AcDbArc
 50
138.7301631969405
 51
139.5836371832434
  0
ARC
  5
AC8D
330
1F
100
AcDbEntity
  8
freecads.com
100
AcDbCircle
 10
11130.72752842127
 20
29584.7230232016
 30
0.0
 40
88.03983241638011
100
AcDbArc
 50
136.8527189354689
 51
138.7301450418953
  0
ARC
  5
AC8E
330
1F
100
AcDbEntity
  8
freecads.com
100
AcDbCircle
 10
11179.48219818867
 20
29539.02339295573
 30
0.0
 40
154.8640348337002
100
AcDbArc
 50
135.6226254603038
 51
136.8526394449222
  0
ARC
  5
AC8F
330
1F
100
AcDbEntity
  8
freecads.com
100
AcDbCircle
 10
10999.75836472289
 20
29714.88305341332
 30
0.0
 40
96.58631114318476
100
AcDbArc
 50
315.6226016899903
 51
317.6079653770839
  0
ARC
  5
AC90
330
1F
100
AcDbEntity
  8
freecads.com
100
AcDbCircle
 10
11027.48870704746
 20
29689.56888738951
 30
0.0
 40
59.03928879897339
100
AcDbArc
 50
317.6079313330715
 51
320.4785289431146
  0
ARC
  5
AC91
330
1F
100
AcDbEntity
  8
freecads.com
100
AcDbCircle
 10
11015.62241260911
 20
29699.35826014064
 30
0.0
 40
74.42242120283984
100
AcDbArc
 50
320.478479256816
 51
322.3623220585488
  0
ARC
  5
AC92
330
1F
100
AcDbEntity
  8
freecads.com
100
AcDbCircle
 10
11073.65619716649
 20
29654.60540449158
 30
0.0
 40
1.137100443511524
100
AcDbArc
 50
322.362237628867
 51
359.9999517607468
  0
ARC
  5
AC93
330
1F
100
AcDbEntity
  8
freecads.com
100
AcDbCircle
 10
11076.8684288547
 20
29654.60540600134
 30
0.0
 40
2.075131244704482
100
AcDbArc
 50
168.8892743870393
 51
180.0000681188806
  0
ARC
  5
AC94
330
1F
100
AcDbEntity
  8
freecads.com
100
AcDbCircle
 10
11075.30246763301
 20
29654.91293952549
 30
0.0
 40
0.4792579990073095
100
AcDbArc
 50
135.9081177686051
 51
168.8892402174243
  0
ARC
  5
AC95
330
1F
100
AcDbEntity
  8
freecads.com
100
AcDbCircle
 10
11075.09968286956
 20
29655.10939581316
 30
0.0
 40
0.1969164801856432
100
AcDbArc
 50
77.50261862574979
 51
135.9080937216435
  0
ARC
  5
AC96
330
1F
100
AcDbEntity
  8
freecads.com
100
AcDbCircle
 10
11075.04856262124
 20
29654.87875928819
 30
0.0
 40
0.4331504456520089
100
AcDbArc
 50
44.99993052886404
 51
77.50256430595425
  0
ARC
  5
AC97
330
1F
100
AcDbEntity
  8
freecads.com
100
AcDbCircle
 10
11074.88186830952
 20
29654.71206458608
 30
0.0
 40
0.6688920781094224
100
AcDbArc
 50
1.07977520559291
 51
44.99997865897052
  0
ARC
  5
AC98
330
1F
100
AcDbEntity
  8
freecads.com
100
AcDbCircle
 10
11029.56409348988
 20
29653.85785706434
 30
0.0
 40
45.99471678205472
100
AcDbArc
 50
358.953784456899
 51
1.079855252749565
  0
ARC
  5
AC99
330
1F
100
AcDbEntity
  8
freecads.com
100
AcDbCircle
 10
11038.65493116572
 20
29653.69185596358
 30
0.0
 40
36.90236362054799
100
AcDbArc
 50
355.7337207825158
 51
358.9537608739334
  0
ARC
  5
AC9A
330
1F
100
AcDbEntity
  8
freecads.com
100
AcDbCircle
 10
11013.83115498087
 20
29655.54366918248
 30
0.0
 40
61.79511510111892
100
AcDbArc
 50
353.5450924107895
 51
355.7337246535653
  0
ARC
  5
AC9B
330
1F
100
AcDbEntity
  8
freecads.com
100
AcDbCircle
 10
11098.85183281716
 20
29638.11999546312
 30
0.0
 40
0.6467938419370359
100
AcDbArc
 50
289.25430816371
 51
341.8081472889738
  0
ARC
  5
AC9C
330
1F
100
AcDbEntity
  8
freecads.com
100
AcDbCircle
 10
11094.47715502214
 20
29650.64419472343
 30
0.0
 40
13.91304323361314
100
AcDbArc
 50
283.5913322492558
 51
289.2542110887044
  0
ARC
  5
AC9D
330
1F
100
AcDbEntity
  8
freecads.com
100
AcDbCircle
 10
11093.88273027427
 20
29653.10296889108
 30
0.0
 40
16.44265015723138
100
AcDbArc
 50
277.5335269224026
 51
283.5912590737056
  0
ARC
  5
AC9E
330
1F
100
AcDbEntity
  8
freecads.com
100
AcDbCircle
 10
11092.47658032635
 20
29663.73551799387
 30
0.0
 40
27.16777757367658
100
AcDbArc
 50
273.3748064507791
 51
277.533565154962
  0
ARC
  5
AC9F
330
1F
100
AcDbEntity
  8
freecads.com
100
AcDbCircle
 10
11095.61386647612
 20
29610.53380187284
 30
0.0
 40
26.12636058998076
100
AcDbArc
 50
93.3748001356327
 51
98.60980699137774
  0
ARC
  5
ACA0
330
1F
100
AcDbEntity
  8
freecads.com
100
AcDbCircle
 10
11093.43256106937
 20
29624.94033009452
 30
0.0
 40
11.55563141537984
100
AcDbArc
 50
98.60980448265394
 51
108.2424243637286
  0
ARC
  5
ACA1
330
1F
100
AcDbEntity
  8
freecads.com
100
AcDbCircle
 10
11092.23260970901
 20
29628.58091775915
 30
0.0
 40
7.722387122220018
100
AcDbArc
 50
108.2424295699377
 51
120.2168816649902
  0
ARC
  5
ACA2
330
1F
100
AcDbEntity
  8
freecads.com
100
AcDbCircle
 10
11090.66335840917
 20
29631.27534464419
 30
0.0
 40
4.604297020752978
100
AcDbArc
 50
120.2169417392071
 51
137.8552614793242
  0
ARC
  5
ACA3
330
1F
100
AcDbEntity
  8
freecads.com
100
AcDbCircle
 10
11080.22759214989
 20
29640.71959658483
 30
0.0
 40
9.470471614521796
100
AcDbArc
 50
311.420337738158
 51
317.8552540806018
  0
ARC
  5
ACA4
330
1F
100
AcDbEntity
  8
freecads.com
100
AcDbCircle
 10
11081.0004007973
 20
29639.84365047569
 30
0.0
 40
8.302347138442138
100
AcDbArc
 50
304.3176781825307
 51
311.42030925188
  0
ARC
  5
ACA5
330
1F
100
AcDbEntity
  8
freecads.com
100
AcDbCircle
 10
11081.89575311576
 20
29638.53199000654
 30
0.0
 40
6.714232230608665
100
AcDbArc
 50
296.8512073290852
 51
304.3176425075115
  0
ARC
  5
ACA6
330
1F
100
AcDbEntity
  8
freecads.com
100
AcDbCircle
 10
11084.390455617
 20
29633.60427217008
 30
0.0
 40
1.191013635860826
100
AcDbArc
 50
269.9999996631596
 51
296.8510883516824
  0
ARC
  5
ACA7
330
1F
100
AcDbEntity
  8
freecads.com
100
AcDbCircle
 10
11084.39045569482
 20
29632.5831378181
 30
0.0
 40
0.1698792838792754
100
AcDbArc
 50
146.971109907169
 51
269.9999713916001
  0
ARC
  5
ACA8
330
1F
100
AcDbEntity
  8
freecads.com
100
AcDbCircle
 10
11093.68573640124
 20
29626.54004158896
 30
0.0
 40
11.25686514324801
100
AcDbArc
 50
140.524723746126
 51
146.9710901969588
  0
ARC
  5
ACA9
330
1F
100
AcDbEntity
  8
freecads.com
100
AcDbCircle
 10
11101.56885552147
 20
29620.04740376924
 30
0.0
 40
21.46950010792106
100
AcDbArc
 50
135.4667716101652
 51
140.5247092434711
  0
ARC
  5
ACAA
330
1F
100
AcDbEntity
  8
freecads.com
100
AcDbCircle
 10
11125.49976664582
 20
29596.50324063533
 30
0.0
 40
55.04056093294904
100
AcDbArc
 50
132.962568335211
 51
135.4667526033095
  0
ARC
  5
ACAB
330
1F
100
AcDbEntity
  8
freecads.com
100
AcDbCircle
 10
11157.32292588791
 20
29562.33219758304
 30
0.0
 40
101.7350322054935
100
AcDbArc
 50
130.6993998943972
 51
132.9625096242282
  0
ARC
  5
ACAC
330
1F
100
AcDbEntity
  8
freecads.com
100
AcDbCircle
 10
11094.50542000909
 20
29635.36583701092
 30
0.0
 40
5.402527136251175
100
AcDbArc
 50
111.5315952500101
 51
130.6994275385053
  0
ARC
  5
ACAD
330
1F
100
AcDbEntity
  8
freecads.com
100
AcDbCircle
 10
11093.56268809571
 20
29637.75524408836
 30
0.0
 40
2.833868022584455
100
AcDbArc
 50
81.32948648531728
 51
111.5316509545312
  0
ARC
  5
ACAE
330
1F
100
AcDbEntity
  8
freecads.com
100
AcDbCircle
 10
11091.69932928208
 20
29625.53599610194
 30
0.0
 40
15.19437478492627
100
AcDbArc
 50
72.6201901869105
 51
81.32953743870315
  0
ARC
  5
ACAF
330
1F
100
AcDbEntity
  8
freecads.com
100
AcDbCircle
 10
11092.2559377148
 20
29627.31440153176
 30
0.0
 40
13.33089985359954
100
AcDbArc
 50
66.47190508273604
 51
72.62010038550456
  0
ARC
  5
ACB0
330
1F
100
AcDbEntity
  8
freecads.com
100
AcDbCircle
 10
11094.70218279116
 20
29632.93285203029
 30
0.0
 40
7.203004539708453
100
AcDbArc
 50
56.7248743464963
 51
66.47188106459194
  0
ARC
  5
ACB1
330
1F
100
AcDbEntity
  8
freecads.com
100
AcDbCircle
 10
11096.27274947075
 20
29635.32606845232
 30
0.0
 40
4.340459424308384
100
AcDbArc
 50
44.70681445212997
 51
56.72492069772061
  0
ARC
  5
ACB2
330
1F
100
AcDbEntity
  8
freecads.com
100
AcDbCircle
 10
11099.03470328086
 20
29638.05989936389
 30
0.0
 40
0.4543019001898523
100
AcDbArc
 50
341.8081668456689
 51
44.70685285927858
  0
ARC
  5
ACB3
330
1F
100
AcDbEntity
  8
freecads.com
100
AcDbCircle
 10
11019.85589318033
 20
29636.26152605002
 30
0.0
 40
2.042403009537178
100
AcDbArc
 50
49.28454259608987
 51
79.49549083495516
  0
ARC
  5
ACB4
330
1F
100
AcDbEntity
  8
freecads.com
100
AcDbCircle
 10
11018.57660972048
 20
29634.77503183037
 30
0.0
 40
4.00358409136093
100
AcDbArc
 50
31.02348492509078
 51
49.28455524432826
  0
ARC
  5
ACB5
330
1F
100
AcDbEntity
  8
freecads.com
100
AcDbCircle
 10
11015.00250199684
 20
29632.62548904819
 30
0.0
 40
8.174289090828089
100
AcDbArc
 50
18.88018190937602
 51
31.02353185688083
  0
ARC
  5
ACB6
330
1F
100
AcDbEntity
  8
freecads.com
100
AcDbCircle
 10
10993.95774876059
 20
29625.42838294616
 30
0.0
 40
30.41569136267894
100
AcDbArc
 50
14.31111960879377
 51
18.88019636413236
  0
ARC
  5
ACB7
330
1F
100
AcDbEntity
  8
freecads.com
100
AcDbCircle
 10
10932.7038153105
 20
29609.80239524052
 30
0.0
 40
93.63132119329618
100
AcDbArc
 50
13.10166930044645
 51
14.31105738874364
  0
ARC
  5
ACB8
330
1F
100
AcDbEntity
  8
freecads.com
100
AcDbCircle
 10
10974.53675900624
 20
29619.53855794649
 30
0.0
 40
50.68032536684508
100
AcDbArc
 50
11.1868371940526
 51
13.10161759180807
  0
ARC
  5
ACB9
330
1F
100
AcDbEntity
  8
freecads.com
100
AcDbCircle
 10
10913.90967863253
 20
29607.5484615335
 30
0.0
 40
112.4816626228485
100
AcDbArc
 50
10.45372525713087
 51
11.1868795508904
  0
ARC
  5
ACBA
330
1F
100
AcDbEntity
  8
freecads.com
100
AcDbCircle
 10
11024.28933744589
 20
29627.91392534707
 30
0.0
 40
0.2389737914766279
100
AcDbArc
 50
315.0000595509096
 51
10.45383773191514
  0
ARC
  5
ACBB
330
1F
100
AcDbEntity
  8
freecads.com
100
AcDbCircle
 10
11024.32175713148
 20
29627.88150535692
 30
0.0
 40
0.1931252170722407
100
AcDbArc
 50
247.6426003970634
 51
315.0001375781782
  0
ARC
  5
ACBC
330
1F
100
AcDbEntity
  8
freecads.com
100
AcDbCircle
 10
11109.64303331986
 20
29835.32234521479
 30
0.0
 40
224.4952032532591
100
AcDbArc
 50
247.1556474846553
 51
247.6424316953748
  0
ARC
  5
ACBD
330
1F
100
AcDbEntity
  8
freecads.com
100
AcDbCircle
 10
11052.9067634846
 20
29700.64415570303
 30
0.0
 40
78.35411031572681
100
AcDbArc
 50
245.5314915750009
 51
247.1556851410629
  0
ARC
  5
ACBE
330
1F
100
AcDbEntity
  8
freecads.com
100
AcDbCircle
 10
11082.52332734943
 20
29765.72620723651
 30
0.0
 40
149.8580562694689
100
AcDbArc
 50
244.5317476523298
 51
245.5314380729423
  0
ARC
  5
ACBF
330
1F
100
AcDbEntity
  8
freecads.com
100
AcDbCircle
 10
11091.13445632442
 20
29783.80534948494
 30
0.0
 40
169.8832136135061
100
AcDbArc
 50
243.0264598742805
 51
244.5317129489943
  0
ARC
  5
ACC0
330
1F
100
AcDbEntity
  8
freecads.com
100
AcDbCircle
 10
11015.86728272663
 20
29635.91641120499
 30
0.0
 40
3.942605301460747
100
AcDbArc
 50
220.4240052661492
 51
243.0265047250986
  0
ARC
  5
ACC1
330
1F
100
AcDbEntity
  8
freecads.com
100
AcDbCircle
 10
11013.88451284414
 20
29634.2275095851
 30
0.0
 40
1.338039101776575
100
AcDbArc
 50
170.8352361538846
 51
220.4240299464064
  0
ARC
  5
ACC2
330
1F
100
AcDbEntity
  8
freecads.com
100
AcDbCircle
 10
11022.14312378208
 20
29632.89510675483
 30
0.0
 40
9.703441179763888
100
AcDbArc
 50
159.3206241085674
 51
170.8351697828275
  0
ARC
  5
ACC3
330
1F
100
AcDbEntity
  8
freecads.com
100
AcDbCircle
 10
11023.20869146758
 20
29632.49291289751
 30
0.0
 40
10.84238559944649
100
AcDbArc
 50
152.9512640645801
 51
159.3206851715992
  0
ARC
  5
ACC4
330
1F
100
AcDbEntity
  8
freecads.com
100
AcDbCircle
 10
11018.28039637932
 20
29635.00928479457
 30
0.0
 40
5.308831587667178
100
AcDbArc
 50
142.0846515716898
 51
152.9512400303226
  0
ARC
  5
ACC5
330
1F
100
AcDbEntity
  8
freecads.com
100
AcDbCircle
 10
11016.26125872128
 20
29636.58201542792
 30
0.0
 40
2.749456951719497
100
AcDbArc
 50
127.1366584581518
 51
142.0847500437113
  0
ARC
  5
ACC6
330
1F
100
AcDbEntity
  8
freecads.com
100
AcDbCircle
 10
11014.80863222586
 20
29638.50018078986
 30
0.0
 40
0.343322688852949
100
AcDbArc
 50
58.28253243331629
 51
127.1367571500776
  0
ARC
  5
ACC7
330
1F
100
AcDbEntity
  8
freecads.com
100
AcDbCircle
 10
11015.32230400898
 20
29639.33132102247
 30
0.0
 40
0.6337406596755956
100
AcDbArc
 50
238.2826087882717
 51
267.5083237347353
  0
ARC
  5
ACC8
330
1F
100
AcDbEntity
  8
freecads.com
100
AcDbCircle
 10
11015.31124332534
 20
29639.07710056304
 30
0.0
 40
0.3792796986046531
100
AcDbArc
 50
267.5080492273806
 51
310.4020955759807
  0
ARC
  5
ACC9
330
1F
100
AcDbEntity
  8
freecads.com
100
AcDbCircle
 10
11015.18945447579
 20
29639.22018821952
 30
0.0
 40
0.5671802076751497
100
AcDbArc
 50
310.4023020779159
 51
343.7308268246668
  0
ARC
  5
ACCA
330
1F
100
AcDbEntity
  8
freecads.com
100
AcDbCircle
 10
11014.31054050154
 20
29639.47668634256
 30
0.0
 40
1.482757108455662
100
AcDbArc
 50
343.7308665967871
 51
0.0000074061111877
  0
ARC
  5
ACCB
330
1F
100
AcDbEntity
  8
freecads.com
100
AcDbCircle
 10
11017.28396009161
 20
29639.47668702355
 30
0.0
 40
1.490662481607922
100
AcDbArc
 50
161.6460371836431
 51
180.0000188082415
  0
ARC
  5
ACCC
330
1F
100
AcDbEntity
  8
freecads.com
100
AcDbCircle
 10
11016.12927525824
 20
29639.85977032918
 30
0.0
 40
0.2740894737506164
100
AcDbArc
 50
97.59294860492003
 51
161.6462295789563
  0
ARC
  5
ACCD
330
1F
100
AcDbEntity
  8
freecads.com
100
AcDbCircle
 10
11016.16828955666
 20
29639.56707938309
 30
0.0
 40
0.5693691808101916
100
AcDbArc
 50
58.41941836732505
 51
97.59271423540624
  0
ARC
  5
ACCE
330
1F
100
AcDbEntity
  8
freecads.com
100
AcDbCircle
 10
11013.63271959364
 20
29635.44241219187
 30
0.0
 40
5.411062528768006
100
AcDbArc
 50
50.92794097014074
 51
58.41955945380372
  0
ARC
  5
ACCF
330
1F
100
AcDbEntity
  8
freecads.com
100
AcDbCircle
 10
11019.64463206844
 20
29642.84743751396
 30
0.0
 40
4.127149653054654
100
AcDbArc
 50
230.9278830192257
 51
241.2700791206243
  0
ARC
  5
ACD0
330
1F
100
AcDbEntity
  8
freecads.com
100
AcDbCircle
 10
11022.39449555795
 20
29647.86395742961
 30
0.0
 40
9.847920691564116
100
AcDbArc
 50
241.2701141281139
 51
246.6702730634712
  0
ARC
  5
ACD1
330
1F
100
AcDbEntity
  8
freecads.com
100
AcDbCircle
 10
11022.60168638142
 20
29648.34439957721
 30
0.0
 40
10.37113450476941
100
AcDbArc
 50
246.6703533307363
 51
251.9949232344735
  0
ARC
  5
ACD2
330
1F
100
AcDbEntity
  8
freecads.com
100
AcDbCircle
 10
11021.42497941368
 20
29644.72394157955
 30
0.0
 40
6.564251869231034
100
AcDbArc
 50
251.9948749404867
 51
259.495650944903
  0
ARC
  5
ACD3
330
1F
100
AcDbEntity
  8
freecads.com
100
AcDbCircle
 10
11001.31732179545
 20
29615.77154643056
 30
0.0
 40
3.328494414643499
100
AcDbArc
 50
67.38347947137953
 51
81.00473050647867
  0
ARC
  5
ACD4
330
1F
100
AcDbEntity
  8
freecads.com
100
AcDbCircle
 10
10996.93888108851
 20
29605.26161841044
 30
0.0
 40
14.71398210785469
100
AcDbArc
 50
62.86471692694875
 51
67.38339321338433
  0
ARC
  5
ACD5
330
1F
100
AcDbEntity
  8
freecads.com
100
AcDbCircle
 10
10995.96468647017
 20
29603.36081860442
 30
0.0
 40
16.84988825195669
100
AcDbArc
 50
58.43805029298047
 51
62.86463005151056
  0
ARC
  5
ACD6
330
1F
100
AcDbEntity
  8
freecads.com
100
AcDbCircle
 10
10996.78866584728
 20
29604.70217333666
 30
0.0
 40
15.27566637063265
100
AcDbArc
 50
53.67356101989205
 51
58.43804991521708
  0
LINE
  5
ACD7
330
1F
100
AcDbEntity
  8
freecads.com
100
AcDbLine
 10
11005.83774161
 20
29617.00909053422
 30
0.0
 11
11008.29329761
 21
29615.20356153422
 31
0.0
  0
LINE
  5
ACD8
330
1F
100
AcDbEntity
  8
freecads.com
100
AcDbLine
 10
11008.29329761
 20
29615.20356153422
 30
0.0
 11
11005.29329761
 21
29615.82316053422
 31
0.0
  0
ARC
  5
ACD9
330
1F
100
AcDbEntity
  8
freecads.com
100
AcDbCircle
 10
10998.55089667356
 20
29583.17769961104
 30
0.0
 40
33.33445798680882
100
AcDbArc
 50
78.33054666998051
 51
81.0205745695422
  0
ARC
  5
ACDA
330
1F
100
AcDbEntity
  8
freecads.com
100
AcDbCircle
 10
10980.73216944513
 20
29470.41346091303
 30
0.0
 40
147.4978521601606
100
AcDbArc
 50
81.02052362096085
 51
81.91227063295773
  0
ARC
  5
ACDB
330
1F
100
AcDbEntity
  8
freecads.com
100
AcDbCircle
 10
10978.36004533735
 20
29453.7206128321
 30
0.0
 40
164.3584022649195
100
AcDbArc
 50
81.91226120963918
 51
82.79965380804576
  0
ARC
  5
ACDC
330
1F
100
AcDbEntity
  8
freecads.com
100
AcDbCircle
 10
10981.5474213993
 20
29478.95096126242
 30
0.0
 40
138.9275185197471
100
AcDbArc
 50
82.79960755115876
 51
83.80617333348013
  0
ARC
  5
ACDD
330
1F
100
AcDbEntity
  8
freecads.com
100
AcDbCircle
 10
11005.24800166595
 20
29697.3380372234
 30
0.0
 40
80.7418522440629
100
AcDbArc
 50
261.7092350655588
 51
263.8062020759045
  0
ARC
  5
ACDE
330
1F
100
AcDbEntity
  8
freecads.com
100
AcDbCircle
 10
10994.49163426491
 20
29623.52246326376
 30
0.0
 40
6.146688870984785
100
AcDbArc
 50
247.9131972031767
 51
261.7091467775849
  0
ARC
  5
ACDF
330
1F
100
AcDbEntity
  8
freecads.com
100
AcDbCircle
 10
10992.48236517323
 20
29618.57096083166
 30
0.0
 40
0.8030441767903385
100
AcDbArc
 50
197.3051665670572
 51
247.9132552186358
  0
ARC
  5
ACE0
330
1F
100
AcDbEntity
  8
freecads.com
100
AcDbCircle
 10
10992.36871556712
 20
29618.53555163657
 30
0.0
 40
0.6840061825755618
100
AcDbArc
 50
140.30982365013
 51
197.3051632140147
  0
ARC
  5
ACE1
330
1F
100
AcDbEntity
  8
freecads.com
100
AcDbCircle
 10
10993.3747015113
 20
29617.70065707779
 30
0.0
 40
1.991315114761916
100
AcDbArc
 50
104.1487369877209
 51
140.3098178745569
  0
ARC
  5
ACE2
330
1F
100
AcDbEntity
  8
freecads.com
100
AcDbCircle
 10
10994.69189425212
 20
29612.47548842978
 30
0.0
 40
7.379949832064117
100
AcDbArc
 50
90.49707489605564
 51
104.1486995007555
  0
ARC
  5
ACE3
330
1F
100
AcDbEntity
  8
freecads.com
100
AcDbCircle
 10
10994.80467497208
 20
29599.47504572341
 30
0.0
 40
20.38088172375895
100
AcDbArc
 50
82.83235898808571
 51
90.4970505322618
  0
ARC
  5
ACE4
330
1F
100
AcDbEntity
  8
freecads.com
100
AcDbCircle
 10
10979.60547621688
 20
29478.61416459955
 30
0.0
 40
142.1937227087154
100
AcDbArc
 50
81.0047868395679
 51
82.83225429058132
  0
ARC
  5
ACE5
330
1F
100
AcDbEntity
  8
freecads.com
100
AcDbCircle
 10
11061.33335242113
 20
29615.10877511074
 30
0.0
 40
4.484318047983643
100
AcDbArc
 50
119.3820984616201
 51
129.6902155417379
  0
ARC
  5
ACE6
330
1F
100
AcDbEntity
  8
freecads.com
100
AcDbCircle
 10
11059.3058179905
 20
29618.70969927759
 30
0.0
 40
0.3518187167346862
100
AcDbArc
 50
53.24759624319121
 51
119.3821033786395
  0
ARC
  5
ACE7
330
1F
100
AcDbEntity
  8
freecads.com
100
AcDbCircle
 10
11059.17709440151
 20
29618.53733358816
 30
0.0
 40
0.5669458727437445
100
AcDbArc
 50
5.835198255683045
 51
53.24753471228717
  0
ARC
  5
ACE8
330
1F
100
AcDbEntity
  8
freecads.com
100
AcDbCircle
 10
11049.72064172217
 20
29617.57088358206
 30
0.0
 40
10.07265588783045
100
AcDbArc
 50
0.0000167926187165
 51
5.835361938654979
  0
ARC
  5
ACE9
330
1F
100
AcDbEntity
  8
freecads.com
100
AcDbCircle
 10
11056.52240360665
 20
29617.57088784237
 30
0.0
 40
3.270894003355158
100
AcDbArc
 50
328.4493264722235
 51
359.9999770854741
  0
ARC
  5
ACEA
330
1F
100
AcDbEntity
  8
freecads.com
100
AcDbCircle
 10
11056.27930489005
 20
29617.72015675974
 30
0.0
 40
3.556162641138809
100
AcDbArc
 50
298.8144394823191
 51
328.4492999441675
  0
ARC
  5
ACEB
330
1F
100
AcDbEntity
  8
freecads.com
100
AcDbCircle
 10
11055.55162992923
 20
29619.04300033356
 30
0.0
 40
5.065939435698125
100
AcDbArc
 50
274.7766515131279
 51
298.814452923649
  0
ARC
  5
ACEC
330
1F
100
AcDbEntity
  8
freecads.com
100
AcDbCircle
 10
11055.22180289451
 20
29622.99014099757
 30
0.0
 40
9.026836467221391
100
AcDbArc
 50
259.1778044375242
 51
274.7766271641786
  0
ARC
  5
ACED
330
1F
100
AcDbEntity
  8
freecads.com
100
AcDbCircle
 10
11052.30851409155
 20
29607.75024568477
 30
0.0
 40
6.489015452495789
100
AcDbArc
 50
79.17776723968737
 51
89.4277888300374
  0
ARC
  5
ACEE
330
1F
100
AcDbEntity
  8
freecads.com
100
AcDbCircle
 10
11052.29935033836
 20
29606.83410666648
 30
0.0
 40
7.405200300122844
100
AcDbArc
 50
89.42768053680996
 51
98.7111623377191
  0
ARC
  5
ACEF
330
1F
100
AcDbEntity
  8
freecads.com
100
AcDbCircle
 10
11052.14353281494
 20
29607.85102612637
 30
0.0
 40
6.37641252391702
100
AcDbArc
 50
98.71112486984856
 51
108.5361406274806
  0
ARC
  5
ACF0
330
1F
100
AcDbEntity
  8
freecads.com
100
AcDbCircle
 10
11050.841653028
 20
29611.73379540273
 30
0.0
 40
2.281197238598146
100
AcDbArc
 50
108.5361537829374
 51
129.6902085872285
  0
ARC
  5
ACF1
330
1F
100
AcDbEntity
  8
freecads.com
100
AcDbCircle
 10
11044.98910928014
 20
29618.78567647983
 30
0.0
 40
6.882933655609416
100
AcDbArc
 50
302.3366089034996
 51
309.6901748798323
  0
ARC
  5
ACF2
330
1F
100
AcDbEntity
  8
freecads.com
100
AcDbCircle
 10
11048.2452409304
 20
29613.64226297503
 30
0.0
 40
0.795479688212089
100
AcDbArc
 50
266.3673979201521
 51
302.3366691010529
  0
ARC
  5
ACF3
330
1F
100
AcDbEntity
  8
freecads.com
100
AcDbCircle
 10
11048.22432311942
 20
29613.31276511884
 30
0.0
 40
0.4653185274912646
100
AcDbArc
 50
214.798798551859
 51
266.3673150135069
  0
ARC
  5
ACF4
330
1F
100
AcDbEntity
  8
freecads.com
100
AcDbCircle
 10
11049.641793648
 20
29614.29788390813
 30
0.0
 40
2.191493990297014
100
AcDbArc
 50
198.4349247123177
 51
214.7986952502998
  0
ARC
  5
ACF5
330
1F
100
AcDbEntity
  8
freecads.com
100
AcDbCircle
 10
11048.70366581599
 20
29613.98517463718
 30
0.0
 40
1.202620430472163
100
AcDbArc
 50
125.3302337137511
 51
198.4349051751773
  0
ARC
  5
ACF6
330
1F
100
AcDbEntity
  8
freecads.com
100
AcDbCircle
 10
11065.83946471397
 20
29589.81041640378
 30
0.0
 40
30.83460550597345
100
AcDbArc
 50
118.3294277814536
 51
125.3301688869225
  0
ARC
  5
ACF7
330
1F
100
AcDbEntity
  8
freecads.com
100
AcDbCircle
 10
11065.88757273253
 20
29589.72121845484
 30
0.0
 40
30.9359497471152
100
AcDbArc
 50
111.2881931666803
 51
118.3294616253206
  0
ARC
  5
ACF8
330
1F
100
AcDbEntity
  8
freecads.com
100
AcDbCircle
 10
11055.21152988231
 20
29617.12053953941
 30
0.0
 40
1.530156324136069
100
AcDbArc
 50
48.79622344415483
 51
111.2882692839188
  0
ARC
  5
ACF9
330
1F
100
AcDbEntity
  8
freecads.com
100
AcDbCircle
 10
11056.87887777526
 20
29619.02488285743
 30
0.0
 40
1.00096446892525
100
AcDbArc
 50
228.7962402534918
 51
258.1549763473597
  0
ARC
  5
ACFA
330
1F
100
AcDbEntity
  8
freecads.com
100
AcDbCircle
 10
11057.03751631692
 20
29619.78125306861
 30
0.0
 40
1.77379179973704
100
AcDbArc
 50
258.1548446558322
 51
277.2869458301485
  0
ARC
  5
ACFB
330
1F
100
AcDbEntity
  8
freecads.com
100
AcDbCircle
 10
11056.98057164614
 20
29620.22656461832
 30
0.0
 40
2.222729514602222
100
AcDbArc
 50
277.2869986706187
 51
294.2690297468681
  0
ARC
  5
ACFC
330
1F
100
AcDbEntity
  8
freecads.com
100
AcDbCircle
 10
11056.8552153524
 20
29620.50459531244
 30
0.0
 40
2.527713558860473
100
AcDbArc
 50
294.2690607553277
 51
309.6901662612888
  0
ENDSEC
  0
SECTION
  2
OBJECTS
  0
DICTIONARY
  5
C
330
0
100
AcDbDictionary
281
     1
  3
ACAD_CIP_PREVIOUS_PRODUCT_INFO
350
1A5
  3
ACAD_COLOR
350
73
  3
ACAD_DETAILVIEWSTYLE
350
1AB
  3
ACAD_GROUP
350
D
  3
ACAD_LAYOUT
350
1A
  3
ACAD_MATERIAL
350
72
  3
ACAD_MLEADERSTYLE
350
D7
  3
ACAD_MLINESTYLE
350
17
  3
ACAD_PLOTSETTINGS
350
19
  3
ACAD_PLOTSTYLENAME
350
E
  3
ACAD_SCALELIST
350
B6
  3
ACAD_SECTIONVIEWSTYLE
350
1A8
  3
ACAD_TABLESTYLE
350
86
  3
ACAD_VISUALSTYLE
350
99
  3
ACDB_RECOMPOSE_DATA
350
AD54
  3
AcDbVariableDictionary
350
66
  3
AEC_PROPERTY_SET_DEFS
350
268B
  0
DICTIONARY
  5
18E
330
2
100
AcDbDictionary
280
     1
281
     1
  3
ACAD_LAYERSTATES
360
18F
  0
DICTIONARY
  5
E6
330
10
100
AcDbDictionary
280
     1
281
     1
  0
DICTIONARY
  5
15D
330
1F
100
AcDbDictionary
280
     1
281
     1
  3
ACAD_SORTENTS
360
28E
  0
XRECORD
  5
1A5
102
{ACAD_REACTORS
330
C
102
}
330
C
100
AcDbXrecord
280
     1
300
ACD
300
2022
300

  0
DICTIONARY
  5
73
102
{ACAD_REACTORS
330
C
102
}
330
C
100
AcDbDictionary
281
     1
  0
DICTIONARY
  5
1AB
102
{ACAD_REACTORS
330
C
102
}
330
C
100
AcDbDictionary
281
     1
  3
Imperial24
350
1AC
  3
Metric50
350
224
  0
DICTIONARY
  5
D
102
{ACAD_REACTORS
330
C
102
}
330
C
100
AcDbDictionary
281
     1
  0
DICTIONARY
  5
1A
102
{ACAD_REACTORS
330
C
102
}
330
C
100
AcDbDictionary
281
     1
  3
Layout1
350
59
  3
Layout2
350
5E
  3
Model
350
22
  0
DICTIONARY
  5
72
102
{ACAD_REACTORS
330
C
102
}
330
C
100
AcDbDictionary
281
     1
  3
ByBlock
350
97
  3
ByLayer
350
96
  3
Global
350
98
  0
DICTIONARY
  5
D7
102
{ACAD_REACTORS
330
C
102
}
330
C
100
AcDbDictionary
281
     1
  3
Standard
350
D8
  0
DICTIONARY
  5
17
102
{ACAD_REACTORS
330
C
102
}
330
C
100
AcDbDictionary
281
     1
  3
Standard
350
18
  0
DICTIONARY
  5
19
102
{ACAD_REACTORS
330
C
102
}
330
C
100
AcDbDictionary
281
     1
  0
ACDBDICTIONARYWDFLT
  5
E
102
{ACAD_REACTORS
330
C
102
}
330
C
100
AcDbDictionary
281
     1
  3
Normal
350
F
100
AcDbDictionaryWithDefault
340
F
  0
DICTIONARY
  5
B6
102
{ACAD_REACTORS
330
C
102
}
330
C
100
AcDbDictionary
281
     1
  3
*A1
350
47D1
  3
*A2
350
8BD6
  3
A0
350
B7
  3
A1
350
124
  3
A2
350
125
  3
A3
350
126
  3
A4
350
127
  3
A5
350
128
  3
A6
350
129
  3
A7
350
12A
  3
A8
350
12B
  3
A9
350
12C
  3
B0
350
12D
  3
B1
350
12E
  3
B2
350
12F
  3
B3
350
130
  3
B4
350
131
  3
B5
350
132
  3
B6
350
133
  3
B7
350
134
  3
B8
350
135
  3
B9
350
136
  3
C0
350
137
  3
C1
350
138
  3
C2
350
139
  3
C3
350
13A
  3
C4
350
13B
  3
C5
350
13C
  3
C6
350
13D
  3
C7
350
13E
  3
C8
350
13F
  3
C9
350
140
  3
D0
350
141
  3
D1
350
142
  3
D2
350
143
  0
DICTIONARY
  5
1A8
102
{ACAD_REACTORS
330
C
102
}
330
C
100
AcDbDictionary
281
     1
  3
Imperial24
350
1AA
  3
Metric50
350
223
  0
DICTIONARY
  5
86
102
{ACAD_REACTORS
330
C
102
}
330
C
100
AcDbDictionary
281
     1
  3
Standard
350
87
  0
DICTIONARY
  5
99
102
{ACAD_REACTORS
330
C
102
}
330
C
100
AcDbDictionary
281
     1
  3
2dWireframe
350
9F
  3
3dWireframe
350
2684
  3
Basic
350
9E
  3
Brighten
350
A5
  3
ColorChange
350
A9
  3
Conceptual
350
A2
  3
Dim
350
A4
  3
EdgeColorOff
350
175
  3
Facepattern
350
A8
  3
Flat
350
9A
  3
FlatWithEdges
350
9B
  3
Gouraud
350
9C
  3
GouraudWithEdges
350
9D
  3
Hidden
350
A1
  3
JitterOff
350
173
  3
Linepattern
350
A7
  3
OverhangOff
350
174
  3
Realistic
350
A3
  3
Shaded
350
182
  3
Shaded with edges
350
181
  3
Shades of Gray
350
17E
  3
Sketchy
350
17F
  3
Thicken
350
A6
  3
Wireframe
350
A0
  3
X-Ray
350
180
  0
XRECORD
  5
AD54
102
{ACAD_REACTORS
330
C
102
}
330
C
100
AcDbXrecord
280
     1
 90
        1
330
87
  0
DICTIONARY
  5
66
102
{ACAD_REACTORS
330
C
102
}
330
C
100
AcDbDictionary
281
     1
  3
CANNOSCALE
350
F0
  3
CMLEADERSTYLE
350
EF
  3
CTABLESTYLE
350
89
  3
CVIEWDETAILSTYLE
350
1B7
  3
CVIEWSECTIONSTYLE
350
1B8
  3
DIMASSOC
350
67
  3
HIDETEXT
350
6B
  3
LAYEREVAL
350
14D
  3
LAYERNOTIFY
350
14E
  0
DICTIONARY
  5
268B
102
{ACAD_REACTORS
330
C
102
}
330
C
100
AcDbDictionary
281
     1
  0
DICTIONARY
  5
18F
102
{ACAD_REACTORS
330
18E
102
}
330
18E
100
AcDbDictionary
281
     1
  0
SORTENTSTABLE
  5
28E
102
{ACAD_REACTORS
330
15D
102
}
330
15D
100
AcDbSortentsTable
330
1F
  0
ACDBDETAILVIEWSTYLE
  5
1AC
102
{ACAD_REACTORS
330
1AB
102
}
330
1AB
100
AcDbModelDocViewStyle
 70
     0
  3
Imperial24
290
     0
300
Imperial24
 90
        0
100
AcDbDetailViewStyle
 70
     0
 71
     0
 90
        3
 71
     1
340
11
 62
   256
 40
0.24
340
0
 62
   256
 40
0.24
300

 40
0.36
280
     3
 71
     2
340
16
 90
       25
 62
   256
 71
     3
340
11
 62
   256
 40
0.24
 90
        1
 40
0.75
 90
        1
300
%<\AcVar ViewType \f "%tc1">% %<\AcVar ViewDetailId>%\PSCALE %<\AcVar ViewScale \f "%sn">%
 71
     4
340
16
 90
       25
 62
   256
340
16
 90
       25
 62
   256
280
     0
  0
ACDBDETAILVIEWSTYLE
  5
224
102
{ACAD_REACTORS
330
1AB
102
}
330
1AB
100
AcDbModelDocViewStyle
 70
     0
  3
Metric50
290
     0
300
Metric50
 90
        0
100
AcDbDetailViewStyle
 70
     0
 71
     0
 90
        3
 71
     1
340
11
 62
   256
 40
5.0
340
0
 62
   256
 40
5.0
300

 40
0.0
280
     1
 71
     2
340
16
 90
       25
 62
   256
 71
     3
340
11
 62
   256
 40
5.0
 90
        0
 40
15.0
 90
        1
300
%<\AcVar ViewDetailId>% (%<\AcVar ViewScale \f "%sn">%)
 71
     4
340
16
 90
       25
 62
   256
340
16
 90
       25
 62
   256
280
     0
  0
LAYOUT
  5
59
102
{ACAD_REACTORS
330
1A
102
}
330
1A
100
AcDbPlotSettings
  1

  2
None
  4

  6

 40
0.0
 41
0.0
 42
0.0
 43
0.0
 44
0.0
 45
0.0
 46
0.0
 47
0.0
 48
0.0
 49
0.0
140
0.0
141
0.0
142
1.0
143
1.0
 70
   688
 72
     0
 73
     0
 74
     5
  7

 75
    16
147
1.0
 76
     0
 77
     2
 78
   300
148
0.0
149
0.0
100
AcDbLayout
  1
Layout1
 70
     1
 71
     1
 10
0.0
 20
0.0
 11
12.0
 21
9.0
 12
0.0
 22
0.0
 32
0.0
 14
0.0
 24
0.0
 34
0.0
 15
0.0
 25
0.0
 35
0.0
146
0.0
 13
0.0
 23
0.0
 33
0.0
 16
1.0
 26
0.0
 36
0.0
 17
0.0
 27
1.0
 37
0.0
 76
     0
330
58
  0
LAYOUT
  5
5E
102
{ACAD_REACTORS
330
1A
102
}
330
1A
100
AcDbPlotSettings
  1

  2
None
  4

  6

 40
0.0
 41
0.0
 42
0.0
 43
0.0
 44
0.0
 45
0.0
 46
0.0
 47
0.0
 48
0.0
 49
0.0
140
0.0
141
0.0
142
1.0
143
1.0
 70
   688
 72
     0
 73
     0
 74
     5
  7

 75
    16
147
1.0
 76
     0
 77
     2
 78
   300
148
0.0
149
0.0
100
AcDbLayout
  1
Layout2
 70
     1
 71
     2
 10
0.0
 20
0.0
 11
12.0
 21
9.0
 12
0.0
 22
0.0
 32
0.0
 14
0.0
 24
0.0
 34
0.0
 15
0.0
 25
0.0
 35
0.0
146
0.0
 13
0.0
 23
0.0
 33
0.0
 16
1.0
 26
0.0
 36
0.0
 17
0.0
 27
1.0
 37
0.0
 76
     0
330
5D
  0
LAYOUT
  5
22
102
{ACAD_XDICTIONARY
360
194
102
}
102
{ACAD_REACTORS
330
1A
102
}
330
1A
100
AcDbPlotSettings
  1

  2
none_device
  4
ANSI_A_(8.50_x_11.00_Inches)
  6

 40
6.349999904632568
 41
19.04999923706055
 42
6.350006103515625
 43
19.04998779296875
 44
215.8999938964844
 45
279.3999938964844
 46
0.0
 47
0.0
 48
0.0
 49
0.0
140
0.0
141
0.0
142
1.0
143
2.584895464708373
 70
 11952
 72
     0
 73
     1
 74
     0
  7

 75
     0
147
0.3868628397755418
 76
     0
 77
     2
 78
   300
148
0.0
149
0.0
100
AcDbLayout
  1
Model
 70
     1
 71
     0
 10
0.0
 20
0.0
 11
12.0
 21
9.0
 12
0.0
 22
0.0
 32
0.0
 14
0.0
 24
0.0
 34
0.0
 15
0.0
 25
0.0
 35
0.0
146
0.0
 13
0.0
 23
0.0
 33
0.0
 16
1.0
 26
0.0
 36
0.0
 17
0.0
 27
1.0
 37
0.0
 76
     0
330
1F
331
94
  0
MATERIAL
  5
97
102
{ACAD_XDICTIONARY
360
188
102
}
102
{ACAD_REACTORS
330
72
102
}
330
72
100
AcDbMaterial
  1
ByBlock
 94
       63
  0
MATERIAL
  5
96
102
{ACAD_XDICTIONARY
360
186
102
}
102
{ACAD_REACTORS
330
72
102
}
330
72
100
AcDbMaterial
  1
ByLayer
 94
       63
  0
MATERIAL
  5
98
102
{ACAD_XDICTIONARY
360
110
102
}
102
{ACAD_REACTORS
330
72
102
}
330
72
100
AcDbMaterial
  1
Global
 43
0.0208000000566244
 43
0.0
 43
0.0
 43
0.0
 43
0.0
 43
0.0208000000566244
 43
0.0
 43
0.0
 43
0.0
 43
0.0
 43
1.0
 43
0.0
 43
0.0
 43
0.0
 43
0.0
 43
1.0
 49
0.0208000000566244
 49
0.0
 49
0.0
 49
0.0
 49
0.0
 49
0.0208000000566244
 49
0.0
 49
0.0
 49
0.0
 49
0.0
 49
1.0
 49
0.0
 49
0.0
 49
0.0
 49
0.0
 49
1.0
142
0.0208000000566244
142
0.0
142
0.0
142
0.0
142
0.0
142
0.0208000000566244
142
0.0
142
0.0
142
0.0
142
0.0
142
1.0
142
0.0
142
0.0
142
0.0
142
0.0
142
1.0
144
0.0208000000566244
144
0.0
144
0.0
144
0.0
144
0.0
144
0.0208000000566244
144
0.0
144
0.0
144
0.0
144
0.0
144
1.0
144
0.0
144
0.0
144
0.0
144
0.0
144
1.0
 94
       63
1001
ACAD
1070
    -1
1070
     3
1070
     0
1000

1071
        0
1070
     0
  0
MLEADERSTYLE
  5
D8
102
{ACAD_REACTORS
330
D7
102
}
330
D7
100
AcDbMLeaderStyle
179
     2
170
     2
171
     1
172
     0
 90
        2
 40
0.0
 41
0.0
173
     1
 91
-1056964608
340
14
 92
       -2
290
     1
 42
0.09
291
     1
 43
0.36
  3
Standard
 44
0.18
300

342
11
174
     1
178
     1
175
     1
176
     0
 93
-1056964608
 45
0.18
292
     0
297
     0
 46
0.18
 94
-1056964608
 47
1.0
 49
1.0
140
1.0
293
     1
141
0.0
294
     1
177
     0
142
1.0
295
     0
296
     0
143
0.125
271
     0
272
     9
273
     9
298
     0
  0
MLINESTYLE
  5
18
102
{ACAD_REACTORS
330
17
102
}
330
17
100
AcDbMlineStyle
  2
STANDARD
 70
     0
  3

 62
   256
 51
90.0
 52
90.0
 71
     2
 49
0.5
 62
   256
  6
BYLAYER
 49
-0.5
 62
   256
  6
BYLAYER
  0
ACDBPLACEHOLDER
  5
F
102
{ACAD_REACTORS
330
E
102
}
330
E
  0
SCALE
  5
47D1
102
{ACAD_REACTORS
330
B6
102
}
330
B6
100
AcDbScale
 70
     0
300
1:100_1_XREF_XREF_XREF_XREF
140
1.0
141
0.1
290
     0
  0
SCALE
  5
8BD6
102
{ACAD_REACTORS
330
B6
102
}
330
B6
100
AcDbScale
 70
     0
300
1:100_1_XREF_XREF_XREF_XREF_XREF_XREF_XREF_XREF_XREF
140
1.0
141
0.1
290
     0
1001
ACAD
1000
AcRTDxfName
1000
SCALE
1000
AcRTDxfName
1000
SCALE
1000
AcRTDxfName
1000
SCALE
1000
AcRTDxfName
1000
SCALE
  0
SCALE
  5
B7
102
{ACAD_REACTORS
330
B6
102
}
330
B6
100
AcDbScale
 70
     0
300
1:1
140
1.0
141
1.0
290
     1
  0
SCALE
  5
124
102
{ACAD_REACTORS
330
B6
102
}
330
B6
100
AcDbScale
 70
     0
300
1:2
140
1.0
141
2.0
290
     0
  0
SCALE
  5
125
102
{ACAD_REACTORS
330
B6
102
}
330
B6
100
AcDbScale
 70
     0
300
1:4
140
1.0
141
4.0
290
     0
  0
SCALE
  5
126
102
{ACAD_REACTORS
330
B6
102
}
330
B6
100
AcDbScale
 70
     0
300
1:5
140
1.0
141
5.0
290
     0
  0
SCALE
  5
127
102
{ACAD_REACTORS
330
B6
102
}
330
B6
100
AcDbScale
 70
     0
300
1:8
140
1.0
141
8.0
290
     0
  0
SCALE
  5
128
102
{ACAD_REACTORS
330
B6
102
}
330
B6
100
AcDbScale
 70
     0
300
1:10
140
1.0
141
10.0
290
     0
  0
SCALE
  5
129
102
{ACAD_REACTORS
330
B6
102
}
330
B6
100
AcDbScale
 70
     0
300
1:16
140
1.0
141
16.0
290
     0
  0
SCALE
  5
12A
102
{ACAD_REACTORS
330
B6
102
}
330
B6
100
AcDbScale
 70
     0
300
1:20
140
1.0
141
20.0
290
     0
  0
SCALE
  5
12B
102
{ACAD_REACTORS
330
B6
102
}
330
B6
100
AcDbScale
 70
     0
300
1:30
140
1.0
141
30.0
290
     0
  0
SCALE
  5
12C
102
{ACAD_REACTORS
330
B6
102
}
330
B6
100
AcDbScale
 70
     0
300
1:40
140
1.0
141
40.0
290
     0
  0
SCALE
  5
12D
102
{ACAD_REACTORS
330
B6
102
}
330
B6
100
AcDbScale
 70
     0
300
1:50
140
1.0
141
50.0
290
     0
  0
SCALE
  5
12E
102
{ACAD_REACTORS
330
B6
102
}
330
B6
100
AcDbScale
 70
     0
300
1:100
140
1.0
141
100.0
290
     0
  0
SCALE
  5
12F
102
{ACAD_REACTORS
330
B6
102
}
330
B6
100
AcDbScale
 70
     0
300
2:1
140
2.0
141
1.0
290
     0
  0
SCALE
  5
130
102
{ACAD_REACTORS
330
B6
102
}
330
B6
100
AcDbScale
 70
     0
300
4:1
140
4.0
141
1.0
290
     0
  0
SCALE
  5
131
102
{ACAD_REACTORS
330
B6
102
}
330
B6
100
AcDbScale
 70
     0
300
8:1
140
8.0
141
1.0
290
     0
  0
SCALE
  5
132
102
{ACAD_REACTORS
330
B6
102
}
330
B6
100
AcDbScale
 70
     0
300
10:1
140
10.0
141
1.0
290
     0
  0
SCALE
  5
133
102
{ACAD_REACTORS
330
B6
102
}
330
B6
100
AcDbScale
 70
     0
300
100:1
140
100.0
141
1.0
290
     0
  0
SCALE
  5
134
102
{ACAD_REACTORS
330
B6
102
}
330
B6
100
AcDbScale
 70
     0
300
1/128" = 1'-0"
140
0.0078125
141
12.0
290
     0
  0
SCALE
  5
135
102
{ACAD_REACTORS
330
B6
102
}
330
B6
100
AcDbScale
 70
     0
300
1/64" = 1'-0"
140
0.015625
141
12.0
290
     0
  0
SCALE
  5
136
102
{ACAD_REACTORS
330
B6
102
}
330
B6
100
AcDbScale
 70
     0
300
1/32" = 1'-0"
140
0.03125
141
12.0
290
     0
  0
SCALE
  5
137
102
{ACAD_REACTORS
330
B6
102
}
330
B6
100
AcDbScale
 70
     0
300
1/16" = 1'-0"
140
0.0625
141
12.0
290
     0
  0
SCALE
  5
138
102
{ACAD_REACTORS
330
B6
102
}
330
B6
100
AcDbScale
 70
     0
300
3/32" = 1'-0"
140
0.09375
141
12.0
290
     0
  0
SCALE
  5
139
102
{ACAD_REACTORS
330
B6
102
}
330
B6
100
AcDbScale
 70
     0
300
1/8" = 1'-0"
140
0.125
141
12.0
290
     0
  0
SCALE
  5
13A
102
{ACAD_REACTORS
330
B6
102
}
330
B6
100
AcDbScale
 70
     0
300
3/16" = 1'-0"
140
0.1875
141
12.0
290
     0
  0
SCALE
  5
13B
102
{ACAD_REACTORS
330
B6
102
}
330
B6
100
AcDbScale
 70
     0
300
1/4" = 1'-0"
140
0.25
141
12.0
290
     0
  0
SCALE
  5
13C
102
{ACAD_REACTORS
330
B6
102
}
330
B6
100
AcDbScale
 70
     0
300
3/8" = 1'-0"
140
0.375
141
12.0
290
     0
  0
SCALE
  5
13D
102
{ACAD_REACTORS
330
B6
102
}
330
B6
100
AcDbScale
 70
     0
300
1/2" = 1'-0"
140
0.5
141
12.0
290
     0
  0
SCALE
  5
13E
102
{ACAD_REACTORS
330
B6
102
}
330
B6
100
AcDbScale
 70
     0
300
3/4" = 1'-0"
140
0.75
141
12.0
290
     0
  0
SCALE
  5
13F
102
{ACAD_REACTORS
330
B6
102
}
330
B6
100
AcDbScale
 70
     0
300
1" = 1'-0"
140
1.0
141
12.0
290
     0
  0
SCALE
  5
140
102
{ACAD_REACTORS
330
B6
102
}
330
B6
100
AcDbScale
 70
     0
300
1-1/2" = 1'-0"
140
1.5
141
12.0
290
     0
  0
SCALE
  5
141
102
{ACAD_REACTORS
330
B6
102
}
330
B6
100
AcDbScale
 70
     0
300
3" = 1'-0"
140
3.0
141
12.0
290
     0
  0
SCALE
  5
142
102
{ACAD_REACTORS
330
B6
102
}
330
B6
100
AcDbScale
 70
     0
300
6" = 1'-0"
140
6.0
141
12.0
290
     0
  0
SCALE
  5
143
102
{ACAD_REACTORS
330
B6
102
}
330
B6
100
AcDbScale
 70
     0
300
1'-0" = 1'-0"
140
12.0
141
12.0
290
     0
  0
ACDBSECTIONVIEWSTYLE
  5
1AA
102
{ACAD_REACTORS
330
1A8
102
}
330
1A8
100
AcDbModelDocViewStyle
 70
     0
  3
Imperial24
290
     0
300
Imperial24
 90
        0
100
AcDbSectionViewStyle
 70
     0
 71
     0
 90
       78
 71
     1
340
11
 62
   256
 40
0.24
340
0
340
0
 62
   256
 40
0.24
300
I, O, Q, S, X, Z
 40
0.48
 90
        3
 40
0.18
 90
        1
 71
     2
340
16
 90
       25
 62
   256
340
16
 90
       50
 62
   256
 40
0.24
 40
0.0
 40
0.24
 71
     3
340
11
 62
   256
 40
0.24
 90
        1
 40
0.75
 90
        1
300
%<\AcVar ViewType \f "%tc1">% %<\AcVar ViewSectionStartId>%-%<\AcVar ViewSectionEndId>%\PSCALE %<\AcVar ViewScale \f "%sn">%
 71
     4
 62
   256
 62
   257
300
ANSI31
 40
1.0
 90
        0
290
     0
290
     0
 90
        6
 40
0.0
 40
1.570796326794896
 40
0.2617993877991494
 40
1.308996938995747
 40
-0.2617993877991494
 40
1.832595714594046
  0
ACDBSECTIONVIEWSTYLE
  5
223
102
{ACAD_REACTORS
330
1A8
102
}
330
1A8
100
AcDbModelDocViewStyle
 70
     0
  3
Metric50
290
     0
300
Metric50
 90
        0
100
AcDbSectionViewStyle
 70
     0
 71
     0
 90
      102
 71
     1
340
11
 62
   256
 40
5.0
340
0
340
0
 62
   256
 40
5.0
300
I, O, Q, S, X, Z
 40
10.0
 90
        0
 40
2.5
 90
        0
 71
     2
340
16
 90
       25
 62
   256
340
16
 90
       50
 62
   256
 40
5.0
 40
2.5
 40
5.0
 71
     3
340
11
 62
   256
 40
5.0
 90
        0
 40
15.0
 90
        1
300
%<\AcVar ViewSectionStartId>%-%<\AcVar ViewSectionEndId>% (%<\AcVar ViewScale \f "%sn">%)
 71
     4
 62
   256
 62
   257
300
ANSI31
 40
1.0
 90
        0
290
     0
290
     0
 90
        6
 40
0.0
 40
1.570796326794896
 40
0.2617993877991494
 40
1.308996938995747
 40
-0.2617993877991494
 40
1.832595714594046
  0
TABLESTYLE
  5
87
102
{ACAD_XDICTIONARY
360
104
102
}
102
{ACAD_REACTORS
330
86
102
}
330
86
100
AcDbTableStyle
280
     0
  3
Standard
 70
     0
 71
     0
 40
0.06
 41
0.06
280
     0
281
     0
  7
Standard
140
0.18
170
     2
 62
     0
 63
     7
283
     0
 90
      512
 91
        0
  1

274
    -2
284
     1
 64
     0
275
    -2
285
     1
 65
     0
276
    -2
286
     1
 66
     0
277
    -2
287
     1
 67
     0
278
    -2
288
     1
 68
     0
279
    -2
289
     1
 69
     0
  7
Standard
140
0.25
170
     5
 62
     0
 63
     7
283
     0
 90
      512
 91
        0
  1

274
    -2
284
     1
 64
     0
275
    -2
285
     1
 65
     0
276
    -2
286
     1
 66
     0
277
    -2
287
     1
 67
     0
278
    -2
288
     1
 68
     0
279
    -2
289
     1
 69
     0
  7
Standard
140
0.18
170
     5
 62
     0
 63
     7
283
     0
 90
      512
 91
        0
  1

274
    -2
284
     1
 64
     0
275
    -2
285
     1
 65
     0
276
    -2
286
     1
 66
     0
277
    -2
287
     1
 67
     0
278
    -2
288
     1
 68
     0
279
    -2
289
     1
 69
     0
  0
VISUALSTYLE
  5
9F
102
{ACAD_REACTORS
330
99
102
}
330
99
100
AcDbVisualStyle
  2
2dWireframe
 70
     4
177
     3
291
     0
 70
    58
 90
        0
176
     1
 90
        2
176
     1
 90
        1
176
     1
 90
        0
176
     1
 40
0.6
176
     1
 40
30.0
176
     1
 62
     7
420
 16777215
176
     1
 90
        1
176
     1
 90
        4
176
     1
 62
     7
176
     1
 62
   257
176
     1
 90
        1
176
     1
 90
        1
176
     1
 40
1.0
176
     1
 90
        0
176
     1
 62
   257
176
     1
 40
1.0
176
     1
 90
        1
176
     1
 90
        6
176
     1
 90
        2
176
     1
 62
     7
176
     1
 90
        5
176
     1
 90
        0
176
     1
 90
        0
176
     1
290
     0
176
     1
 90
        1
176
     1
 40
0.0
176
     1
 90
        0
176
     1
290
     1
176
     1
290
     1
176
     1
290
     0
176
     1
290
     0
176
     1
290
     0
176
     1
290
     0
176
     1
290
     0
176
     1
290
     0
176
     1
290
     0
176
     1
 90
       50
176
     1
 40
0.0
176
     1
 40
1.0
176
     1
 90
        0
176
     1
 62
    18
420
        0
176
     1
 90
       50
176
     1
 90
        3
176
     1
 62
     5
420
      255
176
     1
290
     0
176
     1
 90
       50
176
     1
 90
       50
176
     1
 90
       50
176
     1
290
     0
176
     1
 90
       50
176
     1
 62
   256
176
     0
 40
1.0
176
     0
 90
        2
176
     1
  1
strokes_ogs.tif
176
     1
290
     0
176
     1
 40
1.0
176
     1
 40
1.0
176
     1
  0
VISUALSTYLE
  5
2684
102
{ACAD_REACTORS
330
99
102
}
330
99
100
AcDbVisualStyle
  2
3dWireframe
 70
     5
177
     3
291
     0
 70
    58
 90
        0
176
     1
 90
        2
176
     1
 90
        0
176
     1
 90
        0
176
     1
 40
0.6
176
     1
 40
30.0
176
     1
 62
     7
176
     1
 90
        1
176
     1
 90
        4
176
     1
 62
     7
176
     1
 62
   257
176
     1
 90
        1
176
     1
 90
        1
176
     1
 40
1.0
176
     1
 90
        0
176
     1
 62
   257
176
     1
 40
1.0
176
     1
 90
        1
176
     1
 90
        6
176
     1
 90
        2
176
     1
 62
     7
176
     1
 90
        5
176
     1
 90
        0
176
     1
 90
        0
176
     1
290
     0
176
     1
 90
        1
176
     1
 40
0.0
176
     1
 90
        0
176
     1
290
     0
176
     1
290
     1
176
     1
290
     1
176
     1
290
     0
176
     1
290
     0
176
     1
290
     0
176
     1
290
     0
176
     1
290
     0
176
     1
290
     0
176
     1
 90
       50
176
     1
 40
0.0
176
     1
 40
1.0
176
     1
 90
        0
176
     1
 62
    18
420
        0
176
     1
 90
       50
176
     1
 90
        3
176
     1
 62
     5
420
      255
176
     1
290
     0
176
     1
 90
       50
176
     1
 90
       50
176
     1
 90
       50
176
     1
290
     0
176
     1
 90
       50
176
     1
 62
   256
176
     0
 40
1.0
176
     0
 90
        2
176
     1
  1
strokes_ogs.tif
176
     1
290
     0
176
     1
 40
1.0
176
     1
 40
1.0
176
     1
1001
ACAD
1000
AcRTDxfName
1000
VISUALSTYLE
  0
VISUALSTYLE
  5
9E
102
{ACAD_REACTORS
330
99
102
}
330
99
100
AcDbVisualStyle
  2
Basic
 70
     7
177
     3
291
     1
 70
    58
 90
        1
176
     1
 90
        0
176
     1
 90
        1
176
     1
 90
        0
176
     1
 40
0.6
176
     1
 40
30.0
176
     1
 62
     7
420
 16777215
176
     1
 90
        0
176
     1
 90
        4
176
     1
 62
     7
176
     1
 62
   257
176
     1
 90
        1
176
     1
 90
        1
176
     1
 40
1.0
176
     1
 90
        8
176
     1
 62
     7
176
     1
 40
1.0
176
     1
 90
        1
176
     1
 90
        6
176
     1
 90
        2
176
     1
 62
     7
176
     1
 90
        5
176
     1
 90
        0
176
     1
 90
        0
176
     1
290
     0
176
     1
 90
        1
176
     1
 40
0.0
176
     1
 90
        0
176
     1
290
     0
176
     1
290
     1
176
     1
290
     1
176
     1
290
     0
176
     1
290
     0
176
     1
290
     0
176
     1
290
     0
176
     1
290
     0
176
     1
290
     0
176
     1
 90
       50
176
     1
 40
0.0
176
     1
 40
1.0
176
     1
 90
        0
176
     1
 62
    18
420
        0
176
     1
 90
       50
176
     1
 90
        3
176
     1
 62
     5
420
      255
176
     1
290
     0
176
     1
 90
       50
176
     1
 90
       50
176
     1
 90
       50
176
     1
290
     0
176
     1
 90
       50
176
     1
 62
   256
176
     0
 40
1.0
176
     0
 90
        2
176
     1
  1
strokes_ogs.tif
176
     1
290
     0
176
     1
 40
1.0
176
     1
 40
1.0
176
     1
  0
VISUALSTYLE
  5
A5
102
{ACAD_REACTORS
330
99
102
}
330
99
100
AcDbVisualStyle
  2
Brighten
 70
    12
177
     3
291
     1
 70
    58
 90
        2
176
     1
 90
        2
176
     1
 90
        1
176
     1
 90
        0
176
     1
 40
0.6
176
     1
 40
30.0
176
     1
 62
     7
420
 16777215
176
     1
 90
        1
176
     1
 90
        4
176
     1
 62
     7
176
     1
 62
   257
176
     1
 90
        1
176
     1
 90
        1
176
     1
 40
1.0
176
     1
 90
        8
176
     1
 62
     7
176
     1
 40
1.0
176
     1
 90
        1
176
     1
 90
        6
176
     1
 90
        2
176
     1
 62
     7
176
     1
 90
        5
176
     1
 90
        0
176
     1
 90
        0
176
     1
290
     0
176
     1
 90
        1
176
     1
 40
50.0
176
     1
 90
        0
176
     1
290
     0
176
     1
290
     1
176
     1
290
     1
176
     1
290
     0
176
     1
290
     0
176
     1
290
     0
176
     1
290
     0
176
     1
290
     0
176
     1
290
     0
176
     1
 90
       50
176
     1
 40
0.0
176
     1
 40
1.0
176
     1
 90
        0
176
     1
 62
    18
420
        0
176
     1
 90
       50
176
     1
 90
        3
176
     1
 62
     5
420
      255
176
     1
290
     0
176
     1
 90
       50
176
     1
 90
       50
176
     1
 90
       50
176
     1
290
     0
176
     1
 90
       50
176
     1
 62
   256
176
     0
 40
1.0
176
     0
 90
        2
176
     1
  1
strokes_ogs.tif
176
     1
290
     0
176
     1
 40
1.0
176
     1
 40
1.0
176
     1
  0
VISUALSTYLE
  5
A9
102
{ACAD_REACTORS
330
99
102
}
330
99
100
AcDbVisualStyle
  2
ColorChange
 70
    16
177
     3
291
     1
 70
    58
 90
        2
176
     1
 90
        2
176
     1
 90
        3
176
     1
 90
        0
176
     1
 40
0.6
176
     1
 40
30.0
176
     1
 62
     8
420
  8421504
176
     1
 90
        1
176
     1
 90
        4
176
     1
 62
     7
176
     1
 62
   257
176
     1
 90
        1
176
     1
 90
        1
176
     1
 40
1.0
176
     1
 90
        8
176
     1
 62
     8
420
  8421504
176
     1
 40
1.0
176
     1
 90
        1
176
     1
 90
        6
176
     1
 90
        2
176
     1
 62
     7
176
     1
 90
        5
176
     1
 90
        0
176
     1
 90
        0
176
     1
290
     0
176
     1
 90
        1
176
     1
 40
0.0
176
     1
 90
        0
176
     1
290
     0
176
     1
290
     1
176
     1
290
     1
176
     1
290
     0
176
     1
290
     0
176
     1
290
     0
176
     1
290
     0
176
     1
290
     0
176
     1
290
     0
176
     1
 90
       50
176
     1
 40
0.0
176
     1
 40
1.0
176
     1
 90
        0
176
     1
 62
    18
420
        0
176
     1
 90
       50
176
     1
 90
        3
176
     1
 62
     5
420
      255
176
     1
290
     0
176
     1
 90
       50
176
     1
 90
       50
176
     1
 90
       50
176
     1
290
     0
176
     1
 90
       50
176
     1
 62
   256
176
     0
 40
1.0
176
     0
 90
        2
176
     1
  1
strokes_ogs.tif
176
     1
290
     0
176
     1
 40
1.0
176
     1
 40
1.0
176
     1
  0
VISUALSTYLE
  5
A2
102
{ACAD_REACTORS
330
99
102
}
330
99
100
AcDbVisualStyle
  2
Conceptual
 70
     9
177
     3
291
     0
 70
    58
 90
        3
176
     1
 90
        2
176
     1
 90
        1
176
     1
 90
        0
176
     1
 40
0.6
176
     1
 40
30.0
176
     1
 62
     7
420
 16777215
176
     1
 90
        2
176
     1
 90
        2
176
     1
 62
     7
176
     1
 62
   257
176
     1
 90
        1
176
     1
 90
        1
176
     1
 40
40.0
176
     1
 90
        8
176
     1
 62
     7
176
     1
 40
1.0
176
     1
 90
        1
176
     1
 90
        6
176
     1
 90
        2
176
     1
 62
     7
176
     1
 90
        3
176
     1
 90
        0
176
     1
 90
        0
176
     1
290
     0
176
     1
 90
        1
176
     1
 40
0.0
176
     1
 90
        0
176
     1
290
     0
176
     1
290
     1
176
     1
290
     1
176
     1
290
     0
176
     1
290
     0
176
     1
290
     0
176
     1
290
     0
176
     1
290
     0
176
     1
290
     0
176
     1
 90
       50
176
     1
 40
0.0
176
     1
 40
1.0
176
     1
 90
        0
176
     1
 62
    18
420
        0
176
     1
 90
       50
176
     1
 90
        3
176
     1
 62
     5
420
      255
176
     1
290
     0
176
     1
 90
       50
176
     1
 90
       50
176
     1
 90
       50
176
     1
290
     0
176
     1
 90
       50
176
     1
 62
   256
176
     0
 40
1.0
176
     0
 90
        2
176
     1
  1
strokes_ogs.tif
176
     1
290
     0
176
     1
 40
1.0
176
     1
 40
1.0
176
     1
  0
VISUALSTYLE
  5
A4
102
{ACAD_REACTORS
330
99
102
}
330
99
100
AcDbVisualStyle
  2
Dim
 70
    11
177
     3
291
     1
 70
    58
 90
        2
176
     1
 90
        2
176
     1
 90
        1
176
     1
 90
        0
176
     1
 40
0.6
176
     1
 40
30.0
176
     1
 62
     7
420
 16777215
176
     1
 90
        1
176
     1
 90
        4
176
     1
 62
     7
176
     1
 62
   257
176
     1
 90
        1
176
     1
 90
        1
176
     1
 40
1.0
176
     1
 90
        8
176
     1
 62
     7
176
     1
 40
1.0
176
     1
 90
        1
176
     1
 90
        6
176
     1
 90
        2
176
     1
 62
     7
176
     1
 90
        5
176
     1
 90
        0
176
     1
 90
        0
176
     1
290
     0
176
     1
 90
        1
176
     1
 40
-50.0
176
     1
 90
        0
176
     1
290
     0
176
     1
290
     1
176
     1
290
     1
176
     1
290
     0
176
     1
290
     0
176
     1
290
     0
176
     1
290
     0
176
     1
290
     0
176
     1
290
     0
176
     1
 90
       50
176
     1
 40
0.0
176
     1
 40
1.0
176
     1
 90
        0
176
     1
 62
    18
420
        0
176
     1
 90
       50
176
     1
 90
        3
176
     1
 62
     5
420
      255
176
     1
290
     0
176
     1
 90
       50
176
     1
 90
       50
176
     1
 90
       50
176
     1
290
     0
176
     1
 90
       50
176
     1
 62
   256
176
     0
 40
1.0
176
     0
 90
        2
176
     1
  1
strokes_ogs.tif
176
     1
290
     0
176
     1
 40
1.0
176
     1
 40
1.0
176
     1
  0
VISUALSTYLE
  5
175
102
{ACAD_REACTORS
330
99
102
}
330
99
100
AcDbVisualStyle
  2
EdgeColorOff
 70
    22
177
     3
291
     1
 70
    58
 90
        2
176
     0
 90
        2
176
     0
 90
        0
176
     0
 90
        0
176
     0
 40
0.6
176
     0
 40
30.0
176
     0
 62
     7
420
 16777215
176
     0
 90
        1
176
     0
 90
        4
176
     0
 62
     7
176
     0
 62
   257
176
     0
 90
        1
176
     0
 90
        1
176
     0
 40
1.0
176
     0
 90
        8
176
     2
 62
     7
176
     0
 40
1.0
176
     0
 90
        1
176
     0
 90
        6
176
     0
 90
        2
176
     0
 62
     7
176
     0
 90
        5
176
     0
 90
        0
176
     0
 90
        0
176
     0
290
     0
176
     0
 90
        1
176
     0
 40
0.0
176
     0
 90
        0
176
     0
290
     0
176
     1
290
     1
176
     1
290
     1
176
     1
290
     0
176
     1
290
     0
176
     1
290
     0
176
     1
290
     0
176
     1
290
     0
176
     1
290
     0
176
     1
 90
       50
176
     1
 40
0.0
176
     1
 40
1.0
176
     1
 90
        0
176
     1
 62
    18
420
        0
176
     1
 90
       50
176
     1
 90
        3
176
     1
 62
     5
420
      255
176
     1
290
     0
176
     1
 90
       50
176
     1
 90
       50
176
     1
 90
       50
176
     1
290
     0
176
     1
 90
       50
176
     1
 62
   256
176
     0
 40
1.0
176
     0
 90
        2
176
     1
  1
strokes_ogs.tif
176
     1
290
     0
176
     1
 40
1.0
176
     1
 40
1.0
176
     1
  0
VISUALSTYLE
  5
A8
102
{ACAD_REACTORS
330
99
102
}
330
99
100
AcDbVisualStyle
  2
Facepattern
 70
    15
177
     3
291
     1
 70
    58
 90
        2
176
     1
 90
        2
176
     1
 90
        1
176
     1
 90
        0
176
     1
 40
0.6
176
     1
 40
30.0
176
     1
 62
     7
420
 16777215
176
     1
 90
        1
176
     1
 90
        4
176
     1
 62
     7
176
     1
 62
   257
176
     1
 90
        1
176
     1
 90
        1
176
     1
 40
1.0
176
     1
 90
        8
176
     1
 62
     7
176
     1
 40
1.0
176
     1
 90
        1
176
     1
 90
        6
176
     1
 90
        2
176
     1
 62
     7
176
     1
 90
        5
176
     1
 90
        0
176
     1
 90
        0
176
     1
290
     0
176
     1
 90
        1
176
     1
 40
0.0
176
     1
 90
        0
176
     1
290
     0
176
     1
290
     1
176
     1
290
     1
176
     1
290
     0
176
     1
290
     0
176
     1
290
     0
176
     1
290
     0
176
     1
290
     0
176
     1
290
     0
176
     1
 90
       50
176
     1
 40
0.0
176
     1
 40
1.0
176
     1
 90
        0
176
     1
 62
    18
420
        0
176
     1
 90
       50
176
     1
 90
        3
176
     1
 62
     5
420
      255
176
     1
290
     0
176
     1
 90
       50
176
     1
 90
       50
176
     1
 90
       50
176
     1
290
     0
176
     1
 90
       50
176
     1
 62
   256
176
     0
 40
1.0
176
     0
 90
        2
176
     1
  1
strokes_ogs.tif
176
     1
290
     0
176
     1
 40
1.0
176
     1
 40
1.0
176
     1
  0
VISUALSTYLE
  5
9A
102
{ACAD_REACTORS
330
99
102
}
330
99
100
AcDbVisualStyle
  2
Flat
 70
     0
177
     3
291
     1
 70
    58
 90
        2
176
     1
 90
        1
176
     1
 90
        1
176
     1
 90
        2
176
     1
 40
0.6
176
     1
 40
30.0
176
     1
 62
     7
420
 16777215
176
     1
 90
        0
176
     1
 90
        0
176
     1
 62
     7
176
     1
 62
   257
176
     1
 90
        1
176
     1
 90
        1
176
     1
 40
1.0
176
     1
 90
        8
176
     1
 62
     7
176
     1
 40
1.0
176
     1
 90
        1
176
     1
 90
        6
176
     1
 90
        2
176
     1
 62
     7
176
     1
 90
        5
176
     1
 90
        0
176
     1
 90
        0
176
     1
290
     0
176
     1
 90
       13
176
     1
 40
0.0
176
     1
 90
        0
176
     1
290
     0
176
     1
290
     1
176
     1
290
     1
176
     1
290
     0
176
     1
290
     0
176
     1
290
     0
176
     1
290
     0
176
     1
290
     0
176
     1
290
     0
176
     1
 90
       50
176
     1
 40
0.0
176
     1
 40
1.0
176
     1
 90
        0
176
     1
 62
    18
420
        0
176
     1
 90
       50
176
     1
 90
        3
176
     1
 62
     5
420
      255
176
     1
290
     0
176
     1
 90
       50
176
     1
 90
       50
176
     1
 90
       50
176
     1
290
     0
176
     1
 90
       50
176
     1
 62
   256
176
     0
 40
1.0
176
     0
 90
        2
176
     1
  1
strokes_ogs.tif
176
     1
290
     0
176
     1
 40
1.0
176
     1
 40
1.0
176
     1
  0
VISUALSTYLE
  5
9B
102
{ACAD_REACTORS
330
99
102
}
330
99
100
AcDbVisualStyle
  2
FlatWithEdges
 70
     1
177
     3
291
     1
 70
    58
 90
        2
176
     1
 90
        1
176
     1
 90
        1
176
     1
 90
        2
176
     1
 40
0.6
176
     1
 40
30.0
176
     1
 62
     7
420
 16777215
176
     1
 90
        1
176
     1
 90
        0
176
     1
 62
     7
176
     1
 62
   257
176
     1
 90
        1
176
     1
 90
        1
176
     1
 40
1.0
176
     1
 90
        0
176
     1
 62
   257
176
     1
 40
1.0
176
     1
 90
        1
176
     1
 90
        6
176
     1
 90
        2
176
     1
 62
     7
176
     1
 90
        5
176
     1
 90
        0
176
     1
 90
        0
176
     1
290
     0
176
     1
 90
       13
176
     1
 40
0.0
176
     1
 90
        0
176
     1
290
     0
176
     1
290
     1
176
     1
290
     1
176
     1
290
     0
176
     1
290
     0
176
     1
290
     0
176
     1
290
     0
176
     1
290
     0
176
     1
290
     0
176
     1
 90
       50
176
     1
 40
0.0
176
     1
 40
1.0
176
     1
 90
        0
176
     1
 62
    18
420
        0
176
     1
 90
       50
176
     1
 90
        3
176
     1
 62
     5
420
      255
176
     1
290
     0
176
     1
 90
       50
176
     1
 90
       50
176
     1
 90
       50
176
     1
290
     0
176
     1
 90
       50
176
     1
 62
   256
176
     0
 40
1.0
176
     0
 90
        2
176
     1
  1
strokes_ogs.tif
176
     1
290
     0
176
     1
 40
1.0
176
     1
 40
1.0
176
     1
  0
VISUALSTYLE
  5
9C
102
{ACAD_REACTORS
330
99
102
}
330
99
100
AcDbVisualStyle
  2
Gouraud
 70
     2
177
     3
291
     1
 70
    58
 90
        2
176
     1
 90
        2
176
     1
 90
        1
176
     1
 90
        2
176
     1
 40
0.6
176
     1
 40
30.0
176
     1
 62
     7
420
 16777215
176
     1
 90
        0
176
     1
 90
        0
176
     1
 62
     7
176
     1
 62
   257
176
     1
 90
        1
176
     1
 90
        1
176
     1
 40
1.0
176
     1
 90
        0
176
     1
 62
     7
176
     1
 40
1.0
176
     1
 90
        1
176
     1
 90
        6
176
     1
 90
        2
176
     1
 62
     7
176
     1
 90
        5
176
     1
 90
        0
176
     1
 90
        0
176
     1
290
     0
176
     1
 90
       13
176
     1
 40
0.0
176
     1
 90
        0
176
     1
290
     0
176
     1
290
     1
176
     1
290
     1
176
     1
290
     0
176
     1
290
     0
176
     1
290
     0
176
     1
290
     0
176
     1
290
     0
176
     1
290
     0
176
     1
 90
       50
176
     1
 40
0.0
176
     1
 40
1.0
176
     1
 90
        0
176
     1
 62
    18
420
        0
176
     1
 90
       50
176
     1
 90
        3
176
     1
 62
     5
420
      255
176
     1
290
     0
176
     1
 90
       50
176
     1
 90
       50
176
     1
 90
       50
176
     1
290
     0
176
     1
 90
       50
176
     1
 62
   256
176
     0
 40
1.0
176
     0
 90
        2
176
     1
  1
strokes_ogs.tif
176
     1
290
     0
176
     1
 40
1.0
176
     1
 40
1.0
176
     1
  0
VISUALSTYLE
  5
9D
102
{ACAD_REACTORS
330
99
102
}
330
99
100
AcDbVisualStyle
  2
GouraudWithEdges
 70
     3
177
     3
291
     1
 70
    58
 90
        2
176
     1
 90
        2
176
     1
 90
        1
176
     1
 90
        2
176
     1
 40
0.6
176
     1
 40
30.0
176
     1
 62
     7
420
 16777215
176
     1
 90
        1
176
     1
 90
        0
176
     1
 62
     7
176
     1
 62
   257
176
     1
 90
        1
176
     1
 90
        1
176
     1
 40
1.0
176
     1
 90
        0
176
     1
 62
   257
176
     1
 40
1.0
176
     1
 90
        1
176
     1
 90
        6
176
     1
 90
        2
176
     1
 62
     7
176
     1
 90
        5
176
     1
 90
        0
176
     1
 90
        0
176
     1
290
     0
176
     1
 90
       13
176
     1
 40
0.0
176
     1
 90
        0
176
     1
290
     0
176
     1
290
     1
176
     1
290
     1
176
     1
290
     0
176
     1
290
     0
176
     1
290
     0
176
     1
290
     0
176
     1
290
     0
176
     1
290
     0
176
     1
 90
       50
176
     1
 40
0.0
176
     1
 40
1.0
176
     1
 90
        0
176
     1
 62
    18
420
        0
176
     1
 90
       50
176
     1
 90
        3
176
     1
 62
     5
420
      255
176
     1
290
     0
176
     1
 90
       50
176
     1
 90
       50
176
     1
 90
       50
176
     1
290
     0
176
     1
 90
       50
176
     1
 62
   256
176
     0
 40
1.0
176
     0
 90
        2
176
     1
  1
strokes_ogs.tif
176
     1
290
     0
176
     1
 40
1.0
176
     1
 40
1.0
176
     1
  0
VISUALSTYLE
  5
A1
102
{ACAD_REACTORS
330
99
102
}
330
99
100
AcDbVisualStyle
  2
Hidden
 70
     6
177
     3
291
     0
 70
    58
 90
        1
176
     1
 90
        2
176
     1
 90
        2
176
     1
 90
        0
176
     1
 40
0.6
176
     1
 40
30.0
176
     1
 62
     7
420
 16777215
176
     1
 90
        2
176
     1
 90
        2
176
     1
 62
     7
176
     1
 62
   257
176
     1
 90
        2
176
     1
 90
        1
176
     1
 40
40.0
176
     1
 90
        0
176
     1
 62
   257
176
     1
 40
1.0
176
     1
 90
        1
176
     1
 90
        6
176
     1
 90
        2
176
     1
 62
     7
176
     1
 90
        3
176
     1
 90
        0
176
     1
 90
        0
176
     1
290
     0
176
     1
 90
        1
176
     1
 40
0.0
176
     1
 90
        0
176
     1
290
     0
176
     1
290
     1
176
     1
290
     1
176
     1
290
     0
176
     1
290
     0
176
     1
290
     0
176
     1
290
     0
176
     1
290
     0
176
     1
290
     0
176
     1
 90
       50
176
     1
 40
0.0
176
     1
 40
1.0
176
     1
 90
        0
176
     1
 62
    18
420
        0
176
     1
 90
       50
176
     1
 90
        3
176
     1
 62
     5
420
      255
176
     1
290
     0
176
     1
 90
       50
176
     1
 90
       50
176
     1
 90
       50
176
     1
290
     0
176
     1
 90
       50
176
     1
 62
   256
176
     0
 40
1.0
176
     0
 90
        2
176
     1
  1
strokes_ogs.tif
176
     1
290
     0
176
     1
 40
1.0
176
     1
 40
1.0
176
     1
  0
VISUALSTYLE
  5
173
102
{ACAD_REACTORS
330
99
102
}
330
99
100
AcDbVisualStyle
  2
JitterOff
 70
    20
177
     3
291
     1
 70
    58
 90
        2
176
     0
 90
        2
176
     0
 90
        0
176
     0
 90
        0
176
     0
 40
0.6
176
     0
 40
30.0
176
     0
 62
     7
420
 16777215
176
     0
 90
        1
176
     0
 90
        4
176
     0
 62
     7
176
     0
 62
   257
176
     0
 90
        1
176
     0
 90
        1
176
     0
 40
1.0
176
     0
 90
       10
176
     2
 62
     7
176
     0
 40
1.0
176
     0
 90
        1
176
     0
 90
        6
176
     0
 90
        2
176
     0
 62
     7
176
     0
 90
        5
176
     0
 90
        0
176
     0
 90
        0
176
     0
290
     0
176
     0
 90
        1
176
     0
 40
0.0
176
     0
 90
        0
176
     0
290
     0
176
     1
290
     1
176
     1
290
     1
176
     1
290
     0
176
     1
290
     0
176
     1
290
     0
176
     1
290
     0
176
     1
290
     0
176
     1
290
     0
176
     1
 90
       50
176
     1
 40
0.0
176
     1
 40
1.0
176
     1
 90
        0
176
     1
 62
    18
420
        0
176
     1
 90
       50
176
     1
 90
        3
176
     1
 62
     5
420
      255
176
     1
290
     0
176
     1
 90
       50
176
     1
 90
       50
176
     1
 90
       50
176
     1
290
     0
176
     1
 90
       50
176
     1
 62
   256
176
     0
 40
1.0
176
     0
 90
        2
176
     1
  1
strokes_ogs.tif
176
     1
290
     0
176
     1
 40
1.0
176
     1
 40
1.0
176
     1
  0
VISUALSTYLE
  5
A7
102
{ACAD_REACTORS
330
99
102
}
330
99
100
AcDbVisualStyle
  2
Linepattern
 70
    14
177
     3
291
     1
 70
    58
 90
        2
176
     1
 90
        2
176
     1
 90
        1
176
     1
 90
        0
176
     1
 40
0.6
176
     1
 40
30.0
176
     1
 62
     7
420
 16777215
176
     1
 90
        1
176
     1
 90
        4
176
     1
 62
     7
176
     1
 62
   257
176
     1
 90
        7
176
     1
 90
        7
176
     1
 40
1.0
176
     1
 90
        8
176
     1
 62
     7
176
     1
 40
1.0
176
     1
 90
        1
176
     1
 90
        6
176
     1
 90
        2
176
     1
 62
     7
176
     1
 90
        5
176
     1
 90
        0
176
     1
 90
        0
176
     1
290
     0
176
     1
 90
        1
176
     1
 40
0.0
176
     1
 90
        0
176
     1
290
     0
176
     1
290
     1
176
     1
290
     1
176
     1
290
     0
176
     1
290
     0
176
     1
290
     0
176
     1
290
     0
176
     1
290
     0
176
     1
290
     0
176
     1
 90
       50
176
     1
 40
0.0
176
     1
 40
1.0
176
     1
 90
        0
176
     1
 62
    18
420
        0
176
     1
 90
       50
176
     1
 90
        3
176
     1
 62
     5
420
      255
176
     1
290
     0
176
     1
 90
       50
176
     1
 90
       50
176
     1
 90
       50
176
     1
290
     0
176
     1
 90
       50
176
     1
 62
   256
176
     0
 40
1.0
176
     0
 90
        2
176
     1
  1
strokes_ogs.tif
176
     1
290
     0
176
     1
 40
1.0
176
     1
 40
1.0
176
     1
  0
VISUALSTYLE
  5
174
102
{ACAD_REACTORS
330
99
102
}
330
99
100
AcDbVisualStyle
  2
OverhangOff
 70
    21
177
     3
291
     1
 70
    58
 90
        2
176
     0
 90
        2
176
     0
 90
        0
176
     0
 90
        0
176
     0
 40
0.6
176
     0
 40
30.0
176
     0
 62
     7
420
 16777215
176
     0
 90
        1
176
     0
 90
        4
176
     0
 62
     7
176
     0
 62
   257
176
     0
 90
        1
176
     0
 90
        1
176
     0
 40
1.0
176
     0
 90
        9
176
     2
 62
     7
176
     0
 40
1.0
176
     0
 90
        1
176
     0
 90
        6
176
     0
 90
        2
176
     0
 62
     7
176
     0
 90
        5
176
     0
 90
        0
176
     0
 90
        0
176
     0
290
     0
176
     0
 90
        1
176
     0
 40
0.0
176
     0
 90
        0
176
     0
290
     0
176
     1
290
     1
176
     1
290
     1
176
     1
290
     0
176
     1
290
     0
176
     1
290
     0
176
     1
290
     0
176
     1
290
     0
176
     1
290
     0
176
     1
 90
       50
176
     1
 40
0.0
176
     1
 40
1.0
176
     1
 90
        0
176
     1
 62
    18
420
        0
176
     1
 90
       50
176
     1
 90
        3
176
     1
 62
     5
420
      255
176
     1
290
     0
176
     1
 90
       50
176
     1
 90
       50
176
     1
 90
       50
176
     1
290
     0
176
     1
 90
       50
176
     1
 62
   256
176
     0
 40
1.0
176
     0
 90
        2
176
     1
  1
strokes_ogs.tif
176
     1
290
     0
176
     1
 40
1.0
176
     1
 40
1.0
176
     1
  0
VISUALSTYLE
  5
A3
102
{ACAD_REACTORS
330
99
102
}
330
99
100
AcDbVisualStyle
  2
Realistic
 70
     8
177
     3
291
     0
 70
    58
 90
        2
176
     1
 90
        2
176
     1
 90
        0
176
     1
 90
        2
176
     1
 40
0.6
176
     1
 40
30.0
176
     1
 62
     7
420
 16777215
176
     1
 90
        0
176
     1
 90
        0
176
     1
 62
     7
176
     1
 62
   257
176
     1
 90
        1
176
     1
 90
        1
176
     1
 40
1.0
176
     1
 90
        8
176
     1
 62
   257
176
     1
 40
1.0
176
     1
 90
        1
176
     1
 90
        6
176
     1
 90
        2
176
     1
 62
     7
176
     1
 90
        3
176
     1
 90
        0
176
     1
 90
        0
176
     1
290
     0
176
     1
 90
       13
176
     1
 40
0.0
176
     1
 90
        0
176
     1
290
     0
176
     1
290
     1
176
     1
290
     1
176
     1
290
     0
176
     1
290
     0
176
     1
290
     0
176
     1
290
     0
176
     1
290
     0
176
     1
290
     0
176
     1
 90
       50
176
     1
 40
0.0
176
     1
 40
1.0
176
     1
 90
        0
176
     1
 62
    18
420
        0
176
     1
 90
       50
176
     1
 90
        3
176
     1
 62
     5
420
      255
176
     1
290
     0
176
     1
 90
       50
176
     1
 90
       50
176
     1
 90
       50
176
     1
290
     0
176
     1
 90
       50
176
     1
 62
   256
176
     0
 40
1.0
176
     0
 90
        2
176
     1
  1
strokes_ogs.tif
176
     1
290
     0
176
     1
 40
1.0
176
     1
 40
1.0
176
     1
  0
VISUALSTYLE
  5
182
102
{ACAD_REACTORS
330
99
102
}
330
99
100
AcDbVisualStyle
  2
Shaded
 70
    27
177
     3
291
     0
 70
    58
 90
        2
176
     1
 90
        2
176
     1
 90
        1
176
     1
 90
        2
176
     1
 40
0.6
176
     1
 40
30.0
176
     1
 62
     7
420
 16777215
176
     1
 90
        0
176
     1
 90
        4
176
     1
 62
     7
176
     1
 62
   257
176
     1
 90
        1
176
     1
 90
        1
176
     1
 40
1.0
176
     1
 90
        8
176
     1
 62
   257
176
     1
 40
1.0
176
     1
 90
        1
176
     1
 90
        6
176
     1
 90
        2
176
     1
 62
     8
420
  7895160
176
     1
 90
        3
176
     1
 90
        0
176
     1
 90
        0
176
     1
290
     0
176
     1
 90
        5
176
     1
 40
0.0
176
     1
 90
        0
176
     1
290
     0
176
     1
290
     1
176
     1
290
     1
176
     1
290
     0
176
     1
290
     0
176
     1
290
     0
176
     1
290
     0
176
     1
290
     0
176
     1
290
     0
176
     1
 90
       50
176
     1
 40
0.0
176
     1
 40
1.0
176
     1
 90
        0
176
     1
 62
    18
420
        0
176
     1
 90
       50
176
     1
 90
        3
176
     1
 62
     5
420
      255
176
     1
290
     0
176
     1
 90
       50
176
     1
 90
       50
176
     1
 90
       50
176
     1
290
     0
176
     1
 90
       50
176
     1
 62
   256
176
     0
 40
1.0
176
     0
 90
        2
176
     1
  1
strokes_ogs.tif
176
     1
290
     0
176
     1
 40
1.0
176
     1
 40
1.0
176
     1
  0
VISUALSTYLE
  5
181
102
{ACAD_REACTORS
330
99
102
}
330
99
100
AcDbVisualStyle
  2
Shaded with edges
 70
    26
177
     3
291
     0
 70
    58
 90
        2
176
     1
 90
        2
176
     1
 90
        1
176
     1
 90
        2
176
     1
 40
0.6
176
     1
 40
30.0
176
     1
 62
     7
420
 16777215
176
     1
 90
        1
176
     1
 90
        2
176
     1
 62
     7
176
     1
 62
   257
176
     1
 90
        2
176
     1
 90
        1
176
     1
 40
1.0
176
     1
 90
        8
176
     1
 62
   257
176
     1
 40
1.0
176
     1
 90
        1
176
     1
 90
        6
176
     1
 90
        2
176
     1
 62
     7
176
     1
 90
        3
176
     1
 90
        0
176
     1
 90
        0
176
     1
290
     0
176
     1
 90
        5
176
     1
 40
0.0
176
     1
 90
        0
176
     1
290
     0
176
     1
290
     1
176
     1
290
     1
176
     1
290
     0
176
     1
290
     0
176
     1
290
     0
176
     1
290
     0
176
     1
290
     0
176
     1
290
     0
176
     1
 90
       50
176
     1
 40
0.0
176
     1
 40
1.0
176
     1
 90
        0
176
     1
 62
    18
420
        0
176
     1
 90
       50
176
     1
 90
        3
176
     1
 62
     5
420
      255
176
     1
290
     0
176
     1
 90
       50
176
     1
 90
       50
176
     1
 90
       50
176
     1
290
     0
176
     1
 90
       50
176
     1
 62
   256
176
     0
 40
1.0
176
     0
 90
        2
176
     1
  1
strokes_ogs.tif
176
     1
290
     0
176
     1
 40
1.0
176
     1
 40
1.0
176
     1
  0
VISUALSTYLE
  5
17E
102
{ACAD_REACTORS
330
99
102
}
330
99
100
AcDbVisualStyle
  2
Shades of Gray
 70
    23
177
     3
291
     0
 70
    58
 90
        2
176
     1
 90
        2
176
     1
 90
        3
176
     1
 90
        0
176
     1
 40
0.6
176
     1
 40
30.0
176
     1
 62
     7
420
 16777215
176
     1
 90
        2
176
     1
 90
        2
176
     1
 62
     7
176
     1
 62
     7
176
     1
 90
        1
176
     1
 90
        1
176
     1
 40
40.0
176
     1
 90
        8
176
     1
 62
     7
176
     1
 40
1.0
176
     1
 90
        1
176
     1
 90
        6
176
     1
 90
        2
176
     1
 62
     7
176
     1
 90
        3
176
     1
 90
        0
176
     1
 90
        0
176
     1
290
     0
176
     1
 90
        1
176
     1
 40
0.0
176
     1
 90
        0
176
     1
290
     0
176
     1
290
     1
176
     1
290
     1
176
     1
290
     0
176
     1
290
     0
176
     1
290
     0
176
     1
290
     0
176
     1
290
     0
176
     1
290
     0
176
     1
 90
       50
176
     1
 40
0.0
176
     1
 40
1.0
176
     1
 90
        0
176
     1
 62
    18
420
        0
176
     1
 90
       50
176
     1
 90
        3
176
     1
 62
     5
420
      255
176
     1
290
     0
176
     1
 90
       50
176
     1
 90
       50
176
     1
 90
       50
176
     1
290
     0
176
     1
 90
       50
176
     1
 62
   256
176
     0
 40
1.0
176
     0
 90
        2
176
     1
  1
strokes_ogs.tif
176
     1
290
     0
176
     1
 40
1.0
176
     1
 40
1.0
176
     1
  0
VISUALSTYLE
  5
17F
102
{ACAD_REACTORS
330
99
102
}
330
99
100
AcDbVisualStyle
  2
Sketchy
 70
    24
177
     3
291
     0
 70
    58
 90
        1
176
     1
 90
        2
176
     1
 90
        2
176
     1
 90
        0
176
     1
 40
0.6
176
     1
 40
30.0
176
     1
 62
     7
420
 16777215
176
     1
 90
        2
176
     1
 90
        2
176
     1
 62
     7
176
     1
 62
     7
176
     1
 90
        1
176
     1
 90
        1
176
     1
 40
40.0
176
     1
 90
       11
176
     1
 62
     7
176
     1
 40
1.0
176
     1
 90
        1
176
     1
 90
        6
176
     1
 90
        2
176
     1
 62
     7
176
     1
 90
        6
176
     1
 90
        0
176
     1
 90
        0
176
     1
290
     0
176
     1
 90
        1
176
     1
 40
0.0
176
     1
 90
        0
176
     1
290
     0
176
     1
290
     1
176
     1
290
     1
176
     1
290
     0
176
     1
290
     0
176
     1
290
     0
176
     1
290
     0
176
     1
290
     0
176
     1
290
     0
176
     1
 90
       50
176
     1
 40
0.0
176
     1
 40
1.0
176
     1
 90
        0
176
     1
 62
    18
420
        0
176
     1
 90
       50
176
     1
 90
        3
176
     1
 62
     5
420
      255
176
     1
290
     0
176
     1
 90
       50
176
     1
 90
       50
176
     1
 90
       50
176
     1
290
     0
176
     1
 90
       50
176
     1
 62
   256
176
     0
 40
1.0
176
     0
 90
        2
176
     1
  1
strokes_ogs.tif
176
     1
290
     0
176
     1
 40
1.0
176
     1
 40
1.0
176
     1
  0
VISUALSTYLE
  5
A6
102
{ACAD_REACTORS
330
99
102
}
330
99
100
AcDbVisualStyle
  2
Thicken
 70
    13
177
     3
291
     1
 70
    58
 90
        2
176
     1
 90
        2
176
     1
 90
        1
176
     1
 90
        0
176
     1
 40
0.6
176
     1
 40
30.0
176
     1
 62
     7
420
 16777215
176
     1
 90
        1
176
     1
 90
        4
176
     1
 62
     7
176
     1
 62
   257
176
     1
 90
        1
176
     1
 90
        1
176
     1
 40
1.0
176
     1
 90
       12
176
     1
 62
     7
176
     1
 40
1.0
176
     1
 90
        1
176
     1
 90
        6
176
     1
 90
        2
176
     1
 62
     7
176
     1
 90
        5
176
     1
 90
        0
176
     1
 90
        0
176
     1
290
     0
176
     1
 90
        1
176
     1
 40
0.0
176
     1
 90
        0
176
     1
290
     0
176
     1
290
     1
176
     1
290
     1
176
     1
290
     0
176
     1
290
     0
176
     1
290
     0
176
     1
290
     0
176
     1
290
     0
176
     1
290
     0
176
     1
 90
       50
176
     1
 40
0.0
176
     1
 40
1.0
176
     1
 90
        0
176
     1
 62
    18
420
        0
176
     1
 90
       50
176
     1
 90
        3
176
     1
 62
     5
420
      255
176
     1
290
     0
176
     1
 90
       50
176
     1
 90
       50
176
     1
 90
       50
176
     1
290
     0
176
     1
 90
       50
176
     1
 62
   256
176
     0
 40
1.0
176
     0
 90
        2
176
     1
  1
strokes_ogs.tif
176
     1
290
     0
176
     1
 40
1.0
176
     1
 40
1.0
176
     1
  0
VISUALSTYLE
  5
A0
102
{ACAD_REACTORS
330
99
102
}
330
99
100
AcDbVisualStyle
  2
Wireframe
 70
     5
177
     3
291
     0
 70
    58
 90
        0
176
     1
 90
        2
176
     1
 90
        0
176
     1
 90
        0
176
     1
 40
0.6
176
     1
 40
30.0
176
     1
 62
     7
420
 16777215
176
     1
 90
        1
176
     1
 90
        4
176
     1
 62
     7
176
     1
 62
   257
176
     1
 90
        1
176
     1
 90
        1
176
     1
 40
1.0
176
     1
 90
        0
176
     1
 62
   257
176
     1
 40
1.0
176
     1
 90
        1
176
     1
 90
        6
176
     1
 90
        2
176
     1
 62
     7
176
     1
 90
        3
176
     1
 90
        0
176
     1
 90
        0
176
     1
290
     0
176
     1
 90
        1
176
     1
 40
0.0
176
     1
 90
        0
176
     1
290
     0
176
     1
290
     1
176
     1
290
     1
176
     1
290
     0
176
     1
290
     0
176
     1
290
     0
176
     1
290
     0
176
     1
290
     0
176
     1
290
     0
176
     1
 90
       50
176
     1
 40
0.0
176
     1
 40
1.0
176
     1
 90
        0
176
     1
 62
    18
420
        0
176
     1
 90
       50
176
     1
 90
        3
176
     1
 62
     5
420
      255
176
     1
290
     0
176
     1
 90
       50
176
     1
 90
       50
176
     1
 90
       50
176
     1
290
     0
176
     1
 90
       50
176
     1
 62
   256
176
     0
 40
1.0
176
     0
 90
        2
176
     1
  1
strokes_ogs.tif
176
     1
290
     0
176
     1
 40
1.0
176
     1
 40
1.0
176
     1
  0
VISUALSTYLE
  5
180
102
{ACAD_REACTORS
330
99
102
}
330
99
100
AcDbVisualStyle
  2
X-Ray
 70
    25
177
     3
291
     0
 70
    58
 90
        2
176
     1
 90
        2
176
     1
 90
        1
176
     1
 90
        1
176
     1
 40
0.5
176
     1
 40
30.0
176
     1
 62
     7
420
 16777215
176
     1
 90
        1
176
     1
 90
        0
176
     1
 62
     7
176
     1
 62
   257
176
     1
 90
        1
176
     1
 90
        1
176
     1
 40
1.0
176
     1
 90
        8
176
     1
 62
     7
176
     1
 40
1.0
176
     1
 90
        1
176
     1
 90
        6
176
     1
 90
        2
176
     1
 62
     7
176
     1
 90
        3
176
     1
 90
        0
176
     1
 90
        0
176
     1
290
     0
176
     1
 90
       13
176
     1
 40
0.0
176
     1
 90
        0
176
     1
290
     0
176
     1
290
     1
176
     1
290
     1
176
     1
290
     0
176
     1
290
     0
176
     1
290
     0
176
     1
290
     0
176
     1
290
     0
176
     1
290
     0
176
     1
 90
       50
176
     1
 40
0.0
176
     1
 40
1.0
176
     1
 90
        0
176
     1
 62
    18
420
        0
176
     1
 90
       50
176
     1
 90
        3
176
     1
 62
     5
420
      255
176
     1
290
     0
176
     1
 90
       50
176
     1
 90
       50
176
     1
 90
       50
176
     1
290
     0
176
     1
 90
       50
176
     1
 62
   256
176
     0
 40
1.0
176
     0
 90
        2
176
     1
  1
strokes_ogs.tif
176
     1
290
     0
176
     1
 40
1.0
176
     1
 40
1.0
176
     1
  0
DICTIONARYVAR
  5
F0
102
{ACAD_REACTORS
330
66
102
}
330
66
100
DictionaryVariables
280
     0
  1
1:1
  0
DICTIONARYVAR
  5
EF
102
{ACAD_REACTORS
330
66
102
}
330
66
100
DictionaryVariables
280
     0
  1
STANDARD
  0
DICTIONARYVAR
  5
89
102
{ACAD_REACTORS
330
66
102
}
330
66
100
DictionaryVariables
280
     0
  1
STANDARD
  0
DICTIONARYVAR
  5
1B7
102
{ACAD_REACTORS
330
66
102
}
330
66
100
DictionaryVariables
280
     0
  1
Imperial24
  0
DICTIONARYVAR
  5
1B8
102
{ACAD_REACTORS
330
66
102
}
330
66
100
DictionaryVariables
280
     0
  1
Imperial24
  0
DICTIONARYVAR
  5
67
102
{ACAD_REACTORS
330
66
102
}
330
66
100
DictionaryVariables
280
     0
  1
2
  0
DICTIONARYVAR
  5
6B
102
{ACAD_REACTORS
330
66
102
}
330
66
100
DictionaryVariables
280
     0
  1
1
  0
DICTIONARYVAR
  5
14D
102
{ACAD_REACTORS
330
66
102
}
330
66
100
DictionaryVariables
280
     0
  1
0
  0
DICTIONARYVAR
  5
14E
102
{ACAD_REACTORS
330
66
102
}
330
66
100
DictionaryVariables
280
     0
  1
0
  0
DICTIONARY
  5
194
330
22
100
AcDbDictionary
280
     1
281
     1
  0
DICTIONARY
  5
188
330
97
100
AcDbDictionary
280
     1
281
     1
  3
FBXASSET
360
189
  0
DICTIONARY
  5
186
330
96
100
AcDbDictionary
280
     1
281
     1
  3
FBXASSET
360
187
  0
DICTIONARY
  5
110
330
98
100
AcDbDictionary
280
     1
281
     1
  3
BUMPTILE
360
112
  3
DIFFUSETILE
360
111
  3
FBXASSET
360
18A
  3
OPACITYTILE
360
113
  3
REFLECTIONTILE
360
114
  0
DICTIONARY
  5
104
330
87
100
AcDbDictionary
280
     1
281
     1
  3
ACAD_ROUNDTRIP_2008_TABLESTYLE_CELLSTYLEMAP
360
AD53
  0
XRECORD
  5
189
102
{ACAD_REACTORS
330
188
102
}
330
188
100
AcDbXrecord
280
     1
 70
     1
 90
429727718
  1
508B35C9-AEE7-456F-BE74-D52651303AC6
310
504B03040A0000080000B670623B3DEE336E79000000790000001B0000006175746F6465736B2D64657369676E2D7061636B6167652E786D6C3C3F786D6C2076657273696F6E3D22312E302220656E636F64696E673D227574662D3822203F3E3C666F726D6174733E3C666F726D61743E687474703A2F2F736368656D612E
310
6175746F6465736B2E636F6D2F64657369676E2D7061636B6167652F323030393C2F666F726D61743E3C2F666F726D6174733E504B0304140006080800B670623BD486FD9CA0000000F4000000130000005B436F6E74656E745F54797065735D2E786D6C7D8EC10E82300C865F65E91D8A1E8C310C0EEA1BF002731658846E
310
D98AC1B77784ABF1D8FE5FBFBF75BBCE937A534CCEB38643598122B6FEE978D0B0485F9C41B54DDD7D022595594E1A469170414C76A4D9A4D207E29CF43ECE46F218070CC6BECC4078ACAA135ACF422C856C0E68EA1BF5669944DDD7BCDE7B1F8E415D77AECB980613C2E4AC91FC167A2B244592486606FC29C8FD7F045B9A
310
EF7053A7E60B504B0304140006080800B670623B28ED286BEB0000007C01000008000000636F72652E786D6C8D90416EC3201045AF82665B6183218D6D61A254764FD00B204C5C94182C03558F5F9C3852BBEB6A467FFE9B197D71FA9E6FE8CBACC17AD7012D0820E3B41FAD9B3A48F1826B40272956EFE32F1B20A766D3C1
310
268314D3EAD3B24BDABB685CCCAAF3A3D94515828980F42D371D04FD696655A814B3235C8B45E9AB9A4C419F5D8653B2237A1CB163DE672FD6AC209BF3C08E0D1B30EB19C3FC9D72FCC6EB231EFA33EDE96BDD341517E5064B11EDFCBCAF57A3A2194156843498524CAA0FCA5B7268F9E185D42D21A2DCEC7FA0B48CFF8492
310
759155FBBB0F2C80A4F991FB408A72CB22977B50B96EB9C91F504B0304140006080800B670623B55019EA25F0000007C00000007000000636E782E786D6C4DCB3B0E80201045D1AD90E915ED2CF8AC45050C11660C8261F98AB1B07AC9C97D42D718D865D3E909258CFD00CCE24AC6E326A164D74DC0B4128928FF32603847
310
2BA13128B1252AC747C6BAB984FC68F0B87FE8960A5C09FE86CFB69FBA01504B0304140006080800B670623B7BC41AC871010000D40300000C0000006662782F636F72652E786D6CC553ED6E8320147D15C2DF4501B56B6D90A64BBB27D80B50A5CE54C120983EFEAE1F4DD7A56BBA5FF3879273EEE59E7310BE393735EA95
310
ED2AA333CC428A91D2B9292A5D66D8BB63B0C26823B835C67D2BC348CB46657880B1E0A535BE9DA1DC68A7B403549B42CDA0EC3AE530CA6B5864B8CB3F552343E91D5474A7B095F949962A6421D0502778E72C0840D390E18DC5F170E664C205F7BE2A66B62A605A75AC94C522DDEEE3651AEF837817C741F2CE92E02D592D
310
83FD6ECB76EC7595A651C2C9D02CB8AB9A8BBADC2AE954814544691A3016D0E883256BBA58278B17BA5A53CAC9507ED3E4DBE2C9265F691747B3DCA9ADC382819091F8E1162272A8933DE82182932144F88C09DF060D8140C84E1EEA8B8F1340BDCA9DB1093085F157AA97B557309586747CD0EF0B4EA64E983A6E0EAEEFCE
310
889E9EF17847386AA94B30211D2C0FDE0D3AF9A4610EAD5536E8DD1969631B593F67E381C33F5157F17725E5A636F6BF1491F980C8FC7B90E13E8A2F504B0304140006080800B670623B70102A487D0000009D0000000B0000006662782F636E782E786D6C4DCCD10A83201886E15B91FFDC95A5C30335ACCDFB886521330D
310
A76397BF1A1DECE883878F57749FD5A3B74D2F17830472A901D9F088930B8B849267CC01754AA418F3DF0D5018572BE160506249B16C274D761E8BCFBB7A179E27F65CB39A0F14D396184C9921B81F34C3ACA1B4B99ABB6E6F062A25AA5F69DF23ACBE504B0304140006080800B670623B3610CA3329010000120200003100
310
00006662782F42384135303843342D343331462D343546312D424341352D3532343432364645413344462F636F72652E786D6C8D515B6EC32010BC0AE22B55850D0E446E848992B43E412FE000495162B07854397EA176A4F62F3F2C9A9D991D58BEBB8F37F0AD7D30CE76905418026DA553C65E3A98E219B510EC04F7CEC5
310
3F3408EC30EA0E16180A7EF12E4D0B249D8DDAC68C5AA7F4020E21E80881BCE54B0783FCD2E3500D296646B856D320AFC34557A4CAEDCC133C449F0380794839A138B47B86DB2345744D7A44594FD0E1B867883594369BFE63BF7EEF793D0B054FC9A8456E548E63CE46FB674D8A58F068C6477CE9F510B582A2C1F80D1182
310
70F349E816B32D65AFB8DD62CCEB42FF274A937A52948C8DEB66893BCB021484D7734370E5D2E9F608A3EF93F3119479ABA0E50B14B8C298119A43CCC4FCFCECB8A18B6388CEE7EF5D5D4F994BD86CBBA182D76543B9FCAE2FD7B24DF103504B0304140006080800B670623B1B8617914E0100003303000030000000666278
310
2F42384135303843342D343331462D343546312D424341352D3532343432364645413344462F636E782E786D6CD593C16EC32010447F0571AD6CE3D489D20813A9877E410FBD62D82434182CC055F3F75D1292E692438FBD206B7698593D61BEFD1E2DF982108D773D6D6B460938E5B571FB9ECE6957AD29D90A1EBC4F7736
310
4A9C1CA1A759A682EF839FA72269D8C9D92654AD71C72206887E0E0A22CAF926B15E498B01E0AA19451807D01A34B919F16B070157417138917400F2F6FA41FCF0092A45DEE414C19BDC21783E4BD39D891265658C3D8DEA00A3ACE59CBC8678ACB54CB26EEB6BD7839D7E9348BE70AD9C8321B9BCA7F9A4A26C542347DEE0
310
50F09802D22BA6749A800A394DD62899107273365E3C82CFC6A55557BC06C10774B7ABE7AEC3B0F34CF06446280E154026D0542C187BA9DAB6628BF7B6DBB0E5A65B3EB1F58631DE64BBE083F7B65CC218087E22CABB042E51D1F2268F1FE12B3EA24D40D63E9CFE00120194D60B9D5BC67FE6D39CDF37E20AF817881F504B
310
0304140006080800B670623BBFEF2E3B690500003C100000340000006662782F42384135303843342D343331462D343546312D424341352D3532343432364645413344462F6F626A656374732E786D6CAD575D739B3814FD2B0CFB0C98D84E931D4227B6938EA793B6534F3BFB90198F0099B001899144EAECAFDF231018B0
310
D37A3FFC609090EEE7B94757C1FB7D915B2F54C88CB31BDB7727B64559CC938CA53776A576CE956DBD0F03C1B9EA2DB32D460A7A63EB693B0C52C1ABD24C257447AA5C8D66EF177F5832A68CDA569C13296F6C193FD182B8A4523CA1F2D94D88226EBADBBBBEDB2C1C8A4D05299F46424B222853B014F30C52ACC6287F389C
310
D85E1878FA7B18E87FB36AFAF62AAFF667A83F635211161F291B8999FAB3D5DDC5FCDA99CF6653677679E13B8BFBC5CAF1DF4D27CBCBE5F2FAF6EE1A8AA51290642C117467871F101B91C581D77CEA2C36869F3229E68CD1B8F61F1ED6361B89092D294B90C78C4A68EB793D190E7D1D9BDEE7A91E1B95FDE9F3BCEAEFE809
310
6A6D6F9F7D4B79F4275C90E7A04248AA51D5C4C738DAE06F72885AC4796EBE65D22A88A22223B995679120E2D50EB1542F098381188D4EA111AE3DB043FF20AF6F2B4AE3D7D83D65E5AECA730D4D3BAC91BD05FEA992B565D95F549CD6069B90AB2A63EACA38A45E4B6A87D781574F86817E4C2FCCC72690D62E2729520E37
310
9BAF234797BAF6D62B3BFC781FED37BA1E4F2B2F052FA9501A3E80569BB8F6A9A364D4FA67654E6F803383981F82F21591FF84F23D9882BC896C3FDBCF8C162508933B2E0AE4C69DD43F6BD2BE38DDDBF10BF86CB4FA784D37F3AF16075E67EC9030DECA1FC0A55373F5DFF3378C591FA9BDF485C10B0A8C8BA909E5262639
310
A8E72163488806A595734C81CB77D1DE0ED7604A303B76913CEC0272F412782FF88EFF4636D8AA56DF7B322474C4B767303F625997056C7B032C473C592B36CEBD15F3F9FF5233B7ABCDC74D257624A60F8658567497B14CE1EC3C80B76FD02011038F9EE9EB0F2E12387A9C844D3F09855125116D1D731DF8B43D2CF4E0A0
310
79A020C6BE946BCE0B7EA1E1219331CD73C228AF5A2DDD31A4B1DA918CE91350854D40A71723140BFA92E94E62B0626016CEFA5864A50E5977E8753CEDBEE1CBB7F52780D20E17AF0BA0F5F9B02A3AD07DCC732EB6D1EBB661421BE0C39E21BABF0FE16D22EA6929407C8DE596724C88B749B6DB5512BC7B228ADFD7CB7EA6
310
3A22397E690BA8D5D8D4E40CEC8CDA23C2C0B7D5898640101CEC9C6D331CE328CB93CAFBBAC70A642DF70DF95155945B52F08AA973C23469FD69ADEF84F7BB18F983A8F8C90E37F5D35980B2139A1C523540813E824EF83448CF7C72B598CE97D7CEEDDDDD3B6736BFBC771677EF66CE6A7E7139F7A793E9EDF2B2B3A8B624
310
0CDA13AA5F8388264EC4A0129909F3B7F5A16CEDF08128E97D680ACA4B9BE7B7B58BB638F0B00700EF36AE8B32A705658A68F83EE897FC2B41573190D1CCAF0B92D233A47CFEB019D9809933F67DD1A5467F8CF69AD9A5AE859342D45355448C64F968A371DC2D596ADC6E43D93D1B466F877A64E2893E54F23C4B40388995
310
525E5005DA3983ED45412510D3EFCA13737B3863F74BD30F2A12E5B4B5E489A025CE25500DB855B11ACE5BBFA185D35DD48D8DC3CE7DC69F2944DB42AA6F6CF09BCA622ADD08C7A36E7C6AE18000BAB08E040135C2D21C9D75B3A91B77BB746C403F38018DFE6EC939DD92F16B40BC05294B9CDA035AAD6D330AE27FE4786B
310
8E45145EA34A75BE1C263A676A35A8ACC6297337400BF16C54EF515F3F77CB77EB3583889C754FFA29081AA98E2222ADEF05DA3E63D2EDEA8B8756C05A7FB6CABC4A91CBF325398202CC952E70A008A830324BA200D5E5EF8F5F04C75DB4B0EE3340E071C98B823333B83577596BF3849B69F2085AA0FAFA212F26BEFF5877
310
FDE622B28D88A42E49E43326DA82D31E8CB006401E1DA726059ECEC168F97A6599036306A135688F9AD2E61A6EA178F4CD51974A9F2CCB9F36FE5EBD14601068D9C3BF01504B0304140006080000B670623B000000000000000000000000350000006662782F42384135303843342D343331462D343546312D424341352D35
310
32343432364645413344462F76657274696365732E62696E504B0304140006080800B670623BF270F1330600000004000000360000006662782F42384135303843342D343331462D343546312D424341352D3532343432364645413344462F747269616E676C65732E62696E636660600000504B0304140006080000B67062
310
3B000000000000000000000000370000006662782F42384135303843342D343331462D343546312D424341352D3532343432364645413344462F617474726962757465732E62696E504B0304140006080800B670623B08DA0BD19000000041010000360000006662782F42384135303843342D343331462D343546312D4243
310
41352D3532343432364645413344462F6469726563746F72792E786D6C858F410AC3201045AF22B36F53E9A60B35CBEEBAE80D244E44489C6234F4F835464A48035D0DF398FF9F8AF63D0E6CC63039F212F8F9020C7D47C6792B21C5FE7403D62A1188E2E60C98D7234A5830286103A55745067B9D86B8A3CF9C7F90C11DE6
310
07FB144396D7B6A82D282E9A152AD114D5EF2CB866EEE831B8EEA07A7BB5A8D7D61A2BAAEB7FD5F70921FF497D00504B0304140006080800B670623B3B4606F3FE000000A00100003B0000006662782F42384135303843342D343331462D343546312D424341352D3532343432364645413344462F7265736F75726365732F
310
636F72652E786D6C8D504B6E833010BD0A9A6D65B08134808CA354A427E8052C332156828DFCA97AFC9A40A576D7CDCCE87D344F8F9FBEE647F689CE6B6B7A6039850C8DB2A336530F315C4903D94970676DF82583CCC8197B5861107C72362E3BA4AC096842428D1D7107A5F71820538F74F4E0D50D6799CB1892C2DFF345
310
AABB9C306779A2934E701F5C0A906D4FD609C2A1B7D129F4BCD858C163D4E3AED163FAA9AF1A1D88F67CA98E6D35906AA82A52BFB39ABCD5CD915C86331BD86BD3B665CD8BD52C78D0F34F46E550061C419494B6843142CB0F5677F4D0D58717DA7494F26295FF31C565FCA7296A13AA728FBBD93C0896823C09C18BB5AFB4
310
9E65A6BD762BBE01504B010214000A0000080000B670623B3DEE336E79000000790000001B00000000000000000000000000000000006175746F6465736B2D64657369676E2D7061636B6167652E786D6C504B01021400140006080800B670623BD486FD9CA0000000F40000001300000000000000000000000000B2000000
310
5B436F6E74656E745F54797065735D2E786D6C504B01021400140006080800B670623B28ED286BEB0000007C010000080000000000000000000000000083010000636F72652E786D6C504B01021400140006080800B670623B55019EA25F0000007C000000070000000000000000000000000094020000636E782E786D6C50
310
4B01021400140006080800B670623B7BC41AC871010000D40300000C00000000000000000000000000180300006662782F636F72652E786D6C504B01021400140006080800B670623B70102A487D0000009D0000000B00000000000000000000000000B30400006662782F636E782E786D6C504B01021400140006080800B6
310
70623B3610CA3329010000120200003100000000000000000000000000590500006662782F42384135303843342D343331462D343546312D424341352D3532343432364645413344462F636F72652E786D6C504B01021400140006080800B670623B1B8617914E010000330300003000000000000000000000000000D10600
310
006662782F42384135303843342D343331462D343546312D424341352D3532343432364645413344462F636E782E786D6C504B01021400140006080800B670623BBFEF2E3B690500003C10000034000000000000000000000000006D0800006662782F42384135303843342D343331462D343546312D424341352D35323434
310
32364645413344462F6F626A656374732E786D6C504B01021400140006080000B670623B0000000000000000000000003500000000000000000000000000280E00006662782F42384135303843342D343331462D343546312D424341352D3532343432364645413344462F76657274696365732E62696E504B010214001400
310
06080800B670623BF270F133060000000400000036000000000000000000000000007B0E00006662782F42384135303843342D343331462D343546312D424341352D3532343432364645413344462F747269616E676C65732E62696E504B01021400140006080000B670623B00000000000000000000000037000000000000
310
00000000000000D50E00006662782F42384135303843342D343331462D343546312D424341352D3532343432364645413344462F617474726962757465732E62696E504B01021400140006080800B670623B08DA0BD1900000004101000036000000000000000000000000002A0F00006662782F42384135303843342D3433
310
31462D343546312D424341352D3532343432364645413344462F6469726563746F72792E786D6C504B01021400140006080800B670623B3B4606F3FE000000A00100003B000000000000000000000000000E1000006662782F42384135303843342D343331462D343546312D424341352D3532343432364645413344462F72
310
65736F75726365732F636F72652E786D6C504B0506000000000E000E0080040000651100000000
  0
XRECORD
  5
187
102
{ACAD_REACTORS
330
186
102
}
330
186
100
AcDbXrecord
280
     1
 70
     1
 90
429727718
  1
887D55A9-D0DD-414E-B741-A7DCD4DA2B4C
310
504B03040A0000080000B670623B3DEE336E79000000790000001B0000006175746F6465736B2D64657369676E2D7061636B6167652E786D6C3C3F786D6C2076657273696F6E3D22312E302220656E636F64696E673D227574662D3822203F3E3C666F726D6174733E3C666F726D61743E687474703A2F2F736368656D612E
310
6175746F6465736B2E636F6D2F64657369676E2D7061636B6167652F323030393C2F666F726D61743E3C2F666F726D6174733E504B0304140006080800B670623BD486FD9CA0000000F4000000130000005B436F6E74656E745F54797065735D2E786D6C7D8EC10E82300C865F65E91D8A1E8C310C0EEA1BF002731658846E
310
D98AC1B77784ABF1D8FE5FBFBF75BBCE937A534CCEB38643598122B6FEE978D0B0485F9C41B54DDD7D022595594E1A469170414C76A4D9A4D207E29CF43ECE46F218070CC6BECC4078ACAA135ACF422C856C0E68EA1BF5669944DDD7BCDE7B1F8E415D77AECB980613C2E4AC91FC167A2B244592486606FC29C8FD7F045B9A
310
EF7053A7E60B504B0304140006080800B670623BBC1638F5EC0000007C01000008000000636F72652E786D6C8D90416EC3201045AF82665B61836BE2D8C24471DB9CA01740401C94182C03558F5F9C3852BBEB6A467FFE9B197D7EF89E6EE8CB2CC17AD7032D0820E394D7D68D3DA478C67B4007C117EFE32F1B202727D3C3
310
2A83E0E3E2D3BC49CABB685CCCAAF3DA6CA20CC14440EA969B1E82BA98491632C5EC08D76296EA2A4753D06797E194AC468F2356E77DF66CCD02825543D50CACC62D39ED70FDC68EB8FD68F6F8787A6784342D1DDA1D2F5758F068A7E77DB518198D065111D2624A31A93E69DD11D6D5EC85EC3B4278B9DAFF4069D6FF8492
310
75F1B5DADE7D600104CD8FDC0782976B16B9DC83CA75CD4DFC00504B0304140006080800B670623B55019EA25F0000007C00000007000000636E782E786D6C4DCB3B0E80201045D1AD90E915ED2CF8AC45050C11660C8261F98AB1B07AC9C97D42D718D865D3E909258CFD00CCE24AC6E326A164D74DC0B4128928FF326038
310
472BA13128B1252AC747C6BAB984FC68F0B87FE8960A5C09FE86CFB69FBA01504B0304140006080800B670623B3586FFB671010000D40300000C0000006662782F636F72652E786D6CC553ED6E8320147D15C2DF4541A76D6D90A6DDD627D80B50A4CE54C120983EFEAE1F4DD7A55BBA5FF3879273EEE59E7310B6393735EA
310
95ED2AA3731C851423A5A5292A5DE6D8BB63B0C268C39935C67D29C3488B46E578803167A535BE9D2169B453DA01AA4DA16650749D7218C91A1639EEE4876A4428BC838AEE14B6429E44A9C228041AEA38EB9C0501681A32BC313F1ECE8C4C3867DE57C5CC56054CAB8E95B298A7F12E5EEED224C8E87E11242FE936C8DE96
310
AB60BB7F4D295D66D12E5B30323473E6AAE6A24E5A259C2A308F29CD82280A68FC1E256B9AAE93F489AED694323294DF34F9B678B0C957DA3DC7B3DCA9ADC33C022123F1CD2D44E450277AD04338234388F01913BE0D1A0281909D38D4171F27807A259DB1093085F157AA17B557309586747CD0CF0B46A64E983A6E0EAEEF
310
CE881F9EF1FB8E70D44297604238581EBC1B74B249C31C5AAB6CD0BB33D2C636A27ECCC62F0EFF445DC5DF95244D6DEC7F2922F30191F9F720C37DE49F504B0304140006080800B670623B4220A0FF7D0000009D0000000B0000006662782F636E782E786D6C4DCCD10A83201886E15B91FFDCE542CB0335D0EC3E6259C84A
310
C3E9D8E5AF46073BFAE0E1E315DD675BD1DBA5978F41C2FD4600B9F088930F8B849267CC01754AA418F3DF0D50183727E164506249B1EC174D6E1ECB9A0F5D7D785E68DB8151CD286E5A5363CA6B8A39E90D36D40E96B086F55A43A544F52B1D7B86D517504B0304140006080800B670623B2FA3FEDE290100001202000031
310
0000006662782F45374635344235342D363743322D343832342D383044432D4334454645303536354442422F636F72652E786D6C8D515B6EC32010BC0AE22B55850D2E386E848994D7097A0117488A1283C5A3CAF10BB523B57FF961D1ECCCECC0F2ED7DBC816FED8371B687A4C210682B9D32F6D2C314CFA883602BB8772E
310
FEA141608751F7B0C050F08B77695A20E96CD43666D43AA5177008414708E42D5F7A18E4971E876A483133C2B59A06791D2EBA22556E679EE021FA1C00CC43CA09C5717D6274C7286AD7FB06D1AEA1A8C3873DDAD3E3E98859CB0EBB1DAF67A1E02919B5C88DCA71CCD968FFAC49110B1ECDF8882FBD1EA256503418BF2342
310
106E3E08DD60B6A1EC15771B8C795DE8FF4469524F8A92B1F1AD59E2CEB20005E1F5DC105CB9F4797B84D1F7C9F908CABC55D0F2050A5C61CC1AD2F27A26E6E767C7962E8E213A9FBF7775FDCC5CC266DB960A5E970DE5F2BBBE5CCB36C50F504B0304140006080800B670623B1B8617914E01000033030000300000006662
310
782F45374635344235342D363743322D343832342D383044432D4334454645303536354442422F636E782E786D6CD593C16EC32010447F0571AD6CE3D489D20813A9877E410FBD62D82434182CC055F3F75D1292E692438FBD206B7698593D61BEFD1E2DF982108D773D6D6B460938E5B571FB9ECE6957AD29D90A1EBC4F77
310
364A9C1CA1A759A682EF839FA72269D8C9D92654AD71C72206887E0E0A22CAF926B15E498B01E0AA19451807D01A34B919F16B070157417138917400F2F6FA41FCF0092A45DEE414C19BDC21783E4BD39D891265658C3D8DEA00A3ACE59CBC8678ACB54CB26EEB6BD7839D7E9348BE70AD9C8321B9BCA7F9A4A26C542347DE
310
E050F09802D22BA6749A800A394DD62899107273365E3C82CFC6A55557BC06C10774B7ABE7AEC3B0F34CF06446280E154026D0542C187BA9DAB6628BF7B6DBB0E5A65B3EB1F58631DE64BBE083F7B65CC218087E22CABB042E51D1F2268F1FE12B3EA24D40D63E9CFE00120194D60B9D5BC67FE6D39CDF37E20AF817881F50
310
4B0304140006080800B670623B29652116630500003C100000340000006662782F45374635344235342D363743322D343832342D383044432D4334454645303536354442422F6F626A656374732E786D6CAD575D739B3814FD2B0CFB0C989834C90EA1639B24E3E9A6EDD4D3CE3E64C623834CD8006224913AFDF57B040203
310
B65BEF871F0C12D2FD3CF7E8CA7FBFCB33E3957291B2E2D674ED8969D02262715A24B76625B7D6B569BC0F7CCE98EC2D338D82E4F4D654D366E0279C55A59E8AE99654991CCDDECFFF3444440B6A1A514684B83545F44C7362934AB2988A173B2692D8C97667BB76B3702836E1A47C1E092D09A78584A5982F20C5688C7287
310
C389E904BEA3BE07BEFAD7ABA6A75739B53F43FD69212429A20365233153D70BEF2E2E6FAC4BCF9B5ADEBB0BD79ADFCF43CBBD9A4E16EF168B9BD9DD0D140BC921495BC2E9D60C1E101B9E46BED37CEA2CD6861F3329624541A3DA7F7858DBAC25C6B4A4458C3CA654405BCFEBC970E8AAD8F43E4FD558ABEC4F9FE7557F47
310
4F506B7BFBEC5BCA367FC105710E2AB8A00A554D7CB4A30DFE26FBA86D18CBF4B75418399194A72433B274C3097F33032C554B027F2046A1932B842B0FCCC0DDCBEBDB8AD2F835768F59B9ADB24C41D30C6A64AF817F2A456D59FA83F2E3DA60137255A585BCD60EC9B7929AC18DEFD49381AF1ED30BFDB109A4B1CD488294
310
C3CDE6EBC8D185AABD6568061FEE37BB95AAC7E3CA4BCE4ACAA5820FA0D526AE7DAA2869B5EE5999531BE0CC20E6FBA07C41E43FA27CF7A6206F3CDD793B4F6B919C1462CB788EDCD893FA674CDA17AB7B3B7C019F8D561FAEE966FED562DFE98C1D12C6A9FC015C2A35D7FF3D7FC398F591DA4B5FE0BFA2C0189FEA50AE22
310
92817A1ED3020951A03432862970F976B33383259812CC8E5D240BBA801CBCF8CE2BBEE3BF910DB6AAD5F79E05123AE2DB33981FB1ACCB02B69D00CB014FD68AB573A7627EF9BFD4CC2C5C7D58557C4B22FAA88925A4DBB44825CECE3D78FB060D1231F0E885BE7D673C86A3874958F593906B5502D1563157814FDAC3420D
310
F69A070A22EC4B98E23CFF171A1E5311D12C23056555ABA53B8614563B92D17D02AAB009E8F46284624E5F53D5490C560CCCC2591FF1B45421EB0EBD8EA7ED13BE7C5D7E0428CD60FEF60779EB13E6664FF711CB185F6FDED60D139A001FF60CD1FD6D086F1D51474901E26B2CB794A343BC8ED3EDB612E0DD2351FCB65CF4
310
33D511C9E14B5B40ADC6A6263DB0336A8F700DDF56271A024E70B0B3629DE21847591E55DED73D56206AB927E46FAABC5C939C55853C274C93D69FD6FA4E78BF8B11DF898C9ECD60553FAD39283BA6F18984AA23E8884F83F45C5F5F859797B31B2B9C84A1E5B9DE9D35BFF25C6B76152E422F9C5DCC3D847F5801ED09D5AF
310
41441327A25FF15487F9EB725FB666F048A4701E9A827292E6F97569A32DF61DEC01C0BB8DCBBCCC684E0B49147C1FD54BF685A0AB18C868E6973949E819523E3DAC463660E68C7D9F55A9D1EFA3BD7A76A16AE1A810F95CE59B82A4D968A376DC2E8B44BBDD86B27B368CDE0ED548C7137DA860591A83706223A12CA712B4
310
7306DBF39C0A20A6DF95C7FAF670C6EED7A61F946493D1D6926782963813403548A78AE470DEF80D2D9CEAA26E4D1C76F60BFE74219A06527D6B82DF641A51616F703CAAC6A7160E08A00BEB4810A0274592A1B36E3675E36E978A0DE80727A0D6DF2D39A75BD27E0D8837276589537B40ABB56D5A41F48F1C6FCD3188C4EB
310
A6929D2FFB89CE995A4D00AE813BDD032DC48B56BD437DFDDC2DD7AED70C2272D63DE9A72068A45A92F0A4BE17A8A06B9366E16707AD80B1FC649459952097E74BB23805982B55E0401150A165964402AA8BDF9F3E7386BB686EDCA780C0D382E5392BF460A6EFB2C6EA1937D3F809B440D5F5435C4C5CF7A9EEFAF54564BD
310
2182DA24162F98680B4E7930C21A0079709CEAEB99A372305ABE0C0D7D6078105A83F6A0296DAEE1068A47DD1C55A9F4C9B2FC69E3EFD44B81028E963DF81B504B0304140006080000B670623B000000000000000000000000350000006662782F45374635344235342D363743322D343832342D383044432D433445464530
310
3536354442422F76657274696365732E62696E504B0304140006080800B670623BF270F1330600000004000000360000006662782F45374635344235342D363743322D343832342D383044432D4334454645303536354442422F747269616E676C65732E62696E636660600000504B0304140006080000B670623B00000000
310
0000000000000000370000006662782F45374635344235342D363743322D343832342D383044432D4334454645303536354442422F617474726962757465732E62696E504B0304140006080800B670623B08DA0BD19000000041010000360000006662782F45374635344235342D363743322D343832342D383044432D4334
310
454645303536354442422F6469726563746F72792E786D6C858F410AC3201045AF22B36F53E9A60B35CBEEBAE80D244E44489C6234F4F835464A48035D0DF398FF9F8AF63D0E6CC63039F212F8F9020C7D47C6792B21C5FE7403D62A1188E2E60C98D7234A5830286103A55745067B9D86B8A3CF9C7F90C11DE607FB144396
310
D7B6A82D282E9A152AD114D5EF2CB866EEE831B8EEA07A7BB5A8D7D61A2BAAEB7FD5F70921FF497D00504B0304140006080800B670623B6378F24DFF000000A00100003B0000006662782F45374635344235342D363743322D343832342D383044432D4334454645303536354442422F7265736F75726365732F636F72652E
310
786D6C8D504B6E833010BD0A9A6D65B0094E42641C85B639412F6099496225D8C89FAAC7AF09546A77DDCC8CDE47F3F4C4F16B7C149FE88371B603565228D06A37187BED20C50BD9437194C23B177FC9A0B06AC40E6618A4B87A97A615D2CE46B431A3D60DB8822A048C50E8473E3A08FA86A32A558A5911EEE5A4F45D5DB1
310
6465A6B34E8A107D0E502C4FE609D26370C96B0CA25A58295232C3AA3143FE692E063D485EF7F5AEE71BD2D2F39634AFFC44DAF7DD9E9CCE6F9CD25DCBFA762BAAD92C4534E34F46ED51451C40D694B6843142EB0FD61C283F34FC85EE0F948A6A96FF31A569F8A729191B37F51A77B105902C0779125254735F793DCBCC7B
310
EE567E03504B010214000A0000080000B670623B3DEE336E79000000790000001B00000000000000000000000000000000006175746F6465736B2D64657369676E2D7061636B6167652E786D6C504B01021400140006080800B670623BD486FD9CA0000000F40000001300000000000000000000000000B20000005B436F6E
310
74656E745F54797065735D2E786D6C504B01021400140006080800B670623BBC1638F5EC0000007C010000080000000000000000000000000083010000636F72652E786D6C504B01021400140006080800B670623B55019EA25F0000007C000000070000000000000000000000000095020000636E782E786D6C504B010214
310
00140006080800B670623B3586FFB671010000D40300000C00000000000000000000000000190300006662782F636F72652E786D6C504B01021400140006080800B670623B4220A0FF7D0000009D0000000B00000000000000000000000000B40400006662782F636E782E786D6C504B01021400140006080800B670623B2F
310
A3FEDE290100001202000031000000000000000000000000005A0500006662782F45374635344235342D363743322D343832342D383044432D4334454645303536354442422F636F72652E786D6C504B01021400140006080800B670623B1B8617914E010000330300003000000000000000000000000000D2060000666278
310
2F45374635344235342D363743322D343832342D383044432D4334454645303536354442422F636E782E786D6C504B01021400140006080800B670623B29652116630500003C10000034000000000000000000000000006E0800006662782F45374635344235342D363743322D343832342D383044432D4334454645303536
310
354442422F6F626A656374732E786D6C504B01021400140006080000B670623B0000000000000000000000003500000000000000000000000000230E00006662782F45374635344235342D363743322D343832342D383044432D4334454645303536354442422F76657274696365732E62696E504B01021400140006080800
310
B670623BF270F13306000000040000003600000000000000000000000000760E00006662782F45374635344235342D363743322D343832342D383044432D4334454645303536354442422F747269616E676C65732E62696E504B01021400140006080000B670623B0000000000000000000000003700000000000000000000
310
000000D00E00006662782F45374635344235342D363743322D343832342D383044432D4334454645303536354442422F617474726962757465732E62696E504B01021400140006080800B670623B08DA0BD190000000410100003600000000000000000000000000250F00006662782F45374635344235342D363743322D34
310
3832342D383044432D4334454645303536354442422F6469726563746F72792E786D6C504B01021400140006080800B670623B6378F24DFF000000A00100003B00000000000000000000000000091000006662782F45374635344235342D363743322D343832342D383044432D4334454645303536354442422F7265736F75
310
726365732F636F72652E786D6C504B0506000000000E000E0080040000611100000000
  0
XRECORD
  5
112
102
{ACAD_REACTORS
330
110
102
}
330
110
100
AcDbXrecord
280
     1
270
     1
271
     1
  0
XRECORD
  5
111
102
{ACAD_REACTORS
330
110
102
}
330
110
100
AcDbXrecord
280
     1
270
     1
271
     1
  0
XRECORD
  5
18A
102
{ACAD_REACTORS
330
110
102
}
330
110
100
AcDbXrecord
280
     1
 70
     0
 90
1778669749
  1
9BF507EE-FAF7-4A99-A33D-4EE51894BC40
310
504B03040A0000080000B670623B3DEE336E79000000790000001B0000006175746F6465736B2D64657369676E2D7061636B6167652E786D6C3C3F786D6C2076657273696F6E3D22312E302220656E636F64696E673D227574662D3822203F3E3C666F726D6174733E3C666F726D61743E687474703A2F2F736368656D612E
310
6175746F6465736B2E636F6D2F64657369676E2D7061636B6167652F323030393C2F666F726D61743E3C2F666F726D6174733E504B0304140006080800B670623BD486FD9CA0000000F4000000130000005B436F6E74656E745F54797065735D2E786D6C7D8EC10E82300C865F65E91D8A1E8C310C0EEA1BF002731658846E
310
D98AC1B77784ABF1D8FE5FBFBF75BBCE937A534CCEB38643598122B6FEE978D0B0485F9C41B54DDD7D022595594E1A469170414C76A4D9A4D207E29CF43ECE46F218070CC6BECC4078ACAA135ACF422C856C0E68EA1BF5669944DDD7BCDE7B1F8E415D77AECB980613C2E4AC91FC167A2B244592486606FC29C8FD7F045B9A
310
EF7053A7E60B504B0304140006080800B670623BCA089DFFEC0000007C01000008000000636F72652E786D6C8D90416E83301045AF62CDB632D8402020E32882F604BD80653BC44AB011B6AB1EBF262152BBEB6A467FFE9B197D76FA9EEFE84BAFDE38DB03CD08206DA553C64E3DC470C1474027CE56E7C22F1B202B66DDC3
310
260367D3EAE2B24BD2D9A06D48AA754AEFA2F05E0740F29E9A1EBCBCEA59642286E4F0B76C11F226269DD15797E0188D42CF2346A57DE662F40ABCAEC77628C6120F654571D50C04B7F5B9C1E3997CD4F550BE3745C3F20DE62C98F9755FAE5A04AD801784B498524C8A4F5A75E4D055873772EC0861F966FF03C545FD138A
310
C686B2D8DF7D621E384D8F3C069CE55B16A93C824A75CB8DFF00504B0304140006080800B670623B55019EA25F0000007C00000007000000636E782E786D6C4DCB3B0E80201045D1AD90E915ED2CF8AC45050C11660C8261F98AB1B07AC9C97D42D718D865D3E909258CFD00CCE24AC6E326A164D74DC0B4128928FF326038
310
472BA13128B1252AC747C6BAB984FC68F0B87FE8960A5C09FE86CFB69FBA01504B0304140006080800B670623B68FC0B7272010000D40300000C0000006662782F636F72652E786D6CC5535B6E833010BC8AE5DF0A6C1E8124328E22D29EA01770C0A128602363A31CBFCB234A53A555FA553EC09AD9F5CE8C31DB5DDA060D
310
D2F4B556190E7C8A9154852E6B5565D8D993B7C668C799D1DA7E29C3488956667884316795D1AE5BA0422B2B950554E9522EA0E87B69312A1A5864B82F3E642B7CE12C54F467BF13C55954D20F7CA0A18EB3DE1A1080E621E31BF3D3F1C2C88C73E65C5D2E6C5DC2B4FA544B8379921C36797888BC3C8A032F4E73EA6D927D
310
EA1DF6F42D49F2E8350D5346C666CE6CDD5ED515460A2B4BCC434A375E1078347C0FE22D5D6DE3D50B5D6F2965642CBF6B725DF96493AB958DC245EEDCD6631E809089F8E61622B2A81703E8219C913144F84C09DF070D8140C8561C9BAB8F3340832CAC363130A576376A108D933095FA747AD0CF0B46E64E983A6D0EAE1F
310
CE089F9EF1FB8E70D44255604258581E9D1D75B259C3125A278D37D80B52DAB4A279CEC62F0EFF44DDC43F9454E8469BFF5244960322CBEF41C6FBC83F01504B0304140006080800B670623B0F71DDB67E0000009D0000000B0000006662782F636E782E786D6C4DCCD10A83201886E15B91FFDCA54DB73F502386BB8F5816
310
32D3703976F9ABD1C18E3E78F87855FB990379BBFCF2296AE02706C4C5471A7C9C349475A408A4352AA7B4FEDD80C47E761A7606A3A69CCA72D0E0C6BE8475D3E0E3F3409428EA6B27A84079A782899AA2EC1A7AE3ECCC2FD858CB2D544655BFD2B67BD87C01504B0304140006080800B670623BE134B4FB28010000120200
310
00310000006662782F38353834323741342D343835462D343034322D383541392D4331303331363839454531452F636F72652E786D6C8D515B6EC32010BC0AE22B55850D0EA424C24451959EA0172086A42831583CAA1CBF503B52FB971F16CDCECC0EACD8DFC71BF836215AEF7A481A0C817183D7D65D7A98D3197108F652
310
04EFD31F1A044E8DA6871586525C82CFD3020DDE25E352419DD76601558C264130DCCAA58771F832A36A544E8511AFCDA486ABBA988634A55D7852C4144A00300FA927949C71DABD1D28A29C7D208A6987383B6CD13BC16BB2E1DBE3911C453B0BA5C8D9EA456E758963CFD684674DAA588A64C747FC2118958C86B2C3788B
310
0841B8FB247487D98EB257CC77188BB6D2FF89F2A49F1465EBD2BA5BE2CEB2082511EDDC9042FB7CBA3DC298FBE4430275DE2A9AE1054ADC60CC08E3A29D89E5F9C5714317C7987C28DFBBBA9E0A97B0D97643A568EB864AF95D5FA9759BF207504B0304140006080800B670623B1B8617914E010000330300003000000066
310
62782F38353834323741342D343835462D343034322D383541392D4331303331363839454531452F636E782E786D6CD593C16EC32010447F0571AD6CE3D489D20813A9877E410FBD62D82434182CC055F3F75D1292E692438FBD206B7698593D61BEFD1E2DF982108D773D6D6B460938E5B571FB9ECE6957AD29D90A1EBC4F
310
77364A9C1CA1A759A682EF839FA72269D8C9D92654AD71C72206887E0E0A22CAF926B15E498B01E0AA19451807D01A34B919F16B070157417138917400F2F6FA41FCF0092A45DEE414C19BDC21783E4BD39D891265658C3D8DEA00A3ACE59CBC8678ACB54CB26EEB6BD7839D7E9348BE70AD9C8321B9BCA7F9A4A26C542347
310
DEE050F09802D22BA6749A800A394DD62899107273365E3C82CFC6A55557BC06C10774B7ABE7AEC3B0F34CF06446280E154026D0542C187BA9DAB6628BF7B6DBB0E5A65B3EB1F58631DE64BBE083F7B65CC218087E22CABB042E51D1F2268F1FE12B3EA24D40D63E9CFE00120194D60B9D5BC67FE6D39CDF37E20AF817881F
310
504B0304140006080800B670623B5933D422630500003B100000340000006662782F38353834323741342D343835462D343034322D383541392D4331303331363839454531452F6F626A656374732E786D6CAD575B6FA33814FE2B887D0642934E9B156594264D158D3A534DD4D13E548A0C38942D60649B4EBABF7E3F8321
310
40924EF6928780CDF1B97EE762EFF32E4B8D37CA45C2F21BD3B547A641F39045491EDF98A5DC5AD7A6F1D9F73863B243661A39C9E88DA9B64DDF8B392B0BBD15D12D295339D85DDEFE618890E6D434C2940871638AF08566C426A5641115AF764424B1E3EDCE76ED9AB0CF36E6A47819302D08A7B984A6D8CFC1C5A89572FB
310
CB91E9F89EA3BEFB9EFAD754E3D3544E654F5F7E920B49F2F040D880CDD89D2CEE2E2EA7D6E56432B6269F2E5CEB7679BBB0DCABF168FE693E9FCEEEA6102C240727AD09A75BD3BF876F78127A4EFDA9D5582B7E4CA590E5390D2BFB6161A5B3E618D182E611E2985001691DAB47FDA5AB7CD3F93C566B2DB2BB7D9E55DD13
310
1D468DEECDB3AB290BFE8409E21C54704115AA6AFF68436BFC8DF65E0B184BF5B74418199194272435D224E084BF9B3E481589EFF5D828747285706581E9BB7B7E5D5D911ABFC6EE312DB7659A2A689A7E85EC0DF04FA5A8344BFEA2FCB834E8845895492EAFB541F2BDA0A63FF59C6AD3F7D4637CA13FD68E34B629891172
310
98597F1D183A57B9B75A98FE9765B05BAB7C3C2EBCE0ACA05C2AF8005A4DE09AA7F29216EB9E15397500C6F47CBE77CA7778FE2BD277AF0AE2C693DD6437D1522427B9D8329E2136F6A8FA19A3E6C56ADF0E5F50CF06D48734EDCEBF22F69C56D97EC138153F804B85E6FABFC7AFEFB32E523BE1F3BD372418E363EDCA7548
310
52949E8724474014288D94610BB57C1BEC4C7F854A89CA8E5324F55B871CBC78CE1BBEE3BFE68D6A5589EF3C730474506FCFA8FCF0659516D0ED04580EEA6425581B77CAE797FF4BCECC16EB2FEB926F49481F746159D06D922712BD730FDEAE42BD40F42C7AA5EF3F198F60E86110D6DD20645A9480B795CF95E3E3A659A8
310
C55E724F408873315335CFFB8584874484344D494E59D94869DB90C26A5B64F49C802CAC1D3ABE18A098D3B7444D123D8A9E5AE8F5214F0AE5B2B6E9B575DA3E61CBD3EA2B4009FA940524DD1305FB6A1FB294F14DF0BEA90BA109ECE1481FDC3FFAE8D60E75141700BE82725371B4873751B2DD960265F788137FACE6DD40
310
B575E4F0A5C99F46629D92131467A41EE11ABD8D4CCC039CA0AFB37C93A08B232B8F0AEFCA1E0A1015DF13FC83322B362463652ECF71D3A8B1A7D1BE65DE1D62C44F22C317D35F574FEB16153BA2D13E543D10A80E74C4A65E78A6B7CBCBD1D5DD9DB59C2DAFACC96C3AB566E3F1C29ADCDD5DBAD7D3C9ED7C822ED74F80A6
310
41755310DE4443F44A9E68373FADF6596BFA0F440AE7BECE2727AE9F4F2B1B53B1E7E00CF0DD1E5C65454A339A4BA2D0FBA05ED2EF0443458F47BDBFCA484CCFE0F2ED7E3DD0013B679C7B5499467F0ECEEADDB9CA85A34CE44B99053949D2C1416DB85DE4B136BB7165FBAC0B7AB3542BED4F8CA182A549847A1319316519
310
95A83A67147B9E5101C47487F2485F1ECE38FD568F839204296D3479219888530154036E6528FBFBC66F98E0D4107563A2D7D9AFF8D389681A08F58D89F22693900A3B407754734FC51C10C010D6D640809EE4718AC1BA3ED4AEDB53CA37283F68805A7E4B72CEB0A4EDEAD5DD8C14059A76AFAA56BA6901E13F32BC51C720
310
12AF41295B5BF61BAD3195181FB506E6B40F4C10AF5AF40EF9F5B159AE5DD1F43C72D635E94310D45C2D49785C5D0B94D3B54AB3C5A38349C0587D338AB48C11CBF339599C02CCA54A70A008A8D03C0B2201D5F9EFCF8F9CE12A9A19CB0410789EB32C63B95ECCF455D658BFE0621A3DA32C5075FB101723D77DAE867E7D0F
310
D90444509B44E2151B4DC2290B065803200FBAA9BE9D392A0603F2D5C2D00D6302A615680F66D2FA166E2079D4C551A54AB758161FCEFD4E450A14704CECFEDF504B0304140006080000B670623B000000000000000000000000350000006662782F38353834323741342D343835462D343034322D383541392D4331303331
310
363839454531452F76657274696365732E62696E504B0304140006080800B670623BF270F1330600000004000000360000006662782F38353834323741342D343835462D343034322D383541392D4331303331363839454531452F747269616E676C65732E62696E636660600000504B0304140006080000B670623B000000
310
000000000000000000370000006662782F38353834323741342D343835462D343034322D383541392D4331303331363839454531452F617474726962757465732E62696E504B0304140006080800B670623B08DA0BD19000000041010000360000006662782F38353834323741342D343835462D343034322D383541392D43
310
31303331363839454531452F6469726563746F72792E786D6C858F410AC3201045AF22B36F53E9A60B35CBEEBAE80D244E44489C6234F4F835464A48035D0DF398FF9F8AF63D0E6CC63039F212F8F9020C7D47C6792B21C5FE7403D62A1188E2E60C98D7234A5830286103A55745067B9D86B8A3CF9C7F90C11DE607FB1443
310
96D7B6A82D282E9A152AD114D5EF2CB866EEE831B8EEA07A7BB5A8D7D61A2BAAEB7FD5F70921FF497D00504B0304140006080800B670623BD9A3B367FE000000A00100003B0000006662782F38353834323741342D343835462D343034322D383541392D4331303331363839454531452F7265736F75726365732F636F7265
310
2E786D6C8D504B6E833010BD0A9A6D65B01D0201194711694FD00B586642AD043BF2A7EAF16B122AB5BB6E6646EFA3797AE2F8B5DC8A4FF4C1383B002B291468B59B8C9D0748F1420E501CA5F0CEC55F3228AC5A708015062966EFD27D83B4B3116DCCA875136EA00A012314FA968F0182FEC045952AC5AC08D7F2AEF455CD
310
58B232D3592745883E07289E4FD609D26370C96B0CA27AB252A464A64D63A6FCD35C0C7A904D73EE467EE664DCD58CD4ED4849D79C5A723ED1B7A61977AF2D6F45B59AA58866F9C9A83DAA8813484E6947182394BFB3BAA7FBBEDEBFD0434FA9A856F91F53BA4FFF342563E38E6F719FB60092E5200F428A6AED2BAF479979
310
AFDDCA6F504B010214000A0000080000B670623B3DEE336E79000000790000001B00000000000000000000000000000000006175746F6465736B2D64657369676E2D7061636B6167652E786D6C504B01021400140006080800B670623BD486FD9CA0000000F40000001300000000000000000000000000B20000005B436F6E
310
74656E745F54797065735D2E786D6C504B01021400140006080800B670623BCA089DFFEC0000007C010000080000000000000000000000000083010000636F72652E786D6C504B01021400140006080800B670623B55019EA25F0000007C000000070000000000000000000000000095020000636E782E786D6C504B010214
310
00140006080800B670623B68FC0B7272010000D40300000C00000000000000000000000000190300006662782F636F72652E786D6C504B01021400140006080800B670623B0F71DDB67E0000009D0000000B00000000000000000000000000B50400006662782F636E782E786D6C504B01021400140006080800B670623BE1
310
34B4FB280100001202000031000000000000000000000000005C0500006662782F38353834323741342D343835462D343034322D383541392D4331303331363839454531452F636F72652E786D6C504B01021400140006080800B670623B1B8617914E010000330300003000000000000000000000000000D3060000666278
310
2F38353834323741342D343835462D343034322D383541392D4331303331363839454531452F636E782E786D6C504B01021400140006080800B670623B5933D422630500003B10000034000000000000000000000000006F0800006662782F38353834323741342D343835462D343034322D383541392D4331303331363839
310
454531452F6F626A656374732E786D6C504B01021400140006080000B670623B0000000000000000000000003500000000000000000000000000240E00006662782F38353834323741342D343835462D343034322D383541392D4331303331363839454531452F76657274696365732E62696E504B01021400140006080800
310
B670623BF270F13306000000040000003600000000000000000000000000770E00006662782F38353834323741342D343835462D343034322D383541392D4331303331363839454531452F747269616E676C65732E62696E504B01021400140006080000B670623B0000000000000000000000003700000000000000000000
310
000000D10E00006662782F38353834323741342D343835462D343034322D383541392D4331303331363839454531452F617474726962757465732E62696E504B01021400140006080800B670623B08DA0BD190000000410100003600000000000000000000000000260F00006662782F38353834323741342D343835462D34
310
3034322D383541392D4331303331363839454531452F6469726563746F72792E786D6C504B01021400140006080800B670623BD9A3B367FE000000A00100003B000000000000000000000000000A1000006662782F38353834323741342D343835462D343034322D383541392D4331303331363839454531452F7265736F75
310
726365732F636F72652E786D6C504B0506000000000E000E0080040000611100000000
  0
XRECORD
  5
113
102
{ACAD_REACTORS
330
110
102
}
330
110
100
AcDbXrecord
280
     1
270
     1
271
     1
  0
XRECORD
  5
114
102
{ACAD_REACTORS
330
110
102
}
330
110
100
AcDbXrecord
280
     1
270
     1
271
     1
  0
CELLSTYLEMAP
  5
AD53
102
{ACAD_REACTORS
330
104
102
}
330
104
100
AcDbCellStyleMap
 90
        3
300
CELLSTYLE
  1
TABLEFORMAT_BEGIN
 90
        5
170
     1
 91
        0
 92
    32768
 62
   257
 93
        1
300
CONTENTFORMAT
  1
CONTENTFORMAT_BEGIN
 90
        0
 91
        0
 92
      512
 93
        0
300

 40
0.0
140
1.0
 94
        5
 62
     0
340
11
144
0.25
309
CONTENTFORMAT_END
171
     1
301
MARGIN
  1
CELLMARGIN_BEGIN
 40
0.06
 40
0.06
 40
0.06
 40
0.06
 40
0.18
 40
0.18
309
CELLMARGIN_END
 94
        6
 95
        1
302
GRIDFORMAT
  1
GRIDFORMAT_BEGIN
 90
        0
 91
        1
 62
     0
 92
       -2
340
0
 93
        0
 40
0.045
309
GRIDFORMAT_END
 95
        2
302
GRIDFORMAT
  1
GRIDFORMAT_BEGIN
 90
        0
 91
        1
 62
     0
 92
       -2
340
0
 93
        0
 40
0.045
309
GRIDFORMAT_END
 95
        4
302
GRIDFORMAT
  1
GRIDFORMAT_BEGIN
 90
        0
 91
        1
 62
     0
 92
       -2
340
0
 93
        0
 40
0.045
309
GRIDFORMAT_END
 95
        8
302
GRIDFORMAT
  1
GRIDFORMAT_BEGIN
 90
        0
 91
        1
 62
     0
 92
       -2
340
0
 93
        0
 40
0.045
309
GRIDFORMAT_END
 95
       16
302
GRIDFORMAT
  1
GRIDFORMAT_BEGIN
 90
        0
 91
        1
 62
     0
 92
       -2
340
0
 93
        0
 40
0.045
309
GRIDFORMAT_END
 95
       32
302
GRIDFORMAT
  1
GRIDFORMAT_BEGIN
 90
        0
 91
        1
 62
     0
 92
       -2
340
0
 93
        0
 40
0.045
309
GRIDFORMAT_END
309
TABLEFORMAT_END
  1
CELLSTYLE_BEGIN
 90
        1
 91
        1
300
_TITLE
309
CELLSTYLE_END
300
CELLSTYLE
  1
TABLEFORMAT_BEGIN
 90
        5
170
     1
 91
        0
 92
        0
 62
   257
 93
        1
300
CONTENTFORMAT
  1
CONTENTFORMAT_BEGIN
 90
        0
 91
        0
 92
      512
 93
        0
300

 40
0.0
140
1.0
 94
        5
 62
     0
340
11
144
0.18
309
CONTENTFORMAT_END
171
     1
301
MARGIN
  1
CELLMARGIN_BEGIN
 40
0.06
 40
0.06
 40
0.06
 40
0.06
 40
0.18
 40
0.18
309
CELLMARGIN_END
 94
        6
 95
        1
302
GRIDFORMAT
  1
GRIDFORMAT_BEGIN
 90
        0
 91
        1
 62
     0
 92
       -2
340
0
 93
        0
 40
0.045
309
GRIDFORMAT_END
 95
        2
302
GRIDFORMAT
  1
GRIDFORMAT_BEGIN
 90
        0
 91
        1
 62
     0
 92
       -2
340
0
 93
        0
 40
0.045
309
GRIDFORMAT_END
 95
        4
302
GRIDFORMAT
  1
GRIDFORMAT_BEGIN
 90
        0
 91
        1
 62
     0
 92
       -2
340
0
 93
        0
 40
0.045
309
GRIDFORMAT_END
 95
        8
302
GRIDFORMAT
  1
GRIDFORMAT_BEGIN
 90
        0
 91
        1
 62
     0
 92
       -2
340
0
 93
        0
 40
0.045
309
GRIDFORMAT_END
 95
       16
302
GRIDFORMAT
  1
GRIDFORMAT_BEGIN
 90
        0
 91
        1
 62
     0
 92
       -2
340
0
 93
        0
 40
0.045
309
GRIDFORMAT_END
 95
       32
302
GRIDFORMAT
  1
GRIDFORMAT_BEGIN
 90
        0
 91
        1
 62
     0
 92
       -2
340
0
 93
        0
 40
0.045
309
GRIDFORMAT_END
309
TABLEFORMAT_END
  1
CELLSTYLE_BEGIN
 90
        2
 91
        1
300
_HEADER
309
CELLSTYLE_END
300
CELLSTYLE
  1
TABLEFORMAT_BEGIN
 90
        5
170
     1
 91
        0
 92
        0
 62
   257
 93
        1
300
CONTENTFORMAT
  1
CONTENTFORMAT_BEGIN
 90
        0
 91
        0
 92
      512
 93
        0
300

 40
0.0
140
1.0
 94
        2
 62
     0
340
11
144
0.18
309
CONTENTFORMAT_END
171
     1
301
MARGIN
  1
CELLMARGIN_BEGIN
 40
0.06
 40
0.06
 40
0.06
 40
0.06
 40
0.18
 40
0.18
309
CELLMARGIN_END
 94
        6
 95
        1
302
GRIDFORMAT
  1
GRIDFORMAT_BEGIN
 90
        0
 91
        1
 62
     0
 92
       -2
340
0
 93
        0
 40
0.045
309
GRIDFORMAT_END
 95
        2
302
GRIDFORMAT
  1
GRIDFORMAT_BEGIN
 90
        0
 91
        1
 62
     0
 92
       -2
340
0
 93
        0
 40
0.045
309
GRIDFORMAT_END
 95
        4
302
GRIDFORMAT
  1
GRIDFORMAT_BEGIN
 90
        0
 91
        1
 62
     0
 92
       -2
340
0
 93
        0
 40
0.045
309
GRIDFORMAT_END
 95
        8
302
GRIDFORMAT
  1
GRIDFORMAT_BEGIN
 90
        0
 91
        1
 62
     0
 92
       -2
340
0
 93
        0
 40
0.045
309
GRIDFORMAT_END
 95
       16
302
GRIDFORMAT
  1
GRIDFORMAT_BEGIN
 90
        0
 91
        1
 62
     0
 92
       -2
340
0
 93
        0
 40
0.045
309
GRIDFORMAT_END
 95
       32
302
GRIDFORMAT
  1
GRIDFORMAT_BEGIN
 90
        0
 91
        1
 62
     0
 92
       -2
340
0
 93
        0
 40
0.045
309
GRIDFORMAT_END
309
TABLEFORMAT_END
  1
CELLSTYLE_BEGIN
 90
        3
 91
        2
300
_DATA
309
CELLSTYLE_END
  0
ENDSEC
  0
SECTION
  2
ACDSDATA
 70
     2
 71
     8
  0
ACDSSCHEMA
 90
        0
  1
AcDb_Thumbnail_Schema
  2
AcDbDs::ID
280
    10
 91
        8
  2
Thumbnail_Data
280
    15
 91
        0
101
ACDSRECORD
 95
        0
 90
        1
  2
AcDbDs::TreatedAsObjectData
280
     1
291
     1
101
ACDSRECORD
 95
        0
 90
        2
  2
AcDbDs::Legacy
280
     1
291
     1
101
ACDSRECORD
  1
AcDbDs::ID
 90
        3
  2
AcDs:Indexable
280
     1
291
     1
101
ACDSRECORD
  1
AcDbDs::ID
 90
        4
  2
AcDbDs::HandleAttribute
280
     7
282
     1
  0
ACDSSCHEMA
 90
        1
  1
AcDbDs::TreatedAsObjectDataSchema
  2
AcDbDs::TreatedAsObjectData
280
     1
 91
        0
  0
ACDSSCHEMA
 90
        2
  1
AcDbDs::LegacySchema
  2
AcDbDs::Legacy
280
     1
 91
        0
  0
ACDSSCHEMA
 90
        3
  1
AcDbDs::IndexedPropertySchema
  2
AcDs:Indexable
280
     1
 91
        0
  0
ACDSSCHEMA
 90
        4
  1
AcDbDs::HandleAttributeSchema
  2
AcDbDs::HandleAttribute
280
     7
 91
        1
284
     1
  0
ACDSRECORD
 90
        0
  2
AcDbDs::ID
280
    10
320
22
  2
Thumbnail_Data
280
    15
 94
     1819
310
89504E470D0A1A0A0000000D49484452000001000000006D080300000079B14F6400000300504C5445212830FFFFFF2128300000000000000000000000000000000000000000000000000000330000660000990000CC0000FF0033000033330033660033990033CC0033FF0066000066330066660066990066CC0066FF0099
310
000099330099660099990099CC0099FF00CC0000CC3300CC6600CC9900CCCC00CCFF00FF0000FF3300FF6600FF9900FFCC00FFFF3300003300333300663300993300CC3300FF3333003333333333663333993333CC3333FF3366003366333366663366993366CC3366FF3399003399333399663399993399CC3399FF33CC00
310
33CC3333CC6633CC9933CCCC33CCFF33FF0033FF3333FF6633FF9933FFCC33FFFF6600006600336600666600996600CC6600FF6633006633336633666633996633CC6633FF6666006666336666666666996666CC6666FF6699006699336699666699996699CC6699FF66CC0066CC3366CC6666CC9966CCCC66CCFF66FF0066
310
FF3366FF6666FF9966FFCC66FFFF9900009900339900669900999900CC9900FF9933009933339933669933999933CC9933FF9966009966339966669966999966CC9966FF9999009999339999669999999999CC9999FF99CC0099CC3399CC6699CC9999CCCC99CCFF99FF0099FF3399FF6699FF9999FFCC99FFFFCC0000CC00
310
33CC0066CC0099CC00CCCC00FFCC3300CC3333CC3366CC3399CC33CCCC33FFCC6600CC6633CC6666CC6699CC66CCCC66FFCC9900CC9933CC9966CC9999CC99CCCC99FFCCCC00CCCC33CCCC66CCCC99CCCCCCCCCCFFCCFF00CCFF33CCFF66CCFF99CCFFCCCCFFFFFF0000FF0033FF0066FF0099FF00CCFF00FFFF3300FF3333
310
FF3366FF3399FF33CCFF33FFFF6600FF6633FF6666FF6699FF66CCFF66FFFF9900FF9933FF9966FF9999FF99CCFF99FFFFCC00FFCC33FFCC66FFCC99FFCCCCFFCCFFFFFF00FFFF33FFFF66FFFF99FFFFCCFFFFFF0000000D0D0D1A1A1A2828283535354343435050505D5D5D6B6B6B787878868686939393A1A1A1AEAEAEBB
310
BBBBC9C9C9D6D6D6E4E4E4F1F1F1FFFFFF0000000000000000000000000000000000000000000000000000000000002E4550F1000003D64944415478DAED9DDD72AB300C84FDFEEFFBDD9F334D016349B6814C272BC77725B4532DABD59F4D4AF9AEEFFAEBC5FFB5B8FD8B604004C0EB93E418F05A5D5C486D7F0441752931
310
0536D3D8F8EED99F190122C56F4C262D16B5A39F317011C8171528C173C7BB917400B4E6EC3F3BA2B809034B00E03080DFCFC9EB01D505825B9701204260650036046CCE200D00F300FCDC4D552524C98427E3E0C1FF5445626C882787EC42902523248E837BF217784C4E0030009CD363488740EC118B0010D78016807300
310
2487F1847CC0E5441E007EFB4071DFC334044905006C7900BD2648CB797A6C51F4FD0A01D314EA0240379A0AA9FF0981827581880061745013FFDA6CE3F12631F218D04A8958FC6F6460C7A00D023FBD105702101481B3256E3260002805DF87044B83C6818DA21F443813C02995CC8D8215801D09606B418AC780CA639438
310
D007E044765C05F4D324445D20EA009F6ECC0D800D1186D878D25F3AA3A4240094C87E79001824096EAF94F952F2D3B3A0110382D1A80996AA05D100017055B24D947501180BB6EF016D6524CC00AE32C61610DD769A3C021E03A8A4D09140A4C605A33080B371A24E0D3C02FCB6D86400E01100349BA8F69D66942414707C
310
8253A3846683951800E51A058ED4C027F9B1D530EDD0342C7BE1B4D35207002E22E05CDFE7E49203B38B81C00180DD312892DB6A99A7806F1F56104BAAAE8043076BBF70423CFDCFE26F1F74755FAC3B7C1580730B0C9CAD96E2D16E70177688A40D408C003E00532963062FE89E97A8D31E7D00607895294D9CECB5886080
310
37076B298093302BD6027E153FD137B4FB4C151D20EA628C7B1B76AA9A4501E79E67D03BD617C00B00DCC82994F2A061E3D40290CB07AE4A27AA2A7817BA383FCAA4041DEA78E983E659929B081045552D2EDCEB6507BF4535364145026E6C73A467A2D327FB70FBAF3AEED608A11359449C00F61728CC0BC2EEE63D1D1130
310
BF1EE6B473AE8914D91E3602AD2D43951BB79DCE8904D19401C8B5C783499ED7E8F475C3C104A5CA28D2F0C1E373DEB8E24122C100B713747DC6EB0BBE4A0C0CA3F8C38A4A260D0A63E353766917014FB218A4ECA7BC1781D7510392EC9379905A67AE83E7B24B954AF8DD002CD008E9FD31E1C383EBB1BFEE6BBCC76B103D
310
41CC25E5EEDCA9F98A2576D79DC2A067BFE81651EAF03D7390686A4B49C6403004499A0213CF714811D9372BB5C7E76FC64CE55DE247138C27A342F1C5D122FF84AAE2F35591A4F6CF96C8D51434E19B6699315F34FD7FEE0490FFADE3FD785F56F8D6054AA68AE76E9D9CA3E9F1BEF606A9DEA73B57FA548AB0DA17AE1CC3
310
73967AF23623206BB47F6B5EB8603CFCAEBF5EFF0005E1FFCA7E20D3C00000000049454E44AE426082
  0
ENDSEC
  0
EOF
