  0
SECTION
  2
HEADER
  9
$ACADVER
  1
AC1032
  9
$ACADMAINTVER
 90
      197
  9
$DWGCODEPAGE
  3
ANSI_1252
  9
$LASTSAVEDBY
  1
gregb
  9
$REQUIREDVERSIONS
160
                 0
  9
$INSBASE
 10
0.0
 20
0.0
 30
0.0
  9
$EXTMIN
 10
10656.0100217443
 20
29501.08868675263
 30
0.0
  9
$EXTMAX
 10
10820.24076785323
 20
29623.06451625859
 30
0.0
  9
$LIMMIN
 10
0.0
 20
0.0
  9
$LIMMAX
 10
12.0
 20
9.0
  9
$ORTHOMODE
 70
     1
  9
$REGENMODE
 70
     1
  9
$FILLMODE
 70
     1
  9
$QTEXTMODE
 70
     0
  9
$MIRRTEXT
 70
     0
  9
$LTSCALE
 40
1.0
  9
$ATTMODE
 70
     1
  9
$TEXTSIZE
 40
0.2
  9
$TRACEWID
 40
0.05
  9
$TEXTSTYLE
  7
Standard
  9
$CLAYER
  8
freecads.com
  9
$CELTYPE
  6
ByLayer
  9
$CECOLOR
 62
   256
  9
$CELTSCALE
 40
1.0
  9
$DISPSILH
 70
     1
  9
$DIMSCALE
 40
1.0
  9
$DIMASZ
 40
0.18
  9
$DIMEXO
 40
0.0625
  9
$DIMDLI
 40
0.38
  9
$DIMRND
 40
0.0
  9
$DIMDLE
 40
0.0
  9
$DIMEXE
 40
0.18
  9
$DIMTP
 40
0.0
  9
$DIMTM
 40
0.0
  9
$DIMTXT
 40
0.18
  9
$DIMCEN
 40
0.09
  9
$DIMTSZ
 40
0.0
  9
$DIMTOL
 70
     0
  9
$DIMLIM
 70
     0
  9
$DIMTIH
 70
     1
  9
$DIMTOH
 70
     1
  9
$DIMSE1
 70
     0
  9
$DIMSE2
 70
     0
  9
$DIMTAD
 70
     0
  9
$DIMZIN
 70
     0
  9
$DIMBLK
  1

  9
$DIMASO
 70
     1
  9
$DIMSHO
 70
     1
  9
$DIMPOST
  1

  9
$DIMAPOST
  1

  9
$DIMALT
 70
     0
  9
$DIMALTD
 70
     2
  9
$DIMALTF
 40
25.4
  9
$DIMLFAC
 40
1.0
  9
$DIMTOFL
 70
     0
  9
$DIMTVP
 40
0.0
  9
$DIMTIX
 70
     0
  9
$DIMSOXD
 70
     0
  9
$DIMSAH
 70
     0
  9
$DIMBLK1
  1

  9
$DIMBLK2
  1

  9
$DIMSTYLE
  2
Standard
  9
$DIMCLRD
 70
     0
  9
$DIMCLRE
 70
     0
  9
$DIMCLRT
 70
     0
  9
$DIMTFAC
 40
1.0
  9
$DIMGAP
 40
0.09
  9
$DIMJUST
 70
     0
  9
$DIMSD1
 70
     0
  9
$DIMSD2
 70
     0
  9
$DIMTOLJ
 70
     1
  9
$DIMTZIN
 70
     0
  9
$DIMALTZ
 70
     0
  9
$DIMALTTZ
 70
     0
  9
$DIMUPT
 70
     0
  9
$DIMDEC
 70
     4
  9
$DIMTDEC
 70
     4
  9
$DIMALTU
 70
     2
  9
$DIMALTTD
 70
     2
  9
$DIMTXSTY
  7
Standard
  9
$DIMAUNIT
 70
     0
  9
$DIMADEC
 70
     0
  9
$DIMALTRND
 40
0.0
  9
$DIMAZIN
 70
     0
  9
$DIMDSEP
 70
    46
  9
$DIMATFIT
 70
     3
  9
$DIMFRAC
 70
     0
  9
$DIMLDRBLK
  1

  9
$DIMLUNIT
 70
     2
  9
$DIMLWD
 70
    -2
  9
$DIMLWE
 70
    -2
  9
$DIMTMOVE
 70
     0
  9
$DIMFXL
 40
1.0
  9
$DIMFXLON
 70
     0
  9
$DIMJOGANG
 40
0.7853981633974483
  9
$DIMTFILL
 70
     0
  9
$DIMTFILLCLR
 70
     0
  9
$DIMARCSYM
 70
     0
  9
$DIMLTYPE
  6

  9
$DIMLTEX1
  6

  9
$DIMLTEX2
  6

  9
$DIMTXTDIRECTION
 70
     0
  9
$LUNITS
 70
     2
  9
$LUPREC
 70
     4
  9
$SKETCHINC
 40
0.1
  9
$FILLETRAD
 40
0.0
  9
$AUNITS
 70
     0
  9
$AUPREC
 70
     0
  9
$MENU
  1
.
  9
$ELEVATION
 40
0.0
  9
$PELEVATION
 40
0.0
  9
$THICKNESS
 40
0.0
  9
$LIMCHECK
 70
     0
  9
$CHAMFERA
 40
0.0
  9
$CHAMFERB
 40
0.0
  9
$CHAMFERC
 40
0.0
  9
$CHAMFERD
 40
0.0
  9
$SKPOLY
 70
     0
  9
$TDCREATE
 40
2458157.371250000
  9
$TDUCREATE
 40
2458157.287916667
  9
$TDUPDATE
 40
2461016.549074074
  9
$TDUUPDATE
 40
2461016.465740741
  9
$TDINDWG
 40
0.0584027778
  9
$TDUSRTIMER
 40
0.0584027778
  9
$USRTIMER
 70
     1
  9
$ANGBASE
 50
0.0
  9
$ANGDIR
 70
     0
  9
$PDMODE
 70
     0
  9
$PDSIZE
 40
0.0
  9
$PLINEWID
 40
0.0
  9
$SPLFRAME
 70
     0
  9
$SPLINETYPE
 70
     6
  9
$SPLINESEGS
 70
     8
  9
$HANDSEED
  5
AAA5
  9
$SURFTAB1
 70
     6
  9
$SURFTAB2
 70
     6
  9
$SURFTYPE
 70
     6
  9
$SURFU
 70
     6
  9
$SURFV
 70
     6
  9
$UCSBASE
  2

  9
$UCSNAME
  2

  9
$UCSORG
 10
0.0
 20
0.0
 30
0.0
  9
$UCSXDIR
 10
1.0
 20
0.0
 30
0.0
  9
$UCSYDIR
 10
0.0
 20
1.0
 30
0.0
  9
$UCSORTHOREF
  2

  9
$UCSORTHOVIEW
 70
     0
  9
$UCSORGTOP
 10
0.0
 20
0.0
 30
0.0
  9
$UCSORGBOTTOM
 10
0.0
 20
0.0
 30
0.0
  9
$UCSORGLEFT
 10
0.0
 20
0.0
 30
0.0
  9
$UCSORGRIGHT
 10
0.0
 20
0.0
 30
0.0
  9
$UCSORGFRONT
 10
0.0
 20
0.0
 30
0.0
  9
$UCSORGBACK
 10
0.0
 20
0.0
 30
0.0
  9
$PUCSBASE
  2

  9
$PUCSNAME
  2

  9
$PUCSORG
 10
0.0
 20
0.0
 30
0.0
  9
$PUCSXDIR
 10
1.0
 20
0.0
 30
0.0
  9
$PUCSYDIR
 10
0.0
 20
1.0
 30
0.0
  9
$PUCSORTHOREF
  2

  9
$PUCSORTHOVIEW
 70
     0
  9
$PUCSORGTOP
 10
0.0
 20
0.0
 30
0.0
  9
$PUCSORGBOTTOM
 10
0.0
 20
0.0
 30
0.0
  9
$PUCSORGLEFT
 10
0.0
 20
0.0
 30
0.0
  9
$PUCSORGRIGHT
 10
0.0
 20
0.0
 30
0.0
  9
$PUCSORGFRONT
 10
0.0
 20
0.0
 30
0.0
  9
$PUCSORGBACK
 10
0.0
 20
0.0
 30
0.0
  9
$USERI1
 70
     0
  9
$USERI2
 70
     0
  9
$USERI3
 70
     0
  9
$USERI4
 70
     0
  9
$USERI5
 70
     0
  9
$USERR1
 40
0.0
  9
$USERR2
 40
0.0
  9
$USERR3
 40
0.0
  9
$USERR4
 40
0.0
  9
$USERR5
 40
0.0
  9
$WORLDVIEW
 70
     1
  9
$SHADEDGE
 70
     3
  9
$SHADEDIF
 70
    70
  9
$TILEMODE
 70
     1
  9
$MAXACTVP
 70
    64
  9
$PINSBASE
 10
0.0
 20
0.0
 30
0.0
  9
$PLIMCHECK
 70
     0
  9
$PEXTMIN
 10
0.0
 20
0.0
 30
0.0
  9
$PEXTMAX
 10
0.0
 20
0.0
 30
0.0
  9
$PLIMMIN
 10
0.0
 20
0.0
  9
$PLIMMAX
 10
12.0
 20
9.0
  9
$UNITMODE
 70
     0
  9
$VISRETAIN
 70
     1
  9
$PLINEGEN
 70
     0
  9
$PSLTSCALE
 70
     1
  9
$TREEDEPTH
 70
  3020
  9
$CMLSTYLE
  2
Standard
  9
$CMLJUST
 70
     0
  9
$CMLSCALE
 40
1.0
  9
$PROXYGRAPHICS
 70
     1
  9
$MEASUREMENT
 70
     0
  9
$CELWEIGHT
370
    -1
  9
$ENDCAPS
280
     0
  9
$JOINSTYLE
280
     0
  9
$LWDISPLAY
290
     0
  9
$INSUNITS
 70
     1
  9
$HYPERLINKBASE
  1

  9
$STYLESHEET
  1
monochrome.ctb
  9
$XEDIT
290
     1
  9
$CEPSNTYPE
380
     0
  9
$PSTYLEMODE
290
     1
  9
$FINGERPRINTGUID
  2
{358EB121-6EE0-9143-8A3E-6E8E8869FDA6}
  9
$VERSIONGUID
  2
{DF7DF5ED-F4DD-E945-B00C-EA0CC5BFA97E}
  9
$EXTNAMES
290
     1
  9
$PSVPSCALE
 40
0.0
  9
$OLESTARTUP
290
     0
  9
$SORTENTS
280
   127
  9
$INDEXCTL
280
     0
  9
$HIDETEXT
280
     1
  9
$XCLIPFRAME
280
     2
  9
$HALOGAP
280
     0
  9
$OBSCOLOR
 70
   257
  9
$OBSLTYPE
280
     0
  9
$INTERSECTIONDISPLAY
280
     0
  9
$INTERSECTIONCOLOR
 70
   257
  9
$DIMASSOC
280
     2
  9
$PROJECTNAME
  1

  9
$CAMERADISPLAY
290
     0
  9
$LENSLENGTH
 40
50.0
  9
$CAMERAHEIGHT
 40
0.0
  9
$STEPSPERSEC
 40
2.0
  9
$STEPSIZE
 40
6.0
  9
$3DDWFPREC
 40
2.0
  9
$PSOLWIDTH
 40
0.25
  9
$PSOLHEIGHT
 40
4.0
  9
$LOFTANG1
 40
1.570796326794896
  9
$LOFTANG2
 40
1.570796326794896
  9
$LOFTMAG1
 40
0.0
  9
$LOFTMAG2
 40
0.0
  9
$LOFTPARAM
 70
     7
  9
$LOFTNORMALS
280
     1
  9
$LATITUDE
 40
37.795
  9
$LONGITUDE
 40
-122.394
  9
$NORTHDIRECTION
 40
0.0
  9
$TIMEZONE
 70
 -8000
  9
$LIGHTGLYPHDISPLAY
280
     1
  9
$TILEMODELIGHTSYNCH
280
     1
  9
$CMATERIAL
347
96
  9
$SOLIDHIST
280
     0
  9
$SHOWHIST
280
     1
  9
$DWFFRAME
280
     2
  9
$DGNFRAME
280
     0
  9
$REALWORLDSCALE
290
     1
  9
$INTERFERECOLOR
 62
     1
  9
$INTERFEREOBJVS
345
A3
  9
$INTERFEREVPVS
346
A0
  9
$CSHADOW
280
     0
  9
$SHADOWPLANELOCATION
 40
0.0
  0
ENDSEC
  0
SECTION
  2
CLASSES
  0
CLASS
  1
ACDBDICTIONARYWDFLT
  2
AcDbDictionaryWithDefault
  3
ObjectDBX Classes
 90
        0
 91
        1
280
     0
281
     0
  0
CLASS
  1
DICTIONARYVAR
  2
AcDbDictionaryVar
  3
ObjectDBX Classes
 90
        0
 91
        9
280
     0
281
     0
  0
CLASS
  1
TABLESTYLE
  2
AcDbTableStyle
  3
ObjectDBX Classes
 90
     4095
 91
        1
280
     0
281
     0
  0
CLASS
  1
MATERIAL
  2
AcDbMaterial
  3
ObjectDBX Classes
 90
     1153
 91
        3
280
     0
281
     0
  0
CLASS
  1
VISUALSTYLE
  2
AcDbVisualStyle
  3
ObjectDBX Classes
 90
     4095
 91
       25
280
     0
281
     0
  0
CLASS
  1
SCALE
  2
AcDbScale
  3
ObjectDBX Classes
 90
     1153
 91
       35
280
     0
281
     0
  0
CLASS
  1
MLEADERSTYLE
  2
AcDbMLeaderStyle
  3
ACDB_MLEADERSTYLE_CLASS
 90
     4095
 91
        1
280
     0
281
     0
  0
CLASS
  1
CELLSTYLEMAP
  2
AcDbCellStyleMap
  3
ObjectDBX Classes
 90
     1152
 91
        1
280
     0
281
     0
  0
CLASS
  1
EXACXREFPANELOBJECT
  2
ExAcXREFPanelObject
  3
EXAC_ESW
 90
     1025
 91
        0
280
     0
281
     0
  0
CLASS
  1
NPOCOLLECTION
  2
AcDbImpNonPersistentObjectsCollection
  3
ObjectDBX Classes
 90
     1153
 91
        0
280
     0
281
     0
  0
CLASS
  1
LAYER_INDEX
  2
AcDbLayerIndex
  3
ObjectDBX Classes
 90
        0
 91
        0
280
     0
281
     0
  0
CLASS
  1
SPATIAL_INDEX
  2
AcDbSpatialIndex
  3
ObjectDBX Classes
 90
        0
 91
        0
280
     0
281
     0
  0
CLASS
  1
IDBUFFER
  2
AcDbIdBuffer
  3
ObjectDBX Classes
 90
        0
 91
        0
280
     0
281
     0
  0
CLASS
  1
ACDBSECTIONVIEWSTYLE
  2
AcDbSectionViewStyle
  3
ObjectDBX Classes
 90
     1025
 91
        2
280
     0
281
     0
  0
CLASS
  1
ACDBDETAILVIEWSTYLE
  2
AcDbDetailViewStyle
  3
ObjectDBX Classes
 90
     1025
 91
        2
280
     0
281
     0
  0
CLASS
  1
SORTENTSTABLE
  2
AcDbSortentsTable
  3
ObjectDBX Classes
 90
        0
 91
        1
280
     0
281
     0
  0
CLASS
  1
SPATIAL_FILTER
  2
AcDbSpatialFilter
  3
ObjectDBX Classes
 90
        0
 91
        0
280
     0
281
     0
  0
CLASS
  1
SOLID_BACKGROUND
  2
AcDbSolidBackground
  3
SCENEOE
 90
     4095
 91
        0
280
     0
281
     0
  0
ENDSEC
  0
SECTION
  2
TABLES
  0
TABLE
  2
VPORT
  5
8
330
0
100
AcDbSymbolTable
 70
     1
  0
VPORT
  5
94
330
8
100
AcDbSymbolTableRecord
100
AcDbViewportTableRecord
  2
*Active
 70
     0
 10
0.0
 20
0.0
 11
1.0
 21
1.0
 12
10737.66246522137
 22
29572.36035396105
 13
0.0
 23
0.0
 14
0.5
 24
0.5
 15
0.5
 25
0.5
 16
0.0
 26
0.0
 36
1.0
 17
0.0
 27
0.0
 37
0.0
 40
139.8934007819768
 41
2.066284779050736
 42
50.0
 43
0.0
 44
0.0
 50
0.0
 51
0.0
 71
     0
 72
  1000
 73
     1
 74
     3
 75
     0
 76
     0
 77
     0
 78
     0
281
     0
 65
     1
110
0.0
120
0.0
130
0.0
111
1.0
121
0.0
131
0.0
112
0.0
122
1.0
132
0.0
 79
     0
146
0.0
348
9F
 60
     3
 61
     5
292
     1
282
     1
141
0.0
142
0.0
 63
   250
421
  3355443
1001
ACAD_NAV_VCDISPLAY
1070
     3
  0
ENDTAB
  0
TABLE
  2
LTYPE
  5
5
330
0
100
AcDbSymbolTable
 70
     1
  0
LTYPE
  5
14
330
5
100
AcDbSymbolTableRecord
100
AcDbLinetypeTableRecord
  2
ByBlock
 70
     0
  3

 72
    65
 73
     0
 40
0.0
  0
LTYPE
  5
15
330
5
100
AcDbSymbolTableRecord
100
AcDbLinetypeTableRecord
  2
ByLayer
 70
     0
  3

 72
    65
 73
     0
 40
0.0
  0
LTYPE
  5
16
330
5
100
AcDbSymbolTableRecord
100
AcDbLinetypeTableRecord
  2
Continuous
 70
     0
  3
Solid line
 72
    65
 73
     0
 40
0.0
  0
ENDTAB
  0
TABLE
  2
LAYER
  5
2
102
{ACAD_XDICTIONARY
360
18E
102
}
330
0
100
AcDbSymbolTable
 70
     2
  0
LAYER
  5
10
102
{ACAD_XDICTIONARY
360
E6
102
}
330
2
100
AcDbSymbolTableRecord
100
AcDbLayerTableRecord
  2
0
 70
     0
 62
     7
  6
Continuous
370
    -3
390
F
347
98
348
0
  0
LAYER
  5
204
330
2
100
AcDbSymbolTableRecord
100
AcDbLayerTableRecord
  2
freecads.com
 70
     0
 62
     7
  6
Continuous
370
    -3
390
F
347
98
348
0
1001
AcAecLayerStandard
1000

1000

1001
AcCmTransparency
1071
        0
  0
ENDTAB
  0
TABLE
  2
STYLE
  5
3
330
0
100
AcDbSymbolTable
 70
     1
  0
STYLE
  5
11
330
3
100
AcDbSymbolTableRecord
100
AcDbTextStyleTableRecord
  2
Standard
 70
     0
 40
0.0
 41
1.0
 50
0.0
 71
     0
 42
0.2
  3
arial.ttf
  4

1001
ACAD
1000
Arial
1071
       34
  0
ENDTAB
  0
TABLE
  2
VIEW
  5
6
330
0
100
AcDbSymbolTable
 70
     0
  0
ENDTAB
  0
TABLE
  2
UCS
  5
7
330
0
100
AcDbSymbolTable
 70
     0
  0
ENDTAB
  0
TABLE
  2
APPID
  5
9
330
0
100
AcDbSymbolTable
 70
    23
  0
APPID
  5
12
330
9
100
AcDbSymbolTableRecord
100
AcDbRegAppTableRecord
  2
ACAD
 70
     0
  0
APPID
  5
DD
330
9
100
AcDbSymbolTableRecord
100
AcDbRegAppTableRecord
  2
AcadAnnoPO
 70
     0
  0
APPID
  5
DE
330
9
100
AcDbSymbolTableRecord
100
AcDbRegAppTableRecord
  2
AcadAnnotative
 70
     0
  0
APPID
  5
DF
330
9
100
AcDbSymbolTableRecord
100
AcDbRegAppTableRecord
  2
ACAD_DSTYLE_DIMJAG
 70
     0
  0
APPID
  5
E0
330
9
100
AcDbSymbolTableRecord
100
AcDbRegAppTableRecord
  2
ACAD_DSTYLE_DIMTALN
 70
     0
  0
APPID
  5
107
330
9
100
AcDbSymbolTableRecord
100
AcDbRegAppTableRecord
  2
ACAD_MLEADERVER
 70
     0
  0
APPID
  5
1A6
330
9
100
AcDbSymbolTableRecord
100
AcDbRegAppTableRecord
  2
ACAD_NAV_VCDISPLAY
 70
     0
  0
APPID
  5
205
330
9
100
AcDbSymbolTableRecord
100
AcDbRegAppTableRecord
  2
AcAecLayerStandard
 70
     0
  0
APPID
  5
206
330
9
100
AcDbSymbolTableRecord
100
AcDbRegAppTableRecord
  2
AcCmTransparency
 70
     0
  0
APPID
  5
222
330
9
100
AcDbSymbolTableRecord
100
AcDbRegAppTableRecord
  2
ACAD_PSEXT
 70
     0
  0
APPID
  5
2DA
330
9
100
AcDbSymbolTableRecord
100
AcDbRegAppTableRecord
  2
GradientColor1ACI
 70
     0
  0
APPID
  5
2DB
330
9
100
AcDbSymbolTableRecord
100
AcDbRegAppTableRecord
  2
GradientColor2ACI
 70
     0
  0
APPID
  5
2F3
330
9
100
AcDbSymbolTableRecord
100
AcDbRegAppTableRecord
  2
ACAD_EXEMPT_FROM_CAD_STANDARDS
 70
     0
  0
APPID
  5
A1A
330
9
100
AcDbSymbolTableRecord
100
AcDbRegAppTableRecord
  2
AcDbBlockRepETag
 70
     0
  0
APPID
  5
228C
330
9
100
AcDbSymbolTableRecord
100
AcDbRegAppTableRecord
  2
RAK
 70
     0
  0
APPID
  5
2683
330
9
100
AcDbSymbolTableRecord
100
AcDbRegAppTableRecord
  2
ACAD_DSTYLE_DIMJOGGED_JOGANGLE_SYMBOL
 70
     0
  0
APPID
  5
47CF
330
9
100
AcDbSymbolTableRecord
100
AcDbRegAppTableRecord
  2
ACAD_DSTYLE_DIMBREAK
 70
     0
  0
APPID
  5
47D0
330
9
100
AcDbSymbolTableRecord
100
AcDbRegAppTableRecord
  2
AcDbDynamicBlockGUID
 70
     0
  0
APPID
  5
8BD5
330
9
100
AcDbSymbolTableRecord
100
AcDbRegAppTableRecord
  2
AcLayerTools
 70
     0
  0
APPID
  5
92D9
330
9
100
AcDbSymbolTableRecord
100
AcDbRegAppTableRecord
  2
AutoGrph01
 70
     0
  0
APPID
  5
92DA
330
9
100
AcDbSymbolTableRecord
100
AcDbRegAppTableRecord
  2
AutoGrphVars
 70
     0
  0
APPID
  5
92DB
330
9
100
AcDbSymbolTableRecord
100
AcDbRegAppTableRecord
  2
AutoGrphZ
 70
     0
  0
APPID
  5
92DC
330
9
100
AcDbSymbolTableRecord
100
AcDbRegAppTableRecord
  2
AutoGrph05
 70
     0
  0
ENDTAB
  0
TABLE
  2
DIMSTYLE
  5
A
330
0
100
AcDbSymbolTable
 70
     1
100
AcDbDimStyleTable
 71
     1
340
27
  0
DIMSTYLE
105
27
330
A
100
AcDbSymbolTableRecord
100
AcDbDimStyleTableRecord
  2
Standard
 70
     0
340
11
  0
ENDTAB
  0
TABLE
  2
BLOCK_RECORD
  5
1
330
0
100
AcDbSymbolTable
 70
     1
  0
BLOCK_RECORD
  5
1F
102
{ACAD_XDICTIONARY
360
15D
102
}
330
1
100
AcDbSymbolTableRecord
100
AcDbBlockTableRecord
  2
*Model_Space
340
22
 70
     0
280
     1
281
     0
  0
BLOCK_RECORD
  5
58
330
1
100
AcDbSymbolTableRecord
100
AcDbBlockTableRecord
  2
*Paper_Space
340
59
 70
     0
280
     1
281
     0
  0
BLOCK_RECORD
  5
5D
330
1
100
AcDbSymbolTableRecord
100
AcDbBlockTableRecord
  2
*Paper_Space0
340
5E
 70
     0
280
     1
281
     0
  0
ENDTAB
  0
ENDSEC
  0
SECTION
  2
BLOCKS
  0
BLOCK
  5
20
330
1F
100
AcDbEntity
  8
0
100
AcDbBlockBegin
  2
*Model_Space
 70
     0
 10
0.0
 20
0.0
 30
0.0
  3
*Model_Space
  1

  0
ENDBLK
  5
21
330
1F
100
AcDbEntity
  8
0
100
AcDbBlockEnd
  0
BLOCK
  5
5A
330
58
100
AcDbEntity
 67
     1
  8
0
100
AcDbBlockBegin
  2
*Paper_Space
 70
     0
 10
0.0
 20
0.0
 30
0.0
  3
*Paper_Space
  1

  0
ENDBLK
  5
5B
330
58
100
AcDbEntity
 67
     1
  8
0
100
AcDbBlockEnd
  0
BLOCK
  5
5F
330
5D
100
AcDbEntity
 67
     1
  8
0
100
AcDbBlockBegin
  2
*Paper_Space0
 70
     0
 10
0.0
 20
0.0
 30
0.0
  3
*Paper_Space0
  1

  0
ENDBLK
  5
60
330
5D
100
AcDbEntity
 67
     1
  8
0
100
AcDbBlockEnd
  0
ENDSEC
  0
SECTION
  2
ENTITIES
  0
ARC
  5
A82D
330
1F
100
AcDbEntity
  8
freecads.com
100
AcDbCircle
 10
10671.70727293966
 20
29615.83196279035
 30
0.0
 40
30.02177645494559
100
AcDbArc
 50
1.123690219097855
 51
6.459025904627347
  0
ARC
  5
A82E
330
1F
100
AcDbEntity
  8
freecads.com
100
AcDbCircle
 10
10523.55845591476
 20
29612.92587796855
 30
0.0
 40
178.1990935951216
100
AcDbArc
 50
359.6945883045638
 51
1.123755703164936
  0
ARC
  5
A82F
330
1F
100
AcDbEntity
  8
freecads.com
100
AcDbCircle
 10
10501.20663994974
 20
29613.04499772097
 30
0.0
 40
200.5512269709079
100
AcDbArc
 50
358.2496154294978
 51
359.6945958416832
  0
ARC
  5
A830
330
1F
100
AcDbEntity
  8
freecads.com
100
AcDbCircle
 10
10508.23298308881
 20
29612.8303976033
 30
0.0
 40
193.5216074148334
100
AcDbArc
 50
356.7654104125904
 51
358.2495795373744
  0
LINE
  5
A831
330
1F
100
AcDbEntity
  8
freecads.com
100
AcDbLine
 10
10701.44628787816
 20
29601.91108495103
 30
0.0
 11
10700.76350987816
 21
29589.82963395103
 31
0.0
  0
LINE
  5
A832
330
1F
100
AcDbEntity
  8
freecads.com
100
AcDbLine
 10
10700.76350987816
 20
29589.82963395103
 30
0.0
 11
10697.43124887816
 21
29593.05938695103
 31
0.0
  0
ARC
  5
A833
330
1F
100
AcDbEntity
  8
freecads.com
100
AcDbCircle
 10
10673.41881004729
 20
29568.28487786446
 30
0.0
 40
34.50179008525427
100
AcDbArc
 50
45.8949085870616
 51
48.85189426635854
  0
ARC
  5
A834
330
1F
100
AcDbEntity
  8
freecads.com
100
AcDbCircle
 10
10684.40164232312
 20
29580.85340316598
 30
0.0
 40
17.81076156529877
100
AcDbArc
 50
48.85192352154613
 51
53.70186011353509
  0
ARC
  5
A835
330
1F
100
AcDbEntity
  8
freecads.com
100
AcDbCircle
 10
10684.41108355119
 20
29580.86623030838
 30
0.0
 40
17.7948344775268
100
AcDbArc
 50
53.70191044683193
 51
57.49729424905275
  0
ARC
  5
A836
330
1F
100
AcDbEntity
  8
freecads.com
100
AcDbCircle
 10
10693.83266778457
 20
29595.6536144583
 30
0.0
 40
0.2610676413858881
100
AcDbArc
 50
57.49725408817537
 51
135.0000641987035
  0
ARC
  5
A837
330
1F
100
AcDbEntity
  8
freecads.com
100
AcDbCircle
 10
10693.87376490815
 20
29595.61251706515
 30
0.0
 40
0.3191879415365288
100
AcDbArc
 50
135.0000182924163
 51
207.1055801764174
  0
ARC
  5
A838
330
1F
100
AcDbEntity
  8
freecads.com
100
AcDbCircle
 10
10780.53506335822
 20
29639.9699051412
 30
0.0
 40
97.67296817620234
100
AcDbArc
 50
207.1055333404258
 51
208.3820701064821
  0
ARC
  5
A839
330
1F
100
AcDbEntity
  8
freecads.com
100
AcDbCircle
 10
10743.42343380351
 20
29619.91865043655
 30
0.0
 40
55.49091199791961
100
AcDbArc
 50
208.3819994809406
 51
211.0871513709716
  0
ARC
  5
A83A
330
1F
100
AcDbEntity
  8
freecads.com
100
AcDbCircle
 10
10786.39197564692
 20
29645.82577403977
 30
0.0
 40
105.6653541128184
100
AcDbArc
 50
211.0871431863027
 51
212.7576293502579
  0
LINE
  5
A83B
330
1F
100
AcDbEntity
  8
freecads.com
100
AcDbLine
 10
10697.53090287816
 20
29588.65168195103
 30
0.0
 11
10701.86466387816
 21
29581.91606895103
 31
0.0
  0
LINE
  5
A83C
330
1F
100
AcDbEntity
  8
freecads.com
100
AcDbLine
 10
10701.86466387816
 20
29581.91606895103
 30
0.0
 11
10702.58675087816
 21
29568.43410295103
 31
0.0
  0
ARC
  5
A83D
330
1F
100
AcDbEntity
  8
freecads.com
100
AcDbCircle
 10
10493.33250259032
 20
29557.22664078965
 30
0.0
 40
209.5541639639009
100
AcDbArc
 50
0.1232296880771212
 51
3.065779222756485
  0
ARC
  5
A83E
330
1F
100
AcDbEntity
  8
freecads.com
100
AcDbCircle
 10
10490.42747492558
 20
29557.22064516677
 30
0.0
 40
212.4591978049318
100
AcDbArc
 50
357.2108593187474
 51
0.1231616171888082
  0
ARC
  5
A83F
330
1F
100
AcDbEntity
  8
freecads.com
100
AcDbCircle
 10
10289.62155372654
 20
29567.00380021374
 30
0.0
 40
413.5032927473946
100
AcDbArc
 50
355.8572840418987
 51
357.2108237996235
  0
ARC
  5
A840
330
1F
100
AcDbEntity
  8
freecads.com
100
AcDbCircle
 10
10699.78465162575
 20
29537.29556490568
 30
0.0
 40
2.265714061555089
100
AcDbArc
 50
301.7175005450512
 51
355.8572994914625
  0
ARC
  5
A841
330
1F
100
AcDbEntity
  8
freecads.com
100
AcDbCircle
 10
10700.83447010844
 20
29535.59692608693
 30
0.0
 40
0.268843338863346
100
AcDbArc
 50
220.7846185143
 51
301.7173396722885
  0
ARC
  5
A842
330
1F
100
AcDbEntity
  8
freecads.com
100
AcDbCircle
 10
10701.80052187486
 20
29536.43034935016
 30
0.0
 40
1.544715727114373
100
AcDbArc
 50
198.3335743243275
 51
220.7846807693857
  0
ARC
  5
A843
330
1F
100
AcDbEntity
  8
freecads.com
100
AcDbCircle
 10
10704.60747969417
 20
29537.36050224321
 30
0.0
 40
4.501774502951333
100
AcDbArc
 50
186.0471188071902
 51
198.3337587527159
  0
ARC
  5
A844
330
1F
100
AcDbEntity
  8
freecads.com
100
AcDbCircle
 10
10711.88237463027
 20
29538.13117444018
 30
0.0
 40
11.81737645812476
100
AcDbArc
 50
180.0695483378445
 51
186.0471216878242
  0
ARC
  5
A845
330
1F
100
AcDbEntity
  8
freecads.com
100
AcDbCircle
 10
10657.98076754276
 20
29538.06569594869
 30
0.0
 40
42.08427040029474
100
AcDbArc
 50
0.0696165864256693
 51
8.529733469509308
  0
ARC
  5
A846
330
1F
100
AcDbEntity
  8
freecads.com
100
AcDbCircle
 10
10524.31879196179
 20
29518.01906065224
 30
0.0
 40
177.2411840337034
100
AcDbArc
 50
8.529669835073207
 51
11.43716006397442
  0
ARC
  5
A847
330
1F
100
AcDbEntity
  8
freecads.com
100
AcDbCircle
 10
10502.84970361531
 20
29513.67587768368
 30
0.0
 40
199.1451789359935
100
AcDbArc
 50
11.43709331374054
 51
14.30700348228243
  0
ARC
  5
A848
330
1F
100
AcDbEntity
  8
freecads.com
100
AcDbCircle
 10
10531.2791862313
 20
29520.92624678534
 30
0.0
 40
169.8057288062506
100
AcDbArc
 50
14.30697604791191
 51
17.54122267547235
  0
ARC
  5
A849
330
1F
100
AcDbEntity
  8
freecads.com
100
AcDbCircle
 10
10959.32211344284
 20
29656.22624589633
 30
0.0
 40
279.1116770662074
100
AcDbArc
 50
195.4105539816389
 51
197.5412080446315
  0
ARC
  5
A84A
330
1F
100
AcDbEntity
  8
freecads.com
100
AcDbCircle
 10
10950.84205760102
 20
29653.88882373975
 30
0.0
 40
270.315377309176
100
AcDbArc
 50
193.2281203627927
 51
195.4105652241354
  0
ARC
  5
A84B
330
1F
100
AcDbEntity
  8
freecads.com
100
AcDbCircle
 10
10928.27638865777
 20
29648.58425506403
 30
0.0
 40
247.1346123591693
100
AcDbArc
 50
190.9530597210865
 51
193.228085804991
  0
ARC
  5
A84C
330
1F
100
AcDbEntity
  8
freecads.com
100
AcDbCircle
 10
10851.4553489819
 20
29633.71690889745
 30
0.0
 40
168.8881420305635
100
AcDbArc
 50
187.9268216030853
 51
190.9530087910528
  0
ARC
  5
A84D
330
1F
100
AcDbEntity
  8
freecads.com
100
AcDbCircle
 10
10594.80264042426
 20
29597.98091036075
 30
0.0
 40
90.24054106219578
100
AcDbArc
 50
7.92683749366167
 51
10.06092900571202
  0
ARC
  5
A84E
330
1F
100
AcDbEntity
  8
freecads.com
100
AcDbCircle
 10
10683.54290647542
 20
29613.72553284043
 30
0.0
 40
0.1143630901021747
100
AcDbArc
 50
10.06113874821471
 51
175.0328340734171
  0
ARC
  5
A84F
330
1F
100
AcDbEntity
  8
freecads.com
100
AcDbCircle
 10
10704.40364263949
 20
29611.91244218086
 30
0.0
 40
21.05374252329203
100
AcDbArc
 50
175.0326764387472
 51
181.0645289095627
  0
ARC
  5
A850
330
1F
100
AcDbEntity
  8
freecads.com
100
AcDbCircle
 10
13019.15916488142
 20
29654.92516151114
 30
0.0
 40
2336.208860819619
100
AcDbArc
 50
181.0645458289153
 51
181.27539423803
  0
ARC
  5
A851
330
1F
100
AcDbEntity
  8
freecads.com
100
AcDbCircle
 10
10839.00809049989
 20
29606.38723129905
 30
0.0
 40
155.5175397482529
100
AcDbArc
 50
181.2753487011871
 51
185.265481945476
  0
ARC
  5
A852
330
1F
100
AcDbEntity
  8
freecads.com
100
AcDbCircle
 10
10755.91579271945
 20
29598.72947179621
 30
0.0
 40
72.07311973686415
100
AcDbArc
 50
185.2654761356822
 51
192.3571169612617
  0
ARC
  5
A853
330
1F
100
AcDbEntity
  8
freecads.com
100
AcDbCircle
 10
10757.88200955602
 20
29599.16020605178
 30
0.0
 40
74.08596365699668
100
AcDbArc
 50
192.3570987905265
 51
199.3324242135706
  0
ARC
  5
A854
330
1F
100
AcDbEntity
  8
freecads.com
100
AcDbCircle
 10
10850.1395175769
 20
29631.52668263607
 30
0.0
 40
171.8562893835518
100
AcDbArc
 50
199.3323402086896
 51
203.0516556657282
  0
ARC
  5
A855
330
1F
100
AcDbEntity
  8
freecads.com
100
AcDbCircle
 10
10649.07246260702
 20
29545.9648558697
 30
0.0
 40
46.65866844287474
100
AcDbArc
 50
14.57129368294387
 51
23.05155114520422
  0
ARC
  5
A856
330
1F
100
AcDbEntity
  8
freecads.com
100
AcDbCircle
 10
10651.58090105513
 20
29546.61691410503
 30
0.0
 40
44.06686532724386
100
AcDbArc
 50
5.719602624207477
 51
14.57129263151978
  0
ARC
  5
A857
330
1F
100
AcDbEntity
  8
freecads.com
100
AcDbCircle
 10
10629.00578337025
 20
29544.35579062478
 30
0.0
 40
66.75493747713357
100
AcDbArc
 50
358.7820800713594
 51
5.719625109143715
  0
ARC
  5
A858
330
1F
100
AcDbEntity
  8
freecads.com
100
AcDbCircle
 10
10470.70169335337
 20
29547.72150754201
 30
0.0
 40
225.0948028504169
100
AcDbArc
 50
355.9760550005013
 51
358.7820328836594
  0
ARC
  5
A859
330
1F
100
AcDbEntity
  8
freecads.com
100
AcDbCircle
 10
2399.554804192462
 20
30115.51120163444
 30
0.0
 40
8316.188501672998
100
AcDbArc
 50
355.9145621460487
 51
355.9759832201625
  0
ARC
  5
A85A
330
1F
100
AcDbEntity
  8
freecads.com
100
AcDbCircle
 10
10689.78779090948
 20
29523.37772584225
 30
0.0
 40
4.835722058552209
100
AcDbArc
 50
344.8316392266099
 51
355.9145381174189
  0
ARC
  5
A85B
330
1F
100
AcDbEntity
  8
freecads.com
100
AcDbCircle
 10
10694.3919386814
 20
29522.12953620916
 30
0.0
 40
0.0653809736994413
100
AcDbArc
 50
181.150057838489
 51
344.8317138217212
  0
ARC
  5
A85C
330
1F
100
AcDbEntity
  8
freecads.com
100
AcDbCircle
 10
12543.35998208791
 20
29559.24613801775
 30
0.0
 40
1849.405930377272
100
AcDbArc
 50
180.9636881181491
 51
181.1500139520191
  0
ARC
  5
A85D
330
1F
100
AcDbEntity
  8
freecads.com
100
AcDbCircle
 10
10605.6482031473
 20
29526.65168126744
 30
0.0
 40
88.57996659309874
100
AcDbArc
 50
0.9636754829715952
 51
3.642016646714816
  0
ARC
  5
A85E
330
1F
100
AcDbEntity
  8
freecads.com
100
AcDbCircle
 10
10453.59554785272
 20
29516.97363667934
 30
0.0
 40
240.9403109388546
100
AcDbArc
 50
3.641957608767704
 51
4.911160741374966
  0
ARC
  5
A85F
330
1F
100
AcDbEntity
  8
freecads.com
100
AcDbCircle
 10
10439.92947889768
 20
29515.79924541254
 30
0.0
 40
254.6567476306202
100
AcDbArc
 50
4.911186346669715
 51
6.168243143138776
  0
ARC
  5
A860
330
1F
100
AcDbEntity
  8
freecads.com
100
AcDbCircle
 10
10532.98039389657
 20
29525.85539519007
 30
0.0
 40
161.0640185840068
100
AcDbArc
 50
6.16832603197881
 51
7.940105419365043
  0
ARC
  5
A861
330
1F
100
AcDbEntity
  8
freecads.com
100
AcDbCircle
 10
10562.00650977997
 20
29529.9036695812
 30
0.0
 40
131.7569558038801
100
AcDbArc
 50
7.940166881242947
 51
10.76103942214976
  0
ARC
  5
A862
330
1F
100
AcDbEntity
  8
freecads.com
100
AcDbCircle
 10
10639.83222740151
 20
29544.69488310559
 30
0.0
 40
52.53813025823488
100
AcDbArc
 50
10.76103590520082
 51
16.36642454078999
  0
ARC
  5
A863
330
1F
100
AcDbEntity
  8
freecads.com
100
AcDbCircle
 10
10633.22300074019
 20
29542.75391197135
 30
0.0
 40
59.42647156832546
100
AcDbArc
 50
16.36640393957591
 51
21.55834666153919
  0
ARC
  5
A864
330
1F
100
AcDbEntity
  8
freecads.com
100
AcDbCircle
 10
10500.17047819599
 20
29490.1867145273
 30
0.0
 40
202.4868923788652
100
AcDbArc
 50
21.5583033553988
 51
23.64220801484538
  0
ARC
  5
A865
330
1F
100
AcDbEntity
  8
freecads.com
100
AcDbCircle
 10
11549.05377406763
 20
29949.35324150874
 30
0.0
 40
942.4978533093764
100
AcDbArc
 50
203.3092176241026
 51
203.6422204602949
  0
ARC
  5
A866
330
1F
100
AcDbEntity
  8
freecads.com
100
AcDbCircle
 10
11624.26055607217
 20
29981.7585102658
 30
0.0
 40
1024.38900973223
100
AcDbArc
 50
202.9964736375073
 51
203.3093083992635
  0
ARC
  5
A867
330
1F
100
AcDbEntity
  8
freecads.com
100
AcDbCircle
 10
11522.45240707835
 20
29938.55245644447
 30
0.0
 40
913.7921639992329
100
AcDbArc
 50
202.6855616135359
 51
202.9965629137871
  0
ARC
  5
A868
330
1F
100
AcDbEntity
  8
freecads.com
100
AcDbCircle
 10
10836.29185628538
 20
29651.72859835055
 30
0.0
 40
170.0958368358863
100
AcDbArc
 50
201.6054831251197
 51
202.6856151631029
  0
ARC
  5
A869
330
1F
100
AcDbEntity
  8
freecads.com
100
AcDbCircle
 10
10643.212344583
 20
29575.26157554833
 30
0.0
 40
37.5743425724253
100
AcDbArc
 50
21.60557023578561
 51
25.42707369949592
  0
ARC
  5
A86A
330
1F
100
AcDbEntity
  8
freecads.com
100
AcDbCircle
 10
10643.88376665813
 20
29575.58077834414
 30
0.0
 40
36.83090593906769
100
AcDbArc
 50
25.42707472444003
 51
29.30631603364775
  0
ARC
  5
A86B
330
1F
100
AcDbEntity
  8
freecads.com
100
AcDbCircle
 10
10648.13455817512
 20
29577.96683569545
 30
0.0
 40
31.95622664658008
100
AcDbArc
 50
29.30630319468858
 51
33.1944800790536
  0
ARC
  5
A86C
330
1F
100
AcDbEntity
  8
freecads.com
100
AcDbCircle
 10
10670.4327954539
 20
29592.55534116455
 30
0.0
 40
5.309728235686376
100
AcDbArc
 50
33.19433736641342
 51
47.85531801592132
  0
ARC
  5
A86D
330
1F
100
AcDbEntity
  8
freecads.com
100
AcDbCircle
 10
10663.80564925581
 20
29585.23243117661
 30
0.0
 40
15.18616875959375
100
AcDbArc
 50
47.85529360371059
 51
53.43067711095899
  0
ARC
  5
A86E
330
1F
100
AcDbEntity
  8
freecads.com
100
AcDbCircle
 10
10672.73940364285
 20
29597.27520785397
 30
0.0
 40
0.1914884512706288
100
AcDbArc
 50
53.43053423822898
 51
174.357878138433
  0
ARC
  5
A86F
330
1F
100
AcDbEntity
  8
freecads.com
100
AcDbCircle
 10
10674.68983332115
 20
29597.08252553344
 30
0.0
 40
2.15141253312056
100
AcDbArc
 50
174.3580572817667
 51
195.988306652825
  0
ARC
  5
A870
330
1F
100
AcDbEntity
  8
freecads.com
100
AcDbCircle
 10
11038.64876053478
 20
29701.36574393987
 30
0.0
 40
380.7555466094731
100
AcDbArc
 50
195.9883149887886
 51
196.5397285067692
  0
ARC
  5
A871
330
1F
100
AcDbEntity
  8
freecads.com
100
AcDbCircle
 10
10919.98359356647
 20
29666.12582504105
 30
0.0
 40
256.9683350907908
100
AcDbArc
 50
196.5396910070129
 51
198.6066375065016
  0
ARC
  5
A872
330
1F
100
AcDbEntity
  8
freecads.com
100
AcDbCircle
 10
10955.20616878397
 20
29677.98375825061
 30
0.0
 40
294.1333776022203
100
AcDbArc
 50
198.6065792250518
 51
200.4743802833748
  0
ARC
  5
A873
330
1F
100
AcDbEntity
  8
freecads.com
100
AcDbCircle
 10
10931.3848599033
 20
29669.0891246895
 30
0.0
 40
268.7056513401811
100
AcDbArc
 50
200.4743104176099
 51
202.2898610993553
  0
ARC
  5
A874
330
1F
100
AcDbEntity
  8
freecads.com
100
AcDbCircle
 10
10722.4282151996
 20
29583.4329449415
 30
0.0
 40
42.87416439726566
100
AcDbArc
 50
202.2898523558225
 51
209.3386767129664
  0
ARC
  5
A875
330
1F
100
AcDbEntity
  8
freecads.com
100
AcDbCircle
 10
10664.87998760151
 20
29551.08723442592
 30
0.0
 40
23.14131476060486
100
AcDbArc
 50
22.79440932874051
 51
29.33878738407742
  0
ARC
  5
A876
330
1F
100
AcDbEntity
  8
freecads.com
100
AcDbCircle
 10
10652.93354626758
 20
29546.06677787254
 30
0.0
 40
36.0998040456011
100
AcDbArc
 50
18.10438296430289
 51
22.79441903225157
  0
ARC
  5
A877
330
1F
100
AcDbEntity
  8
freecads.com
100
AcDbCircle
 10
10653.32967540535
 20
29546.19629428645
 30
0.0
 40
35.68303936954376
100
AcDbArc
 50
13.39417518629969
 51
18.10437088732841
  0
ARC
  5
A878
330
1F
100
AcDbEntity
  8
freecads.com
100
AcDbCircle
 10
10667.34004623179
 20
29549.53252290248
 30
0.0
 40
21.28092452232481
100
AcDbArc
 50
6.45733643680919
 51
13.3941945549296
  0
LINE
  5
A879
330
1F
100
AcDbEntity
  8
freecads.com
100
AcDbLine
 10
10688.48596187816
 20
29551.92584695103
 30
0.0
 11
10689.10846187816
 21
29546.42584695103
 31
0.0
  0
LINE
  5
A87A
330
1F
100
AcDbEntity
  8
freecads.com
100
AcDbLine
 10
10689.10846187816
 20
29546.42584695103
 30
0.0
 11
10686.15637087816
 21
29552.34467495103
 31
0.0
  0
ARC
  5
A87B
330
1F
100
AcDbEntity
  8
freecads.com
100
AcDbCircle
 10
10662.93513874603
 20
29540.76276298154
 30
0.0
 40
25.94930262267774
100
AcDbArc
 50
26.50836386187552
 51
35.56577510659831
  0
ARC
  5
A87C
330
1F
100
AcDbEntity
  8
freecads.com
100
AcDbCircle
 10
10631.82702600837
 20
29518.51957894307
 30
0.0
 40
64.19160791756735
100
AcDbArc
 50
35.56581655091001
 51
40.1704024624174
  0
ARC
  5
A87D
330
1F
100
AcDbEntity
  8
freecads.com
100
AcDbCircle
 10
10594.00008606834
 20
29486.58689647166
 30
0.0
 40
113.6948764464584
100
AcDbArc
 50
40.17037171780859
 51
43.57234521778726
  0
ARC
  5
A87E
330
1F
100
AcDbEntity
  8
freecads.com
100
AcDbCircle
 10
10396.59962185932
 20
29298.78701243309
 30
0.0
 40
386.1572402966081
100
AcDbArc
 50
43.57229805377301
 51
44.94096336397386
  0
ARC
  5
A87F
330
1F
100
AcDbEntity
  8
freecads.com
100
AcDbCircle
 10
10132.33935675538
 20
29035.07165417515
 30
0.0
 40
759.4925827083787
100
AcDbArc
 50
44.94091593121757
 51
45.48430808597205
  0
ARC
  5
A880
330
1F
100
AcDbEntity
  8
freecads.com
100
AcDbCircle
 10
10395.91788298395
 20
29303.14501622427
 30
0.0
 40
383.5444919717557
100
AcDbArc
 50
45.48422387062435
 51
46.39018001735426
  0
ARC
  5
A881
330
1F
100
AcDbEntity
  8
freecads.com
100
AcDbCircle
 10
9199.021262676389
 20
28046.71511171582
 30
0.0
 40
2118.819001853502
100
AcDbArc
 50
46.39010361173169
 51
46.5342597738913
  0
ARC
  5
A882
330
1F
100
AcDbEntity
  8
freecads.com
100
AcDbCircle
 10
10656.4673195616
 20
29584.38316315522
 30
0.0
 40
0.193965385817379
100
AcDbArc
 50
46.53445958128062
 51
135.0001854027453
  0
ARC
  5
A883
330
1F
100
AcDbEntity
  8
freecads.com
100
AcDbCircle
 10
10657.10305678065
 20
29583.74742388097
 30
0.0
 40
1.093035036346112
100
AcDbArc
 50
134.9999567228542
 51
212.6014675379007
  0
ARC
  5
A884
330
1F
100
AcDbEntity
  8
freecads.com
100
AcDbCircle
 10
10686.12150950318
 20
29602.30653965755
 30
0.0
 40
35.53880947702922
100
AcDbArc
 50
212.6014590690139
 51
218.9159183355855
  0
ARC
  5
A885
330
1F
100
AcDbEntity
  8
freecads.com
100
AcDbCircle
 10
10701.70028472744
 20
29614.88415127383
 30
0.0
 40
55.56116077396239
100
AcDbArc
 50
218.9158997570184
 51
224.6676465107654
  0
ARC
  5
A886
330
1F
100
AcDbEntity
  8
freecads.com
100
AcDbCircle
 10
10785.9268309823
 20
29698.13887475287
 30
0.0
 40
173.990296021922
100
AcDbArc
 50
224.6675744368373
 51
227.1240941998361
  0
ARC
  5
A887
330
1F
100
AcDbEntity
  8
freecads.com
100
AcDbCircle
 10
10604.06275946467
 20
29502.26485343135
 30
0.0
 40
93.29451974143909
100
AcDbArc
 50
41.19570082996604
 51
47.12403304686515
  0
ARC
  5
A888
330
1F
100
AcDbEntity
  8
freecads.com
100
AcDbCircle
 10
10623.50471997454
 20
29519.28240392773
 30
0.0
 40
67.45681757263402
100
AcDbArc
 50
33.63610280291966
 51
41.19571530505202
  0
ARC
  5
A889
330
1F
100
AcDbEntity
  8
freecads.com
100
AcDbCircle
 10
10635.59982152659
 20
29527.32930194887
 30
0.0
 40
52.92946236551127
100
AcDbArc
 50
25.1604753147492
 51
33.63615538403263
  0
ARC
  5
A88A
330
1F
100
AcDbEntity
  8
freecads.com
100
AcDbCircle
 10
10660.85763476779
 20
29539.19346240769
 30
0.0
 40
25.02398919052392
100
AcDbArc
 50
10.31871036702859
 51
25.16045309353275
  0
ARC
  5
A88B
330
1F
100
AcDbEntity
  8
freecads.com
100
AcDbCircle
 10
10666.21658223884
 20
29540.16916741855
 30
0.0
 40
19.57694244338336
100
AcDbArc
 50
2.784477102371514
 51
10.31867785385653
  0
ARC
  5
A88C
330
1F
100
AcDbEntity
  8
freecads.com
100
AcDbCircle
 10
10684.50853019045
 20
29541.0588260729
 30
0.0
 40
1.263372273005215
100
AcDbArc
 50
307.2092771843228
 51
2.784445638182158
  0
ARC
  5
A88D
330
1F
100
AcDbEntity
  8
freecads.com
100
AcDbCircle
 10
10684.82181058257
 20
29540.64623340006
 30
0.0
 40
0.7453208105267735
100
AcDbArc
 50
227.5754166779138
 51
307.209264983817
  0
ARC
  5
A88E
330
1F
100
AcDbEntity
  8
freecads.com
100
AcDbCircle
 10
10691.76943391054
 20
29548.24829111883
 30
0.0
 40
11.04390088094936
100
AcDbArc
 50
216.3603363468042
 51
227.5753898396176
  0
ARC
  5
A88F
330
1F
100
AcDbEntity
  8
freecads.com
100
AcDbCircle
 10
10679.07328146196
 20
29538.90144286572
 30
0.0
 40
4.721753538209466
100
AcDbArc
 50
36.36030583792673
 51
52.05448129299919
  0
ARC
  5
A890
330
1F
100
AcDbEntity
  8
freecads.com
100
AcDbCircle
 10
10643.10713789828
 20
29492.77656446241
 30
0.0
 40
63.21164916611939
100
AcDbArc
 50
52.05446864829062
 51
54.40832568404346
  0
ARC
  5
A891
330
1F
100
AcDbEntity
  8
freecads.com
100
AcDbCircle
 10
10640.40020575925
 20
29488.99439200289
 30
0.0
 40
67.86270389799327
100
AcDbArc
 50
54.40832993579169
 51
57.01609208760692
  0
ARC
  5
A892
330
1F
100
AcDbEntity
  8
freecads.com
100
AcDbCircle
 10
10630.97931412474
 20
29474.47841110503
 30
0.0
 40
85.16781587711987
100
AcDbArc
 50
57.01614925612824
 51
59.21555211819232
  0
ARC
  5
A893
330
1F
100
AcDbEntity
  8
freecads.com
100
AcDbCircle
 10
10556.01497580735
 20
29348.64658609764
 30
0.0
 40
231.6372673134063
100
AcDbArc
 50
59.21559437107314
 51
61.5699097246204
  0
ARC
  5
A894
330
1F
100
AcDbEntity
  8
freecads.com
100
AcDbCircle
 10
10660.12113987664
 20
29540.94544019195
 30
0.0
 40
12.96641264089158
100
AcDbArc
 50
61.56994481679034
 51
80.78943763769641
  0
ARC
  5
A895
330
1F
100
AcDbEntity
  8
freecads.com
100
AcDbCircle
 10
10662.11611538659
 20
29553.24841860828
 30
0.0
 40
0.5027372119528976
100
AcDbArc
 50
80.78946257779547
 51
231.0673195178257
  0
ARC
  5
A896
330
1F
100
AcDbEntity
  8
freecads.com
100
AcDbCircle
 10
10711.41901042417
 20
29614.27887648211
 30
0.0
 40
78.95968239448496
100
AcDbArc
 50
231.0673072536411
 51
235.9795533815121
  0
ARC
  5
A897
330
1F
100
AcDbEntity
  8
freecads.com
100
AcDbCircle
 10
10573.50865409679
 20
29409.97564767835
 30
0.0
 40
167.5338787424741
100
AcDbArc
 50
53.34544291137385
 51
55.97955767498248
  0
ARC
  5
A898
330
1F
100
AcDbEntity
  8
freecads.com
100
AcDbCircle
 10
10625.5121494883
 20
29479.85920449455
 30
0.0
 40
80.42432102225873
100
AcDbArc
 50
48.78488115669018
 51
53.34548150046415
  0
ARC
  5
A899
330
1F
100
AcDbEntity
  8
freecads.com
100
AcDbCircle
 10
10642.92279082897
 20
29499.73665101158
 30
0.0
 40
54.00002705002985
100
AcDbArc
 50
43.31049693315708
 51
48.78486941114029
  0
ARC
  5
A89A
330
1F
100
AcDbEntity
  8
freecads.com
100
AcDbCircle
 10
10670.18947412586
 20
29525.44090200272
 30
0.0
 40
16.52763004866671
100
AcDbArc
 50
30.08598456522169
 51
43.31050861844434
  0
ARC
  5
A89B
330
1F
100
AcDbEntity
  8
freecads.com
100
AcDbCircle
 10
10304.4054155568
 20
29313.52272502854
 30
0.0
 40
439.2654817195428
100
AcDbArc
 50
29.74267988814348
 51
30.08599594199379
  0
ARC
  5
A89C
330
1F
100
AcDbEntity
  8
freecads.com
100
AcDbCircle
 10
10685.14506564535
 20
29531.0688372395
 30
0.0
 40
0.7577941157243066
100
AcDbArc
 50
359.8419559396101
 51
29.74249034650848
  0
ARC
  5
A89D
330
1F
100
AcDbEntity
  8
freecads.com
100
AcDbCircle
 10
10685.81067958823
 20
29531.06700078112
 30
0.0
 40
0.0921776394165169
100
AcDbArc
 50
231.1953341252971
 51
359.8422240855844
  0
ARC
  5
A89E
330
1F
100
AcDbEntity
  8
freecads.com
100
AcDbCircle
 10
10733.03412271934
 20
29589.79097291806
 30
0.0
 40
75.44838829717716
100
AcDbArc
 50
229.9493393789951
 51
231.195166537287
  0
ARC
  5
A89F
330
1F
100
AcDbEntity
  8
freecads.com
100
AcDbCircle
 10
10676.22469034085
 20
29522.20959271548
 30
0.0
 40
12.83838623476055
100
AcDbArc
 50
49.94927927353024
 51
55.88700170237345
  0
ARC
  5
A8A0
330
1F
100
AcDbEntity
  8
freecads.com
100
AcDbCircle
 10
10641.23512904815
 20
29470.55542307385
 30
0.0
 40
75.22766929540498
100
AcDbArc
 50
55.88702281940135
 51
57.49242430265564
  0
ARC
  5
A8A1
330
1F
100
AcDbEntity
  8
freecads.com
100
AcDbCircle
 10
10636.12297206852
 20
29462.53328037398
 30
0.0
 40
84.74023585135684
100
AcDbArc
 50
57.49242594174651
 51
59.11318193322386
  0
ARC
  5
A8A2
330
1F
100
AcDbEntity
  8
freecads.com
100
AcDbCircle
 10
10637.77209112891
 20
29465.29017875821
 30
0.0
 40
81.52774734924452
100
AcDbArc
 50
59.11318842293886
 51
60.78161204809064
  0
LINE
  5
A8A3
330
1F
100
AcDbEntity
  8
freecads.com
100
AcDbLine
 10
10677.56902787816
 20
29536.44478095103
 30
0.0
 11
10672.56902787816
 21
29539.24129295103
 31
0.0
  0
LINE
  5
A8A4
330
1F
100
AcDbEntity
  8
freecads.com
100
AcDbLine
 10
10672.56902787816
 20
29539.24129295103
 30
0.0
 11
10678.26397287816
 21
29533.33356995103
 31
0.0
  0
ARC
  5
A8A5
330
1F
100
AcDbEntity
  8
freecads.com
100
AcDbCircle
 10
10630.72747827738
 20
29487.50927863601
 30
0.0
 40
66.02714588299443
100
AcDbArc
 50
41.05330085390065
 51
43.94933376399691
  0
ARC
  5
A8A6
330
1F
100
AcDbEntity
  8
freecads.com
100
AcDbCircle
 10
10635.82742192956
 20
29491.95101520368
 30
0.0
 40
59.26412518309342
100
AcDbArc
 50
37.91270858028823
 51
41.05323744310538
  0
ARC
  5
A8A7
330
1F
100
AcDbEntity
  8
freecads.com
100
AcDbCircle
 10
10641.30660658671
 20
29496.21844595729
 30
0.0
 40
52.31916803835791
100
AcDbArc
 50
34.86906358951536
 51
37.91266564028624
  0
ARC
  5
A8A8
330
1F
100
AcDbEntity
  8
freecads.com
100
AcDbCircle
 10
10678.99905770882
 20
29522.48282040379
 30
0.0
 40
6.378573389847606
100
AcDbArc
 50
20.53426895468138
 51
34.8690558027954
  0
ARC
  5
A8A9
330
1F
100
AcDbEntity
  8
freecads.com
100
AcDbCircle
 10
10673.50253858114
 20
29520.42401422292
 30
0.0
 40
12.24802016202074
100
AcDbArc
 50
8.163050085762861
 51
20.53424262372747
  0
ARC
  5
A8AA
330
1F
100
AcDbEntity
  8
freecads.com
100
AcDbCircle
 10
9908.191475468894
 20
29410.64321207068
 30
0.0
 40
785.3927982231197
100
AcDbArc
 50
7.535430486689899
 51
8.163161477309374
  0
ARC
  5
A8AB
330
1F
100
AcDbEntity
  8
freecads.com
100
AcDbCircle
 10
10156.23002775087
 20
29443.45410967816
 30
0.0
 40
535.1935208062122
100
AcDbArc
 50
6.636584238396626
 51
7.535435818586617
  0
ARC
  5
A8AC
330
1F
100
AcDbEntity
  8
freecads.com
100
AcDbCircle
 10
10653.48876415423
 20
29501.31067574501
 30
0.0
 40
34.58026372394998
100
AcDbArc
 50
359.9999456638524
 51
6.636608158638194
  0
ARC
  5
A8AD
330
1F
100
AcDbEntity
  8
freecads.com
100
AcDbCircle
 10
10688.23400515166
 20
29501.31064342297
 30
0.0
 40
0.1649772735038298
100
AcDbArc
 50
180.0001639043213
 51
269.8213951029012
  0
ARC
  5
A8AE
330
1F
100
AcDbEntity
  8
freecads.com
100
AcDbCircle
 10
10866.21776867907
 20
86507.2056167029
 30
0.0
 40
57006.33780026437
100
AcDbArc
 50
269.8211117412195
 51
269.8357794607641
  0
ARC
  5
A8AF
330
1F
100
AcDbEntity
  8
freecads.com
100
AcDbCircle
 10
10712.09154895022
 20
32731.66210921557
 30
0.0
 40
3230.57342246294
100
AcDbArc
 50
269.8356893749761
 51
270.1233140370854
  0
ARC
  5
A8B0
330
1F
100
AcDbEntity
  8
freecads.com
100
AcDbCircle
 10
10705.26291434222
 20
35905.58088670721
 30
0.0
 40
6404.499545793744
100
AcDbArc
 50
270.123292583576
 51
270.2956382558475
  0
LINE
  5
A8B1
330
1F
100
AcDbEntity
  8
freecads.com
100
AcDbLine
 10
10738.30909487816
 20
29501.16659795103
 30
0.0
 11
10788.54916187816
 21
29501.42584695103
 31
0.0
  0
LINE
  5
A8B2
330
1F
100
AcDbEntity
  8
freecads.com
100
AcDbLine
 10
10788.54916187816
 20
29501.42584695103
 30
0.0
 11
10790.21943687816
 21
29509.42584695103
 31
0.0
  0
ARC
  5
A8B3
330
1F
100
AcDbEntity
  8
freecads.com
100
AcDbCircle
 10
10624.15223051213
 20
29544.09823114571
 30
0.0
 40
169.6481395593842
100
AcDbArc
 50
348.2068971377139
 51
349.5402694743134
  0
ARC
  5
A8B4
330
1F
100
AcDbEntity
  8
freecads.com
100
AcDbCircle
 10
10284.721184449
 20
29606.76154931738
 30
0.0
 40
514.8149491975378
100
AcDbArc
 50
349.5402455089198
 51
350.1230569218451
  0
ARC
  5
A8B5
330
1F
100
AcDbEntity
  8
freecads.com
100
AcDbCircle
 10
10247.48687905165
 20
29613.24463719765
 30
0.0
 40
552.6094451840845
100
AcDbArc
 50
350.1230466637665
 51
350.6996701720527
  0
ARC
  5
A8B6
330
1F
100
AcDbEntity
  8
freecads.com
100
AcDbCircle
 10
10421.9752105134
 20
29584.66995231224
 30
0.0
 40
375.7968595670194
100
AcDbArc
 50
350.6996842270966
 51
351.4695074253105
  0
ARC
  5
A8B7
330
1F
100
AcDbEntity
  8
freecads.com
100
AcDbCircle
 10
10959.9595573725
 20
29503.97496605365
 30
0.0
 40
168.2057491332451
100
AcDbArc
 50
169.663825958371
 51
171.4695223810952
  0
ARC
  5
A8B8
330
1F
100
AcDbEntity
  8
freecads.com
100
AcDbCircle
 10
11135.72282888421
 20
29471.91844701453
 30
0.0
 40
346.8684145823277
100
AcDbArc
 50
168.6129845551826
 51
169.663781788112
  0
ARC
  5
A8B9
330
1F
100
AcDbEntity
  8
freecads.com
100
AcDbCircle
 10
11136.6452638396
 20
29471.73259146614
 30
0.0
 40
347.8093866998837
100
AcDbArc
 50
167.5626331520346
 51
168.6129720283095
  0
ARC
  5
A8BA
330
1F
100
AcDbEntity
  8
freecads.com
100
AcDbCircle
 10
10966.1668687969
 20
29509.33119682342
 30
0.0
 40
173.234078305093
100
AcDbArc
 50
165.7933508350398
 51
167.5626093587547
  0
ARC
  5
A8BB
330
1F
100
AcDbEntity
  8
freecads.com
100
AcDbCircle
 10
10557.57923123478
 20
29612.77041803821
 30
0.0
 40
248.2437147684484
100
AcDbArc
 50
345.7933059877186
 51
346.8505202122816
  0
ARC
  5
A8BC
330
1F
100
AcDbEntity
  8
freecads.com
100
AcDbCircle
 10
10657.09007855754
 20
29589.52278521742
 30
0.0
 40
146.0533964078572
100
AcDbArc
 50
346.85056806326
 51
348.4234271084596
  0
ARC
  5
A8BD
330
1F
100
AcDbEntity
  8
freecads.com
100
AcDbCircle
 10
10552.73394373228
 20
29610.89956720332
 30
0.0
 40
252.5764910105805
100
AcDbArc
 50
348.4234255022602
 51
349.1925611589254
  0
ARC
  5
A8BE
330
1F
100
AcDbEntity
  8
freecads.com
100
AcDbCircle
 10
10799.362430495
 20
29563.81948135863
 30
0.0
 40
1.494542304558182
100
AcDbArc
 50
349.1925414344832
 51
18.43494147708248
  0
ARC
  5
A8BF
330
1F
100
AcDbEntity
  8
freecads.com
100
AcDbCircle
 10
10800.3039110052
 20
29564.13330846364
 30
0.0
 40
0.5021346247541683
100
AcDbArc
 50
18.43489791710334
 51
158.8761945493727
  0
ARC
  5
A8C0
330
1F
100
AcDbEntity
  8
freecads.com
100
AcDbCircle
 10
10936.8395919191
 20
29511.38342864665
 30
0.0
 40
146.8733817442957
100
AcDbArc
 50
158.8762091087133
 51
161.7078516182679
  0
ARC
  5
A8C1
330
1F
100
AcDbEntity
  8
freecads.com
100
AcDbCircle
 10
10921.81739053282
 20
29516.34908708468
 30
0.0
 40
131.0517415580813
100
AcDbArc
 50
161.7077785493668
 51
165.3576694697508
  0
ARC
  5
A8C2
330
1F
100
AcDbEntity
  8
freecads.com
100
AcDbCircle
 10
10860.31567848556
 20
29532.41751834615
 30
0.0
 40
67.48559437318253
100
AcDbArc
 50
165.3575914306591
 51
171.3550901058298
  0
ARC
  5
A8C3
330
1F
100
AcDbEntity
  8
freecads.com
100
AcDbCircle
 10
8607.652034707371
 20
29874.90822381644
 30
0.0
 40
2211.065123810109
100
AcDbArc
 50
351.0791264828147
 51
351.3550628236191
  0
ARC
  5
A8C4
330
1F
100
AcDbEntity
  8
freecads.com
100
AcDbCircle
 10
10698.33214873647
 20
29546.73604322514
 30
0.0
 40
94.78529370474968
100
AcDbArc
 50
348.3664308261391
 51
351.0791447022839
  0
ARC
  5
A8C5
330
1F
100
AcDbEntity
  8
freecads.com
100
AcDbCircle
 10
10766.06263699671
 20
29532.79160290299
 30
0.0
 40
25.63425281693882
100
AcDbArc
 50
342.7814446553018
 51
348.3664481482151
  0
ARC
  5
A8C6
330
1F
100
AcDbEntity
  8
freecads.com
100
AcDbCircle
 10
10788.95770048641
 20
29525.69626944972
 30
0.0
 40
1.664945588515302
100
AcDbArc
 50
301.7174621084548
 51
342.7814940456964
  0
ARC
  5
A8C7
330
1F
100
AcDbEntity
  8
freecads.com
100
AcDbCircle
 10
10789.5028276682
 20
29524.81423537107
 30
0.0
 40
0.6280522669933055
100
AcDbArc
 50
176.6872650933527
 51
301.7174307808456
  0
ARC
  5
A8C8
330
1F
100
AcDbEntity
  8
freecads.com
100
AcDbCircle
 10
11237.56978240675
 20
29498.87897512318
 30
0.0
 40
449.4449789228522
100
AcDbArc
 50
175.3736069719878
 51
176.6872702176835
  0
ARC
  5
A8C9
330
1F
100
AcDbEntity
  8
freecads.com
100
AcDbCircle
 10
10995.39685783793
 20
29518.47612555904
 30
0.0
 40
206.4804265712755
100
AcDbArc
 50
172.464768815729
 51
175.3736339217738
  0
ARC
  5
A8CA
330
1F
100
AcDbEntity
  8
freecads.com
100
AcDbCircle
 10
10861.93744559242
 20
29536.12994888017
 30
0.0
 40
71.85846627222081
100
AcDbArc
 50
166.0724985531802
 51
172.4648202110377
  0
ARC
  5
A8CB
330
1F
100
AcDbEntity
  8
freecads.com
100
AcDbCircle
 10
10889.94100147114
 20
29529.18553996857
 30
0.0
 40
100.7102245719049
100
AcDbArc
 50
161.7048175461521
 51
166.0725189226171
  0
ARC
  5
A8CC
330
1F
100
AcDbEntity
  8
freecads.com
100
AcDbCircle
 10
10830.19449526303
 20
29548.93917627047
 30
0.0
 40
37.78287637404151
100
AcDbArc
 50
152.6248972212933
 51
161.7047332637063
  0
ARC
  5
A8CD
330
1F
100
AcDbEntity
  8
freecads.com
100
AcDbCircle
 10
10822.02510767356
 20
29553.16928717262
 30
0.0
 40
28.5832713916836
100
AcDbArc
 50
141.9376007494808
 51
152.6249066657363
  0
ARC
  5
A8CE
330
1F
100
AcDbEntity
  8
freecads.com
100
AcDbCircle
 10
10827.37928385658
 20
29548.9768012128
 30
0.0
 40
35.38357587903222
100
AcDbArc
 50
132.8308316762349
 51
141.9376687746016
  0
ARC
  5
A8CF
330
1F
100
AcDbEntity
  8
freecads.com
100
AcDbCircle
 10
10428.73924929235
 20
29979.0049274744
 30
0.0
 40
550.9934926813269
100
AcDbArc
 50
312.8307994114251
 51
313.8190308916457
  0
ARC
  5
A8D0
330
1F
100
AcDbEntity
  8
freecads.com
100
AcDbCircle
 10
10636.14193054405
 20
29762.87168457139
 30
0.0
 40
251.4447472693674
100
AcDbArc
 50
313.8189483634675
 51
315.5955403080416
  0
ARC
  5
A8D1
330
1F
100
AcDbEntity
  8
freecads.com
100
AcDbCircle
 10
10497.46044718042
 20
29898.69932087291
 30
0.0
 40
445.5624966153053
100
AcDbArc
 50
315.595581978235
 51
316.4080327283655
  0
ARC
  5
A8D2
330
1F
100
AcDbEntity
  8
freecads.com
100
AcDbCircle
 10
10819.97448365103
 20
29591.65956274882
 30
0.0
 40
0.2662842022027453
100
AcDbArc
 50
316.408019465311
 51
89.99995112844151
  0
ARC
  5
A8D3
330
1F
100
AcDbEntity
  8
freecads.com
100
AcDbCircle
 10
10819.97448267914
 20
29590.27573633079
 30
0.0
 40
1.65011062024403
100
AcDbArc
 50
89.9999583670705
 51
112.204526835826
  0
ARC
  5
A8D4
330
1F
100
AcDbEntity
  8
freecads.com
100
AcDbCircle
 10
10852.41185523311
 20
29510.80823698974
 30
0.0
 40
87.48289334178378
100
AcDbArc
 50
112.2045039954504
 51
113.4874576889359
  0
ARC
  5
A8D5
330
1F
100
AcDbEntity
  8
freecads.com
100
AcDbCircle
 10
10845.54079089228
 20
29526.6200358379
 30
0.0
 40
70.24269299520668
100
AcDbArc
 50
113.4874473571826
 51
115.402227755035
  0
ARC
  5
A8D6
330
1F
100
AcDbEntity
  8
freecads.com
100
AcDbCircle
 10
10861.95052885087
 20
29492.06433547549
 30
0.0
 40
108.496789865902
100
AcDbArc
 50
115.4021507160056
 51
116.7845665178752
  0
ARC
  5
A8D7
330
1F
100
AcDbEntity
  8
freecads.com
100
AcDbCircle
 10
10827.34376659914
 20
29560.61996087002
 30
0.0
 40
31.70159622213653
100
AcDbArc
 50
116.7845676507564
 51
123.2274990725116
  0
ARC
  5
A8D8
330
1F
100
AcDbEntity
  8
freecads.com
100
AcDbCircle
 10
10825.72750304039
 20
29563.08731095221
 30
0.0
 40
28.75199890738729
100
AcDbArc
 50
123.2275272793441
 51
130.1600349037594
  0
ARC
  5
A8D9
330
1F
100
AcDbEntity
  8
freecads.com
100
AcDbCircle
 10
10829.3388299933
 20
29558.80789712982
 30
0.0
 40
34.35155826706593
100
AcDbArc
 50
130.1601057114292
 51
136.4367782910651
  0
ARC
  5
A8DA
330
1F
100
AcDbEntity
  8
freecads.com
100
AcDbCircle
 10
10852.09543326246
 20
29537.16490000423
 30
0.0
 40
65.75669028284318
100
AcDbArc
 50
136.4367694240977
 51
140.2976813114669
  0
ARC
  5
A8DB
330
1F
100
AcDbEntity
  8
freecads.com
100
AcDbCircle
 10
10870.64980260151
 20
29521.75947448266
 30
0.0
 40
89.87290385525492
100
AcDbArc
 50
140.297670103602
 51
145.1581443882784
  0
ARC
  5
A8DC
330
1F
100
AcDbEntity
  8
freecads.com
100
AcDbCircle
 10
10838.43770797422
 20
29544.18246846964
 30
0.0
 40
50.62485040533057
100
AcDbArc
 50
145.1582269118347
 51
152.628096188175
  0
ARC
  5
A8DD
330
1F
100
AcDbEntity
  8
freecads.com
100
AcDbCircle
 10
10853.66657005538
 20
29536.29814770738
 30
0.0
 40
67.77363328235252
100
AcDbArc
 50
152.6281710168667
 51
158.8759880781547
  0
ARC
  5
A8DE
330
1F
100
AcDbEntity
  8
freecads.com
100
AcDbCircle
 10
11026.64325302003
 20
29469.46908149809
 30
0.0
 40
253.2111077577799
100
AcDbArc
 50
158.8760683267318
 51
161.219842364285
  0
ARC
  5
A8DF
330
1F
100
AcDbEntity
  8
freecads.com
100
AcDbCircle
 10
9918.889202473529
 20
29846.15039304544
 30
0.0
 40
916.834979783821
100
AcDbArc
 50
340.7810097454312
 51
341.2198948801678
  0
ARC
  5
A8E0
330
1F
100
AcDbEntity
  8
freecads.com
100
AcDbCircle
 10
10770.88532746233
 20
29549.13728735322
 30
0.0
 40
14.55221814594135
100
AcDbArc
 50
332.2345907713607
 51
340.7809908029796
  0
ARC
  5
A8E1
330
1F
100
AcDbEntity
  8
freecads.com
100
AcDbCircle
 10
10783.59674202586
 20
29542.44512328332
 30
0.0
 40
0.186804119739269
100
AcDbArc
 50
182.6645825153725
 51
332.2345340807709
  0
ARC
  5
A8E2
330
1F
100
AcDbEntity
  8
freecads.com
100
AcDbCircle
 10
10797.45944749534
 20
29543.09028719843
 30
0.0
 40
14.06451428427947
100
AcDbArc
 50
174.5510091241171
 51
182.6645962865238
  0
ARC
  5
A8E3
330
1F
100
AcDbEntity
  8
freecads.com
100
AcDbCircle
 10
10805.08100256005
 20
29542.36323954265
 30
0.0
 40
21.72066866477189
100
AcDbArc
 50
167.5769971447389
 51
174.5509487423468
  0
ARC
  5
A8E4
330
1F
100
AcDbEntity
  8
freecads.com
100
AcDbCircle
 10
10900.76375855012
 20
29521.28564901257
 30
0.0
 40
119.6974751875689
100
AcDbArc
 50
165.605796201648
 51
167.5769515940196
  0
ARC
  5
A8E5
330
1F
100
AcDbEntity
  8
freecads.com
100
AcDbCircle
 10
10915.64845212802
 20
29517.46560777142
 30
0.0
 40
135.0645444587411
100
AcDbArc
 50
163.6268875824339
 51
165.6058346221191
  0
ARC
  5
A8E6
330
1F
100
AcDbEntity
  8
freecads.com
100
AcDbCircle
 10
10908.3088779721
 20
29519.62226613098
 30
0.0
 40
127.4146736094421
100
AcDbArc
 50
161.5595890356397
 51
163.6269938640479
  0
ARC
  5
A8E7
330
1F
100
AcDbEntity
  8
freecads.com
100
AcDbCircle
 10
10687.49140809047
 20
29593.25138910175
 30
0.0
 40
105.3547461053869
100
AcDbArc
 50
341.5596360459941
 51
347.3333704713493
  0
ARC
  5
A8E8
330
1F
100
AcDbEntity
  8
freecads.com
100
AcDbCircle
 10
10414.18745571359
 20
29654.67598667851
 30
0.0
 40
385.4762047126965
100
AcDbArc
 50
347.3333511725849
 51
349.5327540349089
  0
ARC
  5
A8E9
330
1F
100
AcDbEntity
  8
freecads.com
100
AcDbCircle
 10
10334.25720706841
 20
29669.44339261271
 30
0.0
 40
466.7591729553121
100
AcDbArc
 50
349.5326975468456
 51
351.3024144092817
  0
ARC
  5
A8EA
330
1F
100
AcDbEntity
  8
freecads.com
100
AcDbCircle
 10
10767.15753620464
 20
29603.21904775689
 30
0.0
 40
28.82269489279332
100
AcDbArc
 50
351.3023260573778
 51
4.790201777310744
  0
ARC
  5
A8EB
330
1F
100
AcDbEntity
  8
freecads.com
100
AcDbCircle
 10
10795.23500740577
 20
29605.57194533168
 30
0.0
 40
0.6468095287549335
100
AcDbArc
 50
4.79004332599514
 51
71.62150130294985
  0
ARC
  5
A8EC
330
1F
100
AcDbEntity
  8
freecads.com
100
AcDbCircle
 10
10795.29678108547
 20
29605.7578787679
 30
0.0
 40
0.4508829348268519
100
AcDbArc
 50
71.62142224047463
 51
157.7177336085885
  0
ARC
  5
A8ED
330
1F
100
AcDbEntity
  8
freecads.com
100
AcDbCircle
 10
10823.1926568129
 20
29594.32704447568
 30
0.0
 40
30.59792018919682
100
AcDbArc
 50
157.7177562451348
 51
163.8157962635227
  0
ARC
  5
A8EE
330
1F
100
AcDbEntity
  8
freecads.com
100
AcDbCircle
 10
11492.8107651156
 20
29399.98453829326
 30
0.0
 40
727.847818486884
100
AcDbArc
 50
163.8157478939638
 51
164.4276653651425
  0
ARC
  5
A8EF
330
1F
100
AcDbEntity
  8
freecads.com
100
AcDbCircle
 10
10106.9594504387
 20
29786.20104956407
 30
0.0
 40
710.8137330849341
100
AcDbArc
 50
343.9217736384499
 51
344.4275799586539
  0
ARC
  5
A8F0
330
1F
100
AcDbEntity
  8
freecads.com
100
AcDbCircle
 10
9802.202304624128
 20
29874.03958606003
 30
0.0
 40
1027.976981931201
100
AcDbArc
 50
343.5381024246225
 51
343.9217546060052
  0
ARC
  5
A8F1
330
1F
100
AcDbEntity
  8
freecads.com
100
AcDbCircle
 10
9872.629769771847
 20
29853.22771320102
 30
0.0
 40
954.5388317808516
100
AcDbArc
 50
343.150396444084
 51
343.5381739098275
  0
ARC
  5
A8F2
330
1F
100
AcDbEntity
  8
freecads.com
100
AcDbCircle
 10
10492.70189845876
 20
29665.43095275565
 30
0.0
 40
306.652215150989
100
AcDbArc
 50
342.2465092636504
 51
343.1504027946363
  0
ARC
  5
A8F3
330
1F
100
AcDbEntity
  8
freecads.com
100
AcDbCircle
 10
10909.63916109951
 20
29531.94015411362
 30
0.0
 40
131.1336620772303
100
AcDbArc
 50
162.2464578947735
 51
164.2946128931114
  0
ARC
  5
A8F4
330
1F
100
AcDbEntity
  8
freecads.com
100
AcDbCircle
 10
11102.61294496098
 20
29477.67766400934
 30
0.0
 40
331.5913860243637
100
AcDbArc
 50
164.2945417377311
 51
165.3189834523019
  0
ARC
  5
A8F5
330
1F
100
AcDbEntity
  8
freecads.com
100
AcDbCircle
 10
11116.5349417224
 20
29474.02970657666
 30
0.0
 40
345.9833833497346
100
AcDbArc
 50
165.3189002012914
 51
166.3355498443011
  0
ARC
  5
A8F6
330
1F
100
AcDbEntity
  8
freecads.com
100
AcDbCircle
 10
10980.96168686769
 20
29506.98990850264
 30
0.0
 40
206.4610469914202
100
AcDbArc
 50
166.3355790164812
 51
167.8321235061576
  0
ARC
  5
A8F7
330
1F
100
AcDbEntity
  8
freecads.com
100
AcDbCircle
 10
10504.57708788969
 20
29609.70823547355
 30
0.0
 40
280.8718380462589
100
AcDbArc
 50
345.9235560179032
 51
347.8321489020005
  0
ARC
  5
A8F8
330
1F
100
AcDbEntity
  8
freecads.com
100
AcDbCircle
 10
10769.91333291922
 20
29543.17634495469
 30
0.0
 40
7.321448935989566
100
AcDbArc
 50
319.4635448790287
 51
345.9234861002907
  0
ARC
  5
A8F9
330
1F
100
AcDbEntity
  8
freecads.com
100
AcDbCircle
 10
10774.99685719031
 20
29538.82900844638
 30
0.0
 40
0.63253618941864
100
AcDbArc
 50
185.7312390306202
 51
319.4635266635083
  0
ARC
  5
A8FA
330
1F
100
AcDbEntity
  8
freecads.com
100
AcDbCircle
 10
10831.43033342808
 20
29544.49287329125
 30
0.0
 40
57.34952310921499
100
AcDbArc
 50
179.9004526658349
 51
185.7312171179689
  0
ARC
  5
A8FB
330
1F
100
AcDbEntity
  8
freecads.com
100
AcDbCircle
 10
10816.07764030869
 20
29544.51957002502
 30
0.0
 40
41.99680677844339
100
AcDbArc
 50
175.7799857483024
 51
179.9004833575429
  0
ARC
  5
A8FC
330
1F
100
AcDbEntity
  8
freecads.com
100
AcDbCircle
 10
10844.61298418764
 20
29542.41410158346
 30
0.0
 40
70.6097207797605
100
AcDbArc
 50
172.9878037757739
 51
175.780032722942
  0
ARC
  5
A8FD
330
1F
100
AcDbEntity
  8
freecads.com
100
AcDbCircle
 10
10841.83057427912
 20
29542.75637993579
 30
0.0
 40
67.80633722272387
100
AcDbArc
 50
170.1720061758835
 51
172.9878374507164
  0
ARC
  5
A8FE
330
1F
100
AcDbEntity
  8
freecads.com
100
AcDbCircle
 10
10802.44082695247
 20
29549.58000088145
 30
0.0
 40
27.82991920825602
100
AcDbArc
 50
164.6951325650011
 51
170.1720246184073
  0
ARC
  5
A8FF
330
1F
100
AcDbEntity
  8
freecads.com
100
AcDbCircle
 10
10658.75662982597
 20
29588.90063516184
 30
0.0
 40
121.1373952741488
100
AcDbArc
 50
344.6951481826843
 51
349.4424557448884
  0
ARC
  5
A900
330
1F
100
AcDbEntity
  8
freecads.com
100
AcDbCircle
 10
9761.805285297965
 20
29756.07274145493
 30
0.0
 40
1033.534363470046
100
AcDbArc
 50
349.4424534893183
 51
350.422434529443
  0
ARC
  5
A901
330
1F
100
AcDbEntity
  8
freecads.com
100
AcDbCircle
 10
9688.324732649334
 20
29768.47225633263
 30
0.0
 40
1108.053754142314
100
AcDbArc
 50
350.4223936071745
 51
351.3349959597322
  0
ARC
  5
A902
330
1F
100
AcDbEntity
  8
freecads.com
100
AcDbCircle
 10
10697.122263544
 20
29614.73520626872
 30
0.0
 40
87.60897910480961
100
AcDbArc
 50
351.3349138333744
 51
357.1805655234463
  0
LINE
  5
A903
330
1F
100
AcDbEntity
  8
freecads.com
100
AcDbLine
 10
10784.62519287816
 20
29610.42584695103
 30
0.0
 11
10785.01918287816
 21
29618.42584695103
 31
0.0
  0
LINE
  5
A904
330
1F
100
AcDbEntity
  8
freecads.com
100
AcDbLine
 10
10785.01918287816
 20
29618.42584695103
 30
0.0
 11
10783.59062887816
 21
29609.71346395103
 31
0.0
  0
ARC
  5
A905
330
1F
100
AcDbEntity
  8
freecads.com
100
AcDbCircle
 10
10704.53995297097
 20
29622.67524101709
 30
0.0
 40
80.10628580888321
100
AcDbArc
 50
347.5604924720824
 51
350.6881894805292
  0
ARC
  5
A906
330
1F
100
AcDbEntity
  8
freecads.com
100
AcDbCircle
 10
10501.59641166299
 20
29667.44163506005
 30
0.0
 40
287.9285921049005
100
AcDbArc
 50
346.3534663399465
 51
347.56056266058
  0
ARC
  5
A907
330
1F
100
AcDbEntity
  8
freecads.com
100
AcDbCircle
 10
10474.46912376556
 20
29674.02740418953
 30
0.0
 40
315.8438586019
100
AcDbArc
 50
345.1594927559198
 51
346.3535259973284
  0
ARC
  5
A908
330
1F
100
AcDbEntity
  8
freecads.com
100
AcDbCircle
 10
10548.07797096142
 20
29654.52339808644
 30
0.0
 40
239.6948688543484
100
AcDbArc
 50
343.6911426666737
 51
345.1594988124189
  0
ARC
  5
A909
330
1F
100
AcDbEntity
  8
freecads.com
100
AcDbCircle
 10
11241.0212760581
 20
29451.77603574114
 30
0.0
 40
482.3002260156368
100
AcDbArc
 50
163.6911116073736
 51
165.0742149335792
  0
ARC
  5
A90A
330
1F
100
AcDbEntity
  8
freecads.com
100
AcDbCircle
 10
10889.35672081137
 20
29545.51630733034
 30
0.0
 40
118.3562771245022
100
AcDbArc
 50
165.0742534342516
 51
169.0029839339052
  0
ARC
  5
A90B
330
1F
100
AcDbEntity
  8
freecads.com
100
AcDbCircle
 10
10915.65458886137
 20
29540.40620886186
 30
0.0
 40
145.1460320744121
100
AcDbArc
 50
169.0030877598683
 51
172.4339319162625
  0
ARC
  5
A90C
330
1F
100
AcDbEntity
  8
freecads.com
100
AcDbCircle
 10
11713.84014696267
 20
29434.38833370529
 30
0.0
 40
950.3416449622047
100
AcDbArc
 50
172.4340355786453
 51
173.2902597241253
  0
ARC
  5
A90D
330
1F
100
AcDbEntity
  8
freecads.com
100
AcDbCircle
 10
10060.09024853726
 20
29628.94426311599
 30
0.0
 40
714.8132235743305
100
AcDbArc
 50
352.7526016826069
 51
353.2902642910788
  0
ARC
  5
A90E
330
1F
100
AcDbEntity
  8
freecads.com
100
AcDbCircle
 10
10318.17211321703
 20
29596.12398321645
 30
0.0
 40
454.6528506324217
100
AcDbArc
 50
351.9979079538667
 51
352.7526052336227
  0
ARC
  5
A90F
330
1F
100
AcDbEntity
  8
freecads.com
100
AcDbCircle
 10
10131.81454426073
 20
29622.32142487569
 30
0.0
 40
642.8427798441409
100
AcDbArc
 50
351.5485109350132
 51
351.9979384535022
  0
ARC
  5
A910
330
1F
100
AcDbEntity
  8
freecads.com
100
AcDbCircle
 10
10759.49262732606
 20
29529.057557472
 30
0.0
 40
8.273693830917467
100
AcDbArc
 50
341.453046739595
 51
351.5484455849327
  0
ARC
  5
A911
330
1F
100
AcDbEntity
  8
freecads.com
100
AcDbCircle
 10
10766.95546886452
 20
29526.55372322771
 30
0.0
 40
0.4020237571038687
100
AcDbArc
 50
198.6318905185541
 51
341.4530647221368
  0
ARC
  5
A912
330
1F
100
AcDbEntity
  8
freecads.com
100
AcDbCircle
 10
10781.33842005073
 20
29531.40302013494
 30
0.0
 40
15.58046126956096
100
AcDbArc
 50
186.839098108897
 51
198.6318390651082
  0
ARC
  5
A913
330
1F
100
AcDbEntity
  8
freecads.com
100
AcDbCircle
 10
10848.10469408684
 20
29539.41059931617
 30
0.0
 40
82.82521328046495
100
AcDbArc
 50
182.3297945852164
 51
186.8390780085036
  0
ARC
  5
A914
330
1F
100
AcDbEntity
  8
freecads.com
100
AcDbCircle
 10
11019.53675451909
 20
29546.38506874689
 30
0.0
 40
254.3990882377771
100
AcDbArc
 50
180.3762296254456
 51
182.3297392115376
  0
ARC
  5
A915
330
1F
100
AcDbEntity
  8
freecads.com
100
AcDbCircle
 10
10856.99259295024
 20
29545.31776048893
 30
0.0
 40
91.85142259156314
100
AcDbArc
 50
174.0411873377577
 51
180.3762573799403
  0
ARC
  5
A916
330
1F
100
AcDbEntity
  8
freecads.com
100
AcDbCircle
 10
10928.85968684984
 20
29537.81649910702
 30
0.0
 40
164.1089350583867
100
AcDbArc
 50
169.9388052727091
 51
174.0412032418489
  0
ARC
  5
A917
330
1F
100
AcDbEntity
  8
freecads.com
100
AcDbCircle
 10
11036.34631825809
 20
29518.74523588477
 30
0.0
 40
273.2743554642155
100
AcDbArc
 50
166.834693793339
 51
169.9387893036112
  0
ARC
  5
A918
330
1F
100
AcDbEntity
  8
freecads.com
100
AcDbCircle
 10
11618.93189410973
 20
29382.47263872356
 30
0.0
 40
871.5854567546477
100
AcDbArc
 50
165.526727572819
 51
166.8346614278794
  0
ARC
  5
A919
330
1F
100
AcDbEntity
  8
freecads.com
100
AcDbCircle
 10
9395.998149988541
 20
29956.25765923021
 30
0.0
 40
1424.207147230231
100
AcDbArc
 50
345.5266710643787
 51
345.9790779517968
  0
ARC
  5
A91A
330
1F
100
AcDbEntity
  8
freecads.com
100
AcDbCircle
 10
10717.15738487623
 20
29626.34317138136
 30
0.0
 40
62.47835880663522
100
AcDbArc
 50
345.9791000518999
 51
350.3561945166716
  0
ARC
  5
A91B
330
1F
100
AcDbEntity
  8
freecads.com
100
AcDbCircle
 10
10778.35851123176
 20
29615.94363888795
 30
0.0
 40
0.3999556114267519
100
AcDbArc
 50
350.3562880119001
 51
89.60408972830249
  0
ARC
  5
A91C
330
1F
100
AcDbEntity
  8
freecads.com
100
AcDbCircle
 10
10778.35583617295
 20
29615.55665397078
 30
0.0
 40
0.7869497742522232
100
AcDbArc
 50
89.60401877564253
 51
152.0212361846183
  0
ARC
  5
A91D
330
1F
100
AcDbEntity
  8
freecads.com
100
AcDbCircle
 10
10825.17532036213
 20
29590.68448248514
 30
0.0
 40
53.80288147550627
100
AcDbArc
 50
152.0211750294434
 51
163.5469223260408
  0
ARC
  5
A91E
330
1F
100
AcDbEntity
  8
freecads.com
100
AcDbCircle
 10
11029.11079172656
 20
29530.45778978987
 30
0.0
 40
266.4456123497074
100
AcDbArc
 50
163.5469477272891
 51
167.0671527448452
  0
ARC
  5
A91F
330
1F
100
AcDbEntity
  8
freecads.com
100
AcDbCircle
 10
11065.95665326019
 20
29521.99659968993
 30
0.0
 40
304.2504962941066
100
AcDbArc
 50
167.0671294614733
 51
170.5497572201521
  0
ARC
  5
A920
330
1F
100
AcDbEntity
  8
freecads.com
100
AcDbCircle
 10
11046.72441311327
 20
29525.19732619549
 30
0.0
 40
284.7537347426797
100
AcDbArc
 50
170.549662005335
 51
174.2096344183539
  0
ARC
  5
A921
330
1F
100
AcDbEntity
  8
freecads.com
100
AcDbCircle
 10
9411.135432519479
 20
29691.0588577012
 30
0.0
 40
1359.223564697421
100
AcDbArc
 50
353.9874586495627
 51
354.2095370214161
  0
ARC
  5
A922
330
1F
100
AcDbEntity
  8
freecads.com
100
AcDbCircle
 10
10760.71148544301
 20
29548.91402679238
 30
0.0
 40
2.182417355626133
100
AcDbArc
 50
333.6886784209906
 51
353.9873523506989
  0
ARC
  5
A923
330
1F
100
AcDbEntity
  8
freecads.com
100
AcDbCircle
 10
10762.55971166271
 20
29548.00012203031
 30
0.0
 40
0.1205827178954667
100
AcDbArc
 50
190.1655887526936
 51
333.6886830174543
  0
ARC
  5
A924
330
1F
100
AcDbEntity
  8
freecads.com
100
AcDbCircle
 10
10924.61046978087
 20
29577.0570995374
 30
0.0
 40
164.7558041880189
100
AcDbArc
 50
189.1259904518889
 51
190.1655579457234
  0
ARC
  5
A925
330
1F
100
AcDbEntity
  8
freecads.com
100
AcDbCircle
 10
10832.04043163983
 20
29562.18676466574
 30
0.0
 40
70.99899739181639
100
AcDbArc
 50
182.2482516382136
 51
189.1260342061428
  0
ARC
  5
A926
330
1F
100
AcDbEntity
  8
freecads.com
100
AcDbCircle
 10
10821.44485254011
 20
29561.77083122833
 30
0.0
 40
60.39525762320126
100
AcDbArc
 50
174.4835623954206
 51
182.2482935184919
  0
ARC
  5
A927
330
1F
100
AcDbEntity
  8
freecads.com
100
AcDbCircle
 10
10848.07435995506
 20
29559.19889630276
 30
0.0
 40
87.14867823473888
100
AcDbArc
 50
168.2272102170007
 51
174.4835007447027
  0
ARC
  5
A928
330
1F
100
AcDbEntity
  8
freecads.com
100
AcDbCircle
 10
11039.66470938636
 20
29519.26828591064
 30
0.0
 40
282.8558974206383
100
AcDbArc
 50
165.6246689292385
 51
168.2271605502592
  0
ARC
  5
A929
330
1F
100
AcDbEntity
  8
freecads.com
100
AcDbCircle
 10
4230.665967437523
 20
31264.3937435043
 30
0.0
 40
6746.221334378915
100
AcDbArc
 50
345.6246994961334
 51
345.6863497533597
  0
ARC
  5
A92A
330
1F
100
AcDbEntity
  8
freecads.com
100
AcDbCircle
 10
6585.908895971311
 20
30663.447925303
 30
0.0
 40
4315.520791573463
100
AcDbArc
 50
345.6864052387238
 51
345.7725780870799
  0
ARC
  5
A92B
330
1F
100
AcDbEntity
  8
freecads.com
100
AcDbCircle
 10
4877.917917484705
 20
31096.50785296792
 30
0.0
 40
6077.557704790219
100
AcDbArc
 50
345.7725609712355
 51
345.8241271720222
  0
ARC
  5
A92C
330
1F
100
AcDbEntity
  8
freecads.com
100
AcDbCircle
 10
10692.74191751424
 20
29627.73629696743
 30
0.0
 40
80.10257490091166
100
AcDbArc
 50
345.8241272113535
 51
346.9631579297973
  0
ARC
  5
A92D
330
1F
100
AcDbEntity
  8
freecads.com
100
AcDbCircle
 10
10765.08651833168
 20
29610.985220489
 30
0.0
 40
5.843973846078561
100
AcDbArc
 50
346.9631953895537
 51
358.6194717969809
  0
ARC
  5
A92E
330
1F
100
AcDbEntity
  8
freecads.com
100
AcDbCircle
 10
10741.6829371753
 20
29611.5492723853
 30
0.0
 40
29.25435114941916
100
AcDbArc
 50
358.619395409173
 51
2.151744256639099
  0
ARC
  5
A92F
330
1F
100
AcDbEntity
  8
freecads.com
100
AcDbCircle
 10
10737.5633138375
 20
29611.3944640912
 30
0.0
 40
33.37688217449885
100
AcDbArc
 50
2.151783666401549
 51
5.650221392137984
  0
ARC
  5
A930
330
1F
100
AcDbEntity
  8
freecads.com
100
AcDbCircle
 10
10739.73637909872
 20
29611.60946194467
 30
0.0
 40
31.19320712850301
100
AcDbArc
 50
5.650214611335269
 51
9.330808215344665
  0
ARC
  5
A931
330
1F
100
AcDbEntity
  8
freecads.com
100
AcDbCircle
 10
10730.65560418157
 20
29610.11738828263
 30
0.0
 40
40.39574791398439
100
AcDbArc
 50
9.330844025501921
 51
11.98237438984939
  0
ARC
  5
A932
330
1F
100
AcDbEntity
  8
freecads.com
100
AcDbCircle
 10
10764.84131946236
 20
29617.3727924553
 30
0.0
 40
5.448587529084448
100
AcDbArc
 50
11.98240661446902
 51
23.5991364682791
  0
ARC
  5
A933
330
1F
100
AcDbEntity
  8
freecads.com
100
AcDbCircle
 10
10769.61901257952
 20
29619.46002913547
 30
0.0
 40
0.2348644370108714
100
AcDbArc
 50
23.59921876317658
 51
105.6306492842398
  0
ARC
  5
A934
330
1F
100
AcDbEntity
  8
freecads.com
100
AcDbCircle
 10
10769.64853216328
 20
29619.35451941621
 30
0.0
 40
0.3444258658230679
100
AcDbArc
 50
105.6306318985995
 51
168.0480619078233
  0
ARC
  5
A935
330
1F
100
AcDbEntity
  8
freecads.com
100
AcDbCircle
 10
10482.17196416231
 20
29680.20767511946
 30
0.0
 40
293.5022751683332
100
AcDbArc
 50
346.2517382149592
 51
348.0480387101063
  0
ARC
  5
A936
330
1F
100
AcDbEntity
  8
freecads.com
100
AcDbCircle
 10
9687.940953277466
 20
29874.52797739543
 30
0.0
 40
1111.159464048489
100
AcDbArc
 50
345.584421572713
 51
346.2518009259934
  0
ARC
  5
A937
330
1F
100
AcDbEntity
  8
freecads.com
100
AcDbCircle
 10
6596.585508060484
 20
30669.14161004453
 30
0.0
 40
4303.006783995157
100
AcDbArc
 50
345.4027765932139
 51
345.5845187676354
  0
ARC
  5
A938
330
1F
100
AcDbEntity
  8
freecads.com
100
AcDbCircle
 10
10754.72419249904
 20
29586.24278649854
 30
0.0
 40
6.172230389250458
100
AcDbArc
 50
327.4933674627967
 51
345.4027780490719
  0
ARC
  5
A939
330
1F
100
AcDbEntity
  8
freecads.com
100
AcDbCircle
 10
10759.74283293748
 20
29583.04474323592
 30
0.0
 40
0.2212445415119663
100
AcDbArc
 50
184.0828293897038
 51
327.493342918607
  0
ARC
  5
A93A
330
1F
100
AcDbEntity
  8
freecads.com
100
AcDbCircle
 10
10839.82965216835
 20
29588.76140125581
 30
0.0
 40
80.51183423566099
100
AcDbArc
 50
181.5530414296653
 51
184.0828911112239
  0
ARC
  5
A93B
330
1F
100
AcDbEntity
  8
freecads.com
100
AcDbCircle
 10
10893.5534968359
 20
29590.2179945191
 30
0.0
 40
134.2554212930766
100
AcDbArc
 50
179.2399810897021
 51
181.5530477592118
  0
ARC
  5
A93C
330
1F
100
AcDbEntity
  8
freecads.com
100
AcDbCircle
 10
11347.44104401349
 20
29584.1962197883
 30
0.0
 40
588.1829124782829
100
AcDbArc
 50
178.4675707347211
 51
179.2399149187156
  0
LINE
  5
A93D
330
1F
100
AcDbEntity
  8
freecads.com
100
AcDbLine
 10
10759.46849587816
 20
29599.92584695103
 30
0.0
 11
10759.96342887816
 21
29618.42584695103
 31
0.0
  0
LINE
  5
A93E
330
1F
100
AcDbEntity
  8
freecads.com
100
AcDbLine
 10
10759.96342887816
 20
29618.42584695103
 30
0.0
 11
10758.02845287816
 21
29607.42584695103
 31
0.0
  0
ARC
  5
A93F
330
1F
100
AcDbEntity
  8
freecads.com
100
AcDbCircle
 10
10869.60824312272
 20
29587.79816868453
 30
0.0
 40
113.2929624696692
100
AcDbArc
 50
170.0233331763146
 51
172.6888418300073
  0
ARC
  5
A940
330
1F
100
AcDbEntity
  8
freecads.com
100
AcDbCircle
 10
11049.73273783943
 20
29564.68770340935
 30
0.0
 40
294.893973485974
100
AcDbArc
 50
172.6887782116828
 51
173.9937327831038
  0
ARC
  5
A941
330
1F
100
AcDbEntity
  8
freecads.com
100
AcDbCircle
 10
11064.17632867611
 20
29563.16766745029
 30
0.0
 40
309.4173279695206
100
AcDbArc
 50
173.9936672182945
 51
175.2873921779078
  0
ARC
  5
A942
330
1F
100
AcDbEntity
  8
freecads.com
100
AcDbCircle
 10
10944.51823018431
 20
29573.03177913972
 30
0.0
 40
189.3533398878104
100
AcDbArc
 50
175.2873669182836
 51
177.1563138158176
  0
ARC
  5
A943
330
1F
100
AcDbEntity
  8
freecads.com
100
AcDbCircle
 10
8112.270059974539
 20
29713.7164534064
 30
0.0
 40
2646.386753144361
100
AcDbArc
 50
356.9495931934659
 51
357.1563163097609
  0
ARC
  5
A944
330
1F
100
AcDbEntity
  8
freecads.com
100
AcDbCircle
 10
10742.74242740582
 20
29573.53856505685
 30
0.0
 40
12.18199341105179
100
AcDbArc
 50
347.6389424303444
 51
356.9496521661435
  0
ARC
  5
A945
330
1F
100
AcDbEntity
  8
freecads.com
100
AcDbCircle
 10
10754.4555002173
 20
29570.97162347392
 30
0.0
 40
0.1909440917787354
100
AcDbArc
 50
195.5473162483256
 51
347.6389908029704
  0
ARC
  5
A946
330
1F
100
AcDbEntity
  8
freecads.com
100
AcDbCircle
 10
10802.2007812506
 20
29584.25504124001
 30
0.0
 40
49.74960679061592
100
AcDbArc
 50
191.9831275302025
 51
195.5473251955857
  0
ARC
  5
A947
330
1F
100
AcDbEntity
  8
freecads.com
100
AcDbCircle
 10
10698.99693847668
 20
29562.35026148668
 30
0.0
 40
55.75324880749366
100
AcDbArc
 50
11.98301531582352
 51
16.75643848306652
  0
ARC
  5
A948
330
1F
100
AcDbEntity
  8
freecads.com
100
AcDbCircle
 10
10706.83252743097
 20
29564.70952343769
 30
0.0
 40
47.57018268222427
100
AcDbArc
 50
16.75637268638434
 51
22.13316786398337
  0
ARC
  5
A949
330
1F
100
AcDbEntity
  8
freecads.com
100
AcDbCircle
 10
10739.24847381503
 20
29577.89415244381
 30
0.0
 40
12.57549705708237
100
AcDbArc
 50
22.13310999309338
 51
33.6515419506736
  0
ARC
  5
A94A
330
1F
100
AcDbEntity
  8
freecads.com
100
AcDbCircle
 10
10749.45932792825
 20
29584.69147638358
 30
0.0
 40
0.3090731909438568
100
AcDbArc
 50
33.65144472489369
 51
177.284183122817
  0
ARC
  5
A94B
330
1F
100
AcDbEntity
  8
freecads.com
100
AcDbCircle
 10
10756.37907164529
 20
29584.36325144974
 30
0.0
 40
7.236596898356205
100
AcDbArc
 50
177.2843129041842
 51
186.257286367976
  0
ARC
  5
A94C
330
1F
100
AcDbEntity
  8
freecads.com
100
AcDbCircle
 10
11034.62286748679
 20
29614.87217120686
 30
0.0
 40
287.1480187964764
100
AcDbArc
 50
186.2573773376102
 51
186.8896919558718
  0
ARC
  5
A94D
330
1F
100
AcDbEntity
  8
freecads.com
100
AcDbCircle
 10
10991.01632043506
 20
29609.60325854013
 30
0.0
 40
243.2243078142123
100
AcDbArc
 50
186.8897152056685
 51
187.7810038583469
  0
ARC
  5
A94E
330
1F
100
AcDbEntity
  8
freecads.com
100
AcDbCircle
 10
11103.23524938356
 20
29624.93747297567
 30
0.0
 40
356.4860672332855
100
AcDbArc
 50
187.781009491856
 51
188.4502222945365
  0
ARC
  5
A94F
330
1F
100
AcDbEntity
  8
freecads.com
100
AcDbCircle
 10
10640.59430356998
 20
29556.20603577309
 30
0.0
 40
111.2324968662039
100
AcDbArc
 50
6.13402088959572
 51
8.450295795590653
  0
ARC
  5
A950
330
1F
100
AcDbEntity
  8
freecads.com
100
AcDbCircle
 10
10608.44885916669
 20
29552.75133656376
 30
0.0
 40
143.5630480911805
100
AcDbArc
 50
4.221088032999865
 51
6.134035093618371
  0
ARC
  5
A951
330
1F
100
AcDbEntity
  8
freecads.com
100
AcDbCircle
 10
10621.73623632356
 20
29553.73209049625
 30
0.0
 40
130.239524909257
100
AcDbArc
 50
2.284963104791511
 51
4.221056028060123
  0
ARC
  5
A952
330
1F
100
AcDbEntity
  8
freecads.com
100
AcDbCircle
 10
10716.44584789811
 20
29557.51114154186
 30
0.0
 40
35.45454850790355
100
AcDbArc
 50
357.1875997466756
 51
2.284937529817975
  0
ARC
  5
A953
330
1F
100
AcDbEntity
  8
freecads.com
100
AcDbCircle
 10
10281.19272761872
 20
29578.89301774436
 30
0.0
 40
471.2325462807101
100
AcDbArc
 50
356.6783531323057
 51
357.1875971824757
  0
ARC
  5
A954
330
1F
100
AcDbEntity
  8
freecads.com
100
AcDbCircle
 10
10749.25749663357
 20
29551.72714062887
 30
0.0
 40
2.380103744274185
100
AcDbArc
 50
335.1335481244484
 51
356.678386945691
  0
ARC
  5
A955
330
1F
100
AcDbEntity
  8
freecads.com
100
AcDbCircle
 10
10751.24850712725
 20
29550.80436071178
 30
0.0
 40
0.185645824586695
100
AcDbArc
 50
206.4831029011969
 51
335.1336061707637
  0
ARC
  5
A956
330
1F
100
AcDbEntity
  8
freecads.com
100
AcDbCircle
 10
10774.82974735992
 20
29562.55286633613
 30
0.0
 40
26.53146665667817
100
AcDbArc
 50
202.4389275731508
 51
206.4831314170412
  0
ARC
  5
A957
330
1F
100
AcDbEntity
  8
freecads.com
100
AcDbCircle
 10
10717.29890412554
 20
29538.79463392238
 30
0.0
 40
35.71201919272624
100
AcDbArc
 50
22.43891208816439
 51
24.70568838968039
  0
ARC
  5
A958
330
1F
100
AcDbEntity
  8
freecads.com
100
AcDbCircle
 10
10701.03988859051
 20
29531.31434769331
 30
0.0
 40
53.60923317247579
100
AcDbArc
 50
24.70570667535709
 51
26.37756786492118
  0
ARC
  5
A959
330
1F
100
AcDbEntity
  8
freecads.com
100
AcDbCircle
 10
10704.14247128986
 20
29532.85300630827
 30
0.0
 40
50.14607136012738
100
AcDbArc
 50
26.37753006792865
 51
28.06841243234242
  0
ARC
  5
A95A
330
1F
100
AcDbEntity
  8
freecads.com
100
AcDbCircle
 10
10733.15321850468
 20
29548.32275895221
 30
0.0
 40
17.26846954936428
100
AcDbArc
 50
28.0684009868318
 51
31.81314902486294
  0
ARC
  5
A95B
330
1F
100
AcDbEntity
  8
freecads.com
100
AcDbCircle
 10
10751.46047528504
 20
29559.67955600248
 30
0.0
 40
4.275264808048987
100
AcDbArc
 50
184.512994793414
 51
211.8131438757561
  0
ARC
  5
A95C
330
1F
100
AcDbEntity
  8
freecads.com
100
AcDbCircle
 10
11026.26767815196
 20
29581.36982011831
 30
0.0
 40
279.9371343238677
100
AcDbArc
 50
183.1472586106862
 51
184.5129446463221
  0
ARC
  5
A95D
330
1F
100
AcDbEntity
  8
freecads.com
100
AcDbCircle
 10
11076.95352165194
 20
29584.1566215971
 30
0.0
 40
330.6995317629147
100
AcDbArc
 50
181.5120342255793
 51
183.1472280250504
  0
ARC
  5
A95E
330
1F
100
AcDbEntity
  8
freecads.com
100
AcDbCircle
 10
12346.19031875895
 20
29617.65952854256
 30
0.0
 40
1600.378424989175
100
AcDbArc
 50
181.0041653009863
 51
181.5120342593569
  0
ARC
  5
A95F
330
1F
100
AcDbEntity
  8
freecads.com
100
AcDbCircle
 10
9129.982506353409
 20
29561.2863576473
 30
0.0
 40
1616.323399391702
100
AcDbArc
 50
1.004171347533273
 51
1.41601296724041
  0
ARC
  5
A960
330
1F
100
AcDbEntity
  8
freecads.com
100
AcDbCircle
 10
9896.517619362633
 20
29580.23358736512
 30
0.0
 40
849.5541531456847
100
AcDbArc
 50
1.416069926710431
 51
2.082532555327799
  0
ARC
  5
A961
330
1F
100
AcDbEntity
  8
freecads.com
100
AcDbCircle
 10
6296.463189769889
 20
29449.320625883
 30
0.0
 40
4451.988066420344
100
AcDbArc
 50
2.082583359649486
 51
2.194883078483254
  0
ARC
  5
A962
330
1F
100
AcDbEntity
  8
freecads.com
100
AcDbCircle
 10
10744.34187057262
 20
29619.79307711538
 30
0.0
 40
0.8437623375589508
100
AcDbArc
 50
2.194879456667647
 51
44.9999774376976
  0
ARC
  5
A963
330
1F
100
AcDbEntity
  8
freecads.com
100
AcDbCircle
 10
10744.75551386855
 20
29620.20672025304
 30
0.0
 40
0.2587824903784327
100
AcDbArc
 50
44.99995121386096
 51
173.4086976922804
  0
ARC
  5
A964
330
1F
100
AcDbEntity
  8
freecads.com
100
AcDbCircle
 10
10991.1306901438
 20
29591.7378430437
 30
0.0
 40
248.2733071743596
100
AcDbArc
 50
173.4086524567687
 51
174.5259113065601
  0
ARC
  5
A965
330
1F
100
AcDbEntity
  8
freecads.com
100
AcDbCircle
 10
11047.95269694449
 20
29586.29241818112
 30
0.0
 40
305.3556433983696
100
AcDbArc
 50
174.5259071816785
 51
175.9413241227852
  0
ARC
  5
A966
330
1F
100
AcDbEntity
  8
freecads.com
100
AcDbCircle
 10
13868.78255638975
 20
29386.13902638756
 30
0.0
 40
3133.277579411504
100
AcDbArc
 50
175.9413488847054
 51
176.1975755038447
  0
LINE
  5
A967
330
1F
100
AcDbEntity
  8
freecads.com
100
AcDbLine
 10
10742.40237687816
 20
29593.92584695103
 30
0.0
 11
10741.70451887816
 21
29583.42584695103
 31
0.0
  0
LINE
  5
A968
330
1F
100
AcDbEntity
  8
freecads.com
100
AcDbLine
 10
10741.70451887816
 20
29583.42584695103
 30
0.0
 11
10740.06541287816
 21
29592.42584695103
 31
0.0
  0
ARC
  5
A969
330
1F
100
AcDbEntity
  8
freecads.com
100
AcDbCircle
 10
10618.65538465041
 20
29570.31430238424
 30
0.0
 40
123.4071122642083
100
AcDbArc
 50
10.32174508667313
 51
13.80964283790979
  0
ARC
  5
A96A
330
1F
100
AcDbEntity
  8
freecads.com
100
AcDbCircle
 10
10590.67598104904
 20
29563.43704184217
 30
0.0
 40
152.2193273550124
100
AcDbArc
 50
13.809594096661
 51
16.7897233874568
  0
ARC
  5
A96B
330
1F
100
AcDbEntity
  8
freecads.com
100
AcDbCircle
 10
10549.96389451123
 20
29551.15359525768
 30
0.0
 40
194.7441089558171
100
AcDbArc
 50
16.78964179067556
 51
18.87744224029509
  0
ARC
  5
A96C
330
1F
100
AcDbEntity
  8
freecads.com
100
AcDbCircle
 10
10728.63527926668
 20
29612.24790206453
 30
0.0
 40
5.9162030344661
100
AcDbArc
 50
18.8774575248721
 51
44.9255091789068
  0
ARC
  5
A96D
330
1F
100
AcDbEntity
  8
freecads.com
100
AcDbCircle
 10
10732.43903647711
 20
29616.04178135668
 30
0.0
 40
0.5438582019668467
100
AcDbArc
 50
44.9255202655864
 51
183.0405179215973
  0
ARC
  5
A96E
330
1F
100
AcDbEntity
  8
freecads.com
100
AcDbCircle
 10
10791.99273849813
 20
29619.20509961007
 30
0.0
 40
60.18151414836541
100
AcDbArc
 50
183.0405265538181
 51
188.3852536466955
  0
ARC
  5
A96F
330
1F
100
AcDbEntity
  8
freecads.com
100
AcDbCircle
 10
10810.40803488408
 20
29621.91959285179
 30
0.0
 40
78.79579937616231
100
AcDbArc
 50
188.3852548084488
 51
193.3916510968102
  0
ARC
  5
A970
330
1F
100
AcDbEntity
  8
freecads.com
100
AcDbCircle
 10
10765.88527306015
 20
29611.31962623147
 30
0.0
 40
33.02861011592523
100
AcDbArc
 50
193.3916439282844
 51
202.9782789444316
  0
ARC
  5
A971
330
1F
100
AcDbEntity
  8
freecads.com
100
AcDbCircle
 10
10707.36520767619
 20
29586.50549036669
 30
0.0
 40
30.53505396395262
100
AcDbArc
 50
13.2708843241936
 51
22.97831374364413
  0
ARC
  5
A972
330
1F
100
AcDbEntity
  8
freecads.com
100
AcDbCircle
 10
10698.11033580941
 20
29584.32274611596
 30
0.0
 40
40.04384072845354
100
AcDbArc
 50
5.348819740050068
 51
13.27081532341168
  0
ARC
  5
A973
330
1F
100
AcDbEntity
  8
freecads.com
100
AcDbCircle
 10
10699.42297038498
 20
29584.44568418399
 30
0.0
 40
38.72546168741317
100
AcDbArc
 50
358.2497924577227
 51
5.348760116060661
  0
ARC
  5
A974
330
1F
100
AcDbEntity
  8
freecads.com
100
AcDbCircle
 10
10735.89136360455
 20
29583.33134401788
 30
0.0
 40
2.240047368494102
100
AcDbArc
 50
301.7175249079508
 51
358.2497351270486
  0
ARC
  5
A975
330
1F
100
AcDbEntity
  8
freecads.com
100
AcDbCircle
 10
10736.83913839584
 20
29581.79781602349
 30
0.0
 40
0.4372758453785217
100
AcDbArc
 50
249.780179395441
 51
301.7174691477991
  0
ARC
  5
A976
330
1F
100
AcDbEntity
  8
freecads.com
100
AcDbCircle
 10
10736.91047721596
 20
29581.99150303091
 30
0.0
 40
0.6436829288305712
100
AcDbArc
 50
210.8435159519388
 51
249.7801966008564
  0
ARC
  5
A977
330
1F
100
AcDbEntity
  8
freecads.com
100
AcDbCircle
 10
10737.87473141389
 20
29582.56730576957
 30
0.0
 40
1.76677462236171
100
AcDbArc
 50
189.7541925287681
 51
210.8434833535577
  0
ARC
  5
A978
330
1F
100
AcDbEntity
  8
freecads.com
100
AcDbCircle
 10
10741.19781935811
 20
29583.13856433674
 30
0.0
 40
5.138606444323496
100
AcDbArc
 50
180.242340466921
 51
189.7541626362398
  0
ARC
  5
A979
330
1F
100
AcDbEntity
  8
freecads.com
100
AcDbCircle
 10
10728.23615428213
 20
29583.08373563776
 30
0.0
 40
7.823174595647046
100
AcDbArc
 50
0.2423786033884384
 51
20.16807942275971
  0
ARC
  5
A97A
330
1F
100
AcDbEntity
  8
freecads.com
100
AcDbCircle
 10
10665.46695437136
 20
29560.02892283092
 30
0.0
 40
74.69242650559387
100
AcDbArc
 50
20.16803601987248
 51
23.96456542327713
  0
ARC
  5
A97B
330
1F
100
AcDbEntity
  8
freecads.com
100
AcDbCircle
 10
10653.11299879905
 20
29554.53782348112
 30
0.0
 40
88.21176045172697
100
AcDbArc
 50
23.96451572301885
 51
27.18295184928205
  0
ARC
  5
A97C
330
1F
100
AcDbEntity
  8
freecads.com
100
AcDbCircle
 10
10728.13408009505
 20
29593.06521090554
 30
0.0
 40
3.875989745750172
100
AcDbArc
 50
27.18291857827495
 51
58.28258843408315
  0
ARC
  5
A97D
330
1F
100
AcDbEntity
  8
freecads.com
100
AcDbCircle
 10
10729.89565732517
 20
29595.91551114198
 30
0.0
 40
0.5252635892948022
100
AcDbArc
 50
58.28250737502085
 51
159.9930256142792
  0
ARC
  5
A97E
330
1F
100
AcDbEntity
  8
freecads.com
100
AcDbCircle
 10
10732.51584208513
 20
29594.96148428588
 30
0.0
 40
3.313728295639375
100
AcDbArc
 50
159.9930843855811
 51
186.9486033110782
  0
ARC
  5
A97F
330
1F
100
AcDbEntity
  8
freecads.com
100
AcDbCircle
 10
10760.98121093286
 20
29598.43067694198
 30
0.0
 40
31.98972036778765
100
AcDbArc
 50
186.9486061030157
 51
193.63175349473
  0
ARC
  5
A980
330
1F
100
AcDbEntity
  8
freecads.com
100
AcDbCircle
 10
11149.82187157015
 20
29692.72994187488
 30
0.0
 40
432.1014681729486
100
AcDbArc
 50
193.6318397049983
 51
194.6278632653315
  0
ARC
  5
A981
330
1F
100
AcDbEntity
  8
freecads.com
100
AcDbCircle
 10
10644.4809735301
 20
29560.83587236898
 30
0.0
 40
90.16806837199856
100
AcDbArc
 50
7.323853226767263
 51
14.62796625479033
  0
ARC
  5
A982
330
1F
100
AcDbEntity
  8
freecads.com
100
AcDbCircle
 10
10649.37778232615
 20
29561.4652607209
 30
0.0
 40
85.23097751986854
100
AcDbArc
 50
359.704704774579
 51
7.323839567498923
  0
ARC
  5
A983
330
1F
100
AcDbEntity
  8
freecads.com
100
AcDbCircle
 10
10657.97840107232
 20
29561.42107416537
 30
0.0
 40
76.63024526925726
100
AcDbArc
 50
352.6805039388152
 51
359.7045998436533
  0
ARC
  5
A984
330
1F
100
AcDbEntity
  8
freecads.com
100
AcDbCircle
 10
10730.16676439459
 20
29552.14856392544
 30
0.0
 40
3.848796772423132
100
AcDbArc
 50
290.9935751989556
 51
352.6805019768156
  0
ARC
  5
A985
330
1F
100
AcDbEntity
  8
freecads.com
100
AcDbCircle
 10
10730.97315392102
 20
29550.04714507489
 30
0.0
 40
1.59796909049324
100
AcDbArc
 50
206.5414669606437
 51
290.9935498291677
  0
ARC
  5
A986
330
1F
100
AcDbEntity
  8
freecads.com
100
AcDbCircle
 10
10740.92377798051
 20
29555.01732116336
 30
0.0
 40
12.72080908411307
100
AcDbArc
 50
187.9877230857553
 51
206.5413979691463
  0
ARC
  5
A987
330
1F
100
AcDbEntity
  8
freecads.com
100
AcDbCircle
 10
10797.87427719764
 20
29563.008699227
 30
0.0
 40
70.22925615439783
100
AcDbArc
 50
181.3201073010229
 51
187.9876834583335
  0
ARC
  5
A988
330
1F
100
AcDbEntity
  8
freecads.com
100
AcDbCircle
 10
11692.45987438662
 20
29583.62483467459
 30
0.0
 40
965.0523759600305
100
AcDbArc
 50
180.3383545288954
 51
181.3201690002524
  0
ARC
  5
A989
330
1F
100
AcDbEntity
  8
freecads.com
100
AcDbCircle
 10
-2315.617073299356
 20
29500.89462453043
 30
0.0
 40
13043.26886749967
100
AcDbArc
 50
0.3383806342718679
 51
0.4378461013242118
  0
ARC
  5
A98A
330
1F
100
AcDbEntity
  8
freecads.com
100
AcDbCircle
 10
10510.84694248371
 20
29598.91442000695
 30
0.0
 40
216.4303237086735
100
AcDbArc
 50
0.4378738076720424
 51
2.316674920535352
  0
ARC
  5
A98B
330
1F
100
AcDbEntity
  8
freecads.com
100
AcDbCircle
 10
10690.3229490702
 20
29606.17521879902
 30
0.0
 40
36.80750739813474
100
AcDbArc
 50
2.316706735642732
 51
7.656165480139302
  0
ARC
  5
A98C
330
1F
100
AcDbEntity
  8
freecads.com
100
AcDbCircle
 10
10726.32319258235
 20
29611.0145997341
 30
0.0
 40
0.4834500701143507
100
AcDbArc
 50
7.656181841217313
 51
121.7174690024368
  0
ARC
  5
A98D
330
1F
100
AcDbEntity
  8
freecads.com
100
AcDbCircle
 10
10726.52201317787
 20
29610.69290165373
 30
0.0
 40
0.8616289750115672
100
AcDbArc
 50
121.7174853901163
 51
169.4368351328908
  0
ARC
  5
A98E
330
1F
100
AcDbEntity
  8
freecads.com
100
AcDbCircle
 10
10759.83121099289
 20
29604.4813734868
 30
0.0
 40
34.74504293005625
100
AcDbArc
 50
169.4367656499489
 51
172.7654163647288
  0
ARC
  5
A98F
330
1F
100
AcDbEntity
  8
freecads.com
100
AcDbCircle
 10
10758.39314388557
 20
29604.66388939609
 30
0.0
 40
33.29543985991582
100
AcDbArc
 50
172.7653546529002
 51
177.0549324625005
  0
ARC
  5
A990
330
1F
100
AcDbEntity
  8
freecads.com
100
AcDbCircle
 10
10780.07697530506
 20
29603.54834476781
 30
0.0
 40
55.0079474268986
100
AcDbArc
 50
177.0549442585295
 51
180.0000143913803
  0
ARC
  5
A991
330
1F
100
AcDbEntity
  8
freecads.com
100
AcDbCircle
 10
10677.33063191086
 20
29603.54831396442
 30
0.0
 40
47.73839596730552
100
AcDbArc
 50
356.2282360132668
 51
0.0000203873892984
  0
ARC
  5
A992
330
1F
100
AcDbEntity
  8
freecads.com
100
AcDbCircle
 10
10655.84396180341
 20
29604.96484346082
 30
0.0
 40
69.27170848814279
100
AcDbArc
 50
353.3748065592174
 51
356.2282181159196
  0
ARC
  5
A993
330
1F
100
AcDbEntity
  8
freecads.com
100
AcDbCircle
 10
10660.79421254467
 20
29604.3899306401
 30
0.0
 40
64.28818492048775
100
AcDbArc
 50
350.4812441089428
 51
353.3747564067353
  0
ARC
  5
A994
330
1F
100
AcDbEntity
  8
freecads.com
100
AcDbCircle
 10
10702.78683756147
 20
29597.34865768822
 30
0.0
 40
21.70931597609613
100
AcDbArc
 50
343.979650652444
 51
350.4812061729425
  0
ARC
  5
A995
330
1F
100
AcDbEntity
  8
freecads.com
100
AcDbCircle
 10
10742.74980037626
 20
29585.87409311789
 30
0.0
 40
19.86837069613711
100
AcDbArc
 50
163.97963006889
 51
173.4621671454915
  0
ARC
  5
A996
330
1F
100
AcDbEntity
  8
freecads.com
100
AcDbCircle
 10
10861.22275182819
 20
29572.29667949548
 30
0.0
 40
139.1167936894959
100
AcDbArc
 50
173.4622179963915
 51
175.7173070963668
  0
ARC
  5
A997
330
1F
100
AcDbEntity
  8
freecads.com
100
AcDbCircle
 10
10924.72896116104
 20
29567.54096272044
 30
0.0
 40
202.8008220315456
100
AcDbArc
 50
175.7173206252681
 51
177.7127676090689
  0
ARC
  5
A998
330
1F
100
AcDbEntity
  8
freecads.com
100
AcDbCircle
 10
11187.35474461339
 20
29557.05157483959
 30
0.0
 40
465.6359973640479
100
AcDbArc
 50
177.7127844079849
 51
178.7848952138455
  0
ARC
  5
A999
330
1F
100
AcDbEntity
  8
freecads.com
100
AcDbCircle
 10
10108.65039859919
 20
29579.93106976564
 30
0.0
 40
613.3109602748805
100
AcDbArc
 50
357.9239183754705
 51
358.7849552987525
  0
ARC
  5
A99A
330
1F
100
AcDbEntity
  8
freecads.com
100
AcDbCircle
 10
10578.50612313975
 20
29562.89859526666
 30
0.0
 40
143.1466197820301
100
AcDbArc
 50
355.3869853974998
 51
357.9239388874233
  0
ARC
  5
A99B
330
1F
100
AcDbEntity
  8
freecads.com
100
AcDbCircle
 10
10636.40284863575
 20
29558.22715514067
 30
0.0
 40
85.06174071695204
100
AcDbArc
 50
352.3965068270549
 51
355.3869476083723
  0
ARC
  5
A99C
330
1F
100
AcDbEntity
  8
freecads.com
100
AcDbCircle
 10
10714.85406949197
 20
29547.75466318505
 30
0.0
 40
5.914617322655652
100
AcDbArc
 50
331.4271709156579
 51
352.3964690282998
  0
LINE
  5
A99D
330
1F
100
AcDbEntity
  8
freecads.com
100
AcDbLine
 10
10720.04834487816
 20
29544.92584695103
 30
0.0
 11
10718.68683887816
 21
29542.42584695103
 31
0.0
  0
LINE
  5
A99E
330
1F
100
AcDbEntity
  8
freecads.com
100
AcDbLine
 10
10718.68683887816
 20
29542.42584695103
 30
0.0
 11
10718.02354187816
 21
29545.58143395103
 31
0.0
  0
ARC
  5
A99F
330
1F
100
AcDbEntity
  8
freecads.com
100
AcDbCircle
 10
10732.51502996655
 20
29548.62750658762
 30
0.0
 40
14.80816617692033
100
AcDbArc
 50
183.3676938843756
 51
191.8706093415562
  0
ARC
  5
A9A0
330
1F
100
AcDbEntity
  8
freecads.com
100
AcDbCircle
 10
11639.3397113768
 20
29601.99021793752
 30
0.0
 40
923.2015731198698
100
AcDbArc
 50
182.927922823811
 51
183.3677246875938
  0
ARC
  5
A9A1
330
1F
100
AcDbEntity
  8
freecads.com
100
AcDbCircle
 10
11410.15806366011
 20
29590.26915442472
 30
0.0
 40
693.720395287684
100
AcDbArc
 50
182.2314999863234
 51
182.9279853380331
  0
ARC
  5
A9A2
330
1F
100
AcDbEntity
  8
freecads.com
100
AcDbCircle
 10
11783.19740800025
 20
29604.80716654199
 30
0.0
 40
1067.042918342113
100
AcDbArc
 50
181.7271701668885
 51
182.2316013950736
  0
ARC
  5
A9A3
330
1F
100
AcDbEntity
  8
freecads.com
100
AcDbCircle
 10
11963.74673184925
 20
29610.25166283899
 30
0.0
 40
1247.674313404587
100
AcDbArc
 50
181.134055805509
 51
181.7271803909713
  0
ARC
  5
A9A4
330
1F
100
AcDbEntity
  8
freecads.com
100
AcDbCircle
 10
10880.73810412357
 20
29588.81262873998
 30
0.0
 40
164.4535049306447
100
AcDbArc
 50
178.4920675494675
 51
181.1339735067467
  0
ARC
  5
A9A5
330
1F
100
AcDbEntity
  8
freecads.com
100
AcDbCircle
 10
10782.67674174822
 20
29591.39407346862
 30
0.0
 40
66.35817044529495
100
AcDbArc
 50
174.0032010869488
 51
178.4920950723537
  0
ARC
  5
A9A6
330
1F
100
AcDbEntity
  8
freecads.com
100
AcDbCircle
 10
10745.93291745318
 20
29595.25397137319
 30
0.0
 40
29.41216341266542
100
AcDbArc
 50
165.756480339968
 51
174.0032822164694
  0
ARC
  5
A9A7
330
1F
100
AcDbEntity
  8
freecads.com
100
AcDbCircle
 10
10613.96830351835
 20
29628.75271099793
 30
0.0
 40
106.7378453549351
100
AcDbArc
 50
345.7565401340204
 51
348.8539905503174
  0
ARC
  5
A9A8
330
1F
100
AcDbEntity
  8
freecads.com
100
AcDbCircle
 10
10643.14774547887
 20
29623.00364597703
 30
0.0
 40
76.99744216771522
100
AcDbArc
 50
348.8539531602983
 51
352.8106357259521
  0
ARC
  5
A9A9
330
1F
100
AcDbEntity
  8
freecads.com
100
AcDbCircle
 10
10688.59010106611
 20
29617.27155819686
 30
0.0
 40
31.19499123294938
100
AcDbArc
 50
352.8105501848594
 51
359.0760011976546
  0
ARC
  5
A9AA
330
1F
100
AcDbEntity
  8
freecads.com
100
AcDbCircle
 10
10719.49166333069
 20
29616.77317112398
 30
0.0
 40
0.289410182495921
100
AcDbArc
 50
359.0759796303956
 51
148.1605188611424
  0
ARC
  5
A9AB
330
1F
100
AcDbEntity
  8
freecads.com
100
AcDbCircle
 10
10723.51780784202
 20
29614.27301830747
 30
0.0
 40
5.028672122081239
100
AcDbArc
 50
148.1605676770766
 51
161.4947307101358
  0
ARC
  5
A9AC
330
1F
100
AcDbEntity
  8
freecads.com
100
AcDbCircle
 10
10933.08029113079
 20
29544.13316905279
 30
0.0
 40
226.01743395314
100
AcDbArc
 50
161.4947806722572
 51
162.3574218548383
  0
ARC
  5
A9AD
330
1F
100
AcDbEntity
  8
freecads.com
100
AcDbCircle
 10
10895.40404741043
 20
29556.11570413566
 30
0.0
 40
186.4816212275034
100
AcDbArc
 50
162.3574521863802
 51
163.6067169895853
  0
ARC
  5
A9AE
330
1F
100
AcDbEntity
  8
freecads.com
100
AcDbCircle
 10
10983.92967177541
 20
29530.07281175039
 30
0.0
 40
278.7584786346045
100
AcDbArc
 50
163.6067838312082
 51
164.5310743351714
  0
ARC
  5
A9AF
330
1F
100
AcDbEntity
  8
freecads.com
100
AcDbCircle
 10
10898.5386935204
 20
29553.70425112905
 30
0.0
 40
190.1578911967081
100
AcDbArc
 50
164.5311589288671
 51
166.7651652044542
  0
ARC
  5
A9B0
330
1F
100
AcDbEntity
  8
freecads.com
100
AcDbCircle
 10
10744.35268378203
 20
29589.96717927558
 30
0.0
 40
31.76494452041663
100
AcDbArc
 50
166.7651873581617
 51
175.1566421951765
  0
ARC
  5
A9B1
330
1F
100
AcDbEntity
  8
freecads.com
100
AcDbCircle
 10
10760.64846306788
 20
29588.58639148206
 30
0.0
 40
48.11911822204788
100
AcDbArc
 50
175.1566734963638
 51
181.4131930364449
  0
ARC
  5
A9B2
330
1F
100
AcDbEntity
  8
freecads.com
100
AcDbCircle
 10
11450.05437387567
 20
29605.5945145203
 30
0.0
 40
737.7347982250372
100
AcDbArc
 50
181.4132369693328
 51
182.2662525956533
  0
ARC
  5
A9B3
330
1F
100
AcDbEntity
  8
freecads.com
100
AcDbCircle
 10
10296.71196962774
 20
29559.95154668899
 30
0.0
 40
416.5104018728714
100
AcDbArc
 50
1.29502902018482
 51
2.266301259626066
  0
ARC
  5
A9B4
330
1F
100
AcDbEntity
  8
freecads.com
100
AcDbCircle
 10
10275.08881874818
 20
29559.46267925293
 30
0.0
 40
438.139078330948
100
AcDbArc
 50
0.3599731643220744
 51
1.295035097370779
  0
ARC
  5
A9B5
330
1F
100
AcDbEntity
  8
freecads.com
100
AcDbCircle
 10
10323.09112056817
 20
29559.76452445121
 30
0.0
 40
390.1358274986648
100
AcDbArc
 50
359.4344991154277
 51
0.3599355164554642
  0
ARC
  5
A9B6
330
1F
100
AcDbEntity
  8
freecads.com
100
AcDbCircle
 10
10645.76279382972
 20
29556.57967952184
 30
0.0
 40
67.44843703751169
100
AcDbArc
 50
356.0435407555681
 51
359.4345158819745
  0
ARC
  5
A9B7
330
1F
100
AcDbEntity
  8
freecads.com
100
AcDbCircle
 10
10652.02100739908
 20
29556.14677417684
 30
0.0
 40
61.17526845118024
100
AcDbArc
 50
353.1012831779769
 51
356.0436035671624
  0
ARC
  5
A9B8
330
1F
100
AcDbEntity
  8
freecads.com
100
AcDbCircle
 10
10712.63297724243
 20
29548.81329706116
 30
0.0
 40
0.1212696067408635
100
AcDbArc
 50
187.6354786230092
 51
353.1013501977118
  0
ARC
  5
A9B9
330
1F
100
AcDbEntity
  8
freecads.com
100
AcDbCircle
 10
10741.77950230649
 20
29552.72061954196
 30
0.0
 40
29.52853218385485
100
AcDbArc
 50
182.4650196781965
 51
187.6354301955372
  0
ARC
  5
A9BA
330
1F
100
AcDbEntity
  8
freecads.com
100
AcDbCircle
 10
12826.89739936113
 20
29642.48408024399
 30
0.0
 40
2116.577674752079
100
AcDbArc
 50
182.221874060997
 51
182.4650372581059
  0
ARC
  5
A9BB
330
1F
100
AcDbEntity
  8
freecads.com
100
AcDbCircle
 10
10381.70217186799
 20
29547.61412182022
 30
0.0
 40
330.4572676969822
100
AcDbArc
 50
2.221896344444677
 51
4.097947444464584
  0
ARC
  5
A9BC
330
1F
100
AcDbEntity
  8
freecads.com
100
AcDbCircle
 10
10658.50382669796
 20
29567.4455100881
 30
0.0
 40
52.94611462879976
100
AcDbArc
 50
4.097984181877865
 51
11.3601990405864
  0
ARC
  5
A9BD
330
1F
100
AcDbEntity
  8
freecads.com
100
AcDbCircle
 10
10689.37804920208
 20
29573.64855340379
 30
0.0
 40
21.4549196433847
100
AcDbArc
 50
11.36013640895145
 51
23.55490731107213
  0
ARC
  5
A9BE
330
1F
100
AcDbEntity
  8
freecads.com
100
AcDbCircle
 10
10701.5711176686
 20
29578.96415983391
 30
0.0
 40
8.153544137493732
100
AcDbArc
 50
23.55484514980535
 51
48.66290689184824
  0
ARC
  5
A9BF
330
1F
100
AcDbEntity
  8
freecads.com
100
AcDbCircle
 10
10709.55287037385
 20
29588.03774785239
 30
0.0
 40
3.93108973271129
100
AcDbArc
 50
203.8814602921464
 51
228.6629396885498
  0
ARC
  5
A9C0
330
1F
100
AcDbEntity
  8
freecads.com
100
AcDbCircle
 10
10712.8292242392
 20
29589.48835642211
 30
0.0
 40
7.514211259194379
100
AcDbArc
 50
188.6202692697752
 51
203.8814362059909
  0
ARC
  5
A9C1
330
1F
100
AcDbEntity
  8
freecads.com
100
AcDbCircle
 10
10729.54764774221
 20
29592.02281520109
 30
0.0
 40
24.42365139564727
100
AcDbArc
 50
181.2440026651943
 51
188.6202343474609
  0
ARC
  5
A9C2
330
1F
100
AcDbEntity
  8
freecads.com
100
AcDbCircle
 10
10995.03660072136
 20
29597.78817186228
 30
0.0
 40
289.9751972231795
100
AcDbArc
 50
180.0399191962039
 51
181.2440362187373
  0
ARC
  5
A9C3
330
1F
100
AcDbEntity
  8
freecads.com
100
AcDbCircle
 10
10554.09793964146
 20
29597.48099328942
 30
0.0
 40
150.963570854213
100
AcDbArc
 50
0.0399067164314895
 51
3.165999741684609
  0
ARC
  5
A9C4
330
1F
100
AcDbEntity
  8
freecads.com
100
AcDbCircle
 10
10590.12212940675
 20
29599.47362199428
 30
0.0
 40
114.8843134145009
100
AcDbArc
 50
3.165996119912537
 51
7.00239232859592
  0
ARC
  5
A9C5
330
1F
100
AcDbEntity
  8
freecads.com
100
AcDbCircle
 10
10603.15662035867
 20
29601.07454261671
 30
0.0
 40
101.7518764277885
100
AcDbArc
 50
7.002429257956291
 51
10.60832804507048
  0
ARC
  5
A9C6
330
1F
100
AcDbEntity
  8
freecads.com
100
AcDbCircle
 10
10694.76897910377
 20
29618.23311197407
 30
0.0
 40
8.546507605854101
100
AcDbArc
 50
10.60833025967153
 51
32.7400171084373
  0
ARC
  5
A9C7
330
1F
100
AcDbEntity
  8
freecads.com
100
AcDbCircle
 10
10701.5744113225
 20
29622.60883718476
 30
0.0
 40
0.4557178543431756
100
AcDbArc
 50
32.73999088923914
 51
88.86706116535208
  0
ARC
  5
A9C8
330
1F
100
AcDbEntity
  8
freecads.com
100
AcDbCircle
 10
10701.57833349973
 20
29622.80715807232
 30
0.0
 40
0.2573581862694942
100
AcDbArc
 50
88.86709798945469
 51
173.4408182900786
  0
ARC
  5
A9C9
330
1F
100
AcDbEntity
  8
freecads.com
100
AcDbCircle
 10
10707.49169088132
 20
29622.1272208201
 30
0.0
 40
6.209677918051661
100
AcDbArc
 50
173.4407517248351
 51
184.7122773176819
  0
ARC
  5
A9CA
330
1F
100
AcDbEntity
  8
freecads.com
100
AcDbCircle
 10
10780.40484033142
 20
29628.13756085727
 30
0.0
 40
79.37012864174661
100
AcDbArc
 50
184.7123192371723
 51
186.4588899669173
  0
ARC
  5
A9CB
330
1F
100
AcDbEntity
  8
freecads.com
100
AcDbCircle
 10
10699.22011955561
 20
29568.67139635422
 30
0.0
 40
9.370245340378167
100
AcDbArc
 50
6.750611706271915
 51
27.34440389983623
  0
ARC
  5
A9CC
330
1F
100
AcDbEntity
  8
freecads.com
100
AcDbCircle
 10
10650.31841245761
 20
29562.88296651586
 30
0.0
 40
58.61334513204993
100
AcDbArc
 50
1.438871073853069
 51
6.750613632687898
  0
ARC
  5
A9CD
330
1F
100
AcDbEntity
  8
freecads.com
100
AcDbCircle
 10
10618.59702083226
 20
29562.08610461482
 30
0.0
 40
90.34474402233245
100
AcDbArc
 50
356.9399437514597
 51
1.438917917356985
  0
ARC
  5
A9CE
330
1F
100
AcDbEntity
  8
freecads.com
100
AcDbCircle
 10
10491.30942413647
 20
29568.89067170881
 30
0.0
 40
217.8140909490467
100
AcDbArc
 50
354.6087963916153
 51
356.9399666690667
  0
ARC
  5
A9CF
330
1F
100
AcDbEntity
  8
freecads.com
100
AcDbCircle
 10
10454.24773527472
 20
29572.38821492601
 30
0.0
 40
255.0404470672179
100
AcDbArc
 50
353.6396040205619
 51
354.6088136491103
  0
ARC
  5
A9D0
330
1F
100
AcDbEntity
  8
freecads.com
100
AcDbCircle
 10
10707.60286137511
 20
29544.14719811781
 30
0.0
 40
0.1161937061287943
100
AcDbArc
 50
193.0725162232409
 51
353.6396057737154
  0
ARC
  5
A9D1
330
1F
100
AcDbEntity
  8
freecads.com
100
AcDbCircle
 10
10716.14372929094
 20
29546.13041278574
 30
0.0
 40
8.884292997002665
100
AcDbArc
 50
183.3692720831248
 51
193.0725836000535
  0
ARC
  5
A9D2
330
1F
100
AcDbEntity
  8
freecads.com
100
AcDbCircle
 10
14217.19973591412
 20
29752.25185330412
 30
0.0
 40
3516.00265566365
100
AcDbArc
 50
183.2254196570949
 51
183.3693466362046
  0
ARC
  5
A9D3
330
1F
100
AcDbEntity
  8
freecads.com
100
AcDbCircle
 10
9853.042512608915
 20
29506.31580668691
 30
0.0
 40
855.0787675946466
100
AcDbArc
 50
3.225385520864056
 51
3.580389886682723
  0
ARC
  5
A9D4
330
1F
100
AcDbEntity
  8
freecads.com
100
AcDbCircle
 10
9943.07620851206
 20
29511.9495315508
 30
0.0
 40
764.8689829049163
100
AcDbArc
 50
3.580373350683342
 51
3.966317356556992
  0
ARC
  5
A9D5
330
1F
100
AcDbEntity
  8
freecads.com
100
AcDbCircle
 10
10009.46741690718
 20
29516.55339847017
 30
0.0
 40
698.3183394637441
100
AcDbArc
 50
3.966271502305894
 51
4.328380527462493
  0
ARC
  5
A9D6
330
1F
100
AcDbEntity
  8
freecads.com
100
AcDbCircle
 10
10632.55882946129
 20
29563.71424252563
 30
0.0
 40
73.44470935067251
100
AcDbArc
 50
4.328403271324367
 51
6.223246115158545
  0
ARC
  5
A9D7
330
1F
100
AcDbEntity
  8
freecads.com
100
AcDbCircle
 10
10821.89066832447
 20
29584.36002603684
 30
0.0
 40
117.0094677736556
100
AcDbArc
 50
184.5644661162062
 51
186.2232645576625
  0
ARC
  5
A9D8
330
1F
100
AcDbEntity
  8
freecads.com
100
AcDbCircle
 10
10705.97203170338
 20
29575.10578739594
 30
0.0
 40
0.7220168216562386
100
AcDbArc
 50
123.3790404695476
 51
184.5645317096292
  0
ARC
  5
A9D9
330
1F
100
AcDbEntity
  8
freecads.com
100
AcDbCircle
 10
10705.79008479819
 20
29575.38194299534
 30
0.0
 40
0.3913106206396707
100
AcDbArc
 50
29.70669502873929
 51
123.3789492709559
  0
ARC
  5
A9DA
330
1F
100
AcDbEntity
  8
freecads.com
100
AcDbCircle
 10
10643.77695375623
 20
29540.00058642014
 30
0.0
 40
71.78787086501349
100
AcDbArc
 50
27.34441921764752
 51
29.70675513114052
  0
ARC
  5
A9DB
330
1F
100
AcDbEntity
  8
freecads.com
100
AcDbCircle
 10
6395.863926177366
 20
29958.00756257177
 30
0.0
 40
4378.984266626013
100
AcDbArc
 50
354.3520390181015
 51
354.4359200355842
  0
ARC
  5
A9DC
330
1F
100
AcDbEntity
  8
freecads.com
100
AcDbCircle
 10
10751.29707305787
 20
29527.27242273352
 30
0.0
 40
2.303942723327705
100
AcDbArc
 50
338.1806992072386
 51
354.3520121184943
  0
ARC
  5
A9DD
330
1F
100
AcDbEntity
  8
freecads.com
100
AcDbCircle
 10
10753.37524683883
 20
29526.44040052381
 30
0.0
 40
0.0654014078044623
100
AcDbArc
 50
181.3234752142786
 51
338.1805678697614
  0
ARC
  5
A9DE
330
1F
100
AcDbEntity
  8
freecads.com
100
AcDbCircle
 10
11873.88003038581
 20
29552.32919790369
 30
0.0
 40
1120.869220004724
100
AcDbArc
 50
181.0941474645315
 51
181.3235596891206
  0
ARC
  5
A9DF
330
1F
100
AcDbEntity
  8
freecads.com
100
AcDbCircle
 10
10821.8912120535
 20
29532.23752142273
 30
0.0
 40
68.68855616415664
100
AcDbArc
 50
176.9638355898271
 51
181.094184880229
  0
ARC
  5
A9E0
330
1F
100
AcDbEntity
  8
freecads.com
100
AcDbCircle
 10
10828.69162009617
 20
29531.87684298001
 30
0.0
 40
75.49852227901138
100
AcDbArc
 50
173.1162278036688
 51
176.9638508292759
  0
ARC
  5
A9E1
330
1F
100
AcDbEntity
  8
freecads.com
100
AcDbCircle
 10
10777.34512154596
 20
29538.0756761008
 30
0.0
 40
23.77919856509546
100
AcDbArc
 50
165.7298730359105
 51
173.1161783189109
  0
ARC
  5
A9E2
330
1F
100
AcDbEntity
  8
freecads.com
100
AcDbCircle
 10
10754.54084500746
 20
29543.87575282646
 30
0.0
 40
0.2488794327957891
100
AcDbArc
 50
11.6117429217999
 51
165.7298968767971
  0
ARC
  5
A9E3
330
1F
100
AcDbEntity
  8
freecads.com
100
AcDbCircle
 10
10750.69590381803
 20
29543.08568100865
 30
0.0
 40
4.174154738747007
100
AcDbArc
 50
357.9240020299504
 51
11.61170889787694
  0
ARC
  5
A9E4
330
1F
100
AcDbEntity
  8
freecads.com
100
AcDbCircle
 10
10602.97536176215
 20
29548.44044223187
 30
0.0
 40
151.9917180153702
100
AcDbArc
 50
356.9006838424716
 51
357.9239796643684
  0
ARC
  5
A9E5
330
1F
100
AcDbEntity
  8
freecads.com
100
AcDbCircle
 10
10622.57578552717
 20
29547.37930573643
 30
0.0
 40
132.3625911268842
100
AcDbArc
 50
355.4948274404276
 51
356.9006190553861
  0
ARC
  5
A9E6
330
1F
100
AcDbEntity
  8
freecads.com
100
AcDbCircle
 10
10561.92572026856
 20
29552.15827902096
 30
0.0
 40
193.2006466636965
100
AcDbArc
 50
354.4359497512601
 51
355.494768223473
  0
ARC
  5
A9E7
330
1F
100
AcDbEntity
  8
freecads.com
100
AcDbCircle
 10
9193.395872684979
 20
29725.81373286244
 30
0.0
 40
1553.838561392709
100
AcDbArc
 50
352.3181779348172
 51
352.6594313454368
  0
ARC
  5
A9E8
330
1F
100
AcDbEntity
  8
freecads.com
100
AcDbCircle
 10
10712.89400928355
 20
29520.86036902078
 30
0.0
 40
20.58043945874334
100
AcDbArc
 50
344.8016889619593
 51
352.3182616331022
  0
ARC
  5
A9E9
330
1F
100
AcDbEntity
  8
freecads.com
100
AcDbCircle
 10
10732.49994118156
 20
29515.53417599278
 30
0.0
 40
0.2639216035309568
100
AcDbArc
 50
207.4906038782354
 51
344.8016527363031
  0
ARC
  5
A9EA
330
1F
100
AcDbEntity
  8
freecads.com
100
AcDbCircle
 10
10737.61994133759
 20
29518.1984207258
 30
0.0
 40
6.03562859497396
100
AcDbArc
 50
191.4751235426271
 51
207.4906749771454
  0
ARC
  5
A9EB
330
1F
100
AcDbEntity
  8
freecads.com
100
AcDbCircle
 10
10750.85485704751
 20
29520.88507147746
 30
0.0
 40
19.5404827633724
100
AcDbArc
 50
175.0622161622613
 51
191.4750095448929
  0
ARC
  5
A9EC
330
1F
100
AcDbEntity
  8
freecads.com
100
AcDbCircle
 10
10913.37720270605
 20
29506.84370614443
 30
0.0
 40
182.6682632875924
100
AcDbArc
 50
171.8876759579764
 51
175.0621174845027
  0
ARC
  5
A9ED
330
1F
100
AcDbEntity
  8
freecads.com
100
AcDbCircle
 10
11020.68727670306
 20
29491.54769435818
 30
0.0
 40
291.0630046628472
100
AcDbArc
 50
169.9011710214074
 51
171.8876805382365
  0
ARC
  5
A9EE
330
1F
100
AcDbEntity
  8
freecads.com
100
AcDbCircle
 10
10734.87612781516
 20
29542.4523870724
 30
0.0
 40
0.7540303459127424
100
AcDbArc
 50
44.99999009348093
 51
169.9011542185887
  0
ARC
  5
A9EF
330
1F
100
AcDbEntity
  8
freecads.com
100
AcDbCircle
 10
10734.47137123515
 20
29542.04763065399
 30
0.0
 40
1.326442476554759
100
AcDbArc
 50
358.9663850630341
 51
44.99998943265821
  0
ARC
  5
A9F0
330
1F
100
AcDbEntity
  8
freecads.com
100
AcDbCircle
 10
10647.74982588152
 20
29543.61227861901
 30
0.0
 40
88.06210153196559
100
AcDbArc
 50
356.6837817527014
 51
358.9663701316561
  0
ARC
  5
A9F1
330
1F
100
AcDbEntity
  8
freecads.com
100
AcDbCircle
 10
10641.11548340928
 20
29543.99671311905
 30
0.0
 40
94.70757291655884
100
AcDbArc
 50
353.8035499911832
 51
356.6837717771162
  0
ARC
  5
A9F2
330
1F
100
AcDbEntity
  8
freecads.com
100
AcDbCircle
 10
10409.95862525054
 20
29569.09337744244
 30
0.0
 40
327.2228103396281
100
AcDbArc
 50
352.6593378940195
 51
353.8036396933216
  0
ARC
  5
A9F3
330
1F
100
AcDbEntity
  8
freecads.com
100
AcDbCircle
 10
10558.71759089072
 20
29566.6815171597
 30
0.0
 40
168.3812562921536
100
AcDbArc
 50
345.8088332737607
 51
347.4515897292797
  0
ARC
  5
A9F4
330
1F
100
AcDbEntity
  8
freecads.com
100
AcDbCircle
 10
10721.7687484529
 20
29525.44997734992
 30
0.0
 40
0.1976665532783051
100
AcDbArc
 50
191.7471091911895
 51
345.808870027902
  0
ARC
  5
A9F5
330
1F
100
AcDbEntity
  8
freecads.com
100
AcDbCircle
 10
10726.83074975527
 20
29526.50260767611
 30
0.0
 40
5.36795549963805
100
AcDbArc
 50
172.4586522638087
 51
191.7470986030349
  0
ARC
  5
A9F6
330
1F
100
AcDbEntity
  8
freecads.com
100
AcDbCircle
 10
11144.21390543559
 20
29471.24663904482
 30
0.0
 40
426.3928012214117
100
AcDbArc
 50
171.612744191908
 51
172.4586552391934
  0
ARC
  5
A9F7
330
1F
100
AcDbEntity
  8
freecads.com
100
AcDbCircle
 10
10865.1180219547
 20
29512.39648744188
 30
0.0
 40
144.2796639890615
100
AcDbArc
 50
170.2596566280144
 51
171.612738035428
  0
ARC
  5
A9F8
330
1F
100
AcDbEntity
  8
freecads.com
100
AcDbCircle
 10
10737.20487196789
 20
29534.35378573436
 30
0.0
 40
14.49562457028577
100
AcDbArc
 50
162.9445290256518
 51
170.2596316566103
  0
ARC
  5
A9F9
330
1F
100
AcDbEntity
  8
freecads.com
100
AcDbCircle
 10
10723.56939859749
 20
29538.53700805624
 30
0.0
 40
0.2328940102169161
100
AcDbArc
 50
70.24464107297766
 51
162.9446104467849
  0
ARC
  5
A9FA
330
1F
100
AcDbEntity
  8
freecads.com
100
AcDbCircle
 10
10723.51271299496
 20
29538.37917350938
 30
0.0
 40
0.4005991136455141
100
AcDbArc
 50
6.69067520422694
 51
70.24456786753606
  0
ARC
  5
A9FB
330
1F
100
AcDbEntity
  8
freecads.com
100
AcDbCircle
 10
10714.49585195883
 20
29537.32142275882
 30
0.0
 40
9.479289525546382
100
AcDbArc
 50
357.5188578963184
 51
6.690679548958036
  0
ARC
  5
A9FC
330
1F
100
AcDbEntity
  8
freecads.com
100
AcDbCircle
 10
10685.51056577604
 20
29538.57734908583
 30
0.0
 40
38.49177246025571
100
AcDbArc
 50
354.2816927895101
 51
357.5189182037188
  0
ARC
  5
A9FD
330
1F
100
AcDbEntity
  8
freecads.com
100
AcDbCircle
 10
10680.84488989428
 20
29539.04455986652
 30
0.0
 40
43.18078273398551
100
AcDbArc
 50
351.0918874220881
 51
354.2816812576635
  0
ARC
  5
A9FE
330
1F
100
AcDbEntity
  8
freecads.com
100
AcDbCircle
 10
10687.73561279493
 20
29537.96448648459
 30
0.0
 40
36.20592641980303
100
AcDbArc
 50
347.4516437698542
 51
351.0919114339428
  0
ARC
  5
A9FF
330
1F
100
AcDbEntity
  8
freecads.com
100
AcDbCircle
 10
10645.89443617744
 20
29526.94569151146
 30
0.0
 40
98.00580290980082
100
AcDbArc
 50
358.6801188954185
 51
0.2807077686908828
  0
ARC
  5
AA00
330
1F
100
AcDbEntity
  8
freecads.com
100
AcDbCircle
 10
10736.28583328662
 20
29524.86303147429
 30
0.0
 40
7.59041625365906
100
AcDbArc
 50
348.2769384484572
 51
358.680201180298
  0
ARC
  5
AA01
330
1F
100
AcDbEntity
  8
freecads.com
100
AcDbCircle
 10
10743.47778193328
 20
29523.37063130737
 30
0.0
 40
0.2452556975925625
100
AcDbArc
 50
257.4334676066165
 51
348.2769488538876
  0
ARC
  5
AA02
330
1F
100
AcDbEntity
  8
freecads.com
100
AcDbCircle
 10
10743.53469730209
 20
29523.62595204324
 30
0.0
 40
0.5068432305033565
100
AcDbArc
 50
203.2539176240967
 51
257.4333581804089
  0
ARC
  5
AA03
330
1F
100
AcDbEntity
  8
freecads.com
100
AcDbCircle
 10
10747.41225576198
 20
29525.29219401942
 30
0.0
 40
4.727248653332402
100
AcDbArc
 50
188.5150766661589
 51
203.2538876844121
  0
ARC
  5
AA04
330
1F
100
AcDbEntity
  8
freecads.com
100
AcDbCircle
 10
10784.6340109394
 20
29530.86502374178
 30
0.0
 40
42.36387296532619
100
AcDbArc
 50
185.5773225219884
 51
188.515060002939
  0
ARC
  5
AA05
330
1F
100
AcDbEntity
  8
freecads.com
100
AcDbCircle
 10
10789.92556260615
 20
29531.38175441827
 30
0.0
 40
47.6805946651994
100
AcDbArc
 50
182.5135606384809
 51
185.577327223323
  0
ARC
  5
AA06
330
1F
100
AcDbEntity
  8
freecads.com
100
AcDbCircle
 10
10796.70700501885
 20
29531.67947715241
 30
0.0
 40
54.46856932796912
100
AcDbArc
 50
179.7408414068387
 51
182.5135926603731
  0
ARC
  5
AA07
330
1F
100
AcDbEntity
  8
freecads.com
100
AcDbCircle
 10
10885.68498222928
 20
29531.27716214764
 30
0.0
 40
143.447456069798
100
AcDbArc
 50
178.5163877005253
 51
179.7409014480009
  0
ARC
  5
AA08
330
1F
100
AcDbEntity
  8
freecads.com
100
AcDbCircle
 10
10750.04149933426
 20
29534.79029975867
 30
0.0
 40
7.75848603994074
100
AcDbArc
 50
168.276968527516
 51
178.5164687461418
  0
ARC
  5
AA09
330
1F
100
AcDbEntity
  8
freecads.com
100
AcDbCircle
 10
10742.61055999633
 20
29536.33228869945
 30
0.0
 40
0.1692443559816271
100
AcDbArc
 50
48.20997943925449
 51
168.2769579258228
  0
ARC
  5
AA0A
330
1F
100
AcDbEntity
  8
freecads.com
100
AcDbCircle
 10
10741.91774558574
 20
29535.55714092371
 30
0.0
 40
1.2088817359103
100
AcDbArc
 50
17.75801947621895
 51
48.21014857398854
  0
ARC
  5
AA0B
330
1F
100
AcDbEntity
  8
freecads.com
100
AcDbCircle
 10
10735.15158656098
 20
29533.39023382486
 30
0.0
 40
8.31355585393644
100
AcDbArc
 50
8.187846337180143
 51
17.75800897486651
  0
ARC
  5
AA0C
330
1F
100
AcDbEntity
  8
freecads.com
100
AcDbCircle
 10
10695.74954090308
 20
29527.72084036585
 30
0.0
 40
48.12138453398738
100
AcDbArc
 50
5.577338184168132
 51
8.187850177028627
  0
ARC
  5
AA0D
330
1F
100
AcDbEntity
  8
freecads.com
100
AcDbCircle
 10
10689.29339709233
 20
29527.090373852
 30
0.0
 40
54.60823900514728
100
AcDbArc
 50
2.955841541951174
 51
5.577352891134958
  0
ARC
  5
AA0E
330
1F
100
AcDbEntity
  8
freecads.com
100
AcDbCircle
 10
10690.74715081588
 20
29527.16540886432
 30
0.0
 40
53.15255011637505
100
AcDbArc
 50
0.2807403006501981
 51
2.95587333854546
  0
ARC
  5
AA0F
330
1F
100
AcDbEntity
  8
freecads.com
100
AcDbCircle
 10
10692.45294543673
 20
29560.75186515022
 30
0.0
 40
96.72368110088886
100
AcDbArc
 50
338.0470075665092
 51
339.4954255882094
  0
ARC
  5
AA10
330
1F
100
AcDbEntity
  8
freecads.com
100
AcDbCircle
 10
10734.32772862751
 20
29543.87333131187
 30
0.0
 40
51.57523293479282
100
AcDbArc
 50
335.7279556680123
 51
338.0469804901019
  0
ARC
  5
AA11
330
1F
100
AcDbEntity
  8
freecads.com
100
AcDbCircle
 10
10688.13251459051
 20
29564.7040247198
 30
0.0
 40
102.2498378940185
100
AcDbArc
 50
334.7445966634789
 51
335.7280153871025
  0
ARC
  5
AA12
330
1F
100
AcDbEntity
  8
freecads.com
100
AcDbCircle
 10
10780.36764783442
 20
29521.19247779417
 30
0.0
 40
0.2666308431426296
100
AcDbArc
 50
270.0000093998477
 51
334.7446635609738
  0
ARC
  5
AA13
330
1F
100
AcDbEntity
  8
freecads.com
100
AcDbCircle
 10
10780.36764723837
 20
29521.32579562814
 30
0.0
 40
0.3999486771108424
100
AcDbArc
 50
169.231293823735
 51
270.0000916550814
  0
ARC
  5
AA14
330
1F
100
AcDbEntity
  8
freecads.com
100
AcDbCircle
 10
10850.73786509122
 20
29507.94172752698
 30
0.0
 40
72.03165143220778
100
AcDbArc
 50
166.6441082949622
 51
169.2312466153362
  0
ARC
  5
AA15
330
1F
100
AcDbEntity
  8
freecads.com
100
AcDbCircle
 10
10826.33550816093
 20
29513.73535932768
 30
0.0
 40
46.95095779755856
100
AcDbArc
 50
162.199222960918
 51
166.6441305017073
  0
ARC
  5
AA16
330
1F
100
AcDbEntity
  8
freecads.com
100
AcDbCircle
 10
10816.78963163597
 20
29516.80033220208
 30
0.0
 40
36.92510036039973
100
AcDbArc
 50
156.8771496794844
 51
162.1991999288499
  0
ARC
  5
AA17
330
1F
100
AcDbEntity
  8
freecads.com
100
AcDbCircle
 10
10800.90818958374
 20
29523.58183773199
 30
0.0
 40
19.65637084978786
100
AcDbArc
 50
148.0064903489129
 51
156.8771741323882
  0
ARC
  5
AA18
330
1F
100
AcDbEntity
  8
freecads.com
100
AcDbCircle
 10
10784.5124793684
 20
29533.82443280428
 30
0.0
 40
0.3242714480150382
100
AcDbArc
 50
2.8137208037992
 51
148.0065712057032
  0
ARC
  5
AA19
330
1F
100
AcDbEntity
  8
freecads.com
100
AcDbCircle
 10
10777.17072506359
 20
29533.46359873697
 30
0.0
 40
7.674887578401205
100
AcDbArc
 50
343.3857851415173
 51
2.813720786894919
  0
ARC
  5
AA1A
330
1F
100
AcDbEntity
  8
freecads.com
100
AcDbCircle
 10
10719.03968532862
 20
29550.80900170038
 30
0.0
 40
68.33855697476512
100
AcDbArc
 50
339.495479996339
 51
343.3857189347338
  0
LINE
  5
AA1B
330
1F
100
AcDbEntity
  8
freecads.com
100
AcDbLine
 10
10713.99760687816
 20
29523.42584695103
 30
0.0
 11
10712.14923587816
 21
29513.42584695103
 31
0.0
  0
LINE
  5
AA1C
330
1F
100
AcDbEntity
  8
freecads.com
100
AcDbLine
 10
10712.14923587816
 20
29513.42584695103
 30
0.0
 11
10712.42602987816
 21
29522.10275995103
 31
0.0
  0
ARC
  5
AA1D
330
1F
100
AcDbEntity
  8
freecads.com
100
AcDbCircle
 10
10795.12329392697
 20
29519.46461810973
 30
0.0
 40
82.73933329156864
100
AcDbArc
 50
175.5991973956191
 51
178.1728156261479
  0
ARC
  5
AA1E
330
1F
100
AcDbEntity
  8
freecads.com
100
AcDbCircle
 10
10752.136586446
 20
29522.77281155907
 30
0.0
 40
39.62551689884636
100
AcDbArc
 50
171.135418657754
 51
175.5991121163664
  0
ARC
  5
AA1F
330
1F
100
AcDbEntity
  8
freecads.com
100
AcDbCircle
 10
10741.40767779642
 20
29524.4460844471
 30
0.0
 40
28.76691095852266
100
AcDbArc
 50
166.3628428001464
 51
171.1353496324762
  0
ARC
  5
AA20
330
1F
100
AcDbEntity
  8
freecads.com
100
AcDbCircle
 10
10716.2219794533
 20
29530.5564380787
 30
0.0
 40
2.850587482119778
100
AcDbArc
 50
140.3098132888892
 51
166.3628421077634
  0
ARC
  5
AA21
330
1F
100
AcDbEntity
  8
freecads.com
100
AcDbCircle
 10
10723.25125015573
 20
29524.7226556731
 30
0.0
 40
11.98533782155906
100
AcDbArc
 50
136.5208342022228
 51
140.3098026337449
  0
ARC
  5
AA22
330
1F
100
AcDbEntity
  8
freecads.com
100
AcDbCircle
 10
10718.84558537426
 20
29528.90043134125
 30
0.0
 40
5.913790102887475
100
AcDbArc
 50
130.0934716090256
 51
136.5208308625186
  0
ARC
  5
AA23
330
1F
100
AcDbEntity
  8
freecads.com
100
AcDbCircle
 10
10717.87051469425
 20
29530.05863429867
 30
0.0
 40
4.399789798529792
100
AcDbArc
 50
123.6487205986082
 51
130.093484036343
  0
ARC
  5
AA24
330
1F
100
AcDbEntity
  8
freecads.com
100
AcDbCircle
 10
10715.50403469953
 20
29533.61391154197
 30
0.0
 40
0.1289322918835624
100
AcDbArc
 50
41.89774744906801
 51
123.6489814187047
  0
ARC
  5
AA25
330
1F
100
AcDbEntity
  8
freecads.com
100
AcDbCircle
 10
10715.37283214487
 20
29533.4962007088
 30
0.0
 40
0.3051989949002576
100
AcDbArc
 50
351.3527730127848
 51
41.89758312841148
  0
ARC
  5
AA26
330
1F
100
AcDbEntity
  8
freecads.com
100
AcDbCircle
 10
9956.383009300628
 20
29648.92150580479
 30
0.0
 40
768.0216520149226
100
AcDbArc
 50
351.135360338934
 51
351.3528550527983
  0
ARC
  5
AA27
330
1F
100
AcDbEntity
  8
freecads.com
100
AcDbCircle
 10
10525.03304929121
 20
29560.23262334127
 30
0.0
 40
192.497034075958
100
AcDbArc
 50
350.1430561891055
 51
351.1354128884095
  0
ARC
  5
AA28
330
1F
100
AcDbEntity
  8
freecads.com
100
AcDbCircle
 10
10355.55178025518
 20
29589.6801322666
 30
0.0
 40
364.5175454571516
100
AcDbArc
 50
349.527776096821
 51
350.1431312900327
  0
ARC
  5
AA29
330
1F
100
AcDbEntity
  8
freecads.com
100
AcDbCircle
 10
10480.65937147303
 20
29521.26506937237
 30
0.0
 40
225.3196625197301
100
AcDbArc
 50
358.3145746155496
 51
359.4687310410774
  0
ARC
  5
AA2A
330
1F
100
AcDbEntity
  8
freecads.com
100
AcDbCircle
 10
10670.61795335971
 20
29515.67562981697
 30
0.0
 40
35.27886514471309
100
AcDbArc
 50
353.7720131508257
 51
358.3145151683514
  0
ARC
  5
AA2B
330
1F
100
AcDbEntity
  8
freecads.com
100
AcDbCircle
 10
10703.00074021491
 20
29512.14172987828
 30
0.0
 40
2.70382357473323
100
AcDbArc
 50
332.6097402254227
 51
353.7719755022319
  0
ARC
  5
AA2C
330
1F
100
AcDbEntity
  8
freecads.com
100
AcDbCircle
 10
10705.24105974794
 20
29510.98094127842
 30
0.0
 40
0.1806387254495371
100
AcDbArc
 50
197.7580027517796
 51
332.6098511780542
  0
ARC
  5
AA2D
330
1F
100
AcDbEntity
  8
freecads.com
100
AcDbCircle
 10
10720.66040689534
 20
29515.91906890105
 30
0.0
 40
16.37141915349751
100
AcDbArc
 50
182.4182850731449
 51
197.7579401389821
  0
ARC
  5
AA2E
330
1F
100
AcDbEntity
  8
freecads.com
100
AcDbCircle
 10
10795.41005989079
 20
29519.07592973928
 30
0.0
 40
91.18770343234301
100
AcDbArc
 50
178.1158930221951
 51
182.4183005774415
  0
ARC
  5
AA2F
330
1F
100
AcDbEntity
  8
freecads.com
100
AcDbCircle
 10
10868.19014395496
 20
29516.68204645667
 30
0.0
 40
164.0071466705174
100
AcDbArc
 50
175.7101115081785
 51
178.1159875017605
  0
ARC
  5
AA30
330
1F
100
AcDbEntity
  8
freecads.com
100
AcDbCircle
 10
10705.69402838911
 20
29528.87135213666
 30
0.0
 40
1.054494814365471
100
AcDbArc
 50
90.00002776233857
 51
175.7101273400579
  0
ARC
  5
AA31
330
1F
100
AcDbEntity
  8
freecads.com
100
AcDbCircle
 10
10705.69402818671
 20
29529.77451943474
 30
0.0
 40
0.1513275162886051
100
AcDbArc
 50
1.740605436438137
 51
90.00011682181051
  0
ARC
  5
AA32
330
1F
100
AcDbEntity
  8
freecads.com
100
AcDbCircle
 10
10074.89902377588
 20
29510.60700378027
 30
0.0
 40
631.2374795161702
100
AcDbArc
 50
1.467054943419179
 51
1.740470273565942
  0
ARC
  5
AA33
330
1F
100
AcDbEntity
  8
freecads.com
100
AcDbCircle
 10
10546.80899040915
 20
29522.69269159635
 30
0.0
 40
159.1727800758582
100
AcDbArc
 50
0.2178547170818568
 51
1.467119520380973
  0
ARC
  5
AA34
330
1F
100
AcDbEntity
  8
freecads.com
100
AcDbCircle
 10
10390.73951812818
 20
29522.09890655932
 30
0.0
 40
315.2433819157386
100
AcDbArc
 50
359.4687235691944
 51
0.2179205133652777
  0
ARC
  5
AA35
330
1F
100
AcDbEntity
  8
freecads.com
100
AcDbCircle
 10
10656.05393426232
 20
29520.23717810572
 30
0.0
 40
69.91647202527285
100
AcDbArc
 50
352.6759738724809
 51
355.1682420343273
  0
ARC
  5
AA36
330
1F
100
AcDbEntity
  8
freecads.com
100
AcDbCircle
 10
10671.66039879003
 20
29518.23127313366
 30
0.0
 40
54.18162567040724
100
AcDbArc
 50
349.658742851751
 51
352.6759934518245
  0
ARC
  5
AA37
330
1F
100
AcDbEntity
  8
freecads.com
100
AcDbCircle
 10
10675.19840390986
 20
29517.5856289937
 30
0.0
 40
50.585191800434
100
AcDbArc
 50
346.954331380352
 51
349.658795816682
  0
ARC
  5
AA38
330
1F
100
AcDbEntity
  8
freecads.com
100
AcDbCircle
 10
10721.06410884076
 20
29506.95818041585
 30
0.0
 40
3.504351195337263
100
AcDbArc
 50
327.9410773836359
 51
346.9543715994235
  0
ARC
  5
AA39
330
1F
100
AcDbEntity
  8
freecads.com
100
AcDbCircle
 10
10723.77869136385
 20
29505.25803777924
 30
0.0
 40
0.3013146267785782
100
AcDbArc
 50
182.0409271662873
 51
327.9409197303852
  0
ARC
  5
AA3A
330
1F
100
AcDbEntity
  8
freecads.com
100
AcDbCircle
 10
10768.91077365592
 20
29506.86639655573
 30
0.0
 40
45.46204613072641
100
AcDbArc
 50
177.2872469739025
 51
182.0409689067778
  0
ARC
  5
AA3B
330
1F
100
AcDbEntity
  8
freecads.com
100
AcDbCircle
 10
10796.75026355801
 20
29505.54732031263
 30
0.0
 40
73.33276840597041
100
AcDbArc
 50
173.2714617888681
 51
177.2872557125749
  0
ARC
  5
AA3C
330
1F
100
AcDbEntity
  8
freecads.com
100
AcDbCircle
 10
10794.376371444
 20
29505.8274075088
 30
0.0
 40
70.94241014705051
100
AcDbArc
 50
169.1546461077445
 51
173.2714779711225
  0
ARC
  5
AA3D
330
1F
100
AcDbEntity
  8
freecads.com
100
AcDbCircle
 10
10741.3314941871
 20
29515.98977256752
 30
0.0
 40
16.93284926393904
100
AcDbArc
 50
160.5830379231214
 51
169.15461295357
  0
ARC
  5
AA3E
330
1F
100
AcDbEntity
  8
freecads.com
100
AcDbCircle
 10
10725.59558441458
 20
29521.53649830875
 30
0.0
 40
0.2479751913762893
100
AcDbArc
 50
11.93970091820117
 51
160.5831157888089
  0
ARC
  5
AA3F
330
1F
100
AcDbEntity
  8
freecads.com
100
AcDbCircle
 10
10716.47257347134
 20
29519.60737599504
 30
0.0
 40
9.572718703763269
100
AcDbArc
 50
357.3967231370805
 51
11.93969645118716
  0
ARC
  5
AA40
330
1F
100
AcDbEntity
  8
freecads.com
100
AcDbCircle
 10
10601.85503130072
 20
29524.8186862476
 30
0.0
 40
124.3086709061179
100
AcDbArc
 50
355.1682216284074
 51
357.3967280304823
  0
ARC
  5
AA41
330
1F
100
AcDbEntity
  8
freecads.com
100
AcDbCircle
 10
10774.16227090594
 20
29507.79381726404
 30
0.0
 40
0.6237475136855375
100
AcDbArc
 50
316.6727536635197
 51
349.0978951739695
  0
ARC
  5
AA42
330
1F
100
AcDbEntity
  8
freecads.com
100
AcDbCircle
 10
10774.55332069374
 20
29507.42495900144
 30
0.0
 40
0.086182304209811
100
AcDbArc
 50
190.9022812206789
 51
316.672913720259
  0
ARC
  5
AA43
330
1F
100
AcDbEntity
  8
freecads.com
100
AcDbCircle
 10
10780.14096242502
 20
29508.5011873684
 30
0.0
 40
5.776525669508554
100
AcDbArc
 50
181.8534430881081
 51
190.9021589564456
  0
ARC
  5
AA44
330
1F
100
AcDbEntity
  8
freecads.com
100
AcDbCircle
 10
10824.16846671761
 20
29509.92587959506
 30
0.0
 40
49.8270748394632
100
AcDbArc
 50
180.0000375370671
 51
181.853401010447
  0
ARC
  5
AA45
330
1F
100
AcDbEntity
  8
freecads.com
100
AcDbCircle
 10
10824.16846671761
 20
29509.92581430699
 30
0.0
 40
49.8270748394632
100
AcDbArc
 50
178.1465989895529
 51
179.9999624629328
  0
ARC
  5
AA46
330
1F
100
AcDbEntity
  8
freecads.com
100
AcDbCircle
 10
10780.14096242502
 20
29511.35050653366
 30
0.0
 40
5.776525669508557
100
AcDbArc
 50
169.0978410435544
 51
178.1465569118918
  0
ARC
  5
AA47
330
1F
100
AcDbEntity
  8
freecads.com
100
AcDbCircle
 10
10774.55332069374
 20
29512.42673490062
 30
0.0
 40
0.0861823042099495
100
AcDbArc
 50
43.32708627974103
 51
169.097718779321
  0
ARC
  5
AA48
330
1F
100
AcDbEntity
  8
freecads.com
100
AcDbCircle
 10
10774.16227090594
 20
29512.05787663802
 30
0.0
 40
0.6237475136856013
100
AcDbArc
 50
10.9021048260305
 51
43.32724633648036
  0
ARC
  5
AA49
330
1F
100
AcDbEntity
  8
freecads.com
100
AcDbCircle
 10
10766.22231231579
 20
29510.52857067431
 30
0.0
 40
8.70964382416291
100
AcDbArc
 50
4.09902390982977
 51
10.90215932090837
  0
ARC
  5
AA4A
330
1F
100
AcDbEntity
  8
freecads.com
100
AcDbCircle
 10
10757.81161236499
 20
29509.92582823688
 30
0.0
 40
17.14191351317843
100
AcDbArc
 50
0.0000625508007153
 51
4.099023873682955
  0
ARC
  5
AA4B
330
1F
100
AcDbEntity
  8
freecads.com
100
AcDbCircle
 10
10757.81161236499
 20
29509.92586566518
 30
0.0
 40
17.14191351317843
100
AcDbArc
 50
355.900976126317
 51
359.9999374491993
  0
ARC
  5
AA4C
330
1F
100
AcDbEntity
  8
freecads.com
100
AcDbCircle
 10
10766.22231231579
 20
29509.32312322775
 30
0.0
 40
8.709643824162913
100
AcDbArc
 50
349.0978406790916
 51
355.9009760901702
  0
ENDSEC
  0
SECTION
  2
OBJECTS
  0
DICTIONARY
  5
C
330
0
100
AcDbDictionary
281
     1
  3
ACAD_CIP_PREVIOUS_PRODUCT_INFO
350
1A5
  3
ACAD_COLOR
350
73
  3
ACAD_DETAILVIEWSTYLE
350
1AB
  3
ACAD_GROUP
350
D
  3
ACAD_LAYOUT
350
1A
  3
ACAD_MATERIAL
350
72
  3
ACAD_MLEADERSTYLE
350
D7
  3
ACAD_MLINESTYLE
350
17
  3
ACAD_PLOTSETTINGS
350
19
  3
ACAD_PLOTSTYLENAME
350
E
  3
ACAD_SCALELIST
350
B6
  3
ACAD_SECTIONVIEWSTYLE
350
1A8
  3
ACAD_TABLESTYLE
350
86
  3
ACAD_VISUALSTYLE
350
99
  3
ACDB_RECOMPOSE_DATA
350
AAA4
  3
AcDbVariableDictionary
350
66
  3
AEC_PROPERTY_SET_DEFS
350
268B
  0
DICTIONARY
  5
18E
330
2
100
AcDbDictionary
280
     1
281
     1
  3
ACAD_LAYERSTATES
360
18F
  0
DICTIONARY
  5
E6
330
10
100
AcDbDictionary
280
     1
281
     1
  0
DICTIONARY
  5
15D
330
1F
100
AcDbDictionary
280
     1
281
     1
  3
ACAD_SORTENTS
360
28E
  0
XRECORD
  5
1A5
102
{ACAD_REACTORS
330
C
102
}
330
C
100
AcDbXrecord
280
     1
300
ACD
300
2022
300

  0
DICTIONARY
  5
73
102
{ACAD_REACTORS
330
C
102
}
330
C
100
AcDbDictionary
281
     1
  0
DICTIONARY
  5
1AB
102
{ACAD_REACTORS
330
C
102
}
330
C
100
AcDbDictionary
281
     1
  3
Imperial24
350
1AC
  3
Metric50
350
224
  0
DICTIONARY
  5
D
102
{ACAD_REACTORS
330
C
102
}
330
C
100
AcDbDictionary
281
     1
  0
DICTIONARY
  5
1A
102
{ACAD_REACTORS
330
C
102
}
330
C
100
AcDbDictionary
281
     1
  3
Layout1
350
59
  3
Layout2
350
5E
  3
Model
350
22
  0
DICTIONARY
  5
72
102
{ACAD_REACTORS
330
C
102
}
330
C
100
AcDbDictionary
281
     1
  3
ByBlock
350
97
  3
ByLayer
350
96
  3
Global
350
98
  0
DICTIONARY
  5
D7
102
{ACAD_REACTORS
330
C
102
}
330
C
100
AcDbDictionary
281
     1
  3
Standard
350
D8
  0
DICTIONARY
  5
17
102
{ACAD_REACTORS
330
C
102
}
330
C
100
AcDbDictionary
281
     1
  3
Standard
350
18
  0
DICTIONARY
  5
19
102
{ACAD_REACTORS
330
C
102
}
330
C
100
AcDbDictionary
281
     1
  0
ACDBDICTIONARYWDFLT
  5
E
102
{ACAD_REACTORS
330
C
102
}
330
C
100
AcDbDictionary
281
     1
  3
Normal
350
F
100
AcDbDictionaryWithDefault
340
F
  0
DICTIONARY
  5
B6
102
{ACAD_REACTORS
330
C
102
}
330
C
100
AcDbDictionary
281
     1
  3
*A1
350
47D1
  3
*A2
350
8BD6
  3
A0
350
B7
  3
A1
350
124
  3
A2
350
125
  3
A3
350
126
  3
A4
350
127
  3
A5
350
128
  3
A6
350
129
  3
A7
350
12A
  3
A8
350
12B
  3
A9
350
12C
  3
B0
350
12D
  3
B1
350
12E
  3
B2
350
12F
  3
B3
350
130
  3
B4
350
131
  3
B5
350
132
  3
B6
350
133
  3
B7
350
134
  3
B8
350
135
  3
B9
350
136
  3
C0
350
137
  3
C1
350
138
  3
C2
350
139
  3
C3
350
13A
  3
C4
350
13B
  3
C5
350
13C
  3
C6
350
13D
  3
C7
350
13E
  3
C8
350
13F
  3
C9
350
140
  3
D0
350
141
  3
D1
350
142
  3
D2
350
143
  0
DICTIONARY
  5
1A8
102
{ACAD_REACTORS
330
C
102
}
330
C
100
AcDbDictionary
281
     1
  3
Imperial24
350
1AA
  3
Metric50
350
223
  0
DICTIONARY
  5
86
102
{ACAD_REACTORS
330
C
102
}
330
C
100
AcDbDictionary
281
     1
  3
Standard
350
87
  0
DICTIONARY
  5
99
102
{ACAD_REACTORS
330
C
102
}
330
C
100
AcDbDictionary
281
     1
  3
2dWireframe
350
9F
  3
3dWireframe
350
2684
  3
Basic
350
9E
  3
Brighten
350
A5
  3
ColorChange
350
A9
  3
Conceptual
350
A2
  3
Dim
350
A4
  3
EdgeColorOff
350
175
  3
Facepattern
350
A8
  3
Flat
350
9A
  3
FlatWithEdges
350
9B
  3
Gouraud
350
9C
  3
GouraudWithEdges
350
9D
  3
Hidden
350
A1
  3
JitterOff
350
173
  3
Linepattern
350
A7
  3
OverhangOff
350
174
  3
Realistic
350
A3
  3
Shaded
350
182
  3
Shaded with edges
350
181
  3
Shades of Gray
350
17E
  3
Sketchy
350
17F
  3
Thicken
350
A6
  3
Wireframe
350
A0
  3
X-Ray
350
180
  0
XRECORD
  5
AAA4
102
{ACAD_REACTORS
330
C
102
}
330
C
100
AcDbXrecord
280
     1
 90
        1
330
87
  0
DICTIONARY
  5
66
102
{ACAD_REACTORS
330
C
102
}
330
C
100
AcDbDictionary
281
     1
  3
CANNOSCALE
350
F0
  3
CMLEADERSTYLE
350
EF
  3
CTABLESTYLE
350
89
  3
CVIEWDETAILSTYLE
350
1B7
  3
CVIEWSECTIONSTYLE
350
1B8
  3
DIMASSOC
350
67
  3
HIDETEXT
350
6B
  3
LAYEREVAL
350
14D
  3
LAYERNOTIFY
350
14E
  0
DICTIONARY
  5
268B
102
{ACAD_REACTORS
330
C
102
}
330
C
100
AcDbDictionary
281
     1
  0
DICTIONARY
  5
18F
102
{ACAD_REACTORS
330
18E
102
}
330
18E
100
AcDbDictionary
281
     1
  0
SORTENTSTABLE
  5
28E
102
{ACAD_REACTORS
330
15D
102
}
330
15D
100
AcDbSortentsTable
330
1F
  0
ACDBDETAILVIEWSTYLE
  5
1AC
102
{ACAD_REACTORS
330
1AB
102
}
330
1AB
100
AcDbModelDocViewStyle
 70
     0
  3
Imperial24
290
     0
300
Imperial24
 90
        0
100
AcDbDetailViewStyle
 70
     0
 71
     0
 90
        3
 71
     1
340
11
 62
   256
 40
0.24
340
0
 62
   256
 40
0.24
300

 40
0.36
280
     3
 71
     2
340
16
 90
       25
 62
   256
 71
     3
340
11
 62
   256
 40
0.24
 90
        1
 40
0.75
 90
        1
300
%<\AcVar ViewType \f "%tc1">% %<\AcVar ViewDetailId>%\PSCALE %<\AcVar ViewScale \f "%sn">%
 71
     4
340
16
 90
       25
 62
   256
340
16
 90
       25
 62
   256
280
     0
  0
ACDBDETAILVIEWSTYLE
  5
224
102
{ACAD_REACTORS
330
1AB
102
}
330
1AB
100
AcDbModelDocViewStyle
 70
     0
  3
Metric50
290
     0
300
Metric50
 90
        0
100
AcDbDetailViewStyle
 70
     0
 71
     0
 90
        3
 71
     1
340
11
 62
   256
 40
5.0
340
0
 62
   256
 40
5.0
300

 40
0.0
280
     1
 71
     2
340
16
 90
       25
 62
   256
 71
     3
340
11
 62
   256
 40
5.0
 90
        0
 40
15.0
 90
        1
300
%<\AcVar ViewDetailId>% (%<\AcVar ViewScale \f "%sn">%)
 71
     4
340
16
 90
       25
 62
   256
340
16
 90
       25
 62
   256
280
     0
  0
LAYOUT
  5
59
102
{ACAD_REACTORS
330
1A
102
}
330
1A
100
AcDbPlotSettings
  1

  2
None
  4

  6

 40
0.0
 41
0.0
 42
0.0
 43
0.0
 44
0.0
 45
0.0
 46
0.0
 47
0.0
 48
0.0
 49
0.0
140
0.0
141
0.0
142
1.0
143
1.0
 70
   688
 72
     0
 73
     0
 74
     5
  7

 75
    16
147
1.0
 76
     0
 77
     2
 78
   300
148
0.0
149
0.0
100
AcDbLayout
  1
Layout1
 70
     1
 71
     1
 10
0.0
 20
0.0
 11
12.0
 21
9.0
 12
0.0
 22
0.0
 32
0.0
 14
0.0
 24
0.0
 34
0.0
 15
0.0
 25
0.0
 35
0.0
146
0.0
 13
0.0
 23
0.0
 33
0.0
 16
1.0
 26
0.0
 36
0.0
 17
0.0
 27
1.0
 37
0.0
 76
     0
330
58
  0
LAYOUT
  5
5E
102
{ACAD_REACTORS
330
1A
102
}
330
1A
100
AcDbPlotSettings
  1

  2
None
  4

  6

 40
0.0
 41
0.0
 42
0.0
 43
0.0
 44
0.0
 45
0.0
 46
0.0
 47
0.0
 48
0.0
 49
0.0
140
0.0
141
0.0
142
1.0
143
1.0
 70
   688
 72
     0
 73
     0
 74
     5
  7

 75
    16
147
1.0
 76
     0
 77
     2
 78
   300
148
0.0
149
0.0
100
AcDbLayout
  1
Layout2
 70
     1
 71
     2
 10
0.0
 20
0.0
 11
12.0
 21
9.0
 12
0.0
 22
0.0
 32
0.0
 14
0.0
 24
0.0
 34
0.0
 15
0.0
 25
0.0
 35
0.0
146
0.0
 13
0.0
 23
0.0
 33
0.0
 16
1.0
 26
0.0
 36
0.0
 17
0.0
 27
1.0
 37
0.0
 76
     0
330
5D
  0
LAYOUT
  5
22
102
{ACAD_XDICTIONARY
360
194
102
}
102
{ACAD_REACTORS
330
1A
102
}
330
1A
100
AcDbPlotSettings
  1

  2
none_device
  4
ANSI_A_(8.50_x_11.00_Inches)
  6

 40
6.349999904632568
 41
19.04999923706055
 42
6.350006103515625
 43
19.04998779296875
 44
215.8999938964844
 45
279.3999938964844
 46
0.0
 47
0.0
 48
0.0
 49
0.0
140
0.0
141
0.0
142
1.0
143
2.584895464708373
 70
 11952
 72
     0
 73
     1
 74
     0
  7

 75
     0
147
0.3868628397755418
 76
     0
 77
     2
 78
   300
148
0.0
149
0.0
100
AcDbLayout
  1
Model
 70
     1
 71
     0
 10
0.0
 20
0.0
 11
12.0
 21
9.0
 12
0.0
 22
0.0
 32
0.0
 14
0.0
 24
0.0
 34
0.0
 15
0.0
 25
0.0
 35
0.0
146
0.0
 13
0.0
 23
0.0
 33
0.0
 16
1.0
 26
0.0
 36
0.0
 17
0.0
 27
1.0
 37
0.0
 76
     0
330
1F
331
94
  0
MATERIAL
  5
97
102
{ACAD_XDICTIONARY
360
188
102
}
102
{ACAD_REACTORS
330
72
102
}
330
72
100
AcDbMaterial
  1
ByBlock
 94
       63
  0
MATERIAL
  5
96
102
{ACAD_XDICTIONARY
360
186
102
}
102
{ACAD_REACTORS
330
72
102
}
330
72
100
AcDbMaterial
  1
ByLayer
 94
       63
  0
MATERIAL
  5
98
102
{ACAD_XDICTIONARY
360
110
102
}
102
{ACAD_REACTORS
330
72
102
}
330
72
100
AcDbMaterial
  1
Global
 43
0.0208000000566244
 43
0.0
 43
0.0
 43
0.0
 43
0.0
 43
0.0208000000566244
 43
0.0
 43
0.0
 43
0.0
 43
0.0
 43
1.0
 43
0.0
 43
0.0
 43
0.0
 43
0.0
 43
1.0
 49
0.0208000000566244
 49
0.0
 49
0.0
 49
0.0
 49
0.0
 49
0.0208000000566244
 49
0.0
 49
0.0
 49
0.0
 49
0.0
 49
1.0
 49
0.0
 49
0.0
 49
0.0
 49
0.0
 49
1.0
142
0.0208000000566244
142
0.0
142
0.0
142
0.0
142
0.0
142
0.0208000000566244
142
0.0
142
0.0
142
0.0
142
0.0
142
1.0
142
0.0
142
0.0
142
0.0
142
0.0
142
1.0
144
0.0208000000566244
144
0.0
144
0.0
144
0.0
144
0.0
144
0.0208000000566244
144
0.0
144
0.0
144
0.0
144
0.0
144
1.0
144
0.0
144
0.0
144
0.0
144
0.0
144
1.0
 94
       63
1001
ACAD
1070
    -1
1070
     3
1070
     0
1000

1071
        0
1070
     0
  0
MLEADERSTYLE
  5
D8
102
{ACAD_REACTORS
330
D7
102
}
330
D7
100
AcDbMLeaderStyle
179
     2
170
     2
171
     1
172
     0
 90
        2
 40
0.0
 41
0.0
173
     1
 91
-1056964608
340
14
 92
       -2
290
     1
 42
0.09
291
     1
 43
0.36
  3
Standard
 44
0.18
300

342
11
174
     1
178
     1
175
     1
176
     0
 93
-1056964608
 45
0.18
292
     0
297
     0
 46
0.18
 94
-1056964608
 47
1.0
 49
1.0
140
1.0
293
     1
141
0.0
294
     1
177
     0
142
1.0
295
     0
296
     0
143
0.125
271
     0
272
     9
273
     9
298
     0
  0
MLINESTYLE
  5
18
102
{ACAD_REACTORS
330
17
102
}
330
17
100
AcDbMlineStyle
  2
STANDARD
 70
     0
  3

 62
   256
 51
90.0
 52
90.0
 71
     2
 49
0.5
 62
   256
  6
BYLAYER
 49
-0.5
 62
   256
  6
BYLAYER
  0
ACDBPLACEHOLDER
  5
F
102
{ACAD_REACTORS
330
E
102
}
330
E
  0
SCALE
  5
47D1
102
{ACAD_REACTORS
330
B6
102
}
330
B6
100
AcDbScale
 70
     0
300
1:100_1_XREF_XREF_XREF_XREF
140
1.0
141
0.1
290
     0
  0
SCALE
  5
8BD6
102
{ACAD_REACTORS
330
B6
102
}
330
B6
100
AcDbScale
 70
     0
300
1:100_1_XREF_XREF_XREF_XREF_XREF_XREF_XREF_XREF_XREF
140
1.0
141
0.1
290
     0
1001
ACAD
1000
AcRTDxfName
1000
SCALE
1000
AcRTDxfName
1000
SCALE
1000
AcRTDxfName
1000
SCALE
1000
AcRTDxfName
1000
SCALE
  0
SCALE
  5
B7
102
{ACAD_REACTORS
330
B6
102
}
330
B6
100
AcDbScale
 70
     0
300
1:1
140
1.0
141
1.0
290
     1
  0
SCALE
  5
124
102
{ACAD_REACTORS
330
B6
102
}
330
B6
100
AcDbScale
 70
     0
300
1:2
140
1.0
141
2.0
290
     0
  0
SCALE
  5
125
102
{ACAD_REACTORS
330
B6
102
}
330
B6
100
AcDbScale
 70
     0
300
1:4
140
1.0
141
4.0
290
     0
  0
SCALE
  5
126
102
{ACAD_REACTORS
330
B6
102
}
330
B6
100
AcDbScale
 70
     0
300
1:5
140
1.0
141
5.0
290
     0
  0
SCALE
  5
127
102
{ACAD_REACTORS
330
B6
102
}
330
B6
100
AcDbScale
 70
     0
300
1:8
140
1.0
141
8.0
290
     0
  0
SCALE
  5
128
102
{ACAD_REACTORS
330
B6
102
}
330
B6
100
AcDbScale
 70
     0
300
1:10
140
1.0
141
10.0
290
     0
  0
SCALE
  5
129
102
{ACAD_REACTORS
330
B6
102
}
330
B6
100
AcDbScale
 70
     0
300
1:16
140
1.0
141
16.0
290
     0
  0
SCALE
  5
12A
102
{ACAD_REACTORS
330
B6
102
}
330
B6
100
AcDbScale
 70
     0
300
1:20
140
1.0
141
20.0
290
     0
  0
SCALE
  5
12B
102
{ACAD_REACTORS
330
B6
102
}
330
B6
100
AcDbScale
 70
     0
300
1:30
140
1.0
141
30.0
290
     0
  0
SCALE
  5
12C
102
{ACAD_REACTORS
330
B6
102
}
330
B6
100
AcDbScale
 70
     0
300
1:40
140
1.0
141
40.0
290
     0
  0
SCALE
  5
12D
102
{ACAD_REACTORS
330
B6
102
}
330
B6
100
AcDbScale
 70
     0
300
1:50
140
1.0
141
50.0
290
     0
  0
SCALE
  5
12E
102
{ACAD_REACTORS
330
B6
102
}
330
B6
100
AcDbScale
 70
     0
300
1:100
140
1.0
141
100.0
290
     0
  0
SCALE
  5
12F
102
{ACAD_REACTORS
330
B6
102
}
330
B6
100
AcDbScale
 70
     0
300
2:1
140
2.0
141
1.0
290
     0
  0
SCALE
  5
130
102
{ACAD_REACTORS
330
B6
102
}
330
B6
100
AcDbScale
 70
     0
300
4:1
140
4.0
141
1.0
290
     0
  0
SCALE
  5
131
102
{ACAD_REACTORS
330
B6
102
}
330
B6
100
AcDbScale
 70
     0
300
8:1
140
8.0
141
1.0
290
     0
  0
SCALE
  5
132
102
{ACAD_REACTORS
330
B6
102
}
330
B6
100
AcDbScale
 70
     0
300
10:1
140
10.0
141
1.0
290
     0
  0
SCALE
  5
133
102
{ACAD_REACTORS
330
B6
102
}
330
B6
100
AcDbScale
 70
     0
300
100:1
140
100.0
141
1.0
290
     0
  0
SCALE
  5
134
102
{ACAD_REACTORS
330
B6
102
}
330
B6
100
AcDbScale
 70
     0
300
1/128" = 1'-0"
140
0.0078125
141
12.0
290
     0
  0
SCALE
  5
135
102
{ACAD_REACTORS
330
B6
102
}
330
B6
100
AcDbScale
 70
     0
300
1/64" = 1'-0"
140
0.015625
141
12.0
290
     0
  0
SCALE
  5
136
102
{ACAD_REACTORS
330
B6
102
}
330
B6
100
AcDbScale
 70
     0
300
1/32" = 1'-0"
140
0.03125
141
12.0
290
     0
  0
SCALE
  5
137
102
{ACAD_REACTORS
330
B6
102
}
330
B6
100
AcDbScale
 70
     0
300
1/16" = 1'-0"
140
0.0625
141
12.0
290
     0
  0
SCALE
  5
138
102
{ACAD_REACTORS
330
B6
102
}
330
B6
100
AcDbScale
 70
     0
300
3/32" = 1'-0"
140
0.09375
141
12.0
290
     0
  0
SCALE
  5
139
102
{ACAD_REACTORS
330
B6
102
}
330
B6
100
AcDbScale
 70
     0
300
1/8" = 1'-0"
140
0.125
141
12.0
290
     0
  0
SCALE
  5
13A
102
{ACAD_REACTORS
330
B6
102
}
330
B6
100
AcDbScale
 70
     0
300
3/16" = 1'-0"
140
0.1875
141
12.0
290
     0
  0
SCALE
  5
13B
102
{ACAD_REACTORS
330
B6
102
}
330
B6
100
AcDbScale
 70
     0
300
1/4" = 1'-0"
140
0.25
141
12.0
290
     0
  0
SCALE
  5
13C
102
{ACAD_REACTORS
330
B6
102
}
330
B6
100
AcDbScale
 70
     0
300
3/8" = 1'-0"
140
0.375
141
12.0
290
     0
  0
SCALE
  5
13D
102
{ACAD_REACTORS
330
B6
102
}
330
B6
100
AcDbScale
 70
     0
300
1/2" = 1'-0"
140
0.5
141
12.0
290
     0
  0
SCALE
  5
13E
102
{ACAD_REACTORS
330
B6
102
}
330
B6
100
AcDbScale
 70
     0
300
3/4" = 1'-0"
140
0.75
141
12.0
290
     0
  0
SCALE
  5
13F
102
{ACAD_REACTORS
330
B6
102
}
330
B6
100
AcDbScale
 70
     0
300
1" = 1'-0"
140
1.0
141
12.0
290
     0
  0
SCALE
  5
140
102
{ACAD_REACTORS
330
B6
102
}
330
B6
100
AcDbScale
 70
     0
300
1-1/2" = 1'-0"
140
1.5
141
12.0
290
     0
  0
SCALE
  5
141
102
{ACAD_REACTORS
330
B6
102
}
330
B6
100
AcDbScale
 70
     0
300
3" = 1'-0"
140
3.0
141
12.0
290
     0
  0
SCALE
  5
142
102
{ACAD_REACTORS
330
B6
102
}
330
B6
100
AcDbScale
 70
     0
300
6" = 1'-0"
140
6.0
141
12.0
290
     0
  0
SCALE
  5
143
102
{ACAD_REACTORS
330
B6
102
}
330
B6
100
AcDbScale
 70
     0
300
1'-0" = 1'-0"
140
12.0
141
12.0
290
     0
  0
ACDBSECTIONVIEWSTYLE
  5
1AA
102
{ACAD_REACTORS
330
1A8
102
}
330
1A8
100
AcDbModelDocViewStyle
 70
     0
  3
Imperial24
290
     0
300
Imperial24
 90
        0
100
AcDbSectionViewStyle
 70
     0
 71
     0
 90
       78
 71
     1
340
11
 62
   256
 40
0.24
340
0
340
0
 62
   256
 40
0.24
300
I, O, Q, S, X, Z
 40
0.48
 90
        3
 40
0.18
 90
        1
 71
     2
340
16
 90
       25
 62
   256
340
16
 90
       50
 62
   256
 40
0.24
 40
0.0
 40
0.24
 71
     3
340
11
 62
   256
 40
0.24
 90
        1
 40
0.75
 90
        1
300
%<\AcVar ViewType \f "%tc1">% %<\AcVar ViewSectionStartId>%-%<\AcVar ViewSectionEndId>%\PSCALE %<\AcVar ViewScale \f "%sn">%
 71
     4
 62
   256
 62
   257
300
ANSI31
 40
1.0
 90
        0
290
     0
290
     0
 90
        6
 40
0.0
 40
1.570796326794896
 40
0.2617993877991494
 40
1.308996938995747
 40
-0.2617993877991494
 40
1.832595714594046
  0
ACDBSECTIONVIEWSTYLE
  5
223
102
{ACAD_REACTORS
330
1A8
102
}
330
1A8
100
AcDbModelDocViewStyle
 70
     0
  3
Metric50
290
     0
300
Metric50
 90
        0
100
AcDbSectionViewStyle
 70
     0
 71
     0
 90
      102
 71
     1
340
11
 62
   256
 40
5.0
340
0
340
0
 62
   256
 40
5.0
300
I, O, Q, S, X, Z
 40
10.0
 90
        0
 40
2.5
 90
        0
 71
     2
340
16
 90
       25
 62
   256
340
16
 90
       50
 62
   256
 40
5.0
 40
2.5
 40
5.0
 71
     3
340
11
 62
   256
 40
5.0
 90
        0
 40
15.0
 90
        1
300
%<\AcVar ViewSectionStartId>%-%<\AcVar ViewSectionEndId>% (%<\AcVar ViewScale \f "%sn">%)
 71
     4
 62
   256
 62
   257
300
ANSI31
 40
1.0
 90
        0
290
     0
290
     0
 90
        6
 40
0.0
 40
1.570796326794896
 40
0.2617993877991494
 40
1.308996938995747
 40
-0.2617993877991494
 40
1.832595714594046
  0
TABLESTYLE
  5
87
102
{ACAD_XDICTIONARY
360
104
102
}
102
{ACAD_REACTORS
330
86
102
}
330
86
100
AcDbTableStyle
280
     0
  3
Standard
 70
     0
 71
     0
 40
0.06
 41
0.06
280
     0
281
     0
  7
Standard
140
0.18
170
     2
 62
     0
 63
     7
283
     0
 90
      512
 91
        0
  1

274
    -2
284
     1
 64
     0
275
    -2
285
     1
 65
     0
276
    -2
286
     1
 66
     0
277
    -2
287
     1
 67
     0
278
    -2
288
     1
 68
     0
279
    -2
289
     1
 69
     0
  7
Standard
140
0.25
170
     5
 62
     0
 63
     7
283
     0
 90
      512
 91
        0
  1

274
    -2
284
     1
 64
     0
275
    -2
285
     1
 65
     0
276
    -2
286
     1
 66
     0
277
    -2
287
     1
 67
     0
278
    -2
288
     1
 68
     0
279
    -2
289
     1
 69
     0
  7
Standard
140
0.18
170
     5
 62
     0
 63
     7
283
     0
 90
      512
 91
        0
  1

274
    -2
284
     1
 64
     0
275
    -2
285
     1
 65
     0
276
    -2
286
     1
 66
     0
277
    -2
287
     1
 67
     0
278
    -2
288
     1
 68
     0
279
    -2
289
     1
 69
     0
  0
VISUALSTYLE
  5
9F
102
{ACAD_REACTORS
330
99
102
}
330
99
100
AcDbVisualStyle
  2
2dWireframe
 70
     4
177
     3
291
     0
 70
    58
 90
        0
176
     1
 90
        2
176
     1
 90
        1
176
     1
 90
        0
176
     1
 40
0.6
176
     1
 40
30.0
176
     1
 62
     7
420
 16777215
176
     1
 90
        1
176
     1
 90
        4
176
     1
 62
     7
176
     1
 62
   257
176
     1
 90
        1
176
     1
 90
        1
176
     1
 40
1.0
176
     1
 90
        0
176
     1
 62
   257
176
     1
 40
1.0
176
     1
 90
        1
176
     1
 90
        6
176
     1
 90
        2
176
     1
 62
     7
176
     1
 90
        5
176
     1
 90
        0
176
     1
 90
        0
176
     1
290
     0
176
     1
 90
        1
176
     1
 40
0.0
176
     1
 90
        0
176
     1
290
     1
176
     1
290
     1
176
     1
290
     0
176
     1
290
     0
176
     1
290
     0
176
     1
290
     0
176
     1
290
     0
176
     1
290
     0
176
     1
290
     0
176
     1
 90
       50
176
     1
 40
0.0
176
     1
 40
1.0
176
     1
 90
        0
176
     1
 62
    18
420
        0
176
     1
 90
       50
176
     1
 90
        3
176
     1
 62
     5
420
      255
176
     1
290
     0
176
     1
 90
       50
176
     1
 90
       50
176
     1
 90
       50
176
     1
290
     0
176
     1
 90
       50
176
     1
 62
   256
176
     0
 40
1.0
176
     0
 90
        2
176
     1
  1
strokes_ogs.tif
176
     1
290
     0
176
     1
 40
1.0
176
     1
 40
1.0
176
     1
  0
VISUALSTYLE
  5
2684
102
{ACAD_REACTORS
330
99
102
}
330
99
100
AcDbVisualStyle
  2
3dWireframe
 70
     5
177
     3
291
     0
 70
    58
 90
        0
176
     1
 90
        2
176
     1
 90
        0
176
     1
 90
        0
176
     1
 40
0.6
176
     1
 40
30.0
176
     1
 62
     7
176
     1
 90
        1
176
     1
 90
        4
176
     1
 62
     7
176
     1
 62
   257
176
     1
 90
        1
176
     1
 90
        1
176
     1
 40
1.0
176
     1
 90
        0
176
     1
 62
   257
176
     1
 40
1.0
176
     1
 90
        1
176
     1
 90
        6
176
     1
 90
        2
176
     1
 62
     7
176
     1
 90
        5
176
     1
 90
        0
176
     1
 90
        0
176
     1
290
     0
176
     1
 90
        1
176
     1
 40
0.0
176
     1
 90
        0
176
     1
290
     0
176
     1
290
     1
176
     1
290
     1
176
     1
290
     0
176
     1
290
     0
176
     1
290
     0
176
     1
290
     0
176
     1
290
     0
176
     1
290
     0
176
     1
 90
       50
176
     1
 40
0.0
176
     1
 40
1.0
176
     1
 90
        0
176
     1
 62
    18
420
        0
176
     1
 90
       50
176
     1
 90
        3
176
     1
 62
     5
420
      255
176
     1
290
     0
176
     1
 90
       50
176
     1
 90
       50
176
     1
 90
       50
176
     1
290
     0
176
     1
 90
       50
176
     1
 62
   256
176
     0
 40
1.0
176
     0
 90
        2
176
     1
  1
strokes_ogs.tif
176
     1
290
     0
176
     1
 40
1.0
176
     1
 40
1.0
176
     1
1001
ACAD
1000
AcRTDxfName
1000
VISUALSTYLE
  0
VISUALSTYLE
  5
9E
102
{ACAD_REACTORS
330
99
102
}
330
99
100
AcDbVisualStyle
  2
Basic
 70
     7
177
     3
291
     1
 70
    58
 90
        1
176
     1
 90
        0
176
     1
 90
        1
176
     1
 90
        0
176
     1
 40
0.6
176
     1
 40
30.0
176
     1
 62
     7
420
 16777215
176
     1
 90
        0
176
     1
 90
        4
176
     1
 62
     7
176
     1
 62
   257
176
     1
 90
        1
176
     1
 90
        1
176
     1
 40
1.0
176
     1
 90
        8
176
     1
 62
     7
176
     1
 40
1.0
176
     1
 90
        1
176
     1
 90
        6
176
     1
 90
        2
176
     1
 62
     7
176
     1
 90
        5
176
     1
 90
        0
176
     1
 90
        0
176
     1
290
     0
176
     1
 90
        1
176
     1
 40
0.0
176
     1
 90
        0
176
     1
290
     0
176
     1
290
     1
176
     1
290
     1
176
     1
290
     0
176
     1
290
     0
176
     1
290
     0
176
     1
290
     0
176
     1
290
     0
176
     1
290
     0
176
     1
 90
       50
176
     1
 40
0.0
176
     1
 40
1.0
176
     1
 90
        0
176
     1
 62
    18
420
        0
176
     1
 90
       50
176
     1
 90
        3
176
     1
 62
     5
420
      255
176
     1
290
     0
176
     1
 90
       50
176
     1
 90
       50
176
     1
 90
       50
176
     1
290
     0
176
     1
 90
       50
176
     1
 62
   256
176
     0
 40
1.0
176
     0
 90
        2
176
     1
  1
strokes_ogs.tif
176
     1
290
     0
176
     1
 40
1.0
176
     1
 40
1.0
176
     1
  0
VISUALSTYLE
  5
A5
102
{ACAD_REACTORS
330
99
102
}
330
99
100
AcDbVisualStyle
  2
Brighten
 70
    12
177
     3
291
     1
 70
    58
 90
        2
176
     1
 90
        2
176
     1
 90
        1
176
     1
 90
        0
176
     1
 40
0.6
176
     1
 40
30.0
176
     1
 62
     7
420
 16777215
176
     1
 90
        1
176
     1
 90
        4
176
     1
 62
     7
176
     1
 62
   257
176
     1
 90
        1
176
     1
 90
        1
176
     1
 40
1.0
176
     1
 90
        8
176
     1
 62
     7
176
     1
 40
1.0
176
     1
 90
        1
176
     1
 90
        6
176
     1
 90
        2
176
     1
 62
     7
176
     1
 90
        5
176
     1
 90
        0
176
     1
 90
        0
176
     1
290
     0
176
     1
 90
        1
176
     1
 40
50.0
176
     1
 90
        0
176
     1
290
     0
176
     1
290
     1
176
     1
290
     1
176
     1
290
     0
176
     1
290
     0
176
     1
290
     0
176
     1
290
     0
176
     1
290
     0
176
     1
290
     0
176
     1
 90
       50
176
     1
 40
0.0
176
     1
 40
1.0
176
     1
 90
        0
176
     1
 62
    18
420
        0
176
     1
 90
       50
176
     1
 90
        3
176
     1
 62
     5
420
      255
176
     1
290
     0
176
     1
 90
       50
176
     1
 90
       50
176
     1
 90
       50
176
     1
290
     0
176
     1
 90
       50
176
     1
 62
   256
176
     0
 40
1.0
176
     0
 90
        2
176
     1
  1
strokes_ogs.tif
176
     1
290
     0
176
     1
 40
1.0
176
     1
 40
1.0
176
     1
  0
VISUALSTYLE
  5
A9
102
{ACAD_REACTORS
330
99
102
}
330
99
100
AcDbVisualStyle
  2
ColorChange
 70
    16
177
     3
291
     1
 70
    58
 90
        2
176
     1
 90
        2
176
     1
 90
        3
176
     1
 90
        0
176
     1
 40
0.6
176
     1
 40
30.0
176
     1
 62
     8
420
  8421504
176
     1
 90
        1
176
     1
 90
        4
176
     1
 62
     7
176
     1
 62
   257
176
     1
 90
        1
176
     1
 90
        1
176
     1
 40
1.0
176
     1
 90
        8
176
     1
 62
     8
420
  8421504
176
     1
 40
1.0
176
     1
 90
        1
176
     1
 90
        6
176
     1
 90
        2
176
     1
 62
     7
176
     1
 90
        5
176
     1
 90
        0
176
     1
 90
        0
176
     1
290
     0
176
     1
 90
        1
176
     1
 40
0.0
176
     1
 90
        0
176
     1
290
     0
176
     1
290
     1
176
     1
290
     1
176
     1
290
     0
176
     1
290
     0
176
     1
290
     0
176
     1
290
     0
176
     1
290
     0
176
     1
290
     0
176
     1
 90
       50
176
     1
 40
0.0
176
     1
 40
1.0
176
     1
 90
        0
176
     1
 62
    18
420
        0
176
     1
 90
       50
176
     1
 90
        3
176
     1
 62
     5
420
      255
176
     1
290
     0
176
     1
 90
       50
176
     1
 90
       50
176
     1
 90
       50
176
     1
290
     0
176
     1
 90
       50
176
     1
 62
   256
176
     0
 40
1.0
176
     0
 90
        2
176
     1
  1
strokes_ogs.tif
176
     1
290
     0
176
     1
 40
1.0
176
     1
 40
1.0
176
     1
  0
VISUALSTYLE
  5
A2
102
{ACAD_REACTORS
330
99
102
}
330
99
100
AcDbVisualStyle
  2
Conceptual
 70
     9
177
     3
291
     0
 70
    58
 90
        3
176
     1
 90
        2
176
     1
 90
        1
176
     1
 90
        0
176
     1
 40
0.6
176
     1
 40
30.0
176
     1
 62
     7
420
 16777215
176
     1
 90
        2
176
     1
 90
        2
176
     1
 62
     7
176
     1
 62
   257
176
     1
 90
        1
176
     1
 90
        1
176
     1
 40
40.0
176
     1
 90
        8
176
     1
 62
     7
176
     1
 40
1.0
176
     1
 90
        1
176
     1
 90
        6
176
     1
 90
        2
176
     1
 62
     7
176
     1
 90
        3
176
     1
 90
        0
176
     1
 90
        0
176
     1
290
     0
176
     1
 90
        1
176
     1
 40
0.0
176
     1
 90
        0
176
     1
290
     0
176
     1
290
     1
176
     1
290
     1
176
     1
290
     0
176
     1
290
     0
176
     1
290
     0
176
     1
290
     0
176
     1
290
     0
176
     1
290
     0
176
     1
 90
       50
176
     1
 40
0.0
176
     1
 40
1.0
176
     1
 90
        0
176
     1
 62
    18
420
        0
176
     1
 90
       50
176
     1
 90
        3
176
     1
 62
     5
420
      255
176
     1
290
     0
176
     1
 90
       50
176
     1
 90
       50
176
     1
 90
       50
176
     1
290
     0
176
     1
 90
       50
176
     1
 62
   256
176
     0
 40
1.0
176
     0
 90
        2
176
     1
  1
strokes_ogs.tif
176
     1
290
     0
176
     1
 40
1.0
176
     1
 40
1.0
176
     1
  0
VISUALSTYLE
  5
A4
102
{ACAD_REACTORS
330
99
102
}
330
99
100
AcDbVisualStyle
  2
Dim
 70
    11
177
     3
291
     1
 70
    58
 90
        2
176
     1
 90
        2
176
     1
 90
        1
176
     1
 90
        0
176
     1
 40
0.6
176
     1
 40
30.0
176
     1
 62
     7
420
 16777215
176
     1
 90
        1
176
     1
 90
        4
176
     1
 62
     7
176
     1
 62
   257
176
     1
 90
        1
176
     1
 90
        1
176
     1
 40
1.0
176
     1
 90
        8
176
     1
 62
     7
176
     1
 40
1.0
176
     1
 90
        1
176
     1
 90
        6
176
     1
 90
        2
176
     1
 62
     7
176
     1
 90
        5
176
     1
 90
        0
176
     1
 90
        0
176
     1
290
     0
176
     1
 90
        1
176
     1
 40
-50.0
176
     1
 90
        0
176
     1
290
     0
176
     1
290
     1
176
     1
290
     1
176
     1
290
     0
176
     1
290
     0
176
     1
290
     0
176
     1
290
     0
176
     1
290
     0
176
     1
290
     0
176
     1
 90
       50
176
     1
 40
0.0
176
     1
 40
1.0
176
     1
 90
        0
176
     1
 62
    18
420
        0
176
     1
 90
       50
176
     1
 90
        3
176
     1
 62
     5
420
      255
176
     1
290
     0
176
     1
 90
       50
176
     1
 90
       50
176
     1
 90
       50
176
     1
290
     0
176
     1
 90
       50
176
     1
 62
   256
176
     0
 40
1.0
176
     0
 90
        2
176
     1
  1
strokes_ogs.tif
176
     1
290
     0
176
     1
 40
1.0
176
     1
 40
1.0
176
     1
  0
VISUALSTYLE
  5
175
102
{ACAD_REACTORS
330
99
102
}
330
99
100
AcDbVisualStyle
  2
EdgeColorOff
 70
    22
177
     3
291
     1
 70
    58
 90
        2
176
     0
 90
        2
176
     0
 90
        0
176
     0
 90
        0
176
     0
 40
0.6
176
     0
 40
30.0
176
     0
 62
     7
420
 16777215
176
     0
 90
        1
176
     0
 90
        4
176
     0
 62
     7
176
     0
 62
   257
176
     0
 90
        1
176
     0
 90
        1
176
     0
 40
1.0
176
     0
 90
        8
176
     2
 62
     7
176
     0
 40
1.0
176
     0
 90
        1
176
     0
 90
        6
176
     0
 90
        2
176
     0
 62
     7
176
     0
 90
        5
176
     0
 90
        0
176
     0
 90
        0
176
     0
290
     0
176
     0
 90
        1
176
     0
 40
0.0
176
     0
 90
        0
176
     0
290
     0
176
     1
290
     1
176
     1
290
     1
176
     1
290
     0
176
     1
290
     0
176
     1
290
     0
176
     1
290
     0
176
     1
290
     0
176
     1
290
     0
176
     1
 90
       50
176
     1
 40
0.0
176
     1
 40
1.0
176
     1
 90
        0
176
     1
 62
    18
420
        0
176
     1
 90
       50
176
     1
 90
        3
176
     1
 62
     5
420
      255
176
     1
290
     0
176
     1
 90
       50
176
     1
 90
       50
176
     1
 90
       50
176
     1
290
     0
176
     1
 90
       50
176
     1
 62
   256
176
     0
 40
1.0
176
     0
 90
        2
176
     1
  1
strokes_ogs.tif
176
     1
290
     0
176
     1
 40
1.0
176
     1
 40
1.0
176
     1
  0
VISUALSTYLE
  5
A8
102
{ACAD_REACTORS
330
99
102
}
330
99
100
AcDbVisualStyle
  2
Facepattern
 70
    15
177
     3
291
     1
 70
    58
 90
        2
176
     1
 90
        2
176
     1
 90
        1
176
     1
 90
        0
176
     1
 40
0.6
176
     1
 40
30.0
176
     1
 62
     7
420
 16777215
176
     1
 90
        1
176
     1
 90
        4
176
     1
 62
     7
176
     1
 62
   257
176
     1
 90
        1
176
     1
 90
        1
176
     1
 40
1.0
176
     1
 90
        8
176
     1
 62
     7
176
     1
 40
1.0
176
     1
 90
        1
176
     1
 90
        6
176
     1
 90
        2
176
     1
 62
     7
176
     1
 90
        5
176
     1
 90
        0
176
     1
 90
        0
176
     1
290
     0
176
     1
 90
        1
176
     1
 40
0.0
176
     1
 90
        0
176
     1
290
     0
176
     1
290
     1
176
     1
290
     1
176
     1
290
     0
176
     1
290
     0
176
     1
290
     0
176
     1
290
     0
176
     1
290
     0
176
     1
290
     0
176
     1
 90
       50
176
     1
 40
0.0
176
     1
 40
1.0
176
     1
 90
        0
176
     1
 62
    18
420
        0
176
     1
 90
       50
176
     1
 90
        3
176
     1
 62
     5
420
      255
176
     1
290
     0
176
     1
 90
       50
176
     1
 90
       50
176
     1
 90
       50
176
     1
290
     0
176
     1
 90
       50
176
     1
 62
   256
176
     0
 40
1.0
176
     0
 90
        2
176
     1
  1
strokes_ogs.tif
176
     1
290
     0
176
     1
 40
1.0
176
     1
 40
1.0
176
     1
  0
VISUALSTYLE
  5
9A
102
{ACAD_REACTORS
330
99
102
}
330
99
100
AcDbVisualStyle
  2
Flat
 70
     0
177
     3
291
     1
 70
    58
 90
        2
176
     1
 90
        1
176
     1
 90
        1
176
     1
 90
        2
176
     1
 40
0.6
176
     1
 40
30.0
176
     1
 62
     7
420
 16777215
176
     1
 90
        0
176
     1
 90
        0
176
     1
 62
     7
176
     1
 62
   257
176
     1
 90
        1
176
     1
 90
        1
176
     1
 40
1.0
176
     1
 90
        8
176
     1
 62
     7
176
     1
 40
1.0
176
     1
 90
        1
176
     1
 90
        6
176
     1
 90
        2
176
     1
 62
     7
176
     1
 90
        5
176
     1
 90
        0
176
     1
 90
        0
176
     1
290
     0
176
     1
 90
       13
176
     1
 40
0.0
176
     1
 90
        0
176
     1
290
     0
176
     1
290
     1
176
     1
290
     1
176
     1
290
     0
176
     1
290
     0
176
     1
290
     0
176
     1
290
     0
176
     1
290
     0
176
     1
290
     0
176
     1
 90
       50
176
     1
 40
0.0
176
     1
 40
1.0
176
     1
 90
        0
176
     1
 62
    18
420
        0
176
     1
 90
       50
176
     1
 90
        3
176
     1
 62
     5
420
      255
176
     1
290
     0
176
     1
 90
       50
176
     1
 90
       50
176
     1
 90
       50
176
     1
290
     0
176
     1
 90
       50
176
     1
 62
   256
176
     0
 40
1.0
176
     0
 90
        2
176
     1
  1
strokes_ogs.tif
176
     1
290
     0
176
     1
 40
1.0
176
     1
 40
1.0
176
     1
  0
VISUALSTYLE
  5
9B
102
{ACAD_REACTORS
330
99
102
}
330
99
100
AcDbVisualStyle
  2
FlatWithEdges
 70
     1
177
     3
291
     1
 70
    58
 90
        2
176
     1
 90
        1
176
     1
 90
        1
176
     1
 90
        2
176
     1
 40
0.6
176
     1
 40
30.0
176
     1
 62
     7
420
 16777215
176
     1
 90
        1
176
     1
 90
        0
176
     1
 62
     7
176
     1
 62
   257
176
     1
 90
        1
176
     1
 90
        1
176
     1
 40
1.0
176
     1
 90
        0
176
     1
 62
   257
176
     1
 40
1.0
176
     1
 90
        1
176
     1
 90
        6
176
     1
 90
        2
176
     1
 62
     7
176
     1
 90
        5
176
     1
 90
        0
176
     1
 90
        0
176
     1
290
     0
176
     1
 90
       13
176
     1
 40
0.0
176
     1
 90
        0
176
     1
290
     0
176
     1
290
     1
176
     1
290
     1
176
     1
290
     0
176
     1
290
     0
176
     1
290
     0
176
     1
290
     0
176
     1
290
     0
176
     1
290
     0
176
     1
 90
       50
176
     1
 40
0.0
176
     1
 40
1.0
176
     1
 90
        0
176
     1
 62
    18
420
        0
176
     1
 90
       50
176
     1
 90
        3
176
     1
 62
     5
420
      255
176
     1
290
     0
176
     1
 90
       50
176
     1
 90
       50
176
     1
 90
       50
176
     1
290
     0
176
     1
 90
       50
176
     1
 62
   256
176
     0
 40
1.0
176
     0
 90
        2
176
     1
  1
strokes_ogs.tif
176
     1
290
     0
176
     1
 40
1.0
176
     1
 40
1.0
176
     1
  0
VISUALSTYLE
  5
9C
102
{ACAD_REACTORS
330
99
102
}
330
99
100
AcDbVisualStyle
  2
Gouraud
 70
     2
177
     3
291
     1
 70
    58
 90
        2
176
     1
 90
        2
176
     1
 90
        1
176
     1
 90
        2
176
     1
 40
0.6
176
     1
 40
30.0
176
     1
 62
     7
420
 16777215
176
     1
 90
        0
176
     1
 90
        0
176
     1
 62
     7
176
     1
 62
   257
176
     1
 90
        1
176
     1
 90
        1
176
     1
 40
1.0
176
     1
 90
        0
176
     1
 62
     7
176
     1
 40
1.0
176
     1
 90
        1
176
     1
 90
        6
176
     1
 90
        2
176
     1
 62
     7
176
     1
 90
        5
176
     1
 90
        0
176
     1
 90
        0
176
     1
290
     0
176
     1
 90
       13
176
     1
 40
0.0
176
     1
 90
        0
176
     1
290
     0
176
     1
290
     1
176
     1
290
     1
176
     1
290
     0
176
     1
290
     0
176
     1
290
     0
176
     1
290
     0
176
     1
290
     0
176
     1
290
     0
176
     1
 90
       50
176
     1
 40
0.0
176
     1
 40
1.0
176
     1
 90
        0
176
     1
 62
    18
420
        0
176
     1
 90
       50
176
     1
 90
        3
176
     1
 62
     5
420
      255
176
     1
290
     0
176
     1
 90
       50
176
     1
 90
       50
176
     1
 90
       50
176
     1
290
     0
176
     1
 90
       50
176
     1
 62
   256
176
     0
 40
1.0
176
     0
 90
        2
176
     1
  1
strokes_ogs.tif
176
     1
290
     0
176
     1
 40
1.0
176
     1
 40
1.0
176
     1
  0
VISUALSTYLE
  5
9D
102
{ACAD_REACTORS
330
99
102
}
330
99
100
AcDbVisualStyle
  2
GouraudWithEdges
 70
     3
177
     3
291
     1
 70
    58
 90
        2
176
     1
 90
        2
176
     1
 90
        1
176
     1
 90
        2
176
     1
 40
0.6
176
     1
 40
30.0
176
     1
 62
     7
420
 16777215
176
     1
 90
        1
176
     1
 90
        0
176
     1
 62
     7
176
     1
 62
   257
176
     1
 90
        1
176
     1
 90
        1
176
     1
 40
1.0
176
     1
 90
        0
176
     1
 62
   257
176
     1
 40
1.0
176
     1
 90
        1
176
     1
 90
        6
176
     1
 90
        2
176
     1
 62
     7
176
     1
 90
        5
176
     1
 90
        0
176
     1
 90
        0
176
     1
290
     0
176
     1
 90
       13
176
     1
 40
0.0
176
     1
 90
        0
176
     1
290
     0
176
     1
290
     1
176
     1
290
     1
176
     1
290
     0
176
     1
290
     0
176
     1
290
     0
176
     1
290
     0
176
     1
290
     0
176
     1
290
     0
176
     1
 90
       50
176
     1
 40
0.0
176
     1
 40
1.0
176
     1
 90
        0
176
     1
 62
    18
420
        0
176
     1
 90
       50
176
     1
 90
        3
176
     1
 62
     5
420
      255
176
     1
290
     0
176
     1
 90
       50
176
     1
 90
       50
176
     1
 90
       50
176
     1
290
     0
176
     1
 90
       50
176
     1
 62
   256
176
     0
 40
1.0
176
     0
 90
        2
176
     1
  1
strokes_ogs.tif
176
     1
290
     0
176
     1
 40
1.0
176
     1
 40
1.0
176
     1
  0
VISUALSTYLE
  5
A1
102
{ACAD_REACTORS
330
99
102
}
330
99
100
AcDbVisualStyle
  2
Hidden
 70
     6
177
     3
291
     0
 70
    58
 90
        1
176
     1
 90
        2
176
     1
 90
        2
176
     1
 90
        0
176
     1
 40
0.6
176
     1
 40
30.0
176
     1
 62
     7
420
 16777215
176
     1
 90
        2
176
     1
 90
        2
176
     1
 62
     7
176
     1
 62
   257
176
     1
 90
        2
176
     1
 90
        1
176
     1
 40
40.0
176
     1
 90
        0
176
     1
 62
   257
176
     1
 40
1.0
176
     1
 90
        1
176
     1
 90
        6
176
     1
 90
        2
176
     1
 62
     7
176
     1
 90
        3
176
     1
 90
        0
176
     1
 90
        0
176
     1
290
     0
176
     1
 90
        1
176
     1
 40
0.0
176
     1
 90
        0
176
     1
290
     0
176
     1
290
     1
176
     1
290
     1
176
     1
290
     0
176
     1
290
     0
176
     1
290
     0
176
     1
290
     0
176
     1
290
     0
176
     1
290
     0
176
     1
 90
       50
176
     1
 40
0.0
176
     1
 40
1.0
176
     1
 90
        0
176
     1
 62
    18
420
        0
176
     1
 90
       50
176
     1
 90
        3
176
     1
 62
     5
420
      255
176
     1
290
     0
176
     1
 90
       50
176
     1
 90
       50
176
     1
 90
       50
176
     1
290
     0
176
     1
 90
       50
176
     1
 62
   256
176
     0
 40
1.0
176
     0
 90
        2
176
     1
  1
strokes_ogs.tif
176
     1
290
     0
176
     1
 40
1.0
176
     1
 40
1.0
176
     1
  0
VISUALSTYLE
  5
173
102
{ACAD_REACTORS
330
99
102
}
330
99
100
AcDbVisualStyle
  2
JitterOff
 70
    20
177
     3
291
     1
 70
    58
 90
        2
176
     0
 90
        2
176
     0
 90
        0
176
     0
 90
        0
176
     0
 40
0.6
176
     0
 40
30.0
176
     0
 62
     7
420
 16777215
176
     0
 90
        1
176
     0
 90
        4
176
     0
 62
     7
176
     0
 62
   257
176
     0
 90
        1
176
     0
 90
        1
176
     0
 40
1.0
176
     0
 90
       10
176
     2
 62
     7
176
     0
 40
1.0
176
     0
 90
        1
176
     0
 90
        6
176
     0
 90
        2
176
     0
 62
     7
176
     0
 90
        5
176
     0
 90
        0
176
     0
 90
        0
176
     0
290
     0
176
     0
 90
        1
176
     0
 40
0.0
176
     0
 90
        0
176
     0
290
     0
176
     1
290
     1
176
     1
290
     1
176
     1
290
     0
176
     1
290
     0
176
     1
290
     0
176
     1
290
     0
176
     1
290
     0
176
     1
290
     0
176
     1
 90
       50
176
     1
 40
0.0
176
     1
 40
1.0
176
     1
 90
        0
176
     1
 62
    18
420
        0
176
     1
 90
       50
176
     1
 90
        3
176
     1
 62
     5
420
      255
176
     1
290
     0
176
     1
 90
       50
176
     1
 90
       50
176
     1
 90
       50
176
     1
290
     0
176
     1
 90
       50
176
     1
 62
   256
176
     0
 40
1.0
176
     0
 90
        2
176
     1
  1
strokes_ogs.tif
176
     1
290
     0
176
     1
 40
1.0
176
     1
 40
1.0
176
     1
  0
VISUALSTYLE
  5
A7
102
{ACAD_REACTORS
330
99
102
}
330
99
100
AcDbVisualStyle
  2
Linepattern
 70
    14
177
     3
291
     1
 70
    58
 90
        2
176
     1
 90
        2
176
     1
 90
        1
176
     1
 90
        0
176
     1
 40
0.6
176
     1
 40
30.0
176
     1
 62
     7
420
 16777215
176
     1
 90
        1
176
     1
 90
        4
176
     1
 62
     7
176
     1
 62
   257
176
     1
 90
        7
176
     1
 90
        7
176
     1
 40
1.0
176
     1
 90
        8
176
     1
 62
     7
176
     1
 40
1.0
176
     1
 90
        1
176
     1
 90
        6
176
     1
 90
        2
176
     1
 62
     7
176
     1
 90
        5
176
     1
 90
        0
176
     1
 90
        0
176
     1
290
     0
176
     1
 90
        1
176
     1
 40
0.0
176
     1
 90
        0
176
     1
290
     0
176
     1
290
     1
176
     1
290
     1
176
     1
290
     0
176
     1
290
     0
176
     1
290
     0
176
     1
290
     0
176
     1
290
     0
176
     1
290
     0
176
     1
 90
       50
176
     1
 40
0.0
176
     1
 40
1.0
176
     1
 90
        0
176
     1
 62
    18
420
        0
176
     1
 90
       50
176
     1
 90
        3
176
     1
 62
     5
420
      255
176
     1
290
     0
176
     1
 90
       50
176
     1
 90
       50
176
     1
 90
       50
176
     1
290
     0
176
     1
 90
       50
176
     1
 62
   256
176
     0
 40
1.0
176
     0
 90
        2
176
     1
  1
strokes_ogs.tif
176
     1
290
     0
176
     1
 40
1.0
176
     1
 40
1.0
176
     1
  0
VISUALSTYLE
  5
174
102
{ACAD_REACTORS
330
99
102
}
330
99
100
AcDbVisualStyle
  2
OverhangOff
 70
    21
177
     3
291
     1
 70
    58
 90
        2
176
     0
 90
        2
176
     0
 90
        0
176
     0
 90
        0
176
     0
 40
0.6
176
     0
 40
30.0
176
     0
 62
     7
420
 16777215
176
     0
 90
        1
176
     0
 90
        4
176
     0
 62
     7
176
     0
 62
   257
176
     0
 90
        1
176
     0
 90
        1
176
     0
 40
1.0
176
     0
 90
        9
176
     2
 62
     7
176
     0
 40
1.0
176
     0
 90
        1
176
     0
 90
        6
176
     0
 90
        2
176
     0
 62
     7
176
     0
 90
        5
176
     0
 90
        0
176
     0
 90
        0
176
     0
290
     0
176
     0
 90
        1
176
     0
 40
0.0
176
     0
 90
        0
176
     0
290
     0
176
     1
290
     1
176
     1
290
     1
176
     1
290
     0
176
     1
290
     0
176
     1
290
     0
176
     1
290
     0
176
     1
290
     0
176
     1
290
     0
176
     1
 90
       50
176
     1
 40
0.0
176
     1
 40
1.0
176
     1
 90
        0
176
     1
 62
    18
420
        0
176
     1
 90
       50
176
     1
 90
        3
176
     1
 62
     5
420
      255
176
     1
290
     0
176
     1
 90
       50
176
     1
 90
       50
176
     1
 90
       50
176
     1
290
     0
176
     1
 90
       50
176
     1
 62
   256
176
     0
 40
1.0
176
     0
 90
        2
176
     1
  1
strokes_ogs.tif
176
     1
290
     0
176
     1
 40
1.0
176
     1
 40
1.0
176
     1
  0
VISUALSTYLE
  5
A3
102
{ACAD_REACTORS
330
99
102
}
330
99
100
AcDbVisualStyle
  2
Realistic
 70
     8
177
     3
291
     0
 70
    58
 90
        2
176
     1
 90
        2
176
     1
 90
        0
176
     1
 90
        2
176
     1
 40
0.6
176
     1
 40
30.0
176
     1
 62
     7
420
 16777215
176
     1
 90
        0
176
     1
 90
        0
176
     1
 62
     7
176
     1
 62
   257
176
     1
 90
        1
176
     1
 90
        1
176
     1
 40
1.0
176
     1
 90
        8
176
     1
 62
   257
176
     1
 40
1.0
176
     1
 90
        1
176
     1
 90
        6
176
     1
 90
        2
176
     1
 62
     7
176
     1
 90
        3
176
     1
 90
        0
176
     1
 90
        0
176
     1
290
     0
176
     1
 90
       13
176
     1
 40
0.0
176
     1
 90
        0
176
     1
290
     0
176
     1
290
     1
176
     1
290
     1
176
     1
290
     0
176
     1
290
     0
176
     1
290
     0
176
     1
290
     0
176
     1
290
     0
176
     1
290
     0
176
     1
 90
       50
176
     1
 40
0.0
176
     1
 40
1.0
176
     1
 90
        0
176
     1
 62
    18
420
        0
176
     1
 90
       50
176
     1
 90
        3
176
     1
 62
     5
420
      255
176
     1
290
     0
176
     1
 90
       50
176
     1
 90
       50
176
     1
 90
       50
176
     1
290
     0
176
     1
 90
       50
176
     1
 62
   256
176
     0
 40
1.0
176
     0
 90
        2
176
     1
  1
strokes_ogs.tif
176
     1
290
     0
176
     1
 40
1.0
176
     1
 40
1.0
176
     1
  0
VISUALSTYLE
  5
182
102
{ACAD_REACTORS
330
99
102
}
330
99
100
AcDbVisualStyle
  2
Shaded
 70
    27
177
     3
291
     0
 70
    58
 90
        2
176
     1
 90
        2
176
     1
 90
        1
176
     1
 90
        2
176
     1
 40
0.6
176
     1
 40
30.0
176
     1
 62
     7
420
 16777215
176
     1
 90
        0
176
     1
 90
        4
176
     1
 62
     7
176
     1
 62
   257
176
     1
 90
        1
176
     1
 90
        1
176
     1
 40
1.0
176
     1
 90
        8
176
     1
 62
   257
176
     1
 40
1.0
176
     1
 90
        1
176
     1
 90
        6
176
     1
 90
        2
176
     1
 62
     8
420
  7895160
176
     1
 90
        3
176
     1
 90
        0
176
     1
 90
        0
176
     1
290
     0
176
     1
 90
        5
176
     1
 40
0.0
176
     1
 90
        0
176
     1
290
     0
176
     1
290
     1
176
     1
290
     1
176
     1
290
     0
176
     1
290
     0
176
     1
290
     0
176
     1
290
     0
176
     1
290
     0
176
     1
290
     0
176
     1
 90
       50
176
     1
 40
0.0
176
     1
 40
1.0
176
     1
 90
        0
176
     1
 62
    18
420
        0
176
     1
 90
       50
176
     1
 90
        3
176
     1
 62
     5
420
      255
176
     1
290
     0
176
     1
 90
       50
176
     1
 90
       50
176
     1
 90
       50
176
     1
290
     0
176
     1
 90
       50
176
     1
 62
   256
176
     0
 40
1.0
176
     0
 90
        2
176
     1
  1
strokes_ogs.tif
176
     1
290
     0
176
     1
 40
1.0
176
     1
 40
1.0
176
     1
  0
VISUALSTYLE
  5
181
102
{ACAD_REACTORS
330
99
102
}
330
99
100
AcDbVisualStyle
  2
Shaded with edges
 70
    26
177
     3
291
     0
 70
    58
 90
        2
176
     1
 90
        2
176
     1
 90
        1
176
     1
 90
        2
176
     1
 40
0.6
176
     1
 40
30.0
176
     1
 62
     7
420
 16777215
176
     1
 90
        1
176
     1
 90
        2
176
     1
 62
     7
176
     1
 62
   257
176
     1
 90
        2
176
     1
 90
        1
176
     1
 40
1.0
176
     1
 90
        8
176
     1
 62
   257
176
     1
 40
1.0
176
     1
 90
        1
176
     1
 90
        6
176
     1
 90
        2
176
     1
 62
     7
176
     1
 90
        3
176
     1
 90
        0
176
     1
 90
        0
176
     1
290
     0
176
     1
 90
        5
176
     1
 40
0.0
176
     1
 90
        0
176
     1
290
     0
176
     1
290
     1
176
     1
290
     1
176
     1
290
     0
176
     1
290
     0
176
     1
290
     0
176
     1
290
     0
176
     1
290
     0
176
     1
290
     0
176
     1
 90
       50
176
     1
 40
0.0
176
     1
 40
1.0
176
     1
 90
        0
176
     1
 62
    18
420
        0
176
     1
 90
       50
176
     1
 90
        3
176
     1
 62
     5
420
      255
176
     1
290
     0
176
     1
 90
       50
176
     1
 90
       50
176
     1
 90
       50
176
     1
290
     0
176
     1
 90
       50
176
     1
 62
   256
176
     0
 40
1.0
176
     0
 90
        2
176
     1
  1
strokes_ogs.tif
176
     1
290
     0
176
     1
 40
1.0
176
     1
 40
1.0
176
     1
  0
VISUALSTYLE
  5
17E
102
{ACAD_REACTORS
330
99
102
}
330
99
100
AcDbVisualStyle
  2
Shades of Gray
 70
    23
177
     3
291
     0
 70
    58
 90
        2
176
     1
 90
        2
176
     1
 90
        3
176
     1
 90
        0
176
     1
 40
0.6
176
     1
 40
30.0
176
     1
 62
     7
420
 16777215
176
     1
 90
        2
176
     1
 90
        2
176
     1
 62
     7
176
     1
 62
     7
176
     1
 90
        1
176
     1
 90
        1
176
     1
 40
40.0
176
     1
 90
        8
176
     1
 62
     7
176
     1
 40
1.0
176
     1
 90
        1
176
     1
 90
        6
176
     1
 90
        2
176
     1
 62
     7
176
     1
 90
        3
176
     1
 90
        0
176
     1
 90
        0
176
     1
290
     0
176
     1
 90
        1
176
     1
 40
0.0
176
     1
 90
        0
176
     1
290
     0
176
     1
290
     1
176
     1
290
     1
176
     1
290
     0
176
     1
290
     0
176
     1
290
     0
176
     1
290
     0
176
     1
290
     0
176
     1
290
     0
176
     1
 90
       50
176
     1
 40
0.0
176
     1
 40
1.0
176
     1
 90
        0
176
     1
 62
    18
420
        0
176
     1
 90
       50
176
     1
 90
        3
176
     1
 62
     5
420
      255
176
     1
290
     0
176
     1
 90
       50
176
     1
 90
       50
176
     1
 90
       50
176
     1
290
     0
176
     1
 90
       50
176
     1
 62
   256
176
     0
 40
1.0
176
     0
 90
        2
176
     1
  1
strokes_ogs.tif
176
     1
290
     0
176
     1
 40
1.0
176
     1
 40
1.0
176
     1
  0
VISUALSTYLE
  5
17F
102
{ACAD_REACTORS
330
99
102
}
330
99
100
AcDbVisualStyle
  2
Sketchy
 70
    24
177
     3
291
     0
 70
    58
 90
        1
176
     1
 90
        2
176
     1
 90
        2
176
     1
 90
        0
176
     1
 40
0.6
176
     1
 40
30.0
176
     1
 62
     7
420
 16777215
176
     1
 90
        2
176
     1
 90
        2
176
     1
 62
     7
176
     1
 62
     7
176
     1
 90
        1
176
     1
 90
        1
176
     1
 40
40.0
176
     1
 90
       11
176
     1
 62
     7
176
     1
 40
1.0
176
     1
 90
        1
176
     1
 90
        6
176
     1
 90
        2
176
     1
 62
     7
176
     1
 90
        6
176
     1
 90
        0
176
     1
 90
        0
176
     1
290
     0
176
     1
 90
        1
176
     1
 40
0.0
176
     1
 90
        0
176
     1
290
     0
176
     1
290
     1
176
     1
290
     1
176
     1
290
     0
176
     1
290
     0
176
     1
290
     0
176
     1
290
     0
176
     1
290
     0
176
     1
290
     0
176
     1
 90
       50
176
     1
 40
0.0
176
     1
 40
1.0
176
     1
 90
        0
176
     1
 62
    18
420
        0
176
     1
 90
       50
176
     1
 90
        3
176
     1
 62
     5
420
      255
176
     1
290
     0
176
     1
 90
       50
176
     1
 90
       50
176
     1
 90
       50
176
     1
290
     0
176
     1
 90
       50
176
     1
 62
   256
176
     0
 40
1.0
176
     0
 90
        2
176
     1
  1
strokes_ogs.tif
176
     1
290
     0
176
     1
 40
1.0
176
     1
 40
1.0
176
     1
  0
VISUALSTYLE
  5
A6
102
{ACAD_REACTORS
330
99
102
}
330
99
100
AcDbVisualStyle
  2
Thicken
 70
    13
177
     3
291
     1
 70
    58
 90
        2
176
     1
 90
        2
176
     1
 90
        1
176
     1
 90
        0
176
     1
 40
0.6
176
     1
 40
30.0
176
     1
 62
     7
420
 16777215
176
     1
 90
        1
176
     1
 90
        4
176
     1
 62
     7
176
     1
 62
   257
176
     1
 90
        1
176
     1
 90
        1
176
     1
 40
1.0
176
     1
 90
       12
176
     1
 62
     7
176
     1
 40
1.0
176
     1
 90
        1
176
     1
 90
        6
176
     1
 90
        2
176
     1
 62
     7
176
     1
 90
        5
176
     1
 90
        0
176
     1
 90
        0
176
     1
290
     0
176
     1
 90
        1
176
     1
 40
0.0
176
     1
 90
        0
176
     1
290
     0
176
     1
290
     1
176
     1
290
     1
176
     1
290
     0
176
     1
290
     0
176
     1
290
     0
176
     1
290
     0
176
     1
290
     0
176
     1
290
     0
176
     1
 90
       50
176
     1
 40
0.0
176
     1
 40
1.0
176
     1
 90
        0
176
     1
 62
    18
420
        0
176
     1
 90
       50
176
     1
 90
        3
176
     1
 62
     5
420
      255
176
     1
290
     0
176
     1
 90
       50
176
     1
 90
       50
176
     1
 90
       50
176
     1
290
     0
176
     1
 90
       50
176
     1
 62
   256
176
     0
 40
1.0
176
     0
 90
        2
176
     1
  1
strokes_ogs.tif
176
     1
290
     0
176
     1
 40
1.0
176
     1
 40
1.0
176
     1
  0
VISUALSTYLE
  5
A0
102
{ACAD_REACTORS
330
99
102
}
330
99
100
AcDbVisualStyle
  2
Wireframe
 70
     5
177
     3
291
     0
 70
    58
 90
        0
176
     1
 90
        2
176
     1
 90
        0
176
     1
 90
        0
176
     1
 40
0.6
176
     1
 40
30.0
176
     1
 62
     7
420
 16777215
176
     1
 90
        1
176
     1
 90
        4
176
     1
 62
     7
176
     1
 62
   257
176
     1
 90
        1
176
     1
 90
        1
176
     1
 40
1.0
176
     1
 90
        0
176
     1
 62
   257
176
     1
 40
1.0
176
     1
 90
        1
176
     1
 90
        6
176
     1
 90
        2
176
     1
 62
     7
176
     1
 90
        3
176
     1
 90
        0
176
     1
 90
        0
176
     1
290
     0
176
     1
 90
        1
176
     1
 40
0.0
176
     1
 90
        0
176
     1
290
     0
176
     1
290
     1
176
     1
290
     1
176
     1
290
     0
176
     1
290
     0
176
     1
290
     0
176
     1
290
     0
176
     1
290
     0
176
     1
290
     0
176
     1
 90
       50
176
     1
 40
0.0
176
     1
 40
1.0
176
     1
 90
        0
176
     1
 62
    18
420
        0
176
     1
 90
       50
176
     1
 90
        3
176
     1
 62
     5
420
      255
176
     1
290
     0
176
     1
 90
       50
176
     1
 90
       50
176
     1
 90
       50
176
     1
290
     0
176
     1
 90
       50
176
     1
 62
   256
176
     0
 40
1.0
176
     0
 90
        2
176
     1
  1
strokes_ogs.tif
176
     1
290
     0
176
     1
 40
1.0
176
     1
 40
1.0
176
     1
  0
VISUALSTYLE
  5
180
102
{ACAD_REACTORS
330
99
102
}
330
99
100
AcDbVisualStyle
  2
X-Ray
 70
    25
177
     3
291
     0
 70
    58
 90
        2
176
     1
 90
        2
176
     1
 90
        1
176
     1
 90
        1
176
     1
 40
0.5
176
     1
 40
30.0
176
     1
 62
     7
420
 16777215
176
     1
 90
        1
176
     1
 90
        0
176
     1
 62
     7
176
     1
 62
   257
176
     1
 90
        1
176
     1
 90
        1
176
     1
 40
1.0
176
     1
 90
        8
176
     1
 62
     7
176
     1
 40
1.0
176
     1
 90
        1
176
     1
 90
        6
176
     1
 90
        2
176
     1
 62
     7
176
     1
 90
        3
176
     1
 90
        0
176
     1
 90
        0
176
     1
290
     0
176
     1
 90
       13
176
     1
 40
0.0
176
     1
 90
        0
176
     1
290
     0
176
     1
290
     1
176
     1
290
     1
176
     1
290
     0
176
     1
290
     0
176
     1
290
     0
176
     1
290
     0
176
     1
290
     0
176
     1
290
     0
176
     1
 90
       50
176
     1
 40
0.0
176
     1
 40
1.0
176
     1
 90
        0
176
     1
 62
    18
420
        0
176
     1
 90
       50
176
     1
 90
        3
176
     1
 62
     5
420
      255
176
     1
290
     0
176
     1
 90
       50
176
     1
 90
       50
176
     1
 90
       50
176
     1
290
     0
176
     1
 90
       50
176
     1
 62
   256
176
     0
 40
1.0
176
     0
 90
        2
176
     1
  1
strokes_ogs.tif
176
     1
290
     0
176
     1
 40
1.0
176
     1
 40
1.0
176
     1
  0
DICTIONARYVAR
  5
F0
102
{ACAD_REACTORS
330
66
102
}
330
66
100
DictionaryVariables
280
     0
  1
1:1
  0
DICTIONARYVAR
  5
EF
102
{ACAD_REACTORS
330
66
102
}
330
66
100
DictionaryVariables
280
     0
  1
STANDARD
  0
DICTIONARYVAR
  5
89
102
{ACAD_REACTORS
330
66
102
}
330
66
100
DictionaryVariables
280
     0
  1
STANDARD
  0
DICTIONARYVAR
  5
1B7
102
{ACAD_REACTORS
330
66
102
}
330
66
100
DictionaryVariables
280
     0
  1
Imperial24
  0
DICTIONARYVAR
  5
1B8
102
{ACAD_REACTORS
330
66
102
}
330
66
100
DictionaryVariables
280
     0
  1
Imperial24
  0
DICTIONARYVAR
  5
67
102
{ACAD_REACTORS
330
66
102
}
330
66
100
DictionaryVariables
280
     0
  1
2
  0
DICTIONARYVAR
  5
6B
102
{ACAD_REACTORS
330
66
102
}
330
66
100
DictionaryVariables
280
     0
  1
1
  0
DICTIONARYVAR
  5
14D
102
{ACAD_REACTORS
330
66
102
}
330
66
100
DictionaryVariables
280
     0
  1
0
  0
DICTIONARYVAR
  5
14E
102
{ACAD_REACTORS
330
66
102
}
330
66
100
DictionaryVariables
280
     0
  1
0
  0
DICTIONARY
  5
194
330
22
100
AcDbDictionary
280
     1
281
     1
  0
DICTIONARY
  5
188
330
97
100
AcDbDictionary
280
     1
281
     1
  3
FBXASSET
360
189
  0
DICTIONARY
  5
186
330
96
100
AcDbDictionary
280
     1
281
     1
  3
FBXASSET
360
187
  0
DICTIONARY
  5
110
330
98
100
AcDbDictionary
280
     1
281
     1
  3
BUMPTILE
360
112
  3
DIFFUSETILE
360
111
  3
FBXASSET
360
18A
  3
OPACITYTILE
360
113
  3
REFLECTIONTILE
360
114
  0
DICTIONARY
  5
104
330
87
100
AcDbDictionary
280
     1
281
     1
  3
ACAD_ROUNDTRIP_2008_TABLESTYLE_CELLSTYLEMAP
360
AAA3
  0
XRECORD
  5
189
102
{ACAD_REACTORS
330
188
102
}
330
188
100
AcDbXrecord
280
     1
 70
     1
 90
429727718
  1
508B35C9-AEE7-456F-BE74-D52651303AC6
310
504B03040A0000080000B670623B3DEE336E79000000790000001B0000006175746F6465736B2D64657369676E2D7061636B6167652E786D6C3C3F786D6C2076657273696F6E3D22312E302220656E636F64696E673D227574662D3822203F3E3C666F726D6174733E3C666F726D61743E687474703A2F2F736368656D612E
310
6175746F6465736B2E636F6D2F64657369676E2D7061636B6167652F323030393C2F666F726D61743E3C2F666F726D6174733E504B0304140006080800B670623BD486FD9CA0000000F4000000130000005B436F6E74656E745F54797065735D2E786D6C7D8EC10E82300C865F65E91D8A1E8C310C0EEA1BF002731658846E
310
D98AC1B77784ABF1D8FE5FBFBF75BBCE937A534CCEB38643598122B6FEE978D0B0485F9C41B54DDD7D022595594E1A469170414C76A4D9A4D207E29CF43ECE46F218070CC6BECC4078ACAA135ACF422C856C0E68EA1BF5669944DDD7BCDE7B1F8E415D77AECB980613C2E4AC91FC167A2B244592486606FC29C8FD7F045B9A
310
EF7053A7E60B504B0304140006080800B670623B28ED286BEB0000007C01000008000000636F72652E786D6C8D90416EC3201045AF82665B6183218D6D61A254764FD00B204C5C94182C03558F5F9C3852BBEB6A467FFE9B197D71FA9E6FE8CBACC17AD7012D0820E3B41FAD9B3A48F1826B40272956EFE32F1B20A766D3C1
310
268314D3EAD3B24BDABB685CCCAAF3A3D94515828980F42D371D04FD696655A814B3235C8B45E9AB9A4C419F5D8653B2237A1CB163DE672FD6AC209BF3C08E0D1B30EB19C3FC9D72FCC6EB231EFA33EDE96BDD341517E5064B11EDFCBCAF57A3A2194156843498524CAA0FCA5B7268F9E185D42D21A2DCEC7FA0B48CFF8492
310
759155FBBB0F2C80A4F991FB408A72CB22977B50B96EB9C91F504B0304140006080800B670623B55019EA25F0000007C00000007000000636E782E786D6C4DCB3B0E80201045D1AD90E915ED2CF8AC45050C11660C8261F98AB1B07AC9C97D42D718D865D3E909258CFD00CCE24AC6E326A164D74DC0B4128928FF32603847
310
2BA13128B1252AC747C6BAB984FC68F0B87FE8960A5C09FE86CFB69FBA01504B0304140006080800B670623B7BC41AC871010000D40300000C0000006662782F636F72652E786D6CC553ED6E8320147D15C2DF4501B56B6D90A64BBB27D80B50A5CE54C120983EFEAE1F4DD7A56BBA5FF3879273EEE59E7310BE393735EA95
310
ED2AA333CC428A91D2B9292A5D66D8BB63B0C26823B835C67D2BC348CB46657880B1E0A535BE9DA1DC68A7B403549B42CDA0EC3AE530CA6B5864B8CB3F552343E91D5474A7B095F949962A6421D0502778E72C0840D390E18DC5F170E664C205F7BE2A66B62A605A75AC94C522DDEEE3651AEF837817C741F2CE92E02D592D
310
83FD6ECB76EC7595A651C2C9D02CB8AB9A8BBADC2AE954814544691A3016D0E883256BBA58278B17BA5A53CAC9507ED3E4DBE2C9265F691747B3DCA9ADC382819091F8E1162272A8933DE82182932144F88C09DF060D8140C84E1EEA8B8F1340BDCA9DB1093085F157AA97B557309586747CD0EF0B4EA64E983A6E0EAEEFCE
310
889E9EF17847386AA94B30211D2C0FDE0D3AF9A4610EAD5536E8DD1969631B593F67E381C33F5157F17725E5A636F6BF1491F980C8FC7B90E13E8A2F504B0304140006080800B670623B70102A487D0000009D0000000B0000006662782F636E782E786D6C4DCCD10A83201886E15B91FFDC95A5C30335ACCDFB886521330D
310
A76397BF1A1DECE883878F57749FD5A3B74D2F17830472A901D9F088930B8B849267CC01754AA418F3DF0D5018572BE160506249B16C274D761E8BCFBB7A179E27F65CB39A0F14D396184C9921B81F34C3ACA1B4B99ABB6E6F062A25AA5F69DF23ACBE504B0304140006080800B670623B3610CA3329010000120200003100
310
00006662782F42384135303843342D343331462D343546312D424341352D3532343432364645413344462F636F72652E786D6C8D515B6EC32010BC0AE22B55850D0E446E848992B43E412FE000495162B07854397EA176A4F62F3F2C9A9D991D58BEBB8F37F0AD7D30CE76905418026DA553C65E3A98E219B510EC04F7CEC5
310
3F3408EC30EA0E16180A7EF12E4D0B249D8DDAC68C5AA7F4020E21E80881BCE54B0783FCD2E3500D296646B856D320AFC34557A4CAEDCC133C449F0380794839A138B47B86DB2345744D7A44594FD0E1B867883594369BFE63BF7EEF793D0B054FC9A8456E548E63CE46FB674D8A58F068C6477CE9F510B582A2C1F80D1182
310
70F349E816B32D65AFB8DD62CCEB42FF274A937A52948C8DEB66893BCB021484D7734370E5D2E9F608A3EF93F3119479ABA0E50B14B8C298119A43CCC4FCFCECB8A18B6388CEE7EF5D5D4F994BD86CBBA182D76543B9FCAE2FD7B24DF103504B0304140006080800B670623B1B8617914E0100003303000030000000666278
310
2F42384135303843342D343331462D343546312D424341352D3532343432364645413344462F636E782E786D6CD593C16EC32010447F0571AD6CE3D489D20813A9877E410FBD62D82434182CC055F3F75D1292E692438FBD206B7698593D61BEFD1E2DF982108D773D6D6B460938E5B571FB9ECE6957AD29D90A1EBC4F7736
310
4A9C1CA1A759A682EF839FA72269D8C9D92654AD71C72206887E0E0A22CAF926B15E498B01E0AA19451807D01A34B919F16B070157417138917400F2F6FA41FCF0092A45DEE414C19BDC21783E4BD39D891265658C3D8DEA00A3ACE59CBC8678ACB54CB26EEB6BD7839D7E9348BE70AD9C8321B9BCA7F9A4A26C542347DEE0
310
50F09802D22BA6749A800A394DD62899107273365E3C82CFC6A55557BC06C10774B7ABE7AEC3B0F34CF06446280E154026D0542C187BA9DAB6628BF7B6DBB0E5A65B3EB1F58631DE64BBE083F7B65CC218087E22CABB042E51D1F2268F1FE12B3EA24D40D63E9CFE00120194D60B9D5BC67FE6D39CDF37E20AF817881F504B
310
0304140006080800B670623BBFEF2E3B690500003C100000340000006662782F42384135303843342D343331462D343546312D424341352D3532343432364645413344462F6F626A656374732E786D6CAD575D739B3814FD2B0CFB0C98D84E931D4227B6938EA793B6534F3BFB90198F0099B001899144EAECAFDF231018B0
310
D37A3FFC609090EEE7B94757C1FB7D915B2F54C88CB31BDB7727B64559CC938CA53776A576CE956DBD0F03C1B9EA2DB32D460A7A63EB693B0C52C1ABD24C257447AA5C8D66EF177F5832A68CDA569C13296F6C193FD182B8A4523CA1F2D94D88226EBADBBBBEDB2C1C8A4D05299F46424B222853B014F30C52ACC6287F389C
310
D85E1878FA7B18E87FB36AFAF62AAFF667A83F635211161F291B8999FAB3D5DDC5FCDA99CF6653677679E13B8BFBC5CAF1DF4D27CBCBE5F2FAF6EE1A8AA51290642C117467871F101B91C581D77CEA2C36869F3229E68CD1B8F61F1ED6361B89092D294B90C78C4A68EB793D190E7D1D9BDEE7A91E1B95FDE9F3BCEAEFE809
310
6A6D6F9F7D4B79F4275C90E7A04248AA51D5C4C738DAE06F72885AC4796EBE65D22A88A22223B995679120E2D50EB1542F098381188D4EA111AE3DB043FF20AF6F2B4AE3D7D83D65E5AECA730D4D3BAC91BD05FEA992B565D95F549CD6069B90AB2A63EACA38A45E4B6A87D781574F86817E4C2FCCC72690D62E2729520E37
310
9BAF234797BAF6D62B3BFC781FED37BA1E4F2B2F052FA9501A3E80569BB8F6A9A364D4FA67654E6F803383981F82F21591FF84F23D9882BC896C3FDBCF8C162508933B2E0AE4C69DD43F6BD2BE38DDDBF10BF86CB4FA784D37F3AF16075E67EC9030DECA1FC0A55373F5DFF3378C591FA9BDF485C10B0A8C8BA909E5262639
310
A8E72163488806A595734C81CB77D1DE0ED7604A303B76913CEC0272F412782FF88EFF4636D8AA56DF7B322474C4B767303F625997056C7B032C473C592B36CEBD15F3F9FF5233B7ABCDC74D257624A60F8658567497B14CE1EC3C80B76FD02011038F9EE9EB0F2E12387A9C844D3F09855125116D1D731DF8B43D2CF4E0A0
310
79A020C6BE946BCE0B7EA1E1219331CD73C228AF5A2DDD31A4B1DA918CE91350854D40A71723140BFA92E94E62B0626016CEFA5864A50E5977E8753CEDBEE1CBB7F52780D20E17AF0BA0F5F9B02A3AD07DCC732EB6D1EBB661421BE0C39E21BABF0FE16D22EA6929407C8DE596724C88B749B6DB5512BC7B228ADFD7CB7EA6
310
3A22397E690BA8D5D8D4E40CEC8CDA23C2C0B7D5898640101CEC9C6D331CE328CB93CAFBBAC70A642DF70DF95155945B52F08AA973C23469FD69ADEF84F7BB18F983A8F8C90E37F5D35980B2139A1C523540813E824EF83448CF7C72B598CE97D7CEEDDDDD3B6736BFBC771677EF66CE6A7E7139F7A793E9EDF2B2B3A8B624
310
0CDA13AA5F8388264EC4A0129909F3B7F5A16CEDF08128E97D680ACA4B9BE7B7B58BB638F0B00700EF36AE8B32A705658A68F83EE897FC2B41573190D1CCAF0B92D233A47CFEB019D9809933F67DD1A5467F8CF69AD9A5AE859342D45355448C64F968A371DC2D596ADC6E43D93D1B466F877A64E2893E54F23C4B40388995
310
525E5005DA3983ED45412510D3EFCA13737B3863F74BD30F2A12E5B4B5E489A025CE25500DB855B11ACE5BBFA185D35DD48D8DC3CE7DC69F2944DB42AA6F6CF09BCA622ADD08C7A36E7C6AE18000BAB08E040135C2D21C9D75B3A91B77BB746C403F38018DFE6EC939DD92F16B40BC05294B9CDA035AAD6D330AE27FE4786B
310
8E45145EA34A75BE1C263A676A35A8ACC6297337400BF16C54EF515F3F77CB77EB3583889C754FFA29081AA98E2222ADEF05DA3E63D2EDEA8B8756C05A7FB6CABC4A91CBF325398202CC952E70A008A830324BA200D5E5EF8F5F04C75DB4B0EE3340E071C98B823333B83577596BF3849B69F2085AA0FAFA212F26BEFF5877
310
FDE622B28D88A42E49E43326DA82D31E8CB006401E1DA726059ECEC168F97A6599036306A135688F9AD2E61A6EA178F4CD51974A9F2CCB9F36FE5EBD14601068D9C3BF01504B0304140006080000B670623B000000000000000000000000350000006662782F42384135303843342D343331462D343546312D424341352D35
310
32343432364645413344462F76657274696365732E62696E504B0304140006080800B670623BF270F1330600000004000000360000006662782F42384135303843342D343331462D343546312D424341352D3532343432364645413344462F747269616E676C65732E62696E636660600000504B0304140006080000B67062
310
3B000000000000000000000000370000006662782F42384135303843342D343331462D343546312D424341352D3532343432364645413344462F617474726962757465732E62696E504B0304140006080800B670623B08DA0BD19000000041010000360000006662782F42384135303843342D343331462D343546312D4243
310
41352D3532343432364645413344462F6469726563746F72792E786D6C858F410AC3201045AF22B36F53E9A60B35CBEEBAE80D244E44489C6234F4F835464A48035D0DF398FF9F8AF63D0E6CC63039F212F8F9020C7D47C6792B21C5FE7403D62A1188E2E60C98D7234A5830286103A55745067B9D86B8A3CF9C7F90C11DE6
310
07FB144396D7B6A82D282E9A152AD114D5EF2CB866EEE831B8EEA07A7BB5A8D7D61A2BAAEB7FD5F70921FF497D00504B0304140006080800B670623B3B4606F3FE000000A00100003B0000006662782F42384135303843342D343331462D343546312D424341352D3532343432364645413344462F7265736F75726365732F
310
636F72652E786D6C8D504B6E833010BD0A9A6D65B08134808CA354A427E8052C332156828DFCA97AFC9A40A576D7CDCCE87D344F8F9FBEE647F689CE6B6B7A6039850C8DB2A336530F315C4903D94970676DF82583CCC8197B5861107C72362E3BA4AC096842428D1D7107A5F71820538F74F4E0D50D6799CB1892C2DFF345
310
AABB9C306779A2934E701F5C0A906D4FD609C2A1B7D129F4BCD858C163D4E3AED163FAA9AF1A1D88F67CA98E6D35906AA82A52BFB39ABCD5CD915C86331BD86BD3B665CD8BD52C78D0F34F46E550061C419494B6843142CB0F5677F4D0D58717DA7494F26295FF31C565FCA7296A13AA728FBBD93C0896823C09C18BB5AFB4
310
9E65A6BD762BBE01504B010214000A0000080000B670623B3DEE336E79000000790000001B00000000000000000000000000000000006175746F6465736B2D64657369676E2D7061636B6167652E786D6C504B01021400140006080800B670623BD486FD9CA0000000F40000001300000000000000000000000000B2000000
310
5B436F6E74656E745F54797065735D2E786D6C504B01021400140006080800B670623B28ED286BEB0000007C010000080000000000000000000000000083010000636F72652E786D6C504B01021400140006080800B670623B55019EA25F0000007C000000070000000000000000000000000094020000636E782E786D6C50
310
4B01021400140006080800B670623B7BC41AC871010000D40300000C00000000000000000000000000180300006662782F636F72652E786D6C504B01021400140006080800B670623B70102A487D0000009D0000000B00000000000000000000000000B30400006662782F636E782E786D6C504B01021400140006080800B6
310
70623B3610CA3329010000120200003100000000000000000000000000590500006662782F42384135303843342D343331462D343546312D424341352D3532343432364645413344462F636F72652E786D6C504B01021400140006080800B670623B1B8617914E010000330300003000000000000000000000000000D10600
310
006662782F42384135303843342D343331462D343546312D424341352D3532343432364645413344462F636E782E786D6C504B01021400140006080800B670623BBFEF2E3B690500003C10000034000000000000000000000000006D0800006662782F42384135303843342D343331462D343546312D424341352D35323434
310
32364645413344462F6F626A656374732E786D6C504B01021400140006080000B670623B0000000000000000000000003500000000000000000000000000280E00006662782F42384135303843342D343331462D343546312D424341352D3532343432364645413344462F76657274696365732E62696E504B010214001400
310
06080800B670623BF270F133060000000400000036000000000000000000000000007B0E00006662782F42384135303843342D343331462D343546312D424341352D3532343432364645413344462F747269616E676C65732E62696E504B01021400140006080000B670623B00000000000000000000000037000000000000
310
00000000000000D50E00006662782F42384135303843342D343331462D343546312D424341352D3532343432364645413344462F617474726962757465732E62696E504B01021400140006080800B670623B08DA0BD1900000004101000036000000000000000000000000002A0F00006662782F42384135303843342D3433
310
31462D343546312D424341352D3532343432364645413344462F6469726563746F72792E786D6C504B01021400140006080800B670623B3B4606F3FE000000A00100003B000000000000000000000000000E1000006662782F42384135303843342D343331462D343546312D424341352D3532343432364645413344462F72
310
65736F75726365732F636F72652E786D6C504B0506000000000E000E0080040000651100000000
  0
XRECORD
  5
187
102
{ACAD_REACTORS
330
186
102
}
330
186
100
AcDbXrecord
280
     1
 70
     1
 90
429727718
  1
887D55A9-D0DD-414E-B741-A7DCD4DA2B4C
310
504B03040A0000080000B670623B3DEE336E79000000790000001B0000006175746F6465736B2D64657369676E2D7061636B6167652E786D6C3C3F786D6C2076657273696F6E3D22312E302220656E636F64696E673D227574662D3822203F3E3C666F726D6174733E3C666F726D61743E687474703A2F2F736368656D612E
310
6175746F6465736B2E636F6D2F64657369676E2D7061636B6167652F323030393C2F666F726D61743E3C2F666F726D6174733E504B0304140006080800B670623BD486FD9CA0000000F4000000130000005B436F6E74656E745F54797065735D2E786D6C7D8EC10E82300C865F65E91D8A1E8C310C0EEA1BF002731658846E
310
D98AC1B77784ABF1D8FE5FBFBF75BBCE937A534CCEB38643598122B6FEE978D0B0485F9C41B54DDD7D022595594E1A469170414C76A4D9A4D207E29CF43ECE46F218070CC6BECC4078ACAA135ACF422C856C0E68EA1BF5669944DDD7BCDE7B1F8E415D77AECB980613C2E4AC91FC167A2B244592486606FC29C8FD7F045B9A
310
EF7053A7E60B504B0304140006080800B670623BBC1638F5EC0000007C01000008000000636F72652E786D6C8D90416EC3201045AF82665B61836BE2D8C24471DB9CA01740401C94182C03558F5F9C3852BBEB6A467FFE9B197D7EF89E6EE8CB2CC17AD7032D0820E394D7D68D3DA478C67B4007C117EFE32F1B202727D3C3
310
2A83E0E3E2D3BC49CABB685CCCAAF3DA6CA20CC14440EA969B1E82BA98491632C5EC08D76296EA2A4753D06797E194AC468F2356E77DF66CCD02825543D50CACC62D39ED70FDC68EB8FD68F6F8787A6784342D1DDA1D2F5758F068A7E77DB518198D065111D2624A31A93E69DD11D6D5EC85EC3B4278B9DAFF4069D6FF8492
310
75F1B5DADE7D600104CD8FDC0782976B16B9DC83CA75CD4DFC00504B0304140006080800B670623B55019EA25F0000007C00000007000000636E782E786D6C4DCB3B0E80201045D1AD90E915ED2CF8AC45050C11660C8261F98AB1B07AC9C97D42D718D865D3E909258CFD00CCE24AC6E326A164D74DC0B4128928FF326038
310
472BA13128B1252AC747C6BAB984FC68F0B87FE8960A5C09FE86CFB69FBA01504B0304140006080800B670623B3586FFB671010000D40300000C0000006662782F636F72652E786D6CC553ED6E8320147D15C2DF4541A76D6D90A6DDD627D80B50A4CE54C120983EFEAE1F4DD7A55BBA5FF3879273EEE59E7310B6393735EA
310
95ED2AA3731C851423A5A5292A5DE6D8BB63B0C268C39935C67D29C3488B46E578803167A535BE9D2169B453DA01AA4DA16650749D7218C91A1639EEE4876A4428BC838AEE14B6429E44A9C228041AEA38EB9C0501681A32BC313F1ECE8C4C3867DE57C5CC56054CAB8E95B298A7F12E5EEED224C8E87E11242FE936C8DE96
310
AB60BB7F4D295D66D12E5B30323473E6AAE6A24E5A259C2A308F29CD82280A68FC1E256B9AAE93F489AED694323294DF34F9B678B0C957DA3DC7B3DCA9ADC33C022123F1CD2D44E450277AD04338234388F01913BE0D1A0281909D38D4171F27807A259DB1093085F157AA17B557309586747CD0CF0B46A64E983A6E0EAEEF
310
CE881F9EF1FB8E70D44297604238581EBC1B74B249C31C5AAB6CD0BB33D2C636A27ECCC62F0EFF445DC5DF95244D6DEC7F2922F30191F9F720C37DE49F504B0304140006080800B670623B4220A0FF7D0000009D0000000B0000006662782F636E782E786D6C4DCCD10A83201886E15B91FFDCE542CB0335D0EC3E6259C84A
310
C3E9D8E5AF46073BFAE0E1E315DD675BD1DBA5978F41C2FD4600B9F088930F8B849267CC01754AA418F3DF0D50183727E164506249B1EC174D6E1ECB9A0F5D7D785E68DB8151CD286E5A5363CA6B8A39E90D36D40E96B086F55A43A544F52B1D7B86D517504B0304140006080800B670623B2FA3FEDE290100001202000031
310
0000006662782F45374635344235342D363743322D343832342D383044432D4334454645303536354442422F636F72652E786D6C8D515B6EC32010BC0AE22B55850D2E386E848994D7097A0117488A1283C5A3CAF10BB523B57FF961D1ECCCECC0F2ED7DBC816FED8371B687A4C210682B9D32F6D2C314CFA883602BB8772E
310
FEA141608751F7B0C050F08B77695A20E96CD43666D43AA5177008414708E42D5F7A18E4971E876A483133C2B59A06791D2EBA22556E679EE021FA1C00CC43CA09C5717D6274C7286AD7FB06D1AEA1A8C3873DDAD3E3E98859CB0EBB1DAF67A1E02919B5C88DCA71CCD968FFAC49110B1ECDF8882FBD1EA256503418BF2342
310
106E3E08DD60B6A1EC15771B8C795DE8FF4469524F8A92B1F1AD59E2CEB20005E1F5DC105CB9F4797B84D1F7C9F908CABC55D0F2050A5C61CC1AD2F27A26E6E767C7962E8E213A9FBF7775FDCC5CC266DB960A5E970DE5F2BBBE5CCB36C50F504B0304140006080800B670623B1B8617914E01000033030000300000006662
310
782F45374635344235342D363743322D343832342D383044432D4334454645303536354442422F636E782E786D6CD593C16EC32010447F0571AD6CE3D489D20813A9877E410FBD62D82434182CC055F3F75D1292E692438FBD206B7698593D61BEFD1E2DF982108D773D6D6B460938E5B571FB9ECE6957AD29D90A1EBC4F77
310
364A9C1CA1A759A682EF839FA72269D8C9D92654AD71C72206887E0E0A22CAF926B15E498B01E0AA19451807D01A34B919F16B070157417138917400F2F6FA41FCF0092A45DEE414C19BDC21783E4BD39D891265658C3D8DEA00A3ACE59CBC8678ACB54CB26EEB6BD7839D7E9348BE70AD9C8321B9BCA7F9A4A26C542347DE
310
E050F09802D22BA6749A800A394DD62899107273365E3C82CFC6A55557BC06C10774B7ABE7AEC3B0F34CF06446280E154026D0542C187BA9DAB6628BF7B6DBB0E5A65B3EB1F58631DE64BBE083F7B65CC218087E22CABB042E51D1F2268F1FE12B3EA24D40D63E9CFE00120194D60B9D5BC67FE6D39CDF37E20AF817881F50
310
4B0304140006080800B670623B29652116630500003C100000340000006662782F45374635344235342D363743322D343832342D383044432D4334454645303536354442422F6F626A656374732E786D6CAD575D739B3814FD2B0CFB0C989834C90EA1639B24E3E9A6EDD4D3CE3E64C623834CD8006224913AFDF57B040203
310
B65BEF871F0C12D2FD3CF7E8CA7FBFCB33E3957291B2E2D674ED8969D02262715A24B76625B7D6B569BC0F7CCE98EC2D338D82E4F4D654D366E0279C55A59E8AE99654991CCDDECFFF3444440B6A1A514684B83545F44C7362934AB2988A173B2692D8C97667BB76B3702836E1A47C1E092D09A78584A5982F20C5688C7287
310
C389E904BEA3BE07BEFAD7ABA6A75739B53F43FD69212429A20365233153D70BEF2E2E6FAC4BCF9B5ADEBB0BD79ADFCF43CBBD9A4E16EF168B9BD9DD0D140BC921495BC2E9D60C1E101B9E46BED37CEA2CD6861F3329624541A3DA7F7858DBAC25C6B4A4458C3CA654405BCFEBC970E8AAD8F43E4FD558ABEC4F9FE7557F47
310
4F506B7BFBEC5BCA367FC105710E2AB8A00A554D7CB4A30DFE26FBA86D18CBF4B75418399194A72433B274C3097F33032C554B027F2046A1932B842B0FCCC0DDCBEBDB8AD2F835768F59B9ADB24C41D30C6A64AF817F2A456D59FA83F2E3DA60137255A585BCD60EC9B7929AC18DEFD49381AF1ED30BFDB109A4B1CD488294
310
C3CDE6EBC8D185AABD6568061FEE37BB95AAC7E3CA4BCE4ACAA5820FA0D526AE7DAA2869B5EE5999531BE0CC20E6FBA07C41E43FA27CF7A6206F3CDD793B4F6B919C1462CB788EDCD893FA674CDA17AB7B3B7C019F8D561FAEE966FED562DFE98C1D12C6A9FC015C2A35D7FF3D7FC398F591DA4B5FE0BFA2C0189FEA50AE22
310
92817A1ED3020951A03432862970F976B33383259812CC8E5D240BBA801CBCF8CE2BBEE3BF910DB6AAD5F79E05123AE2DB33981FB1ACCB02B69D00CB014FD68AB573A7627EF9BFD4CC2C5C7D58557C4B22FAA88925A4DBB44825CECE3D78FB060D1231F0E885BE7D673C86A3874958F593906B5502D1563157814FDAC3420D
310
F69A070A22EC4B98E23CFF171A1E5311D12C23056555ABA53B8614563B92D17D02AAB009E8F46284624E5F53D5490C560CCCC2591FF1B45421EB0EBD8EA7ED13BE7C5D7E0428CD60FEF60779EB13E6664FF711CB185F6FDED60D139A001FF60CD1FD6D086F1D51474901E26B2CB794A343BC8ED3EDB612E0DD2351FCB65CF4
310
33D511C9E14B5B40ADC6A6263DB0336A8F700DDF56271A024E70B0B3629DE21847591E55DED73D56206AB927E46FAABC5C939C55853C274C93D69FD6FA4E78BF8B11DF898C9ECD60553FAD39283BA6F18984AA23E8884F83F45C5F5F859797B31B2B9C84A1E5B9DE9D35BFF25C6B76152E422F9C5DCC3D847F5801ED09D5AF
310
41441327A25FF15487F9EB725FB666F048A4701E9A827292E6F97569A32DF61DEC01C0BB8DCBBCCC684E0B49147C1FD54BF685A0AB18C868E6973949E819523E3DAC463660E68C7D9F55A9D1EFA3BD7A76A16AE1A810F95CE59B82A4D968A376DC2E8B44BBDD86B27B368CDE0ED548C7137DA860591A83706223A12CA712B4
310
7306DBF39C0A20A6DF95C7FAF670C6EED7A61F946493D1D6926782963813403548A78AE470DEF80D2D9CEAA26E4D1C76F60BFE74219A06527D6B82DF641A51616F703CAAC6A7160E08A00BEB4810A0274592A1B36E3675E36E978A0DE80727A0D6DF2D39A75BD27E0D8837276589537B40ABB56D5A41F48F1C6FCD3188C4EB
310
A6929D2FFB89CE995A4D00AE813BDD032DC48B56BD437DFDDC2DD7AED70C2272D63DE9A72068A45A92F0A4BE17A8A06B9366E16707AD80B1FC649459952097E74BB23805982B55E0401150A165964402AA8BDF9F3E7386BB686EDCA780C0D382E5392BF460A6EFB2C6EA1937D3F809B440D5F5435C4C5CF7A9EEFAF54564BD
310
2182DA24162F98680B4E7930C21A0079709CEAEB99A372305ABE0C0D7D6078105A83F6A0296DAEE1068A47DD1C55A9F4C9B2FC69E3EFD44B81028E963DF81B504B0304140006080000B670623B000000000000000000000000350000006662782F45374635344235342D363743322D343832342D383044432D433445464530
310
3536354442422F76657274696365732E62696E504B0304140006080800B670623BF270F1330600000004000000360000006662782F45374635344235342D363743322D343832342D383044432D4334454645303536354442422F747269616E676C65732E62696E636660600000504B0304140006080000B670623B00000000
310
0000000000000000370000006662782F45374635344235342D363743322D343832342D383044432D4334454645303536354442422F617474726962757465732E62696E504B0304140006080800B670623B08DA0BD19000000041010000360000006662782F45374635344235342D363743322D343832342D383044432D4334
310
454645303536354442422F6469726563746F72792E786D6C858F410AC3201045AF22B36F53E9A60B35CBEEBAE80D244E44489C6234F4F835464A48035D0DF398FF9F8AF63D0E6CC63039F212F8F9020C7D47C6792B21C5FE7403D62A1188E2E60C98D7234A5830286103A55745067B9D86B8A3CF9C7F90C11DE607FB144396
310
D7B6A82D282E9A152AD114D5EF2CB866EEE831B8EEA07A7BB5A8D7D61A2BAAEB7FD5F70921FF497D00504B0304140006080800B670623B6378F24DFF000000A00100003B0000006662782F45374635344235342D363743322D343832342D383044432D4334454645303536354442422F7265736F75726365732F636F72652E
310
786D6C8D504B6E833010BD0A9A6D65B0094E42641C85B639412F6099496225D8C89FAAC7AF09546A77DDCC8CDE47F3F4C4F16B7C149FE88371B603565228D06A37187BED20C50BD9437194C23B177FC9A0B06AC40E6618A4B87A97A615D2CE46B431A3D60DB8822A048C50E8473E3A08FA86A32A558A5911EEE5A4F45D5DB1
310
6465A6B34E8A107D0E502C4FE609D26370C96B0CA25A58295232C3AA3143FE692E063D485EF7F5AEE71BD2D2F39634AFFC44DAF7DD9E9CCE6F9CD25DCBFA762BAAD92C4534E34F46ED51451C40D694B6843142EB0FD61C283F34FC85EE0F948A6A96FF31A569F8A729191B37F51A77B105902C0779125254735F793DCBCC7B
310
EE567E03504B010214000A0000080000B670623B3DEE336E79000000790000001B00000000000000000000000000000000006175746F6465736B2D64657369676E2D7061636B6167652E786D6C504B01021400140006080800B670623BD486FD9CA0000000F40000001300000000000000000000000000B20000005B436F6E
310
74656E745F54797065735D2E786D6C504B01021400140006080800B670623BBC1638F5EC0000007C010000080000000000000000000000000083010000636F72652E786D6C504B01021400140006080800B670623B55019EA25F0000007C000000070000000000000000000000000095020000636E782E786D6C504B010214
310
00140006080800B670623B3586FFB671010000D40300000C00000000000000000000000000190300006662782F636F72652E786D6C504B01021400140006080800B670623B4220A0FF7D0000009D0000000B00000000000000000000000000B40400006662782F636E782E786D6C504B01021400140006080800B670623B2F
310
A3FEDE290100001202000031000000000000000000000000005A0500006662782F45374635344235342D363743322D343832342D383044432D4334454645303536354442422F636F72652E786D6C504B01021400140006080800B670623B1B8617914E010000330300003000000000000000000000000000D2060000666278
310
2F45374635344235342D363743322D343832342D383044432D4334454645303536354442422F636E782E786D6C504B01021400140006080800B670623B29652116630500003C10000034000000000000000000000000006E0800006662782F45374635344235342D363743322D343832342D383044432D4334454645303536
310
354442422F6F626A656374732E786D6C504B01021400140006080000B670623B0000000000000000000000003500000000000000000000000000230E00006662782F45374635344235342D363743322D343832342D383044432D4334454645303536354442422F76657274696365732E62696E504B01021400140006080800
310
B670623BF270F13306000000040000003600000000000000000000000000760E00006662782F45374635344235342D363743322D343832342D383044432D4334454645303536354442422F747269616E676C65732E62696E504B01021400140006080000B670623B0000000000000000000000003700000000000000000000
310
000000D00E00006662782F45374635344235342D363743322D343832342D383044432D4334454645303536354442422F617474726962757465732E62696E504B01021400140006080800B670623B08DA0BD190000000410100003600000000000000000000000000250F00006662782F45374635344235342D363743322D34
310
3832342D383044432D4334454645303536354442422F6469726563746F72792E786D6C504B01021400140006080800B670623B6378F24DFF000000A00100003B00000000000000000000000000091000006662782F45374635344235342D363743322D343832342D383044432D4334454645303536354442422F7265736F75
310
726365732F636F72652E786D6C504B0506000000000E000E0080040000611100000000
  0
XRECORD
  5
112
102
{ACAD_REACTORS
330
110
102
}
330
110
100
AcDbXrecord
280
     1
270
     1
271
     1
  0
XRECORD
  5
111
102
{ACAD_REACTORS
330
110
102
}
330
110
100
AcDbXrecord
280
     1
270
     1
271
     1
  0
XRECORD
  5
18A
102
{ACAD_REACTORS
330
110
102
}
330
110
100
AcDbXrecord
280
     1
 70
     0
 90
1778669749
  1
9BF507EE-FAF7-4A99-A33D-4EE51894BC40
310
504B03040A0000080000B670623B3DEE336E79000000790000001B0000006175746F6465736B2D64657369676E2D7061636B6167652E786D6C3C3F786D6C2076657273696F6E3D22312E302220656E636F64696E673D227574662D3822203F3E3C666F726D6174733E3C666F726D61743E687474703A2F2F736368656D612E
310
6175746F6465736B2E636F6D2F64657369676E2D7061636B6167652F323030393C2F666F726D61743E3C2F666F726D6174733E504B0304140006080800B670623BD486FD9CA0000000F4000000130000005B436F6E74656E745F54797065735D2E786D6C7D8EC10E82300C865F65E91D8A1E8C310C0EEA1BF002731658846E
310
D98AC1B77784ABF1D8FE5FBFBF75BBCE937A534CCEB38643598122B6FEE978D0B0485F9C41B54DDD7D022595594E1A469170414C76A4D9A4D207E29CF43ECE46F218070CC6BECC4078ACAA135ACF422C856C0E68EA1BF5669944DDD7BCDE7B1F8E415D77AECB980613C2E4AC91FC167A2B244592486606FC29C8FD7F045B9A
310
EF7053A7E60B504B0304140006080800B670623BCA089DFFEC0000007C01000008000000636F72652E786D6C8D90416E83301045AF62CDB632D8402020E32882F604BD80653BC44AB011B6AB1EBF262152BBEB6A467FFE9B197D76FA9EEFE84BAFDE38DB03CD08206DA553C64E3DC470C1474027CE56E7C22F1B202B66DDC3
310
260367D3EAE2B24BD2D9A06D48AA754AEFA2F05E0740F29E9A1EBCBCEA59642286E4F0B76C11F226269DD15797E0188D42CF2346A57DE662F40ABCAEC77628C6120F654571D50C04B7F5B9C1E3997CD4F550BE3745C3F20DE62C98F9755FAE5A04AD801784B498524C8A4F5A75E4D055873772EC0861F966FF03C545FD138A
310
C686B2D8DF7D621E384D8F3C069CE55B16A93C824A75CB8DFF00504B0304140006080800B670623B55019EA25F0000007C00000007000000636E782E786D6C4DCB3B0E80201045D1AD90E915ED2CF8AC45050C11660C8261F98AB1B07AC9C97D42D718D865D3E909258CFD00CCE24AC6E326A164D74DC0B4128928FF326038
310
472BA13128B1252AC747C6BAB984FC68F0B87FE8960A5C09FE86CFB69FBA01504B0304140006080800B670623B68FC0B7272010000D40300000C0000006662782F636F72652E786D6CC5535B6E833010BC8AE5DF0A6C1E8124328E22D29EA01770C0A128602363A31CBFCB234A53A555FA553EC09AD9F5CE8C31DB5DDA060D
310
D2F4B556190E7C8A9154852E6B5565D8D993B7C668C799D1DA7E29C3488956667884316795D1AE5BA0422B2B950554E9522EA0E87B69312A1A5864B82F3E642B7CE12C54F467BF13C55954D20F7CA0A18EB3DE1A1080E621E31BF3D3F1C2C88C73E65C5D2E6C5DC2B4FA544B8379921C36797888BC3C8A032F4E73EA6D927D
310
EA1DF6F42D49F2E8350D5346C666CE6CDD5ED515460A2B4BCC434A375E1078347C0FE22D5D6DE3D50B5D6F2965642CBF6B725DF96493AB958DC245EEDCD6631E809089F8E61622B2A81703E8219C913144F84C09DF070D8140C8561C9BAB8F3340832CAC363130A576376A108D933095FA747AD0CF0B46E64E983A6D0EAE1F
310
CE089F9EF1FB8E70D44255604258581E9D1D75B259C3125A278D37D80B52DAB4A279CEC62F0EFF44DDC43F9454E8469BFF5244960322CBEF41C6FBC83F01504B0304140006080800B670623B0F71DDB67E0000009D0000000B0000006662782F636E782E786D6C4DCCD10A83201886E15B91FFDCA54DB73F502386BB8F5816
310
32D3703976F9ABD1C18E3E78F87855FB990379BBFCF2296AE02706C4C5471A7C9C349475A408A4352AA7B4FEDD80C47E761A7606A3A69CCA72D0E0C6BE8475D3E0E3F3409428EA6B27A84079A782899AA2EC1A7AE3ECCC2FD858CB2D544655BFD2B67BD87C01504B0304140006080800B670623BE134B4FB28010000120200
310
00310000006662782F38353834323741342D343835462D343034322D383541392D4331303331363839454531452F636F72652E786D6C8D515B6EC32010BC0AE22B55850D0EA424C24451959EA0172086A42831583CAA1CBF503B52FB971F16CDCECC0EACD8DFC71BF836215AEF7A481A0C817183D7D65D7A98D3197108F652
310
04EFD31F1A044E8DA6871586525C82CFD3020DDE25E352419DD76601558C264130DCCAA58771F832A36A544E8511AFCDA486ABBA988634A55D7852C4144A00300FA927949C71DABD1D28A29C7D208A6987383B6CD13BC16BB2E1DBE3911C453B0BA5C8D9EA456E758963CFD684674DAA588A64C747FC2118958C86B2C3788B
310
0841B8FB247487D98EB257CC77188BB6D2FF89F2A49F1465EBD2BA5BE2CEB2082511EDDC9042FB7CBA3DC298FBE4430275DE2A9AE1054ADC60CC08E3A29D89E5F9C5714317C7987C28DFBBBA9E0A97B0D97643A568EB864AF95D5FA9759BF207504B0304140006080800B670623B1B8617914E010000330300003000000066
310
62782F38353834323741342D343835462D343034322D383541392D4331303331363839454531452F636E782E786D6CD593C16EC32010447F0571AD6CE3D489D20813A9877E410FBD62D82434182CC055F3F75D1292E692438FBD206B7698593D61BEFD1E2DF982108D773D6D6B460938E5B571FB9ECE6957AD29D90A1EBC4F
310
77364A9C1CA1A759A682EF839FA72269D8C9D92654AD71C72206887E0E0A22CAF926B15E498B01E0AA19451807D01A34B919F16B070157417138917400F2F6FA41FCF0092A45DEE414C19BDC21783E4BD39D891265658C3D8DEA00A3ACE59CBC8678ACB54CB26EEB6BD7839D7E9348BE70AD9C8321B9BCA7F9A4A26C542347
310
DEE050F09802D22BA6749A800A394DD62899107273365E3C82CFC6A55557BC06C10774B7ABE7AEC3B0F34CF06446280E154026D0542C187BA9DAB6628BF7B6DBB0E5A65B3EB1F58631DE64BBE083F7B65CC218087E22CABB042E51D1F2268F1FE12B3EA24D40D63E9CFE00120194D60B9D5BC67FE6D39CDF37E20AF817881F
310
504B0304140006080800B670623B5933D422630500003B100000340000006662782F38353834323741342D343835462D343034322D383541392D4331303331363839454531452F6F626A656374732E786D6CAD575B6FA33814FE2B887D0642934E9B156594264D158D3A534DD4D13E548A0C38942D60649B4EBABF7E3F8321
310
40924EF6928780CDF1B97EE762EFF32E4B8D37CA45C2F21BD3B547A641F39045491EDF98A5DC5AD7A6F1D9F73863B243661A39C9E88DA9B64DDF8B392B0BBD15D12D295339D85DDEFE618890E6D434C2940871638AF08566C426A5641115AF764424B1E3EDCE76ED9AB0CF36E6A47819302D08A7B984A6D8CFC1C5A89572FB
310
CB91E9F89EA3BEFB9EFAD754E3D3544E654F5F7E920B49F2F040D880CDD89D2CEE2E2EA7D6E56432B6269F2E5CEB7679BBB0DCABF168FE693E9FCEEEA6102C240727AD09A75BD3BF876F78127A4EFDA9D5582B7E4CA590E5390D2BFB6161A5B3E618D182E611E2985001691DAB47FDA5AB7CD3F93C566B2DB2BB7D9E55DD13
310
1D468DEECDB3AB290BFE8409E21C54704115AA6AFF68436BFC8DF65E0B184BF5B74418199194272435D224E084BF9B3E481589EFF5D828747285706581E9BB7B7E5D5D911ABFC6EE312DB7659A2A689A7E85EC0DF04FA5A8344BFEA2FCB834E8845895492EAFB541F2BDA0A63FF59C6AD3F7D4637CA13FD68E34B629891172
310
98597F1D183A57B9B75A98FE9765B05BAB7C3C2EBCE0ACA05C2AF8005A4DE09AA7F29216EB9E15397500C6F47CBE77CA7778FE2BD277AF0AE2C693DD6437D1522427B9D8329E2136F6A8FA19A3E6C56ADF0E5F50CF06D48734EDCEBF22F69C56D97EC138153F804B85E6FABFC7AFEFB32E523BE1F3BD372418E363EDCA7548
310
52949E8724474014288D94610BB57C1BEC4C7F854A89CA8E5324F55B871CBC78CE1BBEE3BFE68D6A5589EF3C730474506FCFA8FCF0659516D0ED04580EEA6425581B77CAE797FF4BCECC16EB2FEB926F49481F746159D06D922712BD730FDEAE42BD40F42C7AA5EF3F198F60E86110D6DD20645A9480B795CF95E3E3A659A8
310
C55E724F408873315335CFFB8584874484344D494E59D94869DB90C26A5B64F49C802CAC1D3ABE18A098D3B7444D123D8A9E5AE8F5214F0AE5B2B6E9B575DA3E61CBD3EA2B4009FA940524DD1305FB6A1FB294F14DF0BEA90BA109ECE1481FDC3FFAE8D60E75141700BE82725371B4873751B2DD960265F788137FACE6DD40
310
B575E4F0A5C99F46629D92131467A41EE11ABD8D4CCC039CA0AFB37C93A08B232B8F0AEFCA1E0A1015DF13FC83322B362463652ECF71D3A8B1A7D1BE65DE1D62C44F22C317D35F574FEB16153BA2D13E543D10A80E74C4A65E78A6B7CBCBD1D5DD9DB59C2DAFACC96C3AB566E3F1C29ADCDD5DBAD7D3C9ED7C822ED74F80A6
310
41755310DE4443F44A9E68373FADF6596BFA0F440AE7BECE2727AE9F4F2B1B53B1E7E00CF0DD1E5C65454A339A4BA2D0FBA05ED2EF0443458F47BDBFCA484CCFE0F2ED7E3DD0013B679C7B5499467F0ECEEADDB9CA85A34CE44B99053949D2C1416DB85DE4B136BB7165FBAC0B7AB3542BED4F8CA182A549847A1319316519
310
95A83A67147B9E5101C47487F2485F1ECE38FD568F839204296D3479219888530154036E6528FBFBC66F98E0D4107563A2D7D9AFF8D389681A08F58D89F22693900A3B407754734FC51C10C010D6D640809EE4718AC1BA3ED4AEDB53CA37283F68805A7E4B72CEB0A4EDEAD5DD8C14059A76AFAA56BA6901E13F32BC51C720
310
12AF41295B5BF61BAD3195181FB506E6B40F4C10AF5AF40EF9F5B159AE5DD1F43C72D635E94310D45C2D49785C5D0B94D3B54AB3C5A38349C0587D338AB48C11CBF339599C02CCA54A70A008A8D03C0B2201D5F9EFCF8F9CE12A9A19CB0410789EB32C63B95ECCF455D658BFE0621A3DA32C5075FB101723D77DAE867E7D0F
310
D90444509B44E2151B4DC2290B065803200FBAA9BE9D392A0603F2D5C2D00D6302A615680F66D2FA166E2079D4C551A54AB758161FCEFD4E450A14704CECFEDF504B0304140006080000B670623B000000000000000000000000350000006662782F38353834323741342D343835462D343034322D383541392D4331303331
310
363839454531452F76657274696365732E62696E504B0304140006080800B670623BF270F1330600000004000000360000006662782F38353834323741342D343835462D343034322D383541392D4331303331363839454531452F747269616E676C65732E62696E636660600000504B0304140006080000B670623B000000
310
000000000000000000370000006662782F38353834323741342D343835462D343034322D383541392D4331303331363839454531452F617474726962757465732E62696E504B0304140006080800B670623B08DA0BD19000000041010000360000006662782F38353834323741342D343835462D343034322D383541392D43
310
31303331363839454531452F6469726563746F72792E786D6C858F410AC3201045AF22B36F53E9A60B35CBEEBAE80D244E44489C6234F4F835464A48035D0DF398FF9F8AF63D0E6CC63039F212F8F9020C7D47C6792B21C5FE7403D62A1188E2E60C98D7234A5830286103A55745067B9D86B8A3CF9C7F90C11DE607FB1443
310
96D7B6A82D282E9A152AD114D5EF2CB866EEE831B8EEA07A7BB5A8D7D61A2BAAEB7FD5F70921FF497D00504B0304140006080800B670623BD9A3B367FE000000A00100003B0000006662782F38353834323741342D343835462D343034322D383541392D4331303331363839454531452F7265736F75726365732F636F7265
310
2E786D6C8D504B6E833010BD0A9A6D65B01D0201194711694FD00B586642AD043BF2A7EAF16B122AB5BB6E6646EFA3797AE2F8B5DC8A4FF4C1383B002B291468B59B8C9D0748F1420E501CA5F0CEC55F3228AC5A708015062966EFD27D83B4B3116DCCA875136EA00A012314FA968F0182FEC045952AC5AC08D7F2AEF455CD
310
58B232D3592745883E07289E4FD609D26370C96B0CA27AB252A464A64D63A6FCD35C0C7A904D73EE467EE664DCD58CD4ED4849D79C5A723ED1B7A61977AF2D6F45B59AA58866F9C9A83DAA8813484E6947182394BFB3BAA7FBBEDEBFD0434FA9A856F91F53BA4FFF342563E38E6F719FB60092E5200F428A6AED2BAF479979
310
AFDDCA6F504B010214000A0000080000B670623B3DEE336E79000000790000001B00000000000000000000000000000000006175746F6465736B2D64657369676E2D7061636B6167652E786D6C504B01021400140006080800B670623BD486FD9CA0000000F40000001300000000000000000000000000B20000005B436F6E
310
74656E745F54797065735D2E786D6C504B01021400140006080800B670623BCA089DFFEC0000007C010000080000000000000000000000000083010000636F72652E786D6C504B01021400140006080800B670623B55019EA25F0000007C000000070000000000000000000000000095020000636E782E786D6C504B010214
310
00140006080800B670623B68FC0B7272010000D40300000C00000000000000000000000000190300006662782F636F72652E786D6C504B01021400140006080800B670623B0F71DDB67E0000009D0000000B00000000000000000000000000B50400006662782F636E782E786D6C504B01021400140006080800B670623BE1
310
34B4FB280100001202000031000000000000000000000000005C0500006662782F38353834323741342D343835462D343034322D383541392D4331303331363839454531452F636F72652E786D6C504B01021400140006080800B670623B1B8617914E010000330300003000000000000000000000000000D3060000666278
310
2F38353834323741342D343835462D343034322D383541392D4331303331363839454531452F636E782E786D6C504B01021400140006080800B670623B5933D422630500003B10000034000000000000000000000000006F0800006662782F38353834323741342D343835462D343034322D383541392D4331303331363839
310
454531452F6F626A656374732E786D6C504B01021400140006080000B670623B0000000000000000000000003500000000000000000000000000240E00006662782F38353834323741342D343835462D343034322D383541392D4331303331363839454531452F76657274696365732E62696E504B01021400140006080800
310
B670623BF270F13306000000040000003600000000000000000000000000770E00006662782F38353834323741342D343835462D343034322D383541392D4331303331363839454531452F747269616E676C65732E62696E504B01021400140006080000B670623B0000000000000000000000003700000000000000000000
310
000000D10E00006662782F38353834323741342D343835462D343034322D383541392D4331303331363839454531452F617474726962757465732E62696E504B01021400140006080800B670623B08DA0BD190000000410100003600000000000000000000000000260F00006662782F38353834323741342D343835462D34
310
3034322D383541392D4331303331363839454531452F6469726563746F72792E786D6C504B01021400140006080800B670623BD9A3B367FE000000A00100003B000000000000000000000000000A1000006662782F38353834323741342D343835462D343034322D383541392D4331303331363839454531452F7265736F75
310
726365732F636F72652E786D6C504B0506000000000E000E0080040000611100000000
  0
XRECORD
  5
113
102
{ACAD_REACTORS
330
110
102
}
330
110
100
AcDbXrecord
280
     1
270
     1
271
     1
  0
XRECORD
  5
114
102
{ACAD_REACTORS
330
110
102
}
330
110
100
AcDbXrecord
280
     1
270
     1
271
     1
  0
CELLSTYLEMAP
  5
AAA3
102
{ACAD_REACTORS
330
104
102
}
330
104
100
AcDbCellStyleMap
 90
        3
300
CELLSTYLE
  1
TABLEFORMAT_BEGIN
 90
        5
170
     1
 91
        0
 92
    32768
 62
   257
 93
        1
300
CONTENTFORMAT
  1
CONTENTFORMAT_BEGIN
 90
        0
 91
        0
 92
      512
 93
        0
300

 40
0.0
140
1.0
 94
        5
 62
     0
340
11
144
0.25
309
CONTENTFORMAT_END
171
     1
301
MARGIN
  1
CELLMARGIN_BEGIN
 40
0.06
 40
0.06
 40
0.06
 40
0.06
 40
0.18
 40
0.18
309
CELLMARGIN_END
 94
        6
 95
        1
302
GRIDFORMAT
  1
GRIDFORMAT_BEGIN
 90
        0
 91
        1
 62
     0
 92
       -2
340
0
 93
        0
 40
0.045
309
GRIDFORMAT_END
 95
        2
302
GRIDFORMAT
  1
GRIDFORMAT_BEGIN
 90
        0
 91
        1
 62
     0
 92
       -2
340
0
 93
        0
 40
0.045
309
GRIDFORMAT_END
 95
        4
302
GRIDFORMAT
  1
GRIDFORMAT_BEGIN
 90
        0
 91
        1
 62
     0
 92
       -2
340
0
 93
        0
 40
0.045
309
GRIDFORMAT_END
 95
        8
302
GRIDFORMAT
  1
GRIDFORMAT_BEGIN
 90
        0
 91
        1
 62
     0
 92
       -2
340
0
 93
        0
 40
0.045
309
GRIDFORMAT_END
 95
       16
302
GRIDFORMAT
  1
GRIDFORMAT_BEGIN
 90
        0
 91
        1
 62
     0
 92
       -2
340
0
 93
        0
 40
0.045
309
GRIDFORMAT_END
 95
       32
302
GRIDFORMAT
  1
GRIDFORMAT_BEGIN
 90
        0
 91
        1
 62
     0
 92
       -2
340
0
 93
        0
 40
0.045
309
GRIDFORMAT_END
309
TABLEFORMAT_END
  1
CELLSTYLE_BEGIN
 90
        1
 91
        1
300
_TITLE
309
CELLSTYLE_END
300
CELLSTYLE
  1
TABLEFORMAT_BEGIN
 90
        5
170
     1
 91
        0
 92
        0
 62
   257
 93
        1
300
CONTENTFORMAT
  1
CONTENTFORMAT_BEGIN
 90
        0
 91
        0
 92
      512
 93
        0
300

 40
0.0
140
1.0
 94
        5
 62
     0
340
11
144
0.18
309
CONTENTFORMAT_END
171
     1
301
MARGIN
  1
CELLMARGIN_BEGIN
 40
0.06
 40
0.06
 40
0.06
 40
0.06
 40
0.18
 40
0.18
309
CELLMARGIN_END
 94
        6
 95
        1
302
GRIDFORMAT
  1
GRIDFORMAT_BEGIN
 90
        0
 91
        1
 62
     0
 92
       -2
340
0
 93
        0
 40
0.045
309
GRIDFORMAT_END
 95
        2
302
GRIDFORMAT
  1
GRIDFORMAT_BEGIN
 90
        0
 91
        1
 62
     0
 92
       -2
340
0
 93
        0
 40
0.045
309
GRIDFORMAT_END
 95
        4
302
GRIDFORMAT
  1
GRIDFORMAT_BEGIN
 90
        0
 91
        1
 62
     0
 92
       -2
340
0
 93
        0
 40
0.045
309
GRIDFORMAT_END
 95
        8
302
GRIDFORMAT
  1
GRIDFORMAT_BEGIN
 90
        0
 91
        1
 62
     0
 92
       -2
340
0
 93
        0
 40
0.045
309
GRIDFORMAT_END
 95
       16
302
GRIDFORMAT
  1
GRIDFORMAT_BEGIN
 90
        0
 91
        1
 62
     0
 92
       -2
340
0
 93
        0
 40
0.045
309
GRIDFORMAT_END
 95
       32
302
GRIDFORMAT
  1
GRIDFORMAT_BEGIN
 90
        0
 91
        1
 62
     0
 92
       -2
340
0
 93
        0
 40
0.045
309
GRIDFORMAT_END
309
TABLEFORMAT_END
  1
CELLSTYLE_BEGIN
 90
        2
 91
        1
300
_HEADER
309
CELLSTYLE_END
300
CELLSTYLE
  1
TABLEFORMAT_BEGIN
 90
        5
170
     1
 91
        0
 92
        0
 62
   257
 93
        1
300
CONTENTFORMAT
  1
CONTENTFORMAT_BEGIN
 90
        0
 91
        0
 92
      512
 93
        0
300

 40
0.0
140
1.0
 94
        2
 62
     0
340
11
144
0.18
309
CONTENTFORMAT_END
171
     1
301
MARGIN
  1
CELLMARGIN_BEGIN
 40
0.06
 40
0.06
 40
0.06
 40
0.06
 40
0.18
 40
0.18
309
CELLMARGIN_END
 94
        6
 95
        1
302
GRIDFORMAT
  1
GRIDFORMAT_BEGIN
 90
        0
 91
        1
 62
     0
 92
       -2
340
0
 93
        0
 40
0.045
309
GRIDFORMAT_END
 95
        2
302
GRIDFORMAT
  1
GRIDFORMAT_BEGIN
 90
        0
 91
        1
 62
     0
 92
       -2
340
0
 93
        0
 40
0.045
309
GRIDFORMAT_END
 95
        4
302
GRIDFORMAT
  1
GRIDFORMAT_BEGIN
 90
        0
 91
        1
 62
     0
 92
       -2
340
0
 93
        0
 40
0.045
309
GRIDFORMAT_END
 95
        8
302
GRIDFORMAT
  1
GRIDFORMAT_BEGIN
 90
        0
 91
        1
 62
     0
 92
       -2
340
0
 93
        0
 40
0.045
309
GRIDFORMAT_END
 95
       16
302
GRIDFORMAT
  1
GRIDFORMAT_BEGIN
 90
        0
 91
        1
 62
     0
 92
       -2
340
0
 93
        0
 40
0.045
309
GRIDFORMAT_END
 95
       32
302
GRIDFORMAT
  1
GRIDFORMAT_BEGIN
 90
        0
 91
        1
 62
     0
 92
       -2
340
0
 93
        0
 40
0.045
309
GRIDFORMAT_END
309
TABLEFORMAT_END
  1
CELLSTYLE_BEGIN
 90
        3
 91
        2
300
_DATA
309
CELLSTYLE_END
  0
ENDSEC
  0
SECTION
  2
ACDSDATA
 70
     2
 71
     8
  0
ACDSSCHEMA
 90
        0
  1
AcDb_Thumbnail_Schema
  2
AcDbDs::ID
280
    10
 91
        8
  2
Thumbnail_Data
280
    15
 91
        0
101
ACDSRECORD
 95
        0
 90
        1
  2
AcDbDs::TreatedAsObjectData
280
     1
291
     1
101
ACDSRECORD
 95
        0
 90
        2
  2
AcDbDs::Legacy
280
     1
291
     1
101
ACDSRECORD
  1
AcDbDs::ID
 90
        3
  2
AcDs:Indexable
280
     1
291
     1
101
ACDSRECORD
  1
AcDbDs::ID
 90
        4
  2
AcDbDs::HandleAttribute
280
     7
282
     1
  0
ACDSSCHEMA
 90
        1
  1
AcDbDs::TreatedAsObjectDataSchema
  2
AcDbDs::TreatedAsObjectData
280
     1
 91
        0
  0
ACDSSCHEMA
 90
        2
  1
AcDbDs::LegacySchema
  2
AcDbDs::Legacy
280
     1
 91
        0
  0
ACDSSCHEMA
 90
        3
  1
AcDbDs::IndexedPropertySchema
  2
AcDs:Indexable
280
     1
 91
        0
  0
ACDSSCHEMA
 90
        4
  1
AcDbDs::HandleAttributeSchema
  2
AcDbDs::HandleAttribute
280
     7
 91
        1
284
     1
  0
ACDSRECORD
 90
        0
  2
AcDbDs::ID
280
    10
320
22
  2
Thumbnail_Data
280
    15
 94
     2193
310
89504E470D0A1A0A0000000D49484452000001000000006D080300000079B14F6400000300504C5445212830FFFFFF2128300000000000000000000000000000000000000000000000000000330000660000990000CC0000FF0033000033330033660033990033CC0033FF0066000066330066660066990066CC0066FF0099
310
000099330099660099990099CC0099FF00CC0000CC3300CC6600CC9900CCCC00CCFF00FF0000FF3300FF6600FF9900FFCC00FFFF3300003300333300663300993300CC3300FF3333003333333333663333993333CC3333FF3366003366333366663366993366CC3366FF3399003399333399663399993399CC3399FF33CC00
310
33CC3333CC6633CC9933CCCC33CCFF33FF0033FF3333FF6633FF9933FFCC33FFFF6600006600336600666600996600CC6600FF6633006633336633666633996633CC6633FF6666006666336666666666996666CC6666FF6699006699336699666699996699CC6699FF66CC0066CC3366CC6666CC9966CCCC66CCFF66FF0066
310
FF3366FF6666FF9966FFCC66FFFF9900009900339900669900999900CC9900FF9933009933339933669933999933CC9933FF9966009966339966669966999966CC9966FF9999009999339999669999999999CC9999FF99CC0099CC3399CC6699CC9999CCCC99CCFF99FF0099FF3399FF6699FF9999FFCC99FFFFCC0000CC00
310
33CC0066CC0099CC00CCCC00FFCC3300CC3333CC3366CC3399CC33CCCC33FFCC6600CC6633CC6666CC6699CC66CCCC66FFCC9900CC9933CC9966CC9999CC99CCCC99FFCCCC00CCCC33CCCC66CCCC99CCCCCCCCCCFFCCFF00CCFF33CCFF66CCFF99CCFFCCCCFFFFFF0000FF0033FF0066FF0099FF00CCFF00FFFF3300FF3333
310
FF3366FF3399FF33CCFF33FFFF6600FF6633FF6666FF6699FF66CCFF66FFFF9900FF9933FF9966FF9999FF99CCFF99FFFFCC00FFCC33FFCC66FFCC99FFCCCCFFCCFFFFFF00FFFF33FFFF66FFFF99FFFFCCFFFFFF0000000D0D0D1A1A1A2828283535354343435050505D5D5D6B6B6B787878868686939393A1A1A1AEAEAEBB
310
BBBBC9C9C9D6D6D6E4E4E4F1F1F1FFFFFF0000000000000000000000000000000000000000000000000000000000002E4550F10000054C4944415478DAED9CDB921A310C44F5FFFF7BDE5315025852CB366429649679C95ED8143A23B55BB207B3EFF5DA8BDF1E3F5F02DF1A789612BF260390B17E48F5F0780620FF92632B
310
802AD4E16B0D80F17B8E4D800A002B00D7C8FFBEEED47AC0261970FB958B8E00E0F2CF310052E586E064094C015CBEC78E05A0942C94F52703F00418CBFAFE5A01005CEE732A8090025EE025006E718FB7FEE300D81280AF93830018FB0094E7B9DFF771F9FB100044119C02B850989BA6C3D64162068804F70062AE1CD022
310
640B5F02B8D7BB2E01D3000E33FF62B9670B4021014703B01030D75B2D01E8CEF06000D836004207705609C4858FF8E5D005AD000453500D4F4E05C013009A66002C01E0010C912500B1581C003B04405CEB0300863B3D02C01C009F3234AE8091C065FD8260E62CDCF635002C01A073ED0B699F00A83360B042A931A26FFC
310
59EB609A015CEF6900402901470070212300702B12BB9170AD0E59029600E8200243FFEE3C6F22B30B80D0145244DA636964B85F7EB22D4AE012E7BD16F422B209A08935506F93D0FC8EB145BDCF6E490140454F1715C8F709D1E10EEB203500C6C5AF4C00683421A901E4F18602E05FB459016F5C17A808B831BE17C6DC04
310
0E7A7713C5A4811400786FFC142A2000B85F15007C90CE4A91C1BE3DFE8A400430A8806B12AE0C861D609012E0078704DEEFACFFBCFA14AAAED820C482D83AEBCAE9127F4DA0A80109C03480A211F086E9FDF29FAAA00610543D15740900E124BBC4AF7641FC5AF032006D967FE42E807AABF030805A031BD91FB1FF4F74C3
310
6134520308E3E2AC81520D5A112035C1D920CE00500320FBAAB604920AEE6680EF9BF20E09FD1A8048806B22BB11216C00C04F40EA55B059FC61FBD3AD858361650F80584E9504F41A8C05027EF17200541A142E8FB48992BBCA9604520A10ED5154339946C3D84CCF54DB1248FB9D3F04803431ED4DE07F01A4BE0AD141F5
310
241053E0DFE47F0D409451D60C8A4EBC1F01DC64780920EB88B641C130B52410661DB7F92F2B009361409C21342D0231D00A004244FB00D2B4A83301FC04ECBA0552395B0100B508DCDD72DB4312BEABE551002800E9BC2C8D0F49C47E381C7A35F396B004301C15F71A48DF6530CC7E67007447EB76B8402DFCD06316BAAE
310
02E260640780851395A28D6E080059054E051D00EAA916FE2C60B6BE347482C5609C64E61200D01B9D7EC68052965EC310D458D41DFF2B00884C863900B7A8F4629053006FE9F1F3423DD64394C0207CE1498A56CA17CE32BBD5200250AA2F96135222344D80E86AB13D00D34A5600B0AE00F4143803D0AA396DAC884FCFBD
310
7B4B7C8AC01F05D200F65BF970A6147033E69E26D0F9769D01BBEF1E7572C21A9F1626EE885CC740247D9FF8A8F024219610363E2E7D5DABEE4FC7A237D0173E2ACD8083C2343E2FEE838275C93F0C80CEA78503812D00B60BC0BA03C883BE1A00F5D31FE4F192DA7EEFAB825916997450D84609940FE175F602833D6292F8
310
D41FA4509D8B6E2D019083791A00E701B89D7F5706D9A9432C0664432CFEB6F722F06FED67E272922B9A011096A13D00EF0328D49FE50F4C9FC06B0FC0B72D1500B60044F93F04407A5CA672480580DA34DB11007CD4C4015F88377F82C622013A3D1FB376F744C32716BD6700B4BF723E07ADA7B6C4549D62FE248DCF0450
310
37CE7610001600CC6C22FEB3FF93333E6492221526CDFF222ECEF9F8884D00D126B3ADAC7610009B00782C1A944A1E44802CF10F46735606BC00807D02807824ECA9FD8D2F809301D86F2F81CAE7FF0200CB1FEC5880DF0980C55EE2214EE83F12F90BE013013C24012702D8EF6D3E34038C47EEEAE7AD823F9A0147C6FFB2
310
37FA05700C80575DF6BD7EFCFA035DCB896047DBDD1D0000000049454E44AE426082
  0
ENDSEC
  0
EOF
